999
DXF file: C:\Aktuell-Internet\CAD-Daten-NEU\2vmoeh-4.dxf
999
Pro/ENGINEER 2001400 by Parametric Technology Corporation
0
SECTION
2
HEADER
9
$ACADVER
1
AC1014
9
$EXTMAX
10
420.0000000000
20
297.0000000000
9
$EXTMIN
10
0.0000000000
20
0.0000000000
9
$LIMMIN
10
0.0000000000
20
0.0000000000
9
$LIMMAX
10
420.0000000000
20
297.0000000000
9
$VIEWCTR
10
210.0000000000
20
148.5000000000
9
$VIEWSIZE
40
297.0000000000
9
$CLAYER
8
0
9
$LTSCALE
40
23.1000000000
9
$CELTYPE
6
BYLAYER
9
$DIMSCALE
40
1
9
$DIMASZ
40
3.5000000000
9
$DIMEXO
40
2.6250000000
9
$DIMDLI
40
15.9600000000
9
$DIMEXE
40
7.5600000000
9
$DIMCEN
40
3.7800000000
9
$DIMLFAC
40
1.0000000000
9
$DIMTXT
40
3.5000000000
9
$DIMTOL
70
1
9
$DIMTFAC
40
0.6000000000
9
$DIMTP
40
0.0050000000
9
$DIMTM
40
0.0050000000
9
$HANDSEED
5
2D4
0
ENDSEC
0
SECTION
2
CLASSES
0
ENDSEC
0
SECTION
2
TABLES
0
TABLE
2
VPORT
5
8
100
AcDbSymbolTable
70
2
0
VPORT
5
1F4
100
AcDbSymbolTableRecord
100
AcDbViewportTableRecord
2
*ACTIVE
70
0
10
0.0
20
0.0
11
1.0
21
1.0
12
210.0000000000
22
148.5000000000
13
0.0
23
0.0
14
1.0
24
1.0
15
0.0
25
0.0
16
0.0
26
0.0
36
1.0
17
0.0
27
0.0
37
0.0
40
297.0000000000
41
1.4141414141
42
50.0
43
0.0
44
0.0
50
0.0
51
0.0
71
0
72
100
73
1
74
1
75
0
76
0
77
0
78
0
0
ENDTAB
0
TABLE
2
LTYPE
5
5
100
AcDbSymbolTable
70
6
0
LTYPE
5
14
100
AcDbSymbolTableRecord
100
AcDbLinetypeTableRecord
2
BYBLOCK
70
0
3

72
65
73
0
40
0.0
0
LTYPE
5
15
100
AcDbSymbolTableRecord
100
AcDbLinetypeTableRecord
2
BYLAYER
70
0
3

72
65
73
0
40
0.0
0
LTYPE
5
16
100
AcDbSymbolTableRecord
100
AcDbLinetypeTableRecord
2
CONTINUOUS
70
64
3
Solid line
72
65
73
0
40
0
0
LTYPE
5
1F5
100
AcDbSymbolTableRecord
100
AcDbLinetypeTableRecord
2
CENTER
70
64
3
____ _ ____ _ ____ _ ____ _ ____ _ ____ _ ____
72
65
73
4
40
0.6
49
0.375
74
0
49
-0.075
74
0
49
0.075
74
0
49
-0.075
74
0
0
LTYPE
5
1F6
100
AcDbSymbolTableRecord
100
AcDbLinetypeTableRecord
2
HIDDEN
70
64
3
- - - - - - - - - - - - - - - - - - - -
72
65
73
2
40
0.2
49
0.1
74
0
49
-0.1
74
0
0
LTYPE
5
1F7
100
AcDbSymbolTableRecord
100
AcDbLinetypeTableRecord
2
PHANTOM
70
64
3
_____ _ _ _____ _ _ _____ _ _ _____
72
65
73
6
40
0.8
49
0.45
74
0
49
-0.05
74
0
49
0.1
74
0
49
-0.05
74
0
49
0.1
74
0
49
-0.05
74
0
0
LTYPE
5
1F8
100
AcDbSymbolTableRecord
100
AcDbLinetypeTableRecord
2
DOT
70
64
3
. . . . . . . . . . . . . . . . . . . .
72
65
73
2
40
0.2
49
0.1
74
0
49
-0.1
74
0
0
LTYPE
5
1F9
100
AcDbSymbolTableRecord
100
AcDbLinetypeTableRecord
2
DASHED
70
64
3
- - - - - - - - - - - - - - - - - - - -
72
65
73
2
40
0.2
49
0.1
74
0
49
-0.1
74
0
0
ENDTAB
0
TABLE
2
LAYER
5
2
100
AcDbSymbolTable
70
36
0
LAYER
5
10
100
AcDbSymbolTableRecord
100
AcDbLayerTableRecord
2
0
70
0
62
7
6
CONTINUOUS
0
LAYER
5
1FA
100
AcDbSymbolTableRecord
100
AcDbLayerTableRecord
2
DEFAULT_1
70
0
62
7
6
CENTER
0
LAYER
5
1FB
100
AcDbSymbolTableRecord
100
AcDbLayerTableRecord
2
DEFAULT_2
70
0
62
8
6
HIDDEN
0
LAYER
5
1FC
100
AcDbSymbolTableRecord
100
AcDbLayerTableRecord
2
DEFAULT_3
70
0
62
7
6
PHANTOM
0
LAYER
5
1FD
100
AcDbSymbolTableRecord
100
AcDbLayerTableRecord
2
ZEICHNUNGSBEMASSUNGEN
70
0
62
7
6
CONTINUOUS
0
ENDTAB
0
TABLE
2
STYLE
5
3
100
AcDbSymbolTable
70
1
0
STYLE
5
11
100
AcDbSymbolTableRecord
100
AcDbTextStyleTableRecord
2
STANDARD
70
0
40
0.0
41
1.0
50
0.0
71
0
42
0.0
3
txt
4

0
STYLE
5
1FE
100
AcDbSymbolTableRecord
100
AcDbTextStyleTableRecord
2
TEXTSTYLE_0
70
0
40
0.0
41
0.80
50
0.0
71
0
42
0.2
3
txt
4

0
ENDTAB
0
TABLE
2
VIEW
5
6
100
AcDbSymbolTable
70
0
0
ENDTAB
0
TABLE
2
UCS
5
7
100
AcDbSymbolTable
70
0
0
ENDTAB
0
TABLE
2
APPID
5
9
100
AcDbSymbolTable
70
1
0
APPID
5
1FF
100
AcDbSymbolTableRecord
100
AcDbRegAppTableRecord
2
ACAD
70
0
0
ENDTAB
0
TABLE
2
DIMSTYLE
5
A
100
AcDbSymbolTable
70
1
0
DIMSTYLE
105
200
100
AcDbSymbolTableRecord
100
AcDbDimStyleTableRecord
2
STANDARD
70
0
3

4

5

6

7

40
1.0
41
0.18
42
0.0625
43
0.38
44
0.18
45
0.0
46
0.0
47
0.0050000000
48
0.0050000000
140
3.5000000000
141
0.09
142
0.0
143
25.4
144
1.0000000000
145
0.0
146
0.6000000000
147
0.09
71
1
72
0
73
1
74
1
75
0
76
0
77
0
78
0
170
0
171
2
172
0
173
0
174
0
175
0
176
0
177
0
178
0
270
2
271
3
272
4
273
2
274
2
340
11
275
0
280
0
281
0
282
0
283
1
284
0
285
0
286
0
287
3
288
0
0
ENDTAB
0
TABLE
2
BLOCK_RECORD
5
1
100
AcDbSymbolTable
70
0
0
BLOCK_RECORD
5
1B
100
AcDbSymbolTableRecord
100
AcDbBlockTableRecord
2
*MODEL_SPACE
0
BLOCK_RECORD
5
1C
100
AcDbSymbolTableRecord
100
AcDbBlockTableRecord
2
*PAPER_SPACE
0
ENDTAB
0
ENDSEC
0
SECTION
2
BLOCKS
0
BLOCK
5
1E
100
AcDbEntity
8
0
100
AcDbBlockBegin
2
*MODEL_SPACE
70
0
10
0.0
20
0.0
30
0.0
3
*MODEL_SPACE
1

0
ENDBLK
5
1F
100
AcDbEntity
8
0
100
AcDbBlockEnd
0
BLOCK
5
20
100
AcDbEntity
8
0
100
AcDbBlockBegin
2
*PAPER_SPACE
70
0
10
0.0
20
0.0
30
0.0
3
*PAPER_SPACE
1

0
ENDBLK
5
21
100
AcDbEntity
8
0
100
AcDbBlockEnd
0
ENDSEC
0
SECTION
2
ENTITIES
0
TEXT
5
201
100
AcDbEntity
8
0
100
AcDbText
62
2
6
CONTINUOUS
10
116.1796322840
20
105.8379016169
7
TEXTSTYLE_0
40
3.5000000000
1
RUD
72
5
11
124.8462986200
21
105.8379016169
100
AcDbText
0
TEXT
5
202
100
AcDbEntity
8
0
100
AcDbText
62
2
6
CONTINUOUS
10
133.2562334064
20
111.4665019869
7
TEXTSTYLE_0
40
3.5000000000
1
VMÖH 4/VIP
50
90.0000000000
72
5
11
133.2562334064
21
138.6665019869
100
AcDbText
0
TEXT
5
203
100
AcDbEntity
8
0
100
AcDbText
62
2
6
CONTINUOUS
10
293.4657063143
20
140.1991158916
7
TEXTSTYLE_0
40
3.5000000000
1
RUD
50
90.0000000000
72
5
11
293.4657063143
21
148.8657825583
100
AcDbText
0
TEXT
5
204
100
AcDbEntity
8
0
100
AcDbText
62
2
6
CONTINUOUS
10
300.5878444043
20
113.6607021311
7
TEXTSTYLE_0
40
3.5000000000
1
VMÖH    4/VIP
50
90.0000000000
72
5
11
300.5878444043
21
149.1107021311
100
AcDbText
0
LINE
5
205
100
AcDbEntity
8
0
100
AcDbLine
62
7
6
CONTINUOUS
10
0.0000000000
20
0.0000000000
11
0.0000000000
21
297.0000000000
0
LINE
5
206
100
AcDbEntity
8
0
100
AcDbLine
62
7
6
CONTINUOUS
10
0.0000000000
20
0.0000000000
11
420.0000000000
21
0.0000000000
0
LINE
5
207
100
AcDbEntity
8
0
100
AcDbLine
62
7
6
CONTINUOUS
10
0.0000000000
20
297.0000000000
11
420.0000000000
21
297.0000000000
0
LINE
5
208
100
AcDbEntity
8
0
100
AcDbLine
62
7
6
CONTINUOUS
10
420.0000000000
20
0.0000000000
11
420.0000000000
21
297.0000000000
0
LINE
5
209
100
AcDbEntity
8
0
100
AcDbLine
62
7
6
CONTINUOUS
10
97.1579943820
20
162.5147318423
11
98.8510080423
21
164.0391281891
0
LINE
5
20A
100
AcDbEntity
8
0
100
AcDbLine
62
7
6
CONTINUOUS
10
92.6216121962
20
128.4748631358
11
98.6162667980
21
126.8686002764
0
LINE
5
20B
100
AcDbEntity
8
0
100
AcDbLine
62
7
6
CONTINUOUS
10
93.2382687388
20
133.4514076332
11
93.6170879964
21
133.1648583192
0
LINE
5
20C
100
AcDbEntity
8
0
100
AcDbLine
62
7
6
CONTINUOUS
10
102.6436448250
20
119.2769504023
11
98.2086178685
21
127.9811808993
0
LINE
5
20D
100
AcDbEntity
8
0
100
AcDbLine
62
7
6
CONTINUOUS
10
93.4452582012
20
129.8861505108
11
95.1607353125
21
162.6194037548
0
LINE
5
20E
100
AcDbEntity
8
0
100
AcDbLine
62
7
6
CONTINUOUS
10
92.6216121962
20
128.4748631358
11
93.0669082976
21
133.5646208645
0
LINE
5
20F
100
AcDbEntity
8
0
100
AcDbLine
62
7
6
CONTINUOUS
10
93.4452582012
20
129.8861505108
11
97.9390911076
21
129.6506387077
0
LINE
5
210
100
AcDbEntity
8
0
100
AcDbLine
62
7
6
CONTINUOUS
10
98.6175797625
20
142.5969734722
11
97.9390911076
21
129.6506387077
0
LINE
5
211
100
AcDbEntity
8
0
100
AcDbLine
62
7
6
CONTINUOUS
10
99.4173745965
20
145.0584888660
11
107.1439145010
21
156.9563169564
0
LINE
5
212
100
AcDbEntity
8
DEFAULT_1
100
AcDbLine
62
2
6
CENTER
10
113.7812263773
20
178.4518316490
11
113.7812263773
21
98.2545221202
0
LINE
5
213
100
AcDbEntity
8
DEFAULT_1
100
AcDbLine
62
2
6
CENTER
10
113.7812263773
20
178.4518316490
11
113.7812263773
21
196.7908964156
0
LINE
5
214
100
AcDbEntity
8
0
100
AcDbLine
62
7
6
CONTINUOUS
10
116.0998206569
20
141.6351864223
11
123.3567819163
21
132.9866767701
0
LINE
5
215
100
AcDbEntity
8
0
100
AcDbLine
62
7
6
CONTINUOUS
10
110.9467710572
20
153.6586628139
11
108.8097442482
21
161.6341554422
0
LINE
5
216
100
AcDbEntity
8
0
100
AcDbLine
62
7
6
CONTINUOUS
10
108.8001495059
20
151.5427835866
11
104.3948783124
21
152.7231724454
0
LINE
5
217
100
AcDbEntity
8
0
100
AcDbLine
62
7
6
CONTINUOUS
10
100.6280839131
20
167.6817414305
11
101.2775058880
21
166.9341507225
0
LINE
5
218
100
AcDbEntity
8
0
100
AcDbLine
62
7
6
CONTINUOUS
10
123.1253635309
20
138.7075038563
11
111.5464152067
21
152.5067571201
0
LINE
5
219
100
AcDbEntity
8
0
100
AcDbLine
62
7
6
CONTINUOUS
10
120.7629307741
20
149.8298154048
11
120.7629307741
21
162.7436292202
0
LINE
5
21A
100
AcDbEntity
8
0
100
AcDbLine
62
7
6
CONTINUOUS
10
122.2273968681
20
152.4467866552
11
133.2517891258
21
141.4223943975
0
LINE
5
21B
100
AcDbEntity
8
0
100
AcDbLine
62
7
6
CONTINUOUS
10
97.1579943820
20
162.5147318423
11
95.1607353125
21
162.6194037548
0
LINE
5
21C
100
AcDbEntity
8
0
100
AcDbLine
62
7
6
CONTINUOUS
10
121.8125316510
20
173.4518316490
11
129.4677378440
21
173.4518316490
0
LINE
5
21D
100
AcDbEntity
8
DEFAULT_1
100
AcDbLine
62
2
6
CENTER
10
113.7812263773
20
178.4518316490
11
95.2779650461
21
178.4518316490
0
LINE
5
21E
100
AcDbEntity
8
DEFAULT_1
100
AcDbLine
62
2
6
CENTER
10
113.7812263773
20
178.4518316490
11
131.4714663251
21
178.4518316490
0
LINE
5
21F
100
AcDbEntity
8
0
100
AcDbLine
62
7
6
CONTINUOUS
10
121.8125316510
20
183.4518316490
11
129.4677378440
21
183.4518316490
0
LINE
5
220
100
AcDbEntity
8
0
100
AcDbLine
62
7
6
CONTINUOUS
10
292.6771210998
20
100.4518316490
11
298.0771210998
21
100.4518316490
0
LINE
5
221
100
AcDbEntity
8
0
100
AcDbLine
62
7
6
CONTINUOUS
10
292.9722555908
20
133.8429214714
11
292.9755640190
21
133.8429224579
0
LINE
5
222
100
AcDbEntity
8
0
100
AcDbLine
62
7
6
CONTINUOUS
10
292.9814693912
20
133.8429225168
11
297.7727728083
21
133.8429225168
0
LINE
5
223
100
AcDbEntity
8
0
100
AcDbLine
62
7
6
CONTINUOUS
10
297.3771210998
20
134.8792981846
11
293.3771210998
21
134.8792981846
0
LINE
5
224
100
AcDbEntity
8
0
100
AcDbLine
62
7
6
CONTINUOUS
10
297.7819866088
20
133.8429214714
11
297.7790170188
21
133.8429225040
0
LINE
5
225
100
AcDbEntity
8
0
100
AcDbLine
62
7
6
CONTINUOUS
10
299.8856672801
20
133.4551069984
11
299.8882451014
21
133.4540535291
0
LINE
5
226
100
AcDbEntity
8
0
100
AcDbLine
62
7
6
CONTINUOUS
10
289.3771358769
20
131.2283456206
11
289.3771211057
21
131.2367760006
0
LINE
5
227
100
AcDbEntity
8
0
100
AcDbLine
62
7
6
CONTINUOUS
10
286.3771210998
20
153.5834841466
11
286.3771210998
21
170.3008411671
0
LINE
5
228
100
AcDbEntity
8
0
100
AcDbLine
62
7
6
CONTINUOUS
10
286.4771210998
20
157.4525443924
11
286.4771210998
21
162.4511189056
0
LINE
5
229
100
AcDbEntity
8
0
100
AcDbLine
62
7
6
CONTINUOUS
10
286.8771210998
20
145.5774600196
11
286.8771210998
21
165.4516237238
0
LINE
5
22A
100
AcDbEntity
8
0
100
AcDbLine
62
7
6
CONTINUOUS
10
288.8771210998
20
162.6194037548
11
288.8771210998
21
165.4515851742
0
LINE
5
22B
100
AcDbEntity
8
0
100
AcDbLine
62
7
6
CONTINUOUS
10
300.2986939750
20
161.4213004987
11
301.4984414433
21
162.6194037548
0
LINE
5
22C
100
AcDbEntity
8
0
100
AcDbLine
62
7
6
CONTINUOUS
10
286.8771210998
20
151.5858062452
11
286.4111952735
21
153.3246651015
0
LINE
5
22D
100
AcDbEntity
8
0
100
AcDbLine
62
7
6
CONTINUOUS
10
286.9943488715
20
145.0584888660
11
286.8771210998
21
145.5774600196
0
LINE
5
22E
100
AcDbEntity
8
0
100
AcDbLine
62
7
6
CONTINUOUS
10
287.5412238715
20
142.5969734722
11
289.7443882751
21
132.5391675595
0
POLYLINE
5
22F
100
AcDbEntity
8
0
100
AcDb2dPolyline
62
7
6
CONTINUOUS
66
1
70
0
0
VERTEX
5
230
100
AcDbEntity
8
0
100
AcDbVertex
62
7
6
CONTINUOUS
100
AcDb2dVertex
10
291.6271210998
20
158.5967496350
0
VERTEX
5
231
100
AcDbEntity
8
0
100
AcDbVertex
62
7
6
CONTINUOUS
100
AcDb2dVertex
10
291.6666347050
20
158.0585408108
0
VERTEX
5
232
100
AcDbEntity
8
0
100
AcDbVertex
62
7
6
CONTINUOUS
100
AcDb2dVertex
10
291.7790224487
20
157.5417004394
0
VERTEX
5
233
100
AcDbEntity
8
0
100
AcDbVertex
62
7
6
CONTINUOUS
100
AcDb2dVertex
10
291.9665294223
20
157.0413191938
0
VERTEX
5
234
100
AcDbEntity
8
0
100
AcDbVertex
62
7
6
CONTINUOUS
100
AcDb2dVertex
10
292.2224203517
20
156.5721250550
0
VERTEX
5
235
100
AcDbEntity
8
0
100
AcDbVertex
62
7
6
CONTINUOUS
100
AcDb2dVertex
10
292.5434991277
20
156.1447671875
0
VERTEX
5
236
100
AcDbEntity
8
0
100
AcDbVertex
62
7
6
CONTINUOUS
100
AcDb2dVertex
10
292.9213933475
20
155.7665727132
0
VERTEX
5
237
100
AcDbEntity
8
0
100
AcDbVertex
62
7
6
CONTINUOUS
100
AcDb2dVertex
10
293.3500320330
20
155.4468602166
0
VERTEX
5
238
100
AcDbEntity
8
0
100
AcDbVertex
62
7
6
CONTINUOUS
100
AcDb2dVertex
10
293.8193148010
20
155.1903044738
0
VERTEX
5
239
100
AcDbEntity
8
0
100
AcDbVertex
62
7
6
CONTINUOUS
100
AcDb2dVertex
10
294.3207876390
20
155.0041385532
0
VERTEX
5
23A
100
AcDbEntity
8
0
100
AcDbVertex
62
7
6
CONTINUOUS
100
AcDb2dVertex
10
294.8434404562
20
154.8900061625
0
VERTEX
5
23B
100
AcDbEntity
8
0
100
AcDbVertex
62
7
6
CONTINUOUS
100
AcDb2dVertex
10
295.3771210998
20
154.8524688736
0
VERTEX
5
23C
100
AcDbEntity
8
0
100
AcDbVertex
62
7
6
CONTINUOUS
100
AcDb2dVertex
10
295.9108017433
20
154.8900061625
0
VERTEX
5
23D
100
AcDbEntity
8
0
100
AcDbVertex
62
7
6
CONTINUOUS
100
AcDb2dVertex
10
296.4334545605
20
155.0041385532
0
VERTEX
5
23E
100
AcDbEntity
8
0
100
AcDbVertex
62
7
6
CONTINUOUS
100
AcDb2dVertex
10
296.9349273985
20
155.1903044738
0
VERTEX
5
23F
100
AcDbEntity
8
0
100
AcDbVertex
62
7
6
CONTINUOUS
100
AcDb2dVertex
10
297.4042101665
20
155.4468602166
0
VERTEX
5
240
100
AcDbEntity
8
0
100
AcDbVertex
62
7
6
CONTINUOUS
100
AcDb2dVertex
10
297.8328488521
20
155.7665727132
0
VERTEX
5
241
100
AcDbEntity
8
0
100
AcDbVertex
62
7
6
CONTINUOUS
100
AcDb2dVertex
10
298.2107430719
20
156.1447671875
0
VERTEX
5
242
100
AcDbEntity
8
0
100
AcDbVertex
62
7
6
CONTINUOUS
100
AcDb2dVertex
10
298.5318218479
20
156.5721250550
0
VERTEX
5
243
100
AcDbEntity
8
0
100
AcDbVertex
62
7
6
CONTINUOUS
100
AcDb2dVertex
10
298.7877127773
20
157.0413191938
0
VERTEX
5
244
100
AcDbEntity
8
0
100
AcDbVertex
62
7
6
CONTINUOUS
100
AcDb2dVertex
10
298.9752197508
20
157.5417004394
0
VERTEX
5
245
100
AcDbEntity
8
0
100
AcDbVertex
62
7
6
CONTINUOUS
100
AcDb2dVertex
10
299.0876074945
20
158.0585408108
0
VERTEX
5
246
100
AcDbEntity
8
0
100
AcDbVertex
62
7
6
CONTINUOUS
100
AcDb2dVertex
10
299.1271210998
20
158.5967496350
0
SEQEND
5
247
100
AcDbEntity
8
0
0
POLYLINE
5
248
100
AcDbEntity
8
0
100
AcDb2dPolyline
62
7
6
CONTINUOUS
66
1
70
0
0
VERTEX
5
249
100
AcDbEntity
8
0
100
AcDbVertex
62
7
6
CONTINUOUS
100
AcDb2dVertex
10
291.6271210998
20
158.5967496350
0
VERTEX
5
24A
100
AcDbEntity
8
0
100
AcDbVertex
62
7
6
CONTINUOUS
100
AcDb2dVertex
10
291.5918858767
20
159.1224852791
0
VERTEX
5
24B
100
AcDbEntity
8
0
100
AcDbVertex
62
7
6
CONTINUOUS
100
AcDb2dVertex
10
291.4908244049
20
159.6306070054
0
VERTEX
5
24C
100
AcDbEntity
8
0
100
AcDbVertex
62
7
6
CONTINUOUS
100
AcDb2dVertex
10
291.3222346721
20
160.1252182035
0
VERTEX
5
24D
100
AcDbEntity
8
0
100
AcDbVertex
62
7
6
CONTINUOUS
100
AcDb2dVertex
10
291.0912227149
20
160.5940087045
0
VERTEX
5
24E
100
AcDbEntity
8
0
100
AcDbVertex
62
7
6
CONTINUOUS
100
AcDb2dVertex
10
290.8028945698
20
161.0246683397
0
VERTEX
5
24F
100
AcDbEntity
8
0
100
AcDbVertex
62
7
6
CONTINUOUS
100
AcDb2dVertex
10
290.4555482245
20
161.4213004987
0
SEQEND
5
250
100
AcDbEntity
8
0
0
LINE
5
251
100
AcDbEntity
8
0
100
AcDbLine
62
7
6
CONTINUOUS
10
289.3771210998
20
108.4785638017
11
289.3771210998
21
134.2158022952
0
LINE
5
252
100
AcDbEntity
8
0
100
AcDbLine
62
7
6
CONTINUOUS
10
291.3771210998
20
191.4517427235
11
291.3771210998
21
175.0162406557
0
LINE
5
253
100
AcDbEntity
8
0
100
AcDbLine
62
7
6
CONTINUOUS
10
291.3771210998
20
101.7520280275
11
291.3771210998
21
102.2251327066
0
LINE
5
254
100
AcDbEntity
8
0
100
AcDbLine
62
7
6
CONTINUOUS
10
292.1271210998
20
156.7468629815
11
292.1271210998
21
168.9109505193
0
POLYLINE
5
255
100
AcDbEntity
8
0
100
AcDb2dPolyline
62
7
6
CONTINUOUS
66
1
70
0
0
VERTEX
5
256
100
AcDbEntity
8
0
100
AcDbVertex
62
7
6
CONTINUOUS
100
AcDb2dVertex
10
300.2986939750
20
161.4213004987
0
VERTEX
5
257
100
AcDbEntity
8
0
100
AcDbVertex
62
7
6
CONTINUOUS
100
AcDb2dVertex
10
299.9513476298
20
161.0246683397
0
VERTEX
5
258
100
AcDbEntity
8
0
100
AcDbVertex
62
7
6
CONTINUOUS
100
AcDb2dVertex
10
299.6630194846
20
160.5940087045
0
VERTEX
5
259
100
AcDbEntity
8
0
100
AcDbVertex
62
7
6
CONTINUOUS
100
AcDb2dVertex
10
299.4320075274
20
160.1252182035
0
VERTEX
5
25A
100
AcDbEntity
8
0
100
AcDbVertex
62
7
6
CONTINUOUS
100
AcDb2dVertex
10
299.2634177946
20
159.6306070054
0
VERTEX
5
25B
100
AcDbEntity
8
0
100
AcDbVertex
62
7
6
CONTINUOUS
100
AcDb2dVertex
10
299.1623563228
20
159.1224852791
0
VERTEX
5
25C
100
AcDbEntity
8
0
100
AcDbVertex
62
7
6
CONTINUOUS
100
AcDb2dVertex
10
299.1271210998
20
158.5967496350
0
SEQEND
5
25D
100
AcDbEntity
8
0
0
LINE
5
25E
100
AcDbEntity
8
0
100
AcDbLine
62
7
6
CONTINUOUS
10
293.3771210998
20
133.8429225168
11
293.3771210998
21
134.8792981846
0
LINE
5
25F
100
AcDbEntity
8
DEFAULT_1
100
AcDbLine
62
2
6
CENTER
10
295.3771210998
20
187.4518316490
11
295.3771210998
21
98.2545221202
0
LINE
5
260
100
AcDbEntity
8
DEFAULT_1
100
AcDbLine
62
2
6
CENTER
10
295.3771210998
20
187.4518316490
11
295.3771210998
21
196.9640710629
0
LINE
5
261
100
AcDbEntity
8
0
100
AcDbLine
62
7
6
CONTINUOUS
10
297.3771210998
20
133.8429225168
11
297.3771210998
21
134.8792981846
0
LINE
5
262
100
AcDbEntity
8
0
100
AcDbLine
62
7
6
CONTINUOUS
10
298.6271210998
20
156.7468629815
11
298.6271210998
21
168.9109505193
0
LINE
5
263
100
AcDbEntity
8
0
100
AcDbLine
62
7
6
CONTINUOUS
10
299.3771210998
20
191.4517427235
11
299.3771210998
21
175.0162406557
0
LINE
5
264
100
AcDbEntity
8
0
100
AcDbLine
62
7
6
CONTINUOUS
10
299.3771210998
20
101.7520280275
11
299.3771210998
21
102.2251327066
0
LINE
5
265
100
AcDbEntity
8
0
100
AcDbLine
62
7
6
CONTINUOUS
10
301.3771210998
20
108.4785638017
11
301.3771210998
21
134.2158022952
0
LINE
5
266
100
AcDbEntity
8
0
100
AcDbLine
62
7
6
CONTINUOUS
10
301.8771210998
20
162.6194037548
11
301.8771210998
21
165.4515851742
0
LINE
5
267
100
AcDbEntity
8
0
100
AcDbLine
62
7
6
CONTINUOUS
10
289.2558007562
20
162.6194037548
11
290.4555482245
21
161.4213004987
0
LINE
5
268
100
AcDbEntity
8
0
100
AcDbLine
62
7
6
CONTINUOUS
10
303.8771210998
20
145.5774600196
11
303.8771210998
21
165.4516237238
0
LINE
5
269
100
AcDbEntity
8
0
100
AcDbLine
62
7
6
CONTINUOUS
10
304.2771210998
20
157.4525443924
11
304.2771210998
21
162.4511189056
0
LINE
5
26A
100
AcDbEntity
8
0
100
AcDbLine
62
7
6
CONTINUOUS
10
304.3771210998
20
153.5834841466
11
304.3771210998
21
170.3008411671
0
LINE
5
26B
100
AcDbEntity
8
0
100
AcDbLine
62
7
6
CONTINUOUS
10
303.2130183281
20
142.5969734722
11
301.0098805590
21
132.5392891507
0
LINE
5
26C
100
AcDbEntity
8
0
100
AcDbLine
62
7
6
CONTINUOUS
10
303.7598933281
20
145.0584888660
11
303.8771210998
21
145.5774600196
0
LINE
5
26D
100
AcDbEntity
8
0
100
AcDbLine
62
7
6
CONTINUOUS
10
303.8771210998
20
151.5858062452
11
304.3430469261
21
153.3246651015
0
LINE
5
26E
100
AcDbEntity
8
0
100
AcDbLine
62
7
6
CONTINUOUS
10
304.2771210998
20
157.4518316490
11
303.8771210998
21
157.4518316490
0
LINE
5
26F
100
AcDbEntity
8
0
100
AcDbLine
62
7
6
CONTINUOUS
10
286.8771210998
20
157.4518316490
11
286.4771210998
21
157.4518316490
0
LINE
5
270
100
AcDbEntity
8
0
100
AcDbLine
62
7
6
CONTINUOUS
10
299.0426582654
20
157.8518316490
11
298.6271210998
21
157.8518316490
0
LINE
5
271
100
AcDbEntity
8
0
100
AcDbLine
62
7
6
CONTINUOUS
10
292.1271210998
20
157.8518316490
11
291.7115839342
21
157.8518316490
0
LINE
5
272
100
AcDbEntity
8
0
100
AcDbLine
62
7
6
CONTINUOUS
10
290.8684230555
20
133.4550455314
11
290.8659803399
21
133.4540466102
0
LINE
5
273
100
AcDbEntity
8
0
100
AcDbLine
62
7
6
CONTINUOUS
10
300.9300904322
20
162.0518316490
11
298.6271210998
21
162.0518316490
0
LINE
5
274
100
AcDbEntity
8
0
100
AcDbLine
62
7
6
CONTINUOUS
10
292.1271210998
20
162.0518316490
11
289.8241517673
21
162.0518316490
0
LINE
5
275
100
AcDbEntity
8
0
100
AcDbLine
62
7
6
CONTINUOUS
10
304.2771210998
20
162.4518316490
11
303.8771210998
21
162.4518316490
0
LINE
5
276
100
AcDbEntity
8
0
100
AcDbLine
62
7
6
CONTINUOUS
10
286.8771210998
20
162.4518316490
11
286.4771210998
21
162.4518316490
0
LINE
5
277
100
AcDbEntity
8
0
100
AcDbLine
62
7
6
CONTINUOUS
10
288.8771210998
20
162.6194037548
11
289.2558007562
21
162.6194037548
0
LINE
5
278
100
AcDbEntity
8
0
100
AcDbLine
62
7
6
CONTINUOUS
10
301.4984414433
20
162.6194037548
11
301.8771210998
21
162.6194037548
0
LINE
5
279
100
AcDbEntity
8
0
100
AcDbLine
62
7
6
CONTINUOUS
10
303.2753700972
20
166.4509074966
11
303.2756141044
21
166.4509144075
0
LINE
5
27A
100
AcDbEntity
8
0
100
AcDbLine
62
7
6
CONTINUOUS
10
303.2409869378
20
166.4504245811
11
303.2753700972
21
166.4509074966
0
LINE
5
27B
100
AcDbEntity
8
0
100
AcDbLine
62
7
6
CONTINUOUS
10
303.3187770030
20
166.4518316427
11
303.3184861059
21
166.4518315789
0
LINE
5
27C
100
AcDbEntity
8
0
100
AcDbLine
62
7
6
CONTINUOUS
10
286.8771210998
20
165.4518316490
11
288.8771210998
21
165.4518316490
0
LINE
5
27D
100
AcDbEntity
8
0
100
AcDbLine
62
7
6
CONTINUOUS
10
301.8771210998
20
165.4518316490
11
303.8771210998
21
165.4518316490
0
LINE
5
27E
100
AcDbEntity
8
0
100
AcDbLine
62
7
6
CONTINUOUS
10
287.4354651965
20
166.4518316427
11
287.4357729035
21
166.4518315731
0
LINE
5
27F
100
AcDbEntity
8
0
100
AcDbLine
62
7
6
CONTINUOUS
10
287.4788716941
20
166.4509075081
11
287.5132540432
21
166.4504245810
0
LINE
5
280
100
AcDbEntity
8
0
100
AcDbLine
62
7
6
CONTINUOUS
10
287.4788716941
20
166.4509075081
11
287.4786398475
21
166.4509140727
0
LINE
5
281
100
AcDbEntity
8
DEFAULT_2
100
AcDbLine
62
8
6
HIDDEN
10
287.6424694022
20
168.2267831688
11
295.3771210998
21
169.4518316490
0
LINE
5
282
100
AcDbEntity
8
DEFAULT_2
100
AcDbLine
62
8
6
HIDDEN
10
295.3771210998
20
169.4518316490
11
303.1117727973
21
168.2267831688
0
LINE
5
283
100
AcDbEntity
8
0
100
AcDbLine
62
7
6
CONTINUOUS
10
289.1746582472
20
172.2014294685
11
287.4888925321
21
171.7497299065
0
LINE
5
284
100
AcDbEntity
8
0
100
AcDbLine
62
7
6
CONTINUOUS
10
303.2653496674
20
171.7497299065
11
301.5795839523
21
172.2014294685
0
LINE
5
285
100
AcDbEntity
8
DEFAULT_1
100
AcDbLine
62
2
6
CENTER
10
300.6865225396
20
178.4518316490
11
289.2569958199
21
178.4518316490
0
LINE
5
286
100
AcDbEntity
8
DEFAULT_2
100
AcDbLine
62
8
6
HIDDEN
10
295.3771210998
20
187.4518316490
11
296.4246417274
21
187.6177426174
0
LINE
5
287
100
AcDbEntity
8
DEFAULT_2
100
AcDbLine
62
8
6
HIDDEN
10
294.3296004721
20
187.6177426174
11
295.3771210998
21
187.4518316490
0
CIRCLE
5
288
100
AcDbEntity
8
0
100
AcDbCircle
62
7
6
CONTINUOUS
10
102.5312263773
20
159.9518316490
40
2.5000000000
0
ARC
5
289
100
AcDbEntity
8
0
100
AcDbCircle
62
7
6
CONTINUOUS
10
102.5312263773
20
159.9518316490
40
5.5000000000
100
AcDbArc
50
327.0000000000
51
132.0000000000
0
ARC
5
28A
100
AcDbEntity
8
0
100
AcDbCircle
62
7
6
CONTINUOUS
10
103.6107274363
20
142.3352936910
40
5.0000000000
100
AcDbArc
50
147.0000000000
51
177.0000000000
0
CIRCLE
5
28B
100
AcDbEntity
8
0
100
AcDbCircle
62
7
6
CONTINUOUS
10
102.5312263773
20
159.9518316490
40
2.1000000000
0
ARC
5
28C
100
AcDbEntity
8
0
100
AcDbCircle
62
7
6
CONTINUOUS
10
125.7629307741
20
160.0008490262
40
5.0000000000
100
AcDbArc
50
122.9988995470
51
179.9996004397
0
ARC
5
28D
100
AcDbEntity
8
0
100
AcDbCircle
62
7
6
CONTINUOUS
10
107.7648733255
20
147.6790802815
40
4.0000000000
100
AcDbArc
50
22.9174167566
51
75.0000000000
0
ARC
5
28E
100
AcDbEntity
8
0
100
AcDbCircle
62
7
6
CONTINUOUS
10
102.5312263773
20
159.9518316490
40
6.5000000000
100
AcDbArc
50
122.9062190598
51
156.4576281874
0
ARC
5
28F
100
AcDbEntity
8
0
100
AcDbCircle
62
7
6
CONTINUOUS
10
113.7812263773
20
124.9518316490
40
26.5000000000
100
AcDbArc
50
337.9340578006
51
359.4460772514
0
ARC
5
290
100
AcDbEntity
8
0
100
AcDbCircle
62
7
6
CONTINUOUS
10
125.7629307741
20
155.9823205611
40
5.0000000000
100
AcDbArc
50
180.0000000000
51
225.0000000000
0
ARC
5
291
100
AcDbEntity
8
0
100
AcDbCircle
62
7
6
CONTINUOUS
10
84.8435200056
20
121.1713234032
40
15.0000000000
100
AcDbArc
50
27.0000000000
51
34.6262646744
0
ARC
5
292
100
AcDbEntity
8
0
100
AcDbCircle
62
7
6
CONTINUOUS
10
139.0811539505
20
160.9188147129
40
30.0000000000
100
AcDbArc
50
202.9174167566
51
220.0000000000
0
CIRCLE
5
293
100
AcDbEntity
8
0
100
AcDbCircle
62
7
6
CONTINUOUS
10
113.7812263773
20
178.4518316490
40
9.0000000000
0
ARC
5
294
100
AcDbEntity
8
0
100
AcDbCircle
62
7
6
CONTINUOUS
10
97.6418361423
20
167.5078797649
40
2.5000000000
100
AcDbArc
50
302.9062190598
51
34.1407856222
0
ARC
5
295
100
AcDbEntity
8
0
100
AcDbCircle
62
7
6
CONTINUOUS
10
120.4159055355
20
136.4914767623
40
3.5002769476
100
AcDbArc
50
333.5809618317
51
39.2792442268
0
ARC
5
296
100
AcDbEntity
8
0
100
AcDbCircle
62
7
6
CONTINUOUS
10
102.3807752364
20
167.9504168023
40
1.5000000000
100
AcDbArc
50
222.6494202348
51
271.0775904517
0
ARC
5
297
100
AcDbEntity
8
0
100
AcDbCircle
62
7
6
CONTINUOUS
10
102.5312263773
20
159.9518316490
40
6.5000000000
100
AcDbArc
50
15.0000000000
51
91.0775904517
0
ARC
5
298
100
AcDbEntity
8
0
100
AcDbCircle
62
7
6
CONTINUOUS
10
113.8445485361
20
154.4351199492
40
3.0000000000
100
AcDbArc
50
195.0000000000
51
220.0000000000
0
ARC
5
299
100
AcDbEntity
8
0
100
AcDbCircle
62
7
6
CONTINUOUS
10
130.7629307741
20
149.8298154048
40
10.0000000000
100
AcDbArc
50
180.0000000000
51
182.1823842509
0
ARC
5
29A
100
AcDbEntity
8
0
100
AcDbCircle
62
7
6
CONTINUOUS
10
116.2812263773
20
124.4518316490
40
24.0000000000
100
AcDbArc
50
0.5820585774
51
45.0000000000
0
ARC
5
29B
100
AcDbEntity
8
0
100
AcDbCircle
62
7
6
CONTINUOUS
10
116.2812263773
20
124.4518316490
40
24.0000000000
100
AcDbArc
50
190.9229849895
51
336.7980764746
0
ARC
5
29C
100
AcDbEntity
8
0
100
AcDbCircle
62
7
6
CONTINUOUS
10
73.0783842576
20
116.1143000731
40
20.0000000000
100
AcDbArc
50
10.9229849895
51
37.2629075546
0
ARC
5
29D
100
AcDbEntity
8
0
100
AcDbCircle
62
7
6
CONTINUOUS
10
91.7812263773
20
130.3429225168
40
3.5000000000
100
AcDbArc
50
58.1646191334
51
217.2629075546
0
ARC
5
29E
100
AcDbEntity
8
0
100
AcDbCircle
62
7
6
CONTINUOUS
10
113.7812263773
20
178.4518316490
40
17.0000000000
100
AcDbArc
50
302.9988995572
51
222.6494202348
0
ARC
5
29F
100
AcDbEntity
8
0
100
AcDbCircle
62
7
6
CONTINUOUS
10
113.7812263773
20
124.9518316490
40
12.5000000000
100
AcDbArc
50
207.0000000000
51
40.0000000000
0
ARC
5
2A0
100
AcDbEntity
8
DEFAULT_2
100
AcDbCircle
62
8
6
HIDDEN
10
294.8771210998
20
191.0746518094
40
3.5000000000
100
AcDbArc
50
180.0000000000
51
261.0000000000
0
ARC
5
2A1
100
AcDbEntity
8
DEFAULT_2
100
AcDbCircle
62
8
6
HIDDEN
10
295.8771210998
20
191.0746518094
40
3.5000000000
100
AcDbArc
50
279.0000000000
51
360.0000000000
0
ARC
5
2A2
100
AcDbEntity
8
DEFAULT_2
100
AcDbCircle
62
8
6
HIDDEN
10
295.3771210998
20
104.4518316490
40
8.0000000000
100
AcDbArc
50
53.1301023542
51
126.8698976458
0
ARC
5
2A3
100
AcDbEntity
8
0
100
AcDbCircle
62
7
6
CONTINUOUS
10
292.6771210998
20
101.7518316490
40
1.3000000000
100
AcDbArc
50
180.0000000000
51
270.0000000000
0
ARC
5
2A4
100
AcDbEntity
8
0
100
AcDbCircle
62
7
6
CONTINUOUS
10
283.3771210998
20
102.1272763287
40
8.0000000000
100
AcDbArc
50
0.0000000000
51
35.0968012276
0
ARC
5
2A5
100
AcDbEntity
8
0
100
AcDbCircle
62
7
6
CONTINUOUS
10
292.3771210998
20
108.4518316490
40
3.0000000000
100
AcDbArc
50
180.0000000000
51
215.0968012276
0
ARC
5
2A6
100
AcDbEntity
8
0
100
AcDbCircle
62
7
6
CONTINUOUS
10
295.3771210998
20
191.4518316490
40
4.0000000000
100
AcDbArc
50
0.0000000000
51
180.0000000000
0
ARC
5
2A7
100
AcDbEntity
8
0
100
AcDbCircle
62
7
6
CONTINUOUS
10
298.0771210998
20
101.7518316490
40
1.3000000000
100
AcDbArc
50
270.0000000000
51
360.0000000000
0
ARC
5
2A8
100
AcDbEntity
8
0
100
AcDbCircle
62
7
6
CONTINUOUS
10
303.3771210998
20
153.5834841466
40
1.0000000000
100
AcDbArc
50
345.0000000000
51
360.0000000000
0
ARC
5
2A9
100
AcDbEntity
8
0
100
AcDbCircle
62
7
6
CONTINUOUS
10
307.3771210998
20
102.1272763287
40
8.0000000000
100
AcDbArc
50
144.9031987724
51
180.0000000000
0
ARC
5
2AA
100
AcDbEntity
8
0
100
AcDbCircle
62
7
6
CONTINUOUS
10
298.3771210998
20
108.4518316490
40
3.0000000000
100
AcDbArc
50
324.9031987724
51
360.0000000000
0
ARC
5
2AB
100
AcDbEntity
8
0
100
AcDbCircle
62
7
6
CONTINUOUS
10
302.8771210998
20
170.3008411671
40
1.5000000000
100
AcDbArc
50
0.0000000000
51
75.0000000000
0
ARC
5
2AC
100
AcDbEntity
8
0
100
AcDbCircle
62
7
6
CONTINUOUS
10
287.3771210998
20
153.5834841466
40
1.0000000000
100
AcDbArc
50
180.0000000000
51
195.0000000000
0
ARC
5
2AD
100
AcDbEntity
8
0
100
AcDbCircle
62
7
6
CONTINUOUS
10
287.8771210998
20
170.3008277944
40
1.5000000000
100
AcDbArc
50
104.9998677970
51
179.9994892024
0
SPLINE
5
2AE
100
AcDbEntity
8
0
100
AcDbSpline
62
7
6
CONTINUOUS
70
0
71
3
72
9
73
5
74
3
42
0.0000001000
43
0.0000001000
44
0.0000000001
40
0.0000000000
40
0.0000000000
40
0.0000000000
40
0.0000000000
40
0.4917622459
40
1.0000000000
40
1.0000000000
40
1.0000000000
40
1.0000000000
10
120.7774182897
20
149.2933219353
30
0.0000000000
10
120.7760200053
20
149.3188330852
30
0.0000000000
10
120.7733803960
20
149.3707215021
30
0.0000000000
10
120.7711850201
20
149.4226306975
30
0.0000000000
10
120.7701796555
20
149.4490169758
30
0.0000000000
11
120.7774182897
21
149.2933219353
31
0.0000000000
11
120.7735313139
21
149.3698716390
31
0.0000000000
11
120.7701796555
21
149.4490169758
31
0.0000000000
0
SPLINE
5
2AF
100
AcDbEntity
8
0
100
AcDbSpline
62
7
6
CONTINUOUS
70
0
71
3
72
8
73
4
74
2
42
0.0000001000
43
0.0000001000
44
0.0000000001
40
0.0000000000
40
0.0000000000
40
0.0000000000
40
0.0000000000
40
1.0000000000
40
1.0000000000
40
1.0000000000
40
1.0000000000
10
93.0669082976
20
133.5646208645
30
0.0000000000
10
93.0966788761
20
133.5475498236
30
0.0000000000
10
93.1259201095
20
133.5295383036
30
0.0000000000
10
93.1545606137
20
133.5106167767
30
0.0000000000
11
93.0669082976
21
133.5646208645
31
0.0000000000
11
93.1545606137
21
133.5106167767
31
0.0000000000
0
SPLINE
5
2B0
100
AcDbEntity
8
0
100
AcDbSpline
62
7
6
CONTINUOUS
70
0
71
3
72
8
73
4
74
2
42
0.0000001000
43
0.0000001000
44
0.0000000001
40
0.0000000000
40
0.0000000000
40
0.0000000000
40
0.0000000000
40
1.0000000000
40
1.0000000000
40
1.0000000000
40
1.0000000000
10
93.1545606137
20
133.5106167767
30
0.0000000000
10
93.1830838811
20
133.4917727029
30
0.0000000000
10
93.2110113274
20
133.4720260569
30
0.0000000000
10
93.2382687388
20
133.4514076332
30
0.0000000000
11
93.1545606137
21
133.5106167767
31
0.0000000000
11
93.2382687388
21
133.4514076332
31
0.0000000000
0
SPLINE
5
2B1
100
AcDbEntity
8
0
100
AcDbSpline
62
7
6
CONTINUOUS
70
0
71
3
72
10
73
6
74
4
42
0.0000001000
43
0.0000001000
44
0.0000000001
40
0.0000000000
40
0.0000000000
40
0.0000000000
40
0.0000000000
40
0.3108037705
40
0.6498896718
40
1.0000000000
40
1.0000000000
40
1.0000000000
40
1.0000000000
10
286.9943488715
20
145.0584888660
30
0.0000000000
10
287.0519076226
20
144.8036744050
30
0.0000000000
10
287.1715247187
20
144.2706913524
30
0.0000000000
10
287.3537733930
20
143.4501748360
30
0.0000000000
10
287.4782564989
20
142.8844298286
30
0.0000000000
10
287.5412238715
20
142.5969734722
30
0.0000000000
11
286.9943488715
21
145.0584888660
31
0.0000000000
11
287.1660503107
21
144.2938259401
31
0.0000000000
11
287.3514926094
21
143.4591604994
31
0.0000000000
11
287.5412238715
21
142.5969734722
31
0.0000000000
0
SPLINE
5
2B2
100
AcDbEntity
8
0
100
AcDbSpline
62
7
6
CONTINUOUS
70
0
71
3
72
10
73
6
74
4
42
0.0000001000
43
0.0000001000
44
0.0000000001
40
0.0000000000
40
0.0000000000
40
0.0000000000
40
0.0000000000
40
0.3501103282
40
0.6891962295
40
1.0000000000
40
1.0000000000
40
1.0000000000
40
1.0000000000
10
303.2130183281
20
142.5969734722
30
0.0000000000
10
303.2759857006
20
142.8844298286
30
0.0000000000
10
303.4004688066
20
143.4501748360
30
0.0000000000
10
303.5827174809
20
144.2706913524
30
0.0000000000
10
303.7023345770
20
144.8036744050
30
0.0000000000
10
303.7598933281
20
145.0584888660
30
0.0000000000
11
303.2130183281
21
142.5969734722
31
0.0000000000
11
303.4027495901
21
143.4591604994
31
0.0000000000
11
303.5881918889
21
144.2938259401
31
0.0000000000
11
303.7598933281
21
145.0584888660
31
0.0000000000
0
SPLINE
5
2B3
100
AcDbEntity
8
0
100
AcDbSpline
62
7
6
CONTINUOUS
70
0
71
3
72
8
73
4
74
2
42
0.0000001000
43
0.0000001000
44
0.0000000001
40
0.0000000000
40
0.0000000000
40
0.0000000000
40
0.0000000000
40
1.0000000000
40
1.0000000000
40
1.0000000000
40
1.0000000000
10
287.4358552660
20
166.4517750668
30
0.0000000000
10
287.4357942598
20
166.4516095370
30
0.0000000000
10
287.4547961041
20
166.4514047704
30
0.0000000000
10
287.4687272078
20
166.4511802312
30
0.0000000000
11
287.4358552660
21
166.4517750668
31
0.0000000000
11
287.4687272078
21
166.4511802312
31
0.0000000000
0
SPLINE
5
2B4
100
AcDbEntity
8
0
100
AcDbSpline
62
7
6
CONTINUOUS
70
0
71
3
72
8
73
4
74
2
42
0.0000001000
43
0.0000001000
44
0.0000000001
40
0.0000000000
40
0.0000000000
40
0.0000000000
40
0.0000000000
40
1.0000000000
40
1.0000000000
40
1.0000000000
40
1.0000000000
10
287.4687272078
20
166.4511802312
30
0.0000000000
10
287.4723551570
20
166.4511217565
30
0.0000000000
10
287.4756392136
20
166.4510619409
30
0.0000000000
10
287.4786418645
20
166.4510009649
30
0.0000000000
11
287.4687272078
21
166.4511802312
31
0.0000000000
11
287.4786418645
21
166.4510009649
31
0.0000000000
0
SPLINE
5
2B5
100
AcDbEntity
8
0
100
AcDbSpline
62
7
6
CONTINUOUS
70
0
71
3
72
9
73
5
74
3
42
0.0000001000
43
0.0000001000
44
0.0000000001
40
0.0000000000
40
0.0000000000
40
0.0000000000
40
0.0000000000
40
0.7187941506
40
1.0000000000
40
1.0000000000
40
1.0000000000
40
1.0000000000
10
301.3588718074
20
128.4748631358
30
0.0000000000
10
301.3675081051
20
128.5790199243
30
0.0000000000
10
301.3753559183
20
128.7243087663
30
0.0000000000
10
301.3771165317
20
128.8697357340
30
0.0000000000
10
301.3771212529
20
128.9106301494
30
0.0000000000
11
301.3588718074
21
128.4748631358
31
0.0000000000
11
301.3756449863
21
128.7879568286
31
0.0000000000
11
301.3771212529
21
128.9106301494
31
0.0000000000
0
SPLINE
5
2B6
100
AcDbEntity
8
0
100
AcDbSpline
62
7
6
CONTINUOUS
70
0
71
3
72
8
73
4
74
2
42
0.0000001000
43
0.0000001000
44
0.0000000001
40
0.0000000000
40
0.0000000000
40
0.0000000000
40
0.0000000000
40
1.0000000000
40
1.0000000000
40
1.0000000000
40
1.0000000000
10
291.3771031524
20
175.0670584691
30
0.0000000000
10
291.3771004254
20
175.0501316942
30
0.0000000000
10
291.3769512440
20
175.0332014905
30
0.0000000000
10
291.3766558538
20
175.0162708130
30
0.0000000000
11
291.3771031524
21
175.0670584691
31
0.0000000000
11
291.3766558538
21
175.0162708130
31
0.0000000000
0
SPLINE
5
2B7
100
AcDbEntity
8
0
100
AcDbSpline
62
7
6
CONTINUOUS
70
0
71
3
72
8
73
4
74
2
42
0.0000001000
43
0.0000001000
44
0.0000000001
40
0.0000000000
40
0.0000000000
40
0.0000000000
40
0.0000000000
40
1.0000000000
40
1.0000000000
40
1.0000000000
40
1.0000000000
10
291.3766558538
20
175.0162708130
30
0.0000000000
10
291.3758814828
20
174.9718867177
30
0.0000000000
10
291.3741023123
20
174.9274993664
30
0.0000000000
10
291.3713227688
20
174.8831619979
30
0.0000000000
11
291.3766558538
21
175.0162708130
31
0.0000000000
11
291.3713227688
21
174.8831619979
31
0.0000000000
0
SPLINE
5
2B8
100
AcDbEntity
8
0
100
AcDbSpline
62
7
6
CONTINUOUS
70
0
71
3
72
12
73
8
74
6
42
0.0000001000
43
0.0000001000
44
0.0000000001
40
0.0000000000
40
0.0000000000
40
0.0000000000
40
0.0000000000
40
0.1280925361
40
0.3914581596
40
0.6587697080
40
0.9265361472
40
1.0000000000
40
1.0000000000
40
1.0000000000
40
1.0000000000
10
291.3713227688
20
174.8831619979
30
0.0000000000
10
291.3642503884
20
174.7703482448
30
0.0000000000
10
291.3228439645
20
174.4265718555
30
0.0000000000
10
291.1525158940
20
173.8669139047
30
0.0000000000
10
290.7928361173
20
173.2553189256
30
0.0000000000
10
290.4164599693
20
172.8670141980
30
0.0000000000
10
290.1765856312
20
172.6849311813
30
0.0000000000
10
290.1237171403
20
172.6474562820
30
0.0000000000
11
291.3713227688
21
174.8831619979
31
0.0000000000
11
291.3307487872
21
174.5465685359
31
0.0000000000
11
291.1284513124
21
173.8811885860
31
0.0000000000
11
290.7706042961
21
173.2727465374
31
0.0000000000
11
290.2785351086
21
172.7649854110
31
0.0000000000
11
290.1237171403
21
172.6474562820
31
0.0000000000
0
SPLINE
5
2B9
100
AcDbEntity
8
0
100
AcDbSpline
62
7
6
CONTINUOUS
70
0
71
3
72
9
73
5
74
3
42
0.0000001000
43
0.0000001000
44
0.0000000001
40
0.0000000000
40
0.0000000000
40
0.0000000000
40
0.0000000000
40
0.5930183958
40
1.0000000000
40
1.0000000000
40
1.0000000000
40
1.0000000000
10
290.1237171403
20
172.6474562820
30
0.0000000000
10
289.9843715116
20
172.5486835852
30
0.0000000000
10
289.7350364010
20
172.4023431163
30
0.0000000000
10
289.4672413867
20
172.2939211778
30
0.0000000000
10
289.3561199357
20
172.2563823736
30
0.0000000000
11
290.1237171403
21
172.6474562820
31
0.0000000000
11
289.6821590876
21
172.3884532456
31
0.0000000000
11
289.3561199357
21
172.2563823736
31
0.0000000000
0
SPLINE
5
2BA
100
AcDbEntity
8
0
100
AcDbSpline
62
7
6
CONTINUOUS
70
0
71
3
72
8
73
4
74
2
42
0.0000001000
43
0.0000001000
44
0.0000000001
40
0.0000000000
40
0.0000000000
40
0.0000000000
40
0.0000000000
40
1.0000000000
40
1.0000000000
40
1.0000000000
40
1.0000000000
10
289.3561199357
20
172.2563823736
30
0.0000000000
10
289.3119588280
20
172.2414639653
30
0.0000000000
10
289.2674607130
20
172.2275858776
30
0.0000000000
10
289.2226835733
20
172.2147673377
30
0.0000000000
11
289.3561199357
21
172.2563823736
31
0.0000000000
11
289.2226835733
21
172.2147673377
31
0.0000000000
0
SPLINE
5
2BB
100
AcDbEntity
8
0
100
AcDbSpline
62
7
6
CONTINUOUS
70
0
71
3
72
8
73
4
74
2
42
0.0000001000
43
0.0000001000
44
0.0000000001
40
0.0000000000
40
0.0000000000
40
0.0000000000
40
0.0000000000
40
1.0000000000
40
1.0000000000
40
1.0000000000
40
1.0000000000
10
289.2226835733
20
172.2147673377
30
0.0000000000
10
289.2148926339
20
172.2125369928
30
0.0000000000
10
289.2070932474
20
172.2103387244
30
0.0000000000
10
289.1992857192
20
172.2081726338
30
0.0000000000
11
289.2226835733
21
172.2147673377
31
0.0000000000
11
289.1992857192
21
172.2081726338
31
0.0000000000
0
SPLINE
5
2BC
100
AcDbEntity
8
0
100
AcDbSpline
62
7
6
CONTINUOUS
70
0
71
3
72
8
73
4
74
2
42
0.0000001000
43
0.0000001000
44
0.0000000001
40
0.0000000000
40
0.0000000000
40
0.0000000000
40
0.0000000000
40
1.0000000000
40
1.0000000000
40
1.0000000000
40
1.0000000000
10
289.1992857192
20
172.2081726338
30
0.0000000000
10
289.1910773143
20
172.2058953256
30
0.0000000000
10
289.1828599102
20
172.2036535843
30
0.0000000000
10
289.1746338617
20
172.2014475277
30
0.0000000000
11
289.1992857192
21
172.2081726338
31
0.0000000000
11
289.1746338617
21
172.2014475277
31
0.0000000000
0
SPLINE
5
2BD
100
AcDbEntity
8
0
100
AcDbSpline
62
7
6
CONTINUOUS
70
0
71
3
72
12
73
8
74
6
42
0.0000001000
43
0.0000001000
44
0.0000000001
40
0.0000000000
40
0.0000000000
40
0.0000000000
40
0.0000000000
40
0.2046352285
40
0.4219464160
40
0.6352747995
40
0.8631607325
40
1.0000000000
40
1.0000000000
40
1.0000000000
40
1.0000000000
10
290.8659951493
20
133.4540102738
30
0.0000000000
10
290.6859139569
20
133.3806079229
30
0.0000000000
10
290.3288562048
20
133.1903508579
30
0.0000000000
10
289.8800719288
20
132.7776701766
30
0.0000000000
10
289.5490042185
20
132.2388566187
30
0.0000000000
10
289.3995925010
20
131.7041535069
30
0.0000000000
10
289.3767655257
20
131.3573540692
30
0.0000000000
10
289.3772089288
20
131.2272371299
30
0.0000000000
11
290.8659951493
21
133.4540102738
31
0.0000000000
11
290.3534545777
21
133.1763461137
31
0.0000000000
11
289.8995961858
21
132.7565938822
31
0.0000000000
11
289.5815177947
21
132.2397525275
31
0.0000000000
11
289.4039510206
21
131.6162547738
31
0.0000000000
11
289.3772089288
21
131.2272371299
31
0.0000000000
0
SPLINE
5
2BE
100
AcDbEntity
8
0
100
AcDbSpline
62
7
6
CONTINUOUS
70
0
71
3
72
10
73
6
74
4
42
0.0000001000
43
0.0000001000
44
0.0000000001
40
0.0000000000
40
0.0000000000
40
0.0000000000
40
0.0000000000
40
0.2385575546
40
0.8207467235
40
1.0000000000
40
1.0000000000
40
1.0000000000
40
1.0000000000
10
292.9756724272
20
133.8429182155
30
0.0000000000
10
292.8399694039
20
133.8429363501
30
0.0000000000
10
292.3731231244
20
133.8288727538
30
0.0000000000
10
291.8078475045
20
133.7479962647
30
0.0000000000
10
291.3892060257
20
133.6343076720
30
0.0000000000
10
291.2915563179
20
133.6046238862
30
0.0000000000
11
292.9756724272
21
133.8429182155
31
0.0000000000
11
292.5688279525
21
133.8303411652
31
0.0000000000
11
291.5869661521
21
133.6849475050
31
0.0000000000
11
291.2915563179
21
133.6046238862
31
0.0000000000
0
SPLINE
5
2BF
100
AcDbEntity
8
0
100
AcDbSpline
62
7
6
CONTINUOUS
70
0
71
3
72
8
73
4
74
2
42
0.0000001000
43
0.0000001000
44
0.0000000001
40
0.0000000000
40
0.0000000000
40
0.0000000000
40
0.0000000000
40
1.0000000000
40
1.0000000000
40
1.0000000000
40
1.0000000000
10
291.2915563179
20
133.6046238862
30
0.0000000000
10
291.1483047220
20
133.5610779322
30
0.0000000000
10
291.0069982625
20
133.5112478405
30
0.0000000000
10
290.8684287930
20
133.4550313890
30
0.0000000000
11
291.2915563179
21
133.6046238862
31
0.0000000000
11
290.8684287930
21
133.4550313890
31
0.0000000000
0
SPLINE
5
2C0
100
AcDbEntity
8
0
100
AcDbSpline
62
7
6
CONTINUOUS
70
0
71
3
72
8
73
4
74
2
42
0.0000001000
43
0.0000001000
44
0.0000000001
40
0.0000000000
40
0.0000000000
40
0.0000000000
40
0.0000000000
40
1.0000000000
40
1.0000000000
40
1.0000000000
40
1.0000000000
10
289.3771236061
20
128.3185085229
30
0.0000000000
10
289.3771596242
20
128.3711186504
30
0.0000000000
10
289.3838428035
20
128.4237694586
30
0.0000000000
10
289.3953703921
20
128.4748631358
30
0.0000000000
11
289.3771236061
21
128.3185085229
31
0.0000000000
11
289.3953703921
21
128.4748631358
31
0.0000000000
0
SPLINE
5
2C1
100
AcDbEntity
8
0
100
AcDbSpline
62
7
6
CONTINUOUS
70
0
71
3
72
13
73
9
74
7
42
0.0000001000
43
0.0000001000
44
0.0000000001
40
0.0000000000
40
0.0000000000
40
0.0000000000
40
0.0000000000
40
0.1814552974
40
0.3806860647
40
0.6105970751
40
0.8178372686
40
0.9606073207
40
1.0000000000
40
1.0000000000
40
1.0000000000
40
1.0000000000
10
304.3231870991
20
153.2505452899
30
0.0000000000
10
304.3231903598
20
153.2505444151
30
0.0000000000
10
304.3278724947
20
153.2680404779
30
0.0000000000
10
304.3310431961
20
153.2798661221
30
0.0000000000
10
304.3356314014
20
153.2969821161
30
0.0000000000
10
304.3394652371
20
153.3113224391
30
0.0000000000
10
304.3421165890
20
153.3211503204
30
0.0000000000
10
304.3433309299
20
153.3257494528
30
0.0000000000
10
304.3435922899
20
153.3267441144
30
0.0000000000
11
304.3231870991
21
153.2505452899
31
0.0000000000
11
304.3270392278
21
153.2649235581
31
0.0000000000
11
304.3310704436
21
153.2799682605
31
0.0000000000
11
304.3357224405
21
153.2973297492
31
0.0000000000
11
304.3399157183
21
153.3129792750
31
0.0000000000
11
304.3428045135
21
153.3237604057
31
0.0000000000
11
304.3435922899
21
153.3267441144
31
0.0000000000
0
SPLINE
5
2C2
100
AcDbEntity
8
0
100
AcDbSpline
62
7
6
CONTINUOUS
70
0
71
3
72
8
73
4
74
2
42
0.0000001000
43
0.0000001000
44
0.0000000001
40
0.0000000000
40
0.0000000000
40
0.0000000000
40
0.0000000000
40
1.0000000000
40
1.0000000000
40
1.0000000000
40
1.0000000000
10
304.3231870991
20
153.2505452899
30
0.0000000000
10
304.3231897009
20
153.2505445919
30
0.0000000000
10
304.3246110972
20
153.2558539178
30
0.0000000000
10
304.3260069804
20
153.2610679652
30
0.0000000000
11
304.3231870991
21
153.2505452899
31
0.0000000000
11
304.3260069804
21
153.2610679652
31
0.0000000000
0
SPLINE
5
2C3
100
AcDbEntity
8
0
100
AcDbSpline
62
7
6
CONTINUOUS
70
0
71
3
72
9
73
5
74
3
42
0.0000001000
43
0.0000001000
44
0.0000000001
40
0.0000000000
40
0.0000000000
40
0.0000000000
40
0.0000000000
40
0.2709285567
40
1.0000000000
40
1.0000000000
40
1.0000000000
40
1.0000000000
10
303.2756119851
20
166.4510055420
30
0.0000000000
10
303.2787747315
20
166.4510702927
30
0.0000000000
10
303.2916062850
20
166.4513049655
30
0.0000000000
10
303.3097142188
20
166.4515211994
30
0.0000000000
10
303.3151631699
20
166.4516622979
30
0.0000000000
11
303.2756119851
21
166.4510055420
31
0.0000000000
11
303.2861148984
21
166.4511960984
31
0.0000000000
11
303.3151631699
21
166.4516622979
31
0.0000000000
0
SPLINE
5
2C4
100
AcDbEntity
8
0
100
AcDbSpline
62
7
6
CONTINUOUS
70
0
71
3
72
8
73
4
74
2
42
0.0000001000
43
0.0000001000
44
0.0000000001
40
0.0000000000
40
0.0000000000
40
0.0000000000
40
0.0000000000
40
1.0000000000
40
1.0000000000
40
1.0000000000
40
1.0000000000
10
303.3151631699
20
166.4516622979
30
0.0000000000
10
303.3167613644
20
166.4517036826
30
0.0000000000
10
303.3176925914
20
166.4517436433
30
0.0000000000
10
303.3176904609
20
166.4517820099
30
0.0000000000
11
303.3151631699
21
166.4516622979
31
0.0000000000
11
303.3176904609
21
166.4517820099
31
0.0000000000
0
SPLINE
5
2C5
100
AcDbEntity
8
0
100
AcDbSpline
62
7
6
CONTINUOUS
70
0
71
3
72
8
73
4
74
2
42
0.0000001000
43
0.0000001000
44
0.0000000001
40
0.0000000000
40
0.0000000000
40
0.0000000000
40
0.0000000000
40
1.0000000000
40
1.0000000000
40
1.0000000000
40
1.0000000000
10
301.5796066271
20
172.2014450028
30
0.0000000000
10
301.5713905674
20
172.2036483808
30
0.0000000000
10
301.5631831071
20
172.2058873849
30
0.0000000000
10
301.5549845994
20
172.2081618962
30
0.0000000000
11
301.5796066271
21
172.2014450028
31
0.0000000000
11
301.5549845994
21
172.2081618962
31
0.0000000000
0
SPLINE
5
2C6
100
AcDbEntity
8
0
100
AcDbSpline
62
7
6
CONTINUOUS
70
0
71
3
72
8
73
4
74
2
42
0.0000001000
43
0.0000001000
44
0.0000000001
40
0.0000000000
40
0.0000000000
40
0.0000000000
40
0.0000000000
40
1.0000000000
40
1.0000000000
40
1.0000000000
40
1.0000000000
10
301.5549845994
20
172.2081618962
30
0.0000000000
10
301.5471941874
20
172.2103231896
30
0.0000000000
10
301.5394118589
20
172.2125165434
30
0.0000000000
10
301.5316379170
20
172.2147418557
30
0.0000000000
11
301.5549845994
21
172.2081618962
31
0.0000000000
11
301.5316379170
21
172.2147418557
31
0.0000000000
0
SPLINE
5
2C7
100
AcDbEntity
8
0
100
AcDbSpline
62
7
6
CONTINUOUS
70
0
71
3
72
8
73
4
74
2
42
0.0000001000
43
0.0000001000
44
0.0000000001
40
0.0000000000
40
0.0000000000
40
0.0000000000
40
0.0000000000
40
1.0000000000
40
1.0000000000
40
1.0000000000
40
1.0000000000
10
301.5316379170
20
172.2147418557
30
0.0000000000
10
301.4824941879
20
172.2288093831
30
0.0000000000
10
301.4336856082
20
172.2441540524
30
0.0000000000
10
301.3852887340
20
172.2607501078
30
0.0000000000
11
301.5316379170
21
172.2147418557
31
0.0000000000
11
301.3852887340
21
172.2607501078
31
0.0000000000
0
SPLINE
5
2C8
100
AcDbEntity
8
0
100
AcDbSpline
62
7
6
CONTINUOUS
70
0
71
3
72
9
73
5
74
3
42
0.0000001000
43
0.0000001000
44
0.0000000001
40
0.0000000000
40
0.0000000000
40
0.0000000000
40
0.0000000000
40
0.4141603369
40
1.0000000000
40
1.0000000000
40
1.0000000000
40
1.0000000000
10
301.3852887340
20
172.2607501078
30
0.0000000000
10
301.2742789915
20
172.2988171085
30
0.0000000000
10
301.0114733709
20
172.4066276148
30
0.0000000000
10
300.7666819042
20
172.5510093590
30
0.0000000000
10
300.6313038441
20
172.6469048664
30
0.0000000000
11
301.3852887340
21
172.2607501078
31
0.0000000000
11
301.0596816087
21
172.3943917997
31
0.0000000000
11
300.6313038441
21
172.6469048664
31
0.0000000000
0
SPLINE
5
2C9
100
AcDbEntity
8
0
100
AcDbSpline
62
7
6
CONTINUOUS
70
0
71
3
72
12
73
8
74
6
42
0.0000001000
43
0.0000001000
44
0.0000000001
40
0.0000000000
40
0.0000000000
40
0.0000000000
40
0.0000000000
40
0.0786859381
40
0.3450493764
40
0.6109293909
40
0.8727522985
40
1.0000000000
40
1.0000000000
40
1.0000000000
40
1.0000000000
10
300.6313038441
20
172.6469048664
30
0.0000000000
10
300.5743465944
20
172.6872507271
30
0.0000000000
10
300.3308141402
20
172.8729530471
30
0.0000000000
10
299.9527090270
20
173.2667715612
30
0.0000000000
10
299.5959498683
20
173.8801550826
30
0.0000000000
10
299.4283659717
20
174.4405026544
30
0.0000000000
10
299.3886174442
20
174.7842876490
30
0.0000000000
10
299.3820837166
20
174.8970169246
30
0.0000000000
11
300.6313038441
21
172.6469048664
31
0.0000000000
11
300.4648341807
21
172.7738565644
31
0.0000000000
11
299.9750206640
21
173.2841241736
31
0.0000000000
11
299.6200365214
21
173.8944210389
31
0.0000000000
11
299.4210143484
21
174.5605813734
31
0.0000000000
11
299.3820837166
21
174.8970169246
31
0.0000000000
0
SPLINE
5
2CA
100
AcDbEntity
8
0
100
AcDbSpline
62
7
6
CONTINUOUS
70
0
71
3
72
8
73
4
74
2
42
0.0000001000
43
0.0000001000
44
0.0000000001
40
0.0000000000
40
0.0000000000
40
0.0000000000
40
0.0000000000
40
1.0000000000
40
1.0000000000
40
1.0000000000
40
1.0000000000
10
299.3820837166
20
174.8970169246
30
0.0000000000
10
299.3797812170
20
174.9367429631
30
0.0000000000
10
299.3782817432
20
174.9765053246
30
0.0000000000
10
299.3775883279
20
175.0162657236
30
0.0000000000
11
299.3820837166
21
174.8970169246
31
0.0000000000
11
299.3775883279
21
175.0162657236
31
0.0000000000
0
SPLINE
5
2CB
100
AcDbEntity
8
0
100
AcDbSpline
62
7
6
CONTINUOUS
70
0
71
3
72
8
73
4
74
2
42
0.0000001000
43
0.0000001000
44
0.0000000001
40
0.0000000000
40
0.0000000000
40
0.0000000000
40
0.0000000000
40
1.0000000000
40
1.0000000000
40
1.0000000000
40
1.0000000000
10
299.3775883279
20
175.0162657236
30
0.0000000000
10
299.3772930205
20
175.0331986367
30
0.0000000000
10
299.3771439067
20
175.0501311938
30
0.0000000000
10
299.3771412208
20
175.0670604378
30
0.0000000000
11
299.3775883279
21
175.0162657236
31
0.0000000000
11
299.3771412208
21
175.0670604378
31
0.0000000000
0
SPLINE
5
2CC
100
AcDbEntity
8
0
100
AcDbSpline
62
7
6
CONTINUOUS
70
0
71
3
72
12
73
8
74
6
42
0.0000001000
43
0.0000001000
44
0.0000000001
40
0.0000000000
40
0.0000000000
40
0.0000000000
40
0.0000000000
40
0.1372491923
40
0.3652536435
40
0.5787527016
40
0.7960417399
40
1.0000000000
40
1.0000000000
40
1.0000000000
40
1.0000000000
10
301.3770334016
20
131.2272509479
30
0.0000000000
10
301.3774772534
20
131.3577588696
30
0.0000000000
10
301.3545428262
20
131.7050642638
30
0.0000000000
10
301.2046405698
20
132.2403404820
30
0.0000000000
10
300.8729977000
20
132.7791216008
30
0.0000000000
10
300.4242212962
20
133.1910601339
30
0.0000000000
10
300.0677153530
20
133.3808608184
30
0.0000000000
10
299.8882304281
20
133.4540175253
30
0.0000000000
11
301.3770334016
21
131.2272509479
31
0.0000000000
11
301.3501217349
21
131.6174286692
31
0.0000000000
11
301.1721058801
21
132.2411515852
31
0.0000000000
11
300.8533619109
21
132.7581559662
31
0.0000000000
11
300.3991838294
21
133.1774728975
31
0.0000000000
11
299.8882304281
21
133.4540175253
31
0.0000000000
0
SPLINE
5
2CD
100
AcDbEntity
8
0
100
AcDbSpline
62
7
6
CONTINUOUS
70
0
71
3
72
9
73
5
74
3
42
0.0000001000
43
0.0000001000
44
0.0000000001
40
0.0000000000
40
0.0000000000
40
0.0000000000
40
0.0000000000
40
0.4592084848
40
1.0000000000
40
1.0000000000
40
1.0000000000
40
1.0000000000
10
299.8856576521
20
133.4550832552
30
0.0000000000
10
299.5802955733
20
133.5789091411
30
0.0000000000
10
298.8860021720
20
133.7809496536
30
0.0000000000
10
298.1672973419
20
133.8429465674
30
0.0000000000
10
297.7789081145
20
133.8429389160
30
0.0000000000
11
299.8856576521
21
133.4550832552
31
0.0000000000
11
298.9374970342
21
133.7349352420
31
0.0000000000
11
297.7789081145
21
133.8429389160
31
0.0000000000
0
SPLINE
5
2CE
100
AcDbEntity
8
0
100
AcDbSpline
62
7
6
CONTINUOUS
70
0
71
3
72
8
73
4
74
2
42
0.0000001000
43
0.0000001000
44
0.0000000001
40
0.0000000000
40
0.0000000000
40
0.0000000000
40
0.0000000000
40
1.0000000000
40
1.0000000000
40
1.0000000000
40
1.0000000000
10
301.3771185935
20
128.3185085229
30
0.0000000000
10
301.3770825753
20
128.3711186504
30
0.0000000000
10
301.3703993960
20
128.4237694586
30
0.0000000000
10
301.3588718074
20
128.4748631358
30
0.0000000000
11
301.3771185935
21
128.3185085229
31
0.0000000000
11
301.3588718074
21
128.4748631358
31
0.0000000000
0
SPLINE
5
2CF
100
AcDbEntity
8
0
100
AcDbSpline
62
7
6
CONTINUOUS
70
0
71
3
72
9
73
5
74
3
42
0.0000001000
43
0.0000001000
44
0.0000000001
40
0.0000000000
40
0.0000000000
40
0.0000000000
40
0.0000000000
40
0.7187941506
40
1.0000000000
40
1.0000000000
40
1.0000000000
40
1.0000000000
10
289.3953703921
20
128.4748631358
30
0.0000000000
10
289.3867340944
20
128.5790199243
30
0.0000000000
10
289.3788862813
20
128.7243087663
30
0.0000000000
10
289.3771256678
20
128.8697357340
30
0.0000000000
10
289.3771209467
20
128.9106301494
30
0.0000000000
11
289.3953703921
21
128.4748631358
31
0.0000000000
11
289.3785972133
21
128.7879568286
31
0.0000000000
11
289.3771209467
21
128.9106301494
31
0.0000000000
0
ENDSEC
0
SECTION
2
OBJECTS
0
DICTIONARY
5
2D0
100
AcDbDictionary
3
ACAD_GROUP
350
2D1
3
ACAD_MLINESTYLE
350
2D2
0
DICTIONARY
5
2D1
102
{ACAD_REACTORS
330
2D0
102
}
100
AcDbDictionary
0
DICTIONARY
5
2D2
102
{ACAD_REACTORS
330
2D0
102
}
100
AcDbDictionary
3
STANDARD
350
2D3
0
MLINESTYLE
5
2D3
102
{ACAD_REACTORS
330
2D2
102
}
100
AcDbMlineStyle
2
STANDARD
70
0
3

62
256
51
90.0
52
90.0
71
2
49
0.5
62
256
6
BYLAYER
49
-0.5
62
256
6
BYLAYER
0
ENDSEC
0
EOF
