999
DXF file: L-VLBG-16000daN_7904778_M35155-P-2.dxf
999
Pro/ENGINEER 2011490 by Parametric Technology Corporation
  0
SECTION
  2
HEADER
  9
$ACADVER
  1
AC1015
  9
$DWGCODEPAGE
  3
ANSI_1252
  9
$EXTMAX
 10
841.0
 20
594.0
 30
0.0
  9
$EXTMIN
 10
0.0
 20
0.0
 30
0.0
  9
$LIMMIN
 10
0.0
 20
0.0
  9
$LIMMAX
 10
841.0
 20
594.0
  9
$VIEWCTR
 10
420.5
 20
297.0
  9
$VIEWSIZE
 40
594.0
  9
$CLAYER
  8
0
  9
$LTSCALE
 40
46.255
  9
$CELTYPE
  6
BYLAYER
  9
$DIMSCALE
 40
1.0
  9
$DIMASZ
 40
3.5
  9
$DIMEXO
 40
5.25625
  9
$DIMDLI
 40
31.958
  9
$DIMEXE
 40
15.138
  9
$DIMCEN
 40
7.569
  9
$DIMLFAC
 40
1.0
  9
$DIMBLK
  1
_FILLED
  9
$DIMTXT
 40
3.5
  9
$DIMTOL
 70
1
  9
$DIMLIM
 70
0
  9
$DIMTFAC
 40
1.0
  9
$DIMTP
 40
0.005
  9
$DIMTM
 40
0.005
  9
$PDMODE
 70
3
  9
$PDSIZE
 40
0.3125
  9
$HANDSEED
  5
5A6
  9
$TILEMODE
 70
1
  9
$MEASUREMENT
 70
1
  9
$INSUNITS
 70
4
  0
ENDSEC
  0
SECTION
  2
CLASSES
  0
CLASS
  1
ACDBDICTIONARYWDFLT
  2
AcDbDictionaryWithDefault
  3
AutoCAD 2000
 90
0
280
0
281
0
  0
CLASS
  1
ACDBPLACEHOLDER
  2
AcDbPlaceHolder
  3
AutoCAD 2000
 90
0
280
0
281
0
  0
CLASS
  1
LAYOUT
  2
AcDbLayout
  3
AutoCAD 2000
 90
0
280
0
281
0
  0
ENDSEC
  0
SECTION
  2
TABLES
  0
TABLE
  2
VPORT
  5
8
100
AcDbSymbolTable
 70
2
  0
VPORT
  5
1F4
100
AcDbSymbolTableRecord
100
AcDbViewportTableRecord
  2
*ACTIVE
 70
0
 10
0.0
 20
0.0
 11
1.0
 21
1.0
 12
420.5
 22
297.0
 13
0.0
 23
0.0
 14
1.0
 24
1.0
 15
0.0
 25
0.0
 16
0.0
 26
0.0
 36
1.0
 17
0.0
 27
0.0
 37
0.0
 40
594.0
 41
1.4158249158
 42
50.0
 43
0.0
 44
0.0
 50
0.0
 51
0.0
 71
0
 72
100
 73
1
 74
1
 75
0
 76
0
 77
0
 78
0
  0
ENDTAB
  0
TABLE
  2
LTYPE
  5
5
100
AcDbSymbolTable
 70
6
  0
LTYPE
  5
14
100
AcDbSymbolTableRecord
100
AcDbLinetypeTableRecord
  2
BYBLOCK
 70
0
  3

 72
65
 73
0
 40
0.0
  0
LTYPE
  5
15
100
AcDbSymbolTableRecord
100
AcDbLinetypeTableRecord
  2
BYLAYER
 70
0
  3

 72
65
 73
0
 40
0.0
  0
LTYPE
  5
16
100
AcDbSymbolTableRecord
100
AcDbLinetypeTableRecord
  2
CONTINUOUS
 70
64
  3
Solid line
 72
65
 73
0
 40
0.0
  0
LTYPE
  5
1F5
100
AcDbSymbolTableRecord
100
AcDbLinetypeTableRecord
  2
CENTER
 70
64
  3
____ _ ____ _ ____ _ ____ _ ____ _ ____ _ ____
 72
65
 73
4
 40
0.6
 49
0.375
 74
0
 49
-0.075
 74
0
 49
0.075
 74
0
 49
-0.075
 74
0
  0
LTYPE
  5
1F6
100
AcDbSymbolTableRecord
100
AcDbLinetypeTableRecord
  2
HIDDEN
 70
64
  3
- - - - - - - - - - - - - - - - - - - -
 72
65
 73
2
 40
0.2
 49
0.1
 74
0
 49
-0.1
 74
0
  0
LTYPE
  5
1F7
100
AcDbSymbolTableRecord
100
AcDbLinetypeTableRecord
  2
PHANTOM
 70
64
  3
_____ _ _ _____ _ _ _____ _ _ _____
 72
65
 73
6
 40
0.8
 49
0.45
 74
0
 49
-0.05
 74
0
 49
0.1
 74
0
 49
-0.05
 74
0
 49
0.1
 74
0
 49
-0.05
 74
0
  0
LTYPE
  5
1F8
100
AcDbSymbolTableRecord
100
AcDbLinetypeTableRecord
  2
DOT
 70
64
  3
. . . . . . . . . . . . . . . . . . . .
 72
65
 73
2
 40
0.2
 49
0.1
 74
0
 49
-0.1
 74
0
  0
LTYPE
  5
1F9
100
AcDbSymbolTableRecord
100
AcDbLinetypeTableRecord
  2
DASHED
 70
64
  3
- - - - - - - - - - - - - - - - - - - -
 72
65
 73
2
 40
0.2
 49
0.1
 74
0
 49
-0.1
 74
0
  0
ENDTAB
  0
TABLE
  2
LAYER
  5
2
100
AcDbSymbolTable
 70
36
  0
LAYER
  5
10
100
AcDbSymbolTableRecord
100
AcDbLayerTableRecord
  2
0
 70
0
 62
7
  6
CONTINUOUS
370
-3
390
F
  0
LAYER
  5
1FA
100
AcDbSymbolTableRecord
100
AcDbLayerTableRecord
  2
DEFAULT_1
 70
0
 62
7
  6
CENTER
370
-3
390
F
  0
LAYER
  5
1FB
100
AcDbSymbolTableRecord
100
AcDbLayerTableRecord
  2
DEFAULT_2
 70
0
 62
8
  6
HIDDEN
370
-3
390
F
  0
LAYER
  5
1FC
100
AcDbSymbolTableRecord
100
AcDbLayerTableRecord
  2
DEFAULT_3
 70
0
 62
7
  6
PHANTOM
370
-3
390
F
  0
LAYER
  5
1FD
100
AcDbSymbolTableRecord
100
AcDbLayerTableRecord
  2
AUSFORMSCHRAEGEN
 70
0
 62
7
  6
CONTINUOUS
370
-3
390
F
  0
LAYER
  5
1FE
100
AcDbSymbolTableRecord
100
AcDbLayerTableRecord
  2
B-ACHSEN
 70
0
 62
7
  6
CONTINUOUS
370
-3
390
F
  0
LAYER
  5
1FF
100
AcDbSymbolTableRecord
100
AcDbLayerTableRecord
  2
B-EBENEN
 70
0
 62
7
  6
CONTINUOUS
370
-3
390
F
  0
LAYER
  5
200
100
AcDbSymbolTableRecord
100
AcDbLayerTableRecord
  2
B-KOORSYS
 70
0
 62
7
  6
CONTINUOUS
370
-3
390
F
  0
LAYER
  5
201
100
AcDbSymbolTableRecord
100
AcDbLayerTableRecord
  2
BEMASSUNG
 70
0
 62
7
  6
CONTINUOUS
370
-3
390
F
  0
LAYER
  5
202
100
AcDbSymbolTableRecord
100
AcDbLayerTableRecord
  2
BEZUGSACHSEN
 70
0
 62
7
  6
CONTINUOUS
370
-3
390
F
  0
LAYER
  5
203
100
AcDbSymbolTableRecord
100
AcDbLayerTableRecord
  2
BEZUGSEBENEN
 70
0
 62
7
  6
CONTINUOUS
370
-3
390
F
  0
LAYER
  5
204
100
AcDbSymbolTableRecord
100
AcDbLayerTableRecord
  2
BG_STARTBEZUEGE
 70
0
 62
7
  6
CONTINUOUS
370
-3
390
F
  0
LAYER
  5
205
100
AcDbSymbolTableRecord
100
AcDbLayerTableRecord
  2
BOHRUNGEN
 70
0
 62
7
  6
CONTINUOUS
370
-3
390
F
  0
LAYER
  5
206
100
AcDbSymbolTableRecord
100
AcDbLayerTableRecord
  2
FASEN
 70
0
 62
7
  6
CONTINUOUS
370
-3
390
F
  0
LAYER
  5
207
100
AcDbSymbolTableRecord
100
AcDbLayerTableRecord
  2
FLAECHEN
 70
0
 62
7
  6
CONTINUOUS
370
-3
390
F
  0
LAYER
  5
208
100
AcDbSymbolTableRecord
100
AcDbLayerTableRecord
  2
GEWINDE
 70
0
 62
7
  6
CONTINUOUS
370
-3
390
F
  0
LAYER
  5
209
100
AcDbSymbolTableRecord
100
AcDbLayerTableRecord
  2
HILFEN
 70
0
 62
7
  6
CONTINUOUS
370
-3
390
F
  0
LAYER
  5
20A
100
AcDbSymbolTableRecord
100
AcDbLayerTableRecord
  2
KONSTRUKTIONSELEMENTE
 70
0
 62
7
  6
CONTINUOUS
370
-3
390
F
  0
LAYER
  5
20B
100
AcDbSymbolTableRecord
100
AcDbLayerTableRecord
  2
NOTIZEN
 70
0
 62
7
  6
CONTINUOUS
370
-3
390
F
  0
LAYER
  5
20C
100
AcDbSymbolTableRecord
100
AcDbLayerTableRecord
  2
PLATZIERUNG
 70
0
 62
7
  6
CONTINUOUS
370
-3
390
F
  0
LAYER
  5
20D
100
AcDbSymbolTableRecord
100
AcDbLayerTableRecord
  2
PLAZIERUNG
 70
0
 62
7
  6
CONTINUOUS
370
-3
390
F
  0
LAYER
  5
20E
100
AcDbSymbolTableRecord
100
AcDbLayerTableRecord
  2
RUNDUNGEN
 70
0
 62
7
  6
CONTINUOUS
370
-3
390
F
  0
LAYER
  5
20F
100
AcDbSymbolTableRecord
100
AcDbLayerTableRecord
  2
TEIL_STARTBEZUEGE
 70
0
 62
7
  6
CONTINUOUS
370
-3
390
F
  0
LAYER
  5
210
100
AcDbSymbolTableRecord
100
AcDbLayerTableRecord
  2
VERBUNDFLAECHEN
 70
0
 62
7
  6
CONTINUOUS
370
-3
390
F
  0
LAYER
  5
211
100
AcDbSymbolTableRecord
100
AcDbLayerTableRecord
  2
ZEICHNUNGSBEMASSUNGEN
 70
0
 62
7
  6
CONTINUOUS
370
-3
390
F
  0
ENDTAB
  0
TABLE
  2
STYLE
  5
3
100
AcDbSymbolTable
 70
1
  0
STYLE
  5
11
100
AcDbSymbolTableRecord
100
AcDbTextStyleTableRecord
  2
STANDARD
 70
0
 40
0.0
 41
0.7
 50
0.0
 71
0
 42
0.2
  3
txt
  4

  0
STYLE
  5
212
100
AcDbSymbolTableRecord
100
AcDbTextStyleTableRecord
  2
TEXTSTYLE_1
 70
0
 40
0.0
 41
0.8
 50
0.0
 71
0
 42
0.2
  3
gdt
  4

  0
ENDTAB
  0
TABLE
  2
VIEW
  5
6
100
AcDbSymbolTable
 70
0
  0
ENDTAB
  0
TABLE
  2
UCS
  5
7
100
AcDbSymbolTable
 70
0
  0
ENDTAB
  0
TABLE
  2
APPID
  5
9
100
AcDbSymbolTable
 70
1
  0
APPID
  5
213
100
AcDbSymbolTableRecord
100
AcDbRegAppTableRecord
  2
ACAD
 70
0
  0
ENDTAB
  0
TABLE
  2
BLOCK_RECORD
  5
1
100
AcDbSymbolTable
 70
0
  0
BLOCK_RECORD
  5
214
100
AcDbSymbolTableRecord
100
AcDbBlockTableRecord
  2
*Model_Space
  0
BLOCK_RECORD
  5
215
100
AcDbSymbolTableRecord
100
AcDbBlockTableRecord
  2
*Paper_Space
  0
ENDTAB
  0
TABLE
  2
DIMSTYLE
  5
A
100
AcDbSymbolTable
 70
1
100
AcDbDimStyleTable
 71
0
  0
DIMSTYLE
105
216
100
AcDbSymbolTableRecord
100
AcDbDimStyleTableRecord
  2
STANDARD
 70
0
  3

  4

 40
1.0
 41
3.5
 42
0.0625
 43
0.38
 44
0.18
 45
0.0
 46
0.0
 47
0.005
 48
0.005
140
3.5
141
0.09
142
0.0
143
25.4
144
1.0
145
0.0
146
1.0
147
0.09
 71
1.0
 72
0.0
 73
0
 74
0
 75
0
 76
0
 77
1
 78
8
170
0
171
2
172
0
173
0
174
0
175
0
176
0
177
0
178
5
270
2
271
3
272
3
273
2
274
2
275
0
280
0
281
0
282
0
283
1
284
8
285
0
286
0
287
3
288
0
340
11
  0
ENDTAB
  0
ENDSEC
  0
SECTION
  2
BLOCKS
  0
BLOCK
  5
20
100
AcDbEntity
  8
0
100
AcDbBlockBegin
  2
*Model_Space
 70
0
 10
0.0
 20
0.0
 30
0.0
  3
*Model_Space
  1

  0
ENDBLK
  5
21
100
AcDbEntity
  8
0
100
AcDbBlockEnd
  0
BLOCK
  5
1C
100
AcDbEntity
  8
0
100
AcDbBlockBegin
  2
*Paper_Space
 70
0
 10
0.0
 20
0.0
 30
0.0
  3
*Paper_Space
  1

  0
ENDBLK
  5
1D
100
AcDbEntity
  8
0
100
AcDbBlockEnd
  0
ENDSEC
  0
SECTION
  2
ENTITIES
  0
MTEXT
  5
217
100
AcDbEntity
  8
0
100
AcDbMText
 62
5
  6
CONTINUOUS
  7
STANDARD
 71
1
 72
1
 10
281.9068679824
 20
419.0039655346
 30
0.0
 11
0.0
 21
1.0
 31
0.0
 44
0.9
  1
RUD
 40
8.0
 41
21.3333333333
  0
MTEXT
  5
218
100
AcDbEntity
  8
0
100
AcDbMText
 62
5
  6
CONTINUOUS
  7
STANDARD
 71
1
 72
1
 10
559.422209747
 20
393.7223857803
 30
0.0
 11
0.0
 21
1.0
 31
0.0
 44
0.9
  1
RUD L-VLBG
 40
8.0
 41
62.8571428571
  0
MTEXT
  5
219
100
AcDbEntity
  8
0
100
AcDbMText
 62
5
  6
CONTINUOUS
  7
STANDARD
 71
1
 72
1
 10
204.7047580403
 20
94.3767966533
 30
0.0
 11
1.0
 21
0.0
 31
0.0
 44
0.9
  1
RUD L-VLBG
 40
8.0
 41
62.8571428571
  0
LINE
  5
21A
100
AcDbEntity
  8
0
100
AcDbLine
 62
7
  6
CONTINUOUS
 10
0.0
 20
0.0
 11
0.0
 21
594.0
  0
LINE
  5
21B
100
AcDbEntity
  8
0
100
AcDbLine
 62
7
  6
CONTINUOUS
 10
0.0
 20
0.0
 11
841.0
 21
0.0
  0
LINE
  5
21C
100
AcDbEntity
  8
0
100
AcDbLine
 62
7
  6
CONTINUOUS
 10
0.0
 20
594.0
 11
841.0
 21
594.0
  0
LINE
  5
21D
100
AcDbEntity
  8
0
100
AcDbLine
 62
7
  6
CONTINUOUS
 10
841.0
 20
0.0
 11
841.0
 21
594.0
  0
LINE
  5
21E
100
AcDbEntity
  8
0
100
AcDbLine
 62
7
  6
CONTINUOUS
 10
250.8277209065
 20
247.1558206397
 11
219.7347209065
 21
247.1558206397
  0
LINE
  5
21F
100
AcDbEntity
  8
BEZUGSACHSEN
100
AcDbLine
 62
7
  6
CONTINUOUS
 10
219.7812209065
 20
247.1558206397
 11
250.7812209065
 21
247.1558206397
  0
LINE
  5
220
100
AcDbEntity
  8
BEZUGSACHSEN
100
AcDbLine
 62
7
  6
CONTINUOUS
 10
217.2812209065
 20
249.6558206397
 11
253.2812209065
 21
249.6558206397
  0
LINE
  5
221
100
AcDbEntity
  8
BEZUGSACHSEN
100
AcDbLine
 62
7
  6
CONTINUOUS
 10
219.7812209065
 20
247.1558206397
 11
217.2812209065
 21
249.6558206397
  0
LINE
  5
222
100
AcDbEntity
  8
0
100
AcDbLine
 62
7
  6
CONTINUOUS
 10
180.7918591435
 20
442.4891527014
 11
180.4514336522
 21
441.8224885779
  0
LINE
  5
223
100
AcDbEntity
  8
0
100
AcDbLine
 62
7
  6
CONTINUOUS
 10
181.4727101262
 20
441.6558206397
 11
181.8131356175
 21
442.1558206397
  0
LINE
  5
224
100
AcDbEntity
  8
0
100
AcDbLine
 62
7
  6
CONTINUOUS
 10
181.4727101262
 20
443.1558206397
 11
180.7918591435
 21
442.4891527014
  0
LINE
  5
225
100
AcDbEntity
  8
BEZUGSACHSEN
100
AcDbLine
 62
7
  6
CONTINUOUS
 10
270.2812209065
 20
310.1558206397
 11
200.2812209065
 21
310.1558206397
  0
LINE
  5
226
100
AcDbEntity
  8
BEZUGSACHSEN
100
AcDbLine
 62
7
  6
CONTINUOUS
 10
270.2812209065
 20
318.1558206397
 11
200.2812209065
 21
318.1558206397
  0
LINE
  5
227
100
AcDbEntity
  8
RUNDUNGEN
100
AcDbLine
 62
7
  6
CONTINUOUS
 10
198.7812209065
 20
318.6558206397
 11
271.7812209065
 21
318.6558206397
  0
LINE
  5
228
100
AcDbEntity
  8
KONSTRUKTIONSELEMENTE
100
AcDbLine
 62
7
  6
CONTINUOUS
 10
174.2812209065
 20
488.8059719815
 11
174.2812209065
 21
360.405843991
  0
LINE
  5
229
100
AcDbEntity
  8
0
100
AcDbLine
 62
7
  6
CONTINUOUS
 10
174.2812209065
 20
360.405843991
 11
174.2812209065
 21
493.5091462009
  0
LINE
  5
22A
100
AcDbEntity
  8
0
100
AcDbLine
 62
7
  6
CONTINUOUS
 10
180.4514336522
 20
441.8224885779
 11
180.2812209065
 21
440.9891527014
  0
LINE
  5
22B
100
AcDbEntity
  8
0
100
AcDbLine
 62
7
  6
CONTINUOUS
 10
180.4514336522
 20
434.1558206397
 11
180.2812209065
 21
433.3224866706
  0
LINE
  5
22C
100
AcDbEntity
  8
0
100
AcDbLine
 62
7
  6
CONTINUOUS
 10
181.3024973805
 20
440.9891527014
 11
181.4727101262
 21
441.6558206397
  0
LINE
  5
22D
100
AcDbEntity
  8
0
100
AcDbLine
 62
7
  6
CONTINUOUS
 10
181.3024973805
 20
433.4891546088
 11
181.4727101262
 21
433.9891546088
  0
LINE
  5
22E
100
AcDbEntity
  8
0
100
AcDbLine
 62
7
  6
CONTINUOUS
 10
184.7067527707
 20
433.4891546088
 11
184.8769655163
 21
433.9891546088
  0
LINE
  5
22F
100
AcDbEntity
  8
0
100
AcDbLine
 62
7
  6
CONTINUOUS
 10
184.3663272793
 20
434.8224866706
 11
184.1961145337
 21
434.4891546088
  0
LINE
  5
230
100
AcDbEntity
  8
0
100
AcDbLine
 62
7
  6
CONTINUOUS
 10
187.7705826099
 20
437.9891546088
 11
188.1110081459
 21
438.6558206397
  0
LINE
  5
231
100
AcDbEntity
  8
0
100
AcDbLine
 62
7
  6
CONTINUOUS
 10
187.0897315676
 20
438.8224885779
 11
186.7493059571
 21
438.3224866706
  0
LINE
  5
232
100
AcDbEntity
  8
0
100
AcDbLine
 62
7
  6
CONTINUOUS
 10
180.9620718892
 20
434.8224866706
 11
180.4514336522
 21
434.1558206397
  0
LINE
  5
233
100
AcDbEntity
  8
0
100
AcDbLine
 62
7
  6
CONTINUOUS
 10
181.4727101262
 20
433.9891546088
 11
181.8131356175
 21
434.3224866706
  0
LINE
  5
234
100
AcDbEntity
  8
0
100
AcDbLine
 62
7
  6
CONTINUOUS
 10
187.0897315676
 20
437.3224866706
 11
187.7705826099
 21
437.9891546088
  0
LINE
  5
235
100
AcDbEntity
  8
0
100
AcDbLine
 62
7
  6
CONTINUOUS
 10
184.8769655163
 20
433.9891546088
 11
185.2173910077
 21
434.3224866706
  0
LINE
  5
236
100
AcDbEntity
  8
0
100
AcDbLine
 62
7
  6
CONTINUOUS
 10
181.6429228718
 20
435.3224866706
 11
180.9620718892
 21
434.8224866706
  0
LINE
  5
237
100
AcDbEntity
  8
0
100
AcDbLine
 62
7
  6
CONTINUOUS
 10
185.047178262
 20
435.3224866706
 11
184.3663272793
 21
434.8224866706
  0
LINE
  5
238
100
AcDbEntity
  8
0
100
AcDbLine
 62
7
  6
CONTINUOUS
 10
186.7493059571
 20
438.3224866706
 11
186.2386677201
 21
437.9891546088
  0
LINE
  5
239
100
AcDbEntity
  8
0
100
AcDbLine
 62
7
  6
CONTINUOUS
 10
186.4088804657
 20
436.9891546088
 11
187.0897315676
 21
437.3224866706
  0
LINE
  5
23A
100
AcDbEntity
  8
0
100
AcDbLine
 62
7
  6
CONTINUOUS
 10
181.8131356175
 20
442.1558206397
 11
182.3237743313
 21
442.3224885779
  0
LINE
  5
23B
100
AcDbEntity
  8
0
100
AcDbLine
 62
7
  6
CONTINUOUS
 10
180.2812209065
 20
440.9891527014
 11
180.2812209065
 21
439.4891527014
  0
LINE
  5
23C
100
AcDbEntity
  8
0
100
AcDbLine
 62
7
  6
CONTINUOUS
 10
180.2812209065
 20
433.3224866706
 11
180.2812209065
 21
429.3224866706
  0
LINE
  5
23D
100
AcDbEntity
  8
0
100
AcDbLine
 62
7
  6
CONTINUOUS
 10
180.2812209065
 20
422.9891546088
 11
180.2812209065
 21
421.9891536551
  0
LINE
  5
23E
100
AcDbEntity
  8
0
100
AcDbLine
 62
7
  6
CONTINUOUS
 10
180.2812209065
 20
420.6558206397
 11
180.2812209065
 21
419.6558206397
  0
LINE
  5
23F
100
AcDbEntity
  8
0
100
AcDbLine
 62
7
  6
CONTINUOUS
 10
180.2812209065
 20
414.9891536551
 11
180.2812209065
 21
413.989154132
  0
LINE
  5
240
100
AcDbEntity
  8
0
100
AcDbLine
 62
7
  6
CONTINUOUS
 10
180.2812209065
 20
407.6558206397
 11
180.2812209065
 21
406.6558206397
  0
LINE
  5
241
100
AcDbEntity
  8
0
100
AcDbLine
 62
7
  6
CONTINUOUS
 10
181.3024973805
 20
430.3224866706
 11
181.3024973805
 21
433.4891546088
  0
LINE
  5
242
100
AcDbEntity
  8
0
100
AcDbLine
 62
7
  6
CONTINUOUS
 10
181.3024973805
 20
439.4891527014
 11
181.3024973805
 21
440.9891527014
  0
LINE
  5
243
100
AcDbEntity
  8
0
100
AcDbLine
 62
7
  6
CONTINUOUS
 10
182.3237743313
 20
442.3224885779
 11
182.3237743313
 21
443.3224885779
  0
LINE
  5
244
100
AcDbEntity
  8
0
100
AcDbLine
 62
7
  6
CONTINUOUS
 10
183.6854762967
 20
433.4891546088
 11
183.6854762967
 21
430.3224866706
  0
LINE
  5
245
100
AcDbEntity
  8
0
100
AcDbLine
 62
7
  6
CONTINUOUS
 10
183.8556890423
 20
443.3224885779
 11
183.8556890423
 21
440.8224885779
  0
LINE
  5
246
100
AcDbEntity
  8
0
100
AcDbLine
 62
7
  6
CONTINUOUS
 10
184.7067527707
 20
430.3224866706
 11
184.7067527707
 21
433.4891546088
  0
LINE
  5
247
100
AcDbEntity
  8
0
100
AcDbLine
 62
7
  6
CONTINUOUS
 10
188.1110081459
 20
438.6558206397
 11
188.2812209065
 21
439.4891527014
  0
LINE
  5
248
100
AcDbEntity
  8
0
100
AcDbLine
 62
7
  6
CONTINUOUS
 10
187.2599443133
 20
439.4891527014
 11
187.0897315676
 21
438.8224885779
  0
LINE
  5
249
100
AcDbEntity
  8
0
100
AcDbLine
 62
7
  6
CONTINUOUS
 10
182.1535611088
 20
435.4891546088
 11
181.6429228718
 21
435.3224866706
  0
LINE
  5
24A
100
AcDbEntity
  8
0
100
AcDbLine
 62
7
  6
CONTINUOUS
 10
181.8131356175
 20
434.3224866706
 11
182.3237743313
 21
434.4891546088
  0
LINE
  5
24B
100
AcDbEntity
  8
0
100
AcDbLine
 62
7
  6
CONTINUOUS
 10
185.5578167374
 20
435.4891546088
 11
185.047178262
 21
435.3224866706
  0
LINE
  5
24C
100
AcDbEntity
  8
0
100
AcDbLine
 62
7
  6
CONTINUOUS
 10
185.2173910077
 20
434.3224866706
 11
185.7280294831
 21
434.4891546088
  0
LINE
  5
24D
100
AcDbEntity
  8
0
100
AcDbLine
 62
7
  6
CONTINUOUS
 10
184.8769655163
 20
440.8224885779
 11
184.8769655163
 21
442.3224885779
  0
LINE
  5
24E
100
AcDbEntity
  8
0
100
AcDbLine
 62
7
  6
CONTINUOUS
 10
187.2599443133
 20
440.9891527014
 11
187.2599443133
 21
439.4891527014
  0
LINE
  5
24F
100
AcDbEntity
  8
0
100
AcDbLine
 62
7
  6
CONTINUOUS
 10
187.2599443133
 20
433.4891546088
 11
187.2599443133
 21
430.3224866706
  0
LINE
  5
250
100
AcDbEntity
  8
0
100
AcDbLine
 62
7
  6
CONTINUOUS
 10
187.2599443133
 20
427.9891546088
 11
187.2599443133
 21
422.9891546088
  0
LINE
  5
251
100
AcDbEntity
  8
0
100
AcDbLine
 62
7
  6
CONTINUOUS
 10
187.2599443133
 20
412.6558206397
 11
187.2599443133
 21
407.6558206397
  0
LINE
  5
252
100
AcDbEntity
  8
0
100
AcDbLine
 62
7
  6
CONTINUOUS
 10
188.2812209065
 20
406.6558206397
 11
188.2812209065
 21
412.6558206397
  0
LINE
  5
253
100
AcDbEntity
  8
0
100
AcDbLine
 62
7
  6
CONTINUOUS
 10
188.2812209065
 20
416.6558206397
 11
188.2812209065
 21
417.9891536551
  0
LINE
  5
254
100
AcDbEntity
  8
0
100
AcDbLine
 62
7
  6
CONTINUOUS
 10
188.2812209065
 20
421.9891536551
 11
188.2812209065
 21
427.9891546088
  0
LINE
  5
255
100
AcDbEntity
  8
0
100
AcDbLine
 62
7
  6
CONTINUOUS
 10
188.2812209065
 20
429.3224866706
 11
188.2812209065
 21
433.3224866706
  0
LINE
  5
256
100
AcDbEntity
  8
0
100
AcDbLine
 62
7
  6
CONTINUOUS
 10
188.2812209065
 20
439.4891527014
 11
188.2812209065
 21
440.9891527014
  0
LINE
  5
257
100
AcDbEntity
  8
KONSTRUKTIONSELEMENTE
100
AcDbLine
 62
7
  6
CONTINUOUS
 10
194.2812209065
 20
485.232864105
 11
194.2812209065
 21
371.9058206397
  0
LINE
  5
258
100
AcDbEntity
  8
KONSTRUKTIONSELEMENTE
100
AcDbLine
 62
7
  6
CONTINUOUS
 10
194.2812209065
 20
485.232864105
 11
194.32873029
 21
486.2064813443
  0
LINE
  5
259
100
AcDbEntity
  8
0
100
AcDbLine
 62
7
  6
CONTINUOUS
 10
187.2599443133
 20
417.3224876242
 11
180.2812209065
 21
414.9891536551
  0
LINE
  5
25A
100
AcDbEntity
  8
0
100
AcDbLine
 62
7
  6
CONTINUOUS
 10
181.4727101262
 20
438.8224885779
 11
181.3024973805
 21
439.4891527014
  0
LINE
  5
25B
100
AcDbEntity
  8
0
100
AcDbLine
 62
7
  6
CONTINUOUS
 10
180.2812209065
 20
439.4891527014
 11
180.4514336522
 21
438.6558206397
  0
LINE
  5
25C
100
AcDbEntity
  8
RUNDUNGEN
100
AcDbLine
 62
7
  6
CONTINUOUS
 10
196.7812209065
 20
320.6558206397
 11
196.7812209065
 21
376.6558206397
  0
LINE
  5
25D
100
AcDbEntity
  8
BEZUGSACHSEN
100
AcDbLine
 62
7
  6
CONTINUOUS
 10
200.2812209065
 20
387.1558206397
 11
200.2812209065
 21
379.1558206397
  0
LINE
  5
25E
100
AcDbEntity
  8
BEZUGSACHSEN
100
AcDbLine
 62
7
  6
CONTINUOUS
 10
200.2812209065
 20
318.1558206397
 11
200.2812209065
 21
310.1558206397
  0
LINE
  5
25F
100
AcDbEntity
  8
BEZUGSACHSEN
100
AcDbLine
 62
7
  6
CONTINUOUS
 10
203.5269561011
 20
387.6558206397
 11
203.5269561011
 21
407.1996197091
  0
LINE
  5
260
100
AcDbEntity
  8
BEZUGSACHSEN
100
AcDbLine
 62
7
  6
CONTINUOUS
 10
203.5269561011
 20
407.1996197091
 11
207.7812209065
 21
409.6558206397
  0
LINE
  5
261
100
AcDbEntity
  8
0
100
AcDbLine
 62
7
  6
CONTINUOUS
 10
180.2812209065
 20
413.989154132
 11
188.2812209065
 21
416.6558206397
  0
LINE
  5
262
100
AcDbEntity
  8
0
100
AcDbLine
 62
7
  6
CONTINUOUS
 10
183.515263551
 20
433.9891546088
 11
183.6854762967
 21
433.4891546088
  0
LINE
  5
263
100
AcDbEntity
  8
0
100
AcDbLine
 62
7
  6
CONTINUOUS
 10
187.0897315676
 20
433.9891546088
 11
187.2599443133
 21
433.4891546088
  0
LINE
  5
264
100
AcDbEntity
  8
0
100
AcDbLine
 62
7
  6
CONTINUOUS
 10
187.0897315676
 20
441.6558206397
 11
187.2599443133
 21
440.9891527014
  0
LINE
  5
265
100
AcDbEntity
  8
0
100
AcDbLine
 62
7
  6
CONTINUOUS
 10
188.2812209065
 20
433.3224866706
 11
188.1110081459
 21
434.1558206397
  0
LINE
  5
266
100
AcDbEntity
  8
0
100
AcDbLine
 62
7
  6
CONTINUOUS
 10
188.2812209065
 20
440.9891527014
 11
188.1110081459
 21
441.8224885779
  0
LINE
  5
267
100
AcDbEntity
  8
BEZUGSACHSEN
100
AcDbLine
 62
7
  6
CONTINUOUS
 10
209.7312209065
 20
387.1558206397
 11
209.7312209065
 21
387.6558206397
  0
LINE
  5
268
100
AcDbEntity
  8
BEZUGSACHSEN
100
AcDbLine
 62
7
  6
CONTINUOUS
 10
210.2812209065
 20
379.1558206397
 11
210.2812209065
 21
378.6558206397
  0
LINE
  5
269
100
AcDbEntity
  8
BEZUGSACHSEN
100
AcDbLine
 62
7
  6
CONTINUOUS
 10
210.2812209065
 20
318.6558206397
 11
210.2812209065
 21
318.1558206397
  0
LINE
  5
26A
100
AcDbEntity
  8
0
100
AcDbLine
 62
7
  6
CONTINUOUS
 10
180.4514336522
 20
438.6558206397
 11
180.7918591435
 21
437.9891546088
  0
LINE
  5
26B
100
AcDbEntity
  8
0
100
AcDbLine
 62
7
  6
CONTINUOUS
 10
184.1961145337
 20
434.4891546088
 11
184.025901788
 21
434.8224866706
  0
LINE
  5
26C
100
AcDbEntity
  8
RUNDUNGEN
100
AcDbLine
 62
7
  6
CONTINUOUS
 10
222.8227400587
 20
370.9634672078
 11
222.7812209065
 21
371.6371539332
  0
LINE
  5
26D
100
AcDbEntity
  8
BEZUGSACHSEN
100
AcDbLine
 62
7
  6
CONTINUOUS
 10
217.2812209065
 20
249.6558206397
 11
217.2812209065
 21
310.1558206397
  0
LINE
  5
26E
100
AcDbEntity
  8
BEZUGSACHSEN
100
AcDbLine
 62
7
  6
CONTINUOUS
 10
219.4040885038
 20
387.6558206397
 11
219.4040885038
 21
407.1996197091
  0
LINE
  5
26F
100
AcDbEntity
  8
0
100
AcDbLine
 62
2
  6
CONTINUOUS
 10
219.7347209065
 20
310.1558206397
 11
219.7347209065
 21
247.1558206397
  0
LINE
  5
270
100
AcDbEntity
  8
RUNDUNGEN
100
AcDbLine
 62
7
  6
CONTINUOUS
 10
198.7812209065
 20
378.6558206397
 11
271.7812209065
 21
378.6558206397
  0
LINE
  5
271
100
AcDbEntity
  8
B-ACHSEN
100
AcDbLine
 62
7
  6
CONTINUOUS
 10
198.7812209065
 20
378.6558206397
 11
271.7812209065
 21
378.6558206397
  0
LINE
  5
272
100
AcDbEntity
  8
BEZUGSACHSEN
100
AcDbLine
 62
7
  6
CONTINUOUS
 10
270.2812209065
 20
379.1558206397
 11
200.2812209065
 21
379.1558206397
  0
LINE
  5
273
100
AcDbEntity
  8
0
100
AcDbLine
 62
7
  6
CONTINUOUS
 10
188.1110081459
 20
434.1558206397
 11
187.6003698642
 21
434.8224866706
  0
LINE
  5
274
100
AcDbEntity
  8
0
100
AcDbLine
 62
7
  6
CONTINUOUS
 10
181.8131356175
 20
438.3224866706
 11
181.4727101262
 21
438.8224885779
  0
LINE
  5
275
100
AcDbEntity
  8
0
100
AcDbLine
 62
7
  6
CONTINUOUS
 10
186.7493059571
 20
442.1558206397
 11
187.0897315676
 21
441.6558206397
  0
LINE
  5
276
100
AcDbEntity
  8
0
100
AcDbLine
 62
7
  6
CONTINUOUS
 10
188.1110081459
 20
441.8224885779
 11
187.7705826099
 21
442.4891527014
  0
LINE
  5
277
100
AcDbEntity
  8
KONSTRUKTIONSELEMENTE
100
AcDbLine
 62
7
  6
CONTINUOUS
 10
234.5360315531
 20
409.6558206397
 11
234.5360315531
 21
409.8558206397
  0
LINE
  5
278
100
AcDbEntity
  8
KONSTRUKTIONSELEMENTE
100
AcDbLine
 62
7
  6
CONTINUOUS
 10
234.582295172
 20
409.6558206397
 11
234.582295172
 21
409.8558206397
  0
LINE
  5
279
100
AcDbEntity
  8
KONSTRUKTIONSELEMENTE
100
AcDbLine
 62
7
  6
CONTINUOUS
 10
234.7325274167
 20
409.6558206397
 11
234.7325274167
 21
409.8558206397
  0
LINE
  5
27A
100
AcDbEntity
  8
KONSTRUKTIONSELEMENTE
100
AcDbLine
 62
7
  6
CONTINUOUS
 10
234.9735006105
 20
409.6558206397
 11
234.9735006105
 21
409.8558206397
  0
LINE
  5
27B
100
AcDbEntity
  8
KONSTRUKTIONSELEMENTE
100
AcDbLine
 62
7
  6
CONTINUOUS
 10
235.3118333233
 20
409.6558206397
 11
235.3118333233
 21
409.8558206397
  0
LINE
  5
27C
100
AcDbEntity
  8
KONSTRUKTIONSELEMENTE
100
AcDbLine
 62
7
  6
CONTINUOUS
 10
235.8514894402
 20
409.6558206397
 11
235.8514894402
 21
409.8558206397
  0
LINE
  5
27D
100
AcDbEntity
  8
KONSTRUKTIONSELEMENTE
100
AcDbLine
 62
7
  6
CONTINUOUS
 10
236.3779273803
 20
409.6558206397
 11
236.3779273803
 21
409.8558206397
  0
LINE
  5
27E
100
AcDbEntity
  8
BEZUGSACHSEN
100
AcDbLine
 62
7
  6
CONTINUOUS
 10
270.2812209065
 20
387.1558206397
 11
200.2812209065
 21
387.1558206397
  0
LINE
  5
27F
100
AcDbEntity
  8
KONSTRUKTIONSELEMENTE
100
AcDbLine
 62
7
  6
CONTINUOUS
 10
203.5269561011
 20
387.6558206397
 11
267.0354857119
 21
387.6558206397
  0
LINE
  5
280
100
AcDbEntity
  8
0
100
AcDbLine
 62
7
  6
CONTINUOUS
 10
183.1748380597
 20
434.3224866706
 11
183.515263551
 21
433.9891546088
  0
LINE
  5
281
100
AcDbEntity
  8
0
100
AcDbLine
 62
7
  6
CONTINUOUS
 10
180.7918591435
 20
437.9891546088
 11
181.4727101262
 21
437.3224866706
  0
LINE
  5
282
100
AcDbEntity
  8
0
100
AcDbLine
 62
7
  6
CONTINUOUS
 10
186.7493059571
 20
434.3224866706
 11
187.0897315676
 21
433.9891546088
  0
LINE
  5
283
100
AcDbEntity
  8
KONSTRUKTIONSELEMENTE
100
AcDbLine
 62
7
  6
CONTINUOUS
 10
236.8977514728
 20
409.6558206397
 11
236.8977514728
 21
409.8558206397
  0
LINE
  5
284
100
AcDbEntity
  8
KONSTRUKTIONSELEMENTE
100
AcDbLine
 62
7
  6
CONTINUOUS
 10
237.410971236
 20
409.6558206397
 11
237.410971236
 21
409.8558206397
  0
LINE
  5
285
100
AcDbEntity
  8
KONSTRUKTIONSELEMENTE
100
AcDbLine
 62
7
  6
CONTINUOUS
 10
237.9109728224
 20
409.6558206397
 11
237.9109728224
 21
409.8558206397
  0
LINE
  5
286
100
AcDbEntity
  8
KONSTRUKTIONSELEMENTE
100
AcDbLine
 62
7
  6
CONTINUOUS
 10
238.196432828
 20
409.6558206397
 11
238.196432828
 21
409.8558206397
  0
LINE
  5
287
100
AcDbEntity
  8
KONSTRUKTIONSELEMENTE
100
AcDbLine
 62
7
  6
CONTINUOUS
 10
238.3713151008
 20
409.6558206397
 11
238.3713151008
 21
409.8558206397
  0
LINE
  5
288
100
AcDbEntity
  8
KONSTRUKTIONSELEMENTE
100
AcDbLine
 62
7
  6
CONTINUOUS
 10
238.4957930254
 20
409.6558206397
 11
238.4957930254
 21
409.8558206397
  0
LINE
  5
289
100
AcDbEntity
  8
KONSTRUKTIONSELEMENTE
100
AcDbLine
 62
7
  6
CONTINUOUS
 10
238.9517432226
 20
409.6558206397
 11
238.9517432226
 21
409.8558206397
  0
LINE
  5
28A
100
AcDbEntity
  8
KONSTRUKTIONSELEMENTE
100
AcDbLine
 62
7
  6
CONTINUOUS
 10
239.0821618007
 20
409.6558206397
 11
239.0821618007
 21
409.8558206397
  0
LINE
  5
28B
100
AcDbEntity
  8
KONSTRUKTIONSELEMENTE
100
AcDbLine
 62
7
  6
CONTINUOUS
 10
239.5870986667
 20
409.6558206397
 11
239.5870986667
 21
409.8558206397
  0
LINE
  5
28C
100
AcDbEntity
  8
KONSTRUKTIONSELEMENTE
100
AcDbLine
 62
7
  6
CONTINUOUS
 10
240.6109299088
 20
409.6558206397
 11
240.6109299088
 21
409.8558206397
  0
LINE
  5
28D
100
AcDbEntity
  8
KONSTRUKTIONSELEMENTE
100
AcDbLine
 62
7
  6
CONTINUOUS
 10
240.6292199975
 20
409.6558206397
 11
240.6292199975
 21
409.8558206397
  0
LINE
  5
28E
100
AcDbEntity
  8
KONSTRUKTIONSELEMENTE
100
AcDbLine
 62
7
  6
CONTINUOUS
 10
240.8380186191
 20
409.6558206397
 11
240.8380186191
 21
409.8558206397
  0
LINE
  5
28F
100
AcDbEntity
  8
KONSTRUKTIONSELEMENTE
100
AcDbLine
 62
7
  6
CONTINUOUS
 10
240.9771413047
 20
409.6558206397
 11
240.9771413047
 21
409.8558206397
  0
LINE
  5
290
100
AcDbEntity
  8
KONSTRUKTIONSELEMENTE
100
AcDbLine
 62
7
  6
CONTINUOUS
 10
241.0165894802
 20
409.6558206397
 11
241.0165894802
 21
409.8558206397
  0
LINE
  5
291
100
AcDbEntity
  8
KONSTRUKTIONSELEMENTE
100
AcDbLine
 62
7
  6
CONTINUOUS
 10
241.1453591465
 20
409.6558206397
 11
241.1453591465
 21
409.8558206397
  0
LINE
  5
292
100
AcDbEntity
  8
KONSTRUKTIONSELEMENTE
100
AcDbLine
 62
7
  6
CONTINUOUS
 10
241.5473250485
 20
409.6558206397
 11
241.5473250485
 21
409.8558206397
  0
LINE
  5
293
100
AcDbEntity
  8
KONSTRUKTIONSELEMENTE
100
AcDbLine
 62
7
  6
CONTINUOUS
 10
241.8651842248
 20
409.6558206397
 11
241.8651842248
 21
409.8558206397
  0
LINE
  5
294
100
AcDbEntity
  8
KONSTRUKTIONSELEMENTE
100
AcDbLine
 62
7
  6
CONTINUOUS
 10
242.0937134424
 20
409.6558206397
 11
242.0937134424
 21
409.8558206397
  0
LINE
  5
295
100
AcDbEntity
  8
KONSTRUKTIONSELEMENTE
100
AcDbLine
 62
7
  6
CONTINUOUS
 10
242.4614501991
 20
409.6558206397
 11
242.4614501991
 21
409.8558206397
  0
LINE
  5
296
100
AcDbEntity
  8
KONSTRUKTIONSELEMENTE
100
AcDbLine
 62
7
  6
CONTINUOUS
 10
242.8790645363
 20
409.6558206397
 11
242.8790645363
 21
409.8558206397
  0
LINE
  5
297
100
AcDbEntity
  8
KONSTRUKTIONSELEMENTE
100
AcDbLine
 62
7
  6
CONTINUOUS
 10
243.4857597905
 20
409.6558206397
 11
243.4857597905
 21
409.8558206397
  0
LINE
  5
298
100
AcDbEntity
  8
KONSTRUKTIONSELEMENTE
100
AcDbLine
 62
7
  6
CONTINUOUS
 10
244.0976740749
 20
409.6558206397
 11
244.0976740749
 21
409.8558206397
  0
LINE
  5
299
100
AcDbEntity
  8
KONSTRUKTIONSELEMENTE
100
AcDbLine
 62
7
  6
CONTINUOUS
 10
244.6202626034
 20
409.6558206397
 11
244.6202626034
 21
409.8558206397
  0
LINE
  5
29A
100
AcDbEntity
  8
KONSTRUKTIONSELEMENTE
100
AcDbLine
 62
7
  6
CONTINUOUS
 10
244.9589849173
 20
409.6558206397
 11
244.9589849173
 21
409.8558206397
  0
LINE
  5
29B
100
AcDbEntity
  8
KONSTRUKTIONSELEMENTE
100
AcDbLine
 62
7
  6
CONTINUOUS
 10
245.1086219865
 20
409.6558206397
 11
245.1086219865
 21
409.8558206397
  0
LINE
  5
29C
100
AcDbEntity
  8
KONSTRUKTIONSELEMENTE
100
AcDbLine
 62
7
  6
CONTINUOUS
 10
245.1190557193
 20
409.6558206397
 11
245.1190557193
 21
409.8558206397
  0
LINE
  5
29D
100
AcDbEntity
  8
0
100
AcDbLine
 62
7
  6
CONTINUOUS
 10
188.2812209065
 20
417.9891536551
 11
180.2812209065
 21
420.6558206397
  0
LINE
  5
29E
100
AcDbEntity
  8
0
100
AcDbLine
 62
7
  6
CONTINUOUS
 10
180.2812209065
 20
419.6558206397
 11
187.2599443133
 21
417.3224876242
  0
LINE
  5
29F
100
AcDbEntity
  8
0
100
AcDbLine
 62
7
  6
CONTINUOUS
 10
182.3237743313
 20
437.9891546088
 11
181.8131356175
 21
438.3224866706
  0
LINE
  5
2A0
100
AcDbEntity
  8
0
100
AcDbLine
 62
7
  6
CONTINUOUS
 10
184.025901788
 20
434.8224866706
 11
183.3450508053
 21
435.3224866706
  0
LINE
  5
2A1
100
AcDbEntity
  8
0
100
AcDbLine
 62
7
  6
CONTINUOUS
 10
187.6003698642
 20
434.8224866706
 11
186.919518822
 21
435.3224866706
  0
LINE
  5
2A2
100
AcDbEntity
  8
0
100
AcDbLine
 62
7
  6
CONTINUOUS
 10
187.7705826099
 20
442.4891527014
 11
187.0897315676
 21
443.1558206397
  0
LINE
  5
2A3
100
AcDbEntity
  8
KONSTRUKTIONSELEMENTE
100
AcDbLine
 62
7
  6
CONTINUOUS
 10
247.348421173
 20
409.6558206397
 11
247.348421173
 21
409.8558206397
  0
LINE
  5
2A4
100
AcDbEntity
  8
KONSTRUKTIONSELEMENTE
100
AcDbLine
 62
7
  6
CONTINUOUS
 10
247.8491359327
 20
409.6558206397
 11
247.8491359327
 21
409.8558206397
  0
LINE
  5
2A5
100
AcDbEntity
  8
KONSTRUKTIONSELEMENTE
100
AcDbLine
 62
7
  6
CONTINUOUS
 10
247.9041799999
 20
409.6558206397
 11
247.9041799999
 21
409.8558206397
  0
LINE
  5
2A6
100
AcDbEntity
  8
KONSTRUKTIONSELEMENTE
100
AcDbLine
 62
7
  6
CONTINUOUS
 10
248.0461275061
 20
409.6558206397
 11
248.0461275061
 21
409.8558206397
  0
LINE
  5
2A7
100
AcDbEntity
  8
KONSTRUKTIONSELEMENTE
100
AcDbLine
 62
7
  6
CONTINUOUS
 10
248.47389706
 20
409.6558206397
 11
248.47389706
 21
409.8558206397
  0
LINE
  5
2A8
100
AcDbEntity
  8
KONSTRUKTIONSELEMENTE
100
AcDbLine
 62
7
  6
CONTINUOUS
 10
249.5214749921
 20
409.6558206397
 11
249.5214749921
 21
409.8558206397
  0
LINE
  5
2A9
100
AcDbEntity
  8
KONSTRUKTIONSELEMENTE
100
AcDbLine
 62
7
  6
CONTINUOUS
 10
249.7322346201
 20
409.6558206397
 11
249.7322346201
 21
409.8558206397
  0
LINE
  5
2AA
100
AcDbEntity
  8
KONSTRUKTIONSELEMENTE
100
AcDbLine
 62
7
  6
CONTINUOUS
 10
249.8183096464
 20
409.6558206397
 11
249.8183096464
 21
409.8558206397
  0
LINE
  5
2AB
100
AcDbEntity
  8
KONSTRUKTIONSELEMENTE
100
AcDbLine
 62
7
  6
CONTINUOUS
 10
250.0847515087
 20
409.6558206397
 11
250.0847515087
 21
409.8558206397
  0
LINE
  5
2AC
100
AcDbEntity
  8
KONSTRUKTIONSELEMENTE
100
AcDbLine
 62
7
  6
CONTINUOUS
 10
250.4901938495
 20
409.6558206397
 11
250.4901938495
 21
409.8558206397
  0
LINE
  5
2AD
100
AcDbEntity
  8
0
100
AcDbLine
 62
2
  6
CONTINUOUS
 10
250.8277209065
 20
310.1558206397
 11
250.8277209065
 21
247.1558206397
  0
LINE
  5
2AE
100
AcDbEntity
  8
KONSTRUKTIONSELEMENTE
100
AcDbLine
 62
7
  6
CONTINUOUS
 10
250.9783690253
 20
409.6558206397
 11
250.9783690253
 21
409.8558206397
  0
LINE
  5
2AF
100
AcDbEntity
  8
BEZUGSACHSEN
100
AcDbLine
 62
7
  6
CONTINUOUS
 10
251.1583533092
 20
387.6558206397
 11
251.1583533092
 21
407.1996197091
  0
LINE
  5
2B0
100
AcDbEntity
  8
KONSTRUKTIONSELEMENTE
100
AcDbLine
 62
7
  6
CONTINUOUS
 10
251.5492768308
 20
409.6558206397
 11
251.5492768308
 21
409.8558206397
  0
LINE
  5
2B1
100
AcDbEntity
  8
KONSTRUKTIONSELEMENTE
100
AcDbLine
 62
7
  6
CONTINUOUS
 10
251.9662800572
 20
409.6558206397
 11
251.9662800572
 21
409.8558206397
  0
LINE
  5
2B2
100
AcDbEntity
  8
KONSTRUKTIONSELEMENTE
100
AcDbLine
 62
7
  6
CONTINUOUS
 10
252.4660151034
 20
409.6558206397
 11
252.4660151034
 21
409.8558206397
  0
LINE
  5
2B3
100
AcDbEntity
  8
KONSTRUKTIONSELEMENTE
100
AcDbLine
 62
7
  6
CONTINUOUS
 10
252.7704801339
 20
409.6558206397
 11
252.7704801339
 21
409.8558206397
  0
LINE
  5
2B4
100
AcDbEntity
  8
KONSTRUKTIONSELEMENTE
100
AcDbLine
 62
7
  6
CONTINUOUS
 10
252.8185322057
 20
409.6558206397
 11
252.8185322057
 21
409.8558206397
  0
LINE
  5
2B5
100
AcDbEntity
  8
KONSTRUKTIONSELEMENTE
100
AcDbLine
 62
7
  6
CONTINUOUS
 10
253.1528026655
 20
409.6558206397
 11
253.1528026655
 21
409.8558206397
  0
LINE
  5
2B6
100
AcDbEntity
  8
BEZUGSACHSEN
100
AcDbLine
 62
7
  6
CONTINUOUS
 10
253.2812209065
 20
249.6558206397
 11
253.2812209065
 21
310.1558206397
  0
LINE
  5
2B7
100
AcDbEntity
  8
KONSTRUKTIONSELEMENTE
100
AcDbLine
 62
7
  6
CONTINUOUS
 10
253.6674408997
 20
409.6558206397
 11
253.6674408997
 21
409.8558206397
  0
LINE
  5
2B8
100
AcDbEntity
  8
KONSTRUKTIONSELEMENTE
100
AcDbLine
 62
7
  6
CONTINUOUS
 10
254.1671768927
 20
409.6558206397
 11
254.1671768927
 21
409.8558206397
  0
LINE
  5
2B9
100
AcDbEntity
  8
KONSTRUKTIONSELEMENTE
100
AcDbLine
 62
7
  6
CONTINUOUS
 10
254.4716419233
 20
409.6558206397
 11
254.4716419233
 21
409.8558206397
  0
LINE
  5
2BA
100
AcDbEntity
  8
KONSTRUKTIONSELEMENTE
100
AcDbLine
 62
7
  6
CONTINUOUS
 10
254.6371065096
 20
409.6558206397
 11
254.6371065096
 21
409.8558206397
  0
LINE
  5
2BB
100
AcDbEntity
  8
KONSTRUKTIONSELEMENTE
100
AcDbLine
 62
7
  6
CONTINUOUS
 10
254.7463015246
 20
409.6558206397
 11
254.7463015246
 21
409.8558206397
  0
LINE
  5
2BC
100
AcDbEntity
  8
KONSTRUKTIONSELEMENTE
100
AcDbLine
 62
7
  6
CONTINUOUS
 10
255.1835201298
 20
409.6558206397
 11
255.1835201298
 21
409.8558206397
  0
LINE
  5
2BD
100
AcDbEntity
  8
KONSTRUKTIONSELEMENTE
100
AcDbLine
 62
7
  6
CONTINUOUS
 10
255.6565646806
 20
409.6558206397
 11
255.6565646806
 21
409.8558206397
  0
LINE
  5
2BE
100
AcDbEntity
  8
KONSTRUKTIONSELEMENTE
100
AcDbLine
 62
7
  6
CONTINUOUS
 10
255.9184221716
 20
409.6558206397
 11
255.9184221716
 21
409.8558206397
  0
LINE
  5
2BF
100
AcDbEntity
  8
KONSTRUKTIONSELEMENTE
100
AcDbLine
 62
7
  6
CONTINUOUS
 10
256.1126897534
 20
409.6558206397
 11
256.1126897534
 21
409.8558206397
  0
LINE
  5
2C0
100
AcDbEntity
  8
KONSTRUKTIONSELEMENTE
100
AcDbLine
 62
7
  6
CONTINUOUS
 10
256.138025114
 20
409.6558206397
 11
256.138025114
 21
409.8558206397
  0
LINE
  5
2C1
100
AcDbEntity
  8
KONSTRUKTIONSELEMENTE
100
AcDbLine
 62
7
  6
CONTINUOUS
 10
256.3529411243
 20
409.6558206397
 11
256.3529411243
 21
409.8558206397
  0
LINE
  5
2C2
100
AcDbEntity
  8
RUNDUNGEN
100
AcDbLine
 62
7
  6
CONTINUOUS
 10
247.7812209065
 20
371.6371539332
 11
247.7397044509
 21
370.9634863648
  0
LINE
  5
2C3
100
AcDbEntity
  8
0
100
AcDbLine
 62
7
  6
CONTINUOUS
 10
180.2812209065
 20
406.6558206397
 11
188.2812209065
 21
406.6558206397
  0
LINE
  5
2C4
100
AcDbEntity
  8
0
100
AcDbLine
 62
7
  6
CONTINUOUS
 10
187.2599443133
 20
407.6558206397
 11
180.2812209065
 21
407.6558206397
  0
LINE
  5
2C5
100
AcDbEntity
  8
BEZUGSACHSEN
100
AcDbLine
 62
7
  6
CONTINUOUS
 10
207.7815431293
 20
409.6558206397
 11
262.7808986837
 21
409.6558206397
  0
LINE
  5
2C6
100
AcDbEntity
  8
KONSTRUKTIONSELEMENTE
100
AcDbLine
 62
7
  6
CONTINUOUS
 10
234.5360315531
 20
409.8558206397
 11
239.5870986667
 21
409.8558206397
  0
LINE
  5
2C7
100
AcDbEntity
  8
KONSTRUKTIONSELEMENTE
100
AcDbLine
 62
7
  6
CONTINUOUS
 10
240.6109299088
 20
409.8558206397
 11
256.3529411243
 21
409.8558206397
  0
LINE
  5
2C8
100
AcDbEntity
  8
0
100
AcDbLine
 62
7
  6
CONTINUOUS
 10
181.4727101262
 20
437.3224866706
 11
182.1535611088
 21
436.9891546088
  0
LINE
  5
2C9
100
AcDbEntity
  8
BEZUGSACHSEN
100
AcDbLine
 62
7
  6
CONTINUOUS
 10
260.2812209065
 20
379.1558206397
 11
260.2812209065
 21
378.6558206397
  0
LINE
  5
2CA
100
AcDbEntity
  8
BEZUGSACHSEN
100
AcDbLine
 62
7
  6
CONTINUOUS
 10
260.2812209065
 20
318.6558206397
 11
260.2812209065
 21
318.1558206397
  0
LINE
  5
2CB
100
AcDbEntity
  8
BEZUGSACHSEN
100
AcDbLine
 62
7
  6
CONTINUOUS
 10
260.8312209065
 20
387.1558206397
 11
260.8312209065
 21
387.6558206397
  0
LINE
  5
2CC
100
AcDbEntity
  8
BEZUGSACHSEN
100
AcDbLine
 62
7
  6
CONTINUOUS
 10
267.0354857119
 20
387.6558206397
 11
267.0354857119
 21
407.1996197091
  0
LINE
  5
2CD
100
AcDbEntity
  8
0
100
AcDbLine
 62
7
  6
CONTINUOUS
 10
188.2812209065
 20
412.6558206397
 11
187.2599443133
 21
412.6558206397
  0
LINE
  5
2CE
100
AcDbEntity
  8
0
100
AcDbLine
 62
7
  6
CONTINUOUS
 10
180.2812209065
 20
421.9891536551
 11
188.2812209065
 21
421.9891536551
  0
LINE
  5
2CF
100
AcDbEntity
  8
0
100
AcDbLine
 62
7
  6
CONTINUOUS
 10
182.6641998227
 20
434.4891546088
 11
183.1748380597
 21
434.3224866706
  0
LINE
  5
2D0
100
AcDbEntity
  8
0
100
AcDbLine
 62
7
  6
CONTINUOUS
 10
183.3450508053
 20
435.3224866706
 11
182.8344125683
 21
435.4891546088
  0
LINE
  5
2D1
100
AcDbEntity
  8
0
100
AcDbLine
 62
7
  6
CONTINUOUS
 10
186.2386677201
 20
434.4891546088
 11
186.7493059571
 21
434.3224866706
  0
LINE
  5
2D2
100
AcDbEntity
  8
0
100
AcDbLine
 62
7
  6
CONTINUOUS
 10
186.919518822
 20
435.3224866706
 11
186.4088804657
 21
435.4891546088
  0
LINE
  5
2D3
100
AcDbEntity
  8
BEZUGSACHSEN
100
AcDbLine
 62
7
  6
CONTINUOUS
 10
267.0354857119
 20
407.1996197091
 11
262.7812209065
 21
409.6558206397
  0
LINE
  5
2D4
100
AcDbEntity
  8
BEZUGSACHSEN
100
AcDbLine
 62
7
  6
CONTINUOUS
 10
270.2812209065
 20
387.1558206397
 11
270.2812209065
 21
379.1558206397
  0
LINE
  5
2D5
100
AcDbEntity
  8
BEZUGSACHSEN
100
AcDbLine
 62
7
  6
CONTINUOUS
 10
270.2812209065
 20
318.1558206397
 11
270.2812209065
 21
310.1558206397
  0
LINE
  5
2D6
100
AcDbEntity
  8
RUNDUNGEN
100
AcDbLine
 62
7
  6
CONTINUOUS
 10
273.7812209065
 20
376.6558206397
 11
273.7812209065
 21
320.6558206397
  0
LINE
  5
2D7
100
AcDbEntity
  8
0
100
AcDbLine
 62
7
  6
CONTINUOUS
 10
276.2812209065
 20
371.9058206397
 11
276.2812209065
 21
485.232864105
  0
LINE
  5
2D8
100
AcDbEntity
  8
0
100
AcDbLine
 62
7
  6
CONTINUOUS
 10
187.2599443133
 20
422.9891546088
 11
180.2812209065
 21
422.9891546088
  0
LINE
  5
2D9
100
AcDbEntity
  8
0
100
AcDbLine
 62
7
  6
CONTINUOUS
 10
188.2812209065
 20
427.9891546088
 11
187.2599443133
 21
427.9891546088
  0
LINE
  5
2DA
100
AcDbEntity
  8
0
100
AcDbLine
 62
7
  6
CONTINUOUS
 10
180.2812209065
 20
429.3224866706
 11
188.2812209065
 21
429.3224866706
  0
LINE
  5
2DB
100
AcDbEntity
  8
0
100
AcDbLine
 62
7
  6
CONTINUOUS
 10
187.2599443133
 20
430.3224866706
 11
184.7067527707
 21
430.3224866706
  0
LINE
  5
2DC
100
AcDbEntity
  8
0
100
AcDbLine
 62
7
  6
CONTINUOUS
 10
183.6854762967
 20
430.3224866706
 11
181.3024973805
 21
430.3224866706
  0
LINE
  5
2DD
100
AcDbEntity
  8
0
100
AcDbLine
 62
7
  6
CONTINUOUS
 10
182.1535611088
 20
436.9891546088
 11
183.004625314
 21
436.8224866706
  0
LINE
  5
2DE
100
AcDbEntity
  8
0
100
AcDbLine
 62
7
  6
CONTINUOUS
 10
183.004625314
 20
437.8224866706
 11
182.3237743313
 21
437.9891546088
  0
LINE
  5
2DF
100
AcDbEntity
  8
0
100
AcDbLine
 62
7
  6
CONTINUOUS
 10
187.0897315676
 20
443.1558206397
 11
186.4088804657
 21
443.3224885779
  0
LINE
  5
2E0
100
AcDbEntity
  8
0
100
AcDbLine
 62
7
  6
CONTINUOUS
 10
186.2386677201
 20
442.3224885779
 11
186.7493059571
 21
442.1558206397
  0
LINE
  5
2E1
100
AcDbEntity
  8
0
100
AcDbLine
 62
7
  6
CONTINUOUS
 10
276.2812209065
 20
485.232864105
 11
276.233711523
 21
486.2064813443
  0
LINE
  5
2E2
100
AcDbEntity
  8
0
100
AcDbLine
 62
7
  6
CONTINUOUS
 10
182.3237743313
 20
434.4891546088
 11
182.6641998227
 21
434.4891546088
  0
LINE
  5
2E3
100
AcDbEntity
  8
0
100
AcDbLine
 62
7
  6
CONTINUOUS
 10
185.7280294831
 20
434.4891546088
 11
186.2386677201
 21
434.4891546088
  0
LINE
  5
2E4
100
AcDbEntity
  8
0
100
AcDbLine
 62
7
  6
CONTINUOUS
 10
186.4088804657
 20
435.4891546088
 11
185.5578167374
 21
435.4891546088
  0
LINE
  5
2E5
100
AcDbEntity
  8
0
100
AcDbLine
 62
7
  6
CONTINUOUS
 10
182.8344125683
 20
435.4891546088
 11
182.1535611088
 21
435.4891546088
  0
LINE
  5
2E6
100
AcDbEntity
  8
0
100
AcDbLine
 62
7
  6
CONTINUOUS
 10
183.004625314
 20
436.8224866706
 11
185.5578167374
 21
436.8224866706
  0
LINE
  5
2E7
100
AcDbEntity
  8
0
100
AcDbLine
 62
7
  6
CONTINUOUS
 10
185.5578167374
 20
437.8224866706
 11
183.004625314
 21
437.8224866706
  0
LINE
  5
2E8
100
AcDbEntity
  8
0
100
AcDbLine
 62
7
  6
CONTINUOUS
 10
183.8556890423
 20
440.8224885779
 11
184.8769655163
 21
440.8224885779
  0
LINE
  5
2E9
100
AcDbEntity
  8
0
100
AcDbLine
 62
7
  6
CONTINUOUS
 10
184.8769655163
 20
442.3224885779
 11
186.2386677201
 21
442.3224885779
  0
LINE
  5
2EA
100
AcDbEntity
  8
0
100
AcDbLine
 62
7
  6
CONTINUOUS
 10
186.4088804657
 20
443.3224885779
 11
183.8556890423
 21
443.3224885779
  0
LINE
  5
2EB
100
AcDbEntity
  8
0
100
AcDbLine
 62
7
  6
CONTINUOUS
 10
296.2812209065
 20
493.5091462009
 11
296.2812209065
 21
360.405843991
  0
LINE
  5
2EC
100
AcDbEntity
  8
0
100
AcDbLine
 62
7
  6
CONTINUOUS
 10
186.2386677201
 20
437.9891546088
 11
185.5578167374
 21
437.8224866706
  0
LINE
  5
2ED
100
AcDbEntity
  8
0
100
AcDbLine
 62
7
  6
CONTINUOUS
 10
185.5578167374
 20
436.8224866706
 11
186.4088804657
 21
436.9891546088
  0
LINE
  5
2EE
100
AcDbEntity
  8
0
100
AcDbLine
 62
7
  6
CONTINUOUS
 10
182.3237743313
 20
443.3224885779
 11
181.4727101262
 21
443.1558206397
  0
LINE
  5
2EF
100
AcDbEntity
  8
BEZUGSACHSEN
100
AcDbLine
 62
7
  6
CONTINUOUS
 10
250.7812209065
 20
247.1558206397
 11
253.2812209065
 21
249.6558206397
  0
LINE
  5
2F0
100
AcDbEntity
  8
0
100
AcDbLine
 62
7
  6
CONTINUOUS
 10
535.9609462787
 20
247.1558206397
 11
504.8679462787
 21
247.1558206397
  0
LINE
  5
2F1
100
AcDbEntity
  8
BEZUGSACHSEN
100
AcDbLine
 62
7
  6
CONTINUOUS
 10
504.9144462787
 20
247.1558206397
 11
535.9144462787
 21
247.1558206397
  0
LINE
  5
2F2
100
AcDbEntity
  8
BEZUGSACHSEN
100
AcDbLine
 62
7
  6
CONTINUOUS
 10
502.4144462787
 20
249.6558206397
 11
538.4144462787
 21
249.6558206397
  0
LINE
  5
2F3
100
AcDbEntity
  8
BEZUGSACHSEN
100
AcDbLine
 62
7
  6
CONTINUOUS
 10
504.9144462787
 20
247.1558206397
 11
502.4144462787
 21
249.6558206397
  0
LINE
  5
2F4
100
AcDbEntity
  8
BEZUGSACHSEN
100
AcDbLine
 62
7
  6
CONTINUOUS
 10
485.4144462787
 20
310.1558206397
 11
555.4144462787
 21
310.1558206397
  0
LINE
  5
2F5
100
AcDbEntity
  8
BEZUGSACHSEN
100
AcDbLine
 62
7
  6
CONTINUOUS
 10
485.4144462787
 20
318.1558206397
 11
555.4144462787
 21
318.1558206397
  0
LINE
  5
2F6
100
AcDbEntity
  8
RUNDUNGEN
100
AcDbLine
 62
7
  6
CONTINUOUS
 10
480.4144462816
 20
318.6558206397
 11
563.4144462787
 21
318.6558206397
  0
LINE
  5
2F7
100
AcDbEntity
  8
B-ACHSEN
100
AcDbLine
 62
7
  6
CONTINUOUS
 10
478.4144462787
 20
320.6558206397
 11
478.4144462787
 21
346.6558206397
  0
LINE
  5
2F8
100
AcDbEntity
  8
B-ACHSEN
100
AcDbLine
 62
7
  6
CONTINUOUS
 10
478.4144462787
 20
350.6558206397
 11
478.4144462787
 21
376.6558206397
  0
LINE
  5
2F9
100
AcDbEntity
  8
BEZUGSACHSEN
100
AcDbLine
 62
7
  6
CONTINUOUS
 10
485.4144462787
 20
387.1558206397
 11
485.4144462787
 21
379.1558206397
  0
LINE
  5
2FA
100
AcDbEntity
  8
BEZUGSACHSEN
100
AcDbLine
 62
7
  6
CONTINUOUS
 10
485.4144462787
 20
318.1558206397
 11
485.4144462787
 21
310.1558206397
  0
LWPOLYLINE
  5
2FB
100
AcDbEntity
  8
0
100
AcDbPolyline
 62
7
  6
CONTINUOUS
 90
5
 70
0
 10
564.2536367377
 20
335.4060346719
 10
564.9608607984
 20
335.4302874575
 10
565.9759006432
 20
335.535933086
 10
566.9920169172
 20
335.7276884421
 10
567.9987874579
 20
336.0061809969
  0
LINE
  5
2FC
100
AcDbEntity
  8
0
100
AcDbLine
 62
7
  6
CONTINUOUS
 10
562.7075634363
 20
335.4058206397
 11
564.2536367377
 21
335.4060346719
  0
LINE
  5
2FD
100
AcDbEntity
  8
KONSTRUKTIONSELEMENTE
100
AcDbLine
 62
7
  6
CONTINUOUS
 10
562.7075634363
 20
335.4058206397
 11
562.5752558197
 21
335.4060346719
  0
LINE
  5
2FE
100
AcDbEntity
  8
BEZUGSACHSEN
100
AcDbLine
 62
7
  6
CONTINUOUS
 10
492.9144462787
 20
387.6558206397
 11
492.9144462787
 21
409.6558206396
  0
LINE
  5
2FF
100
AcDbEntity
  8
BEZUGSACHSEN
100
AcDbLine
 62
7
  6
CONTINUOUS
 10
494.8644462787
 20
387.1558206397
 11
494.8644462787
 21
387.6558206397
  0
LINE
  5
300
100
AcDbEntity
  8
BEZUGSACHSEN
100
AcDbLine
 62
7
  6
CONTINUOUS
 10
495.4144462787
 20
379.1558206397
 11
495.4144462787
 21
378.6558206397
  0
LINE
  5
301
100
AcDbEntity
  8
BEZUGSACHSEN
100
AcDbLine
 62
7
  6
CONTINUOUS
 10
495.4144462787
 20
350.6558206397
 11
495.4144462787
 21
346.6558206397
  0
LINE
  5
302
100
AcDbEntity
  8
BEZUGSACHSEN
100
AcDbLine
 62
7
  6
CONTINUOUS
 10
495.4144462787
 20
318.6558206397
 11
495.4144462787
 21
318.1558206397
  0
LINE
  5
303
100
AcDbEntity
  8
KONSTRUKTIONSELEMENTE
100
AcDbLine
 62
7
  6
CONTINUOUS
 10
478.4148973906
 20
346.6558206397
 11
549.0530396623
 21
346.6558206397
  0
LWPOLYLINE
  5
304
100
AcDbEntity
  8
0
100
AcDbPolyline
 62
7
  6
CONTINUOUS
 90
3
 70
0
 10
557.8435295125
 20
336.3708644892
 10
558.8301050995
 20
336.0061809969
 10
558.9287434969
 20
335.978895674
  0
LINE
  5
305
100
AcDbEntity
  8
KONSTRUKTIONSELEMENTE
100
AcDbLine
 62
7
  6
CONTINUOUS
 10
499.3307089169
 20
409.6558206397
 11
499.3307089169
 21
409.8558206397
  0
LINE
  5
306
100
AcDbEntity
  8
BEZUGSACHSEN
100
AcDbLine
 62
7
  6
CONTINUOUS
 10
502.4144462787
 20
249.6558206397
 11
502.4144462787
 21
310.1558206397
  0
LINE
  5
307
100
AcDbEntity
  8
KONSTRUKTIONSELEMENTE
100
AcDbLine
 62
7
  6
CONTINUOUS
 10
504.2925047299
 20
409.6558206397
 11
504.2925047299
 21
409.8558206397
  0
LINE
  5
308
100
AcDbEntity
  8
KONSTRUKTIONSELEMENTE
100
AcDbLine
 62
7
  6
CONTINUOUS
 10
504.3696189218
 20
409.6558206397
 11
504.3696189218
 21
409.8558206397
  0
LINE
  5
309
100
AcDbEntity
  8
KONSTRUKTIONSELEMENTE
100
AcDbLine
 62
7
  6
CONTINUOUS
 10
504.6909280426
 20
409.6558206397
 11
504.6909280426
 21
409.8558206397
  0
LINE
  5
30A
100
AcDbEntity
  8
KONSTRUKTIONSELEMENTE
100
AcDbLine
 62
7
  6
CONTINUOUS
 10
504.7808946244
 20
409.6558206397
 11
504.7808946244
 21
409.8558206397
  0
LINE
  5
30B
100
AcDbEntity
  8
0
100
AcDbLine
 62
2
  6
CONTINUOUS
 10
504.8679462787
 20
310.1558206397
 11
504.8679462787
 21
247.1558206397
  0
LINE
  5
30C
100
AcDbEntity
  8
KONSTRUKTIONSELEMENTE
100
AcDbLine
 62
7
  6
CONTINUOUS
 10
505.0277781613
 20
409.6558206397
 11
505.0277781613
 21
409.8558206397
  0
LINE
  5
30D
100
AcDbEntity
  8
KONSTRUKTIONSELEMENTE
100
AcDbLine
 62
7
  6
CONTINUOUS
 10
505.3909716678
 20
409.6558206397
 11
505.3909716678
 21
409.8558206397
  0
LINE
  5
30E
100
AcDbEntity
  8
KONSTRUKTIONSELEMENTE
100
AcDbLine
 62
7
  6
CONTINUOUS
 10
505.6990415981
 20
409.6558206397
 11
505.6990415981
 21
409.8558206397
  0
LINE
  5
30F
100
AcDbEntity
  8
KONSTRUKTIONSELEMENTE
100
AcDbLine
 62
7
  6
CONTINUOUS
 10
505.8676727478
 20
409.6558206397
 11
505.8676727478
 21
409.8558206397
  0
LINE
  5
310
100
AcDbEntity
  8
KONSTRUKTIONSELEMENTE
100
AcDbLine
 62
7
  6
CONTINUOUS
 10
505.98118033
 20
409.6558206397
 11
505.98118033
 21
409.8558206397
  0
LINE
  5
311
100
AcDbEntity
  8
KONSTRUKTIONSELEMENTE
100
AcDbLine
 62
7
  6
CONTINUOUS
 10
478.4148973906
 20
350.6558206397
 11
549.0530396623
 21
350.6558206397
  0
LINE
  5
312
100
AcDbEntity
  8
0
100
AcDbLine
 62
7
  6
CONTINUOUS
 10
556.8858026478
 20
336.8201480264
 11
557.8435295125
 21
336.3708644892
  0
LINE
  5
313
100
AcDbEntity
  8
KONSTRUKTIONSELEMENTE
100
AcDbLine
 62
7
  6
CONTINUOUS
 10
506.9773107759
 20
409.6558206397
 11
506.9773107759
 21
409.8558206397
  0
LINE
  5
314
100
AcDbEntity
  8
KONSTRUKTIONSELEMENTE
100
AcDbLine
 62
7
  6
CONTINUOUS
 10
508.6185162453
 20
409.6558206397
 11
508.6185162453
 21
409.8558206397
  0
LINE
  5
315
100
AcDbEntity
  8
KONSTRUKTIONSELEMENTE
100
AcDbLine
 62
7
  6
CONTINUOUS
 10
508.8801852164
 20
409.6558206397
 11
508.8801852164
 21
409.8558206397
  0
LINE
  5
316
100
AcDbEntity
  8
KONSTRUKTIONSELEMENTE
100
AcDbLine
 62
7
  6
CONTINUOUS
 10
508.9932210015
 20
409.6558206397
 11
508.9932210015
 21
409.8558206397
  0
LINE
  5
317
100
AcDbEntity
  8
KONSTRUKTIONSELEMENTE
100
AcDbLine
 62
7
  6
CONTINUOUS
 10
513.7197848743
 20
409.6558206397
 11
513.7197848743
 21
409.8558206397
  0
LINE
  5
318
100
AcDbEntity
  8
KONSTRUKTIONSELEMENTE
100
AcDbLine
 62
7
  6
CONTINUOUS
 10
514.730809474
 20
409.6558206397
 11
514.730809474
 21
409.8558206397
  0
LINE
  5
319
100
AcDbEntity
  8
KONSTRUKTIONSELEMENTE
100
AcDbLine
 62
7
  6
CONTINUOUS
 10
515.3428989954
 20
409.6558206397
 11
515.3428989954
 21
409.8558206397
  0
LINE
  5
31A
100
AcDbEntity
  8
KONSTRUKTIONSELEMENTE
100
AcDbLine
 62
7
  6
CONTINUOUS
 10
516.7711071003
 20
409.6558206397
 11
516.7711071003
 21
409.8558206397
  0
LINE
  5
31B
100
AcDbEntity
  8
KONSTRUKTIONSELEMENTE
100
AcDbLine
 62
7
  6
CONTINUOUS
 10
517.5872280187
 20
409.6558206397
 11
517.5872280187
 21
409.8558206397
  0
LINE
  5
31C
100
AcDbEntity
  8
KONSTRUKTIONSELEMENTE
100
AcDbLine
 62
7
  6
CONTINUOUS
 10
518.2195231152
 20
409.6558206397
 11
518.2195231152
 21
409.8558206397
  0
LINE
  5
31D
100
AcDbEntity
  8
KONSTRUKTIONSELEMENTE
100
AcDbLine
 62
7
  6
CONTINUOUS
 10
519.0154361236
 20
409.6558206397
 11
519.0154361236
 21
409.8558206397
  0
LINE
  5
31E
100
AcDbEntity
  8
KONSTRUKTIONSELEMENTE
100
AcDbLine
 62
7
  6
CONTINUOUS
 10
519.627525645
 20
409.6558206397
 11
519.627525645
 21
409.8558206397
  0
LINE
  5
31F
100
AcDbEntity
  8
BEZUGSACHSEN
100
AcDbLine
 62
7
  6
CONTINUOUS
 10
520.4144462787
 20
387.6558206397
 11
520.4144462787
 21
407.1996197091
  0
LINE
  5
320
100
AcDbEntity
  8
KONSTRUKTIONSELEMENTE
100
AcDbLine
 62
7
  6
CONTINUOUS
 10
520.6414355644
 20
409.6558206397
 11
520.6414355644
 21
409.8558206397
  0
LINE
  5
321
100
AcDbEntity
  8
KONSTRUKTIONSELEMENTE
100
AcDbLine
 62
7
  6
CONTINUOUS
 10
520.7060181197
 20
409.6558206397
 11
520.7060181197
 21
409.8558206397
  0
LINE
  5
322
100
AcDbEntity
  8
KONSTRUKTIONSELEMENTE
100
AcDbLine
 62
7
  6
CONTINUOUS
 10
520.8739926414
 20
409.6558206397
 11
520.8739926414
 21
409.8558206397
  0
LINE
  5
323
100
AcDbEntity
  8
KONSTRUKTIONSELEMENTE
100
AcDbLine
 62
7
  6
CONTINUOUS
 10
521.1582987357
 20
409.6558206397
 11
521.1582987357
 21
409.8558206397
  0
LINE
  5
324
100
AcDbEntity
  8
KONSTRUKTIONSELEMENTE
100
AcDbLine
 62
7
  6
CONTINUOUS
 10
521.545999155
 20
409.6558206397
 11
521.545999155
 21
409.8558206397
  0
LINE
  5
325
100
AcDbEntity
  8
KONSTRUKTIONSELEMENTE
100
AcDbLine
 62
7
  6
CONTINUOUS
 10
521.9466368298
 20
409.6558206397
 11
521.9466368298
 21
409.8558206397
  0
LINE
  5
326
100
AcDbEntity
  8
KONSTRUKTIONSELEMENTE
100
AcDbLine
 62
7
  6
CONTINUOUS
 10
522.7737843216
 20
409.6558206397
 11
522.7737843216
 21
409.8558206397
  0
LINE
  5
327
100
AcDbEntity
  8
KONSTRUKTIONSELEMENTE
100
AcDbLine
 62
7
  6
CONTINUOUS
 10
523.2002965051
 20
409.6558206397
 11
523.2002965051
 21
409.8558206397
  0
LINE
  5
328
100
AcDbEntity
  8
KONSTRUKTIONSELEMENTE
100
AcDbLine
 62
7
  6
CONTINUOUS
 10
523.6397435776
 20
409.6558206397
 11
523.6397435776
 21
409.8558206397
  0
LINE
  5
329
100
AcDbEntity
  8
KONSTRUKTIONSELEMENTE
100
AcDbLine
 62
7
  6
CONTINUOUS
 10
523.9757986938
 20
409.6558206397
 11
523.9757986938
 21
409.8558206397
  0
LINE
  5
32A
100
AcDbEntity
  8
KONSTRUKTIONSELEMENTE
100
AcDbLine
 62
7
  6
CONTINUOUS
 10
524.2213991012
 20
409.6558206397
 11
524.2213991012
 21
409.8558206397
  0
LINE
  5
32B
100
AcDbEntity
  8
KONSTRUKTIONSELEMENTE
100
AcDbLine
 62
7
  6
CONTINUOUS
 10
524.3636028273
 20
409.6558206397
 11
524.3636028273
 21
409.8558206397
  0
LINE
  5
32C
100
AcDbEntity
  8
KONSTRUKTIONSELEMENTE
100
AcDbLine
 62
7
  6
CONTINUOUS
 10
524.4153518401
 20
409.6558206397
 11
524.4153518401
 21
409.8558206397
  0
LINE
  5
32D
100
AcDbEntity
  8
KONSTRUKTIONSELEMENTE
100
AcDbLine
 62
7
  6
CONTINUOUS
 10
524.5577677117
 20
409.6558206397
 11
524.5577677117
 21
409.8558206397
  0
LINE
  5
32E
100
AcDbEntity
  8
KONSTRUKTIONSELEMENTE
100
AcDbLine
 62
7
  6
CONTINUOUS
 10
524.5836422543
 20
409.6558206397
 11
524.5836422543
 21
409.8558206397
  0
LINE
  5
32F
100
AcDbEntity
  8
KONSTRUKTIONSELEMENTE
100
AcDbLine
 62
7
  6
CONTINUOUS
 10
525.6722294891
 20
409.6558206397
 11
525.6722294891
 21
409.8558206397
  0
LINE
  5
330
100
AcDbEntity
  8
KONSTRUKTIONSELEMENTE
100
AcDbLine
 62
7
  6
CONTINUOUS
 10
525.790047577
 20
409.6558206397
 11
525.790047577
 21
409.8558206397
  0
LINE
  5
331
100
AcDbEntity
  8
KONSTRUKTIONSELEMENTE
100
AcDbLine
 62
7
  6
CONTINUOUS
 10
526.141313044
 20
409.6558206397
 11
526.141313044
 21
409.8558206397
  0
LINE
  5
332
100
AcDbEntity
  8
KONSTRUKTIONSELEMENTE
100
AcDbLine
 62
7
  6
CONTINUOUS
 10
526.5770709018
 20
409.6558206397
 11
526.5770709018
 21
409.8558206397
  0
LWPOLYLINE
  5
333
100
AcDbEntity
  8
0
100
AcDbPolyline
 62
7
  6
CONTINUOUS
 90
3
 70
0
 10
572.6659293662
 20
452.991596006
 10
572.8531862285
 20
453.2270707527
 10
573.0159194043
 20
453.4801205912
  0
LINE
  5
334
100
AcDbEntity
  8
RUNDUNGEN
100
AcDbLine
 62
7
  6
CONTINUOUS
 10
553.4144462787
 20
378.6558206397
 11
480.4144462816
 21
378.6558206397
  0
LINE
  5
335
100
AcDbEntity
  8
BEZUGSACHSEN
100
AcDbLine
 62
7
  6
CONTINUOUS
 10
485.4144462787
 20
379.1558206397
 11
553.4144462787
 21
379.1558206397
  0
LINE
  5
336
100
AcDbEntity
  8
KONSTRUKTIONSELEMENTE
100
AcDbLine
 62
7
  6
CONTINUOUS
 10
527.0550771432
 20
409.6558206397
 11
527.0550771432
 21
409.8558206397
  0
LINE
  5
337
100
AcDbEntity
  8
KONSTRUKTIONSELEMENTE
100
AcDbLine
 62
7
  6
CONTINUOUS
 10
527.5753273919
 20
409.6558206397
 11
527.5753273919
 21
409.8558206397
  0
LINE
  5
338
100
AcDbEntity
  8
KONSTRUKTIONSELEMENTE
100
AcDbLine
 62
7
  6
CONTINUOUS
 10
528.1800700315
 20
409.6558206397
 11
528.1800700315
 21
409.8558206397
  0
LINE
  5
339
100
AcDbEntity
  8
KONSTRUKTIONSELEMENTE
100
AcDbLine
 62
7
  6
CONTINUOUS
 10
528.6358576828
 20
409.6558206397
 11
528.6358576828
 21
409.8558206397
  0
LINE
  5
33A
100
AcDbEntity
  8
KONSTRUKTIONSELEMENTE
100
AcDbLine
 62
7
  6
CONTINUOUS
 10
529.0382920429
 20
409.6558206397
 11
529.0382920429
 21
409.8558206397
  0
LINE
  5
33B
100
AcDbEntity
  8
KONSTRUKTIONSELEMENTE
100
AcDbLine
 62
7
  6
CONTINUOUS
 10
529.2495230608
 20
409.6558206397
 11
529.2495230608
 21
409.8558206397
  0
LINE
  5
33C
100
AcDbEntity
  8
KONSTRUKTIONSELEMENTE
100
AcDbLine
 62
7
  6
CONTINUOUS
 10
529.2695506477
 20
409.6558206397
 11
529.2695506477
 21
409.8558206397
  0
LINE
  5
33D
100
AcDbEntity
  8
KONSTRUKTIONSELEMENTE
100
AcDbLine
 62
7
  6
CONTINUOUS
 10
529.2762845969
 20
409.6558206397
 11
529.2762845969
 21
409.8558206397
  0
LINE
  5
33E
100
AcDbEntity
  8
KONSTRUKTIONSELEMENTE
100
AcDbLine
 62
7
  6
CONTINUOUS
 10
529.3407472053
 20
409.6558206397
 11
529.3407472053
 21
409.8558206397
  0
LINE
  5
33F
100
AcDbEntity
  8
KONSTRUKTIONSELEMENTE
100
AcDbLine
 62
7
  6
CONTINUOUS
 10
529.8187512586
 20
409.6558206397
 11
529.8187512586
 21
409.8558206397
  0
LINE
  5
340
100
AcDbEntity
  8
KONSTRUKTIONSELEMENTE
100
AcDbLine
 62
7
  6
CONTINUOUS
 10
529.8498903361
 20
409.6558206397
 11
529.8498903361
 21
409.8558206397
  0
LINE
  5
341
100
AcDbEntity
  8
KONSTRUKTIONSELEMENTE
100
AcDbLine
 62
7
  6
CONTINUOUS
 10
533.2327441274
 20
409.6558206397
 11
533.2327441274
 21
409.8558206397
  0
LINE
  5
342
100
AcDbEntity
  8
KONSTRUKTIONSELEMENTE
100
AcDbLine
 62
7
  6
CONTINUOUS
 10
533.6067892175
 20
409.6558206397
 11
533.6067892175
 21
409.8558206397
  0
LINE
  5
343
100
AcDbEntity
  8
KONSTRUKTIONSELEMENTE
100
AcDbLine
 62
7
  6
CONTINUOUS
 10
534.7702412716
 20
409.6558206397
 11
534.7702412716
 21
409.8558206397
  0
LINE
  5
344
100
AcDbEntity
  8
KONSTRUKTIONSELEMENTE
100
AcDbLine
 62
7
  6
CONTINUOUS
 10
534.9360822834
 20
409.6558206397
 11
534.9360822834
 21
409.8558206397
  0
LINE
  5
345
100
AcDbEntity
  8
KONSTRUKTIONSELEMENTE
100
AcDbLine
 62
7
  6
CONTINUOUS
 10
535.2950301507
 20
409.6558206397
 11
535.2950301507
 21
409.8558206397
  0
LINE
  5
346
100
AcDbEntity
  8
KONSTRUKTIONSELEMENTE
100
AcDbLine
 62
7
  6
CONTINUOUS
 10
535.8033511325
 20
409.6558206397
 11
535.8033511325
 21
409.8558206397
  0
LINE
  5
347
100
AcDbEntity
  8
KONSTRUKTIONSELEMENTE
100
AcDbLine
 62
7
  6
CONTINUOUS
 10
535.8622085074
 20
409.6558206397
 11
535.8622085074
 21
409.8558206397
  0
LINE
  5
348
100
AcDbEntity
  8
0
100
AcDbLine
 62
2
  6
CONTINUOUS
 10
535.9609462787
 20
310.1558206397
 11
535.9609462787
 21
247.1558206397
  0
LINE
  5
349
100
AcDbEntity
  8
KONSTRUKTIONSELEMENTE
100
AcDbLine
 62
7
  6
CONTINUOUS
 10
535.9899104188
 20
409.6558206397
 11
535.9899104188
 21
409.8558206397
  0
LINE
  5
34A
100
AcDbEntity
  8
KONSTRUKTIONSELEMENTE
100
AcDbLine
 62
7
  6
CONTINUOUS
 10
536.3705969693
 20
409.6558206397
 11
536.3705969693
 21
409.8558206397
  0
LINE
  5
34B
100
AcDbEntity
  8
KONSTRUKTIONSELEMENTE
100
AcDbLine
 62
7
  6
CONTINUOUS
 10
536.3964824699
 20
409.6558206397
 11
536.3964824699
 21
409.8558206397
  0
LINE
  5
34C
100
AcDbEntity
  8
KONSTRUKTIONSELEMENTE
100
AcDbLine
 62
7
  6
CONTINUOUS
 10
536.5350170484
 20
409.6558206397
 11
536.5350170484
 21
409.8558206397
  0
LINE
  5
34D
100
AcDbEntity
  8
KONSTRUKTIONSELEMENTE
100
AcDbLine
 62
7
  6
CONTINUOUS
 10
536.8859065882
 20
409.6558206397
 11
536.8859065882
 21
409.8558206397
  0
LINE
  5
34E
100
AcDbEntity
  8
BEZUGSACHSEN
100
AcDbLine
 62
7
  6
CONTINUOUS
 10
485.4144462787
 20
387.1558206397
 11
553.4144462787
 21
387.1558206397
  0
LINE
  5
34F
100
AcDbEntity
  8
KONSTRUKTIONSELEMENTE
100
AcDbLine
 62
7
  6
CONTINUOUS
 10
492.9144462787
 20
387.6558206397
 11
547.9144462787
 21
387.6558206397
  0
LINE
  5
350
100
AcDbEntity
  8
KONSTRUKTIONSELEMENTE
100
AcDbLine
 62
7
  6
CONTINUOUS
 10
550.2053741448
 20
346.9303026054
 11
550.2039327044
 21
346.9480909185
  0
LINE
  5
351
100
AcDbEntity
  8
KONSTRUKTIONSELEMENTE
100
AcDbLine
 62
7
  6
CONTINUOUS
 10
537.3300307101
 20
409.6558206397
 11
537.3300307101
 21
409.8558206397
  0
LINE
  5
352
100
AcDbEntity
  8
KONSTRUKTIONSELEMENTE
100
AcDbLine
 62
7
  6
CONTINUOUS
 10
537.8738607432
 20
409.6558206397
 11
537.8738607432
 21
409.8558206397
  0
LINE
  5
353
100
AcDbEntity
  8
BEZUGSACHSEN
100
AcDbLine
 62
7
  6
CONTINUOUS
 10
538.4144462787
 20
249.6558206397
 11
538.4144462787
 21
310.1558206397
  0
LINE
  5
354
100
AcDbEntity
  8
KONSTRUKTIONSELEMENTE
100
AcDbLine
 62
7
  6
CONTINUOUS
 10
538.6235747884
 20
409.6558206397
 11
538.6235747884
 21
409.8558206397
  0
LINE
  5
355
100
AcDbEntity
  8
KONSTRUKTIONSELEMENTE
100
AcDbLine
 62
7
  6
CONTINUOUS
 10
539.3668170876
 20
409.6558206397
 11
539.3668170876
 21
409.8558206397
  0
LINE
  5
356
100
AcDbEntity
  8
KONSTRUKTIONSELEMENTE
100
AcDbLine
 62
7
  6
CONTINUOUS
 10
540.1035877895
 20
409.6558206397
 11
540.1035877895
 21
409.8558206397
  0
LINE
  5
357
100
AcDbEntity
  8
KONSTRUKTIONSELEMENTE
100
AcDbLine
 62
7
  6
CONTINUOUS
 10
540.6215328413
 20
409.6558206397
 11
540.6215328413
 21
409.8558206397
  0
LINE
  5
358
100
AcDbEntity
  8
KONSTRUKTIONSELEMENTE
100
AcDbLine
 62
7
  6
CONTINUOUS
 10
541.026828527
 20
409.6558206397
 11
541.026828527
 21
409.8558206397
  0
LINE
  5
359
100
AcDbEntity
  8
KONSTRUKTIONSELEMENTE
100
AcDbLine
 62
7
  6
CONTINUOUS
 10
541.313003843
 20
409.6558206397
 11
541.313003843
 21
409.8558206397
  0
LINE
  5
35A
100
AcDbEntity
  8
KONSTRUKTIONSELEMENTE
100
AcDbLine
 62
7
  6
CONTINUOUS
 10
541.3868242164
 20
409.6558206397
 11
541.3868242164
 21
409.8558206397
  0
LINE
  5
35B
100
AcDbEntity
  8
BEZUGSACHSEN
100
AcDbLine
 62
7
  6
CONTINUOUS
 10
545.4144462787
 20
379.1558206397
 11
545.4144462787
 21
378.6558206397
  0
LINE
  5
35C
100
AcDbEntity
  8
BEZUGSACHSEN
100
AcDbLine
 62
7
  6
CONTINUOUS
 10
545.4144462787
 20
350.6558206397
 11
545.4144462787
 21
346.6558206397
  0
LINE
  5
35D
100
AcDbEntity
  8
BEZUGSACHSEN
100
AcDbLine
 62
7
  6
CONTINUOUS
 10
545.4144462787
 20
318.6558206397
 11
545.4144462787
 21
318.1558206397
  0
LINE
  5
35E
100
AcDbEntity
  8
BEZUGSACHSEN
100
AcDbLine
 62
7
  6
CONTINUOUS
 10
545.9644462787
 20
387.1558206397
 11
545.9644462787
 21
387.6558206397
  0
LWPOLYLINE
  5
35F
100
AcDbEntity
  8
0
100
AcDbPolyline
 62
7
  6
CONTINUOUS
 90
3
 70
0
 10
573.1494090211
 20
453.741341489
 10
573.2583536943
 20
454.0191182178
 10
573.3419274527
 20
454.3185491928
  0
LINE
  5
360
100
AcDbEntity
  8
0
100
AcDbLine
 62
7
  6
CONTINUOUS
 10
573.013412533
 20
453.4757642478
 11
573.1524910641
 21
453.74820132
  0
LWPOLYLINE
  5
361
100
AcDbEntity
  8
0
100
AcDbPolyline
 62
7
  6
CONTINUOUS
 90
9
 70
0
 10
554.1629081681
 20
398.3199825063
 10
553.9756731481
 20
398.0845240305
 10
553.8129579614
 20
397.8314942524
 10
553.6763998978
 20
397.5634367642
 10
553.5673732996
 20
397.2830463764
 10
553.4869757881
 20
396.9931421199
 10
553.4360171969
 20
396.6966389955
 10
553.4150113543
 20
396.3965185649
 10
553.4144283784
 20
396.3373784838
  0
LWPOLYLINE
  5
362
100
AcDbEntity
  8
KONSTRUKTIONSELEMENTE
100
AcDbPolyline
 62
7
  6
CONTINUOUS
 90
9
 70
0
 10
554.1629352003
 20
398.3200132064
 10
553.9771498232
 20
398.0865834504
 10
553.8154655911
 20
397.8358520091
 10
553.6794825085
 20
397.5702978668
 10
553.5705464632
 20
397.2925466754
 10
553.4897359709
 20
397.0053448946
 10
553.4378514872
 20
396.7115327375
 10
553.4154074129
 20
396.4140159722
 10
553.4144283784
 20
396.3373784839
  0
LWPOLYLINE
  5
363
100
AcDbEntity
  8
0
100
AcDbPolyline
 62
7
  6
CONTINUOUS
 90
13
 70
0
 10
550.2118113743
 20
346.857667756
 10
550.2970760114
 20
346.1016128733
 10
550.4978390669
 20
345.0478940988
 10
550.7888507223
 20
344.012800174
 10
551.1681308442
 20
343.0050325012
 10
551.6329658909
 20
342.0328909491
 10
552.179770782
 20
341.1039799437
 10
552.8044230068
 20
340.2257137139
 10
553.5015829153
 20
339.4051663752
 10
554.2655116025
 20
338.6487868513
 10
555.0892469137
 20
337.962525457
 10
555.9651350608
 20
337.3517774289
 10
556.8858026478
 20
336.8201480264
  0
LWPOLYLINE
  5
364
100
AcDbEntity
  8
KONSTRUKTIONSELEMENTE
100
AcDbPolyline
 62
7
  6
CONTINUOUS
 90
19
 70
0
 10
550.2035413369
 20
346.9309994714
 10
550.2970760114
 20
346.1016128733
 10
550.4978390669
 20
345.0478940988
 10
550.7888507223
 20
344.012800174
 10
551.1681308442
 20
343.0050325012
 10
551.6329658909
 20
342.0328909491
 10
552.179770782
 20
341.1039799437
 10
552.8044230068
 20
340.2257137139
 10
553.5015829153
 20
339.4051663752
 10
554.2655116025
 20
338.6487868513
 10
555.0892469137
 20
337.962525457
 10
555.9651350608
 20
337.3517774289
 10
556.8858026478
 20
336.8201480264
 10
557.8435295125
 20
336.3708644892
 10
558.8301050995
 20
336.0061809969
 10
559.8368756402
 20
335.7276884421
 10
560.8529919142
 20
335.535933086
 10
561.868031759
 20
335.4302874575
 10
562.5752558197
 20
335.4060346719
  0
LWPOLYLINE
  5
365
100
AcDbEntity
  8
KONSTRUKTIONSELEMENTE
100
AcDbPolyline
 62
7
  6
CONTINUOUS
 90
9
 70
0
 10
553.4144293632
 20
454.9742605483
 10
553.4154055987
 20
454.8977326873
 10
553.4378422659
 20
454.6001875971
 10
553.4897248704
 20
454.3063472492
 10
553.570538863
 20
454.0191182178
 10
553.6794835362
 20
453.741341489
 10
553.8154800243
 20
453.4757642478
 10
553.9771819988
 20
453.2250128148
 10
554.162988933
 20
452.991566773
  0
LWPOLYLINE
  5
366
100
AcDbEntity
  8
0
100
AcDbPolyline
 62
7
  6
CONTINUOUS
 90
9
 70
0
 10
553.4144293632
 20
454.9742605484
 10
553.4150101859
 20
454.9152297877
 10
553.4360084561
 20
454.6150807702
 10
553.4869651047
 20
454.3185491928
 10
553.567366149
 20
454.0286174452
 10
553.6764014932
 20
453.74820132
 10
553.812973153
 20
453.4801205912
 10
553.9757063289
 20
453.2270707527
 10
554.1629631912
 20
452.991596006
  0
LINE
  5
367
100
AcDbEntity
  8
BEZUGSACHSEN
100
AcDbLine
 62
7
  6
CONTINUOUS
 10
547.9144462787
 20
387.6558206397
 11
547.9144462787
 21
409.6558206396
  0
LINE
  5
368
100
AcDbEntity
  8
KONSTRUKTIONSELEMENTE
100
AcDbLine
 62
7
  6
CONTINUOUS
 10
550.1644462787
 20
347.9195548278
 11
550.1644462787
 21
351.9640146512
  0
LINE
  5
369
100
AcDbEntity
  8
KONSTRUKTIONSELEMENTE
100
AcDbLine
 62
7
  6
CONTINUOUS
 10
553.4144462787
 20
488.539733088
 11
553.4144462787
 21
454.9682868258
  0
LINE
  5
36A
100
AcDbEntity
  8
KONSTRUKTIONSELEMENTE
100
AcDbLine
 62
7
  6
CONTINUOUS
 10
553.6644462787
 20
412.9058206397
 11
553.6644462787
 21
420.4058206397
  0
LINE
  5
36B
100
AcDbEntity
  8
KONSTRUKTIONSELEMENTE
100
AcDbLine
 62
7
  6
CONTINUOUS
 10
553.6644462787
 20
421.9058206397
 11
553.6644462787
 21
429.4058206397
  0
LINE
  5
36C
100
AcDbEntity
  8
KONSTRUKTIONSELEMENTE
100
AcDbLine
 62
7
  6
CONTINUOUS
 10
553.6644462787
 20
431.6558206397
 11
553.6644462787
 21
439.1558206397
  0
LINE
  5
36D
100
AcDbEntity
  8
0
100
AcDbLine
 62
7
  6
CONTINUOUS
 10
554.4144462787
 20
400.1558206488
 11
554.4144462787
 21
400.7095844081
  0
LINE
  5
36E
100
AcDbEntity
  8
0
100
AcDbLine
 62
7
  6
CONTINUOUS
 10
554.4144462787
 20
450.4325290461
 11
554.4144462787
 21
450.4839881256
  0
LINE
  5
36F
100
AcDbEntity
  8
0
100
AcDbLine
 62
7
  6
CONTINUOUS
 10
554.4144462787
 20
450.6010186656
 11
554.4144462787
 21
451.1558206311
  0
LINE
  5
370
100
AcDbEntity
  8
KONSTRUKTIONSELEMENTE
100
AcDbLine
 62
7
  6
CONTINUOUS
 10
554.4144462787
 20
398.9831709089
 11
554.4144462787
 21
452.3284703705
  0
LINE
  5
371
100
AcDbEntity
  8
BEZUGSACHSEN
100
AcDbLine
 62
7
  6
CONTINUOUS
 10
555.4144462787
 20
318.1558206397
 11
555.4144462787
 21
310.1558206397
  0
LINE
  5
372
100
AcDbEntity
  8
KONSTRUKTIONSELEMENTE
100
AcDbLine
 62
7
  6
CONTINUOUS
 10
550.1644468857
 20
520.1598313557
 11
550.1644462787
 21
520.1558206397
  0
LINE
  5
373
100
AcDbEntity
  8
0
100
AcDbLine
 62
7
  6
CONTINUOUS
 10
550.1644996216
 20
520.4962485694
 11
550.1644462787
 21
520.1558206397
  0
LWPOLYLINE
  5
374
100
AcDbEntity
  8
KONSTRUKTIONSELEMENTE
100
AcDbPolyline
 62
7
  6
CONTINUOUS
 90
24
 70
0
 10
553.4144462787
 20
396.343065176
 10
553.4115645754
 20
371.1339463939
 10
553.3978092614
 20
370.0533519724
 10
553.3732230461
 20
368.9959702909
 10
553.3384465053
 20
367.9666558894
 10
553.2941825796
 20
366.9696168586
 10
553.2412025434
 20
366.0088399621
 10
553.1803247753
 20
365.0877407991
 10
553.1124357184
 20
364.2095924665
 10
553.038461024
 20
363.3771158144
 10
552.9593848746
 20
362.5927828455
 10
552.8762236983
 20
361.8585539922
 10
552.7900626903
 20
361.1762366289
 10
552.7020206975
 20
360.5471610838
 10
552.6132863882
 20
359.9724615064
 10
552.5251338519
 20
359.4531014846
 10
552.4387681224
 20
358.9890041128
 10
552.3554694177
 20
358.580018485
 10
552.2767931521
 20
358.2267042069
 10
552.2043556604
 20
357.9290812179
 10
552.1403035484
 20
357.6883779159
 10
552.0868083954
 20
357.504708233
 10
552.0475618393
 20
357.3817572716
 10
552.0291175462
 20
357.328646631
  0
LINE
  5
375
100
AcDbEntity
  8
KONSTRUKTIONSELEMENTE
100
AcDbLine
 62
7
  6
CONTINUOUS
 10
550.1645228396
 20
520.5014872675
 11
550.1643324505
 21
520.4189946331
  0
LINE
  5
376
100
AcDbEntity
  8
KONSTRUKTIONSELEMENTE
100
AcDbLine
 62
7
  6
CONTINUOUS
 10
550.1648924924
 20
520.5659558379
 11
550.1644928022
 21
520.4944634246
  0
LINE
  5
377
100
AcDbEntity
  8
0
100
AcDbLine
 62
7
  6
CONTINUOUS
 10
550.1649070985
 20
520.5605773743
 11
550.1644996216
 21
520.4962485694
  0
LWPOLYLINE
  5
378
100
AcDbEntity
  8
0
100
AcDbPolyline
 62
7
  6
CONTINUOUS
 90
3
 70
0
 10
550.2773378655
 20
353.462596355
 10
550.184378402
 20
352.5951675866
 10
550.1644466616
 20
351.9640129666
  0
LINE
  5
379
100
AcDbEntity
  8
0
100
AcDbLine
 62
7
  6
CONTINUOUS
 10
573.1524910641
 20
453.74820132
 11
573.2615264084
 21
454.0286174452
  0
LINE
  5
37A
100
AcDbEntity
  8
BEZUGSACHSEN
100
AcDbLine
 62
7
  6
CONTINUOUS
 10
492.9144462786
 20
409.6558206397
 11
547.9144462787
 21
409.6558206397
  0
LINE
  5
37B
100
AcDbEntity
  8
KONSTRUKTIONSELEMENTE
100
AcDbLine
 62
7
  6
CONTINUOUS
 10
499.3307089169
 20
409.8558206397
 11
508.9932210015
 21
409.8558206397
  0
LINE
  5
37C
100
AcDbEntity
  8
KONSTRUKTIONSELEMENTE
100
AcDbLine
 62
7
  6
CONTINUOUS
 10
513.7197848743
 20
409.8558206397
 11
519.627525645
 21
409.8558206397
  0
LINE
  5
37D
100
AcDbEntity
  8
KONSTRUKTIONSELEMENTE
100
AcDbLine
 62
7
  6
CONTINUOUS
 10
520.6414355644
 20
409.8558206397
 11
524.5836422543
 21
409.8558206397
  0
LINE
  5
37E
100
AcDbEntity
  8
KONSTRUKTIONSELEMENTE
100
AcDbLine
 62
7
  6
CONTINUOUS
 10
525.6722294891
 20
409.8558206397
 11
529.8498903361
 21
409.8558206397
  0
LINE
  5
37F
100
AcDbEntity
  8
KONSTRUKTIONSELEMENTE
100
AcDbLine
 62
7
  6
CONTINUOUS
 10
533.2327441274
 20
409.8558206397
 11
541.3868242164
 21
409.8558206397
  0
LINE
  5
380
100
AcDbEntity
  8
0
100
AcDbLine
 62
7
  6
CONTINUOUS
 10
574.9927322399
 20
357.500311048
 11
574.5967375551
 21
358.0433290131
  0
LWPOLYLINE
  5
381
100
AcDbEntity
  8
0
100
AcDbPolyline
 62
7
  6
CONTINUOUS
 90
3
 70
0
 10
575.8271880156
 20
355.970177038
 10
575.443336502
 20
356.7534637024
 10
574.9927322399
 20
357.500311048
  0
LINE
  5
382
100
AcDbEntity
  8
KONSTRUKTIONSELEMENTE
100
AcDbLine
 62
7
  6
CONTINUOUS
 10
550.2370311651
 20
518.7708185014
 11
553.4144462787
 21
488.539733088
  0
LINE
  5
383
100
AcDbEntity
  8
0
100
AcDbLine
 62
7
  6
CONTINUOUS
 10
553.0035260241
 20
492.4493781518
 11
550.2370311651
 21
518.7708185014
  0
LINE
  5
384
100
AcDbEntity
  8
0
100
AcDbLine
 62
7
  6
CONTINUOUS
 10
576.5918613923
 20
518.7708185014
 11
573.4144462787
 21
488.539733088
  0
LWPOLYLINE
  5
385
100
AcDbEntity
  8
0
100
AcDbPolyline
 62
7
  6
CONTINUOUS
 90
3
 70
0
 10
573.3419274527
 20
454.3185491928
 10
573.3928841013
 20
454.6150807702
 10
573.4138823715
 20
454.9152297877
  0
LWPOLYLINE
  5
386
100
AcDbEntity
  8
0
100
AcDbPolyline
 62
7
  6
CONTINUOUS
 90
4
 70
0
 10
573.339167687
 20
454.3063472492
 10
573.3910502914
 20
454.6001875971
 10
573.4134869586
 20
454.8977326873
 10
573.4144631942
 20
454.9742605484
  0
LWPOLYLINE
  5
387
100
AcDbEntity
  8
0
100
AcDbPolyline
 62
7
  6
CONTINUOUS
 90
5
 70
0
 10
551.3338135879
 20
356.6478781222
 10
551.0017045417
 20
355.970177038
 10
550.6875566107
 20
355.1564635667
 10
550.445491075
 20
354.3184960867
 10
550.2773378655
 20
353.462596355
  0
LWPOLYLINE
  5
388
100
AcDbEntity
  8
KONSTRUKTIONSELEMENTE
100
AcDbPolyline
 62
7
  6
CONTINUOUS
 90
8
 70
0
 10
551.8416765105
 20
357.5086037804
 10
551.3910148423
 20
356.7634598285
 10
551.0068464132
 20
355.9819209952
 10
550.692114257
 20
355.1699657555
 10
550.4491935109
 20
354.3337317824
 10
550.2799148862
 20
353.4795061284
 10
550.1855645267
 20
352.6136567134
 10
550.1644466608
 20
351.9640130501
  0
LINE
  5
389
100
AcDbEntity
  8
KONSTRUKTIONSELEMENTE
100
AcDbLine
 62
7
  6
CONTINUOUS
 10
554.4144462787
 20
412.9058206397
 11
553.6644462787
 21
412.9058206397
  0
LINE
  5
38A
100
AcDbEntity
  8
KONSTRUKTIONSELEMENTE
100
AcDbLine
 62
7
  6
CONTINUOUS
 10
554.4144462787
 20
413.0653951027
 11
553.6644462787
 21
413.0653951027
  0
LINE
  5
38B
100
AcDbEntity
  8
KONSTRUKTIONSELEMENTE
100
AcDbLine
 62
7
  6
CONTINUOUS
 10
554.4144462787
 20
413.3845440427
 11
553.6644462787
 21
413.3845440427
  0
LINE
  5
38C
100
AcDbEntity
  8
KONSTRUKTIONSELEMENTE
100
AcDbLine
 62
7
  6
CONTINUOUS
 10
554.4144462787
 20
414.0228418949
 11
553.6644462787
 21
414.0228418949
  0
LINE
  5
38D
100
AcDbEntity
  8
KONSTRUKTIONSELEMENTE
100
AcDbLine
 62
7
  6
CONTINUOUS
 10
554.4144462787
 20
414.6611398029
 11
553.6644462787
 21
414.6611398029
  0
LINE
  5
38E
100
AcDbEntity
  8
KONSTRUKTIONSELEMENTE
100
AcDbLine
 62
7
  6
CONTINUOUS
 10
554.4144462787
 20
415.4590120482
 11
553.6644462787
 21
415.4590120482
  0
LINE
  5
38F
100
AcDbEntity
  8
KONSTRUKTIONSELEMENTE
100
AcDbLine
 62
7
  6
CONTINUOUS
 10
554.4144462787
 20
417.8526290076
 11
553.6644462787
 21
417.8526290076
  0
LINE
  5
390
100
AcDbEntity
  8
KONSTRUKTIONSELEMENTE
100
AcDbLine
 62
7
  6
CONTINUOUS
 10
554.4144462787
 20
418.6505017
 11
553.6644462787
 21
418.6505017
  0
LINE
  5
391
100
AcDbEntity
  8
KONSTRUKTIONSELEMENTE
100
AcDbLine
 62
7
  6
CONTINUOUS
 10
554.4144462787
 20
419.2887994962
 11
553.6644462787
 21
419.2887994962
  0
LINE
  5
392
100
AcDbEntity
  8
KONSTRUKTIONSELEMENTE
100
AcDbLine
 62
7
  6
CONTINUOUS
 10
554.4144462787
 20
419.9270972925
 11
553.6644462787
 21
419.9270972925
  0
LINE
  5
393
100
AcDbEntity
  8
KONSTRUKTIONSELEMENTE
100
AcDbLine
 62
7
  6
CONTINUOUS
 10
554.4144462787
 20
420.2462461906
 11
553.6644462787
 21
420.2462461906
  0
LINE
  5
394
100
AcDbEntity
  8
KONSTRUKTIONSELEMENTE
100
AcDbLine
 62
7
  6
CONTINUOUS
 10
554.4144462787
 20
420.4058206397
 11
553.6644462787
 21
420.4058206397
  0
LINE
  5
395
100
AcDbEntity
  8
KONSTRUKTIONSELEMENTE
100
AcDbLine
 62
7
  6
CONTINUOUS
 10
554.4144462787
 20
421.9058206397
 11
553.6644462787
 21
421.9058206397
  0
LINE
  5
396
100
AcDbEntity
  8
KONSTRUKTIONSELEMENTE
100
AcDbLine
 62
7
  6
CONTINUOUS
 10
554.4144462787
 20
422.0653951027
 11
553.6644462787
 21
422.0653951027
  0
LINE
  5
397
100
AcDbEntity
  8
KONSTRUKTIONSELEMENTE
100
AcDbLine
 62
7
  6
CONTINUOUS
 10
554.4144462787
 20
422.3845440427
 11
553.6644462787
 21
422.3845440427
  0
LWPOLYLINE
  5
398
100
AcDbEntity
  8
0
100
AcDbPolyline
 62
7
  6
CONTINUOUS
 90
25
 70
0
 10
574.7824564959
 20
357.3681138484
 10
574.8005032579
 20
357.3257756657
 10
574.8025573733
 20
357.3210472411
 10
574.7817434822
 20
357.3805290109
 10
574.7426709756
 20
357.5027896685
 10
574.6892816828
 20
357.6858946323
 10
574.6252901313
 20
357.926126287
 10
574.5528807591
 20
358.2233525601
 10
574.4742142333
 20
358.5763086533
 10
574.3909081837
 20
358.9849834111
 10
574.3045210336
 20
359.4488175981
 10
574.2163333903
 20
359.9679753044
 10
574.1275500588
 20
360.5425539005
 10
574.0394486227
 20
361.1715891508
 10
573.9532199251
 20
361.8539537122
 10
573.8699862337
 20
362.5883128606
 10
573.7908356828
 20
363.3728551961
 10
573.7167872774
 20
364.2056161426
 10
573.6488276222
 20
365.0841177192
 10
573.5878845632
 20
366.0056314686
 10
573.5348464847
 20
366.9668751643
 10
573.4905333666
 20
367.9644235153
 10
573.4557177977
 20
368.994278638
 10
573.431103676
 20
370.0522209186
 10
573.417332207
 20
371.1333810353
  0
LINE
  5
399
100
AcDbEntity
  8
0
100
AcDbLine
 62
7
  6
CONTINUOUS
 10
576.1413359466
 20
355.1564635667
 11
575.8220461442
 21
355.9819209952
  0
LINE
  5
39A
100
AcDbEntity
  8
0
100
AcDbLine
 62
7
  6
CONTINUOUS
 10
576.3834014823
 20
354.3184960867
 11
576.1367783003
 21
355.1699657555
  0
LINE
  5
39B
100
AcDbEntity
  8
0
100
AcDbLine
 62
7
  6
CONTINUOUS
 10
576.6445141554
 20
352.5951675866
 11
576.5489776711
 21
353.4795061284
  0
LWPOLYLINE
  5
39C
100
AcDbEntity
  8
0
100
AcDbPolyline
 62
7
  6
CONTINUOUS
 90
4
 70
0
 10
573.4138812031
 20
396.3965185649
 10
573.3928753605
 20
396.6966389955
 10
573.3419167693
 20
396.9931421199
 10
573.2583460942
 20
397.2925466754
  0
LINE
  5
39D
100
AcDbEntity
  8
0
100
AcDbLine
 62
7
  6
CONTINUOUS
 10
576.6644458965
 20
351.9640130501
 11
576.6433280306
 21
352.6136567134
  0
LWPOLYLINE
  5
39E
100
AcDbEntity
  8
0
100
AcDbPolyline
 62
7
  6
CONTINUOUS
 90
4
 70
0
 10
573.4144641789
 20
396.3373784839
 10
573.4134851444
 20
396.4140159722
 10
573.3910410702
 20
396.7115327375
 10
573.3391565864
 20
397.0053448946
  0
LINE
  5
39F
100
AcDbEntity
  8
0
100
AcDbLine
 62
7
  6
CONTINUOUS
 10
576.6644925629
 20
520.4686846145
 11
576.6640000949
 21
520.5659519093
  0
LINE
  5
3A0
100
AcDbEntity
  8
0
100
AcDbLine
 62
7
  6
CONTINUOUS
 10
572.4144462787
 20
398.9831709089
 11
572.4144462787
 21
452.3284703705
  0
LINE
  5
3A1
100
AcDbEntity
  8
0
100
AcDbLine
 62
7
  6
CONTINUOUS
 10
573.417332207
 20
371.1333810353
 11
573.4144462787
 21
396.343065176
  0
LINE
  5
3A2
100
AcDbEntity
  8
0
100
AcDbLine
 62
7
  6
CONTINUOUS
 10
573.4144462787
 20
454.9682868258
 11
573.4144462787
 21
488.539733088
  0
LINE
  5
3A3
100
AcDbEntity
  8
0
100
AcDbLine
 62
7
  6
CONTINUOUS
 10
576.6644005588
 20
520.4942754928
 11
576.6644462787
 21
520.1558206397
  0
LINE
  5
3A4
100
AcDbEntity
  8
0
100
AcDbLine
 62
7
  6
CONTINUOUS
 10
576.6644462787
 20
351.9640146512
 11
576.6644462787
 21
347.9195548278
  0
LINE
  5
3A5
100
AcDbEntity
  8
KONSTRUKTIONSELEMENTE
100
AcDbLine
 62
7
  6
CONTINUOUS
 10
552.232052633
 20
358.0428794124
 11
551.8416765105
 21
357.5086037804
  0
LINE
  5
3A6
100
AcDbEntity
  8
KONSTRUKTIONSELEMENTE
100
AcDbLine
 62
7
  6
CONTINUOUS
 10
554.4144462787
 20
423.0228418949
 11
553.6644462787
 21
423.0228418949
  0
LINE
  5
3A7
100
AcDbEntity
  8
KONSTRUKTIONSELEMENTE
100
AcDbLine
 62
7
  6
CONTINUOUS
 10
554.4144462787
 20
423.6611398029
 11
553.6644462787
 21
423.6611398029
  0
LINE
  5
3A8
100
AcDbEntity
  8
KONSTRUKTIONSELEMENTE
100
AcDbLine
 62
7
  6
CONTINUOUS
 10
554.4144462787
 20
424.4590120482
 11
553.6644462787
 21
424.4590120482
  0
LINE
  5
3A9
100
AcDbEntity
  8
KONSTRUKTIONSELEMENTE
100
AcDbLine
 62
7
  6
CONTINUOUS
 10
554.4144462787
 20
429.4058206397
 11
553.6644462787
 21
429.4058206397
  0
LINE
  5
3AA
100
AcDbEntity
  8
KONSTRUKTIONSELEMENTE
100
AcDbLine
 62
7
  6
CONTINUOUS
 10
554.4144462787
 20
431.6558206397
 11
553.6644462787
 21
431.6558206397
  0
LINE
  5
3AB
100
AcDbEntity
  8
0
100
AcDbLine
 62
7
  6
CONTINUOUS
 10
572.8517427341
 20
398.0865834504
 11
572.665957357
 21
398.3200132064
  0
LINE
  5
3AC
100
AcDbEntity
  8
0
100
AcDbLine
 62
7
  6
CONTINUOUS
 10
573.0159345959
 20
397.8314942524
 11
572.8532194093
 21
398.0845240305
  0
LINE
  5
3AD
100
AcDbEntity
  8
0
100
AcDbLine
 62
7
  6
CONTINUOUS
 10
573.1524926596
 20
397.5634367642
 11
573.0134269663
 21
397.8358520091
  0
LINE
  5
3AE
100
AcDbEntity
  8
0
100
AcDbLine
 62
7
  6
CONTINUOUS
 10
573.2615192577
 20
397.2830463764
 11
573.1494100489
 21
397.5702978668
  0
LINE
  5
3AF
100
AcDbEntity
  8
0
100
AcDbLine
 62
7
  6
CONTINUOUS
 10
576.5515546919
 20
353.462596355
 11
576.3796990464
 21
354.3337317824
  0
LINE
  5
3B0
100
AcDbEntity
  8
0
100
AcDbLine
 62
7
  6
CONTINUOUS
 10
576.6640001007
 20
520.565951155
 11
576.6057560073
 21
521.6949882981
  0
LINE
  5
3B1
100
AcDbEntity
  8
0
100
AcDbLine
 62
7
  6
CONTINUOUS
 10
576.624959853
 20
346.9480909185
 11
576.6370276441
 21
347.1208212429
  0
LINE
  5
3B2
100
AcDbEntity
  8
0
100
AcDbLine
 62
7
  6
CONTINUOUS
 10
576.6235184126
 20
346.9303026054
 11
576.624959853
 21
346.9480909185
  0
LINE
  5
3B3
100
AcDbEntity
  8
0
100
AcDbLine
 62
7
  6
CONTINUOUS
 10
576.531816546
 20
346.1016128733
 11
576.6253512204
 21
346.9309994714
  0
LINE
  5
3B4
100
AcDbEntity
  8
KONSTRUKTIONSELEMENTE
100
AcDbLine
 62
7
  6
CONTINUOUS
 10
554.4144462787
 20
435.3260334151
 11
553.6644462787
 21
435.3260334151
  0
LINE
  5
3B5
100
AcDbEntity
  8
KONSTRUKTIONSELEMENTE
100
AcDbLine
 62
7
  6
CONTINUOUS
 10
554.4144462787
 20
435.6451823133
 11
553.6644462787
 21
435.6451823133
  0
LINE
  5
3B6
100
AcDbEntity
  8
KONSTRUKTIONSELEMENTE
100
AcDbLine
 62
7
  6
CONTINUOUS
 10
554.4144462787
 20
436.2834801095
 11
553.6644462787
 21
436.2834801095
  0
LINE
  5
3B7
100
AcDbEntity
  8
KONSTRUKTIONSELEMENTE
100
AcDbLine
 62
7
  6
CONTINUOUS
 10
554.4144462787
 20
436.7622034567
 11
553.6644462787
 21
436.7622034567
  0
LINE
  5
3B8
100
AcDbEntity
  8
KONSTRUKTIONSELEMENTE
100
AcDbLine
 62
7
  6
CONTINUOUS
 10
554.4144462787
 20
437.4005017
 11
553.6644462787
 21
437.4005017
  0
LINE
  5
3B9
100
AcDbEntity
  8
KONSTRUKTIONSELEMENTE
100
AcDbLine
 62
7
  6
CONTINUOUS
 10
554.4144462787
 20
437.8792250472
 11
553.6644462787
 21
437.8792250472
  0
LINE
  5
3BA
100
AcDbEntity
  8
KONSTRUKTIONSELEMENTE
100
AcDbLine
 62
7
  6
CONTINUOUS
 10
554.4144462787
 20
438.5175228434
 11
553.6644462787
 21
438.5175228434
  0
LINE
  5
3BB
100
AcDbEntity
  8
KONSTRUKTIONSELEMENTE
100
AcDbLine
 62
7
  6
CONTINUOUS
 10
554.4144462787
 20
438.9962461906
 11
553.6644462787
 21
438.9962461906
  0
LINE
  5
3BC
100
AcDbEntity
  8
KONSTRUKTIONSELEMENTE
100
AcDbLine
 62
7
  6
CONTINUOUS
 10
554.4144462787
 20
439.1558206397
 11
553.6644462787
 21
439.1558206397
  0
LWPOLYLINE
  5
3BD
100
AcDbEntity
  8
0
100
AcDbPolyline
 62
7
  6
CONTINUOUS
 90
13
 70
0
 10
568.9853630449
 20
336.3708644892
 10
569.9430899095
 20
336.8201480264
 10
570.8637574965
 20
337.3517774289
 10
571.7396456436
 20
337.962525457
 10
572.5633809549
 20
338.6487868513
 10
573.3273096421
 20
339.4051663752
 10
574.0244695506
 20
340.2257137139
 10
574.6491217754
 20
341.1039799437
 10
575.1959266664
 20
342.0328909491
 10
575.6607617132
 20
343.0050325012
 10
576.040041835
 20
344.012800174
 10
576.3310534904
 20
345.0478940988
 10
576.531816546
 20
346.1016128733
  0
LINE
  5
3BE
100
AcDbEntity
  8
0
100
AcDbLine
 62
7
  6
CONTINUOUS
 10
567.9987874579
 20
336.0061809969
 11
568.9853630449
 21
336.3708644892
  0
LWPOLYLINE
  5
3BF
100
AcDbEntity
  8
0
100
AcDbPolyline
 62
7
  6
CONTINUOUS
 90
3
 70
0
 10
576.6056473214
 20
521.6961231468
 10
576.4480790753
 20
522.8183132502
 10
576.1920925317
 20
523.9241061007
  0
LINE
  5
3C0
100
AcDbEntity
  8
0
100
AcDbLine
 62
7
  6
CONTINUOUS
 10
576.1930048282
 20
523.9208271986
 11
575.8396719029
 21
525.0037434473
  0
LINE
  5
3C1
100
AcDbEntity
  8
0
100
AcDbLine
 62
7
  6
CONTINUOUS
 10
575.8412647277
 20
524.9995034543
 11
575.3939584691
 21
526.0477483877
  0
LINE
  5
3C2
100
AcDbEntity
  8
BEZUGSACHSEN
100
AcDbLine
 62
7
  6
CONTINUOUS
 10
535.9144462787
 20
247.1558206397
 11
538.4144462787
 21
249.6558206397
  0
LINE
  5
3C3
100
AcDbEntity
  8
0
100
AcDbLine
 62
7
  6
CONTINUOUS
 10
575.396404276
 20
526.0426493435
 11
574.858190027
 21
527.0488019764
  0
LINE
  5
3C4
100
AcDbEntity
  8
0
100
AcDbLine
 62
7
  6
CONTINUOUS
 10
574.8616473297
 20
527.0429695893
 11
574.2362749984
 21
527.9995022098
  0
LINE
  5
3C5
100
AcDbEntity
  8
0
100
AcDbLine
 62
7
  6
CONTINUOUS
 10
573.5388490633
 20
528.88559224
 11
572.7535997018
 21
529.7206745194
  0
LINE
  5
3C6
100
AcDbEntity
  8
0
100
AcDbLine
 62
7
  6
CONTINUOUS
 10
574.2408856061
 20
527.9930837422
 11
573.5329606345
 21
528.8924328311
  0
LINE
  5
3C7
100
AcDbEntity
  8
0
100
AcDbLine
 62
7
  6
CONTINUOUS
 10
571.9126511248
 20
530.4708522636
 11
570.9901321504
 21
531.1585658868
  0
LINE
  5
3C8
100
AcDbEntity
  8
0
100
AcDbLine
 62
7
  6
CONTINUOUS
 10
572.7608714045
 20
529.7135911185
 11
571.9039122547
 21
530.477984517
  0
LWPOLYLINE
  5
3C9
100
AcDbEntity
  8
KONSTRUKTIONSELEMENTE
100
AcDbPolyline
 62
7
  6
CONTINUOUS
 90
18
 70
0
 10
562.2604158058
 20
533.3746102282
 10
561.1179263694
 20
533.2449628572
 10
559.9932831037
 20
533.0159280175
 10
558.8949390279
 20
532.6896131642
 10
557.8311425486
 20
532.2688334452
 10
556.8098594803
 20
531.7570886863
 10
555.8387603545
 20
531.1585658513
 10
554.9249802483
 20
530.4779844727
 10
554.0752927998
 20
529.7206744651
 10
553.295931866
 20
528.8924327652
 10
552.5926175016
 20
527.9995021301
 10
551.9707024734
 20
527.0488018804
 10
551.4349340331
 20
526.0477482727
 10
550.9892206029
 20
525.0037433101
 10
550.6367999804
 20
523.9241059381
 10
550.3808134461
 20
522.8183130567
 10
550.2232452137
 20
521.6961229145
 10
550.1648924587
 20
520.5659514228
  0
LWPOLYLINE
  5
3CA
100
AcDbEntity
  8
0
100
AcDbPolyline
 62
7
  6
CONTINUOUS
 90
19
 70
0
 10
563.164297853
 20
533.4058206095
 10
562.2411419429
 20
533.3732630313
 10
561.0999997373
 20
533.2421128783
 10
559.9768014538
 20
533.0117982263
 10
558.8799729698
 20
532.6844308677
 10
557.8177353999
 20
532.262827458
 10
556.798027368
 20
531.7504863989
 10
555.8284929238
 20
531.1515905251
 10
554.916241187
 20
530.470852063
 10
554.0680208964
 20
529.7135908685
 10
553.2900432354
 20
528.8855919393
 10
552.5880066995
 20
527.9930833914
 10
551.9672449916
 20
527.0429691908
 10
551.4324880695
 20
526.0426489016
 10
550.9876276498
 20
524.9995029753
 10
550.6358875881
 20
523.9208266915
 10
550.3803985935
 20
522.8160762087
 10
550.2231364992
 20
521.694987767
 10
550.1648924527
 20
520.5659506298
  0
LINE
  5
3CB
100
AcDbEntity
  8
KONSTRUKTIONSELEMENTE
100
AcDbLine
 62
7
  6
CONTINUOUS
 10
563.1642978744
 20
533.4058206095
 11
562.2604158058
 21
533.3746102282
  0
LINE
  5
3CC
100
AcDbEntity
  8
KONSTRUKTIONSELEMENTE
100
AcDbLine
 62
7
  6
CONTINUOUS
 10
563.6650658007
 20
533.4058206397
 11
563.1638267567
 21
533.4058206397
  0
LINE
  5
3CD
100
AcDbEntity
  8
0
100
AcDbLine
 62
7
  6
CONTINUOUS
 10
564.5877505831
 20
533.3732630336
 11
563.6645947044
 21
533.4058206095
  0
LINE
  5
3CE
100
AcDbEntity
  8
0
100
AcDbLine
 62
7
  6
CONTINUOUS
 10
565.7288927547
 20
533.2421128887
 11
564.5684767377
 21
533.3746102292
  0
LINE
  5
3CF
100
AcDbEntity
  8
0
100
AcDbLine
 62
7
  6
CONTINUOUS
 10
566.8520910022
 20
533.0117982518
 11
565.7109661625
 21
533.2449628612
  0
LINE
  5
3D0
100
AcDbEntity
  8
0
100
AcDbLine
 62
7
  6
CONTINUOUS
 10
567.9489194502
 20
532.6844309154
 11
566.8356094193
 21
533.0159280261
  0
LINE
  5
3D1
100
AcDbEntity
  8
0
100
AcDbLine
 62
7
  6
CONTINUOUS
 10
569.0111569861
 20
532.2628275349
 11
567.9339534883
 21
532.6896131784
  0
LINE
  5
3D2
100
AcDbEntity
  8
0
100
AcDbLine
 62
7
  6
CONTINUOUS
 10
570.0308649876
 20
531.7504865117
 11
568.9977499627
 21
532.2688334658
  0
LINE
  5
3D3
100
AcDbEntity
  8
0
100
AcDbLine
 62
7
  6
CONTINUOUS
 10
571.0003994065
 20
531.1515906795
 11
570.0190330273
 21
531.757088714
  0
LINE
  5
3D4
100
AcDbEntity
  8
0
100
AcDbLine
 62
7
  6
CONTINUOUS
 10
176.8192444635
 20
83.2543020354
 11
177.3530176762
 21
82.3297797112
  0
LWPOLYLINE
  5
3D5
100
AcDbEntity
  8
0
100
AcDbPolyline
 62
7
  6
CONTINUOUS
 90
33
 70
0
 10
174.2812258634
 20
89.9917601268
 10
174.2853450098
 20
89.7115450365
 10
174.3560439889
 20
88.7670883903
 10
174.5157010009
 20
87.8239960183
 10
174.7635390456
 20
86.8965800099
 10
175.096563246
 20
85.9967849092
 10
175.5098919844
 20
85.1352242959
 10
175.9982021822
 20
84.319378756
 10
176.5493846331
 20
83.56325108
 10
177.1501639478
 20
82.875448842
 10
177.7849149993
 20
82.2621789867
 10
178.4371518016
 20
81.726071822
 10
179.091588176
 20
81.2655918108
 10
179.7308957046
 20
80.87827373
 10
180.3498423531
 20
80.5535591766
 10
180.9388896276
 20
80.2843265979
 10
181.5052712093
 20
80.057374927
 10
182.0537847492
 20
79.863614608
 10
182.5934992661
 20
79.6946881841
 10
183.1352128867
 20
79.5438367805
 10
183.6852284557
 20
79.4070869646
 10
184.2521986485
 20
79.2808387306
 10
184.8414493313
 20
79.1630209722
 10
185.4595159699
 20
79.0518138915
 10
186.1099883393
 20
78.9463163846
 10
186.7967398627
 20
78.8457944966
 10
187.5221532253
 20
78.749903369
 10
188.2879295084
 20
78.6584812395
 10
189.0962557246
 20
78.5713873629
 10
189.9489654768
 20
78.4886042713
 10
190.8459682901
 20
78.4103454896
 10
191.7867747962
 20
78.3368556067
 10
192.614672986
 20
78.2787107932
  0
LINE
  5
3D6
100
AcDbEntity
  8
0
100
AcDbLine
 62
7
  6
CONTINUOUS
 10
174.2812259765
 20
89.9917603033
 11
174.2812209065
 21
90.6576805095
  0
LINE
  5
3D7
100
AcDbEntity
  8
KONSTRUKTIONSELEMENTE
100
AcDbLine
 62
7
  6
CONTINUOUS
 10
174.2812260094
 20
90.6678318985
 11
174.2812209065
 21
90.0018789129
  0
LINE
  5
3D8
100
AcDbEntity
  8
B-ACHSEN
100
AcDbLine
 62
7
  6
CONTINUOUS
 10
198.7812209065
 20
60.3297797112
 11
271.7812209065
 21
60.3297797112
  0
LINE
  5
3D9
100
AcDbEntity
  8
0
100
AcDbLine
 62
7
  6
CONTINUOUS
 10
274.2015487106
 20
78.0455414661
 11
273.7812209065
 21
77.9714263335
  0
LINE
  5
3DA
100
AcDbEntity
  8
0
100
AcDbLine
 62
7
  6
CONTINUOUS
 10
196.7812209065
 20
77.9714263335
 11
196.3608931024
 21
78.0455414661
  0
LINE
  5
3DB
100
AcDbEntity
  8
RUNDUNGEN
100
AcDbLine
 62
7
  6
CONTINUOUS
 10
196.7812209065
 20
78.0214490795
 11
196.7812209065
 21
62.32977986
  0
LINE
  5
3DC
100
AcDbEntity
  8
RUNDUNGEN
100
AcDbLine
 62
7
  6
CONTINUOUS
 10
196.7812209065
 20
102.6381103428
 11
196.7812209065
 21
136.8297797112
  0
LINE
  5
3DD
100
AcDbEntity
  8
KONSTRUKTIONSELEMENTE
100
AcDbLine
 62
7
  6
CONTINUOUS
 10
177.3530176762
 20
98.3297797112
 11
176.8192790911
 21
97.4053173638
  0
LWPOLYLINE
  5
3DE
100
AcDbEntity
  8
0
100
AcDbPolyline
 62
7
  6
CONTINUOUS
 90
33
 70
0
 10
277.9477688477
 20
78.2787107946
 10
278.7753426225
 20
78.3368316705
 10
279.715871784
 20
78.4102957836
 10
280.6126445696
 20
78.4885276879
 10
281.4651635892
 20
78.5712827546
 10
282.2733326295
 20
78.6583474265
 10
283.0389780309
 20
78.7497387347
 10
283.7642794597
 20
78.8455966542
 10
284.4509332487
 20
78.9460822104
 10
285.1013181383
 20
79.0515393598
 10
285.7192965606
 20
79.1626994628
 10
286.3084508774
 20
79.2804608242
 10
286.8753037304
 20
79.4066380327
 10
287.4251723604
 20
79.5432962786
 10
287.9666932238
 20
79.6940250307
 10
288.5061477068
 20
79.8627817432
 10
289.0543498645
 20
80.0563160525
 10
289.6203706483
 20
80.2829683678
 10
290.2090337881
 20
80.5518182278
 10
290.8275380026
 20
80.8760199521
 10
291.4665535968
 20
81.2627919872
 10
292.1210406132
 20
81.7228479499
 10
292.7735570814
 20
82.2586498008
 10
293.4087706713
 20
82.8717693196
 10
294.0101549034
 20
83.5596238126
 10
294.5620506585
 20
84.3160757731
 10
295.0510562096
 20
85.132448609
 10
295.4649837285
 20
85.9946752202
 10
295.7984577948
 20
86.8951809426
 10
296.0465743692
 20
87.8232316482
 10
296.2063649089
 20
88.7668177352
 10
296.2770961969
 20
89.7115237146
 10
296.2812159167
 20
89.9917273474
  0
LWPOLYLINE
  5
3DF
100
AcDbEntity
  8
0
100
AcDbPolyline
 62
7
  6
CONTINUOUS
 90
10
 70
0
 10
248.8457330249
 20
77.1255330389
 10
252.1769944842
 20
77.1861417545
 10
255.5066726104
 20
77.2638900634
 10
258.8269923668
 20
77.3588638482
 10
262.1302362653
 20
77.4711094846
 10
265.4085869583
 20
77.6006292433
 10
268.6542738375
 20
77.7473859936
 10
271.8596088175
 20
77.9113059465
 10
275.0169393347
 20
78.0922780985
 10
277.9478868274
 20
78.2787186703
  0
LINE
  5
3E0
100
AcDbEntity
  8
0
100
AcDbLine
 62
7
  6
CONTINUOUS
 10
245.5345966168
 20
77.0823355963
 11
248.8457330249
 21
77.1255330389
  0
LINE
  5
3E1
100
AcDbEntity
  8
0
100
AcDbLine
 62
7
  6
CONTINUOUS
 10
245.1069161655
 20
77.0800537039
 11
245.5345966168
 21
77.0823355963
  0
LINE
  5
3E2
100
AcDbEntity
  8
0
100
AcDbLine
 62
7
  6
CONTINUOUS
 10
245.1069161655
 20
77.0800537039
 11
225.6677105367
 21
77.0797797112
  0
LINE
  5
3E3
100
AcDbEntity
  8
0
100
AcDbLine
 62
7
  6
CONTINUOUS
 10
225.2401096295
 20
77.080906935
 11
225.6676800964
 21
77.0797796954
  0
LINE
  5
3E4
100
AcDbEntity
  8
0
100
AcDbLine
 62
7
  6
CONTINUOUS
 10
224.8244997215
 20
77.0842714827
 11
225.2401096295
 21
77.080906935
  0
LWPOLYLINE
  5
3E5
100
AcDbEntity
  8
0
100
AcDbPolyline
 62
7
  6
CONTINUOUS
 90
11
 70
0
 10
192.6145549856
 20
78.2787186703
 10
195.5455024783
 20
78.0922780985
 10
198.7028329955
 20
77.9113059465
 10
201.9081679755
 20
77.7473859936
 10
205.1538548547
 20
77.6006292433
 10
208.4322055477
 20
77.4711094846
 10
211.7354494462
 20
77.3588638482
 10
215.0557692026
 20
77.2638900634
 10
218.3854473288
 20
77.1861417545
 10
221.7167087881
 20
77.1255330389
 10
224.8244999372
 20
77.0842714817
  0
LINE
  5
3E6
100
AcDbEntity
  8
BEZUGSACHSEN
100
AcDbLine
 62
7
  6
CONTINUOUS
 10
219.4040885038
 20
160.8297797112
 11
203.5269561011
 21
133.3297797112
  0
LINE
  5
3E7
100
AcDbEntity
  8
KONSTRUKTIONSELEMENTE
100
AcDbLine
 62
7
  6
CONTINUOUS
 10
238.5909455889
 20
151.5071155043
 11
239.0306801115
 21
151.6668462775
  0
LINE
  5
3E8
100
AcDbEntity
  8
KONSTRUKTIONSELEMENTE
100
AcDbLine
 62
7
  6
CONTINUOUS
 10
238.7861969648
 20
152.2332539289
 11
238.5532037374
 21
152.0478184496
  0
LINE
  5
3E9
100
AcDbEntity
  8
KONSTRUKTIONSELEMENTE
100
AcDbLine
 62
7
  6
CONTINUOUS
 10
242.9336174922
 20
147.7889768668
 11
243.4868545767
 21
148.0094704134
  0
LINE
  5
3EA
100
AcDbEntity
  8
KONSTRUKTIONSELEMENTE
100
AcDbLine
 62
7
  6
CONTINUOUS
 10
228.9303679454
 20
144.3297797112
 11
222.5795149843
 21
133.3297797112
  0
LINE
  5
3EB
100
AcDbEntity
  8
KONSTRUKTIONSELEMENTE
100
AcDbLine
 62
7
  6
CONTINUOUS
 10
239.0306801115
 20
151.6668462775
 11
239.3932956231
 21
152.0505696259
  0
LINE
  5
3EC
100
AcDbEntity
  8
KONSTRUKTIONSELEMENTE
100
AcDbLine
 62
7
  6
CONTINUOUS
 10
243.4868545767
 20
148.0094704134
 11
243.849582341
 21
148.3142796895
  0
LINE
  5
3ED
100
AcDbEntity
  8
KONSTRUKTIONSELEMENTE
100
AcDbLine
 62
7
  6
CONTINUOUS
 10
243.3211101612
 20
148.6645074591
 11
243.001437163
 21
148.4569794166
  0
LINE
  5
3EE
100
AcDbEntity
  8
KONSTRUKTIONSELEMENTE
100
AcDbLine
 62
7
  6
CONTINUOUS
 10
247.6096185838
 20
144.798467388
 11
248.0461275061
 21
144.9826964164
  0
LINE
  5
3EF
100
AcDbEntity
  8
0
100
AcDbLine
 62
7
  6
CONTINUOUS
 10
258.6667696315
 20
104.5727727561
 11
258.2023539637
 21
104.5162200435
  0
LINE
  5
3F0
100
AcDbEntity
  8
BEZUGSACHSEN
100
AcDbLine
 62
7
  6
CONTINUOUS
 10
203.5269561011
 20
133.3297797112
 11
219.4040885038
 21
105.8297797112
  0
LINE
  5
3F1
100
AcDbEntity
  8
KONSTRUKTIONSELEMENTE
100
AcDbLine
 62
7
  6
CONTINUOUS
 10
238.9289450674
 20
152.5371119091
 11
238.7861969648
 21
152.2332539289
  0
LINE
  5
3F2
100
AcDbEntity
  8
KONSTRUKTIONSELEMENTE
100
AcDbLine
 62
7
  6
CONTINUOUS
 10
239.3932956231
 20
152.0505696259
 11
239.5360437257
 21
152.3544276061
  0
LINE
  5
3F3
100
AcDbEntity
  8
KONSTRUKTIONSELEMENTE
100
AcDbLine
 62
7
  6
CONTINUOUS
 10
243.5885837727
 20
149.0114742736
 11
243.3211101612
 21
148.6645074591
  0
LINE
  5
3F4
100
AcDbEntity
  8
KONSTRUKTIONSELEMENTE
100
AcDbLine
 62
7
  6
CONTINUOUS
 10
247.4958021543
 20
150.5386228417
 11
244.2133912156
 21
146.7669152139
  0
LINE
  5
3F5
100
AcDbEntity
  8
KONSTRUKTIONSELEMENTE
100
AcDbLine
 62
7
  6
CONTINUOUS
 10
245.1038858517
 20
146.8381084362
 11
247.5482344741
 21
149.6468269409
  0
LINE
  5
3F6
100
AcDbEntity
  8
RUNDUNGEN
100
AcDbLine
 62
7
  6
CONTINUOUS
 10
205.7820728419
 20
105.0252266798
 11
208.6214092638
 21
107.8645631017
  0
LINE
  5
3F7
100
AcDbEntity
  8
KONSTRUKTIONSELEMENTE
100
AcDbLine
 62
7
  6
CONTINUOUS
 10
248.0461275061
 20
144.9826964164
 11
248.47389706
 21
145.3155585606
  0
LINE
  5
3F8
100
AcDbEntity
  8
KONSTRUKTIONSELEMENTE
100
AcDbLine
 62
7
  6
CONTINUOUS
 10
248.0024336065
 20
145.7258599279
 11
247.6445025749
 21
145.4732468727
  0
LWPOLYLINE
  5
3F9
100
AcDbEntity
  8
KONSTRUKTIONSELEMENTE
100
AcDbPolyline
 62
7
  6
CONTINUOUS
 90
33
 70
0
 10
192.6146729653
 20
102.3808486277
 10
191.7870991905
 20
102.3227277518
 10
190.8465700289
 20
102.2492636387
 10
189.9497972434
 20
102.1710317344
 10
189.0972782238
 20
102.0882766678
 10
188.2891091835
 20
102.0012119959
 10
187.5234637821
 20
101.9098206876
 10
186.7981623532
 20
101.8139627681
 10
186.1115085643
 20
101.7134772119
 10
185.4611236747
 20
101.6080200626
 10
184.8431452524
 20
101.4968599596
 10
184.2539909356
 20
101.3790985982
 10
183.6871380826
 20
101.2529213897
 10
183.1372694526
 20
101.1162631437
 10
182.5957485892
 20
100.9655343916
 10
182.0562941062
 20
100.7967776791
 10
181.5080919485
 20
100.6032433698
 10
180.9420711646
 20
100.3765910546
 10
180.3534080248
 20
100.1077411945
 10
179.7349038104
 20
99.7835394702
 10
179.0958882162
 20
99.3967674351
 10
178.4414011998
 20
98.9367114725
 10
177.7888847316
 20
98.4009096215
 10
177.1536711417
 20
97.7877901027
 10
176.5522869096
 20
97.0999356098
 10
176.0003911545
 20
96.3434836493
 10
175.5113856034
 20
95.5271108133
 10
175.0974580845
 20
94.6648842022
 10
174.7639840182
 20
93.7643784798
 10
174.5158674437
 20
92.8363277742
 10
174.3560769041
 20
91.8927416872
 10
174.2853456161
 20
90.9480357077
 10
174.2812258963
 20
90.667832075
  0
LWPOLYLINE
  5
3FA
100
AcDbEntity
  8
KONSTRUKTIONSELEMENTE
100
AcDbPolyline
 62
7
  6
CONTINUOUS
 90
10
 70
0
 10
221.7167087881
 20
103.5340263834
 10
218.3854473288
 20
103.4734176678
 10
215.0557692026
 20
103.395669359
 10
211.7354494462
 20
103.3006955742
 10
208.4322055477
 20
103.1884499377
 10
205.1538548547
 20
103.058930179
 10
201.9081679755
 20
102.9121734287
 10
198.7028329955
 20
102.7482534759
 10
195.5455024783
 20
102.5672813238
 10
192.6145549856
 20
102.3808407521
  0
LINE
  5
3FB
100
AcDbEntity
  8
KONSTRUKTIONSELEMENTE
100
AcDbLine
 62
7
  6
CONTINUOUS
 10
225.0278451961
 20
103.5772238261
 11
221.7167087881
 21
103.5340263834
  0
LINE
  5
3FC
100
AcDbEntity
  8
KONSTRUKTIONSELEMENTE
100
AcDbLine
 62
7
  6
CONTINUOUS
 10
225.4555256475
 20
103.5795057184
 11
225.0278451961
 21
103.5772238261
  0
LINE
  5
3FD
100
AcDbEntity
  8
KONSTRUKTIONSELEMENTE
100
AcDbLine
 62
7
  6
CONTINUOUS
 10
225.4555256475
 20
103.5795057184
 11
244.8947207135
 21
103.5797797112
  0
LINE
  5
3FE
100
AcDbEntity
  8
BEZUGSACHSEN
100
AcDbLine
 62
7
  6
CONTINUOUS
 10
219.4040885038
 20
105.8297797112
 11
251.1583533092
 21
105.8297797112
  0
LINE
  5
3FF
100
AcDbEntity
  8
0
100
AcDbLine
 62
7
  6
CONTINUOUS
 10
245.3223321835
 20
103.5786524874
 11
225.7163759962
 21
103.5797797112
  0
LINE
  5
400
100
AcDbEntity
  8
0
100
AcDbLine
 62
7
  6
CONTINUOUS
 10
258.4728595844
 20
103.928766517
 11
258.8509108346
 21
103.9270800758
  0
LINE
  5
401
100
AcDbEntity
  8
0
100
AcDbLine
 62
7
  6
CONTINUOUS
 10
245.7379420915
 20
103.5752879396
 11
245.3223321835
 21
103.5786524874
  0
LWPOLYLINE
  5
402
100
AcDbEntity
  8
0
100
AcDbPolyline
 62
7
  6
CONTINUOUS
 90
11
 70
0
 10
277.9478868274
 20
102.3808407521
 10
275.0169393347
 20
102.5672813238
 10
271.8596088175
 20
102.7482534759
 10
268.6542738375
 20
102.9121734287
 10
265.4085869583
 20
103.058930179
 10
262.1302362653
 20
103.1884499377
 10
258.8269923668
 20
103.3006955742
 10
255.5066726104
 20
103.395669359
 10
252.1769944842
 20
103.4734176678
 10
248.8457330249
 20
103.5340263834
 10
245.7379418758
 20
103.5752879407
  0
LINE
  5
403
100
AcDbEntity
  8
KONSTRUKTIONSELEMENTE
100
AcDbLine
 62
7
  6
CONTINUOUS
 10
242.0656459171
 20
153.2919239556
 11
240.730948921
 21
150.2762074142
  0
LINE
  5
404
100
AcDbEntity
  8
KONSTRUKTIONSELEMENTE
100
AcDbLine
 62
7
  6
CONTINUOUS
 10
241.3024761094
 20
150.0232606896
 11
242.6371731055
 21
153.038977231
  0
LINE
  5
405
100
AcDbEntity
  8
KONSTRUKTIONSELEMENTE
100
AcDbLine
 62
7
  6
CONTINUOUS
 10
244.9232807688
 20
152.027190815
 11
243.5885837727
 21
149.0114742736
  0
LINE
  5
406
100
AcDbEntity
  8
KONSTRUKTIONSELEMENTE
100
AcDbLine
 62
7
  6
CONTINUOUS
 10
243.849582341
 20
148.3142796895
 11
244.1601106886
 21
148.7585276696
  0
LINE
  5
407
100
AcDbEntity
  8
KONSTRUKTIONSELEMENTE
100
AcDbLine
 62
7
  6
CONTINUOUS
 10
249.0500115387
 20
146.9295963737
 11
248.0024336065
 21
145.7258599279
  0
LINE
  5
408
100
AcDbEntity
  8
KONSTRUKTIONSELEMENTE
100
AcDbLine
 62
7
  6
CONTINUOUS
 10
248.47389706
 20
145.3155585606
 11
249.5214749921
 21
146.5192950064
  0
LINE
  5
409
100
AcDbEntity
  8
KONSTRUKTIONSELEMENTE
100
AcDbLine
 62
7
  6
CONTINUOUS
 10
254.4264402193
 20
139.1972400029
 11
250.8664604428
 21
136.9731188896
  0
LINE
  5
40A
100
AcDbEntity
  8
KONSTRUKTIONSELEMENTE
100
AcDbLine
 62
7
  6
CONTINUOUS
 10
251.4716399166
 20
136.6726142411
 11
255.531483637
 21
139.1063068335
  0
LINE
  5
40B
100
AcDbEntity
  8
KONSTRUKTIONSELEMENTE
100
AcDbLine
 62
7
  6
CONTINUOUS
 10
252.222566338
 20
133.0382078702
 11
251.8804508226
 21
132.8702333485
  0
LINE
  5
40C
100
AcDbEntity
  8
KONSTRUKTIONSELEMENTE
100
AcDbLine
 62
7
  6
CONTINUOUS
 10
252.2648212505
 20
132.5083037214
 11
252.4886755557
 21
132.5858211724
  0
LINE
  5
40D
100
AcDbEntity
  8
KONSTRUKTIONSELEMENTE
100
AcDbLine
 62
7
  6
CONTINUOUS
 10
253.0293972966
 20
130.0008782867
 11
252.5816882483
 21
129.8458410363
  0
LINE
  5
40E
100
AcDbEntity
  8
KONSTRUKTIONSELEMENTE
100
AcDbLine
 62
7
  6
CONTINUOUS
 10
243.4857597905
 20
114.1042914349
 11
244.0976740749
 21
114.270132455
  0
LINE
  5
40F
100
AcDbEntity
  8
KONSTRUKTIONSELEMENTE
100
AcDbLine
 62
7
  6
CONTINUOUS
 10
236.8977514728
 20
112.3897585751
 11
237.410971236
 21
112.5282931444
  0
LINE
  5
410
100
AcDbEntity
  8
KONSTRUKTIONSELEMENTE
100
AcDbLine
 62
7
  6
CONTINUOUS
 10
243.8743596849
 20
114.7528995519
 11
243.3569901868
 21
114.6307922729
  0
LINE
  5
411
100
AcDbEntity
  8
KONSTRUKTIONSELEMENTE
100
AcDbLine
 62
7
  6
CONTINUOUS
 10
196.7812209065
 20
102.6881330889
 11
196.3608931024
 21
102.6140179563
  0
LINE
  5
412
100
AcDbEntity
  8
KONSTRUKTIONSELEMENTE
100
AcDbLine
 62
7
  6
CONTINUOUS
 10
236.3779273803
 20
112.3574017734
 11
236.8977514728
 21
112.3897585751
  0
LINE
  5
413
100
AcDbEntity
  8
KONSTRUKTIONSELEMENTE
100
AcDbLine
 62
7
  6
CONTINUOUS
 10
236.9686746566
 20
112.927117529
 11
236.2409133124
 21
112.8818175327
  0
LINE
  5
414
100
AcDbEntity
  8
KONSTRUKTIONSELEMENTE
100
AcDbLine
 62
7
  6
CONTINUOUS
 10
235.8514894402
 20
112.4312221468
 11
236.3779273803
 21
112.3574017734
  0
LINE
  5
415
100
AcDbEntity
  8
0
100
AcDbLine
 62
7
  6
CONTINUOUS
 10
274.2015487106
 20
102.6140179563
 11
273.7812209065
 21
102.6881330889
  0
LINE
  5
416
100
AcDbEntity
  8
0
100
AcDbLine
 62
7
  6
CONTINUOUS
 10
259.2501423083
 20
104.4529208999
 11
258.6667696315
 21
104.5727727561
  0
LINE
  5
417
100
AcDbEntity
  8
KONSTRUKTIONSELEMENTE
100
AcDbLine
 62
7
  6
CONTINUOUS
 10
234.5360315531
 20
115.1206512014
 11
234.582295172
 21
114.3774089022
  0
LINE
  5
418
100
AcDbEntity
  8
KONSTRUKTIONSELEMENTE
100
AcDbLine
 62
7
  6
CONTINUOUS
 10
235.0690785816
 20
114.9406533567
 11
235.0558604048
 21
115.1530082994
  0
LINE
  5
419
100
AcDbEntity
  8
KONSTRUKTIONSELEMENTE
100
AcDbLine
 62
7
  6
CONTINUOUS
 10
235.2457424207
 20
113.7791724734
 11
235.2325242439
 21
113.991527416
  0
LINE
  5
41A
100
AcDbEntity
  8
KONSTRUKTIONSELEMENTE
100
AcDbLine
 62
7
  6
CONTINUOUS
 10
234.5937365508
 20
115.8703652467
 11
234.5360315531
 21
115.1206512014
  0
LINE
  5
41B
100
AcDbEntity
  8
KONSTRUKTIONSELEMENTE
100
AcDbLine
 62
7
  6
CONTINUOUS
 10
235.0558604048
 20
115.1530082994
 11
235.1201697317
 21
115.796544577
  0
LINE
  5
41C
100
AcDbEntity
  8
KONSTRUKTIONSELEMENTE
100
AcDbLine
 62
7
  6
CONTINUOUS
 10
235.9082135303
 20
154.413517073
 11
235.2912999948
 21
149.45172126
  0
LINE
  5
41D
100
AcDbEntity
  8
KONSTRUKTIONSELEMENTE
100
AcDbLine
 62
7
  6
CONTINUOUS
 10
235.9115244714
 20
149.374607068
 11
236.1871666933
 21
151.5915796968
  0
LINE
  5
41E
100
AcDbEntity
  8
KONSTRUKTIONSELEMENTE
100
AcDbLine
 62
7
  6
CONTINUOUS
 10
236.2659216033
 20
152.2250003634
 11
236.4628089152
 21
153.8085523255
  0
LINE
  5
41F
100
AcDbEntity
  8
KONSTRUKTIONSELEMENTE
100
AcDbLine
 62
7
  6
CONTINUOUS
 10
238.9683225592
 20
152.8538225382
 11
238.9289450674
 21
152.5371119091
  0
LINE
  5
420
100
AcDbEntity
  8
KONSTRUKTIONSELEMENTE
100
AcDbLine
 62
7
  6
CONTINUOUS
 10
239.5360437257
 20
152.3544276061
 11
239.5885470358
 21
152.7767083462
  0
LINE
  5
421
100
AcDbEntity
  8
KONSTRUKTIONSELEMENTE
100
AcDbLine
 62
7
  6
CONTINUOUS
 10
241.2255112881
 20
149.5919784208
 11
241.3024761094
 21
150.0232606896
  0
LINE
  5
422
100
AcDbEntity
  8
KONSTRUKTIONSELEMENTE
100
AcDbLine
 62
7
  6
CONTINUOUS
 10
240.730948921
 20
150.2762074142
 11
240.6109299088
 21
149.7476437386
  0
LINE
  5
423
100
AcDbEntity
  8
KONSTRUKTIONSELEMENTE
100
AcDbLine
 62
7
  6
CONTINUOUS
 10
235.1201697317
 20
115.796544577
 11
235.2043110924
 21
116.1215485883
  0
LINE
  5
424
100
AcDbEntity
  8
KONSTRUKTIONSELEMENTE
100
AcDbLine
 62
7
  6
CONTINUOUS
 10
234.7686188375
 20
116.4141952798
 11
234.5937365508
 21
115.8703652467
  0
LINE
  5
425
100
AcDbEntity
  8
KONSTRUKTIONSELEMENTE
100
AcDbLine
 62
7
  6
CONTINUOUS
 10
244.1601106886
 20
148.7585276696
 11
245.4948076847
 21
151.774244211
  0
LINE
  5
426
100
AcDbEntity
  8
KONSTRUKTIONSELEMENTE
100
AcDbLine
 62
7
  6
CONTINUOUS
 10
249.2507886853
 20
147.3189760297
 11
249.0500115387
 21
146.9295963737
  0
LINE
  5
427
100
AcDbEntity
  8
KONSTRUKTIONSELEMENTE
100
AcDbLine
 62
7
  6
CONTINUOUS
 10
249.5214749921
 20
146.5192950064
 11
249.7920908567
 21
146.9889239761
  0
LINE
  5
428
100
AcDbEntity
  8
KONSTRUKTIONSELEMENTE
100
AcDbLine
 62
7
  6
CONTINUOUS
 10
235.0540788407
 20
116.8583194017
 11
234.7686188375
 21
116.4141952798
  0
LINE
  5
429
100
AcDbEntity
  8
KONSTRUKTIONSELEMENTE
100
AcDbLine
 62
7
  6
CONTINUOUS
 10
252.0282987561
 20
132.327389589
 11
252.2648212505
 21
132.5083037214
  0
LINE
  5
42A
100
AcDbEntity
  8
KONSTRUKTIONSELEMENTE
100
AcDbLine
 62
7
  6
CONTINUOUS
 10
250.852460707
 20
127.9541784129
 11
250.3527256352
 21
127.6029129459
  0
LINE
  5
42B
100
AcDbEntity
  8
KONSTRUKTIONSELEMENTE
100
AcDbLine
 62
7
  6
CONTINUOUS
 10
235.5540804254
 20
117.2092089415
 11
235.0540788407
 21
116.8583194017
  0
LINE
  5
42C
100
AcDbEntity
  8
KONSTRUKTIONSELEMENTE
100
AcDbLine
 62
7
  6
CONTINUOUS
 10
250.7995343508
 20
127.2960802754
 11
251.1189025694
 21
127.4983907615
  0
LINE
  5
42D
100
AcDbEntity
  8
KONSTRUKTIONSELEMENTE
100
AcDbLine
 62
7
  6
CONTINUOUS
 10
252.9533909249
 20
129.3805170762
 11
253.2955067303
 21
129.5484939644
  0
LINE
  5
42E
100
AcDbEntity
  8
KONSTRUKTIONSELEMENTE
100
AcDbLine
 62
7
  6
CONTINUOUS
 10
255.1539331165
 20
129.8455275103
 11
254.8118176011
 21
129.6775529886
  0
LINE
  5
42F
100
AcDbEntity
  8
KONSTRUKTIONSELEMENTE
100
AcDbLine
 62
7
  6
CONTINUOUS
 10
251.699838229
 20
125.0905272731
 11
251.4218354469
 21
124.9838162848
  0
LINE
  5
430
100
AcDbEntity
  8
KONSTRUKTIONSELEMENTE
100
AcDbLine
 62
7
  6
CONTINUOUS
 10
251.5492768308
 20
124.4746753422
 11
251.9662800572
 21
124.6347396366
  0
LINE
  5
431
100
AcDbEntity
  8
KONSTRUKTIONSELEMENTE
100
AcDbLine
 62
7
  6
CONTINUOUS
 10
242.610432847
 20
118.9739847182
 11
241.9985185586
 21
118.8081437065
  0
LINE
  5
432
100
AcDbEntity
  8
KONSTRUKTIONSELEMENTE
100
AcDbLine
 62
7
  6
CONTINUOUS
 10
236.1796547003
 20
115.542726359
 11
235.6664349463
 21
115.404191641
  0
LINE
  5
433
100
AcDbEntity
  8
KONSTRUKTIONSELEMENTE
100
AcDbLine
 62
7
  6
CONTINUOUS
 10
236.0673001881
 20
117.34774352
 11
235.5540804254
 21
117.2092089415
  0
LINE
  5
434
100
AcDbEntity
  8
KONSTRUKTIONSELEMENTE
100
AcDbLine
 62
7
  6
CONTINUOUS
 10
239.0821618007
 20
117.2386369305
 11
239.5870986667
 21
117.3663388419
  0
LINE
  5
435
100
AcDbEntity
  8
KONSTRUKTIONSELEMENTE
100
AcDbLine
 62
7
  6
CONTINUOUS
 10
239.4566800885
 20
117.8820174825
 11
238.9517432226
 21
117.754315571
  0
LINE
  5
436
100
AcDbEntity
  8
KONSTRUKTIONSELEMENTE
100
AcDbLine
 62
7
  6
CONTINUOUS
 10
242.2218329799
 20
118.325376542
 11
242.7392068059
 21
118.4474858229
  0
LINE
  5
437
100
AcDbEntity
  8
KONSTRUKTIONSELEMENTE
100
AcDbLine
 62
7
  6
CONTINUOUS
 10
236.1087315257
 20
115.0053672563
 11
236.8364928699
 21
115.0506672527
  0
LINE
  5
438
100
AcDbEntity
  8
KONSTRUKTIONSELEMENTE
100
AcDbLine
 62
7
  6
CONTINUOUS
 10
236.6994787928
 20
115.5750831607
 11
236.1796547003
 21
115.542726359
  0
LINE
  5
439
100
AcDbEntity
  8
KONSTRUKTIONSELEMENTE
100
AcDbLine
 62
7
  6
CONTINUOUS
 10
237.4915494731
 20
116.263919286
 11
238.0113783248
 21
116.2962763839
  0
LINE
  5
43A
100
AcDbEntity
  8
KONSTRUKTIONSELEMENTE
100
AcDbLine
 62
7
  6
CONTINUOUS
 10
235.9963770089
 20
116.8103844917
 11
236.6201697273
 21
116.8492128908
  0
LINE
  5
43B
100
AcDbEntity
  8
KONSTRUKTIONSELEMENTE
100
AcDbLine
 62
7
  6
CONTINUOUS
 10
236.4831604139
 20
117.3736290206
 11
236.0673001881
 21
117.34774352
  0
LINE
  5
43C
100
AcDbEntity
  8
KONSTRUKTIONSELEMENTE
100
AcDbLine
 62
7
  6
CONTINUOUS
 10
242.8790645363
 20
114.1752909946
 11
243.4857597905
 21
114.1042914349
  0
LINE
  5
43D
100
AcDbEntity
  8
KONSTRUKTIONSELEMENTE
100
AcDbLine
 62
7
  6
CONTINUOUS
 10
237.2259167421
 20
115.5012626385
 11
236.6994787928
 21
115.5750831607
  0
LINE
  5
43E
100
AcDbEntity
  8
KONSTRUKTIONSELEMENTE
100
AcDbLine
 62
7
  6
CONTINUOUS
 10
237.0095983546
 20
117.2998086379
 11
236.4831604139
 21
117.3736290206
  0
LINE
  5
43F
100
AcDbEntity
  8
KONSTRUKTIONSELEMENTE
100
AcDbLine
 62
7
  6
CONTINUOUS
 10
243.3569901868
 20
114.6307922729
 11
242.9840387275
 21
114.6927018919
  0
LINE
  5
440
100
AcDbEntity
  8
KONSTRUKTIONSELEMENTE
100
AcDbLine
 62
7
  6
CONTINUOUS
 10
236.2409133124
 20
112.8818175327
 11
235.9224078648
 21
112.9685808045
  0
LINE
  5
441
100
AcDbEntity
  8
KONSTRUKTIONSELEMENTE
100
AcDbLine
 62
7
  6
CONTINUOUS
 10
236.8364928699
 20
115.0506672527
 11
237.1549983175
 21
114.9639039809
  0
LINE
  5
442
100
AcDbEntity
  8
KONSTRUKTIONSELEMENTE
100
AcDbLine
 62
7
  6
CONTINUOUS
 10
236.6201697273
 20
116.8492128908
 11
236.9386751748
 21
116.762449619
  0
LINE
  5
443
100
AcDbEntity
  8
KONSTRUKTIONSELEMENTE
100
AcDbLine
 62
7
  6
CONTINUOUS
 10
242.4614501991
 20
114.333754033
 11
242.8790645363
 21
114.1752909946
  0
LINE
  5
444
100
AcDbEntity
  8
0
100
AcDbLine
 62
7
  6
CONTINUOUS
 10
258.8509108346
 20
103.9270800758
 11
259.2020763382
 21
103.7789519495
  0
LINE
  5
445
100
AcDbEntity
  8
KONSTRUKTIONSELEMENTE
100
AcDbLine
 62
7
  6
CONTINUOUS
 10
235.3118333233
 20
112.7173974628
 11
235.8514894402
 21
112.4312221468
  0
LINE
  5
446
100
AcDbEntity
  8
KONSTRUKTIONSELEMENTE
100
AcDbLine
 62
7
  6
CONTINUOUS
 10
237.765572859
 20
115.2150873225
 11
237.2259167421
 21
115.5012626385
  0
LINE
  5
447
100
AcDbEntity
  8
KONSTRUKTIONSELEMENTE
100
AcDbLine
 62
7
  6
CONTINUOUS
 10
237.549249714
 20
117.0136329978
 11
237.0095983546
 21
117.2998086379
  0
LINE
  5
448
100
AcDbEntity
  8
0
100
AcDbLine
 62
7
  6
CONTINUOUS
 10
259.6607861497
 20
104.2165907363
 11
259.2501423083
 21
104.4529208999
  0
LINE
  5
449
100
AcDbEntity
  8
KONSTRUKTIONSELEMENTE
100
AcDbLine
 62
7
  6
CONTINUOUS
 10
235.9224078648
 20
112.9685808045
 11
235.5972933289
 21
113.1615215476
  0
LINE
  5
44A
100
AcDbEntity
  8
KONSTRUKTIONSELEMENTE
100
AcDbLine
 62
7
  6
CONTINUOUS
 10
237.1549983175
 20
114.9639039809
 11
237.4801128534
 21
114.7709632378
  0
LINE
  5
44B
100
AcDbEntity
  8
KONSTRUKTIONSELEMENTE
100
AcDbLine
 62
7
  6
CONTINUOUS
 10
236.9386751748
 20
116.762449619
 11
237.2637897108
 21
116.5695088758
  0
LINE
  5
44C
100
AcDbEntity
  8
KONSTRUKTIONSELEMENTE
100
AcDbLine
 62
7
  6
CONTINUOUS
 10
234.9735006105
 20
113.1226931486
 11
235.3118333233
 21
112.7173974628
  0
LINE
  5
44D
100
AcDbEntity
  8
KONSTRUKTIONSELEMENTE
100
AcDbLine
 62
7
  6
CONTINUOUS
 10
238.1039055718
 20
114.8097916368
 11
237.765572859
 21
115.2150873225
  0
LINE
  5
44E
100
AcDbEntity
  8
KONSTRUKTIONSELEMENTE
100
AcDbLine
 62
7
  6
CONTINUOUS
 10
235.5972933289
 20
113.1615215476
 11
235.3695383303
 21
113.4671113593
  0
LINE
  5
44F
100
AcDbEntity
  8
KONSTRUKTIONSELEMENTE
100
AcDbLine
 62
7
  6
CONTINUOUS
 10
237.4801128534
 20
114.7709632378
 11
237.707867852
 21
114.465373426
  0
LINE
  5
450
100
AcDbEntity
  8
KONSTRUKTIONSELEMENTE
100
AcDbLine
 62
7
  6
CONTINUOUS
 10
222.5795149843
 20
133.3297797112
 11
228.9303679454
 21
122.3297797112
  0
LINE
  5
451
100
AcDbEntity
  8
KONSTRUKTIONSELEMENTE
100
AcDbLine
 62
7
  6
CONTINUOUS
 10
234.7325274167
 20
113.6406382004
 11
234.9735006105
 21
113.1226931486
  0
LINE
  5
452
100
AcDbEntity
  8
KONSTRUKTIONSELEMENTE
100
AcDbLine
 62
7
  6
CONTINUOUS
 10
235.3695383303
 20
113.4671113593
 11
235.2457424207
 21
113.7791724734
  0
LINE
  5
453
100
AcDbEntity
  8
KONSTRUKTIONSELEMENTE
100
AcDbLine
 62
7
  6
CONTINUOUS
 10
234.582295172
 20
114.3774089022
 11
234.7325274167
 21
113.6406382004
  0
LINE
  5
454
100
AcDbEntity
  8
KONSTRUKTIONSELEMENTE
100
AcDbLine
 62
7
  6
CONTINUOUS
 10
237.831663743
 20
114.1533126094
 11
237.8448819199
 21
113.9409576668
  0
LINE
  5
455
100
AcDbEntity
  8
KONSTRUKTIONSELEMENTE
100
AcDbLine
 62
7
  6
CONTINUOUS
 10
238.3713151008
 20
113.8671369972
 11
238.3448787471
 21
114.2918468824
  0
LINE
  5
456
100
AcDbEntity
  8
KONSTRUKTIONSELEMENTE
100
AcDbLine
 62
7
  6
CONTINUOUS
 10
240.9875750061
 20
117.5200173456
 11
240.9771413047
 21
117.04633812
  0
LINE
  5
457
100
AcDbEntity
  8
KONSTRUKTIONSELEMENTE
100
AcDbLine
 62
7
  6
CONTINUOUS
 10
241.4892961004
 20
116.931606821
 11
241.5994892906
 21
117.6858583658
  0
LINE
  5
458
100
AcDbEntity
  8
KONSTRUKTIONSELEMENTE
100
AcDbLine
 62
7
  6
CONTINUOUS
 10
235.2325242439
 20
113.991527416
 11
235.3166656045
 21
114.3165314273
  0
LINE
  5
459
100
AcDbEntity
  8
KONSTRUKTIONSELEMENTE
100
AcDbLine
 62
7
  6
CONTINUOUS
 10
237.8448819199
 20
113.9409576668
 11
237.7607405778
 21
113.6159533581
  0
LINE
  5
45A
100
AcDbEntity
  8
KONSTRUKTIONSELEMENTE
100
AcDbLine
 62
7
  6
CONTINUOUS
 10
238.196432828
 20
113.323306741
 11
238.3713151008
 21
113.8671369972
  0
LINE
  5
45B
100
AcDbEntity
  8
KONSTRUKTIONSELEMENTE
100
AcDbLine
 62
7
  6
CONTINUOUS
 10
241.1372120597
 20
117.9408748573
 11
240.9875750061
 21
117.5200173456
  0
LINE
  5
45C
100
AcDbEntity
  8
KONSTRUKTIONSELEMENTE
100
AcDbLine
 62
7
  6
CONTINUOUS
 10
235.2043110924
 20
116.1215485883
 11
235.3924115558
 21
116.4530236788
  0
LINE
  5
45D
100
AcDbEntity
  8
KONSTRUKTIONSELEMENTE
100
AcDbLine
 62
7
  6
CONTINUOUS
 10
235.3166656045
 20
114.3165314273
 11
235.5047660726
 21
114.6480064434
  0
LINE
  5
45E
100
AcDbEntity
  8
KONSTRUKTIONSELEMENTE
100
AcDbLine
 62
7
  6
CONTINUOUS
 10
237.7607405778
 20
113.6159533581
 11
237.5726401096
 21
113.284478342
  0
LINE
  5
45F
100
AcDbEntity
  8
KONSTRUKTIONSELEMENTE
100
AcDbLine
 62
7
  6
CONTINUOUS
 10
241.6320738676
 20
122.3297797112
 11
247.9829268287
 21
133.3297797112
  0
LINE
  5
460
100
AcDbEntity
  8
KONSTRUKTIONSELEMENTE
100
AcDbLine
 62
7
  6
CONTINUOUS
 10
241.5994892906
 20
117.6858583658
 11
241.7937892378
 21
118.0101624243
  0
LINE
  5
461
100
AcDbEntity
  8
KONSTRUKTIONSELEMENTE
100
AcDbLine
 62
7
  6
CONTINUOUS
 10
237.9109728224
 20
112.8791826562
 11
238.196432828
 21
113.323306741
  0
LINE
  5
462
100
AcDbEntity
  8
KONSTRUKTIONSELEMENTE
100
AcDbLine
 62
7
  6
CONTINUOUS
 10
241.4759300341
 20
118.4491958391
 11
241.1372120597
 21
117.9408748573
  0
LINE
  5
463
100
AcDbEntity
  8
KONSTRUKTIONSELEMENTE
100
AcDbLine
 62
7
  6
CONTINUOUS
 10
251.6312608299
 20
132.5859272542
 11
251.3694030212
 21
132.1982268348
  0
LINE
  5
464
100
AcDbEntity
  8
KONSTRUKTIONSELEMENTE
100
AcDbLine
 62
7
  6
CONTINUOUS
 10
251.8973700106
 20
132.1335405609
 11
252.0282987561
 21
132.327389589
  0
LINE
  5
465
100
AcDbEntity
  8
KONSTRUKTIONSELEMENTE
100
AcDbLine
 62
7
  6
CONTINUOUS
 10
251.8804508226
 20
132.8702333485
 11
251.6312608299
 21
132.5859272542
  0
LINE
  5
466
100
AcDbEntity
  8
KONSTRUKTIONSELEMENTE
100
AcDbLine
 62
7
  6
CONTINUOUS
 10
253.2785872523
 20
130.2851843855
 11
253.0293972966
 21
130.0008782867
  0
LINE
  5
467
100
AcDbEntity
  8
KONSTRUKTIONSELEMENTE
100
AcDbLine
 62
7
  6
CONTINUOUS
 10
250.57780114
 20
127.0515235976
 11
250.7995343508
 21
127.2960802754
  0
LINE
  5
468
100
AcDbEntity
  8
KONSTRUKTIONSELEMENTE
100
AcDbLine
 62
7
  6
CONTINUOUS
 10
235.3924115558
 20
116.4530236788
 11
235.6910897382
 21
116.6847928209
  0
LINE
  5
469
100
AcDbEntity
  8
KONSTRUKTIONSELEMENTE
100
AcDbLine
 62
7
  6
CONTINUOUS
 10
235.6664349463
 20
115.404191641
 11
235.0690785816
 21
114.9406533567
  0
LINE
  5
46A
100
AcDbEntity
  8
KONSTRUKTIONSELEMENTE
100
AcDbLine
 62
7
  6
CONTINUOUS
 10
235.5047660726
 20
114.6480064434
 11
235.803444255
 21
114.8797755855
  0
LINE
  5
46B
100
AcDbEntity
  8
KONSTRUKTIONSELEMENTE
100
AcDbLine
 62
7
  6
CONTINUOUS
 10
237.5726401096
 20
113.284478342
 11
237.2739619273
 21
113.0527091998
  0
LINE
  5
46C
100
AcDbEntity
  8
KONSTRUKTIONSELEMENTE
100
AcDbLine
 62
7
  6
CONTINUOUS
 10
255.1835201298
 20
129.2122290466
 11
255.6565646806
 21
129.5740549629
  0
LINE
  5
46D
100
AcDbEntity
  8
KONSTRUKTIONSELEMENTE
100
AcDbLine
 62
7
  6
CONTINUOUS
 10
244.8567752122
 20
120.5114818624
 11
244.3560604524
 21
120.1374367724
  0
LINE
  5
46E
100
AcDbEntity
  8
KONSTRUKTIONSELEMENTE
100
AcDbLine
 62
7
  6
CONTINUOUS
 10
241.7937892378
 20
118.0101624243
 11
242.2218329799
 21
118.325376542
  0
LINE
  5
46F
100
AcDbEntity
  8
KONSTRUKTIONSELEMENTE
100
AcDbLine
 62
7
  6
CONTINUOUS
 10
251.9662800572
 20
124.6347396366
 11
252.4660151034
 21
124.9860051146
  0
LINE
  5
470
100
AcDbEntity
  8
KONSTRUKTIONSELEMENTE
100
AcDbLine
 62
7
  6
CONTINUOUS
 10
253.6674408997
 20
124.0121537564
 11
254.1671768927
 21
124.3634214226
  0
LINE
  5
471
100
AcDbEntity
  8
KONSTRUKTIONSELEMENTE
100
AcDbLine
 62
7
  6
CONTINUOUS
 10
237.410971236
 20
112.5282931444
 11
237.9109728224
 21
112.8791826562
  0
LINE
  5
472
100
AcDbEntity
  8
KONSTRUKTIONSELEMENTE
100
AcDbLine
 62
7
  6
CONTINUOUS
 10
241.9985185586
 20
118.8081437065
 11
241.4759300341
 21
118.4491958391
  0
LINE
  5
473
100
AcDbEntity
  8
KONSTRUKTIONSELEMENTE
100
AcDbLine
 62
7
  6
CONTINUOUS
 10
252.0192064477
 20
125.2928377592
 11
251.699838229
 21
125.0905272731
  0
LINE
  5
474
100
AcDbEntity
  8
KONSTRUKTIONSELEMENTE
100
AcDbLine
 62
7
  6
CONTINUOUS
 10
253.7203672902
 20
124.6702518791
 11
253.4009990716
 21
124.467941393
  0
LINE
  5
475
100
AcDbEntity
  8
KONSTRUKTIONSELEMENTE
100
AcDbLine
 62
7
  6
CONTINUOUS
 10
235.6910897382
 20
116.6847928209
 11
235.9963770089
 21
116.8103844917
  0
LINE
  5
476
100
AcDbEntity
  8
KONSTRUKTIONSELEMENTE
100
AcDbLine
 62
7
  6
CONTINUOUS
 10
235.803444255
 20
114.8797755855
 11
236.1087315257
 21
115.0053672563
  0
LINE
  5
477
100
AcDbEntity
  8
KONSTRUKTIONSELEMENTE
100
AcDbLine
 62
7
  6
CONTINUOUS
 10
237.2739619273
 20
113.0527091998
 11
236.9686746566
 21
112.927117529
  0
LINE
  5
478
100
AcDbEntity
  8
KONSTRUKTIONSELEMENTE
100
AcDbLine
 62
7
  6
CONTINUOUS
 10
253.1528026655
 20
123.8943356538
 11
253.6674408997
 21
124.0121537564
  0
LINE
  5
479
100
AcDbEntity
  8
KONSTRUKTIONSELEMENTE
100
AcDbLine
 62
7
  6
CONTINUOUS
 10
253.4009990716
 20
124.467941393
 11
253.0253622284
 21
124.4034787845
  0
LINE
  5
47A
100
AcDbEntity
  8
KONSTRUKTIONSELEMENTE
100
AcDbLine
 62
7
  6
CONTINUOUS
 10
228.9303679454
 20
122.3297797112
 11
241.6320738676
 21
122.3297797112
  0
LINE
  5
47B
100
AcDbEntity
  8
KONSTRUKTIONSELEMENTE
100
AcDbLine
 62
7
  6
CONTINUOUS
 10
243.2171324407
 20
118.902987135
 11
242.610432847
 21
118.9739847182
  0
LINE
  5
47C
100
AcDbEntity
  8
KONSTRUKTIONSELEMENTE
100
AcDbLine
 62
7
  6
CONTINUOUS
 10
242.7392068059
 20
118.4474858229
 11
243.1121582651
 21
118.3855762039
  0
LINE
  5
47D
100
AcDbEntity
  8
KONSTRUKTIONSELEMENTE
100
AcDbLine
 62
7
  6
CONTINUOUS
 10
243.6347467935
 20
118.7445240628
 11
243.2171324407
 21
118.902987135
  0
LINE
  5
47E
100
AcDbEntity
  8
KONSTRUKTIONSELEMENTE
100
AcDbLine
 62
7
  6
CONTINUOUS
 10
242.9840387275
 20
114.6927018919
 11
242.3378908449
 21
115.0970917177
  0
LINE
  5
47F
100
AcDbEntity
  8
KONSTRUKTIONSELEMENTE
100
AcDbLine
 62
7
  6
CONTINUOUS
 10
243.1121582651
 20
118.3855762039
 11
243.7583017261
 21
117.9811845791
  0
LINE
  5
480
100
AcDbEntity
  8
KONSTRUKTIONSELEMENTE
100
AcDbLine
 62
7
  6
CONTINUOUS
 10
242.0937134424
 20
114.63250223
 11
242.4614501991
 21
114.333754033
  0
LINE
  5
481
100
AcDbEntity
  8
KONSTRUKTIONSELEMENTE
100
AcDbLine
 62
7
  6
CONTINUOUS
 10
244.0024835816
 20
118.4457757982
 11
243.6347467935
 21
118.7445240628
  0
LINE
  5
482
100
AcDbEntity
  8
0
100
AcDbLine
 62
7
  6
CONTINUOUS
 10
259.2020763382
 20
103.7789519495
 11
259.5263547736
 21
103.4843819656
  0
LINE
  5
483
100
AcDbEntity
  8
KONSTRUKTIONSELEMENTE
100
AcDbLine
 62
7
  6
CONTINUOUS
 10
241.8651842248
 20
114.8784310193
 11
242.0937134424
 21
114.63250223
  0
LINE
  5
484
100
AcDbEntity
  8
KONSTRUKTIONSELEMENTE
100
AcDbLine
 62
7
  6
CONTINUOUS
 10
237.8875824291
 20
116.6083372749
 11
237.549249714
 21
117.0136329978
  0
LINE
  5
485
100
AcDbEntity
  8
KONSTRUKTIONSELEMENTE
100
AcDbLine
 62
7
  6
CONTINUOUS
 10
237.2637897108
 20
116.5695088758
 11
237.4915494731
 21
116.263919286
  0
LINE
  5
486
100
AcDbEntity
  8
KONSTRUKTIONSELEMENTE
100
AcDbLine
 62
7
  6
CONTINUOUS
 10
241.5473250485
 20
115.317464375
 11
241.8651842248
 21
114.8784310193
  0
LINE
  5
487
100
AcDbEntity
  8
KONSTRUKTIONSELEMENTE
100
AcDbLine
 62
7
  6
CONTINUOUS
 10
242.3378908449
 20
115.0970917177
 11
241.9753731185
 21
115.6326804946
  0
LINE
  5
488
100
AcDbEntity
  8
KONSTRUKTIONSELEMENTE
100
AcDbLine
 62
7
  6
CONTINUOUS
 10
238.3448787471
 20
114.2918468824
 11
238.1039055718
 21
114.8097916368
  0
LINE
  5
489
100
AcDbEntity
  8
KONSTRUKTIONSELEMENTE
100
AcDbLine
 62
7
  6
CONTINUOUS
 10
241.1453591465
 20
116.1864451493
 11
241.5473250485
 21
115.317464375
  0
LINE
  5
48A
100
AcDbEntity
  8
KONSTRUKTIONSELEMENTE
100
AcDbLine
 62
7
  6
CONTINUOUS
 10
241.9753731185
 20
115.6326804946
 11
241.6627329724
 21
116.3085544302
  0
LINE
  5
48B
100
AcDbEntity
  8
KONSTRUKTIONSELEMENTE
100
AcDbLine
 62
7
  6
CONTINUOUS
 10
237.707867852
 20
114.465373426
 11
237.831663743
 21
114.1533126094
  0
LINE
  5
48C
100
AcDbEntity
  8
KONSTRUKTIONSELEMENTE
100
AcDbLine
 62
7
  6
CONTINUOUS
 10
238.0113783248
 20
116.2962763839
 11
237.8875824291
 21
116.6083372749
  0
LINE
  5
48D
100
AcDbEntity
  8
KONSTRUKTIONSELEMENTE
100
AcDbLine
 62
7
  6
CONTINUOUS
 10
241.6627329724
 20
116.3085544302
 11
241.4892961004
 21
116.931606821
  0
LINE
  5
48E
100
AcDbEntity
  8
KONSTRUKTIONSELEMENTE
100
AcDbLine
 62
7
  6
CONTINUOUS
 10
238.9517432226
 20
117.754315571
 11
239.0821618007
 21
117.2386369305
  0
LINE
  5
48F
100
AcDbEntity
  8
KONSTRUKTIONSELEMENTE
100
AcDbLine
 62
7
  6
CONTINUOUS
 10
239.5870986667
 20
117.3663388419
 11
239.4566800885
 21
117.8820174825
  0
LINE
  5
490
100
AcDbEntity
  8
KONSTRUKTIONSELEMENTE
100
AcDbLine
 62
7
  6
CONTINUOUS
 10
241.0165894802
 20
116.7129461226
 11
241.1453591465
 21
116.1864451493
  0
LINE
  5
491
100
AcDbEntity
  8
KONSTRUKTIONSELEMENTE
100
AcDbLine
 62
7
  6
CONTINUOUS
 10
240.9771413047
 20
117.04633812
 11
241.0165894802
 21
116.7129461226
  0
LINE
  5
492
100
AcDbEntity
  8
KONSTRUKTIONSELEMENTE
100
AcDbLine
 62
7
  6
CONTINUOUS
 10
240.6109299088
 20
149.7476437386
 11
240.6292199975
 21
149.2742034334
  0
LINE
  5
493
100
AcDbEntity
  8
KONSTRUKTIONSELEMENTE
100
AcDbLine
 62
7
  6
CONTINUOUS
 10
245.1086219865
 20
115.5582607502
 11
245.1190557193
 21
116.0319399082
  0
LINE
  5
494
100
AcDbEntity
  8
KONSTRUKTIONSELEMENTE
100
AcDbLine
 62
7
  6
CONTINUOUS
 10
249.3031496636
 20
147.6964909045
 11
249.2507886853
 21
147.3189760297
  0
LINE
  5
495
100
AcDbEntity
  8
KONSTRUKTIONSELEMENTE
100
AcDbLine
 62
7
  6
CONTINUOUS
 10
244.6068964707
 20
116.1466694758
 11
244.4967077021
 21
115.39241973
  0
LINE
  5
496
100
AcDbEntity
  8
KONSTRUKTIONSELEMENTE
100
AcDbLine
 62
7
  6
CONTINUOUS
 10
249.7920908567
 20
146.9889239761
 11
249.9142901616
 21
147.4466877149
  0
LINE
  5
497
100
AcDbEntity
  8
KONSTRUKTIONSELEMENTE
100
AcDbLine
 62
7
  6
CONTINUOUS
 10
251.7284380793
 20
131.6295109275
 11
251.8973700106
 21
132.1335405609
  0
LINE
  5
498
100
AcDbEntity
  8
KONSTRUKTIONSELEMENTE
100
AcDbLine
 62
7
  6
CONTINUOUS
 10
244.9589849173
 20
115.1374032723
 11
245.1086219865
 21
115.5582607502
  0
LINE
  5
499
100
AcDbEntity
  8
KONSTRUKTIONSELEMENTE
100
AcDbLine
 62
7
  6
CONTINUOUS
 10
251.3694030212
 20
132.1982268348
 11
251.213138616
 21
131.79758916
  0
LINE
  5
49A
100
AcDbEntity
  8
KONSTRUKTIONSELEMENTE
100
AcDbLine
 62
7
  6
CONTINUOUS
 10
250.0482605961
 20
127.1671550881
 11
249.8414296265
 21
126.6891488467
  0
LINE
  5
49B
100
AcDbEntity
  8
KONSTRUKTIONSELEMENTE
100
AcDbLine
 62
7
  6
CONTINUOUS
 10
250.2882392974
 20
126.3823183606
 11
250.57780114
 21
127.0515235976
  0
LINE
  5
49C
100
AcDbEntity
  8
KONSTRUKTIONSELEMENTE
100
AcDbLine
 62
7
  6
CONTINUOUS
 10
253.2955067303
 20
129.5484939644
 11
253.5700320465
 21
130.0395863446
  0
LINE
  5
49D
100
AcDbEntity
  8
KONSTRUKTIONSELEMENTE
100
AcDbLine
 62
7
  6
CONTINUOUS
 10
244.4967077021
 20
115.39241973
 11
244.3024077549
 21
115.0681156715
  0
LINE
  5
49E
100
AcDbEntity
  8
KONSTRUKTIONSELEMENTE
100
AcDbLine
 62
7
  6
CONTINUOUS
 10
244.6202626034
 20
114.6290803139
 11
244.9589849173
 21
115.1374032723
  0
LINE
  5
49F
100
AcDbEntity
  8
KONSTRUKTIONSELEMENTE
100
AcDbLine
 62
7
  6
CONTINUOUS
 10
255.6565646806
 20
129.5740549629
 11
255.9184221716
 21
129.9617530192
  0
LINE
  5
4A0
100
AcDbEntity
  8
KONSTRUKTIONSELEMENTE
100
AcDbLine
 62
7
  6
CONTINUOUS
 10
250.3527256352
 20
127.6029129459
 11
250.0482605961
 21
127.1671550881
  0
LINE
  5
4A1
100
AcDbEntity
  8
KONSTRUKTIONSELEMENTE
100
AcDbLine
 62
7
  6
CONTINUOUS
 10
252.4660151034
 20
124.9860051146
 11
252.7704801339
 21
125.4217629762
  0
LINE
  5
4A2
100
AcDbEntity
  8
KONSTRUKTIONSELEMENTE
100
AcDbLine
 62
7
  6
CONTINUOUS
 10
254.1671768927
 20
124.3634214226
 11
254.4716419233
 21
124.7991792842
  0
LINE
  5
4A3
100
AcDbEntity
  8
KONSTRUKTIONSELEMENTE
100
AcDbLine
 62
7
  6
CONTINUOUS
 10
255.4031230722
 20
130.1298336091
 11
255.1539331165
 21
129.8455275103
  0
LINE
  5
4A4
100
AcDbEntity
  8
KONSTRUKTIONSELEMENTE
100
AcDbLine
 62
7
  6
CONTINUOUS
 10
252.2409396585
 20
125.5373944371
 11
252.0192064477
 21
125.2928377592
  0
LINE
  5
4A5
100
AcDbEntity
  8
KONSTRUKTIONSELEMENTE
100
AcDbLine
 62
7
  6
CONTINUOUS
 10
253.942100501
 20
124.9148085569
 11
253.7203672902
 21
124.6702518791
  0
LINE
  5
4A6
100
AcDbEntity
  8
KONSTRUKTIONSELEMENTE
100
AcDbLine
 62
7
  6
CONTINUOUS
 10
247.348421173
 20
116.1317186946
 11
247.8491359327
 21
116.5057637847
  0
LINE
  5
4A7
100
AcDbEntity
  8
KONSTRUKTIONSELEMENTE
100
AcDbLine
 62
7
  6
CONTINUOUS
 10
244.3024077549
 20
115.0681156715
 11
243.8743596849
 21
114.7528995519
  0
LINE
  5
4A8
100
AcDbEntity
  8
KONSTRUKTIONSELEMENTE
100
AcDbLine
 62
7
  6
CONTINUOUS
 10
244.0976740749
 20
114.270132455
 11
244.6202626034
 21
114.6290803139
  0
LINE
  5
4A9
100
AcDbEntity
  8
KONSTRUKTIONSELEMENTE
100
AcDbLine
 62
7
  6
CONTINUOUS
 10
251.3670989754
 20
128.0719965007
 11
250.852460707
 21
127.9541784129
  0
LINE
  5
4AA
100
AcDbEntity
  8
KONSTRUKTIONSELEMENTE
100
AcDbLine
 62
7
  6
CONTINUOUS
 10
252.552014392
 20
133.1027904254
 11
252.222566338
 21
133.0382078702
  0
LINE
  5
4AB
100
AcDbEntity
  8
KONSTRUKTIONSELEMENTE
100
AcDbLine
 62
7
  6
CONTINUOUS
 10
251.1189025694
 20
127.4983907615
 11
251.4945404277
 21
127.5628555285
  0
LINE
  5
4AC
100
AcDbEntity
  8
KONSTRUKTIONSELEMENTE
100
AcDbLine
 62
7
  6
CONTINUOUS
 10
254.7484787648
 20
129.1605837355
 11
255.1835201298
 21
129.2122290466
  0
LINE
  5
4AD
100
AcDbEntity
  8
KONSTRUKTIONSELEMENTE
100
AcDbLine
 62
7
  6
CONTINUOUS
 10
252.518349702
 20
129.3288741497
 11
252.9533909249
 21
129.3805170762
  0
LINE
  5
4AE
100
AcDbEntity
  8
KONSTRUKTIONSELEMENTE
100
AcDbLine
 62
7
  6
CONTINUOUS
 10
250.9783690253
 20
124.4947029291
 11
251.5492768308
 21
124.4746753422
  0
LINE
  5
4AF
100
AcDbEntity
  8
KONSTRUKTIONSELEMENTE
100
AcDbLine
 62
7
  6
CONTINUOUS
 10
251.9380068494
 20
128.0519688842
 11
251.3670989754
 21
128.0719965007
  0
LINE
  5
4B0
100
AcDbEntity
  8
KONSTRUKTIONSELEMENTE
100
AcDbLine
 62
7
  6
CONTINUOUS
 10
252.8185322057
 20
123.9254747312
 11
253.1528026655
 21
123.8943356538
  0
LINE
  5
4B1
100
AcDbEntity
  8
KONSTRUKTIONSELEMENTE
100
AcDbLine
 62
7
  6
CONTINUOUS
 10
251.4218354469
 20
124.9838162848
 11
251.0875648503
 21
125.0149554214
  0
LINE
  5
4B2
100
AcDbEntity
  8
KONSTRUKTIONSELEMENTE
100
AcDbLine
 62
7
  6
CONTINUOUS
 10
251.4945404277
 20
127.5628555285
 11
251.8288108876
 21
127.5317164511
  0
LINE
  5
4B3
100
AcDbEntity
  8
0
100
AcDbLine
 62
7
  6
CONTINUOUS
 10
260.0445432562
 20
103.8338182209
 11
259.6607861497
 21
104.2165907363
  0
LINE
  5
4B4
100
AcDbEntity
  8
RUNDUNGEN
100
AcDbLine
 62
7
  6
CONTINUOUS
 10
264.7803689711
 20
105.0252266798
 11
261.9410325492
 21
107.8645631017
  0
LINE
  5
4B5
100
AcDbEntity
  8
KONSTRUKTIONSELEMENTE
100
AcDbLine
 62
7
  6
CONTINUOUS
 10
244.231012674
 20
118.1998472794
 11
244.0024835816
 21
118.4457757982
  0
LINE
  5
4B6
100
AcDbEntity
  8
KONSTRUKTIONSELEMENTE
100
AcDbLine
 62
7
  6
CONTINUOUS
 10
244.3560604524
 20
120.1374367724
 11
247.348421173
 21
116.1317186946
  0
LINE
  5
4B7
100
AcDbEntity
  8
KONSTRUKTIONSELEMENTE
100
AcDbLine
 62
7
  6
CONTINUOUS
 10
247.3397979984
 20
117.1875880571
 11
244.8567752122
 21
120.5114818624
  0
LINE
  5
4B8
100
AcDbEntity
  8
KONSTRUKTIONSELEMENTE
100
AcDbLine
 62
7
  6
CONTINUOUS
 10
247.9041799999
 20
117.4764051131
 11
247.3948418873
 21
118.1582296242
  0
LINE
  5
4B9
100
AcDbEntity
  8
KONSTRUKTIONSELEMENTE
100
AcDbLine
 62
7
  6
CONTINUOUS
 10
244.5488675851
 20
117.7608117866
 11
244.231012674
 21
118.1998472794
  0
LINE
  5
4BA
100
AcDbEntity
  8
KONSTRUKTIONSELEMENTE
100
AcDbLine
 62
7
  6
CONTINUOUS
 10
243.7583017261
 20
117.9811845791
 11
244.1208238429
 21
117.4455976688
  0
LINE
  5
4BB
100
AcDbEntity
  8
KONSTRUKTIONSELEMENTE
100
AcDbLine
 62
7
  6
CONTINUOUS
 10
244.1208238429
 20
117.4455976688
 11
244.4334639889
 21
116.7697237332
  0
LINE
  5
4BC
100
AcDbEntity
  8
KONSTRUKTIONSELEMENTE
100
AcDbLine
 62
7
  6
CONTINUOUS
 10
244.9508334871
 20
116.8918310122
 11
244.5488675851
 21
117.7608117866
  0
LINE
  5
4BD
100
AcDbEntity
  8
KONSTRUKTIONSELEMENTE
100
AcDbLine
 62
7
  6
CONTINUOUS
 10
244.4334639889
 20
116.7697237332
 11
244.6068964707
 21
116.1466694758
  0
LINE
  5
4BE
100
AcDbEntity
  8
KONSTRUKTIONSELEMENTE
100
AcDbLine
 62
7
  6
CONTINUOUS
 10
239.2193884453
 20
148.9633313655
 11
238.5909455889
 21
151.5071155043
  0
LINE
  5
4BF
100
AcDbEntity
  8
KONSTRUKTIONSELEMENTE
100
AcDbLine
 62
7
  6
CONTINUOUS
 10
245.0796074186
 20
116.3653321761
 11
244.9508334871
 21
116.8918310122
  0
LINE
  5
4C0
100
AcDbEntity
  8
KONSTRUKTIONSELEMENTE
100
AcDbLine
 62
7
  6
CONTINUOUS
 10
237.9444693278
 20
151.3730894924
 11
238.4957930254
 21
149.0532979472
  0
LINE
  5
4C1
100
AcDbEntity
  8
KONSTRUKTIONSELEMENTE
100
AcDbLine
 62
7
  6
CONTINUOUS
 10
238.9043293667
 20
153.1833852245
 11
238.9683225592
 21
152.8538225382
  0
LINE
  5
4C2
100
AcDbEntity
  8
KONSTRUKTIONSELEMENTE
100
AcDbLine
 62
7
  6
CONTINUOUS
 10
239.5885470358
 20
152.7767083462
 11
239.5245538433
 21
153.1062710326
  0
LINE
  5
4C3
100
AcDbEntity
  8
KONSTRUKTIONSELEMENTE
100
AcDbLine
 62
7
  6
CONTINUOUS
 10
241.2868564155
 20
149.2158192286
 11
241.2255112881
 21
149.5919784208
  0
LINE
  5
4C4
100
AcDbEntity
  8
KONSTRUKTIONSELEMENTE
100
AcDbLine
 62
7
  6
CONTINUOUS
 10
245.1190557193
 20
116.0319399082
 11
245.0796074186
 21
116.3653321761
  0
LINE
  5
4C5
100
AcDbEntity
  8
KONSTRUKTIONSELEMENTE
100
AcDbLine
 62
7
  6
CONTINUOUS
 10
251.6946862563
 20
130.4792432108
 11
251.6524317077
 21
131.009149717
  0
LINE
  5
4C6
100
AcDbEntity
  8
KONSTRUKTIONSELEMENTE
100
AcDbLine
 62
7
  6
CONTINUOUS
 10
249.9142901616
 20
147.4466877149
 11
249.8793355815
 21
148.0412180546
  0
LINE
  5
4C7
100
AcDbEntity
  8
KONSTRUKTIONSELEMENTE
100
AcDbLine
 62
7
  6
CONTINUOUS
 10
247.3948418873
 20
118.1582296242
 11
247.3397979984
 21
117.1875880571
  0
LINE
  5
4C8
100
AcDbEntity
  8
KONSTRUKTIONSELEMENTE
100
AcDbLine
 62
7
  6
CONTINUOUS
 10
247.8491359327
 20
116.5057637847
 11
247.9041799999
 21
117.4764051131
  0
LINE
  5
4C9
100
AcDbEntity
  8
KONSTRUKTIONSELEMENTE
100
AcDbLine
 62
7
  6
CONTINUOUS
 10
250.2617761022
 20
126.0532692993
 11
250.2882392974
 21
126.3823183606
  0
LINE
  5
4CA
100
AcDbEntity
  8
KONSTRUKTIONSELEMENTE
100
AcDbLine
 62
7
  6
CONTINUOUS
 10
252.5569646962
 20
126.5356487354
 11
252.530501501
 21
126.206599674
  0
LINE
  5
4CB
100
AcDbEntity
  8
KONSTRUKTIONSELEMENTE
100
AcDbLine
 62
7
  6
CONTINUOUS
 10
251.213138616
 20
131.79758916
 11
251.1117968838
 21
130.9704416682
  0
LINE
  5
4CC
100
AcDbEntity
  8
KONSTRUKTIONSELEMENTE
100
AcDbLine
 62
7
  6
CONTINUOUS
 10
251.6524317077
 20
131.009149717
 11
251.7284380793
 21
131.6295109275
  0
LINE
  5
4CD
100
AcDbEntity
  8
KONSTRUKTIONSELEMENTE
100
AcDbLine
 62
7
  6
CONTINUOUS
 10
252.4886755557
 20
132.5858211724
 11
252.552014392
 21
133.1027904254
  0
LINE
  5
4CE
100
AcDbEntity
  8
KONSTRUKTIONSELEMENTE
100
AcDbLine
 62
7
  6
CONTINUOUS
 10
253.5108580199
 20
131.306183272
 11
253.4601870089
 21
130.8926083428
  0
LINE
  5
4CF
100
AcDbEntity
  8
KONSTRUKTIONSELEMENTE
100
AcDbLine
 62
7
  6
CONTINUOUS
 10
253.8825605486
 20
130.84085933
 11
253.9332315597
 21
131.2544342591
  0
LINE
  5
4D0
100
AcDbEntity
  8
KONSTRUKTIONSELEMENTE
100
AcDbLine
 62
7
  6
CONTINUOUS
 10
249.8414296265
 20
126.6891488467
 11
249.7322346201
 21
126.1688985979
  0
LINE
  5
4D1
100
AcDbEntity
  8
KONSTRUKTIONSELEMENTE
100
AcDbLine
 62
7
  6
CONTINUOUS
 10
252.9773111035
 20
125.8997692176
 11
253.0865061185
 21
126.4200194626
  0
LINE
  5
4D2
100
AcDbEntity
  8
KONSTRUKTIONSELEMENTE
100
AcDbLine
 62
7
  6
CONTINUOUS
 10
254.6371065096
 20
125.1815838397
 11
254.7463015246
 21
125.7018340847
  0
LINE
  5
4D3
100
AcDbEntity
  8
KONSTRUKTIONSELEMENTE
100
AcDbLine
 62
7
  6
CONTINUOUS
 10
255.9184221716
 20
129.9617530192
 11
256.1126897534
 21
130.6725713004
  0
LINE
  5
4D4
100
AcDbEntity
  8
KONSTRUKTIONSELEMENTE
100
AcDbLine
 62
7
  6
CONTINUOUS
 10
253.4601870089
 20
130.8926083428
 11
253.2785872523
 21
130.2851843855
  0
LINE
  5
4D5
100
AcDbEntity
  8
KONSTRUKTIONSELEMENTE
100
AcDbLine
 62
7
  6
CONTINUOUS
 10
255.5720550035
 20
130.6338632425
 11
255.4031230722
 21
130.1298336091
  0
LINE
  5
4D6
100
AcDbEntity
  8
KONSTRUKTIONSELEMENTE
100
AcDbLine
 62
7
  6
CONTINUOUS
 10
252.530501501
 20
126.206599674
 11
252.2409396585
 21
125.5373944371
  0
LINE
  5
4D7
100
AcDbEntity
  8
KONSTRUKTIONSELEMENTE
100
AcDbLine
 62
7
  6
CONTINUOUS
 10
252.7704801339
 20
125.4217629762
 11
252.9773111035
 21
125.8997692176
  0
LINE
  5
4D8
100
AcDbEntity
  8
KONSTRUKTIONSELEMENTE
100
AcDbLine
 62
7
  6
CONTINUOUS
 10
253.0253622284
 20
124.4034787845
 11
252.8185322057
 21
123.9254747312
  0
LINE
  5
4D9
100
AcDbEntity
  8
KONSTRUKTIONSELEMENTE
100
AcDbLine
 62
7
  6
CONTINUOUS
 10
254.1902969071
 20
125.4884142961
 11
253.942100501
 21
124.9148085569
  0
LINE
  5
4DA
100
AcDbEntity
  8
KONSTRUKTIONSELEMENTE
100
AcDbLine
 62
7
  6
CONTINUOUS
 10
254.4716419233
 20
124.7991792842
 11
254.6371065096
 21
125.1815838397
  0
LINE
  5
4DB
100
AcDbEntity
  8
KONSTRUKTIONSELEMENTE
100
AcDbLine
 62
7
  6
CONTINUOUS
 10
251.4562249534
 20
134.1167003449
 11
256.3529411243
 21
135.1277249446
  0
LINE
  5
4DC
100
AcDbEntity
  8
KONSTRUKTIONSELEMENTE
100
AcDbLine
 62
7
  6
CONTINUOUS
 10
255.1847086691
 20
135.5247028747
 11
251.3298468784
 21
134.7287898662
  0
LINE
  5
4DD
100
AcDbEntity
  8
KONSTRUKTIONSELEMENTE
100
AcDbLine
 62
7
  6
CONTINUOUS
 10
250.5715784286
 20
138.4013269944
 11
254.4264402193
 21
139.1972400029
  0
LINE
  5
4DE
100
AcDbEntity
  8
KONSTRUKTIONSELEMENTE
100
AcDbLine
 62
7
  6
CONTINUOUS
 10
252.0959761622
 20
129.3806231625
 11
252.518349702
 21
129.3288741497
  0
LINE
  5
4DF
100
AcDbEntity
  8
KONSTRUKTIONSELEMENTE
100
AcDbLine
 62
7
  6
CONTINUOUS
 10
254.5372916991
 20
129.1864582782
 11
254.7484787648
 21
129.1605837355
  0
LINE
  5
4E0
100
AcDbEntity
  8
KONSTRUKTIONSELEMENTE
100
AcDbLine
 62
7
  6
CONTINUOUS
 10
252.5816882483
 20
129.8458410363
 11
252.1593147086
 21
129.8975900491
  0
LINE
  5
4E1
100
AcDbEntity
  8
KONSTRUKTIONSELEMENTE
100
AcDbLine
 62
7
  6
CONTINUOUS
 10
254.8118176011
 20
129.6775529886
 11
254.6006305354
 21
129.7034275312
  0
LINE
  5
4E2
100
AcDbEntity
  8
KONSTRUKTIONSELEMENTE
100
AcDbLine
 62
7
  6
CONTINUOUS
 10
253.9332315597
 20
131.2544342591
 11
253.5108580199
 21
131.306183272
  0
LINE
  5
4E3
100
AcDbEntity
  8
KONSTRUKTIONSELEMENTE
100
AcDbLine
 62
7
  6
CONTINUOUS
 10
252.6628174772
 20
127.8518449807
 11
251.9380068494
 21
128.0519688842
  0
LINE
  5
4E4
100
AcDbEntity
  8
KONSTRUKTIONSELEMENTE
100
AcDbLine
 62
7
  6
CONTINUOUS
 10
254.1275859846
 20
129.3416016149
 11
254.5372916991
 21
129.1864582782
  0
LINE
  5
4E5
100
AcDbEntity
  8
KONSTRUKTIONSELEMENTE
100
AcDbLine
 62
7
  6
CONTINUOUS
 10
250.4901938495
 20
124.7059339469
 11
250.9783690253
 21
124.4947029291
  0
LINE
  5
4E6
100
AcDbEntity
  8
KONSTRUKTIONSELEMENTE
100
AcDbLine
 62
7
  6
CONTINUOUS
 10
251.0875648503
 20
125.0149554214
 11
250.7946598269
 21
125.1416939966
  0
LINE
  5
4E7
100
AcDbEntity
  8
KONSTRUKTIONSELEMENTE
100
AcDbLine
 62
7
  6
CONTINUOUS
 10
251.8288108876
 20
127.5317164511
 11
252.121715911
 21
127.4049778759
  0
LINE
  5
4E8
100
AcDbEntity
  8
KONSTRUKTIONSELEMENTE
100
AcDbLine
 62
7
  6
CONTINUOUS
 10
252.9441624934
 20
127.1626099687
 11
253.139432509
 21
127.0781175852
  0
LINE
  5
4E9
100
AcDbEntity
  8
KONSTRUKTIONSELEMENTE
100
AcDbLine
 62
7
  6
CONTINUOUS
 10
253.3462625317
 20
127.5561216385
 11
252.6628174772
 21
127.8518449807
  0
LINE
  5
4EA
100
AcDbEntity
  8
KONSTRUKTIONSELEMENTE
100
AcDbLine
 62
7
  6
CONTINUOUS
 10
253.139432509
 20
127.0781175852
 11
253.6838761725
 21
126.7290387489
  0
LINE
  5
4EB
100
AcDbEntity
  8
KONSTRUKTIONSELEMENTE
100
AcDbLine
 62
7
  6
CONTINUOUS
 10
250.7946598269
 20
125.1416939966
 11
250.54312024
 21
125.3640320696
  0
LINE
  5
4EC
100
AcDbEntity
  8
KONSTRUKTIONSELEMENTE
100
AcDbLine
 62
7
  6
CONTINUOUS
 10
250.0847515087
 20
125.108368307
 11
250.4901938495
 21
124.7059339469
  0
LINE
  5
4ED
100
AcDbEntity
  8
0
100
AcDbLine
 62
7
  6
CONTINUOUS
 10
259.5263547736
 20
103.4843819656
 11
259.6695284544
 21
103.2720658386
  0
LINE
  5
4EE
100
AcDbEntity
  8
0
100
AcDbLine
 62
7
  6
CONTINUOUS
 10
260.4410351128
 20
103.2458497133
 11
260.0445432562
 21
103.8338182209
  0
LINE
  5
4EF
100
AcDbEntity
  8
KONSTRUKTIONSELEMENTE
100
AcDbLine
 62
7
  6
CONTINUOUS
 10
250.54312024
 20
125.3640320696
 11
250.3329479148
 21
125.6819740462
  0
LINE
  5
4F0
100
AcDbEntity
  8
KONSTRUKTIONSELEMENTE
100
AcDbLine
 62
7
  6
CONTINUOUS
 10
249.8183096464
 20
125.5641559584
 11
250.0847515087
 21
125.108368307
  0
LINE
  5
4F1
100
AcDbEntity
  8
KONSTRUKTIONSELEMENTE
100
AcDbLine
 62
7
  6
CONTINUOUS
 10
240.6292199975
 20
149.2742034334
 11
240.8380186191
 21
148.7164478285
  0
LINE
  5
4F2
100
AcDbEntity
  8
KONSTRUKTIONSELEMENTE
100
AcDbLine
 62
7
  6
CONTINUOUS
 10
250.3329479148
 20
125.6819740462
 11
250.2617761022
 21
126.0532692993
  0
LINE
  5
4F3
100
AcDbEntity
  8
KONSTRUKTIONSELEMENTE
100
AcDbLine
 62
7
  6
CONTINUOUS
 10
249.7322346201
 20
126.1688985979
 11
249.8183096464
 21
125.5641559584
  0
LINE
  5
4F4
100
AcDbEntity
  8
KONSTRUKTIONSELEMENTE
100
AcDbLine
 62
7
  6
CONTINUOUS
 10
251.1117968838
 20
130.9704416682
 11
251.1667192669
 21
130.5439294847
  0
LINE
  5
4F5
100
AcDbEntity
  8
KONSTRUKTIONSELEMENTE
100
AcDbLine
 62
7
  6
CONTINUOUS
 10
255.580471176
 20
131.5773423114
 11
255.6227260146
 21
131.0474381716
  0
LINE
  5
4F6
100
AcDbEntity
  8
KONSTRUKTIONSELEMENTE
100
AcDbLine
 62
7
  6
CONTINUOUS
 10
256.138025114
 20
130.8793575817
 11
256.121105926
 21
131.6160503693
  0
LINE
  5
4F7
100
AcDbEntity
  8
KONSTRUKTIONSELEMENTE
100
AcDbLine
 62
7
  6
CONTINUOUS
 10
254.2167601023
 20
125.8174633575
 11
254.1902969071
 21
125.4884142961
  0
LINE
  5
4F8
100
AcDbEntity
  8
KONSTRUKTIONSELEMENTE
100
AcDbLine
 62
7
  6
CONTINUOUS
 10
255.179181634
 20
132.6759647171
 11
255.1158430876
 21
132.1589978305
  0
LINE
  5
4F9
100
AcDbEntity
  8
KONSTRUKTIONSELEMENTE
100
AcDbLine
 62
7
  6
CONTINUOUS
 10
255.6227260146
 20
131.0474381716
 11
255.5720550035
 21
130.6338632425
  0
LINE
  5
4FA
100
AcDbEntity
  8
KONSTRUKTIONSELEMENTE
100
AcDbLine
 62
7
  6
CONTINUOUS
 10
256.1126897534
 20
130.6725713004
 11
256.138025114
 21
130.8793575817
  0
LINE
  5
4FB
100
AcDbEntity
  8
BEZUGSACHSEN
100
AcDbLine
 62
7
  6
CONTINUOUS
 10
251.1583533092
 20
105.8297797112
 11
267.0354857119
 21
133.3297797112
  0
LINE
  5
4FC
100
AcDbEntity
  8
0
100
AcDbLine
 62
7
  6
CONTINUOUS
 10
258.2023539637
 20
104.5162200435
 11
257.7110513943
 21
104.3132252263
  0
LINE
  5
4FD
100
AcDbEntity
  8
0
100
AcDbLine
 62
7
  6
CONTINUOUS
 10
258.067922421
 20
103.78401152
 11
258.4728595844
 21
103.928766517
  0
LINE
  5
4FE
100
AcDbEntity
  8
KONSTRUKTIONSELEMENTE
100
AcDbLine
 62
7
  6
CONTINUOUS
 10
255.3419165246
 20
140.0244411156
 11
250.4452003536
 21
139.0134165158
  0
LINE
  5
4FF
100
AcDbEntity
  8
KONSTRUKTIONSELEMENTE
100
AcDbLine
 62
7
  6
CONTINUOUS
 10
256.1633740119
 20
136.0458592267
 11
251.4716399166
 21
136.6726142411
  0
LINE
  5
500
100
AcDbEntity
  8
KONSTRUKTIONSELEMENTE
100
AcDbLine
 62
7
  6
CONTINUOUS
 10
251.0349648642
 20
136.1569979711
 11
255.1847086691
 21
135.5247028747
  0
LINE
  5
501
100
AcDbEntity
  8
KONSTRUKTIONSELEMENTE
100
AcDbLine
 62
7
  6
CONTINUOUS
 10
255.5888873485
 20
132.5208213803
 11
255.179181634
 21
132.6759647171
  0
LINE
  5
502
100
AcDbEntity
  8
KONSTRUKTIONSELEMENTE
100
AcDbLine
 62
7
  6
CONTINUOUS
 10
251.7918634687
 20
129.5228268886
 11
252.0959761622
 21
129.3806231625
  0
LINE
  5
503
100
AcDbEntity
  8
KONSTRUKTIONSELEMENTE
100
AcDbLine
 62
7
  6
CONTINUOUS
 10
253.9883421498
 20
127.1647987986
 11
253.3462625317
 21
127.5561216385
  0
LINE
  5
504
100
AcDbEntity
  8
KONSTRUKTIONSELEMENTE
100
AcDbLine
 62
7
  6
CONTINUOUS
 10
252.1593147086
 20
129.8975900491
 11
251.960795764
 21
130.0268588794
  0
LINE
  5
505
100
AcDbEntity
  8
KONSTRUKTIONSELEMENTE
100
AcDbLine
 62
7
  6
CONTINUOUS
 10
254.6006305354
 20
129.7034275312
 11
254.2035923562
 21
129.9619628254
  0
LINE
  5
506
100
AcDbEntity
  8
KONSTRUKTIONSELEMENTE
100
AcDbLine
 62
7
  6
CONTINUOUS
 10
251.5004189644
 20
129.7684272961
 11
251.7918634687
 21
129.5228268886
  0
LINE
  5
507
100
AcDbEntity
  8
KONSTRUKTIONSELEMENTE
100
AcDbLine
 62
7
  6
CONTINUOUS
 10
253.8361411903
 20
129.5871996558
 11
254.1275859846
 21
129.3416016149
  0
LINE
  5
508
100
AcDbEntity
  8
KONSTRUKTIONSELEMENTE
100
AcDbLine
 62
7
  6
CONTINUOUS
 10
252.121715911
 20
127.4049778759
 11
252.3732556346
 21
127.1826397437
  0
LINE
  5
509
100
AcDbEntity
  8
KONSTRUKTIONSELEMENTE
100
AcDbLine
 62
7
  6
CONTINUOUS
 10
253.6838761725
 20
126.7290387489
 11
253.9354160329
 21
126.5067005576
  0
LINE
  5
50A
100
AcDbEntity
  8
KONSTRUKTIONSELEMENTE
100
AcDbLine
 62
7
  6
CONTINUOUS
 10
254.3937846958
 20
126.7623643497
 11
253.9883421498
 21
127.1647987986
  0
LINE
  5
50B
100
AcDbEntity
  8
KONSTRUKTIONSELEMENTE
100
AcDbLine
 62
7
  6
CONTINUOUS
 10
251.960795764
 20
130.0268588794
 11
251.7749442807
 21
130.2595196762
  0
LINE
  5
50C
100
AcDbEntity
  8
KONSTRUKTIONSELEMENTE
100
AcDbLine
 62
7
  6
CONTINUOUS
 10
254.2035923562
 20
129.9619628254
 11
254.0177409469
 21
130.1946236131
  0
LINE
  5
50D
100
AcDbEntity
  8
KONSTRUKTIONSELEMENTE
100
AcDbLine
 62
7
  6
CONTINUOUS
 10
253.9354160329
 20
126.5067005576
 11
254.1455882897
 21
126.1887586105
  0
LINE
  5
50E
100
AcDbEntity
  8
KONSTRUKTIONSELEMENTE
100
AcDbLine
 62
7
  6
CONTINUOUS
 10
241.4865103713
 20
148.8947835274
 11
241.2868564155
 21
149.2158192286
  0
LINE
  5
50F
100
AcDbEntity
  8
KONSTRUKTIONSELEMENTE
100
AcDbLine
 62
7
  6
CONTINUOUS
 10
253.5700320465
 20
130.0395863446
 11
253.8361411903
 21
129.5871996558
  0
LINE
  5
510
100
AcDbEntity
  8
KONSTRUKTIONSELEMENTE
100
AcDbLine
 62
7
  6
CONTINUOUS
 10
254.6602265239
 20
126.3065767132
 11
254.3937846958
 21
126.7623643497
  0
LINE
  5
511
100
AcDbEntity
  8
KONSTRUKTIONSELEMENTE
100
AcDbLine
 62
7
  6
CONTINUOUS
 10
247.9829268287
 20
133.3297797112
 11
241.6320738676
 21
144.3297797112
  0
LINE
  5
512
100
AcDbEntity
  8
KONSTRUKTIONSELEMENTE
100
AcDbLine
 62
7
  6
CONTINUOUS
 10
239.5245538433
 20
153.1062710326
 11
239.2669448783
 21
153.5671085729
  0
LINE
  5
513
100
AcDbEntity
  8
KONSTRUKTIONSELEMENTE
100
AcDbLine
 62
7
  6
CONTINUOUS
 10
251.3272353434
 20
130.1044824122
 11
251.5004189644
 21
129.7684272961
  0
LINE
  5
514
100
AcDbEntity
  8
KONSTRUKTIONSELEMENTE
100
AcDbLine
 62
7
  6
CONTINUOUS
 10
252.3732556346
 20
127.1826397437
 11
252.4857928837
 21
126.9069439884
  0
LINE
  5
515
100
AcDbEntity
  8
KONSTRUKTIONSELEMENTE
100
AcDbLine
 62
7
  6
CONTINUOUS
 10
251.1667192669
 20
130.5439294847
 11
251.3272353434
 21
130.1044824122
  0
LINE
  5
516
100
AcDbEntity
  8
KONSTRUKTIONSELEMENTE
100
AcDbLine
 62
7
  6
CONTINUOUS
 10
251.7749442807
 20
130.2595196762
 11
251.6946862563
 21
130.4792432108
  0
LINE
  5
517
100
AcDbEntity
  8
KONSTRUKTIONSELEMENTE
100
AcDbLine
 62
7
  6
CONTINUOUS
 10
249.2070949814
 20
148.062139766
 11
249.3031496636
 21
147.6964909045
  0
LINE
  5
518
100
AcDbEntity
  8
KONSTRUKTIONSELEMENTE
100
AcDbLine
 62
7
  6
CONTINUOUS
 10
254.0177409469
 20
130.1946236131
 11
253.8825605486
 21
130.84085933
  0
LINE
  5
519
100
AcDbEntity
  8
KONSTRUKTIONSELEMENTE
100
AcDbLine
 62
7
  6
CONTINUOUS
 10
250.4452003536
 20
139.0134165158
 11
250.5715784286
 21
138.4013269944
  0
LINE
  5
51A
100
AcDbEntity
  8
KONSTRUKTIONSELEMENTE
100
AcDbLine
 62
7
  6
CONTINUOUS
 10
250.8664604428
 20
136.9731188896
 11
251.0349648642
 21
136.1569979711
  0
LINE
  5
51B
100
AcDbEntity
  8
KONSTRUKTIONSELEMENTE
100
AcDbLine
 62
7
  6
CONTINUOUS
 10
251.3298468784
 20
134.7287898662
 11
251.4562249534
 21
134.1167003449
  0
LINE
  5
51C
100
AcDbEntity
  8
KONSTRUKTIONSELEMENTE
100
AcDbLine
 62
7
  6
CONTINUOUS
 10
252.4857928837
 20
126.9069439884
 11
252.5569646962
 21
126.5356487354
  0
LINE
  5
51D
100
AcDbEntity
  8
KONSTRUKTIONSELEMENTE
100
AcDbLine
 62
7
  6
CONTINUOUS
 10
253.0865061185
 20
126.4200194626
 11
252.9441624934
 21
127.1626099687
  0
LINE
  5
51E
100
AcDbEntity
  8
KONSTRUKTIONSELEMENTE
100
AcDbLine
 62
7
  6
CONTINUOUS
 10
254.1455882897
 20
126.1887586105
 11
254.2167601023
 21
125.8174633575
  0
LINE
  5
51F
100
AcDbEntity
  8
KONSTRUKTIONSELEMENTE
100
AcDbLine
 62
7
  6
CONTINUOUS
 10
254.7463015246
 20
125.7018340847
 11
254.6602265239
 21
126.3065767132
  0
LINE
  5
520
100
AcDbEntity
  8
0
100
AcDbLine
 62
7
  6
CONTINUOUS
 10
257.7110513943
 20
104.3132252263
 11
256.3160512545
 21
103.3725180486
  0
LINE
  5
521
100
AcDbEntity
  8
0
100
AcDbLine
 62
7
  6
CONTINUOUS
 10
257.4112520854
 20
103.3411911356
 11
258.067922421
 21
103.78401152
  0
LINE
  5
522
100
AcDbEntity
  8
KONSTRUKTIONSELEMENTE
100
AcDbLine
 62
7
  6
CONTINUOUS
 10
247.6445025749
 20
145.4732468727
 11
247.2778322238
 21
145.3692669893
  0
LINE
  5
523
100
AcDbEntity
  8
KONSTRUKTIONSELEMENTE
100
AcDbLine
 62
7
  6
CONTINUOUS
 10
247.0159558009
 20
144.7510049883
 11
247.6096185838
 21
144.798467388
  0
LINE
  5
524
100
AcDbEntity
  8
KONSTRUKTIONSELEMENTE
100
AcDbLine
 62
7
  6
CONTINUOUS
 10
241.6320738676
 20
144.3297797112
 11
228.9303679454
 21
144.3297797112
  0
LINE
  5
525
100
AcDbEntity
  8
KONSTRUKTIONSELEMENTE
100
AcDbLine
 62
7
  6
CONTINUOUS
 10
241.1329272614
 20
148.3532543221
 11
241.5661447698
 21
148.0451843918
  0
LINE
  5
526
100
AcDbEntity
  8
KONSTRUKTIONSELEMENTE
100
AcDbLine
 62
7
  6
CONTINUOUS
 10
241.8244732158
 20
148.6288714533
 11
241.4865103713
 21
148.8947835274
  0
LINE
  5
527
100
AcDbEntity
  8
KONSTRUKTIONSELEMENTE
100
AcDbLine
 62
7
  6
CONTINUOUS
 10
255.1158430876
 20
132.1589978305
 11
255.4072875919
 21
131.9133974231
  0
LINE
  5
528
100
AcDbEntity
  8
KONSTRUKTIONSELEMENTE
100
AcDbLine
 62
7
  6
CONTINUOUS
 10
244.2133912156
 20
146.7669152139
 11
246.0992450294
 21
145.1257097446
  0
LINE
  5
529
100
AcDbEntity
  8
KONSTRUKTIONSELEMENTE
100
AcDbLine
 62
7
  6
CONTINUOUS
 10
246.5182762121
 20
145.6072043341
 11
245.1038858517
 21
146.8381084362
  0
LINE
  5
52A
100
AcDbEntity
  8
KONSTRUKTIONSELEMENTE
100
AcDbLine
 62
7
  6
CONTINUOUS
 10
239.2669448783
 20
153.5671085729
 11
238.8928394475
 21
153.9352283553
  0
LINE
  5
52B
100
AcDbEntity
  8
KONSTRUKTIONSELEMENTE
100
AcDbLine
 62
7
  6
CONTINUOUS
 10
240.8380186191
 20
148.7164478285
 11
241.1329272614
 21
148.3532543221
  0
LINE
  5
52C
100
AcDbEntity
  8
KONSTRUKTIONSELEMENTE
100
AcDbLine
 62
7
  6
CONTINUOUS
 10
255.9605901671
 20
132.0554998049
 11
255.5888873485
 21
132.5208213803
  0
LINE
  5
52D
100
AcDbEntity
  8
KONSTRUKTIONSELEMENTE
100
AcDbLine
 62
7
  6
CONTINUOUS
 10
238.7238394126
 20
153.4202301896
 11
238.9043293667
 21
153.1833852245
  0
LINE
  5
52E
100
AcDbEntity
  8
KONSTRUKTIONSELEMENTE
100
AcDbLine
 62
7
  6
CONTINUOUS
 10
248.9626248345
 20
148.4159228389
 11
249.2070949814
 21
148.062139766
  0
LINE
  5
52F
100
AcDbEntity
  8
KONSTRUKTIONSELEMENTE
100
AcDbLine
 62
7
  6
CONTINUOUS
 10
255.4072875919
 20
131.9133974231
 11
255.580471176
 21
131.5773423114
  0
LINE
  5
530
100
AcDbEntity
  8
KONSTRUKTIONSELEMENTE
100
AcDbLine
 62
7
  6
CONTINUOUS
 10
249.8793355815
 20
148.0412180546
 11
249.7047039569
 21
148.4752502164
  0
LINE
  5
531
100
AcDbEntity
  8
KONSTRUKTIONSELEMENTE
100
AcDbLine
 62
7
  6
CONTINUOUS
 10
256.121105926
 20
131.6160503693
 11
255.9605901671
 21
132.0554998049
  0
LINE
  5
532
100
AcDbEntity
  8
KONSTRUKTIONSELEMENTE
100
AcDbLine
 62
7
  6
CONTINUOUS
 10
256.3529411243
 20
135.1277249446
 11
256.1633740119
 21
136.0458592267
  0
LINE
  5
533
100
AcDbEntity
  8
KONSTRUKTIONSELEMENTE
100
AcDbLine
 62
7
  6
CONTINUOUS
 10
255.531483637
 20
139.1063068335
 11
255.3419165246
 21
140.0244411156
  0
LINE
  5
534
100
AcDbEntity
  8
KONSTRUKTIONSELEMENTE
100
AcDbLine
 62
7
  6
CONTINUOUS
 10
238.5532037374
 20
152.0478184496
 11
238.2299656807
 21
151.9808054345
  0
LINE
  5
535
100
AcDbEntity
  8
KONSTRUKTIONSELEMENTE
100
AcDbLine
 62
7
  6
CONTINUOUS
 10
243.001437163
 20
148.4569794166
 11
242.629564203
 21
148.3888903194
  0
LINE
  5
536
100
AcDbEntity
  8
KONSTRUKTIONSELEMENTE
100
AcDbLine
 62
7
  6
CONTINUOUS
 10
242.4664898833
 20
147.7630456598
 11
242.9336174922
 21
147.7889768668
  0
LINE
  5
537
100
AcDbEntity
  8
KONSTRUKTIONSELEMENTE
100
AcDbLine
 62
7
  6
CONTINUOUS
 10
247.2778322238
 20
145.3692669893
 11
246.9024234036
 21
145.413919439
  0
LINE
  5
538
100
AcDbEntity
  8
KONSTRUKTIONSELEMENTE
100
AcDbLine
 62
7
  6
CONTINUOUS
 10
235.2912999948
 20
149.45172126
 11
235.9115244714
 21
149.374607068
  0
LINE
  5
539
100
AcDbEntity
  8
KONSTRUKTIONSELEMENTE
100
AcDbLine
 62
7
  6
CONTINUOUS
 10
238.4957930254
 20
149.0532979472
 11
239.2193884453
 21
148.9633313655
  0
LINE
  5
53A
100
AcDbEntity
  8
KONSTRUKTIONSELEMENTE
100
AcDbLine
 62
7
  6
CONTINUOUS
 10
236.1871666933
 20
151.5915796968
 11
237.9444693278
 21
151.3730894924
  0
LINE
  5
53B
100
AcDbEntity
  8
KONSTRUKTIONSELEMENTE
100
AcDbLine
 62
7
  6
CONTINUOUS
 10
238.2299656807
 20
151.9808054345
 11
236.2659216033
 21
152.2250003634
  0
LINE
  5
53C
100
AcDbEntity
  8
KONSTRUKTIONSELEMENTE
100
AcDbLine
 62
7
  6
CONTINUOUS
 10
242.629564203
 20
148.3888903194
 11
242.2054913414
 21
148.4602403035
  0
LINE
  5
53D
100
AcDbEntity
  8
KONSTRUKTIONSELEMENTE
100
AcDbLine
 62
7
  6
CONTINUOUS
 10
241.9471628954
 20
147.876553242
 11
242.4664898833
 21
147.7630456598
  0
LINE
  5
53E
100
AcDbEntity
  8
KONSTRUKTIONSELEMENTE
100
AcDbLine
 62
7
  6
CONTINUOUS
 10
246.5619700688
 20
144.8640407735
 11
247.0159558009
 21
144.7510049883
  0
LINE
  5
53F
100
AcDbEntity
  8
KONSTRUKTIONSELEMENTE
100
AcDbLine
 62
7
  6
CONTINUOUS
 10
241.5661447698
 20
148.0451843918
 11
241.9471628954
 21
147.876553242
  0
LINE
  5
540
100
AcDbEntity
  8
KONSTRUKTIONSELEMENTE
100
AcDbLine
 62
7
  6
CONTINUOUS
 10
242.2054913414
 20
148.4602403035
 11
241.8244732158
 21
148.6288714533
  0
LINE
  5
541
100
AcDbEntity
  8
KONSTRUKTIONSELEMENTE
100
AcDbLine
 62
7
  6
CONTINUOUS
 10
238.4268529926
 20
153.5643573967
 11
238.7238394126
 21
153.4202301896
  0
LINE
  5
542
100
AcDbEntity
  8
KONSTRUKTIONSELEMENTE
100
AcDbLine
 62
7
  6
CONTINUOUS
 10
246.9024234036
 20
145.413919439
 11
246.5182762121
 21
145.6072043341
  0
LINE
  5
543
100
AcDbEntity
  8
KONSTRUKTIONSELEMENTE
100
AcDbLine
 62
7
  6
CONTINUOUS
 10
246.0992450294
 20
145.1257097446
 11
246.5619700688
 21
144.8640407735
  0
LINE
  5
544
100
AcDbEntity
  8
KONSTRUKTIONSELEMENTE
100
AcDbLine
 62
7
  6
CONTINUOUS
 10
247.5482344741
 20
149.6468269409
 11
248.9626248345
 21
148.4159228389
  0
LINE
  5
545
100
AcDbEntity
  8
KONSTRUKTIONSELEMENTE
100
AcDbLine
 62
7
  6
CONTINUOUS
 10
249.3816559682
 20
148.8974173723
 11
247.4958021543
 21
150.5386228417
  0
LINE
  5
546
100
AcDbEntity
  8
KONSTRUKTIONSELEMENTE
100
AcDbLine
 62
7
  6
CONTINUOUS
 10
249.7047039569
 20
148.4752502164
 11
249.3816559682
 21
148.8974173723
  0
LINE
  5
547
100
AcDbEntity
  8
RUNDUNGEN
100
AcDbLine
 62
7
  6
CONTINUOUS
 10
273.7812209065
 20
136.8297797112
 11
273.7812209065
 21
102.6381103428
  0
LINE
  5
548
100
AcDbEntity
  8
RUNDUNGEN
100
AcDbLine
 62
7
  6
CONTINUOUS
 10
273.7812209065
 20
78.0214490795
 11
273.7812209065
 21
62.3301200955
  0
LINE
  5
549
100
AcDbEntity
  8
KONSTRUKTIONSELEMENTE
100
AcDbLine
 62
7
  6
CONTINUOUS
 10
236.4628089152
 20
153.8085523255
 11
238.4268529926
 21
153.5643573967
  0
LINE
  5
54A
100
AcDbEntity
  8
KONSTRUKTIONSELEMENTE
100
AcDbLine
 62
7
  6
CONTINUOUS
 10
238.3891114368
 20
154.1050603052
 11
235.9082135303
 21
154.413517073
  0
LINE
  5
54B
100
AcDbEntity
  8
KONSTRUKTIONSELEMENTE
100
AcDbLine
 62
7
  6
CONTINUOUS
 10
238.8928394475
 20
153.9352283553
 11
238.3891114368
 21
154.1050603052
  0
LINE
  5
54C
100
AcDbEntity
  8
KONSTRUKTIONSELEMENTE
100
AcDbLine
 62
7
  6
CONTINUOUS
 10
245.4948076847
 20
151.774244211
 11
244.9232807688
 21
152.027190815
  0
LINE
  5
54D
100
AcDbEntity
  8
KONSTRUKTIONSELEMENTE
100
AcDbLine
 62
7
  6
CONTINUOUS
 10
242.6371731055
 20
153.038977231
 11
242.0656459171
 21
153.2919239556
  0
LINE
  5
54E
100
AcDbEntity
  8
BEZUGSACHSEN
100
AcDbLine
 62
7
  6
CONTINUOUS
 10
267.0354857119
 20
133.3297797112
 11
251.1583533092
 21
160.8297797112
  0
LINE
  5
54F
100
AcDbEntity
  8
BEZUGSACHSEN
100
AcDbLine
 62
7
  6
CONTINUOUS
 10
251.1583533092
 20
160.8297797112
 11
219.4040885038
 21
160.8297797112
  0
LINE
  5
550
100
AcDbEntity
  8
0
100
AcDbLine
 62
7
  6
CONTINUOUS
 10
293.7431973495
 20
97.405257387
 11
293.2094241368
 21
98.3297797112
  0
LWPOLYLINE
  5
551
100
AcDbEntity
  8
0
100
AcDbPolyline
 62
7
  6
CONTINUOUS
 90
33
 70
0
 10
296.2812159496
 20
90.6677992956
 10
296.2770968032
 20
90.9480143859
 10
296.2063978241
 20
91.892471032
 10
296.0467408121
 20
92.835563404
 10
295.7989027673
 20
93.7629794125
 10
295.4658785669
 20
94.6627745132
 10
295.0525498286
 20
95.5243351264
 10
294.5642396308
 20
96.3401806664
 10
294.0130571799
 20
97.0963083424
 10
293.4122778652
 20
97.7841105804
 10
292.7775268137
 20
98.3973804356
 10
292.1252900114
 20
98.9334876004
 10
291.470853637
 20
99.3939676115
 10
290.8315461084
 20
99.7812856923
 10
290.2125994599
 20
100.1060002457
 10
289.6235521854
 20
100.3752328244
 10
289.0571706037
 20
100.6021844953
 10
288.5086570638
 20
100.7959448144
 10
287.9689425469
 20
100.9648712383
 10
287.4272289263
 20
101.1157226418
 10
286.8772133573
 20
101.2524724577
 10
286.3102431645
 20
101.3787206917
 10
285.7209924817
 20
101.4965384502
 10
285.1029258431
 20
101.6077455308
 10
284.4524534737
 20
101.7132430377
 10
283.7657019503
 20
101.8137649257
 10
283.0402885877
 20
101.9096560534
 10
282.2745123046
 20
102.0010781829
 10
281.4661860883
 20
102.0881720595
 10
280.6134763362
 20
102.170955151
 10
279.7164735229
 20
102.2492139327
 10
278.7756670168
 20
102.3227038157
 10
277.947768827
 20
102.3808486291
  0
LINE
  5
552
100
AcDbEntity
  8
0
100
AcDbLine
 62
7
  6
CONTINUOUS
 10
296.2812158035
 20
89.9917275239
 11
296.2812158365
 21
90.6677991191
  0
LINE
  5
553
100
AcDbEntity
  8
0
100
AcDbLine
 62
7
  6
CONTINUOUS
 10
293.2094241368
 20
82.3297797112
 11
293.7431627219
 21
83.2542420586
  0
ARC
  5
554
100
AcDbEntity
  8
0
100
AcDbCircle
 62
7
  6
CONTINUOUS
 10
235.2812209065
 20
449.9058206397
 40
83.5
100
AcDbArc
 50
54.5888877047
 51
125.4111122953
  0
ARC
  5
555
100
AcDbEntity
  8
0
100
AcDbCircle
 62
7
  6
CONTINUOUS
 10
235.2812209065
 20
449.9058206397
 40
57.0
100
AcDbArc
 50
48.732572619
 51
131.267427381
  0
ARC
  5
556
100
AcDbEntity
  8
KONSTRUKTIONSELEMENTE
100
AcDbCircle
 62
7
  6
CONTINUOUS
 10
204.2812209065
 20
493.5091462009
 40
30.0
100
AcDbArc
 50
125.4111122953
 51
180.0
  0
ARC
  5
557
100
AcDbEntity
  8
0
100
AcDbCircle
 62
7
  6
CONTINUOUS
 10
266.2812209065
 20
493.5091462009
 40
30.0
100
AcDbArc
 50
0.0
 51
54.5888877047
  0
ARC
  5
558
100
AcDbEntity
  8
0
100
AcDbCircle
 62
7
  6
CONTINUOUS
 10
204.2812209065
 20
493.5091462009
 40
30.0
100
AcDbArc
 50
125.4111122953
 51
180.0
  0
ARC
  5
559
100
AcDbEntity
  8
0
100
AcDbCircle
 62
7
  6
CONTINUOUS
 10
271.2812209065
 20
360.4058206397
 40
25.0
100
AcDbArc
 50
275.7395303826
 51
360.0
  0
ARC
  5
55A
100
AcDbEntity
  8
0
100
AcDbCircle
 62
7
  6
CONTINUOUS
 10
199.2812209065
 20
360.4058206397
 40
25.0
100
AcDbArc
 50
180.0
 51
264.2604696174
  0
ARC
  5
55B
100
AcDbEntity
  8
0
100
AcDbCircle
 62
7
  6
CONTINUOUS
 10
266.2812209065
 20
371.9058206397
 40
10.0
100
AcDbArc
 50
318.5947209013
 51
360.0
  0
ARC
  5
55C
100
AcDbEntity
  8
0
100
AcDbCircle
 62
7
  6
CONTINUOUS
 10
266.2812209065
 20
485.232864105
 40
10.0
100
AcDbArc
 50
5.5872194749
 51
48.732572619
  0
ARC
  5
55D
100
AcDbEntity
  8
0
100
AcDbCircle
 62
7
  6
CONTINUOUS
 10
204.2812209065
 20
371.9058206397
 40
10.0
100
AcDbArc
 50
180.0
 51
221.4052790987
  0
ARC
  5
55E
100
AcDbEntity
  8
0
100
AcDbCircle
 62
7
  6
CONTINUOUS
 10
204.2812209065
 20
485.232864105
 40
10.0
100
AcDbArc
 50
131.267427381
 51
174.4127805251
  0
ARC
  5
55F
100
AcDbEntity
  8
RUNDUNGEN
100
AcDbCircle
 62
7
  6
CONTINUOUS
 10
271.7812209065
 20
376.6558206397
 40
2.0
100
AcDbArc
 50
0.0
 51
90.0
  0
ARC
  5
560
100
AcDbEntity
  8
RUNDUNGEN
100
AcDbCircle
 62
7
  6
CONTINUOUS
 10
271.7812209065
 20
320.6558206397
 40
2.0
100
AcDbArc
 50
270.0
 51
360.0
  0
ARC
  5
561
100
AcDbEntity
  8
RUNDUNGEN
100
AcDbCircle
 62
7
  6
CONTINUOUS
 10
198.7812209065
 20
320.6558206397
 40
2.0
100
AcDbArc
 50
180.0
 51
270.0
  0
ARC
  5
562
100
AcDbEntity
  8
RUNDUNGEN
100
AcDbCircle
 62
7
  6
CONTINUOUS
 10
198.7812209065
 20
376.6558206397
 40
2.0
100
AcDbArc
 50
90.0
 51
180.0
  0
ARC
  5
563
100
AcDbEntity
  8
RUNDUNGEN
100
AcDbCircle
 62
7
  6
CONTINUOUS
 10
480.4144462787
 20
376.6558206397
 40
2.0
100
AcDbArc
 50
89.9999999223
 51
180.0
  0
ARC
  5
564
100
AcDbEntity
  8
RUNDUNGEN
100
AcDbCircle
 62
7
  6
CONTINUOUS
 10
480.4144462787
 20
320.6558206397
 40
2.0
100
AcDbArc
 50
180.0
 51
270.0000000777
  0
ARC
  5
565
100
AcDbEntity
  8
0
100
AcDbCircle
 62
7
  6
CONTINUOUS
 10
563.1885790886
 20
347.9822353795
 40
13.4778511189
100
AcDbArc
 50
355.5985212894
 51
356.3334143994
  0
ARC
  5
566
100
AcDbEntity
  8
0
100
AcDbCircle
 62
7
  6
CONTINUOUS
 10
563.2905554281
 20
347.9310555347
 40
13.3738957955
100
AcDbArc
 50
358.8751579186
 51
359.9507292371
  0
ARC
  5
567
100
AcDbEntity
  8
KONSTRUKTIONSELEMENTE
100
AcDbCircle
 62
7
  6
CONTINUOUS
 10
562.7009741709
 20
347.9423485319
 40
12.5365278922
100
AcDbArc
 50
269.744668591
 51
270.0
  0
ARC
  5
568
100
AcDbEntity
  8
KONSTRUKTIONSELEMENTE
100
AcDbCircle
 62
7
  6
CONTINUOUS
 10
562.7009741709
 20
347.9423485319
 40
12.5365278922
100
AcDbArc
 50
244.8380019675
 51
269.425739796
  0
ARC
  5
569
100
AcDbEntity
  8
KONSTRUKTIONSELEMENTE
100
AcDbCircle
 62
7
  6
CONTINUOUS
 10
562.7009741709
 20
347.9423485319
 40
12.5365278922
100
AcDbArc
 50
180.104110265
 51
184.5490616542
  0
ARC
  5
56A
100
AcDbEntity
  8
KONSTRUKTIONSELEMENTE
100
AcDbCircle
 62
7
  6
CONTINUOUS
 10
562.5896940152
 20
347.9158635328
 40
12.4251377314
100
AcDbArc
 50
181.1406757328
 51
183.6709730614
  0
ARC
  5
56B
100
AcDbEntity
  8
0
100
AcDbCircle
 62
7
  6
CONTINUOUS
 10
553.4144462787
 20
398.9831709089
 40
1.0
100
AcDbArc
 50
318.6088608219
 51
357.570006968
  0
ARC
  5
56C
100
AcDbEntity
  8
KONSTRUKTIONSELEMENTE
100
AcDbCircle
 62
7
  6
CONTINUOUS
 10
553.4144462787
 20
398.9831709089
 40
1.0
100
AcDbArc
 50
318.5939277819
 51
360.0
  0
ARC
  5
56D
100
AcDbEntity
  8
KONSTRUKTIONSELEMENTE
100
AcDbCircle
 62
7
  6
CONTINUOUS
 10
563.6403134687
 20
347.9822353795
 40
13.4778511188
100
AcDbArc
 50
183.6665856006
 51
184.4014787106
  0
ARC
  5
56E
100
AcDbEntity
  8
KONSTRUKTIONSELEMENTE
100
AcDbCircle
 62
7
  6
CONTINUOUS
 10
563.5383371293
 20
347.9310555347
 40
13.3738957956
100
AcDbArc
 50
180.0492707629
 51
181.1248420814
  0
ARC
  5
56F
100
AcDbEntity
  8
RUNDUNGEN
100
AcDbCircle
 62
7
  6
CONTINUOUS
 10
563.4144462787
 20
348.6558206397
 40
30.0
100
AcDbArc
 50
270.0
 51
70.5266873208
  0
ARC
  5
570
100
AcDbEntity
  8
KONSTRUKTIONSELEMENTE
100
AcDbCircle
 62
7
  6
CONTINUOUS
 10
563.4144462787
 20
348.6558206397
 40
24.0
100
AcDbArc
 50
114.6728770865
 51
175.2198081528
  0
ARC
  5
571
100
AcDbEntity
  8
KONSTRUKTIONSELEMENTE
100
AcDbCircle
 62
7
  6
CONTINUOUS
 10
563.4144462787
 20
348.6558206397
 40
24.0
100
AcDbArc
 50
184.7801918472
 51
65.3277147156
  0
ARC
  5
572
100
AcDbEntity
  8
0
100
AcDbCircle
 62
7
  6
CONTINUOUS
 10
563.4144462787
 20
348.6558206397
 40
14.5
100
AcDbArc
 50
146.5025523169
 51
172.0718582338
  0
ARC
  5
573
100
AcDbEntity
  8
0
100
AcDbCircle
 62
7
  6
CONTINUOUS
 10
563.4144462787
 20
348.6558206397
 40
14.5
100
AcDbArc
 50
187.9281417662
 51
33.5353323912
  0
ARC
  5
574
100
AcDbEntity
  8
KONSTRUKTIONSELEMENTE
100
AcDbCircle
 62
7
  6
CONTINUOUS
 10
563.4144462787
 20
348.6558206397
 40
14.5
100
AcDbArc
 50
187.9281417662
 51
33.5767726776
  0
ARC
  5
575
100
AcDbEntity
  8
KONSTRUKTIONSELEMENTE
100
AcDbCircle
 62
7
  6
CONTINUOUS
 10
563.4144462787
 20
348.6558206397
 40
14.5
100
AcDbArc
 50
146.3814726722
 51
172.0718582338
  0
ARC
  5
576
100
AcDbEntity
  8
0
100
AcDbCircle
 62
7
  6
CONTINUOUS
 10
564.1279183865
 20
347.9423485319
 40
12.5365278922
100
AcDbArc
 50
270.0
 51
285.1307576866
  0
ARC
  5
577
100
AcDbEntity
  8
0
100
AcDbCircle
 62
7
  6
CONTINUOUS
 10
564.1279183865
 20
347.9423485319
 40
12.5365278922
100
AcDbArc
 50
355.4509383458
 51
359.895889735
  0
ARC
  5
578
100
AcDbEntity
  8
0
100
AcDbCircle
 62
7
  6
CONTINUOUS
 10
564.2391985422
 20
347.9158635328
 40
12.4251377313
100
AcDbArc
 50
356.3290269386
 51
358.8593242672
  0
ARC
  5
579
100
AcDbEntity
  8
0
100
AcDbCircle
 62
7
  6
CONTINUOUS
 10
573.4144462787
 20
398.9831709089
 40
1.0
100
AcDbArc
 50
180.0
 51
221.4060736561
  0
ARC
  5
57A
100
AcDbEntity
  8
KONSTRUKTIONSELEMENTE
100
AcDbCircle
 62
7
  6
CONTINUOUS
 10
563.4144462787
 20
520.1558206397
 40
13.25
100
AcDbArc
 50
179.9826568223
 51
186.0
  0
ARC
  5
57B
100
AcDbEntity
  8
0
100
AcDbCircle
 62
7
  6
CONTINUOUS
 10
563.4144462787
 20
520.1558206397
 40
13.25
100
AcDbArc
 50
179.9826568223
 51
186.0
  0
ARC
  5
57C
100
AcDbEntity
  8
0
100
AcDbCircle
 62
7
  6
CONTINUOUS
 10
563.4144462787
 20
520.1558206397
 40
13.25
100
AcDbArc
 50
354.0
 51
0.0173431777
  0
ARC
  5
57D
100
AcDbEntity
  8
KONSTRUKTIONSELEMENTE
100
AcDbCircle
 62
7
  6
CONTINUOUS
 10
553.4144462787
 20
452.3284703705
 40
1.0
100
AcDbArc
 50
0.0
 51
41.4077438888
  0
ARC
  5
57E
100
AcDbEntity
  8
0
100
AcDbCircle
 62
7
  6
CONTINUOUS
 10
573.4144462787
 20
452.3284703705
 40
1.0
100
AcDbArc
 50
138.6303209449
 51
180.0
  0
ARC
  5
57F
100
AcDbEntity
  8
0
100
AcDbCircle
 62
7
  6
CONTINUOUS
 10
553.4144462787
 20
452.3284703705
 40
1.0
100
AcDbArc
 50
2.5146222156
 51
41.407742483
  0
ARC
  5
580
100
AcDbEntity
  8
RUNDUNGEN
100
AcDbCircle
 62
7
  6
CONTINUOUS
 10
235.2812209065
 20
136.8297797112
 40
38.5
100
AcDbArc
 50
0.0
 51
180.0
  0
ARC
  5
581
100
AcDbEntity
  8
BEZUGSACHSEN
100
AcDbCircle
 62
7
  6
CONTINUOUS
 10
235.2812209065
 20
133.3297797112
 40
35.0
100
AcDbArc
 50
301.3099740871
 51
238.6900259129
  0
CIRCLE
  5
582
100
AcDbEntity
  8
BEZUGSACHSEN
100
AcDbCircle
 62
7
  6
CONTINUOUS
 10
235.2812209065
 20
133.3297797112
 40
27.5
  0
ARC
  5
583
100
AcDbEntity
  8
RUNDUNGEN
100
AcDbCircle
 62
7
  6
CONTINUOUS
 10
235.5251894814
 20
69.1548699628
 40
13.1522941352
100
AcDbArc
 50
142.9076885812
 51
143.471436825
  0
ARC
  5
584
100
AcDbEntity
  8
RUNDUNGEN
100
AcDbCircle
 62
7
  6
CONTINUOUS
 10
235.0372561631
 20
69.1548695958
 40
13.1522911927
100
AcDbArc
 50
36.5285739322
 51
37.0923232232
  0
ARC
  5
585
100
AcDbEntity
  8
KONSTRUKTIONSELEMENTE
100
AcDbCircle
 62
7
  6
CONTINUOUS
 10
179.0850684838
 20
97.3297797112
 40
2.0
100
AcDbArc
 50
92.4984661222
 51
150.0
  0
ARC
  5
586
100
AcDbEntity
  8
0
100
AcDbCircle
 62
7
  6
CONTINUOUS
 10
291.4773733292
 20
83.3297797112
 40
2.0
100
AcDbArc
 50
272.4984661222
 51
330.0
  0
ARC
  5
587
100
AcDbEntity
  8
0
100
AcDbCircle
 62
7
  6
CONTINUOUS
 10
179.0850684838
 20
83.3297797112
 40
2.0
100
AcDbArc
 50
210.0
 51
267.4947567891
  0
ARC
  5
588
100
AcDbEntity
  8
0
100
AcDbCircle
 62
7
  6
CONTINUOUS
 10
291.4773733292
 20
97.3297797112
 40
2.0
100
AcDbArc
 50
30.0
 51
87.4947567891
  0
ARC
  5
589
100
AcDbEntity
  8
RUNDUNGEN
100
AcDbCircle
 62
7
  6
CONTINUOUS
 10
198.7812209065
 20
62.3297797112
 40
2.0
100
AcDbArc
 50
179.9999957351
 51
270.0
  0
ARC
  5
58A
100
AcDbEntity
  8
RUNDUNGEN
100
AcDbCircle
 62
7
  6
CONTINUOUS
 10
271.7812209065
 20
62.3297797112
 40
2.0
100
AcDbArc
 50
270.0
 51
0.0000042648
  0
ARC
  5
58B
100
AcDbEntity
  8
RUNDUNGEN
100
AcDbCircle
 62
7
  6
CONTINUOUS
 10
210.0356228262
 20
106.4503495393
 40
2.0
100
AcDbArc
 50
65.0321770987
 51
135.0
  0
ARC
  5
58C
100
AcDbEntity
  8
RUNDUNGEN
100
AcDbCircle
 62
7
  6
CONTINUOUS
 10
207.1962864043
 20
103.6110131175
 40
2.0
100
AcDbArc
 50
135.0
 51
195.9271576945
  0
ARC
  5
58D
100
AcDbEntity
  8
RUNDUNGEN
100
AcDbCircle
 62
7
  6
CONTINUOUS
 10
260.5268189868
 20
106.4503495393
 40
2.0
100
AcDbArc
 50
45.0
 51
114.9678229013
  0
ARC
  5
58E
100
AcDbEntity
  8
RUNDUNGEN
100
AcDbCircle
 62
7
  6
CONTINUOUS
 10
263.3661554087
 20
103.6110131175
 40
2.0
100
AcDbArc
 50
344.0728423055
 51
45.0
  0
SPLINE
  5
58F
100
AcDbEntity
  8
RUNDUNGEN
100
AcDbSpline
 62
7
  6
CONTINUOUS
 70
0
 71
3
 72
19
 73
15
 74
0
 42
0.0000001
 43
0.0000001
 44
0.0000000001
 40
0.0
 40
0.0
 40
0.0
 40
0.0
 40
0.1037822756
 40
0.1634329094
 40
0.2268861677
 40
0.36082588
 40
0.4301345094
 40
0.4999998537
 40
0.5698652209
 40
0.6391738467
 40
0.773113607
 40
0.8365669077
 40
0.8962175943
 40
1.0
 40
1.0
 40
1.0
 40
1.0
 10
247.738846618
 20
370.9634748547
 30
0.0
 10
247.5965581609
 20
369.8094369036
 30
0.0
 10
246.8479264072
 20
368.0565250055
 30
0.0
 10
245.3069208445
 20
366.0338769421
 30
0.0
 10
243.2165361839
 20
364.0363588079
 30
0.0
 10
240.5834988488
 20
362.4986950056
 30
0.0
 10
237.6270361145
 20
361.6597084628
 30
0.0
 10
235.281235472
 20
361.4385819882
 30
0.0
 10
232.9354349619
 20
361.6597060679
 30
0.0
 10
229.9789687145
 20
362.4986826626
 30
0.0
 10
227.3459274561
 20
364.036342849
 30
0.0
 10
225.2555381018
 20
366.0338581826
 30
0.0
 10
223.714526521
 20
368.0565049191
 30
0.0
 10
222.9658900595
 20
369.8094167514
 30
0.0
 10
222.8235976611
 20
370.9634556847
 30
0.0
  0
SPLINE
  5
590
100
AcDbEntity
  8
RUNDUNGEN
100
AcDbSpline
 62
7
  6
CONTINUOUS
 70
0
 71
3
 72
23
 73
19
 74
0
 42
0.0000001
 43
0.0000001
 44
0.0000000001
 40
0.0
 40
0.0
 40
0.0
 40
0.0
 40
0.0499254038
 40
0.0983314419
 40
0.1494695264
 40
0.2064592143
 40
0.2706913235
 40
0.3421002467
 40
0.4193726408
 40
0.4999999876
 40
0.5806273507
 40
0.657899739
 40
0.7293086731
 40
0.7935407815
 40
0.8505304724
 40
0.9016685583
 40
0.9500745958
 40
1.0
 40
1.0
 40
1.0
 40
1.0
 10
222.7812209065
 20
371.6371539332
 30
0.0
 10
222.7812313836
 20
372.1459322182
 30
0.0
 10
222.9338337127
 20
373.1597113071
 30
0.0
 10
223.6987682911
 20
374.5135778079
 30
0.0
 10
224.9160213828
 20
375.5809317139
 30
0.0
 10
226.4951955565
 20
376.3780339014
 30
0.0
 10
228.3806821996
 20
376.9476234499
 30
0.0
 10
230.5209680353
 20
377.3243551359
 30
0.0
 10
232.8500647982
 20
377.5368447831
 30
0.0
 10
235.2812206515
 20
377.6051853818
 30
0.0
 10
237.7123764062
 20
377.5368440878
 30
0.0
 10
240.0414734206
 20
377.3243549334
 30
0.0
 10
242.1817593496
 20
376.9476234348
 30
0.0
 10
244.0672461246
 20
376.3780338558
 30
0.0
 10
245.6464203495
 20
375.580931703
 30
0.0
 10
246.8636735529
 20
374.5135778697
 30
0.0
 10
247.6286081231
 20
373.1597112898
 30
0.0
 10
247.7812102499
 20
372.1459322229
 30
0.0
 10
247.7812209065
 20
371.6371539332
 30
0.0
  0
SPLINE
  5
591
100
AcDbEntity
  8
BEZUGSACHSEN
100
AcDbSpline
 62
7
  6
CONTINUOUS
 70
0
 71
3
 72
11
 73
7
 74
0
 42
0.0000001
 43
0.0000001
 44
0.0000000001
 40
0.0
 40
0.0
 40
0.0
 40
0.0
 40
0.2616428633
 40
0.5144969716
 40
0.7595947227
 40
1.0
 40
1.0
 40
1.0
 40
1.0
 10
203.5269561011
 20
407.1996197091
 30
0.0
 10
204.1615535791
 20
407.5660047338
 30
0.0
 10
205.4382357048
 20
408.2388553712
 30
0.0
 10
207.4178061931
 20
409.0313744344
 30
0.0
 10
209.4299849681
 20
409.5384354474
 30
0.0
 10
210.7922312953
 20
409.6558206396
 30
0.0
 10
211.4655223024
 20
409.6558206397
 30
0.0
  0
SPLINE
  5
592
100
AcDbEntity
  8
BEZUGSACHSEN
100
AcDbSpline
 62
7
  6
CONTINUOUS
 70
0
 71
3
 72
11
 73
7
 74
0
 42
0.0000001
 43
0.0000001
 44
0.0000000001
 40
0.0
 40
0.0
 40
0.0
 40
0.0
 40
0.2404052939
 40
0.4855030487
 40
0.7383571417
 40
1.0
 40
1.0
 40
1.0
 40
1.0
 10
211.4655223024
 20
409.6558206397
 30
0.0
 10
212.1388133562
 20
409.6558206397
 30
0.0
 10
213.5010597448
 20
409.5384354637
 30
0.0
 10
215.5132385217
 20
409.0313743907
 30
0.0
 10
217.4928089658
 20
408.2388553465
 30
0.0
 10
218.7694910378
 20
407.5660047269
 30
0.0
 10
219.4040885038
 20
407.1996197091
 30
0.0
  0
SPLINE
  5
593
100
AcDbEntity
  8
BEZUGSACHSEN
100
AcDbSpline
 62
7
  6
CONTINUOUS
 70
0
 71
3
 72
10
 73
6
 74
0
 42
0.0000001
 43
0.0000001
 44
0.0000000001
 40
0.0
 40
0.0
 40
0.0
 40
0.0
 40
0.4999007825
 40
0.7499513916
 40
1.0
 40
1.0
 40
1.0
 40
1.0
 10
219.4040885038
 20
407.1996197091
 30
0.0
 10
221.9837671162
 20
407.9443087797
 30
0.0
 10
225.9165607139
 20
408.8752710479
 30
0.0
 10
231.2506823533
 20
409.5412045403
 30
0.0
 10
233.9381860615
 20
409.6558206395
 30
0.0
 10
235.2812209094
 20
409.6558206396
 30
0.0
  0
SPLINE
  5
594
100
AcDbEntity
  8
BEZUGSACHSEN
100
AcDbSpline
 62
7
  6
CONTINUOUS
 70
0
 71
3
 72
10
 73
6
 74
0
 42
0.0000001
 43
0.0000001
 44
0.0000000001
 40
0.0
 40
0.0
 40
0.0
 40
0.0
 40
0.2500489967
 40
0.5000997176
 40
1.0
 40
1.0
 40
1.0
 40
1.0
 10
235.2812209094
 20
409.6558206396
 30
0.0
 10
236.624257846
 20
409.6558206395
 30
0.0
 10
239.3117642835
 20
409.5412048169
 30
0.0
 10
244.6458857651
 20
408.8752697704
 30
0.0
 10
248.5786772713
 20
407.9443080365
 30
0.0
 10
251.1583533092
 20
407.1996197091
 30
0.0
  0
SPLINE
  5
595
100
AcDbEntity
  8
BEZUGSACHSEN
100
AcDbSpline
 62
7
  6
CONTINUOUS
 70
0
 71
3
 72
11
 73
7
 74
0
 42
0.0000001
 43
0.0000001
 44
0.0000000001
 40
0.0
 40
0.0
 40
0.0
 40
0.0
 40
0.2616428633
 40
0.5144969716
 40
0.7595947227
 40
1.0
 40
1.0
 40
1.0
 40
1.0
 10
251.1583533092
 20
407.1996197091
 30
0.0
 10
251.7929507872
 20
407.5660047338
 30
0.0
 10
253.0696329129
 20
408.2388553712
 30
0.0
 10
255.0492034011
 20
409.0313744344
 30
0.0
 10
257.0613821761
 20
409.5384354473
 30
0.0
 10
258.4236285032
 20
409.6558206397
 30
0.0
 10
259.0969195103
 20
409.6558206397
 30
0.0
  0
SPLINE
  5
596
100
AcDbEntity
  8
BEZUGSACHSEN
100
AcDbSpline
 62
7
  6
CONTINUOUS
 70
0
 71
3
 72
11
 73
7
 74
0
 42
0.0000001
 43
0.0000001
 44
0.0000000001
 40
0.0
 40
0.0
 40
0.0
 40
0.0
 40
0.2404052939
 40
0.4855030487
 40
0.7383571417
 40
1.0
 40
1.0
 40
1.0
 40
1.0
 10
259.0969195103
 20
409.6558206397
 30
0.0
 10
259.7702105642
 20
409.6558206397
 30
0.0
 10
261.1324569528
 20
409.5384354637
 30
0.0
 10
263.1446357297
 20
409.0313743908
 30
0.0
 10
265.1242061739
 20
408.2388553465
 30
0.0
 10
266.4008882459
 20
407.5660047269
 30
0.0
 10
267.0354857119
 20
407.1996197091
 30
0.0
  0
LINE
  5
597
100
AcDbEntity
  8
KONSTRUKTIONSELEMENTE
100
AcDbLine
 62
7
  6
CONTINUOUS
 10
550.2035857924
 20
346.93016391
 11
550.2022116071
 21
346.9478809246
  0
SPLINE
  5
598
100
AcDbEntity
  8
0
100
AcDbSpline
 62
7
  6
CONTINUOUS
 70
0
 71
3
 72
15
 73
11
 74
0
 42
0.0000001
 43
0.0000001
 44
0.0000000001
 40
0.0
 40
0.0
 40
0.0
 40
0.0
 40
0.1240972257
 40
0.2489664291
 40
0.3741131396
 40
0.4993198593
 40
0.6245151424
 40
0.7496858989
 40
0.8748356689
 40
1.0
 40
1.0
 40
1.0
 40
1.0
 10
564.2535982689
 20
335.4060273943
 30
0.0
 10
565.0514743916
 20
335.4106558183
 30
0.0
 10
566.6556411731
 20
335.5755848992
 30
0.0
 10
568.9693141361
 20
336.2852728725
 30
0.0
 10
571.1080830199
 20
337.4350045776
 30
0.0
 10
572.9825680701
 20
338.9816998072
 30
0.0
 10
574.5184468576
 20
340.8652960181
 30
0.0
 10
575.6556905475
 20
343.0130112393
 30
0.0
 10
576.3510283836
 20
345.3404785992
 30
0.0
 10
576.502201121
 20
346.9550746648
 30
0.0
 10
576.4986160033
 20
347.7598172357
 30
0.0
  0
SPLINE
  5
599
100
AcDbEntity
  8
KONSTRUKTIONSELEMENTE
100
AcDbSpline
 62
7
  6
CONTINUOUS
 70
0
 71
3
 72
15
 73
11
 74
0
 42
0.0000001
 43
0.0000001
 44
0.0000000001
 40
0.0
 40
0.0
 40
0.0
 40
0.0
 40
0.1240972257
 40
0.2489664291
 40
0.3741131396
 40
0.4993198593
 40
0.6245151424
 40
0.7496858989
 40
0.8748356689
 40
1.0
 40
1.0
 40
1.0
 40
1.0
 10
562.5752942885
 20
335.4060273943
 30
0.0
 10
561.7774181657
 20
335.4106558183
 30
0.0
 10
560.1732513842
 20
335.5755848992
 30
0.0
 10
557.8595784213
 20
336.2852728725
 30
0.0
 10
555.7208095375
 20
337.4350045776
 30
0.0
 10
553.8463244873
 20
338.9816998072
 30
0.0
 10
552.3104456998
 20
340.8652960181
 30
0.0
 10
551.1732020099
 20
343.0130112393
 30
0.0
 10
550.4778641738
 20
345.3404785992
 30
0.0
 10
550.3266914364
 20
346.9550746648
 30
0.0
 10
550.330276554
 20
347.7598172357
 30
0.0
  0
LINE
  5
59A
100
AcDbEntity
  8
0
100
AcDbLine
 62
7
  6
CONTINUOUS
 10
576.625306765
 20
346.93016391
 11
576.6266809502
 21
346.9478809246
  0
SPLINE
  5
59B
100
AcDbEntity
  8
BEZUGSACHSEN
100
AcDbSpline
 62
7
  6
CONTINUOUS
 70
0
 71
3
 72
10
 73
6
 74
0
 42
0.0000001
 43
0.0000001
 44
0.0000000001
 40
0.0
 40
0.0
 40
0.0
 40
0.0
 40
0.5016032546
 40
0.7510761691
 40
1.0
 40
1.0
 40
1.0
 40
1.0
 10
520.4144462787
 20
407.1996197091
 30
0.0
 10
522.6385760954
 20
407.9409963146
 30
0.0
 10
526.038864586
 20
408.8725747825
 30
0.0
 10
530.6699230997
 20
409.5408956428
 30
0.0
 10
533.0010035546
 20
409.6558206396
 30
0.0
 10
534.1644462786
 20
409.6558206397
 30
0.0
  0
SPLINE
  5
59C
100
AcDbEntity
  8
BEZUGSACHSEN
100
AcDbSpline
 62
7
  6
CONTINUOUS
 70
0
 71
3
 72
10
 73
6
 74
0
 42
0.0000001
 43
0.0000001
 44
0.0000000001
 40
0.0
 40
0.0
 40
0.0
 40
0.0
 40
0.2489238482
 40
0.4983967658
 40
1.0
 40
1.0
 40
1.0
 40
1.0
 10
534.1644462786
 20
409.6558206397
 30
0.0
 10
535.3278890837
 20
409.6558206397
 30
0.0
 10
537.6589696366
 20
409.5408956591
 30
0.0
 10
542.2900281423
 20
408.8725747271
 30
0.0
 10
545.6903165522
 20
407.9409962846
 30
0.0
 10
547.9144462787
 20
407.1996197091
 30
0.0
  0
SPLINE
  5
59D
100
AcDbEntity
  8
BEZUGSACHSEN
100
AcDbSpline
 62
7
  6
CONTINUOUS
 70
0
 71
3
 72
10
 73
6
 74
0
 42
0.0000001
 43
0.0000001
 44
0.0000000001
 40
0.0
 40
0.0
 40
0.0
 40
0.0
 40
0.5016032546
 40
0.7510761691
 40
1.0
 40
1.0
 40
1.0
 40
1.0
 10
492.9144462787
 20
407.1996197091
 30
0.0
 10
495.1385760955
 20
407.9409963147
 30
0.0
 10
498.5388645861
 20
408.8725747826
 30
0.0
 10
503.1699231001
 20
409.5408956427
 30
0.0
 10
505.501003555
 20
409.6558206397
 30
0.0
 10
506.664446279
 20
409.6558206398
 30
0.0
  0
SPLINE
  5
59E
100
AcDbEntity
  8
BEZUGSACHSEN
100
AcDbSpline
 62
7
  6
CONTINUOUS
 70
0
 71
3
 72
10
 73
6
 74
0
 42
0.0000001
 43
0.0000001
 44
0.0000000001
 40
0.0
 40
0.0
 40
0.0
 40
0.0
 40
0.2489238482
 40
0.4983967658
 40
1.0
 40
1.0
 40
1.0
 40
1.0
 10
506.664446279
 20
409.6558206398
 30
0.0
 10
507.8278890841
 20
409.6558206397
 30
0.0
 10
510.158969637
 20
409.540895659
 30
0.0
 10
514.7900281425
 20
408.8725747271
 30
0.0
 10
518.1903165522
 20
407.9409962845
 30
0.0
 10
520.4144462787
 20
407.1996197091
 30
0.0
  0
SPLINE
  5
59F
100
AcDbEntity
  8
RUNDUNGEN
100
AcDbSpline
 62
7
  6
CONTINUOUS
 70
0
 71
3
 72
9
 73
5
 74
0
 42
0.0000001
 43
0.0000001
 44
0.0000000001
 40
0.0
 40
0.0
 40
0.0
 40
0.0
 40
0.2363326939
 40
1.0
 40
1.0
 40
1.0
 40
1.0
 10
222.872708803
 20
72.2263608036
 30
0.0
 10
222.9346101703
 20
72.6331330504
 30
0.0
 10
223.3229274265
 20
74.3347599958
 30
0.0
 10
224.1651574241
 20
75.9150509236
 30
0.0
 10
224.9565289966
 20
76.9834238889
 30
0.0
  0
SPLINE
  5
5A0
100
AcDbEntity
  8
RUNDUNGEN
100
AcDbSpline
 62
7
  6
CONTINUOUS
 70
0
 71
3
 72
9
 73
5
 74
0
 42
0.0000001
 43
0.0000001
 44
0.0000000001
 40
0.0
 40
0.0
 40
0.0
 40
0.0
 40
0.2644969076
 40
1.0
 40
1.0
 40
1.0
 40
1.0
 10
245.6059128137
 20
76.9834237548
 30
0.0
 10
245.879884623
 20
76.6135545684
 30
0.0
 10
246.8408284371
 20
75.1640292783
 30
0.0
 10
247.4971630529
 20
73.4917673275
 30
0.0
 10
247.6897287808
 20
72.2263880381
 30
0.0
  0
SPLINE
  5
5A1
100
AcDbEntity
  8
RUNDUNGEN
100
AcDbSpline
 62
7
  6
CONTINUOUS
 70
0
 71
3
 72
23
 73
19
 74
0
 42
0.0000001
 43
0.0000001
 44
0.0000000001
 40
0.0
 40
0.0
 40
0.0
 40
0.0
 40
0.0559801839
 40
0.1098981081
 40
0.1644716392
 40
0.2222181428
 40
0.2847482459
 40
0.3525469577
 40
0.4249217122
 40
0.4999999893
 40
0.5750782829
 40
0.6474530312
 40
0.7152517503
 40
0.7777818533
 40
0.83552836
 40
0.8901018918
 40
0.9440198157
 40
1.0
 40
1.0
 40
1.0
 40
1.0
 10
247.7812209065
 20
71.0461514206
 30
0.0
 10
247.7812102438
 20
70.4330873792
 30
0.0
 10
247.627789402
 20
69.2209546662
 30
0.0
 10
246.8845782184
 20
67.5521884457
 30
0.0
 10
245.6838161277
 20
66.1533231785
 30
0.0
 10
244.1021752061
 20
65.0460786325
 30
0.0
 10
242.206778097
 20
64.2144647071
 30
0.0
 10
240.0564889689
 20
63.6374768804
 30
0.0
 10
237.7192253941
 20
63.2983568625
 30
0.0
 10
235.2812211644
 20
63.1865298067
 30
0.0
 10
232.8432171284
 20
63.2983580921
 30
0.0
 10
230.5059532289
 20
63.6374770774
 30
0.0
 10
228.355664046
 20
64.214464869
 30
0.0
 10
226.4602667762
 20
65.0460786849
 30
0.0
 10
224.8786257603
 20
66.153323175
 30
0.0
 10
223.6778635499
 20
67.5521883872
 30
0.0
 10
222.9346523949
 20
69.220954679
 30
0.0
 10
222.7812317528
 20
70.4330873739
 30
0.0
 10
222.7812209065
 20
71.0461514206
 30
0.0
  0
SPLINE
  5
5A2
100
AcDbEntity
  8
RUNDUNGEN
100
AcDbSpline
 62
7
  6
CONTINUOUS
 70
0
 71
3
 72
9
 73
5
 74
0
 42
0.0000001
 43
0.0000001
 44
0.0000000001
 40
0.0
 40
0.0
 40
0.0
 40
0.0
 40
0.2457486477
 40
1.0
 40
1.0
 40
1.0
 40
1.0
 10
222.7812209065
 20
71.0461514206
 30
0.0
 10
222.7812225829
 20
71.1431721887
 30
0.0
 10
222.789116891
 20
71.5379448138
 30
0.0
 10
222.8279099101
 20
71.9319739895
 30
0.0
 10
222.872708803
 20
72.2263608036
 30
0.0
  0
SPLINE
  5
5A3
100
AcDbEntity
  8
RUNDUNGEN
100
AcDbSpline
 62
7
  6
CONTINUOUS
 70
0
 71
3
 72
9
 73
5
 74
0
 42
0.0000001
 43
0.0000001
 44
0.0000000001
 40
0.0
 40
0.0
 40
0.0
 40
0.0
 40
0.2544470558
 40
1.0
 40
1.0
 40
1.0
 40
1.0
 10
247.6897287808
 20
72.2263880381
 30
0.0
 10
247.7048421702
 20
72.1270756102
 30
0.0
 10
247.7572604769
 20
71.7357545111
 30
0.0
 10
247.7812157333
 20
71.3404960977
 30
0.0
 10
247.7812209065
 20
71.0461514206
 30
0.0
  0
ENDSEC
  0
SECTION
  2
OBJECTS
  0
DICTIONARY
  5
C
100
AcDbDictionary
280
0
281
1
  3
ACAD_GROUP
350
D
  3
ACAD_MLINESTYLE
350
17
  3
ACAD_LAYOUT
350
1A
  3
ACAD_PLOTSETTINGS
350
19
  3
ACAD_PLOTSTYLENAME
350
E
  0
DICTIONARY
  5
D
102
{ACAD_REACTORS
330
C
102
}
100
AcDbDictionary
280
0
281
1
  0
ACDBDICTIONARYWDFLT
  5
E
102
{ACAD_REACTORS
330
C
102
}
100
AcDbDictionary
281
1
  3
Normal
350
F
100
AcDbDictionaryWithDefault
340
F
  0
DICTIONARY
  5
17
102
{ACAD_REACTORS
330
C
102
}
100
AcDbDictionary
280
0
281
1
  3
Standard
350
18
  0
DICTIONARY
  5
19
102
{ACAD_REACTORS
330
C
102
}
100
AcDbDictionary
281
1
  0
DICTIONARY
  5
1A
102
{ACAD_REACTORS
330
C
102
}
100
AcDbDictionary
281
1
  3
Model
350
5A4
  3
Layout1
350
5A5
  0
ACDBPLACEHOLDER
  5
F
102
{ACAD_REACTORS
330
E
102
}
  0
MLINESTYLE
  5
18
102
{ACAD_REACTORS
330
17
102
}
100
AcDbMlineStyle
  2
STANDARD
 70
0
  3

 62
256
 51
90.0
 52
90.0
 71
2
 49
0.5
 62
256
  6
BYLAYER
 49
-0.5
 62
256
  6
BYLAYER
  0
LAYOUT
  5
5A4
102
{ACAD_REACTORS
330
1A
102
}
100
AcDbPlotSettings
  1

  2
none_device
  4
ISO_A1_(594.00_x_841.00_MM)
  6

 40
0.0
 41
0.0
 42
0.0
 43
0.0
 44
841.0
 45
594.0
 46
0.0
 47
0.0
 48
0.0
 49
0.0
140
0.0
141
0.0
142
1.0
143
1.0
 70
1024
 72
1
 73
0
 74
0
  7

 75
0
147
1.0
148
0.0
149
0.0
100
AcDbLayout
  1
Model
 70
0
 71
0
 10
0.0
 20
0.0
 11
841.0
 21
594.0
 12
0.0
 22
0.0
 32
0.0
 14
0.0
 24
0.0
 34
0.0
 15
0.0
 25
0.0
 35
0.0
146
0.0
 13
0.0
 23
0.0
 33
0.0
 16
1.0
 26
0.0
 36
0.0
 17
0.0
 27
1.0
 37
0.0
 76
0
330
214
345
0
346
0
  0
LAYOUT
  5
5A5
102
{ACAD_REACTORS
330
1A
102
}
100
AcDbPlotSettings
  1

  2
none_device
  4
ISO_A1_(594.00_x_841.00_MM)
  6

 40
0.0
 41
0.0
 42
0.0
 43
0.0
 44
841.0
 45
594.0
 46
0.0
 47
0.0
 48
0.0
 49
0.0
140
0.0
141
0.0
142
1.0
143
1.0
 70
0
 72
1
 73
0
 74
0
  7

 75
0
147
1.0
148
0.0
149
0.0
100
AcDbLayout
  1
Layout1
 70
0
 71
1
 10
0.0
 20
0.0
 11
841.0
 21
594.0
 12
0.0
 22
0.0
 32
0.0
 14
0.0
 24
0.0
 34
0.0
 15
0.0
 25
0.0
 35
0.0
146
0.0
 13
0.0
 23
0.0
 33
0.0
 16
1.0
 26
0.0
 36
0.0
 17
0.0
 27
1.0
 37
0.0
 76
0
330
215
345
0
346
0
  0
ENDSEC
  0
EOF
