999
DXF file: VEA-4_7990215_M31343-P-1.dxf
999
Pro/ENGINEER 2011490 by Parametric Technology Corporation
  0
SECTION
  2
HEADER
  9
$ACADVER
  1
AC1015
  9
$DWGCODEPAGE
  3
ANSI_1252
  9
$EXTMAX
 10
297.0
 20
210.0
 30
0.0
  9
$EXTMIN
 10
0.0
 20
0.0
 30
0.0
  9
$LIMMIN
 10
0.0
 20
0.0
  9
$LIMMAX
 10
297.0
 20
210.0
  9
$VIEWCTR
 10
148.5
 20
105.0
  9
$VIEWSIZE
 40
210.0
  9
$CLAYER
  8
0
  9
$LTSCALE
 40
16.335
  9
$CELTYPE
  6
BYLAYER
  9
$DIMSCALE
 40
1.0
  9
$DIMASZ
 40
3.5
  9
$DIMEXO
 40
1.85625
  9
$DIMDLI
 40
11.286
  9
$DIMEXE
 40
5.346
  9
$DIMCEN
 40
2.673
  9
$DIMLFAC
 40
1.0
  9
$DIMBLK
  1
_FILLED
  9
$DIMTXT
 40
3.5
  9
$DIMTOL
 70
1
  9
$DIMLIM
 70
0
  9
$DIMTFAC
 40
1.0
  9
$DIMTP
 40
0.005
  9
$DIMTM
 40
0.005
  9
$PDMODE
 70
3
  9
$PDSIZE
 40
0.3125
  9
$HANDSEED
  5
368
  9
$TILEMODE
 70
1
  9
$MEASUREMENT
 70
1
  9
$INSUNITS
 70
4
  0
ENDSEC
  0
SECTION
  2
CLASSES
  0
CLASS
  1
ACDBDICTIONARYWDFLT
  2
AcDbDictionaryWithDefault
  3
AutoCAD 2000
 90
0
280
0
281
0
  0
CLASS
  1
ACDBPLACEHOLDER
  2
AcDbPlaceHolder
  3
AutoCAD 2000
 90
0
280
0
281
0
  0
CLASS
  1
LAYOUT
  2
AcDbLayout
  3
AutoCAD 2000
 90
0
280
0
281
0
  0
ENDSEC
  0
SECTION
  2
TABLES
  0
TABLE
  2
VPORT
  5
8
100
AcDbSymbolTable
 70
2
  0
VPORT
  5
1F4
100
AcDbSymbolTableRecord
100
AcDbViewportTableRecord
  2
*ACTIVE
 70
0
 10
0.0
 20
0.0
 11
1.0
 21
1.0
 12
148.5
 22
105.0
 13
0.0
 23
0.0
 14
1.0
 24
1.0
 15
0.0
 25
0.0
 16
0.0
 26
0.0
 36
1.0
 17
0.0
 27
0.0
 37
0.0
 40
210.0
 41
1.4142857143
 42
50.0
 43
0.0
 44
0.0
 50
0.0
 51
0.0
 71
0
 72
100
 73
1
 74
1
 75
0
 76
0
 77
0
 78
0
  0
ENDTAB
  0
TABLE
  2
LTYPE
  5
5
100
AcDbSymbolTable
 70
6
  0
LTYPE
  5
14
100
AcDbSymbolTableRecord
100
AcDbLinetypeTableRecord
  2
BYBLOCK
 70
0
  3

 72
65
 73
0
 40
0.0
  0
LTYPE
  5
15
100
AcDbSymbolTableRecord
100
AcDbLinetypeTableRecord
  2
BYLAYER
 70
0
  3

 72
65
 73
0
 40
0.0
  0
LTYPE
  5
16
100
AcDbSymbolTableRecord
100
AcDbLinetypeTableRecord
  2
CONTINUOUS
 70
64
  3
Solid line
 72
65
 73
0
 40
0.0
  0
LTYPE
  5
1F5
100
AcDbSymbolTableRecord
100
AcDbLinetypeTableRecord
  2
CENTER
 70
64
  3
____ _ ____ _ ____ _ ____ _ ____ _ ____ _ ____
 72
65
 73
4
 40
0.6
 49
0.375
 74
0
 49
-0.075
 74
0
 49
0.075
 74
0
 49
-0.075
 74
0
  0
LTYPE
  5
1F6
100
AcDbSymbolTableRecord
100
AcDbLinetypeTableRecord
  2
HIDDEN
 70
64
  3
- - - - - - - - - - - - - - - - - - - -
 72
65
 73
2
 40
0.2
 49
0.1
 74
0
 49
-0.1
 74
0
  0
LTYPE
  5
1F7
100
AcDbSymbolTableRecord
100
AcDbLinetypeTableRecord
  2
PHANTOM
 70
64
  3
_____ _ _ _____ _ _ _____ _ _ _____
 72
65
 73
6
 40
0.8
 49
0.45
 74
0
 49
-0.05
 74
0
 49
0.1
 74
0
 49
-0.05
 74
0
 49
0.1
 74
0
 49
-0.05
 74
0
  0
LTYPE
  5
1F8
100
AcDbSymbolTableRecord
100
AcDbLinetypeTableRecord
  2
DOT
 70
64
  3
. . . . . . . . . . . . . . . . . . . .
 72
65
 73
2
 40
0.2
 49
0.1
 74
0
 49
-0.1
 74
0
  0
LTYPE
  5
1F9
100
AcDbSymbolTableRecord
100
AcDbLinetypeTableRecord
  2
DASHED
 70
64
  3
- - - - - - - - - - - - - - - - - - - -
 72
65
 73
2
 40
0.2
 49
0.1
 74
0
 49
-0.1
 74
0
  0
ENDTAB
  0
TABLE
  2
LAYER
  5
2
100
AcDbSymbolTable
 70
36
  0
LAYER
  5
10
100
AcDbSymbolTableRecord
100
AcDbLayerTableRecord
  2
0
 70
0
 62
7
  6
CONTINUOUS
370
-3
390
F
  0
LAYER
  5
1FA
100
AcDbSymbolTableRecord
100
AcDbLayerTableRecord
  2
DEFAULT_1
 70
0
 62
7
  6
CENTER
370
-3
390
F
  0
LAYER
  5
1FB
100
AcDbSymbolTableRecord
100
AcDbLayerTableRecord
  2
DEFAULT_2
 70
0
 62
8
  6
HIDDEN
370
-3
390
F
  0
LAYER
  5
1FC
100
AcDbSymbolTableRecord
100
AcDbLayerTableRecord
  2
DEFAULT_3
 70
0
 62
7
  6
PHANTOM
370
-3
390
F
  0
LAYER
  5
1FD
100
AcDbSymbolTableRecord
100
AcDbLayerTableRecord
  2
BEZUGSACHSEN
 70
0
 62
7
  6
CONTINUOUS
370
-3
390
F
  0
LAYER
  5
1FE
100
AcDbSymbolTableRecord
100
AcDbLayerTableRecord
  2
BOHRUNGEN
 70
0
 62
7
  6
CONTINUOUS
370
-3
390
F
  0
LAYER
  5
1FF
100
AcDbSymbolTableRecord
100
AcDbLayerTableRecord
  2
FASEN
 70
0
 62
7
  6
CONTINUOUS
370
-3
390
F
  0
LAYER
  5
200
100
AcDbSymbolTableRecord
100
AcDbLayerTableRecord
  2
HILFEN
 70
0
 62
7
  6
CONTINUOUS
370
-3
390
F
  0
LAYER
  5
201
100
AcDbSymbolTableRecord
100
AcDbLayerTableRecord
  2
KONSTRUKTIONSELEMENTE
 70
0
 62
7
  6
CONTINUOUS
370
-3
390
F
  0
LAYER
  5
202
100
AcDbSymbolTableRecord
100
AcDbLayerTableRecord
  2
PLATZIERUNG
 70
0
 62
7
  6
CONTINUOUS
370
-3
390
F
  0
LAYER
  5
203
100
AcDbSymbolTableRecord
100
AcDbLayerTableRecord
  2
RUNDUNGEN
 70
0
 62
7
  6
CONTINUOUS
370
-3
390
F
  0
LAYER
  5
204
100
AcDbSymbolTableRecord
100
AcDbLayerTableRecord
  2
TEIL_STARTBEZUEGE
 70
0
 62
7
  6
CONTINUOUS
370
-3
390
F
  0
ENDTAB
  0
TABLE
  2
STYLE
  5
3
100
AcDbSymbolTable
 70
1
  0
STYLE
  5
11
100
AcDbSymbolTableRecord
100
AcDbTextStyleTableRecord
  2
STANDARD
 70
0
 40
0.0
 41
0.7
 50
0.0
 71
0
 42
0.2
  3
txt
  4

  0
STYLE
  5
205
100
AcDbSymbolTableRecord
100
AcDbTextStyleTableRecord
  2
TEXTSTYLE_1
 70
0
 40
0.0
 41
0.8
 50
0.0
 71
0
 42
0.2
  3
gdt
  4

  0
ENDTAB
  0
TABLE
  2
VIEW
  5
6
100
AcDbSymbolTable
 70
0
  0
ENDTAB
  0
TABLE
  2
UCS
  5
7
100
AcDbSymbolTable
 70
0
  0
ENDTAB
  0
TABLE
  2
APPID
  5
9
100
AcDbSymbolTable
 70
1
  0
APPID
  5
206
100
AcDbSymbolTableRecord
100
AcDbRegAppTableRecord
  2
ACAD
 70
0
  0
ENDTAB
  0
TABLE
  2
BLOCK_RECORD
  5
1
100
AcDbSymbolTable
 70
0
  0
BLOCK_RECORD
  5
207
100
AcDbSymbolTableRecord
100
AcDbBlockTableRecord
  2
*Model_Space
  0
BLOCK_RECORD
  5
208
100
AcDbSymbolTableRecord
100
AcDbBlockTableRecord
  2
*Paper_Space
  0
ENDTAB
  0
TABLE
  2
DIMSTYLE
  5
A
100
AcDbSymbolTable
 70
1
100
AcDbDimStyleTable
 71
0
  0
DIMSTYLE
105
209
100
AcDbSymbolTableRecord
100
AcDbDimStyleTableRecord
  2
STANDARD
 70
0
  3

  4

 40
1.0
 41
3.5
 42
0.0625
 43
0.38
 44
0.18
 45
0.0
 46
0.0
 47
0.005
 48
0.005
140
3.5
141
0.09
142
0.0
143
25.4
144
1.0
145
0.0
146
1.0
147
0.09
 71
1.0
 72
0.0
 73
0
 74
0
 75
0
 76
0
 77
1
 78
8
170
0
171
2
172
0
173
0
174
0
175
0
176
0
177
0
178
5
270
2
271
3
272
3
273
2
274
2
275
0
280
0
281
0
282
0
283
1
284
8
285
0
286
0
287
3
288
0
340
11
  0
ENDTAB
  0
ENDSEC
  0
SECTION
  2
BLOCKS
  0
BLOCK
  5
20
100
AcDbEntity
  8
0
100
AcDbBlockBegin
  2
*Model_Space
 70
0
 10
0.0
 20
0.0
 30
0.0
  3
*Model_Space
  1

  0
ENDBLK
  5
21
100
AcDbEntity
  8
0
100
AcDbBlockEnd
  0
BLOCK
  5
1C
100
AcDbEntity
  8
0
100
AcDbBlockBegin
  2
*Paper_Space
 70
0
 10
0.0
 20
0.0
 30
0.0
  3
*Paper_Space
  1

  0
ENDBLK
  5
1D
100
AcDbEntity
  8
0
100
AcDbBlockEnd
  0
ENDSEC
  0
SECTION
  2
ENTITIES
  0
MTEXT
  5
20A
100
AcDbEntity
  8
0
100
AcDbMText
 62
5
  6
CONTINUOUS
  7
STANDARD
 71
2
 72
1
 10
166.3293307118
 20
137.2600633934
 30
0.0
 11
1.0
 21
0.0
 31
0.0
 44
0.9
  1
VEA-4\PRUD
 40
3.5
 41
14.3333333333
  0
LINE
  5
20B
100
AcDbEntity
  8
0
100
AcDbLine
 62
7
  6
CONTINUOUS
 10
0.0
 20
0.0
 11
0.0
 21
210.0
  0
LINE
  5
20C
100
AcDbEntity
  8
0
100
AcDbLine
 62
7
  6
CONTINUOUS
 10
0.0
 20
0.0
 11
297.0
 21
0.0
  0
LINE
  5
20D
100
AcDbEntity
  8
0
100
AcDbLine
 62
7
  6
CONTINUOUS
 10
0.0
 20
210.0
 11
297.0
 21
210.0
  0
LINE
  5
20E
100
AcDbEntity
  8
0
100
AcDbLine
 62
7
  6
CONTINUOUS
 10
297.0
 20
0.0
 11
297.0
 21
210.0
  0
LINE
  5
20F
100
AcDbEntity
  8
FASEN
100
AcDbLine
 62
7
  6
CONTINUOUS
 10
105.462901348
 20
141.7513507914
 11
104.462901348
 21
140.7513507914
  0
LINE
  5
210
100
AcDbEntity
  8
FASEN
100
AcDbLine
 62
7
  6
CONTINUOUS
 10
104.462901348
 20
125.7513507914
 11
106.462901348
 21
123.7513507914
  0
LINE
  5
211
100
AcDbEntity
  8
KONSTRUKTIONSELEMENTE
100
AcDbLine
 62
7
  6
CONTINUOUS
 10
104.462901348
 20
140.7513507914
 11
104.462901348
 21
125.7513507914
  0
LINE
  5
212
100
AcDbEntity
  8
FASEN
100
AcDbLine
 62
7
  6
CONTINUOUS
 10
107.0954043504
 20
140.7513507914
 11
107.0954043504
 21
125.7513507914
  0
LINE
  5
213
100
AcDbEntity
  8
FASEN
100
AcDbLine
 62
7
  6
CONTINUOUS
 10
106.462901348
 20
123.7513507914
 11
126.462901348
 21
123.7513507914
  0
LINE
  5
214
100
AcDbEntity
  8
0
100
AcDbLine
 62
7
  6
CONTINUOUS
 10
113.9316511692
 20
125.2492231262
 11
114.166026348
 21
125.2013507914
  0
LINE
  5
215
100
AcDbEntity
  8
0
100
AcDbLine
 62
7
  6
CONTINUOUS
 10
113.744151348
 20
125.3449677956
 11
113.9316511692
 21
125.2492231262
  0
LINE
  5
216
100
AcDbEntity
  8
0
100
AcDbLine
 62
7
  6
CONTINUOUS
 10
114.166026348
 20
125.2013507914
 11
115.291026348
 21
125.2013507914
  0
LINE
  5
217
100
AcDbEntity
  8
0
100
AcDbLine
 62
7
  6
CONTINUOUS
 10
115.6660262586
 20
125.2013507914
 11
115.9472762586
 21
125.2013507914
  0
LINE
  5
218
100
AcDbEntity
  8
0
100
AcDbLine
 62
7
  6
CONTINUOUS
 10
117.0722762586
 20
125.2013507914
 11
117.3535263927
 21
125.2013507914
  0
LINE
  5
219
100
AcDbEntity
  8
0
100
AcDbLine
 62
7
  6
CONTINUOUS
 10
118.384776348
 20
125.2013507914
 11
119.509776348
 21
125.2013507914
  0
LINE
  5
21A
100
AcDbEntity
  8
0
100
AcDbLine
 62
7
  6
CONTINUOUS
 10
119.228526348
 20
125.440712465
 11
118.3379013927
 21
125.440712465
  0
LINE
  5
21B
100
AcDbEntity
  8
0
100
AcDbLine
 62
7
  6
CONTINUOUS
 10
115.009776348
 20
125.4885847998
 11
114.166026348
 21
125.4885847998
  0
LINE
  5
21C
100
AcDbEntity
  8
FASEN
100
AcDbLine
 62
7
  6
CONTINUOUS
 10
107.0954043504
 20
125.7513507914
 11
104.462901348
 21
125.7513507914
  0
LINE
  5
21D
100
AcDbEntity
  8
FASEN
100
AcDbLine
 62
7
  6
CONTINUOUS
 10
125.8303983456
 20
125.7513507914
 11
128.462901348
 21
125.7513507914
  0
LINE
  5
21E
100
AcDbEntity
  8
0
100
AcDbLine
 62
7
  6
CONTINUOUS
 10
118.1504013033
 20
125.2492231262
 11
118.384776348
 21
125.2013507914
  0
LINE
  5
21F
100
AcDbEntity
  8
0
100
AcDbLine
 62
7
  6
CONTINUOUS
 10
114.166026348
 20
125.4885847998
 11
113.9785265268
 21
125.5364571345
  0
LINE
  5
220
100
AcDbEntity
  8
0
100
AcDbLine
 62
7
  6
CONTINUOUS
 10
113.9785265268
 20
125.5364571345
 11
113.8379015268
 21
125.6322018039
  0
LINE
  5
221
100
AcDbEntity
  8
0
100
AcDbLine
 62
7
  6
CONTINUOUS
 10
113.5566515268
 20
125.5364571345
 11
113.744151348
 21
125.3449677956
  0
LINE
  5
222
100
AcDbEntity
  8
0
100
AcDbLine
 62
7
  6
CONTINUOUS
 10
118.3379013927
 20
126.1587976199
 11
119.228526348
 21
126.1587976199
  0
LINE
  5
223
100
AcDbEntity
  8
0
100
AcDbLine
 62
7
  6
CONTINUOUS
 10
119.228526348
 20
126.4460316282
 11
118.4316513704
 21
126.4460316282
  0
LINE
  5
224
100
AcDbEntity
  8
0
100
AcDbLine
 62
7
  6
CONTINUOUS
 10
118.3379013927
 20
125.440712465
 11
118.1972763927
 21
125.4885847998
  0
LINE
  5
225
100
AcDbEntity
  8
0
100
AcDbLine
 62
7
  6
CONTINUOUS
 10
113.8379015268
 20
125.6322018039
 11
113.744151348
 21
125.7758189422
  0
LINE
  5
226
100
AcDbEntity
  8
0
100
AcDbLine
 62
7
  6
CONTINUOUS
 10
116.2285262586
 20
127.1162444149
 11
116.416026348
 21
127.1641167496
  0
LINE
  5
227
100
AcDbEntity
  8
0
100
AcDbLine
 62
7
  6
CONTINUOUS
 10
113.9785265268
 20
127.1162444149
 11
114.166026348
 21
127.1641167496
  0
LINE
  5
228
100
AcDbEntity
  8
0
100
AcDbLine
 62
7
  6
CONTINUOUS
 10
116.416026348
 20
127.4513507914
 11
116.1816514374
 21
127.4034784525
  0
LINE
  5
229
100
AcDbEntity
  8
0
100
AcDbLine
 62
7
  6
CONTINUOUS
 10
114.166026348
 20
127.1641167496
 11
115.009776348
 21
127.1641167496
  0
LINE
  5
22A
100
AcDbEntity
  8
0
100
AcDbLine
 62
7
  6
CONTINUOUS
 10
116.416026348
 20
127.1641167496
 11
116.6035264374
 21
127.1641167496
  0
LINE
  5
22B
100
AcDbEntity
  8
0
100
AcDbLine
 62
7
  6
CONTINUOUS
 10
119.509776348
 20
127.4513507914
 11
119.228526348
 21
127.4513507914
  0
LINE
  5
22C
100
AcDbEntity
  8
0
100
AcDbLine
 62
7
  6
CONTINUOUS
 10
118.0566513927
 20
127.4513507914
 11
117.7285263033
 21
127.4513507914
  0
LINE
  5
22D
100
AcDbEntity
  8
0
100
AcDbLine
 62
7
  6
CONTINUOUS
 10
116.6035264374
 20
127.4513507914
 11
116.416026348
 21
127.4513507914
  0
LINE
  5
22E
100
AcDbEntity
  8
0
100
AcDbLine
 62
7
  6
CONTINUOUS
 10
115.291026348
 20
127.4513507914
 11
114.166026348
 21
127.4513507914
  0
LINE
  5
22F
100
AcDbEntity
  8
0
100
AcDbLine
 62
7
  6
CONTINUOUS
 10
116.837901348
 20
127.4034784525
 11
116.6035264374
 21
127.4513507914
  0
LINE
  5
230
100
AcDbEntity
  8
0
100
AcDbLine
 62
7
  6
CONTINUOUS
 10
116.6035264374
 20
127.1641167496
 11
116.7910262586
 21
127.1162444149
  0
LINE
  5
231
100
AcDbEntity
  8
0
100
AcDbLine
 62
7
  6
CONTINUOUS
 10
117.962901348
 20
125.3928401303
 11
118.1504013033
 21
125.2492231262
  0
LINE
  5
232
100
AcDbEntity
  8
0
100
AcDbLine
 62
7
  6
CONTINUOUS
 10
113.462901348
 20
125.7279464734
 11
113.5566515268
 21
125.5364571345
  0
LINE
  5
233
100
AcDbEntity
  8
0
100
AcDbLine
 62
7
  6
CONTINUOUS
 10
122.0852417664
 20
139.9044757901
 11
121.8458800593
 21
139.8107257914
  0
LINE
  5
234
100
AcDbEntity
  8
0
100
AcDbLine
 62
7
  6
CONTINUOUS
 10
121.989497097
 20
139.6232258026
 11
122.1331141011
 21
139.6701007914
  0
LINE
  5
235
100
AcDbEntity
  8
0
100
AcDbLine
 62
7
  6
CONTINUOUS
 10
122.0373694317
 20
129.8263507914
 11
121.8458800593
 21
129.7794754338
  0
LINE
  5
236
100
AcDbEntity
  8
0
100
AcDbLine
 62
7
  6
CONTINUOUS
 10
114.166026348
 20
127.4513507914
 11
113.9316511692
 21
127.4034784525
  0
LINE
  5
237
100
AcDbEntity
  8
0
100
AcDbLine
 62
7
  6
CONTINUOUS
 10
121.3671566702
 20
128.3263511491
 11
122.9948161931
 21
128.3263511491
  0
LINE
  5
238
100
AcDbEntity
  8
0
100
AcDbLine
 62
7
  6
CONTINUOUS
 10
122.9948161931
 20
128.5607257914
 11
122.7075821848
 21
128.5607257914
  0
LINE
  5
239
100
AcDbEntity
  8
0
100
AcDbLine
 62
7
  6
CONTINUOUS
 10
122.4682205112
 20
128.5607257914
 11
121.989497097
 21
128.5607257914
  0
LINE
  5
23A
100
AcDbEntity
  8
0
100
AcDbLine
 62
7
  6
CONTINUOUS
 10
121.7501353899
 20
128.5607257914
 11
121.3671566702
 21
128.5607257914
  0
LINE
  5
23B
100
AcDbEntity
  8
0
100
AcDbLine
 62
7
  6
CONTINUOUS
 10
117.0254014374
 20
127.3077337705
 11
116.837901348
 21
127.4034784525
  0
LINE
  5
23C
100
AcDbEntity
  8
0
100
AcDbLine
 62
7
  6
CONTINUOUS
 10
116.7910262586
 20
127.1162444149
 11
116.9316512586
 21
127.0204997119
  0
LINE
  5
23D
100
AcDbEntity
  8
0
100
AcDbLine
 62
7
  6
CONTINUOUS
 10
113.744151348
 20
125.7758189422
 11
113.6972765268
 21
125.9673082811
  0
LINE
  5
23E
100
AcDbEntity
  8
0
100
AcDbLine
 62
7
  6
CONTINUOUS
 10
113.4160265268
 20
125.9673082811
 11
113.462901348
 21
125.7279464734
  0
LINE
  5
23F
100
AcDbEntity
  8
0
100
AcDbLine
 62
7
  6
CONTINUOUS
 10
113.4160265268
 20
126.6853933689
 11
113.4160265268
 21
125.9673082811
  0
LINE
  5
240
100
AcDbEntity
  8
0
100
AcDbLine
 62
7
  6
CONTINUOUS
 10
122.3246035071
 20
138.2638507914
 11
122.5639651807
 21
138.3576008362
  0
LINE
  5
241
100
AcDbEntity
  8
0
100
AcDbLine
 62
7
  6
CONTINUOUS
 10
122.4203481765
 20
138.5451007914
 11
122.2767311053
 21
138.4982258362
  0
LINE
  5
242
100
AcDbEntity
  8
0
100
AcDbLine
 62
7
  6
CONTINUOUS
 10
123.1863056661
 20
138.3576008362
 11
123.3299226703
 21
138.4044757914
  0
LINE
  5
243
100
AcDbEntity
  8
0
100
AcDbLine
 62
7
  6
CONTINUOUS
 10
121.989497097
 20
137.8888507467
 11
121.8458800593
 21
137.8419757914
  0
LINE
  5
244
100
AcDbEntity
  8
0
100
AcDbLine
 62
7
  6
CONTINUOUS
 10
122.0852417664
 20
129.5919761491
 11
122.3724758418
 21
129.5919761491
  0
LINE
  5
245
100
AcDbEntity
  8
0
100
AcDbLine
 62
7
  6
CONTINUOUS
 10
122.4203481765
 20
129.8263507914
 11
122.0373694317
 21
129.8263507914
  0
LINE
  5
246
100
AcDbEntity
  8
0
100
AcDbLine
 62
7
  6
CONTINUOUS
 10
121.3671566702
 20
128.5607257914
 11
121.1756673062
 21
128.6076011491
  0
LINE
  5
247
100
AcDbEntity
  8
0
100
AcDbLine
 62
7
  6
CONTINUOUS
 10
121.0320502685
 20
128.4201007914
 11
121.3671566702
 21
128.3263511491
  0
LINE
  5
248
100
AcDbEntity
  8
0
100
AcDbLine
 62
7
  6
CONTINUOUS
 10
118.1972763927
 20
125.4885847998
 11
118.103526348
 21
125.5843294692
  0
LINE
  5
249
100
AcDbEntity
  8
0
100
AcDbLine
 62
7
  6
CONTINUOUS
 10
117.2129012586
 20
127.1162444149
 11
117.0254014374
 21
127.3077337705
  0
LINE
  5
24A
100
AcDbEntity
  8
0
100
AcDbLine
 62
7
  6
CONTINUOUS
 10
117.822276348
 20
125.5843294692
 11
117.962901348
 21
125.3928401303
  0
LINE
  5
24B
100
AcDbEntity
  8
0
100
AcDbLine
 62
7
  6
CONTINUOUS
 10
113.6972765268
 20
125.9673082811
 11
113.6972765268
 21
126.6853933689
  0
LINE
  5
24C
100
AcDbEntity
  8
KONSTRUKTIONSELEMENTE
100
AcDbLine
 62
7
  6
CONTINUOUS
 10
114.212901348
 20
141.7513507914
 11
114.212901348
 21
131.0013507914
  0
LINE
  5
24D
100
AcDbEntity
  8
0
100
AcDbLine
 62
7
  6
CONTINUOUS
 10
121.8458800593
 20
139.8107257914
 11
121.6543907037
 21
139.6701007914
  0
LINE
  5
24E
100
AcDbEntity
  8
0
100
AcDbLine
 62
7
  6
CONTINUOUS
 10
121.8458800593
 20
139.5294757914
 11
121.989497097
 21
139.6232258026
  0
LINE
  5
24F
100
AcDbEntity
  8
0
100
AcDbLine
 62
7
  6
CONTINUOUS
 10
121.8937524275
 20
137.6076008809
 11
121.989497097
 21
137.654475702
  0
LINE
  5
250
100
AcDbEntity
  8
0
100
AcDbLine
 62
7
  6
CONTINUOUS
 10
116.9316512586
 20
127.0204997119
 11
117.0254014374
 21
126.8768827078
  0
LINE
  5
251
100
AcDbEntity
  8
0
100
AcDbLine
 62
7
  6
CONTINUOUS
 10
115.009776348
 20
127.1641167496
 11
115.009776348
 21
125.4885847998
  0
LINE
  5
252
100
AcDbEntity
  8
0
100
AcDbLine
 62
7
  6
CONTINUOUS
 10
115.291026348
 20
125.2013507914
 11
115.291026348
 21
127.4513507914
  0
LINE
  5
253
100
AcDbEntity
  8
0
100
AcDbLine
 62
7
  6
CONTINUOUS
 10
113.462901348
 20
126.9247550425
 11
113.4160265268
 21
126.6853933689
  0
LINE
  5
254
100
AcDbEntity
  8
0
100
AcDbLine
 62
7
  6
CONTINUOUS
 10
113.6972765268
 20
126.6853933689
 11
113.744151348
 21
126.8768827078
  0
LINE
  5
255
100
AcDbEntity
  8
0
100
AcDbLine
 62
7
  6
CONTINUOUS
 10
121.8458800593
 20
137.8419757914
 11
121.7022630551
 21
137.7482257467
  0
LINE
  5
256
100
AcDbEntity
  8
0
100
AcDbLine
 62
7
  6
CONTINUOUS
 10
123.3299226703
 20
138.6857257914
 11
123.1863056661
 21
138.5919757467
  0
LINE
  5
257
100
AcDbEntity
  8
0
100
AcDbLine
 62
7
  6
CONTINUOUS
 10
122.1331141011
 20
135.7794758809
 11
121.989497097
 21
135.7326007914
  0
LINE
  5
258
100
AcDbEntity
  8
0
100
AcDbLine
 62
7
  6
CONTINUOUS
 10
121.462901348
 20
131.2794756126
 11
121.989497097
 21
131.2794756126
  0
LINE
  5
259
100
AcDbEntity
  8
0
100
AcDbLine
 62
7
  6
CONTINUOUS
 10
122.2767311053
 20
131.2794756126
 11
123.712901348
 21
131.2794756126
  0
LINE
  5
25A
100
AcDbEntity
  8
0
100
AcDbLine
 62
7
  6
CONTINUOUS
 10
123.712901348
 20
131.5138507914
 11
121.462901348
 21
131.5138507914
  0
LINE
  5
25B
100
AcDbEntity
  8
0
100
AcDbLine
 62
7
  6
CONTINUOUS
 10
122.6118375154
 20
129.7794754338
 11
122.4203481765
 21
129.8263507914
  0
LINE
  5
25C
100
AcDbEntity
  8
0
100
AcDbLine
 62
7
  6
CONTINUOUS
 10
122.3724758418
 20
129.5919761491
 11
122.5160928459
 21
129.5451007914
  0
LINE
  5
25D
100
AcDbEntity
  8
0
100
AcDbLine
 62
7
  6
CONTINUOUS
 10
121.1756673062
 20
128.6076011491
 11
121.0799226367
 21
128.6544754338
  0
LINE
  5
25E
100
AcDbEntity
  8
0
100
AcDbLine
 62
7
  6
CONTINUOUS
 10
121.6543907037
 20
128.6076011491
 11
121.7501353899
 21
128.5607257914
  0
LINE
  5
25F
100
AcDbEntity
  8
0
100
AcDbLine
 62
7
  6
CONTINUOUS
 10
120.8884332643
 20
128.5138504338
 11
121.0320502685
 21
128.4201007914
  0
LINE
  5
260
100
AcDbEntity
  8
0
100
AcDbLine
 62
7
  6
CONTINUOUS
 10
117.3066513033
 20
126.9247550425
 11
117.2129012586
 21
127.1162444149
  0
LINE
  5
261
100
AcDbEntity
  8
0
100
AcDbLine
 62
7
  6
CONTINUOUS
 10
117.7754013927
 20
125.7279464734
 11
117.822276348
 21
125.5843294692
  0
LINE
  5
262
100
AcDbEntity
  8
0
100
AcDbLine
 62
7
  6
CONTINUOUS
 10
115.6660262586
 20
126.6853933689
 11
115.6660262586
 21
125.2013507914
  0
LINE
  5
263
100
AcDbEntity
  8
0
100
AcDbLine
 62
7
  6
CONTINUOUS
 10
115.9472762586
 20
125.2013507914
 11
115.9472762586
 21
126.6853933689
  0
LINE
  5
264
100
AcDbEntity
  8
0
100
AcDbLine
 62
7
  6
CONTINUOUS
 10
113.5566515268
 20
127.1162444149
 11
113.462901348
 21
126.9247550425
  0
LINE
  5
265
100
AcDbEntity
  8
0
100
AcDbLine
 62
7
  6
CONTINUOUS
 10
122.5160928459
 20
138.6388508362
 11
122.4203481765
 21
138.5451007914
  0
LINE
  5
266
100
AcDbEntity
  8
0
100
AcDbLine
 62
7
  6
CONTINUOUS
 10
123.3299226703
 20
138.4044757914
 11
123.5214120091
 21
138.5451007914
  0
LINE
  5
267
100
AcDbEntity
  8
0
100
AcDbLine
 62
7
  6
CONTINUOUS
 10
122.3724758418
 20
136.529475702
 11
122.1809864359
 21
136.4357257914
  0
LINE
  5
268
100
AcDbEntity
  8
0
100
AcDbLine
 62
7
  6
CONTINUOUS
 10
121.989497097
 20
135.7326007914
 11
121.7980077246
 21
135.6388508809
  0
LINE
  5
269
100
AcDbEntity
  8
0
100
AcDbLine
 62
7
  6
CONTINUOUS
 10
122.7075821848
 20
129.7326011491
 11
122.6118375154
 21
129.7794754338
  0
LINE
  5
26A
100
AcDbEntity
  8
0
100
AcDbLine
 62
7
  6
CONTINUOUS
 10
121.989497097
 20
128.5607257914
 11
121.8458800593
 21
128.6544754338
  0
LINE
  5
26B
100
AcDbEntity
  8
0
100
AcDbLine
 62
7
  6
CONTINUOUS
 10
117.7285263033
 20
127.4513507914
 11
118.1504013033
 21
126.3502869588
  0
LINE
  5
26C
100
AcDbEntity
  8
0
100
AcDbLine
 62
7
  6
CONTINUOUS
 10
118.4316513704
 20
126.4460316282
 11
118.0566513927
 21
127.4513507914
  0
LINE
  5
26D
100
AcDbEntity
  8
0
100
AcDbLine
 62
7
  6
CONTINUOUS
 10
118.103526348
 20
125.5843294692
 11
118.0566513927
 21
125.7279464734
  0
LINE
  5
26E
100
AcDbEntity
  8
0
100
AcDbLine
 62
7
  6
CONTINUOUS
 10
117.0254014374
 20
126.8768827078
 11
117.0722762586
 21
126.6853933689
  0
LINE
  5
26F
100
AcDbEntity
  8
0
100
AcDbLine
 62
7
  6
CONTINUOUS
 10
117.3535263927
 20
126.6853933689
 11
117.3066513033
 21
126.9247550425
  0
LINE
  5
270
100
AcDbEntity
  8
0
100
AcDbLine
 62
7
  6
CONTINUOUS
 10
117.0722762586
 20
126.6853933689
 11
117.0722762586
 21
125.2013507914
  0
LINE
  5
271
100
AcDbEntity
  8
0
100
AcDbLine
 62
7
  6
CONTINUOUS
 10
117.3535263927
 20
125.2013507914
 11
117.3535263927
 21
126.6853933689
  0
LINE
  5
272
100
AcDbEntity
  8
0
100
AcDbLine
 62
7
  6
CONTINUOUS
 10
115.712901348
 20
126.9247550425
 11
115.6660262586
 21
126.6853933689
  0
LINE
  5
273
100
AcDbEntity
  8
0
100
AcDbLine
 62
7
  6
CONTINUOUS
 10
115.9472762586
 20
126.6853933689
 11
115.994151348
 21
126.8768827078
  0
LINE
  5
274
100
AcDbEntity
  8
0
100
AcDbLine
 62
7
  6
CONTINUOUS
 10
121.6543907037
 20
139.6701007914
 11
121.5107736869
 21
139.4357257803
  0
LINE
  5
275
100
AcDbEntity
  8
0
100
AcDbLine
 62
7
  6
CONTINUOUS
 10
113.744151348
 20
126.8768827078
 11
113.8379015268
 21
127.0204997119
  0
LINE
  5
276
100
AcDbEntity
  8
0
100
AcDbLine
 62
7
  6
CONTINUOUS
 10
121.7501353899
 20
139.3888507914
 11
121.8458800593
 21
139.5294757914
  0
LINE
  5
277
100
AcDbEntity
  8
0
100
AcDbLine
 62
7
  6
CONTINUOUS
 10
122.5639651807
 20
138.3576008362
 11
122.7075821848
 21
138.4982258362
  0
LINE
  5
278
100
AcDbEntity
  8
0
100
AcDbLine
 62
7
  6
CONTINUOUS
 10
121.7980077246
 20
137.513850702
 11
121.8937524275
 21
137.6076008809
  0
LINE
  5
279
100
AcDbEntity
  8
0
100
AcDbLine
 62
7
  6
CONTINUOUS
 10
122.3724758418
 20
136.248225702
 11
122.5160928459
 21
136.3419758809
  0
LINE
  5
27A
100
AcDbEntity
  8
0
100
AcDbLine
 62
7
  6
CONTINUOUS
 10
123.3299226703
 20
136.5763507914
 11
123.1863056661
 21
136.4826008809
  0
LINE
  5
27B
100
AcDbEntity
  8
0
100
AcDbLine
 62
7
  6
CONTINUOUS
 10
121.8458800593
 20
135.3576006126
 11
122.1331141011
 21
135.545100702
  0
LINE
  5
27C
100
AcDbEntity
  8
0
100
AcDbLine
 62
7
  6
CONTINUOUS
 10
123.0426885278
 20
134.1857257914
 11
123.1863056661
 21
134.2326006126
  0
LINE
  5
27D
100
AcDbEntity
  8
0
100
AcDbLine
 62
7
  6
CONTINUOUS
 10
122.8033268543
 20
134.1388509703
 11
123.0426885278
 21
134.1857257914
  0
LINE
  5
27E
100
AcDbEntity
  8
0
100
AcDbLine
 62
7
  6
CONTINUOUS
 10
123.0426885278
 20
134.4201009703
 11
122.7554545195
 21
134.3732256126
  0
LINE
  5
27F
100
AcDbEntity
  8
BEZUGSACHSEN
100
AcDbLine
 62
7
  6
CONTINUOUS
 10
118.712901348
 20
133.8513507914
 11
114.212901348
 21
133.8513507914
  0
LINE
  5
280
100
AcDbEntity
  8
0
100
AcDbLine
 62
7
  6
CONTINUOUS
 10
122.5160928459
 20
129.5451007914
 11
122.6597098501
 21
129.4513511491
  0
LINE
  5
281
100
AcDbEntity
  8
0
100
AcDbLine
 62
7
  6
CONTINUOUS
 10
121.0799226367
 20
128.6544754338
 11
120.9363055991
 21
128.7951004338
  0
LINE
  5
282
100
AcDbEntity
  8
0
100
AcDbLine
 62
7
  6
CONTINUOUS
 10
121.5586460258
 20
128.7013507914
 11
121.6543907037
 21
128.6076011491
  0
LINE
  5
283
100
AcDbEntity
  8
0
100
AcDbLine
 62
7
  6
CONTINUOUS
 10
117.7754013927
 20
125.9194359463
 11
117.7754013927
 21
125.7279464734
  0
LINE
  5
284
100
AcDbEntity
  8
0
100
AcDbLine
 62
7
  6
CONTINUOUS
 10
118.0566513927
 20
125.7279464734
 11
118.0566513927
 21
125.8715636116
  0
LINE
  5
285
100
AcDbEntity
  8
0
100
AcDbLine
 62
7
  6
CONTINUOUS
 10
115.8066512586
 20
127.1162444149
 11
115.712901348
 21
126.9247550425
  0
LINE
  5
286
100
AcDbEntity
  8
0
100
AcDbLine
 62
7
  6
CONTINUOUS
 10
121.7022630551
 20
137.7482257467
 11
121.6065183689
 21
137.6076008809
  0
LINE
  5
287
100
AcDbEntity
  8
0
100
AcDbLine
 62
7
  6
CONTINUOUS
 10
122.6118375154
 20
138.7794758362
 11
122.5160928459
 21
138.6388508362
  0
LINE
  5
288
100
AcDbEntity
  8
0
100
AcDbLine
 62
7
  6
CONTINUOUS
 10
113.744151348
 20
127.3077337705
 11
113.5566515268
 21
127.1162444149
  0
LINE
  5
289
100
AcDbEntity
  8
0
100
AcDbLine
 62
7
  6
CONTINUOUS
 10
121.7980077246
 20
135.6388508809
 11
121.6543907037
 21
135.4982258809
  0
LINE
  5
28A
100
AcDbEntity
  8
0
100
AcDbLine
 62
7
  6
CONTINUOUS
 10
123.1863056661
 20
134.2326006126
 11
123.377795005
 21
134.3263507914
  0
LINE
  5
28B
100
AcDbEntity
  8
0
100
AcDbLine
 62
7
  6
CONTINUOUS
 10
123.1863056661
 20
136.248225702
 11
123.377795005
 21
136.2951007914
  0
LINE
  5
28C
100
AcDbEntity
  8
0
100
AcDbLine
 62
7
  6
CONTINUOUS
 10
122.1809864359
 20
136.2013508809
 11
122.3724758418
 21
136.248225702
  0
LINE
  5
28D
100
AcDbEntity
  8
0
100
AcDbLine
 62
7
  6
CONTINUOUS
 10
122.3724758418
 20
135.826350702
 11
122.1331141011
 21
135.7794758809
  0
LINE
  5
28E
100
AcDbEntity
  8
0
100
AcDbLine
 62
7
  6
CONTINUOUS
 10
122.1331141011
 20
135.545100702
 11
122.4203481765
 21
135.5919757914
  0
LINE
  5
28F
100
AcDbEntity
  8
0
100
AcDbLine
 62
7
  6
CONTINUOUS
 10
122.3724758418
 20
134.1388509703
 11
122.8033268543
 21
134.1388509703
  0
LINE
  5
290
100
AcDbEntity
  8
0
100
AcDbLine
 62
7
  6
CONTINUOUS
 10
122.7554545195
 20
134.3732256126
 11
122.4203481765
 21
134.3732256126
  0
LINE
  5
291
100
AcDbEntity
  8
0
100
AcDbLine
 62
7
  6
CONTINUOUS
 10
120.7926885949
 20
128.6544754338
 11
120.8884332643
 21
128.5138504338
  0
LINE
  5
292
100
AcDbEntity
  8
KONSTRUKTIONSELEMENTE
100
AcDbLine
 62
7
  6
CONTINUOUS
 10
118.712901348
 20
131.0013507914
 11
118.712901348
 21
141.7513507914
  0
LINE
  5
293
100
AcDbEntity
  8
0
100
AcDbLine
 62
7
  6
CONTINUOUS
 10
119.228526348
 20
127.4513507914
 11
119.228526348
 21
126.4460316282
  0
LINE
  5
294
100
AcDbEntity
  8
0
100
AcDbLine
 62
7
  6
CONTINUOUS
 10
119.228526348
 20
126.1587976199
 11
119.228526348
 21
125.440712465
  0
LINE
  5
295
100
AcDbEntity
  8
0
100
AcDbLine
 62
7
  6
CONTINUOUS
 10
119.509776348
 20
125.2013507914
 11
119.509776348
 21
127.4513507914
  0
LINE
  5
296
100
AcDbEntity
  8
0
100
AcDbLine
 62
7
  6
CONTINUOUS
 10
121.7022630551
 20
139.2482257914
 11
121.7501353899
 21
139.3888507914
  0
LINE
  5
297
100
AcDbEntity
  8
0
100
AcDbLine
 62
7
  6
CONTINUOUS
 10
121.6065183689
 20
137.6076008809
 11
121.5107736869
 21
137.4201007914
  0
LINE
  5
298
100
AcDbEntity
  8
0
100
AcDbLine
 62
7
  6
CONTINUOUS
 10
121.7501353899
 20
137.4201007914
 11
121.7980077246
 21
137.513850702
  0
LINE
  5
299
100
AcDbEntity
  8
0
100
AcDbLine
 62
7
  6
CONTINUOUS
 10
122.7075821848
 20
138.4982258362
 11
122.851199189
 21
138.7326007467
  0
LINE
  5
29A
100
AcDbEntity
  8
0
100
AcDbLine
 62
7
  6
CONTINUOUS
 10
121.6543907037
 20
135.4982258809
 11
121.5107736869
 21
135.2638509703
  0
LINE
  5
29B
100
AcDbEntity
  8
0
100
AcDbLine
 62
7
  6
CONTINUOUS
 10
123.5214120091
 20
138.5451007914
 11
123.6650290133
 21
138.7794758362
  0
LINE
  5
29C
100
AcDbEntity
  8
0
100
AcDbLine
 62
7
  6
CONTINUOUS
 10
115.994151348
 20
126.8768827078
 11
116.0879012586
 21
127.0204997119
  0
LINE
  5
29D
100
AcDbEntity
  8
0
100
AcDbLine
 62
7
  6
CONTINUOUS
 10
123.4256673397
 20
138.8263507914
 11
123.3299226703
 21
138.6857257914
  0
LINE
  5
29E
100
AcDbEntity
  8
0
100
AcDbLine
 62
7
  6
CONTINUOUS
 10
122.4682205112
 20
136.670100702
 11
122.3724758418
 21
136.529475702
  0
LINE
  5
29F
100
AcDbEntity
  8
0
100
AcDbLine
 62
7
  6
CONTINUOUS
 10
121.7501353899
 20
135.2169756126
 11
121.8458800593
 21
135.3576006126
  0
LINE
  5
2A0
100
AcDbEntity
  8
0
100
AcDbLine
 62
7
  6
CONTINUOUS
 10
123.377795005
 20
136.2951007914
 11
123.5692843439
 21
136.4826008809
  0
LINE
  5
2A1
100
AcDbEntity
  8
0
100
AcDbLine
 62
7
  6
CONTINUOUS
 10
123.3299226703
 20
134.6076007914
 11
123.0426885278
 21
134.4201009703
  0
LINE
  5
2A2
100
AcDbEntity
  8
0
100
AcDbLine
 62
7
  6
CONTINUOUS
 10
122.4203481765
 20
135.5919757914
 11
122.7554545195
 21
135.5919757914
  0
LINE
  5
2A3
100
AcDbEntity
  8
0
100
AcDbLine
 62
7
  6
CONTINUOUS
 10
122.8033268543
 20
135.826350702
 11
122.3724758418
 21
135.826350702
  0
LINE
  5
2A4
100
AcDbEntity
  8
0
100
AcDbLine
 62
7
  6
CONTINUOUS
 10
122.4203481765
 20
134.3732256126
 11
122.1331141011
 21
134.4201009703
  0
LINE
  5
2A5
100
AcDbEntity
  8
0
100
AcDbLine
 62
7
  6
CONTINUOUS
 10
122.1331141011
 20
134.1857257914
 11
122.3724758418
 21
134.1388509703
  0
LINE
  5
2A6
100
AcDbEntity
  8
0
100
AcDbLine
 62
7
  6
CONTINUOUS
 10
122.3724758418
 20
130.9044754338
 11
122.9948161931
 21
130.3888507914
  0
LINE
  5
2A7
100
AcDbEntity
  8
0
100
AcDbLine
 62
7
  6
CONTINUOUS
 10
122.9948161931
 20
130.6701007914
 11
122.2767311053
 21
131.2794756126
  0
LINE
  5
2A8
100
AcDbEntity
  8
0
100
AcDbLine
 62
7
  6
CONTINUOUS
 10
122.851199189
 20
129.5919761491
 11
122.7075821848
 21
129.7326011491
  0
LINE
  5
2A9
100
AcDbEntity
  8
0
100
AcDbLine
 62
7
  6
CONTINUOUS
 10
121.989497097
 20
131.2794756126
 11
122.2288587706
 21
131.0451009703
  0
LINE
  5
2AA
100
AcDbEntity
  8
0
100
AcDbLine
 62
7
  6
CONTINUOUS
 10
121.8458800593
 20
128.6544754338
 11
121.7501353899
 21
128.7951004338
  0
LINE
  5
2AB
100
AcDbEntity
  8
0
100
AcDbLine
 62
7
  6
CONTINUOUS
 10
121.5107736869
 20
128.7951004338
 11
121.5586460258
 21
128.7013507914
  0
LINE
  5
2AC
100
AcDbEntity
  8
0
100
AcDbLine
 62
7
  6
CONTINUOUS
 10
120.7448162602
 20
128.7951004338
 11
120.7926885949
 21
128.6544754338
  0
LINE
  5
2AD
100
AcDbEntity
  8
0
100
AcDbLine
 62
7
  6
CONTINUOUS
 10
121.5107736869
 20
139.4357257803
 11
121.462901348
 21
139.2013507691
  0
LINE
  5
2AE
100
AcDbEntity
  8
0
100
AcDbLine
 62
7
  6
CONTINUOUS
 10
121.5107736869
 20
137.4201007914
 11
121.462901348
 21
137.232600702
  0
LINE
  5
2AF
100
AcDbEntity
  8
0
100
AcDbLine
 62
7
  6
CONTINUOUS
 10
117.822276348
 20
126.0630529505
 11
117.7754013927
 21
125.9194359463
  0
LINE
  5
2B0
100
AcDbEntity
  8
0
100
AcDbLine
 62
7
  6
CONTINUOUS
 10
118.0566513927
 20
125.8715636116
 11
118.103526348
 21
126.0151806158
  0
LINE
  5
2B1
100
AcDbEntity
  8
0
100
AcDbLine
 62
7
  6
CONTINUOUS
 10
122.6597098501
 20
138.9201007691
 11
122.6118375154
 21
138.7794758362
  0
LINE
  5
2B2
100
AcDbEntity
  8
0
100
AcDbLine
 62
7
  6
CONTINUOUS
 10
123.4256673397
 20
136.7169757914
 11
123.3299226703
 21
136.5763507914
  0
LINE
  5
2B3
100
AcDbEntity
  8
0
100
AcDbLine
 62
7
  6
CONTINUOUS
 10
115.994151348
 20
127.3077337705
 11
115.8066512586
 21
127.1162444149
  0
LINE
  5
2B4
100
AcDbEntity
  8
0
100
AcDbLine
 62
7
  6
CONTINUOUS
 10
123.377795005
 20
134.3263507914
 11
123.5214120091
 21
134.4669757914
  0
LINE
  5
2B5
100
AcDbEntity
  8
0
100
AcDbLine
 62
7
  6
CONTINUOUS
 10
113.8379015268
 20
127.0204997119
 11
113.9785265268
 21
127.1162444149
  0
LINE
  5
2B6
100
AcDbEntity
  8
0
100
AcDbLine
 62
7
  6
CONTINUOUS
 10
113.9316511692
 20
127.4034784525
 11
113.744151348
 21
127.3077337705
  0
LINE
  5
2B7
100
AcDbEntity
  8
0
100
AcDbLine
 62
7
  6
CONTINUOUS
 10
121.989497097
 20
136.2013508809
 11
122.1809864359
 21
136.2013508809
  0
LINE
  5
2B8
100
AcDbEntity
  8
0
100
AcDbLine
 62
7
  6
CONTINUOUS
 10
123.0905608626
 20
136.248225702
 11
123.1863056661
 21
136.248225702
  0
LINE
  5
2B9
100
AcDbEntity
  8
0
100
AcDbLine
 62
7
  6
CONTINUOUS
 10
122.1809864359
 20
136.4357257914
 11
121.989497097
 21
136.4357257914
  0
LINE
  5
2BA
100
AcDbEntity
  8
0
100
AcDbLine
 62
7
  6
CONTINUOUS
 10
123.1863056661
 20
136.4826008809
 11
123.0905608626
 21
136.4826008809
  0
LINE
  5
2BB
100
AcDbEntity
  8
0
100
AcDbLine
 62
7
  6
CONTINUOUS
 10
122.7554545195
 20
135.5919757914
 11
123.0426885278
 21
135.545100702
  0
LINE
  5
2BC
100
AcDbEntity
  8
0
100
AcDbLine
 62
7
  6
CONTINUOUS
 10
121.989497097
 20
134.2326006126
 11
122.1331141011
 21
134.1857257914
  0
LINE
  5
2BD
100
AcDbEntity
  8
0
100
AcDbLine
 62
7
  6
CONTINUOUS
 10
121.7980077246
 20
134.3263507914
 11
121.989497097
 21
134.2326006126
  0
LINE
  5
2BE
100
AcDbEntity
  8
0
100
AcDbLine
 62
7
  6
CONTINUOUS
 10
122.9469438584
 20
129.4513511491
 11
122.851199189
 21
129.5919761491
  0
LINE
  5
2BF
100
AcDbEntity
  8
0
100
AcDbLine
 62
7
  6
CONTINUOUS
 10
122.6597098501
 20
129.4513511491
 11
122.7554545195
 21
129.2638507914
  0
LINE
  5
2C0
100
AcDbEntity
  8
0
100
AcDbLine
 62
7
  6
CONTINUOUS
 10
120.6969439255
 20
128.9826007914
 11
120.7448162602
 21
128.7951004338
  0
LINE
  5
2C1
100
AcDbEntity
  8
0
100
AcDbLine
 62
7
  6
CONTINUOUS
 10
120.9363055991
 20
128.7951004338
 11
120.8884332643
 21
128.9826007914
  0
LINE
  5
2C2
100
AcDbEntity
  8
0
100
AcDbLine
 62
7
  6
CONTINUOUS
 10
121.462901348
 20
128.9826007914
 11
121.5107736869
 21
128.7951004338
  0
LINE
  5
2C3
100
AcDbEntity
  8
0
100
AcDbLine
 62
7
  6
CONTINUOUS
 10
120.6969439255
 20
129.2638507914
 11
120.6969439255
 21
128.9826007914
  0
LINE
  5
2C4
100
AcDbEntity
  8
0
100
AcDbLine
 62
7
  6
CONTINUOUS
 10
120.8884332643
 20
128.9826007914
 11
120.8884332643
 21
129.2638507914
  0
LINE
  5
2C5
100
AcDbEntity
  8
0
100
AcDbLine
 62
7
  6
CONTINUOUS
 10
121.2714119924
 20
129.5919761491
 11
121.2714119924
 21
129.8263507914
  0
LINE
  5
2C6
100
AcDbEntity
  8
0
100
AcDbLine
 62
7
  6
CONTINUOUS
 10
121.462901348
 20
139.2013507691
 11
121.462901348
 21
138.9669757914
  0
LINE
  5
2C7
100
AcDbEntity
  8
0
100
AcDbLine
 62
7
  6
CONTINUOUS
 10
121.462901348
 20
137.232600702
 11
121.462901348
 21
136.8576007914
  0
LINE
  5
2C8
100
AcDbEntity
  8
0
100
AcDbLine
 62
7
  6
CONTINUOUS
 10
121.462901348
 20
131.5138507914
 11
121.462901348
 21
131.2794756126
  0
LINE
  5
2C9
100
AcDbEntity
  8
0
100
AcDbLine
 62
7
  6
CONTINUOUS
 10
121.462901348
 20
130.4826004338
 11
121.462901348
 21
130.2013504338
  0
LINE
  5
2CA
100
AcDbEntity
  8
0
100
AcDbLine
 62
7
  6
CONTINUOUS
 10
121.462901348
 20
129.2638507914
 11
121.462901348
 21
128.9826007914
  0
LINE
  5
2CB
100
AcDbEntity
  8
0
100
AcDbLine
 62
7
  6
CONTINUOUS
 10
121.5107736869
 20
135.2638509703
 11
121.462901348
 21
134.9826009703
  0
LINE
  5
2CC
100
AcDbEntity
  8
0
100
AcDbLine
 62
7
  6
CONTINUOUS
 10
121.7022630551
 20
137.1857258809
 11
121.7501353899
 21
137.4201007914
  0
LINE
  5
2CD
100
AcDbEntity
  8
0
100
AcDbLine
 62
7
  6
CONTINUOUS
 10
121.7022630551
 20
134.9826009703
 11
121.7501353899
 21
135.2169756126
  0
LINE
  5
2CE
100
AcDbEntity
  8
0
100
AcDbLine
 62
7
  6
CONTINUOUS
 10
122.851199189
 20
138.7326007467
 11
122.8990715237
 21
138.9669757914
  0
LINE
  5
2CF
100
AcDbEntity
  8
0
100
AcDbLine
 62
7
  6
CONTINUOUS
 10
120.7448162602
 20
129.4513511491
 11
120.6969439255
 21
129.2638507914
  0
LINE
  5
2D0
100
AcDbEntity
  8
0
100
AcDbLine
 62
7
  6
CONTINUOUS
 10
123.4735396744
 20
138.9669757914
 11
123.4256673397
 21
138.8263507914
  0
LINE
  5
2D1
100
AcDbEntity
  8
0
100
AcDbLine
 62
7
  6
CONTINUOUS
 10
122.5160928459
 20
136.3419758809
 11
122.6118375154
 21
136.5763507914
  0
LINE
  5
2D2
100
AcDbEntity
  8
0
100
AcDbLine
 62
7
  6
CONTINUOUS
 10
123.5692843439
 20
136.4826008809
 11
123.6650290133
 21
136.670100702
  0
LINE
  5
2D3
100
AcDbEntity
  8
0
100
AcDbLine
 62
7
  6
CONTINUOUS
 10
123.4256673397
 20
134.7482257914
 11
123.3299226703
 21
134.6076007914
  0
LINE
  5
2D4
100
AcDbEntity
  8
0
100
AcDbLine
 62
7
  6
CONTINUOUS
 10
117.962901348
 20
126.2545422894
 11
117.822276348
 21
126.0630529505
  0
LINE
  5
2D5
100
AcDbEntity
  8
0
100
AcDbLine
 62
7
  6
CONTINUOUS
 10
121.462901348
 20
130.2013504338
 11
122.3724758418
 21
130.9044754338
  0
LINE
  5
2D6
100
AcDbEntity
  8
0
100
AcDbLine
 62
7
  6
CONTINUOUS
 10
122.2288587706
 20
131.0451009703
 11
121.462901348
 21
130.4826004338
  0
LINE
  5
2D7
100
AcDbEntity
  8
0
100
AcDbLine
 62
7
  6
CONTINUOUS
 10
116.0879012586
 20
127.0204997119
 11
116.2285262586
 21
127.1162444149
  0
LINE
  5
2D8
100
AcDbEntity
  8
0
100
AcDbLine
 62
7
  6
CONTINUOUS
 10
116.1816514374
 20
127.4034784525
 11
115.994151348
 21
127.3077337705
  0
LINE
  5
2D9
100
AcDbEntity
  8
0
100
AcDbLine
 62
7
  6
CONTINUOUS
 10
121.8458800593
 20
129.7794754338
 11
121.7501353899
 21
129.7326011491
  0
LINE
  5
2DA
100
AcDbEntity
  8
0
100
AcDbLine
 62
7
  6
CONTINUOUS
 10
121.2714119924
 20
129.8263507914
 11
120.9841779338
 21
129.7326011491
  0
LINE
  5
2DB
100
AcDbEntity
  8
0
100
AcDbLine
 62
7
  6
CONTINUOUS
 10
121.1277949715
 20
129.5451007914
 11
121.2714119924
 21
129.5919761491
  0
LINE
  5
2DC
100
AcDbEntity
  8
0
100
AcDbLine
 62
7
  6
CONTINUOUS
 10
121.9416247623
 20
129.5451007914
 11
122.0852417664
 21
129.5919761491
  0
LINE
  5
2DD
100
AcDbEntity
  8
0
100
AcDbLine
 62
7
  6
CONTINUOUS
 10
122.7075821848
 20
137.1388507914
 11
122.5160928459
 21
137.1388507914
  0
LINE
  5
2DE
100
AcDbEntity
  8
0
100
AcDbLine
 62
7
  6
CONTINUOUS
 10
123.0426885278
 20
135.7794758809
 11
122.8033268543
 21
135.826350702
  0
LINE
  5
2DF
100
AcDbEntity
  8
0
100
AcDbLine
 62
7
  6
CONTINUOUS
 10
122.8990715237
 20
136.2951007914
 11
123.0905608626
 21
136.248225702
  0
LINE
  5
2E0
100
AcDbEntity
  8
0
100
AcDbLine
 62
7
  6
CONTINUOUS
 10
123.1863056661
 20
135.7326007914
 11
123.0426885278
 21
135.7794758809
  0
LINE
  5
2E1
100
AcDbEntity
  8
0
100
AcDbLine
 62
7
  6
CONTINUOUS
 10
121.8458800593
 20
136.248225702
 11
121.989497097
 21
136.2013508809
  0
LINE
  5
2E2
100
AcDbEntity
  8
0
100
AcDbLine
 62
7
  6
CONTINUOUS
 10
122.1331141011
 20
134.4201009703
 11
121.8458800593
 21
134.6076007914
  0
LINE
  5
2E3
100
AcDbEntity
  8
0
100
AcDbLine
 62
7
  6
CONTINUOUS
 10
121.6543907037
 20
134.4669757914
 11
121.7980077246
 21
134.3263507914
  0
LINE
  5
2E4
100
AcDbEntity
  8
0
100
AcDbLine
 62
7
  6
CONTINUOUS
 10
121.7501353899
 20
128.7951004338
 11
121.7022630551
 21
128.9826007914
  0
LINE
  5
2E5
100
AcDbEntity
  8
0
100
AcDbLine
 62
7
  6
CONTINUOUS
 10
121.7022630551
 20
128.9826007914
 11
121.7022630551
 21
129.1701011491
  0
LINE
  5
2E6
100
AcDbEntity
  8
0
100
AcDbLine
 62
7
  6
CONTINUOUS
 10
121.7022630551
 20
136.9044758809
 11
121.7022630551
 21
137.1857258809
  0
LINE
  5
2E7
100
AcDbEntity
  8
0
100
AcDbLine
 62
7
  6
CONTINUOUS
 10
121.7022630551
 20
138.9201007691
 11
121.7022630551
 21
139.2482257914
  0
LINE
  5
2E8
100
AcDbEntity
  8
0
100
AcDbLine
 62
7
  6
CONTINUOUS
 10
121.989497097
 20
137.654475702
 11
121.989497097
 21
137.8888507467
  0
LINE
  5
2E9
100
AcDbEntity
  8
0
100
AcDbLine
 62
7
  6
CONTINUOUS
 10
122.5160928459
 20
137.1388507914
 11
122.5160928459
 21
136.951350702
  0
LINE
  5
2EA
100
AcDbEntity
  8
0
100
AcDbLine
 62
7
  6
CONTINUOUS
 10
122.5160928459
 20
136.951350702
 11
122.4682205112
 21
136.670100702
  0
LINE
  5
2EB
100
AcDbEntity
  8
0
100
AcDbLine
 62
7
  6
CONTINUOUS
 10
123.6650290133
 20
138.7794758362
 11
123.712901348
 21
139.0138508138
  0
LINE
  5
2EC
100
AcDbEntity
  8
0
100
AcDbLine
 62
7
  6
CONTINUOUS
 10
123.4735396744
 20
136.951350702
 11
123.4256673397
 21
136.7169757914
  0
LINE
  5
2ED
100
AcDbEntity
  8
0
100
AcDbLine
 62
7
  6
CONTINUOUS
 10
121.5107736869
 20
129.4513511491
 11
121.462901348
 21
129.2638507914
  0
LINE
  5
2EE
100
AcDbEntity
  8
0
100
AcDbLine
 62
7
  6
CONTINUOUS
 10
121.7022630551
 20
129.1701011491
 11
121.7501353899
 21
129.3576004338
  0
LINE
  5
2EF
100
AcDbEntity
  8
0
100
AcDbLine
 62
7
  6
CONTINUOUS
 10
120.8884332643
 20
129.2638507914
 11
120.9841779338
 21
129.4513511491
  0
LINE
  5
2F0
100
AcDbEntity
  8
0
100
AcDbLine
 62
7
  6
CONTINUOUS
 10
123.5214120091
 20
134.4669757914
 11
123.6650290133
 21
134.7013509703
  0
LINE
  5
2F1
100
AcDbEntity
  8
0
100
AcDbLine
 62
7
  6
CONTINUOUS
 10
120.8405609296
 20
129.5919761491
 11
120.7448162602
 21
129.4513511491
  0
LINE
  5
2F2
100
AcDbEntity
  8
0
100
AcDbLine
 62
7
  6
CONTINUOUS
 10
121.6065183689
 20
129.5919761491
 11
121.5107736869
 21
129.4513511491
  0
LINE
  5
2F3
100
AcDbEntity
  8
0
100
AcDbLine
 62
7
  6
CONTINUOUS
 10
118.103526348
 20
126.0151806158
 11
118.1972763927
 21
126.1109252852
  0
LINE
  5
2F4
100
AcDbEntity
  8
0
100
AcDbLine
 62
7
  6
CONTINUOUS
 10
120.9841779338
 20
129.7326011491
 11
120.8405609296
 21
129.5919761491
  0
LINE
  5
2F5
100
AcDbEntity
  8
0
100
AcDbLine
 62
7
  6
CONTINUOUS
 10
121.7501353899
 20
129.7326011491
 11
121.6065183689
 21
129.5919761491
  0
LINE
  5
2F6
100
AcDbEntity
  8
0
100
AcDbLine
 62
7
  6
CONTINUOUS
 10
120.9841779338
 20
129.4513511491
 11
121.1277949715
 21
129.5451007914
  0
LINE
  5
2F7
100
AcDbEntity
  8
0
100
AcDbLine
 62
7
  6
CONTINUOUS
 10
121.8458800593
 20
129.4982254338
 11
121.9416247623
 21
129.5451007914
  0
LINE
  5
2F8
100
AcDbEntity
  8
0
100
AcDbLine
 62
7
  6
CONTINUOUS
 10
122.0852417664
 20
138.2638507914
 11
122.3246035071
 21
138.2638507914
  0
LINE
  5
2F9
100
AcDbEntity
  8
0
100
AcDbLine
 62
7
  6
CONTINUOUS
 10
122.2767311053
 20
138.4982258362
 11
122.1331141011
 21
138.4982258362
  0
LINE
  5
2FA
100
AcDbEntity
  8
BEZUGSACHSEN
100
AcDbLine
 62
7
  6
CONTINUOUS
 10
118.712901348
 20
138.6513507914
 11
114.212901348
 21
138.6513507914
  0
LINE
  5
2FB
100
AcDbEntity
  8
0
100
AcDbLine
 62
7
  6
CONTINUOUS
 10
123.377795005
 20
135.6388508809
 11
123.1863056661
 21
135.7326007914
  0
LINE
  5
2FC
100
AcDbEntity
  8
0
100
AcDbLine
 62
7
  6
CONTINUOUS
 10
121.989497097
 20
136.4357257914
 11
121.8937524275
 21
136.4826008809
  0
LINE
  5
2FD
100
AcDbEntity
  8
0
100
AcDbLine
 62
7
  6
CONTINUOUS
 10
121.7022630551
 20
136.3419758809
 11
121.8458800593
 21
136.248225702
  0
LINE
  5
2FE
100
AcDbEntity
  8
0
100
AcDbLine
 62
7
  6
CONTINUOUS
 10
123.0426885278
 20
135.545100702
 11
123.3299226703
 21
135.3576006126
  0
LINE
  5
2FF
100
AcDbEntity
  8
0
100
AcDbLine
 62
7
  6
CONTINUOUS
 10
121.8458800593
 20
134.6076007914
 11
121.7501353899
 21
134.7482257914
  0
LINE
  5
300
100
AcDbEntity
  8
0
100
AcDbLine
 62
7
  6
CONTINUOUS
 10
121.5107736869
 20
134.7013509703
 11
121.6543907037
 21
134.4669757914
  0
LINE
  5
301
100
AcDbEntity
  8
0
100
AcDbLine
 62
7
  6
CONTINUOUS
 10
122.9948161931
 20
129.2638507914
 11
122.9469438584
 21
129.4513511491
  0
LINE
  5
302
100
AcDbEntity
  8
0
100
AcDbLine
 62
7
  6
CONTINUOUS
 10
121.462901348
 20
136.8576007914
 11
121.5107736869
 21
136.670100702
  0
LINE
  5
303
100
AcDbEntity
  8
0
100
AcDbLine
 62
7
  6
CONTINUOUS
 10
121.7501353899
 20
134.7482257914
 11
121.7022630551
 21
134.9826009703
  0
LINE
  5
304
100
AcDbEntity
  8
0
100
AcDbLine
 62
7
  6
CONTINUOUS
 10
121.7501353899
 20
136.670100702
 11
121.7022630551
 21
136.9044758809
  0
LINE
  5
305
100
AcDbEntity
  8
0
100
AcDbLine
 62
7
  6
CONTINUOUS
 10
121.462901348
 20
134.9826009703
 11
121.5107736869
 21
134.7013509703
  0
LINE
  5
306
100
AcDbEntity
  8
0
100
AcDbLine
 62
7
  6
CONTINUOUS
 10
122.6597098501
 20
139.2482257914
 11
122.6597098501
 21
138.9201007691
  0
LINE
  5
307
100
AcDbEntity
  8
0
100
AcDbLine
 62
7
  6
CONTINUOUS
 10
122.7075821848
 20
136.951350702
 11
122.7075821848
 21
137.1388507914
  0
LINE
  5
308
100
AcDbEntity
  8
0
100
AcDbLine
 62
7
  6
CONTINUOUS
 10
122.7554545195
 20
129.2638507914
 11
122.7554545195
 21
128.9826007914
  0
LINE
  5
309
100
AcDbEntity
  8
0
100
AcDbLine
 62
7
  6
CONTINUOUS
 10
122.8990715237
 20
138.9669757914
 11
122.8990715237
 21
139.2013507691
  0
LINE
  5
30A
100
AcDbEntity
  8
0
100
AcDbLine
 62
7
  6
CONTINUOUS
 10
122.9948161931
 20
128.3263511491
 11
122.9948161931
 21
128.5607257914
  0
LINE
  5
30B
100
AcDbEntity
  8
0
100
AcDbLine
 62
7
  6
CONTINUOUS
 10
122.9948161931
 20
128.9826007914
 11
122.9948161931
 21
129.2638507914
  0
LINE
  5
30C
100
AcDbEntity
  8
0
100
AcDbLine
 62
7
  6
CONTINUOUS
 10
122.9948161931
 20
130.3888507914
 11
122.9948161931
 21
130.6701007914
  0
LINE
  5
30D
100
AcDbEntity
  8
0
100
AcDbLine
 62
7
  6
CONTINUOUS
 10
123.1863056661
 20
138.5919757467
 11
123.1863056661
 21
138.3576008362
  0
LINE
  5
30E
100
AcDbEntity
  8
0
100
AcDbLine
 62
7
  6
CONTINUOUS
 10
123.1863056661
 20
137.8419757914
 11
123.1863056661
 21
137.6076008809
  0
LINE
  5
30F
100
AcDbEntity
  8
0
100
AcDbLine
 62
7
  6
CONTINUOUS
 10
123.4735396744
 20
139.2482257914
 11
123.4735396744
 21
138.9669757914
  0
LINE
  5
310
100
AcDbEntity
  8
0
100
AcDbLine
 62
7
  6
CONTINUOUS
 10
123.4735396744
 20
137.1388507914
 11
123.4735396744
 21
136.951350702
  0
LINE
  5
311
100
AcDbEntity
  8
0
100
AcDbLine
 62
7
  6
CONTINUOUS
 10
123.6650290133
 20
136.670100702
 11
123.712901348
 21
136.9982257914
  0
LINE
  5
312
100
AcDbEntity
  8
0
100
AcDbLine
 62
7
  6
CONTINUOUS
 10
123.6650290133
 20
134.7013509703
 11
123.712901348
 21
134.9826009703
  0
LINE
  5
313
100
AcDbEntity
  8
0
100
AcDbLine
 62
7
  6
CONTINUOUS
 10
123.4735396744
 20
134.9826009703
 11
123.4256673397
 21
134.7482257914
  0
LINE
  5
314
100
AcDbEntity
  8
0
100
AcDbLine
 62
7
  6
CONTINUOUS
 10
122.7554545195
 20
128.9826007914
 11
122.7075821848
 21
128.7951004338
  0
LINE
  5
315
100
AcDbEntity
  8
0
100
AcDbLine
 62
7
  6
CONTINUOUS
 10
121.7501353899
 20
129.3576004338
 11
121.8458800593
 21
129.4982254338
  0
LINE
  5
316
100
AcDbEntity
  8
0
100
AcDbLine
 62
7
  6
CONTINUOUS
 10
122.6118375154
 20
128.6544754338
 11
122.4682205112
 21
128.5607257914
  0
LINE
  5
317
100
AcDbEntity
  8
0
100
AcDbLine
 62
7
  6
CONTINUOUS
 10
118.1504013033
 20
126.3502869588
 11
117.962901348
 21
126.2545422894
  0
LINE
  5
318
100
AcDbEntity
  8
0
100
AcDbLine
 62
7
  6
CONTINUOUS
 10
122.7075821848
 20
128.5607257914
 11
122.8033268543
 21
128.6076011491
  0
LINE
  5
319
100
AcDbEntity
  8
0
100
AcDbLine
 62
7
  6
CONTINUOUS
 10
118.1972763927
 20
126.1109252852
 11
118.3379013927
 21
126.1587976199
  0
LINE
  5
31A
100
AcDbEntity
  8
0
100
AcDbLine
 62
7
  6
CONTINUOUS
 10
122.4203481765
 20
139.9513507914
 11
122.0852417664
 21
139.9044757901
  0
LINE
  5
31B
100
AcDbEntity
  8
0
100
AcDbLine
 62
7
  6
CONTINUOUS
 10
122.1331141011
 20
139.6701007914
 11
122.2767311053
 21
139.6701007914
  0
LINE
  5
31C
100
AcDbEntity
  8
0
100
AcDbLine
 62
7
  6
CONTINUOUS
 10
122.6597098501
 20
139.716975797
 11
122.7554545195
 21
139.716975797
  0
LINE
  5
31D
100
AcDbEntity
  8
0
100
AcDbLine
 62
7
  6
CONTINUOUS
 10
123.377795005
 20
137.7951008362
 11
123.1863056661
 21
137.8419757914
  0
LINE
  5
31E
100
AcDbEntity
  8
0
100
AcDbLine
 62
7
  6
CONTINUOUS
 10
123.0905608626
 20
136.4826008809
 11
122.8990715237
 21
136.5763507914
  0
LINE
  5
31F
100
AcDbEntity
  8
0
100
AcDbLine
 62
7
  6
CONTINUOUS
 10
122.7554545195
 20
136.388850702
 11
122.8990715237
 21
136.2951007914
  0
LINE
  5
320
100
AcDbEntity
  8
0
100
AcDbLine
 62
7
  6
CONTINUOUS
 10
121.8937524275
 20
136.4826008809
 11
121.7980077246
 21
136.5763507914
  0
LINE
  5
321
100
AcDbEntity
  8
0
100
AcDbLine
 62
7
  6
CONTINUOUS
 10
123.5214120091
 20
135.4982258809
 11
123.377795005
 21
135.6388508809
  0
LINE
  5
322
100
AcDbEntity
  8
0
100
AcDbLine
 62
7
  6
CONTINUOUS
 10
121.6065183689
 20
136.4826008809
 11
121.7022630551
 21
136.3419758809
  0
LINE
  5
323
100
AcDbEntity
  8
0
100
AcDbLine
 62
7
  6
CONTINUOUS
 10
121.5107736869
 20
136.670100702
 11
121.6065183689
 21
136.4826008809
  0
LINE
  5
324
100
AcDbEntity
  8
0
100
AcDbLine
 62
7
  6
CONTINUOUS
 10
121.7980077246
 20
136.5763507914
 11
121.7501353899
 21
136.670100702
  0
LINE
  5
325
100
AcDbEntity
  8
0
100
AcDbLine
 62
7
  6
CONTINUOUS
 10
121.7501353899
 20
138.7794758362
 11
121.7022630551
 21
138.9201007691
  0
LINE
  5
326
100
AcDbEntity
  8
0
100
AcDbLine
 62
7
  6
CONTINUOUS
 10
121.462901348
 20
138.9669757914
 11
121.5107736869
 21
138.7326007467
  0
LINE
  5
327
100
AcDbEntity
  8
0
100
AcDbLine
 62
7
  6
CONTINUOUS
 10
123.712901348
 20
131.2794756126
 11
123.712901348
 21
131.5138507914
  0
LINE
  5
328
100
AcDbEntity
  8
0
100
AcDbLine
 62
7
  6
CONTINUOUS
 10
123.712901348
 20
136.9982257914
 11
123.712901348
 21
137.091975702
  0
LINE
  5
329
100
AcDbEntity
  8
0
100
AcDbLine
 62
7
  6
CONTINUOUS
 10
123.712901348
 20
139.0138508138
 11
123.712901348
 21
139.2013507691
  0
LINE
  5
32A
100
AcDbEntity
  8
0
100
AcDbLine
 62
7
  6
CONTINUOUS
 10
122.9469438584
 20
128.7951004338
 11
122.9948161931
 21
128.9826007914
  0
LINE
  5
32B
100
AcDbEntity
  8
0
100
AcDbLine
 62
7
  6
CONTINUOUS
 10
122.8990715237
 20
128.7013507914
 11
122.9469438584
 21
128.7951004338
  0
LINE
  5
32C
100
AcDbEntity
  8
0
100
AcDbLine
 62
7
  6
CONTINUOUS
 10
122.7075821848
 20
128.7951004338
 11
122.6118375154
 21
128.6544754338
  0
LINE
  5
32D
100
AcDbEntity
  8
0
100
AcDbLine
 62
7
  6
CONTINUOUS
 10
122.8033268543
 20
128.6076011491
 11
122.8990715237
 21
128.7013507914
  0
LINE
  5
32E
100
AcDbEntity
  8
0
100
AcDbLine
 62
7
  6
CONTINUOUS
 10
122.7554545195
 20
139.9513507914
 11
122.4203481765
 21
139.9513507914
  0
LINE
  5
32F
100
AcDbEntity
  8
FASEN
100
AcDbLine
 62
7
  6
CONTINUOUS
 10
107.0954043504
 20
140.7513507914
 11
104.462901348
 21
140.7513507914
  0
LINE
  5
330
100
AcDbEntity
  8
FASEN
100
AcDbLine
 62
7
  6
CONTINUOUS
 10
125.8303983456
 20
140.7513507914
 11
128.462901348
 21
140.7513507914
  0
LINE
  5
331
100
AcDbEntity
  8
0
100
AcDbLine
 62
7
  6
CONTINUOUS
 10
123.0905608626
 20
139.9044757901
 11
122.7554545195
 21
139.9513507914
  0
LINE
  5
332
100
AcDbEntity
  8
0
100
AcDbLine
 62
7
  6
CONTINUOUS
 10
122.7554545195
 20
139.716975797
 11
123.0426885278
 21
139.6701007914
  0
LINE
  5
333
100
AcDbEntity
  8
0
100
AcDbLine
 62
7
  6
CONTINUOUS
 10
122.1331141011
 20
138.4982258362
 11
121.989497097
 21
138.5451007914
  0
LINE
  5
334
100
AcDbEntity
  8
0
100
AcDbLine
 62
7
  6
CONTINUOUS
 10
121.8458800593
 20
138.3576008362
 11
122.0852417664
 21
138.2638507914
  0
LINE
  5
335
100
AcDbEntity
  8
0
100
AcDbLine
 62
7
  6
CONTINUOUS
 10
123.1863056661
 20
137.6076008809
 11
123.3299226703
 21
137.513850702
  0
LINE
  5
336
100
AcDbEntity
  8
0
100
AcDbLine
 62
7
  6
CONTINUOUS
 10
121.989497097
 20
138.5451007914
 11
121.8458800593
 21
138.6388508362
  0
LINE
  5
337
100
AcDbEntity
  8
0
100
AcDbLine
 62
7
  6
CONTINUOUS
 10
121.6543907037
 20
138.4982258362
 11
121.8458800593
 21
138.3576008362
  0
LINE
  5
338
100
AcDbEntity
  8
0
100
AcDbLine
 62
7
  6
CONTINUOUS
 10
122.8990715237
 20
136.5763507914
 11
122.8033268543
 21
136.670100702
  0
LINE
  5
339
100
AcDbEntity
  8
0
100
AcDbLine
 62
7
  6
CONTINUOUS
 10
122.6118375154
 20
136.5763507914
 11
122.7554545195
 21
136.388850702
  0
LINE
  5
33A
100
AcDbEntity
  8
0
100
AcDbLine
 62
7
  6
CONTINUOUS
 10
123.3299226703
 20
135.3576006126
 11
123.4256673397
 21
135.2169756126
  0
LINE
  5
33B
100
AcDbEntity
  8
0
100
AcDbLine
 62
7
  6
CONTINUOUS
 10
121.8458800593
 20
138.6388508362
 11
121.7501353899
 21
138.7794758362
  0
LINE
  5
33C
100
AcDbEntity
  8
0
100
AcDbLine
 62
7
  6
CONTINUOUS
 10
121.5107736869
 20
138.7326007467
 11
121.6543907037
 21
138.4982258362
  0
LINE
  5
33D
100
AcDbEntity
  8
0
100
AcDbLine
 62
7
  6
CONTINUOUS
 10
123.6650290133
 20
135.2638509703
 11
123.5214120091
 21
135.4982258809
  0
LINE
  5
33E
100
AcDbEntity
  8
0
100
AcDbLine
 62
7
  6
CONTINUOUS
 10
122.8033268543
 20
136.670100702
 11
122.7075821848
 21
136.951350702
  0
LINE
  5
33F
100
AcDbEntity
  8
0
100
AcDbLine
 62
7
  6
CONTINUOUS
 10
122.6118375154
 20
139.3888507914
 11
122.6597098501
 21
139.2482257914
  0
LINE
  5
340
100
AcDbEntity
  8
0
100
AcDbLine
 62
7
  6
CONTINUOUS
 10
123.4256673397
 20
135.2169756126
 11
123.4735396744
 21
134.9826009703
  0
LINE
  5
341
100
AcDbEntity
  8
0
100
AcDbLine
 62
7
  6
CONTINUOUS
 10
122.8990715237
 20
139.2013507691
 11
122.851199189
 21
139.4357257803
  0
LINE
  5
342
100
AcDbEntity
  8
0
100
AcDbLine
 62
7
  6
CONTINUOUS
 10
123.4256673397
 20
137.373225702
 11
123.4735396744
 21
137.1388507914
  0
LINE
  5
343
100
AcDbEntity
  8
0
100
AcDbLine
 62
7
  6
CONTINUOUS
 10
123.712901348
 20
134.9826009703
 11
123.6650290133
 21
135.2638509703
  0
LINE
  5
344
100
AcDbEntity
  8
0
100
AcDbLine
 62
7
  6
CONTINUOUS
 10
123.712901348
 20
137.091975702
 11
123.6650290133
 21
137.4201007914
  0
LINE
  5
345
100
AcDbEntity
  8
FASEN
100
AcDbLine
 62
7
  6
CONTINUOUS
 10
105.4649767264
 20
141.7513507914
 11
114.212901348
 21
141.7513507914
  0
LINE
  5
346
100
AcDbEntity
  8
FASEN
100
AcDbLine
 62
7
  6
CONTINUOUS
 10
118.712901348
 20
141.7513507914
 11
127.4608259696
 21
141.7513507914
  0
LINE
  5
347
100
AcDbEntity
  8
0
100
AcDbLine
 62
7
  6
CONTINUOUS
 10
122.2767311053
 20
139.6701007914
 11
122.4203481765
 21
139.6232258026
  0
LINE
  5
348
100
AcDbEntity
  8
0
100
AcDbLine
 62
7
  6
CONTINUOUS
 10
123.0426885278
 20
139.6701007914
 11
123.1863056661
 21
139.6232258026
  0
LINE
  5
349
100
AcDbEntity
  8
0
100
AcDbLine
 62
7
  6
CONTINUOUS
 10
123.3299226703
 20
139.8107257914
 11
123.0905608626
 21
139.9044757901
  0
LINE
  5
34A
100
AcDbEntity
  8
0
100
AcDbLine
 62
7
  6
CONTINUOUS
 10
123.5692843439
 20
137.6076008809
 11
123.377795005
 21
137.7951008362
  0
LINE
  5
34B
100
AcDbEntity
  8
0
100
AcDbLine
 62
7
  6
CONTINUOUS
 10
122.4203481765
 20
139.6232258026
 11
122.5160928459
 21
139.5294757914
  0
LINE
  5
34C
100
AcDbEntity
  8
0
100
AcDbLine
 62
7
  6
CONTINUOUS
 10
123.3299226703
 20
137.513850702
 11
123.4256673397
 21
137.373225702
  0
LINE
  5
34D
100
AcDbEntity
  8
0
100
AcDbLine
 62
7
  6
CONTINUOUS
 10
122.5160928459
 20
139.5294757914
 11
122.6118375154
 21
139.3888507914
  0
LINE
  5
34E
100
AcDbEntity
  8
0
100
AcDbLine
 62
7
  6
CONTINUOUS
 10
122.851199189
 20
139.4357257803
 11
122.6597098501
 21
139.716975797
  0
LINE
  5
34F
100
AcDbEntity
  8
0
100
AcDbLine
 62
7
  6
CONTINUOUS
 10
123.6650290133
 20
137.4201007914
 11
123.5692843439
 21
137.6076008809
  0
LINE
  5
350
100
AcDbEntity
  8
0
100
AcDbLine
 62
7
  6
CONTINUOUS
 10
123.4256673397
 20
139.3888507914
 11
123.4735396744
 21
139.2482257914
  0
LINE
  5
351
100
AcDbEntity
  8
0
100
AcDbLine
 62
7
  6
CONTINUOUS
 10
123.712901348
 20
139.2013507691
 11
123.6650290133
 21
139.4357257803
  0
LINE
  5
352
100
AcDbEntity
  8
FASEN
100
AcDbLine
 62
7
  6
CONTINUOUS
 10
125.8303983456
 20
140.7513507914
 11
125.8303983456
 21
125.7513507914
  0
LINE
  5
353
100
AcDbEntity
  8
0
100
AcDbLine
 62
7
  6
CONTINUOUS
 10
123.1863056661
 20
139.6232258026
 11
123.3299226703
 21
139.5294757914
  0
LINE
  5
354
100
AcDbEntity
  8
0
100
AcDbLine
 62
7
  6
CONTINUOUS
 10
123.5214120091
 20
139.6701007914
 11
123.3299226703
 21
139.8107257914
  0
LINE
  5
355
100
AcDbEntity
  8
0
100
AcDbLine
 62
7
  6
CONTINUOUS
 10
123.3299226703
 20
139.5294757914
 11
123.4256673397
 21
139.3888507914
  0
LINE
  5
356
100
AcDbEntity
  8
0
100
AcDbLine
 62
7
  6
CONTINUOUS
 10
123.6650290133
 20
139.4357257803
 11
123.5214120091
 21
139.6701007914
  0
LINE
  5
357
100
AcDbEntity
  8
KONSTRUKTIONSELEMENTE
100
AcDbLine
 62
7
  6
CONTINUOUS
 10
128.462901348
 20
140.7513507914
 11
128.462901348
 21
125.7513507914
  0
LINE
  5
358
100
AcDbEntity
  8
FASEN
100
AcDbLine
 62
7
  6
CONTINUOUS
 10
128.462901348
 20
125.7513507914
 11
126.462901348
 21
123.7513507914
  0
LINE
  5
359
100
AcDbEntity
  8
FASEN
100
AcDbLine
 62
7
  6
CONTINUOUS
 10
127.462901348
 20
141.7513507914
 11
128.462901348
 21
140.7513507914
  0
LINE
  5
35A
100
AcDbEntity
  8
FASEN
100
AcDbLine
 62
7
  6
CONTINUOUS
 10
173.4809057471
 20
123.7513507914
 11
158.4809057471
 21
123.7513507914
  0
LINE
  5
35B
100
AcDbEntity
  8
FASEN
100
AcDbLine
 62
7
  6
CONTINUOUS
 10
158.4809057471
 20
141.7513507914
 11
158.4809057471
 21
123.7513507914
  0
LINE
  5
35C
100
AcDbEntity
  8
FASEN
100
AcDbLine
 62
7
  6
CONTINUOUS
 10
173.4809057471
 20
125.7513507914
 11
158.4809057471
 21
125.7513507914
  0
LINE
  5
35D
100
AcDbEntity
  8
FASEN
100
AcDbLine
 62
7
  6
CONTINUOUS
 10
173.4809057471
 20
141.7513507914
 11
173.4809057471
 21
123.7513507914
  0
LINE
  5
35E
100
AcDbEntity
  8
FASEN
100
AcDbLine
 62
7
  6
CONTINUOUS
 10
173.4809057471
 20
140.7513507914
 11
158.4809057471
 21
140.7513507914
  0
LINE
  5
35F
100
AcDbEntity
  8
FASEN
100
AcDbLine
 62
7
  6
CONTINUOUS
 10
173.4809057471
 20
141.7513507914
 11
158.4809057471
 21
141.7513507914
  0
ARC
  5
360
100
AcDbEntity
  8
FASEN
100
AcDbCircle
 62
7
  6
CONTINUOUS
 10
139.7603807316
 20
98.9810062175
 40
53.02605367
100
AcDbArc
 50
126.2357997376
 51
128.0258900357
  0
ARC
  5
361
100
AcDbEntity
  8
FASEN
100
AcDbCircle
 62
7
  6
CONTINUOUS
 10
93.1654219644
 20
98.9810062174
 40
53.02605367
100
AcDbArc
 50
51.9741099643
 51
53.7642002624
  0
ARC
  5
362
100
AcDbEntity
  8
KONSTRUKTIONSELEMENTE
100
AcDbCircle
 62
7
  6
CONTINUOUS
 10
116.462901348
 20
131.0013507914
 40
2.25
100
AcDbArc
 50
180.0
 51
360.0
  0
CIRCLE
  5
363
100
AcDbEntity
  8
BEZUGSACHSEN
100
AcDbCircle
 62
7
  6
CONTINUOUS
 10
108.762901348
 20
136.2513507914
 40
1.25
  0
SPLINE
  5
364
100
AcDbEntity
  8
FASEN
100
AcDbSpline
 62
7
  6
CONTINUOUS
 70
0
 71
3
 72
9
 73
5
 74
0
 42
0.0000001
 43
0.0000001
 44
0.0000000001
 40
0.0
 40
0.0
 40
0.0
 40
0.0
 40
0.5000074102
 40
1.0
 40
1.0
 40
1.0
 40
1.0
 10
107.0954043504
 20
125.7513507914
 30
0.0
 10
107.5425570242
 20
125.4022923473
 30
0.0
 10
108.4462525035
 20
124.7161199287
 30
0.0
 10
109.375407046
 20
124.0642876269
 30
0.0
 10
109.8485230704
 20
123.7513507914
 30
0.0
  0
SPLINE
  5
365
100
AcDbEntity
  8
FASEN
100
AcDbSpline
 62
7
  6
CONTINUOUS
 70
0
 71
3
 72
9
 73
5
 74
0
 42
0.0000001
 43
0.0000001
 44
0.0000000001
 40
0.0
 40
0.0
 40
0.0
 40
0.0
 40
0.5000074102
 40
1.0
 40
1.0
 40
1.0
 40
1.0
 10
125.8303983456
 20
125.7513507914
 30
0.0
 10
125.3832456718
 20
125.4022923473
 30
0.0
 10
124.4795501926
 20
124.7161199287
 30
0.0
 10
123.5503956501
 20
124.0642876269
 30
0.0
 10
123.0772796257
 20
123.7513507914
 30
0.0
  0
ENDSEC
  0
SECTION
  2
OBJECTS
  0
DICTIONARY
  5
C
100
AcDbDictionary
280
0
281
1
  3
ACAD_GROUP
350
D
  3
ACAD_MLINESTYLE
350
17
  3
ACAD_LAYOUT
350
1A
  3
ACAD_PLOTSETTINGS
350
19
  3
ACAD_PLOTSTYLENAME
350
E
  0
DICTIONARY
  5
D
102
{ACAD_REACTORS
330
C
102
}
100
AcDbDictionary
280
0
281
1
  0
ACDBDICTIONARYWDFLT
  5
E
102
{ACAD_REACTORS
330
C
102
}
100
AcDbDictionary
281
1
  3
Normal
350
F
100
AcDbDictionaryWithDefault
340
F
  0
DICTIONARY
  5
17
102
{ACAD_REACTORS
330
C
102
}
100
AcDbDictionary
280
0
281
1
  3
Standard
350
18
  0
DICTIONARY
  5
19
102
{ACAD_REACTORS
330
C
102
}
100
AcDbDictionary
281
1
  0
DICTIONARY
  5
1A
102
{ACAD_REACTORS
330
C
102
}
100
AcDbDictionary
281
1
  3
Model
350
366
  3
Layout1
350
367
  0
ACDBPLACEHOLDER
  5
F
102
{ACAD_REACTORS
330
E
102
}
  0
MLINESTYLE
  5
18
102
{ACAD_REACTORS
330
17
102
}
100
AcDbMlineStyle
  2
STANDARD
 70
0
  3

 62
256
 51
90.0
 52
90.0
 71
2
 49
0.5
 62
256
  6
BYLAYER
 49
-0.5
 62
256
  6
BYLAYER
  0
LAYOUT
  5
366
102
{ACAD_REACTORS
330
1A
102
}
100
AcDbPlotSettings
  1

  2
none_device
  4
ISO_A4_(297.00_x_210.00_MM)
  6

 40
0.0
 41
0.0
 42
0.0
 43
0.0
 44
297.0
 45
210.0
 46
0.0
 47
0.0
 48
0.0
 49
0.0
140
0.0
141
0.0
142
1.0
143
1.0
 70
1024
 72
1
 73
0
 74
0
  7

 75
0
147
1.0
148
0.0
149
0.0
100
AcDbLayout
  1
Model
 70
0
 71
0
 10
0.0
 20
0.0
 11
297.0
 21
210.0
 12
0.0
 22
0.0
 32
0.0
 14
0.0
 24
0.0
 34
0.0
 15
0.0
 25
0.0
 35
0.0
146
0.0
 13
0.0
 23
0.0
 33
0.0
 16
1.0
 26
0.0
 36
0.0
 17
0.0
 27
1.0
 37
0.0
 76
0
330
207
345
0
346
0
  0
LAYOUT
  5
367
102
{ACAD_REACTORS
330
1A
102
}
100
AcDbPlotSettings
  1

  2
none_device
  4
ISO_A4_(297.00_x_210.00_MM)
  6

 40
0.0
 41
0.0
 42
0.0
 43
0.0
 44
297.0
 45
210.0
 46
0.0
 47
0.0
 48
0.0
 49
0.0
140
0.0
141
0.0
142
1.0
143
1.0
 70
0
 72
1
 73
0
 74
0
  7

 75
0
147
1.0
148
0.0
149
0.0
100
AcDbLayout
  1
Layout1
 70
0
 71
1
 10
0.0
 20
0.0
 11
297.0
 21
210.0
 12
0.0
 22
0.0
 32
0.0
 14
0.0
 24
0.0
 34
0.0
 15
0.0
 25
0.0
 35
0.0
146
0.0
 13
0.0
 23
0.0
 33
0.0
 16
1.0
 26
0.0
 36
0.0
 17
0.0
 27
1.0
 37
0.0
 76
0
330
208
345
0
346
0
  0
ENDSEC
  0
EOF
