999
DXF file: 001-m31798-p-10.dxf
999
Pro/ENGINEER 2011490 by Parametric Technology Corporation
  0
SECTION
  2
HEADER
  9
$ACADVER
  1
AC1015
  9
$DWGCODEPAGE
  3
ANSI_1252
  9
$EXTMAX
 10
297.0
 20
210.0
 30
0.0
  9
$EXTMIN
 10
0.0
 20
0.0
 30
0.0
  9
$LIMMIN
 10
0.0
 20
0.0
  9
$LIMMAX
 10
297.0
 20
210.0
  9
$VIEWCTR
 10
148.5
 20
105.0
  9
$VIEWSIZE
 40
210.0
  9
$CLAYER
  8
0
  9
$LTSCALE
 40
16.335
  9
$CELTYPE
  6
BYLAYER
  9
$DIMSCALE
 40
1.0
  9
$DIMASZ
 40
3.5
  9
$DIMEXO
 40
1.85625
  9
$DIMDLI
 40
11.286
  9
$DIMEXE
 40
5.346
  9
$DIMCEN
 40
2.673
  9
$DIMLFAC
 40
1.0
  9
$DIMBLK
  1
_FILLED
  9
$DIMTXT
 40
3.5
  9
$DIMTOL
 70
1
  9
$DIMLIM
 70
0
  9
$DIMTFAC
 40
1.0
  9
$DIMTP
 40
0.005
  9
$DIMTM
 40
0.005
  9
$PDMODE
 70
3
  9
$PDSIZE
 40
0.3125
  9
$HANDSEED
  5
4CB
  9
$TILEMODE
 70
1
  9
$MEASUREMENT
 70
1
  9
$INSUNITS
 70
4
  0
ENDSEC
  0
SECTION
  2
CLASSES
  0
CLASS
  1
ACDBDICTIONARYWDFLT
  2
AcDbDictionaryWithDefault
  3
AutoCAD 2000
 90
0
280
0
281
0
  0
CLASS
  1
ACDBPLACEHOLDER
  2
AcDbPlaceHolder
  3
AutoCAD 2000
 90
0
280
0
281
0
  0
CLASS
  1
LAYOUT
  2
AcDbLayout
  3
AutoCAD 2000
 90
0
280
0
281
0
  0
ENDSEC
  0
SECTION
  2
TABLES
  0
TABLE
  2
VPORT
  5
8
100
AcDbSymbolTable
 70
2
  0
VPORT
  5
1F4
100
AcDbSymbolTableRecord
100
AcDbViewportTableRecord
  2
*ACTIVE
 70
0
 10
0.0
 20
0.0
 11
1.0
 21
1.0
 12
148.5
 22
105.0
 13
0.0
 23
0.0
 14
1.0
 24
1.0
 15
0.0
 25
0.0
 16
0.0
 26
0.0
 36
1.0
 17
0.0
 27
0.0
 37
0.0
 40
210.0
 41
1.4142857143
 42
50.0
 43
0.0
 44
0.0
 50
0.0
 51
0.0
 71
0
 72
100
 73
1
 74
1
 75
0
 76
0
 77
0
 78
0
  0
ENDTAB
  0
TABLE
  2
LTYPE
  5
5
100
AcDbSymbolTable
 70
6
  0
LTYPE
  5
14
100
AcDbSymbolTableRecord
100
AcDbLinetypeTableRecord
  2
BYBLOCK
 70
0
  3

 72
65
 73
0
 40
0.0
  0
LTYPE
  5
15
100
AcDbSymbolTableRecord
100
AcDbLinetypeTableRecord
  2
BYLAYER
 70
0
  3

 72
65
 73
0
 40
0.0
  0
LTYPE
  5
16
100
AcDbSymbolTableRecord
100
AcDbLinetypeTableRecord
  2
CONTINUOUS
 70
64
  3
Solid line
 72
65
 73
0
 40
0.0
  0
LTYPE
  5
1F5
100
AcDbSymbolTableRecord
100
AcDbLinetypeTableRecord
  2
CENTER
 70
64
  3
____ _ ____ _ ____ _ ____ _ ____ _ ____ _ ____
 72
65
 73
4
 40
0.6
 49
0.375
 74
0
 49
-0.075
 74
0
 49
0.075
 74
0
 49
-0.075
 74
0
  0
LTYPE
  5
1F6
100
AcDbSymbolTableRecord
100
AcDbLinetypeTableRecord
  2
HIDDEN
 70
64
  3
- - - - - - - - - - - - - - - - - - - -
 72
65
 73
2
 40
0.2
 49
0.1
 74
0
 49
-0.1
 74
0
  0
LTYPE
  5
1F7
100
AcDbSymbolTableRecord
100
AcDbLinetypeTableRecord
  2
PHANTOM
 70
64
  3
_____ _ _ _____ _ _ _____ _ _ _____
 72
65
 73
6
 40
0.8
 49
0.45
 74
0
 49
-0.05
 74
0
 49
0.1
 74
0
 49
-0.05
 74
0
 49
0.1
 74
0
 49
-0.05
 74
0
  0
LTYPE
  5
1F8
100
AcDbSymbolTableRecord
100
AcDbLinetypeTableRecord
  2
DOT
 70
64
  3
. . . . . . . . . . . . . . . . . . . .
 72
65
 73
2
 40
0.2
 49
0.1
 74
0
 49
-0.1
 74
0
  0
LTYPE
  5
1F9
100
AcDbSymbolTableRecord
100
AcDbLinetypeTableRecord
  2
DASHED
 70
64
  3
- - - - - - - - - - - - - - - - - - - -
 72
65
 73
2
 40
0.2
 49
0.1
 74
0
 49
-0.1
 74
0
  0
ENDTAB
  0
TABLE
  2
LAYER
  5
2
100
AcDbSymbolTable
 70
36
  0
LAYER
  5
10
100
AcDbSymbolTableRecord
100
AcDbLayerTableRecord
  2
0
 70
0
 62
7
  6
CONTINUOUS
370
-3
390
F
  0
LAYER
  5
1FA
100
AcDbSymbolTableRecord
100
AcDbLayerTableRecord
  2
DEFAULT_1
 70
0
 62
7
  6
CENTER
370
-3
390
F
  0
LAYER
  5
1FB
100
AcDbSymbolTableRecord
100
AcDbLayerTableRecord
  2
DEFAULT_2
 70
0
 62
8
  6
HIDDEN
370
-3
390
F
  0
LAYER
  5
1FC
100
AcDbSymbolTableRecord
100
AcDbLayerTableRecord
  2
DEFAULT_3
 70
0
 62
7
  6
PHANTOM
370
-3
390
F
  0
LAYER
  5
1FD
100
AcDbSymbolTableRecord
100
AcDbLayerTableRecord
  2
BEZUGSACHSEN
 70
0
 62
7
  6
CONTINUOUS
370
-3
390
F
  0
LAYER
  5
1FE
100
AcDbSymbolTableRecord
100
AcDbLayerTableRecord
  2
BG_STARTBEZUEGE
 70
0
 62
7
  6
CONTINUOUS
370
-3
390
F
  0
LAYER
  5
1FF
100
AcDbSymbolTableRecord
100
AcDbLayerTableRecord
  2
FLAECHEN
 70
0
 62
7
  6
CONTINUOUS
370
-3
390
F
  0
LAYER
  5
200
100
AcDbSymbolTableRecord
100
AcDbLayerTableRecord
  2
HILFEN
 70
0
 62
7
  6
CONTINUOUS
370
-3
390
F
  0
LAYER
  5
201
100
AcDbSymbolTableRecord
100
AcDbLayerTableRecord
  2
KURVEN
 70
0
 62
7
  6
CONTINUOUS
370
-3
390
F
  0
LAYER
  5
202
100
AcDbSymbolTableRecord
100
AcDbLayerTableRecord
  2
NORM
 70
0
 62
7
  6
CONTINUOUS
370
-3
390
F
  0
LAYER
  5
203
100
AcDbSymbolTableRecord
100
AcDbLayerTableRecord
  2
PLATZIERUNG
 70
0
 62
7
  6
CONTINUOUS
370
-3
390
F
  0
LAYER
  5
204
100
AcDbSymbolTableRecord
100
AcDbLayerTableRecord
  2
RUNDUNGEN
 70
0
 62
7
  6
CONTINUOUS
370
-3
390
F
  0
LAYER
  5
205
100
AcDbSymbolTableRecord
100
AcDbLayerTableRecord
  2
T_STARTBEZUEGE
 70
0
 62
7
  6
CONTINUOUS
370
-3
390
F
  0
ENDTAB
  0
TABLE
  2
STYLE
  5
3
100
AcDbSymbolTable
 70
1
  0
STYLE
  5
11
100
AcDbSymbolTableRecord
100
AcDbTextStyleTableRecord
  2
STANDARD
 70
0
 40
0.0
 41
0.7
 50
0.0
 71
0
 42
0.2
  3
txt
  4

  0
STYLE
  5
206
100
AcDbSymbolTableRecord
100
AcDbTextStyleTableRecord
  2
TEXTSTYLE_1
 70
0
 40
0.0
 41
0.8
 50
0.0
 71
0
 42
0.2
  3
gdt
  4

  0
ENDTAB
  0
TABLE
  2
VIEW
  5
6
100
AcDbSymbolTable
 70
0
  0
ENDTAB
  0
TABLE
  2
UCS
  5
7
100
AcDbSymbolTable
 70
0
  0
ENDTAB
  0
TABLE
  2
APPID
  5
9
100
AcDbSymbolTable
 70
1
  0
APPID
  5
207
100
AcDbSymbolTableRecord
100
AcDbRegAppTableRecord
  2
ACAD
 70
0
  0
ENDTAB
  0
TABLE
  2
BLOCK_RECORD
  5
1
100
AcDbSymbolTable
 70
0
  0
BLOCK_RECORD
  5
208
100
AcDbSymbolTableRecord
100
AcDbBlockTableRecord
  2
*Model_Space
  0
BLOCK_RECORD
  5
209
100
AcDbSymbolTableRecord
100
AcDbBlockTableRecord
  2
*Paper_Space
  0
ENDTAB
  0
TABLE
  2
DIMSTYLE
  5
A
100
AcDbSymbolTable
 70
1
100
AcDbDimStyleTable
 71
0
  0
DIMSTYLE
105
20A
100
AcDbSymbolTableRecord
100
AcDbDimStyleTableRecord
  2
STANDARD
 70
0
  3

  4

 40
1.0
 41
3.5
 42
0.0625
 43
0.38
 44
0.18
 45
0.0
 46
0.0
 47
0.005
 48
0.005
140
3.5
141
0.09
142
0.0
143
25.4
144
1.0
145
0.0
146
1.0
147
0.09
 71
1.0
 72
0.0
 73
0
 74
0
 75
0
 76
0
 77
1
 78
8
170
0
171
2
172
0
173
0
174
0
175
0
176
0
177
0
178
5
270
2
271
3
272
3
273
2
274
2
275
0
280
0
281
0
282
0
283
1
284
8
285
0
286
0
287
3
288
0
340
11
  0
ENDTAB
  0
ENDSEC
  0
SECTION
  2
BLOCKS
  0
BLOCK
  5
20
100
AcDbEntity
  8
0
100
AcDbBlockBegin
  2
*Model_Space
 70
0
 10
0.0
 20
0.0
 30
0.0
  3
*Model_Space
  1

  0
ENDBLK
  5
21
100
AcDbEntity
  8
0
100
AcDbBlockEnd
  0
BLOCK
  5
1C
100
AcDbEntity
  8
0
100
AcDbBlockBegin
  2
*Paper_Space
 70
0
 10
0.0
 20
0.0
 30
0.0
  3
*Paper_Space
  1

  0
ENDBLK
  5
1D
100
AcDbEntity
  8
0
100
AcDbBlockEnd
  0
ENDSEC
  0
SECTION
  2
ENTITIES
  0
MTEXT
  5
20B
100
AcDbEntity
  8
0
100
AcDbMText
 62
5
  6
CONTINUOUS
  7
STANDARD
 71
1
 72
1
 10
192.0633596441
 20
138.6811797
 30
0.0
 11
0.0
 21
1.0
 31
0.0
 44
0.9
  1
INOX STAR 2t RUD
 40
4.0
 41
50.9523809524
  0
MTEXT
  5
20C
100
AcDbEntity
  8
0
100
AcDbMText
 62
5
  6
CONTINUOUS
  7
STANDARD
 71
1
 72
1
 10
68.300036632
 20
45.5156508919
 30
0.0
 11
1.0
 21
0.0
 31
0.0
 44
0.9
  1
INOX STAR 2t RUD
 40
4.0
 41
50.9523809524
  0
LINE
  5
20D
100
AcDbEntity
  8
0
100
AcDbLine
 62
7
  6
CONTINUOUS
 10
0.0
 20
0.0
 11
0.0
 21
210.0
  0
LINE
  5
20E
100
AcDbEntity
  8
0
100
AcDbLine
 62
7
  6
CONTINUOUS
 10
0.0
 20
0.0
 11
297.0
 21
0.0
  0
LINE
  5
20F
100
AcDbEntity
  8
0
100
AcDbLine
 62
7
  6
CONTINUOUS
 10
0.0
 20
210.0
 11
297.0
 21
210.0
  0
LINE
  5
210
100
AcDbEntity
  8
0
100
AcDbLine
 62
7
  6
CONTINUOUS
 10
297.0
 20
0.0
 11
297.0
 21
210.0
  0
LINE
  5
211
100
AcDbEntity
  8
0
100
AcDbLine
 62
7
  6
CONTINUOUS
 10
102.2786405341
 20
87.5882616006
 11
85.7786405341
 21
87.5882616006
  0
LINE
  5
212
100
AcDbEntity
  8
0
100
AcDbLine
 62
7
  6
CONTINUOUS
 10
104.0286405341
 20
89.3382616006
 11
84.0286405341
 21
89.3382616006
  0
LINE
  5
213
100
AcDbEntity
  8
0
100
AcDbLine
 62
7
  6
CONTINUOUS
 10
81.9490074192
 20
183.5682204914
 11
81.3388025338
 21
183.2997168035
  0
LINE
  5
214
100
AcDbEntity
  8
0
100
AcDbLine
 62
7
  6
CONTINUOUS
 10
81.5444649576
 20
182.8323257717
 11
82.1546698429
 21
183.1008294596
  0
LINE
  5
215
100
AcDbEntity
  8
0
100
AcDbLine
 62
7
  6
CONTINUOUS
 10
84.0286405341
 20
89.3382616006
 11
85.7786405341
 21
87.5882616006
  0
LINE
  5
216
100
AcDbEntity
  8
0
100
AcDbLine
 62
7
  6
CONTINUOUS
 10
70.0132937191
 20
174.4959873528
 11
68.7810875107
 21
172.920656321
  0
LINE
  5
217
100
AcDbEntity
  8
0
100
AcDbLine
 62
7
  6
CONTINUOUS
 10
69.4913511932
 20
172.999883276
 11
70.4155058495
 21
174.1813815498
  0
LINE
  5
218
100
AcDbEntity
  8
0
100
AcDbLine
 62
7
  6
CONTINUOUS
 10
70.3370388968
 20
174.7717472677
 11
70.0132937191
 21
174.4959873528
  0
LINE
  5
219
100
AcDbEntity
  8
0
100
AcDbLine
 62
7
  6
CONTINUOUS
 10
81.2736393673
 20
182.6201753265
 11
81.5444649576
 21
182.8323257717
  0
LINE
  5
21A
100
AcDbEntity
  8
0
100
AcDbLine
 62
7
  6
CONTINUOUS
 10
75.3573647267
 20
179.7220181624
 11
74.9625622441
 21
179.4152104055
  0
LINE
  5
21B
100
AcDbEntity
  8
0
100
AcDbLine
 62
7
  6
CONTINUOUS
 10
70.4155058495
 20
174.1813815498
 11
70.6879087102
 21
174.3915021709
  0
LINE
  5
21C
100
AcDbEntity
  8
0
100
AcDbLine
 62
7
  6
CONTINUOUS
 10
81.3388025338
 20
183.2997168035
 11
80.9917016057
 21
183.0540035172
  0
LINE
  5
21D
100
AcDbEntity
  8
0
100
AcDbLine
 62
7
  6
CONTINUOUS
 10
78.99755935
 20
182.1658894029
 11
78.5750131019
 21
181.8985793428
  0
LINE
  5
21E
100
AcDbEntity
  8
0
100
AcDbLine
 62
7
  6
CONTINUOUS
 10
76.8144037012
 20
180.7847874046
 11
76.1805843291
 21
180.3838223145
  0
LINE
  5
21F
100
AcDbEntity
  8
0
100
AcDbLine
 62
7
  6
CONTINUOUS
 10
78.3190648097
 20
177.0034523297
 11
78.7416110578
 21
177.2707623897
  0
LINE
  5
220
100
AcDbEntity
  8
0
100
AcDbLine
 62
7
  6
CONTINUOUS
 10
80.5022204584
 20
178.384554328
 11
81.1360398306
 21
178.7855194181
  0
LINE
  5
221
100
AcDbEntity
  8
0
100
AcDbLine
 62
7
  6
CONTINUOUS
 10
70.6764771125
 20
174.9294335882
 11
70.3370388968
 21
174.7717472677
  0
LINE
  5
222
100
AcDbEntity
  8
0
100
AcDbLine
 62
7
  6
CONTINUOUS
 10
83.3543674829
 20
180.3743813927
 11
82.7441625976
 21
180.1058777048
  0
LINE
  5
223
100
AcDbEntity
  8
0
100
AcDbLine
 62
7
  6
CONTINUOUS
 10
82.9498250454
 20
179.6384866185
 11
83.5600299307
 21
179.9069903064
  0
LINE
  5
224
100
AcDbEntity
  8
0
100
AcDbLine
 62
7
  6
CONTINUOUS
 10
70.6879087102
 20
174.3915021709
 11
70.9760051963
 21
174.4835499489
  0
LINE
  5
225
100
AcDbEntity
  8
0
100
AcDbLine
 62
7
  6
CONTINUOUS
 10
65.6302519665
 20
167.0894326375
 11
64.8878602053
 21
165.2323234665
  0
LINE
  5
226
100
AcDbEntity
  8
0
100
AcDbLine
 62
7
  6
CONTINUOUS
 10
65.4685877093
 20
165.5386450842
 11
66.0563144908
 21
167.0088564374
  0
LINE
  5
227
100
AcDbEntity
  8
0
100
AcDbLine
 62
7
  6
CONTINUOUS
 10
67.2417034034
 20
166.5349893237
 11
66.6539766219
 21
165.0647779705
  0
LINE
  5
228
100
AcDbEntity
  8
0
100
AcDbLine
 62
7
  6
CONTINUOUS
 10
68.0965408769
 20
171.8815948319
 11
67.8478910416
 21
171.4478054136
  0
LINE
  5
229
100
AcDbEntity
  8
0
100
AcDbLine
 62
7
  6
CONTINUOUS
 10
66.8532917002
 20
169.7126477406
 11
66.6046417463
 21
169.2788581155
  0
LINE
  5
22A
100
AcDbEntity
  8
0
100
AcDbLine
 62
7
  6
CONTINUOUS
 10
70.4607709371
 20
168.989564486
 11
70.2950043012
 21
168.7003714026
  0
LINE
  5
22B
100
AcDbEntity
  8
0
100
AcDbLine
 62
7
  6
CONTINUOUS
 10
65.8639428591
 20
167.4447393202
 11
65.6302519665
 21
167.0894326375
  0
LINE
  5
22C
100
AcDbEntity
  8
0
100
AcDbLine
 62
7
  6
CONTINUOUS
 10
72.7617436055
 20
172.3461807755
 11
71.8375889491
 21
171.1646825017
  0
LINE
  5
22D
100
AcDbEntity
  8
0
100
AcDbLine
 62
7
  6
CONTINUOUS
 10
71.9317495743
 20
170.456243904
 11
73.1639557828
 21
172.0315749359
  0
LINE
  5
22E
100
AcDbEntity
  8
0
100
AcDbLine
 62
7
  6
CONTINUOUS
 10
80.9917016057
 20
183.0540035172
 11
80.755153086
 21
182.7639545667
  0
LINE
  5
22F
100
AcDbEntity
  8
0
100
AcDbLine
 62
7
  6
CONTINUOUS
 10
66.0563144908
 20
167.0088564374
 11
66.2281393737
 21
167.2094039487
  0
LINE
  5
230
100
AcDbEntity
  8
0
100
AcDbLine
 62
7
  6
CONTINUOUS
 10
70.4569786689
 20
168.1272634768
 11
70.7380232804
 21
168.4464311459
  0
LINE
  5
231
100
AcDbEntity
  8
0
100
AcDbLine
 62
7
  6
CONTINUOUS
 10
70.2950043012
 20
168.7003714026
 11
70.0554014144
 21
168.4535021041
  0
LINE
  5
232
100
AcDbEntity
  8
0
100
AcDbLine
 62
7
  6
CONTINUOUS
 10
83.6251930732
 20
180.586531838
 11
83.3543674829
 21
180.3743813927
  0
LINE
  5
233
100
AcDbEntity
  8
0
100
AcDbLine
 62
7
  6
CONTINUOUS
 10
77.4170242992
 20
176.2567905443
 11
77.8118267818
 21
176.5635983011
  0
LINE
  5
234
100
AcDbEntity
  8
0
100
AcDbLine
 62
7
  6
CONTINUOUS
 10
83.5600299307
 20
179.9069903064
 11
83.9071312923
 21
180.1527037915
  0
LINE
  5
235
100
AcDbEntity
  8
0
100
AcDbLine
 62
7
  6
CONTINUOUS
 10
70.1435390378
 20
167.9227171469
 11
70.4569786689
 21
168.1272634768
  0
LINE
  5
236
100
AcDbEntity
  8
0
100
AcDbLine
 62
7
  6
CONTINUOUS
 10
66.224752528
 20
167.6594840365
 11
65.8639428591
 21
167.4447393202
  0
LINE
  5
237
100
AcDbEntity
  8
0
100
AcDbLine
 62
7
  6
CONTINUOUS
 10
70.0554014144
 20
168.4535021041
 11
69.7834034692
 21
168.321254167
  0
LINE
  5
238
100
AcDbEntity
  8
0
100
AcDbLine
 62
7
  6
CONTINUOUS
 10
66.2281393737
 20
167.2094039487
 11
66.4480572088
 21
167.3009808501
  0
LINE
  5
239
100
AcDbEntity
  8
0
100
AcDbLine
 62
7
  6
CONTINUOUS
 10
99.8297047372
 20
184.7143079456
 11
100.1106305168
 21
184.82634863
  0
LINE
  5
23A
100
AcDbEntity
  8
0
100
AcDbLine
 62
7
  6
CONTINUOUS
 10
100.8410467642
 20
181.9619314327
 11
100.5601210299
 21
181.8498906773
  0
LINE
  5
23B
100
AcDbEntity
  8
0
100
AcDbLine
 62
7
  6
CONTINUOUS
 10
70.5527010851
 20
169.3210809406
 11
70.4607709371
 21
168.989564486
  0
LINE
  5
23C
100
AcDbEntity
  8
0
100
AcDbLine
 62
7
  6
CONTINUOUS
 10
70.9037899163
 20
168.7356242293
 11
71.037161539
 21
169.1394386482
  0
LINE
  5
23D
100
AcDbEntity
  8
0
100
AcDbLine
 62
7
  6
CONTINUOUS
 10
67.1281320984
 20
164.8752311604
 11
67.6539929145
 21
166.190683453
  0
LINE
  5
23E
100
AcDbEntity
  8
0
100
AcDbLine
 62
7
  6
CONTINUOUS
 10
68.6020785471
 20
163.7475399439
 11
68.7876764874
 21
164.2118172367
  0
LINE
  5
23F
100
AcDbEntity
  8
0
100
AcDbLine
 62
7
  6
CONTINUOUS
 10
69.5610012093
 20
166.1463058826
 11
69.7775321987
 21
166.6879628717
  0
LINE
  5
240
100
AcDbEntity
  8
0
100
AcDbLine
 62
7
  6
CONTINUOUS
 10
72.900075756
 20
172.6611699976
 11
72.7617436055
 21
172.3461807755
  0
LINE
  5
241
100
AcDbEntity
  8
0
100
AcDbLine
 62
7
  6
CONTINUOUS
 10
73.1639557828
 20
172.0315749359
 11
73.3536302445
 21
172.4122034563
  0
LINE
  5
242
100
AcDbEntity
  8
0
100
AcDbLine
 62
7
  6
CONTINUOUS
 10
70.7380232804
 20
168.4464311459
 11
70.9037899163
 21
168.7356242293
  0
LINE
  5
243
100
AcDbEntity
  8
0
100
AcDbLine
 62
7
  6
CONTINUOUS
 10
81.113366622
 20
182.3636894089
 11
81.2736393673
 21
182.6201753265
  0
LINE
  5
244
100
AcDbEntity
  8
0
100
AcDbLine
 62
7
  6
CONTINUOUS
 10
83.9071312923
 20
180.1527037915
 11
84.1436793665
 21
180.4427525705
  0
LINE
  5
245
100
AcDbEntity
  8
0
100
AcDbLine
 62
7
  6
CONTINUOUS
 10
99.7775633058
 20
185.2489203704
 11
99.3784243323
 21
184.988749825
  0
LINE
  5
246
100
AcDbEntity
  8
0
100
AcDbLine
 62
7
  6
CONTINUOUS
 10
100.8931880598
 20
181.4273189465
 11
101.2923271852
 21
181.6874894887
  0
LINE
  5
247
100
AcDbEntity
  8
0
100
AcDbLine
 62
7
  6
CONTINUOUS
 10
112.4970525765
 20
177.5188281474
 11
112.9024331306
 21
177.6373866627
  0
LINE
  5
248
100
AcDbEntity
  8
0
100
AcDbLine
 62
7
  6
CONTINUOUS
 10
67.2554764608
 20
166.7987191051
 11
67.2417034034
 21
166.5349893237
  0
LINE
  5
249
100
AcDbEntity
  8
0
100
AcDbLine
 62
7
  6
CONTINUOUS
 10
73.3536302445
 20
172.4122034563
 11
73.4249270223
 21
172.7796269926
  0
LINE
  5
24A
100
AcDbEntity
  8
0
100
AcDbLine
 62
7
  6
CONTINUOUS
 10
80.755153086
 20
182.7639545667
 11
80.5871587076
 21
182.3181086055
  0
LINE
  5
24B
100
AcDbEntity
  8
0
100
AcDbLine
 62
7
  6
CONTINUOUS
 10
83.7854657945
 20
180.8430178101
 11
83.6251930732
 21
180.586531838
  0
LINE
  5
24C
100
AcDbEntity
  8
BEZUGSACHSEN
100
AcDbLine
 62
7
  6
CONTINUOUS
 10
68.3474179769
 20
125.2845471163
 11
68.156191874
 21
125.7700028599
  0
LINE
  5
24D
100
AcDbEntity
  8
BEZUGSACHSEN
100
AcDbLine
 62
7
  6
CONTINUOUS
 10
66.5232086815
 20
129.9155722052
 11
63.3083223775
 21
138.0770365555
  0
LINE
  5
24E
100
AcDbEntity
  8
BEZUGSACHSEN
100
AcDbLine
 62
7
  6
CONTINUOUS
 10
60.2417793142
 20
145.8619096502
 11
59.5798294114
 21
147.5423673781
  0
LINE
  5
24F
100
AcDbEntity
  8
RUNDUNGEN
100
AcDbLine
 62
7
  6
CONTINUOUS
 10
68.156191874
 20
125.7700028599
 11
56.98256443
 21
154.1359086575
  0
LINE
  5
250
100
AcDbEntity
  8
0
100
AcDbLine
 62
7
  6
CONTINUOUS
 10
67.6815390736
 20
166.7181431264
 11
67.6472191788
 21
167.0908435178
  0
LINE
  5
251
100
AcDbEntity
  8
0
100
AcDbLine
 62
7
  6
CONTINUOUS
 10
70.5293529752
 20
169.6226224217
 11
70.5527010851
 21
169.3210809406
  0
LINE
  5
252
100
AcDbEntity
  8
0
100
AcDbLine
 62
7
  6
CONTINUOUS
 10
71.037161539
 20
169.1394386482
 11
71.0552551797
 21
169.513278485
  0
LINE
  5
253
100
AcDbEntity
  8
0
100
AcDbLine
 62
7
  6
CONTINUOUS
 10
72.9200307749
 20
172.9629550143
 11
72.900075756
 21
172.6611699976
  0
LINE
  5
254
100
AcDbEntity
  8
0
100
AcDbLine
 62
7
  6
CONTINUOUS
 10
86.2465315889
 20
183.0103177941
 11
85.4142644389
 21
180.6680331074
  0
LINE
  5
255
100
AcDbEntity
  8
0
100
AcDbLine
 62
7
  6
CONTINUOUS
 10
87.101089211
 20
185.2704670466
 11
86.3986469821
 21
183.404336096
  0
LINE
  5
256
100
AcDbEntity
  8
0
100
AcDbLine
 62
7
  6
CONTINUOUS
 10
85.8968116397
 20
180.7989842397
 11
86.5992529482
 21
182.6651149405
  0
LINE
  5
257
100
AcDbEntity
  8
0
100
AcDbLine
 62
7
  6
CONTINUOUS
 10
84.1436793665
 20
180.4427525705
 11
84.3116737329
 21
180.8885985589
  0
LINE
  5
258
100
AcDbEntity
  8
0
100
AcDbLine
 62
7
  6
CONTINUOUS
 10
86.7290787896
 20
183.1412689264
 11
87.5836364118
 21
185.4014181789
  0
LINE
  5
259
100
AcDbEntity
  8
0
100
AcDbLine
 62
7
  6
CONTINUOUS
 10
101.0590445924
 20
182.1751039543
 11
100.8410467642
 21
181.9619314327
  0
LINE
  5
25A
100
AcDbEntity
  8
0
100
AcDbLine
 62
7
  6
CONTINUOUS
 10
107.7786405341
 20
117.5882616006
 11
80.2786405341
 21
117.5882616006
  0
LINE
  5
25B
100
AcDbEntity
  8
BEZUGSACHSEN
100
AcDbLine
 62
7
  6
CONTINUOUS
 10
73.0286405341
 20
117.7882616006
 11
115.0286405341
 21
117.7882616006
  0
LINE
  5
25C
100
AcDbEntity
  8
0
100
AcDbLine
 62
7
  6
CONTINUOUS
 10
81.0636468177
 20
182.0628678009
 11
81.113366622
 21
182.3636894089
  0
LINE
  5
25D
100
AcDbEntity
  8
0
100
AcDbLine
 62
7
  6
CONTINUOUS
 10
99.693062961
 20
184.4830906449
 11
99.8297047372
 21
184.7143079456
  0
LINE
  5
25E
100
AcDbEntity
  8
0
100
AcDbLine
 62
7
  6
CONTINUOUS
 10
101.2923271852
 20
181.6874894887
 11
101.5287535278
 21
181.9837492819
  0
LINE
  5
25F
100
AcDbEntity
  8
0
100
AcDbLine
 62
7
  6
CONTINUOUS
 10
107.0084922361
 20
180.2352803452
 11
108.7789490168
 21
181.8809414479
  0
LINE
  5
260
100
AcDbEntity
  8
0
100
AcDbLine
 62
7
  6
CONTINUOUS
 10
105.9836236455
 20
179.2466002578
 11
106.7704938625
 21
179.9780048493
  0
LINE
  5
261
100
AcDbEntity
  8
0
100
AcDbLine
 62
7
  6
CONTINUOUS
 10
108.6525797038
 20
182.340322783
 11
105.5463821714
 21
179.4891274037
  0
LINE
  5
262
100
AcDbEntity
  8
0
100
AcDbLine
 62
7
  6
CONTINUOUS
 10
112.7782409157
 20
178.1609097188
 11
112.5569508192
 21
178.0087154487
  0
LINE
  5
263
100
AcDbEntity
  8
0
100
AcDbLine
 62
7
  6
CONTINUOUS
 10
112.9024331306
 20
177.6373866627
 11
113.1237232271
 21
177.7895809329
  0
LINE
  5
264
100
AcDbEntity
  8
0
100
AcDbLine
 62
7
  6
CONTINUOUS
 10
88.3619740264
 20
121.7882616006
 11
94.3619740264
 21
121.7882616006
  0
LINE
  5
265
100
AcDbEntity
  8
0
100
AcDbLine
 62
7
  6
CONTINUOUS
 10
94.3619740264
 20
122.6393254481
 11
89.6953073995
 21
122.6393254481
  0
LINE
  5
266
100
AcDbEntity
  8
0
100
AcDbLine
 62
7
  6
CONTINUOUS
 10
98.3619740264
 20
121.9584743611
 11
99.3619740264
 21
121.7882616006
  0
LINE
  5
267
100
AcDbEntity
  8
0
100
AcDbLine
 62
7
  6
CONTINUOUS
 10
99.3619740264
 20
122.4691126428
 11
98.528641011
 21
122.6393254481
  0
LINE
  5
268
100
AcDbEntity
  8
0
100
AcDbLine
 62
7
  6
CONTINUOUS
 10
80.2786405341
 20
117.7882616006
 11
80.2786405341
 21
117.5882616006
  0
LINE
  5
269
100
AcDbEntity
  8
0
100
AcDbLine
 62
7
  6
CONTINUOUS
 10
80.5871587076
 20
182.3181086055
 11
80.5717158779
 21
181.9393887104
  0
LINE
  5
26A
100
AcDbEntity
  8
0
100
AcDbLine
 62
7
  6
CONTINUOUS
 10
83.8351856948
 20
181.1438391999
 11
83.7854657945
 21
180.8430178101
  0
LINE
  5
26B
100
AcDbEntity
  8
0
100
AcDbLine
 62
7
  6
CONTINUOUS
 10
99.3784243323
 20
184.988749825
 11
99.2233540772
 21
184.6744455501
  0
LINE
  5
26C
100
AcDbEntity
  8
0
100
AcDbLine
 62
7
  6
CONTINUOUS
 10
116.887864845
 20
169.0287501629
 11
117.4111431009
 21
169.3308650048
  0
LINE
  5
26D
100
AcDbEntity
  8
0
100
AcDbLine
 62
7
  6
CONTINUOUS
 10
119.8461379674
 20
170.7367099465
 11
120.3694162233
 21
171.0388247884
  0
LINE
  5
26E
100
AcDbEntity
  8
0
100
AcDbLine
 62
7
  6
CONTINUOUS
 10
95.6953075187
 20
126.5542189561
 11
97.028641011
 21
126.5542189561
  0
LINE
  5
26F
100
AcDbEntity
  8
0
100
AcDbLine
 62
7
  6
CONTINUOUS
 10
97.8619740264
 20
126.5542189561
 11
99.6953070419
 21
126.5542189561
  0
LINE
  5
270
100
AcDbEntity
  8
0
100
AcDbLine
 62
7
  6
CONTINUOUS
 10
99.6953070419
 20
127.2350699387
 11
97.8619740264
 21
127.2350699387
  0
LINE
  5
271
100
AcDbEntity
  8
0
100
AcDbLine
 62
7
  6
CONTINUOUS
 10
97.028641011
 20
127.2350699387
 11
95.6953075187
 21
127.2350699387
  0
LINE
  5
272
100
AcDbEntity
  8
0
100
AcDbLine
 62
7
  6
CONTINUOUS
 10
88.528640698
 20
127.9159213982
 11
89.3619740264
 21
127.9159213982
  0
LINE
  5
273
100
AcDbEntity
  8
0
100
AcDbLine
 62
7
  6
CONTINUOUS
 10
97.8619740264
 20
122.1286871217
 11
98.3619740264
 21
121.9584743611
  0
LINE
  5
274
100
AcDbEntity
  8
0
100
AcDbLine
 62
7
  6
CONTINUOUS
 10
97.3619740264
 20
122.4691126428
 11
97.8619740264
 21
122.1286871217
  0
LINE
  5
275
100
AcDbEntity
  8
0
100
AcDbLine
 62
7
  6
CONTINUOUS
 10
98.528641011
 20
122.6393254481
 11
98.028641011
 21
122.9797509394
  0
LINE
  5
276
100
AcDbEntity
  8
0
100
AcDbLine
 62
7
  6
CONTINUOUS
 10
67.1592906449
 20
167.0166605465
 11
67.2554764608
 21
166.7987191051
  0
LINE
  5
277
100
AcDbEntity
  8
0
100
AcDbLine
 62
7
  6
CONTINUOUS
 10
71.0552551797
 20
169.513278485
 11
70.9256758381
 21
169.971765068
  0
LINE
  5
278
100
AcDbEntity
  8
0
100
AcDbLine
 62
7
  6
CONTINUOUS
 10
73.4249270223
 20
172.7796269926
 11
73.3621530841
 21
173.2519191346
  0
LINE
  5
279
100
AcDbEntity
  8
0
100
AcDbLine
 62
7
  6
CONTINUOUS
 10
84.0286405341
 20
117.5882616006
 11
84.0286405341
 21
89.3382616006
  0
LINE
  5
27A
100
AcDbEntity
  8
0
100
AcDbLine
 62
7
  6
CONTINUOUS
 10
84.3116737329
 20
180.8885985589
 11
84.327116975
 21
181.2673187006
  0
LINE
  5
27B
100
AcDbEntity
  8
0
100
AcDbLine
 62
7
  6
CONTINUOUS
 10
111.4499111364
 20
180.6766206565
 11
109.0201215749
 21
177.4991810132
  0
LINE
  5
27C
100
AcDbEntity
  8
0
100
AcDbLine
 62
7
  6
CONTINUOUS
 10
109.4173015303
 20
177.195457318
 11
110.5029522008
 21
178.6151644128
  0
LINE
  5
27D
100
AcDbEntity
  8
0
100
AcDbLine
 62
7
  6
CONTINUOUS
 10
110.8131380653
 20
179.0207949572
 11
111.5886028714
 21
180.0348715076
  0
LINE
  5
27E
100
AcDbEntity
  8
0
100
AcDbLine
 62
7
  6
CONTINUOUS
 10
119.8870014062
 20
167.2500128272
 11
120.4102796621
 21
167.5521276691
  0
LINE
  5
27F
100
AcDbEntity
  8
0
100
AcDbLine
 62
7
  6
CONTINUOUS
 10
118.607864845
 20
166.0496227739
 11
119.1311431009
 21
166.3517376158
  0
LINE
  5
280
100
AcDbEntity
  8
0
100
AcDbLine
 62
7
  6
CONTINUOUS
 10
121.5661379674
 20
167.7575825575
 11
122.0894162233
 21
168.0596973994
  0
LINE
  5
281
100
AcDbEntity
  8
0
100
AcDbLine
 62
7
  6
CONTINUOUS
 10
90.1953073995
 20
128.7669851266
 11
91.0286407726
 21
128.9371978722
  0
LINE
  5
282
100
AcDbEntity
  8
0
100
AcDbLine
 62
7
  6
CONTINUOUS
 10
91.1953072803
 20
129.7882616006
 11
90.0286406533
 21
129.6180488549
  0
LINE
  5
283
100
AcDbEntity
  8
0
100
AcDbLine
 62
7
  6
CONTINUOUS
 10
97.8619740264
 20
128.5967723809
 11
97.028641011
 21
128.5967723809
  0
LINE
  5
284
100
AcDbEntity
  8
0
100
AcDbLine
 62
7
  6
CONTINUOUS
 10
91.0286407726
 20
128.9371978722
 11
91.6953072803
 21
128.9371978722
  0
LINE
  5
285
100
AcDbEntity
  8
0
100
AcDbLine
 62
7
  6
CONTINUOUS
 10
91.8619740264
 20
129.7882616006
 11
91.1953072803
 21
129.7882616006
  0
LINE
  5
286
100
AcDbEntity
  8
0
100
AcDbLine
 62
7
  6
CONTINUOUS
 10
92.8619740264
 20
129.6180488549
 11
91.8619740264
 21
129.7882616006
  0
LINE
  5
287
100
AcDbEntity
  8
0
100
AcDbLine
 62
7
  6
CONTINUOUS
 10
91.6953072803
 20
128.9371978722
 11
92.5286405341
 21
128.7669851266
  0
LINE
  5
288
100
AcDbEntity
  8
0
100
AcDbLine
 62
7
  6
CONTINUOUS
 10
93.5286405341
 20
129.2776233636
 11
92.8619740264
 21
129.6180488549
  0
LINE
  5
289
100
AcDbEntity
  8
0
100
AcDbLine
 62
7
  6
CONTINUOUS
 10
92.5286405341
 20
128.7669851266
 11
93.0286405341
 21
128.4265596352
  0
LINE
  5
28A
100
AcDbEntity
  8
0
100
AcDbLine
 62
7
  6
CONTINUOUS
 10
94.1953075187
 20
128.5967723809
 11
93.5286405341
 21
129.2776233636
  0
LINE
  5
28B
100
AcDbEntity
  8
0
100
AcDbLine
 62
7
  6
CONTINUOUS
 10
67.6472191788
 20
167.0908435178
 11
67.423914498
 21
167.4493467042
  0
LINE
  5
28C
100
AcDbEntity
  8
0
100
AcDbLine
 62
7
  6
CONTINUOUS
 10
72.8216087563
 20
173.2515357522
 11
72.9200307749
 21
172.9629550143
  0
LINE
  5
28D
100
AcDbEntity
  8
0
100
AcDbLine
 62
7
  6
CONTINUOUS
 10
88.3619740264
 20
122.6393254481
 11
88.3619740264
 21
121.7882616006
  0
LINE
  5
28E
100
AcDbEntity
  8
0
100
AcDbLine
 62
7
  6
CONTINUOUS
 10
99.2233540772
 20
184.6744455501
 11
99.1496400197
 21
184.3420964638
  0
LINE
  5
28F
100
AcDbEntity
  8
0
100
AcDbLine
 62
7
  6
CONTINUOUS
 10
99.6562059581
 20
184.3169162181
 11
99.693062961
 21
184.4830906449
  0
LINE
  5
290
100
AcDbEntity
  8
0
100
AcDbLine
 62
7
  6
CONTINUOUS
 10
103.3794807974
 20
184.6247786154
 11
103.2295735717
 21
184.226525943
  0
LINE
  5
291
100
AcDbEntity
  8
0
100
AcDbLine
 62
7
  6
CONTINUOUS
 10
104.477432243
 20
183.756816524
 11
103.2182113796
 21
180.411493629
  0
LINE
  5
292
100
AcDbEntity
  8
0
100
AcDbLine
 62
7
  6
CONTINUOUS
 10
103.6861583255
 20
180.2353526179
 11
104.9453791889
 21
183.5806755128
  0
LINE
  5
293
100
AcDbEntity
  8
0
100
AcDbLine
 62
7
  6
CONTINUOUS
 10
112.9333339928
 20
178.3637251804
 11
112.7782409157
 21
178.1609097188
  0
LINE
  5
294
100
AcDbEntity
  8
0
100
AcDbLine
 62
7
  6
CONTINUOUS
 10
113.1237232271
 20
177.7895809329
 11
113.3305139482
 21
178.0600014852
  0
LINE
  5
295
100
AcDbEntity
  8
0
100
AcDbLine
 62
7
  6
CONTINUOUS
 10
93.0286405341
 20
128.4265596352
 11
93.3619740264
 21
127.9159213982
  0
LINE
  5
296
100
AcDbEntity
  8
0
100
AcDbLine
 62
7
  6
CONTINUOUS
 10
70.3907267109
 20
169.8941888701
 11
70.5293529752
 21
169.6226224217
  0
LINE
  5
297
100
AcDbEntity
  8
0
100
AcDbLine
 62
7
  6
CONTINUOUS
 10
97.028641011
 20
123.1499636851
 11
97.3619740264
 21
122.4691126428
  0
LINE
  5
298
100
AcDbEntity
  8
0
100
AcDbLine
 62
7
  6
CONTINUOUS
 10
73.3621530841
 20
173.2519191346
 11
73.1966956635
 21
173.5929342096
  0
LINE
  5
299
100
AcDbEntity
  8
0
100
AcDbLine
 62
7
  6
CONTINUOUS
 10
80.5717158779
 20
181.9393887104
 11
80.6668255527
 21
181.5163329328
  0
LINE
  5
29A
100
AcDbEntity
  8
0
100
AcDbLine
 62
7
  6
CONTINUOUS
 10
81.1244793259
 20
181.7177107467
 11
81.0636468177
 21
182.0628678009
  0
LINE
  5
29B
100
AcDbEntity
  8
0
100
AcDbLine
 62
7
  6
CONTINUOUS
 10
93.3619740264
 20
127.9159213982
 11
93.3619740264
 21
127.5754954301
  0
LINE
  5
29C
100
AcDbEntity
  8
0
100
AcDbLine
 62
7
  6
CONTINUOUS
 10
94.3619740264
 20
121.7882616006
 11
94.3619740264
 21
122.6393254481
  0
LINE
  5
29D
100
AcDbEntity
  8
0
100
AcDbLine
 62
7
  6
CONTINUOUS
 10
94.3619740264
 20
127.5754954301
 11
94.3619740264
 21
127.9159213982
  0
LINE
  5
29E
100
AcDbEntity
  8
0
100
AcDbLine
 62
7
  6
CONTINUOUS
 10
101.1143300968
 20
182.4243655945
 11
101.0590445924
 21
182.1751039543
  0
LINE
  5
29F
100
AcDbEntity
  8
0
100
AcDbLine
 62
7
  6
CONTINUOUS
 10
101.5287535278
 20
181.9837492819
 11
101.6208960352
 21
182.3991853488
  0
LINE
  5
2A0
100
AcDbEntity
  8
0
100
AcDbLine
 62
7
  6
CONTINUOUS
 10
88.6953073697
 20
128.5967723809
 11
88.528640698
 21
127.9159213982
  0
LINE
  5
2A1
100
AcDbEntity
  8
0
100
AcDbLine
 62
7
  6
CONTINUOUS
 10
106.1932374138
 20
183.1109662618
 11
106.3431446395
 21
183.5092189343
  0
LINE
  5
2A2
100
AcDbEntity
  8
0
100
AcDbLine
 62
7
  6
CONTINUOUS
 10
70.9256758381
 20
169.971765068
 11
70.7132130341
 21
170.2856549172
  0
LINE
  5
2A3
100
AcDbEntity
  8
0
100
AcDbLine
 62
7
  6
CONTINUOUS
 10
98.028641011
 20
122.9797509394
 11
97.8619740264
 21
123.4903892956
  0
LINE
  5
2A4
100
AcDbEntity
  8
0
100
AcDbLine
 62
7
  6
CONTINUOUS
 10
94.3619740264
 20
127.9159213982
 11
94.1953075187
 21
128.5967723809
  0
LINE
  5
2A5
100
AcDbEntity
  8
0
100
AcDbLine
 62
7
  6
CONTINUOUS
 10
84.327116975
 20
181.2673187006
 11
84.2320069598
 21
181.690374068
  0
LINE
  5
2A6
100
AcDbEntity
  8
0
100
AcDbLine
 62
7
  6
CONTINUOUS
 10
83.7743531867
 20
181.488996254
 11
83.8351856948
 21
181.1438391999
  0
LINE
  5
2A7
100
AcDbEntity
  8
0
100
AcDbLine
 62
7
  6
CONTINUOUS
 10
95.6953075187
 20
127.2350699387
 11
95.6953075187
 21
126.5542189561
  0
LINE
  5
2A8
100
AcDbEntity
  8
0
100
AcDbLine
 62
7
  6
CONTINUOUS
 10
97.028641011
 20
128.5967723809
 11
97.028641011
 21
127.2350699387
  0
LINE
  5
2A9
100
AcDbEntity
  8
0
100
AcDbLine
 62
7
  6
CONTINUOUS
 10
97.028641011
 20
126.5542189561
 11
97.028641011
 21
123.1499636851
  0
LINE
  5
2AA
100
AcDbEntity
  8
0
100
AcDbLine
 62
7
  6
CONTINUOUS
 10
97.8619740264
 20
123.4903892956
 11
97.8619740264
 21
126.5542189561
  0
LINE
  5
2AB
100
AcDbEntity
  8
0
100
AcDbLine
 62
7
  6
CONTINUOUS
 10
97.8619740264
 20
127.2350699387
 11
97.8619740264
 21
128.5967723809
  0
LINE
  5
2AC
100
AcDbEntity
  8
0
100
AcDbLine
 62
7
  6
CONTINUOUS
 10
94.1953075187
 20
126.8946444474
 11
94.3619740264
 21
127.5754954301
  0
LINE
  5
2AD
100
AcDbEntity
  8
0
100
AcDbLine
 62
7
  6
CONTINUOUS
 10
89.3619740264
 20
127.9159213982
 11
89.6953073995
 21
128.4265596352
  0
LINE
  5
2AE
100
AcDbEntity
  8
0
100
AcDbLine
 62
7
  6
CONTINUOUS
 10
89.3619740264
 20
129.2776233636
 11
88.6953073697
 21
128.5967723809
  0
LINE
  5
2AF
100
AcDbEntity
  8
0
100
AcDbLine
 62
7
  6
CONTINUOUS
 10
66.9531458673
 20
167.1888134265
 11
67.1592906449
 21
167.0166605465
  0
LINE
  5
2B0
100
AcDbEntity
  8
0
100
AcDbLine
 62
7
  6
CONTINUOUS
 10
67.423914498
 20
167.4493467042
 11
67.2177697203
 21
167.6214995842
  0
LINE
  5
2B1
100
AcDbEntity
  8
0
100
AcDbLine
 62
7
  6
CONTINUOUS
 10
70.1368224774
 20
170.1357807291
 11
70.3907267109
 21
169.8941888701
  0
LINE
  5
2B2
100
AcDbEntity
  8
0
100
AcDbLine
 62
7
  6
CONTINUOUS
 10
72.6048090655
 20
173.5269114967
 11
72.8216087563
 21
173.2515357522
  0
LINE
  5
2B3
100
AcDbEntity
  8
0
100
AcDbLine
 62
7
  6
CONTINUOUS
 10
80.6668255527
 20
181.5163329328
 11
81.1809816602
 21
180.3478552443
  0
LINE
  5
2B4
100
AcDbEntity
  8
0
100
AcDbLine
 62
7
  6
CONTINUOUS
 10
81.6386354333
 20
180.5492330583
 11
81.1244793259
 21
181.7177107467
  0
LINE
  5
2B5
100
AcDbEntity
  8
0
100
AcDbLine
 62
7
  6
CONTINUOUS
 10
99.0696379
 20
182.4419993509
 11
99.0435671843
 21
182.7093055633
  0
LINE
  5
2B6
100
AcDbEntity
  8
0
100
AcDbLine
 62
7
  6
CONTINUOUS
 10
98.5554297474
 20
182.8175730223
 11
98.5630719834
 21
182.4671795917
  0
LINE
  5
2B7
100
AcDbEntity
  8
0
100
AcDbLine
 62
7
  6
CONTINUOUS
 10
99.1496400197
 20
184.3420964638
 11
99.157282263
 21
183.9917030315
  0
LINE
  5
2B8
100
AcDbEntity
  8
0
100
AcDbLine
 62
7
  6
CONTINUOUS
 10
99.3619740264
 20
121.7882616006
 11
99.3619740264
 21
122.4691126428
  0
LINE
  5
2B9
100
AcDbEntity
  8
0
100
AcDbLine
 62
7
  6
CONTINUOUS
 10
99.6953070419
 20
126.5542189561
 11
99.6953070419
 21
127.2350699387
  0
LINE
  5
2BA
100
AcDbEntity
  8
0
100
AcDbLine
 62
7
  6
CONTINUOUS
 10
108.4613282511
 20
177.8722781456
 11
109.2355683359
 21
182.0169532552
  0
LINE
  5
2BB
100
AcDbEntity
  8
0
100
AcDbLine
 62
7
  6
CONTINUOUS
 10
108.2279662769
 20
179.1695805672
 11
108.02408636
 21
178.1148055228
  0
LINE
  5
2BC
100
AcDbEntity
  8
0
100
AcDbLine
 62
7
  6
CONTINUOUS
 10
108.7789490168
 20
181.8809414479
 11
108.3202179094
 21
179.5076982137
  0
LINE
  5
2BD
100
AcDbEntity
  8
0
100
AcDbLine
 62
7
  6
CONTINUOUS
 10
111.5355948784
 20
175.5755974172
 11
112.1288709039
 21
177.5861002363
  0
LINE
  5
2BE
100
AcDbEntity
  8
0
100
AcDbLine
 62
7
  6
CONTINUOUS
 10
111.6282956604
 20
177.75461375
 11
111.0722185162
 21
175.9299415352
  0
LINE
  5
2BF
100
AcDbEntity
  8
0
100
AcDbLine
 62
7
  6
CONTINUOUS
 10
113.0222297608
 20
178.6171614547
 11
112.9333339928
 21
178.3637251804
  0
LINE
  5
2C0
100
AcDbEntity
  8
0
100
AcDbLine
 62
7
  6
CONTINUOUS
 10
113.3305139482
 20
178.0600014852
 11
113.4194097162
 21
178.3134377595
  0
LINE
  5
2C1
100
AcDbEntity
  8
0
100
AcDbLine
 62
7
  6
CONTINUOUS
 10
93.3619740264
 20
127.5754954301
 11
93.0286405341
 21
126.8946444474
  0
LINE
  5
2C2
100
AcDbEntity
  8
0
100
AcDbLine
 62
7
  6
CONTINUOUS
 10
93.8619740264
 20
126.3840062104
 11
94.1953075187
 21
126.8946444474
  0
LINE
  5
2C3
100
AcDbEntity
  8
0
100
AcDbLine
 62
7
  6
CONTINUOUS
 10
89.6953073995
 20
128.4265596352
 11
90.1953073995
 21
128.7669851266
  0
LINE
  5
2C4
100
AcDbEntity
  8
0
100
AcDbLine
 62
7
  6
CONTINUOUS
 10
90.0286406533
 20
129.6180488549
 11
89.3619740264
 21
129.2776233636
  0
LINE
  5
2C5
100
AcDbEntity
  8
0
100
AcDbLine
 62
7
  6
CONTINUOUS
 10
70.7132130341
 20
170.2856549172
 11
70.3854723128
 21
170.5695701474
  0
LINE
  5
2C6
100
AcDbEntity
  8
0
100
AcDbLine
 62
7
  6
CONTINUOUS
 10
73.1966956635
 20
173.5929342096
 11
72.9128606176
 21
173.9207442547
  0
LINE
  5
2C7
100
AcDbEntity
  8
0
100
AcDbLine
 62
7
  6
CONTINUOUS
 10
74.9625622441
 20
179.4152104055
 11
77.4170242992
 21
176.2567905443
  0
LINE
  5
2C8
100
AcDbEntity
  8
0
100
AcDbLine
 62
7
  6
CONTINUOUS
 10
77.8118267818
 20
176.5635983011
 11
75.3573647267
 21
179.7220181624
  0
LINE
  5
2C9
100
AcDbEntity
  8
0
100
AcDbLine
 62
7
  6
CONTINUOUS
 10
76.1805843291
 20
180.3838223145
 11
78.3190648097
 21
177.0034523297
  0
LINE
  5
2CA
100
AcDbEntity
  8
0
100
AcDbLine
 62
7
  6
CONTINUOUS
 10
78.7416110578
 20
177.2707623897
 11
76.8761280528
 21
180.2195958322
  0
LINE
  5
2CB
100
AcDbEntity
  8
0
100
AcDbLine
 62
7
  6
CONTINUOUS
 10
78.5750131019
 20
181.8985793428
 11
80.3949964957
 21
179.0216687078
  0
LINE
  5
2CC
100
AcDbEntity
  8
0
100
AcDbLine
 62
7
  6
CONTINUOUS
 10
83.2601970792
 20
182.6574739425
 11
83.7743531867
 21
181.488996254
  0
LINE
  5
2CD
100
AcDbEntity
  8
0
100
AcDbLine
 62
7
  6
CONTINUOUS
 10
84.2320069598
 20
181.690374068
 11
83.7178508524
 21
182.8588517564
  0
LINE
  5
2CE
100
AcDbEntity
  8
0
100
AcDbLine
 62
7
  6
CONTINUOUS
 10
99.6822766737
 20
184.0496100057
 11
99.6562059581
 21
184.3169162181
  0
LINE
  5
2CF
100
AcDbEntity
  8
0
100
AcDbLine
 62
7
  6
CONTINUOUS
 10
101.7453974236
 20
184.1150636955
 11
101.7193267662
 21
184.382369895
  0
LINE
  5
2D0
100
AcDbEntity
  8
0
100
AcDbLine
 62
7
  6
CONTINUOUS
 10
104.0286405341
 20
117.5882616006
 11
104.0286405341
 21
89.3382616006
  0
LINE
  5
2D1
100
AcDbEntity
  8
0
100
AcDbLine
 62
7
  6
CONTINUOUS
 10
93.0286405341
 20
126.8946444474
 11
88.3619740264
 21
122.6393254481
  0
LINE
  5
2D2
100
AcDbEntity
  8
0
100
AcDbLine
 62
7
  6
CONTINUOUS
 10
89.6953073995
 20
122.6393254481
 11
93.8619740264
 21
126.3840062104
  0
LINE
  5
2D3
100
AcDbEntity
  8
0
100
AcDbLine
 62
7
  6
CONTINUOUS
 10
64.8878602053
 20
165.2323234665
 11
68.6020785471
 21
163.7475399439
  0
LINE
  5
2D4
100
AcDbEntity
  8
0
100
AcDbLine
 62
7
  6
CONTINUOUS
 10
68.7876764874
 20
164.2118172367
 11
67.1281320984
 21
164.8752311604
  0
LINE
  5
2D5
100
AcDbEntity
  8
0
100
AcDbLine
 62
7
  6
CONTINUOUS
 10
66.6539766219
 20
165.0647779705
 11
65.4685877093
 21
165.5386450842
  0
LINE
  5
2D6
100
AcDbEntity
  8
0
100
AcDbLine
 62
7
  6
CONTINUOUS
 10
66.6046417463
 20
169.2788581155
 11
68.8935731822
 21
167.966833431
  0
LINE
  5
2D7
100
AcDbEntity
  8
0
100
AcDbLine
 62
7
  6
CONTINUOUS
 10
69.1422231361
 20
168.4006230561
 11
66.8532917002
 21
169.7126477406
  0
LINE
  5
2D8
100
AcDbEntity
  8
0
100
AcDbLine
 62
7
  6
CONTINUOUS
 10
67.8478910416
 20
171.4478054136
 11
70.1368224774
 21
170.1357807291
  0
LINE
  5
2D9
100
AcDbEntity
  8
0
100
AcDbLine
 62
7
  6
CONTINUOUS
 10
68.7810875107
 20
172.920656321
 11
71.9317495743
 21
170.456243904
  0
LINE
  5
2DA
100
AcDbEntity
  8
0
100
AcDbLine
 62
7
  6
CONTINUOUS
 10
71.8375889491
 20
171.1646825017
 11
69.4913511932
 21
172.999883276
  0
LINE
  5
2DB
100
AcDbEntity
  8
0
100
AcDbLine
 62
7
  6
CONTINUOUS
 10
71.5992786457
 20
174.3134260776
 11
72.6048090655
 21
173.5269114967
  0
LINE
  5
2DC
100
AcDbEntity
  8
0
100
AcDbLine
 62
7
  6
CONTINUOUS
 10
72.9128606176
 20
173.9207442547
 11
71.9073301978
 21
174.7072588355
  0
LINE
  5
2DD
100
AcDbEntity
  8
0
100
AcDbLine
 62
7
  6
CONTINUOUS
 10
81.1809816602
 20
180.3478552443
 11
81.4286427877
 21
179.9919257509
  0
LINE
  5
2DE
100
AcDbEntity
  8
0
100
AcDbLine
 62
7
  6
CONTINUOUS
 10
81.1360398306
 20
178.7855194181
 11
78.99755935
 21
182.1658894029
  0
LINE
  5
2DF
100
AcDbEntity
  8
0
100
AcDbLine
 62
7
  6
CONTINUOUS
 10
107.7786405341
 20
117.7882616006
 11
107.7786405341
 21
117.5882616006
  0
LINE
  5
2E0
100
AcDbEntity
  8
0
100
AcDbLine
 62
7
  6
CONTINUOUS
 10
68.8935731822
 20
167.966833431
 11
69.3041973401
 21
167.8275149494
  0
LINE
  5
2E1
100
AcDbEntity
  8
0
100
AcDbLine
 62
7
  6
CONTINUOUS
 10
66.7160679076
 20
167.2835869201
 11
66.9531458673
 21
167.1888134265
  0
LINE
  5
2E2
100
AcDbEntity
  8
0
100
AcDbLine
 62
7
  6
CONTINUOUS
 10
67.2177697203
 20
167.6214995842
 11
66.901665848
 21
167.7478642128
  0
LINE
  5
2E3
100
AcDbEntity
  8
0
100
AcDbLine
 62
7
  6
CONTINUOUS
 10
70.3854723128
 20
170.5695701474
 11
68.0965408769
 21
171.8815948319
  0
LINE
  5
2E4
100
AcDbEntity
  8
0
100
AcDbLine
 62
7
  6
CONTINUOUS
 10
81.8520194901
 20
180.2712020701
 11
81.6386354333
 21
180.5492330583
  0
LINE
  5
2E5
100
AcDbEntity
  8
0
100
AcDbLine
 62
7
  6
CONTINUOUS
 10
83.0468130224
 20
182.9355049306
 11
83.2601970792
 21
182.6574739425
  0
LINE
  5
2E6
100
AcDbEntity
  8
0
100
AcDbLine
 62
7
  6
CONTINUOUS
 10
83.7178508524
 20
182.8588517564
 11
83.4701900653
 21
183.2147816601
  0
LINE
  5
2E7
100
AcDbEntity
  8
0
100
AcDbLine
 62
7
  6
CONTINUOUS
 10
98.5630719834
 20
182.4671795917
 11
98.7149981824
 21
181.9976097063
  0
LINE
  5
2E8
100
AcDbEntity
  8
0
100
AcDbLine
 62
7
  6
CONTINUOUS
 10
101.6208960352
 20
182.3991853488
 11
101.5318977431
 21
182.7676234374
  0
LINE
  5
2E9
100
AcDbEntity
  8
0
100
AcDbLine
 62
7
  6
CONTINUOUS
 10
101.2127608278
 20
184.4075501407
 11
101.2572599867
 21
184.2233311546
  0
LINE
  5
2EA
100
AcDbEntity
  8
0
100
AcDbLine
 62
7
  6
CONTINUOUS
 10
113.4194097162
 20
178.3134377595
 11
113.4276103148
 21
178.73571997
  0
LINE
  5
2EB
100
AcDbEntity
  8
0
100
AcDbLine
 62
7
  6
CONTINUOUS
 10
69.4790105689
 20
168.303627532
 11
69.1422231361
 21
168.4006230561
  0
LINE
  5
2EC
100
AcDbEntity
  8
0
100
AcDbLine
 62
7
  6
CONTINUOUS
 10
71.2797954959
 20
174.4575247369
 11
71.5992786457
 21
174.3134260776
  0
LINE
  5
2ED
100
AcDbEntity
  8
0
100
AcDbLine
 62
7
  6
CONTINUOUS
 10
71.9073301978
 20
174.7072588355
 11
71.5208115052
 21
174.9037919423
  0
LINE
  5
2EE
100
AcDbEntity
  8
0
100
AcDbLine
 62
7
  6
CONTINUOUS
 10
81.4286427877
 20
179.9919257509
 11
81.7183022064
 21
179.7474575492
  0
LINE
  5
2EF
100
AcDbEntity
  8
0
100
AcDbLine
 62
7
  6
CONTINUOUS
 10
101.0069033032
 20
182.7097164697
 11
101.1143300968
 21
182.4243655945
  0
LINE
  5
2F0
100
AcDbEntity
  8
0
100
AcDbLine
 62
7
  6
CONTINUOUS
 10
69.7775321987
 20
166.6879628717
 11
67.6815390736
 21
166.7181431264
  0
LINE
  5
2F1
100
AcDbEntity
  8
0
100
AcDbLine
 62
7
  6
CONTINUOUS
 10
67.6539929145
 20
166.190683453
 11
69.5610012093
 21
166.1463058826
  0
LINE
  5
2F2
100
AcDbEntity
  8
0
100
AcDbLine
 62
7
  6
CONTINUOUS
 10
66.4480572088
 20
167.3009808501
 11
66.7160679076
 21
167.2835869201
  0
LINE
  5
2F3
100
AcDbEntity
  8
0
100
AcDbLine
 62
7
  6
CONTINUOUS
 10
66.901665848
 20
167.7478642128
 11
66.6336551492
 21
167.7652581428
  0
LINE
  5
2F4
100
AcDbEntity
  8
0
100
AcDbLine
 62
7
  6
CONTINUOUS
 10
69.3041973401
 20
167.8275149494
 11
69.6824266614
 21
167.8028179767
  0
LINE
  5
2F5
100
AcDbEntity
  8
0
100
AcDbLine
 62
7
  6
CONTINUOUS
 10
82.1074018143
 20
180.1046324282
 11
81.8520194901
 21
180.2712020701
  0
LINE
  5
2F6
100
AcDbEntity
  8
0
100
AcDbLine
 62
7
  6
CONTINUOUS
 10
83.4701900653
 20
183.2147816601
 11
83.1805302341
 21
183.4592496153
  0
LINE
  5
2F7
100
AcDbEntity
  8
0
100
AcDbLine
 62
7
  6
CONTINUOUS
 10
99.2584211011
 20
182.138603923
 11
99.0696379
 21
182.4419993509
  0
LINE
  5
2F8
100
AcDbEntity
  8
0
100
AcDbLine
 62
7
  6
CONTINUOUS
 10
101.7193267662
 20
184.382369895
 11
101.5489720536
 21
184.7688524781
  0
LINE
  5
2F9
100
AcDbEntity
  8
0
100
AcDbLine
 62
7
  6
CONTINUOUS
 10
112.9932322355
 20
178.8536124816
 11
113.0222297608
 21
178.6171614547
  0
LINE
  5
2FA
100
AcDbEntity
  8
BEZUGSACHSEN
100
AcDbLine
 62
7
  6
CONTINUOUS
 10
128.4774516569
 20
147.5423673781
 11
127.8155017223
 21
145.8619095696
  0
LINE
  5
2FB
100
AcDbEntity
  8
BEZUGSACHSEN
100
AcDbLine
 62
7
  6
CONTINUOUS
 10
124.7489586907
 20
138.0770365555
 11
121.5340723868
 21
129.9155722052
  0
LINE
  5
2FC
100
AcDbEntity
  8
RUNDUNGEN
100
AcDbLine
 62
7
  6
CONTINUOUS
 10
131.0747166383
 20
154.1359086575
 11
119.9010893267
 21
125.770003196
  0
LINE
  5
2FD
100
AcDbEntity
  8
BEZUGSACHSEN
100
AcDbLine
 62
7
  6
CONTINUOUS
 10
119.9010893267
 20
125.770003196
 11
119.7098630914
 21
125.2845471163
  0
LINE
  5
2FE
100
AcDbEntity
  8
0
100
AcDbLine
 62
7
  6
CONTINUOUS
 10
69.7834034692
 20
168.321254167
 11
69.4790105689
 21
168.303627532
  0
LINE
  5
2FF
100
AcDbEntity
  8
0
100
AcDbLine
 62
7
  6
CONTINUOUS
 10
71.5208115052
 20
174.9037919423
 11
71.1499860383
 21
174.9822513079
  0
LINE
  5
300
100
AcDbEntity
  8
0
100
AcDbLine
 62
7
  6
CONTINUOUS
 10
80.3949964957
 20
179.0216687078
 11
76.8144037012
 21
180.7847874046
  0
LINE
  5
301
100
AcDbEntity
  8
0
100
AcDbLine
 62
7
  6
CONTINUOUS
 10
76.8761280528
 20
180.2195958322
 11
80.5022204584
 21
178.384554328
  0
LINE
  5
302
100
AcDbEntity
  8
0
100
AcDbLine
 62
7
  6
CONTINUOUS
 10
82.7914306023
 20
183.1020747907
 11
83.0468130224
 21
182.9355049306
  0
LINE
  5
303
100
AcDbEntity
  8
0
100
AcDbLine
 62
7
  6
CONTINUOUS
 10
84.3666553803
 20
184.5284107133
 11
86.2465315889
 21
183.0103177941
  0
LINE
  5
304
100
AcDbEntity
  8
0
100
AcDbLine
 62
7
  6
CONTINUOUS
 10
86.5992529482
 20
182.6651149405
 11
88.1486982697
 21
181.4100894406
  0
LINE
  5
305
100
AcDbEntity
  8
0
100
AcDbLine
 62
7
  6
CONTINUOUS
 10
86.3986469821
 20
183.404336096
 11
84.849202581
 21
184.6593618456
  0
LINE
  5
306
100
AcDbEntity
  8
0
100
AcDbLine
 62
7
  6
CONTINUOUS
 10
88.6312454704
 20
181.541040573
 11
86.7290787896
 21
183.1412689264
  0
LINE
  5
307
100
AcDbEntity
  8
0
100
AcDbLine
 62
7
  6
CONTINUOUS
 10
99.157282263
 20
183.9917030315
 11
99.4089932247
 21
183.5871758697
  0
LINE
  5
308
100
AcDbEntity
  8
0
100
AcDbLine
 62
7
  6
CONTINUOUS
 10
101.5318977431
 20
182.7676234374
 11
101.2801866359
 21
183.1721506315
  0
LINE
  5
309
100
AcDbEntity
  8
0
100
AcDbLine
 62
7
  6
CONTINUOUS
 10
101.0869052742
 20
184.6098137377
 11
101.2127608278
 21
184.4075501407
  0
LINE
  5
30A
100
AcDbEntity
  8
0
100
AcDbLine
 62
7
  6
CONTINUOUS
 10
113.4276103148
 20
178.73571997
 11
113.3179168626
 21
179.1410175126
  0
LINE
  5
30B
100
AcDbEntity
  8
0
100
AcDbLine
 62
7
  6
CONTINUOUS
 10
69.6824266614
 20
167.8028179767
 11
70.1435390378
 21
167.9227171469
  0
LINE
  5
30C
100
AcDbEntity
  8
0
100
AcDbLine
 62
7
  6
CONTINUOUS
 10
66.6336551492
 20
167.7652581428
 11
66.224752528
 21
167.6594840365
  0
LINE
  5
30D
100
AcDbEntity
  8
0
100
AcDbLine
 62
7
  6
CONTINUOUS
 10
112.5569508192
 20
178.0087154487
 11
112.3211627176
 21
177.9747461127
  0
LINE
  5
30E
100
AcDbEntity
  8
0
100
AcDbLine
 62
7
  6
CONTINUOUS
 10
70.9760051963
 20
174.4835499489
 11
71.2797954959
 21
174.4575247369
  0
LINE
  5
30F
100
AcDbEntity
  8
0
100
AcDbLine
 62
7
  6
CONTINUOUS
 10
81.7183022064
 20
179.7474575492
 11
82.1605131618
 21
179.5701154407
  0
LINE
  5
310
100
AcDbEntity
  8
0
100
AcDbLine
 62
7
  6
CONTINUOUS
 10
98.7149981824
 20
181.9976097063
 11
99.0664938609
 21
181.6581251639
  0
LINE
  5
311
100
AcDbEntity
  8
0
100
AcDbLine
 62
7
  6
CONTINUOUS
 10
99.8894884474
 20
183.8293018365
 11
99.6822766737
 21
184.0496100057
  0
LINE
  5
312
100
AcDbEntity
  8
0
100
AcDbLine
 62
7
  6
CONTINUOUS
 10
100.7996915877
 20
182.930024626
 11
101.0069033032
 21
182.7097164697
  0
LINE
  5
313
100
AcDbEntity
  8
0
100
AcDbLine
 62
7
  6
CONTINUOUS
 10
101.5489720536
 20
184.7688524781
 11
101.2788326777
 21
185.0902924071
  0
LINE
  5
314
100
AcDbEntity
  8
0
100
AcDbLine
 62
7
  6
CONTINUOUS
 10
118.4592835323
 20
166.2911323145
 11
118.607864845
 21
166.0496227739
  0
LINE
  5
315
100
AcDbEntity
  8
0
100
AcDbLine
 62
7
  6
CONTINUOUS
 10
116.7392835323
 20
169.2702597036
 11
116.887864845
 21
169.0287501629
  0
LINE
  5
316
100
AcDbEntity
  8
0
100
AcDbLine
 62
7
  6
CONTINUOUS
 10
100.5309061716
 20
181.3333227867
 11
100.8931880598
 21
181.4273189465
  0
LINE
  5
317
100
AcDbEntity
  8
0
100
AcDbLine
 62
7
  6
CONTINUOUS
 10
71.1499860383
 20
174.9822513079
 11
70.6764771125
 21
174.9294335882
  0
LINE
  5
318
100
AcDbEntity
  8
0
100
AcDbLine
 62
7
  6
CONTINUOUS
 10
82.1605131618
 20
179.5701154407
 11
82.534169973
 21
179.5485703497
  0
LINE
  5
319
100
AcDbEntity
  8
0
100
AcDbLine
 62
7
  6
CONTINUOUS
 10
112.1288709039
 20
177.5861002363
 11
112.4970525765
 21
177.5188281474
  0
LINE
  5
31A
100
AcDbEntity
  8
0
100
AcDbLine
 62
7
  6
CONTINUOUS
 10
82.4047828661
 20
180.0495242701
 11
82.1074018143
 21
180.1046324282
  0
LINE
  5
31B
100
AcDbEntity
  8
0
100
AcDbLine
 62
7
  6
CONTINUOUS
 10
82.4940495744
 20
183.1571828943
 11
82.7914306023
 21
183.1020747907
  0
LINE
  5
31C
100
AcDbEntity
  8
0
100
AcDbLine
 62
7
  6
CONTINUOUS
 10
83.1805302341
 20
183.4592496153
 11
82.7383192907
 21
183.6365916964
  0
LINE
  5
31D
100
AcDbEntity
  8
0
100
AcDbLine
 62
7
  6
CONTINUOUS
 10
99.0664938609
 20
181.6581251639
 11
99.4548465164
 21
181.4848150692
  0
LINE
  5
31E
100
AcDbEntity
  8
0
100
AcDbLine
 62
7
  6
CONTINUOUS
 10
99.5654175382
 20
181.9833384078
 11
99.2584211011
 21
182.138603923
  0
LINE
  5
31F
100
AcDbEntity
  8
0
100
AcDbLine
 62
7
  6
CONTINUOUS
 10
105.5463821714
 20
179.4891274037
 11
105.9836236455
 21
179.2466002578
  0
LINE
  5
320
100
AcDbEntity
  8
0
100
AcDbLine
 62
7
  6
CONTINUOUS
 10
108.02408636
 20
178.1148055228
 11
108.4613282511
 21
177.8722781456
  0
LINE
  5
321
100
AcDbEntity
  8
0
100
AcDbLine
 62
7
  6
CONTINUOUS
 10
100.1151286644
 20
183.6920808935
 11
99.8894884474
 21
183.8293018365
  0
LINE
  5
322
100
AcDbEntity
  8
0
100
AcDbLine
 62
7
  6
CONTINUOUS
 10
109.0201215749
 20
177.4991810132
 11
109.4173015303
 21
177.195457318
  0
LINE
  5
323
100
AcDbEntity
  8
0
100
AcDbLine
 62
7
  6
CONTINUOUS
 10
111.0722185162
 20
175.9299415352
 11
111.5355948784
 21
175.5755974172
  0
LINE
  5
324
100
AcDbEntity
  8
0
100
AcDbLine
 62
7
  6
CONTINUOUS
 10
99.4089932247
 20
183.5871758697
 11
99.6975611603
 21
183.3488231412
  0
LINE
  5
325
100
AcDbEntity
  8
0
100
AcDbLine
 62
7
  6
CONTINUOUS
 10
101.2801866359
 20
183.1721506315
 11
100.9916187585
 21
183.4105033471
  0
LINE
  5
326
100
AcDbEntity
  8
0
100
AcDbLine
 62
7
  6
CONTINUOUS
 10
113.3179168626
 20
179.1410175126
 11
113.038630958
 21
179.4617258757
  0
LINE
  5
327
100
AcDbEntity
  8
0
100
AcDbLine
 62
7
  6
CONTINUOUS
 10
112.8463399019
 20
179.07307942
 11
112.9932322355
 21
178.8536124816
  0
LINE
  5
328
100
AcDbEntity
  8
0
100
AcDbLine
 62
7
  6
CONTINUOUS
 10
119.2932567445
 20
168.2784087479
 11
119.8870014062
 21
167.2500128272
  0
LINE
  5
329
100
AcDbEntity
  8
0
100
AcDbLine
 62
7
  6
CONTINUOUS
 10
120.4102796621
 20
167.5521276691
 11
119.8165350004
 21
168.5805235898
  0
LINE
  5
32A
100
AcDbEntity
  8
0
100
AcDbLine
 62
7
  6
CONTINUOUS
 10
119.7464739046
 20
170.9366558746
 11
119.8461379674
 21
170.7367099465
  0
LINE
  5
32B
100
AcDbEntity
  8
0
100
AcDbLine
 62
7
  6
CONTINUOUS
 10
104.0286405341
 20
89.3382616006
 11
102.2786405341
 21
87.5882616006
  0
LINE
  5
32C
100
AcDbEntity
  8
0
100
AcDbLine
 62
7
  6
CONTINUOUS
 10
85.4142644389
 20
180.6680331074
 11
85.8968116397
 21
180.7989842397
  0
LINE
  5
32D
100
AcDbEntity
  8
0
100
AcDbLine
 62
7
  6
CONTINUOUS
 10
88.1486982697
 20
181.4100894406
 11
88.6312454704
 21
181.541040573
  0
LINE
  5
32E
100
AcDbEntity
  8
0
100
AcDbLine
 62
7
  6
CONTINUOUS
 10
100.1398452473
 20
185.3429164955
 11
99.7775633058
 21
185.2489203704
  0
LINE
  5
32F
100
AcDbEntity
  8
0
100
AcDbLine
 62
7
  6
CONTINUOUS
 10
82.534169973
 20
179.5485703497
 11
82.9498250454
 21
179.6384866185
  0
LINE
  5
330
100
AcDbEntity
  8
0
100
AcDbLine
 62
7
  6
CONTINUOUS
 10
82.7441625976
 20
180.1058777048
 11
82.4047828661
 21
180.0495242701
  0
LINE
  5
331
100
AcDbEntity
  8
0
100
AcDbLine
 62
7
  6
CONTINUOUS
 10
82.1546698429
 20
183.1008294596
 11
82.4940495744
 21
183.1571828943
  0
LINE
  5
332
100
AcDbEntity
  8
0
100
AcDbLine
 62
7
  6
CONTINUOUS
 10
100.1106305168
 20
184.82634863
 11
100.3731277367
 21
184.8553021139
  0
LINE
  5
333
100
AcDbEntity
  8
0
100
AcDbLine
 62
7
  6
CONTINUOUS
 10
100.5601210299
 20
181.8498906773
 11
100.2162675317
 21
181.8389817785
  0
LINE
  5
334
100
AcDbEntity
  8
0
100
AcDbLine
 62
7
  6
CONTINUOUS
 10
100.1056965099
 20
181.3404584399
 11
100.5309061716
 21
181.3333227867
  0
LINE
  5
335
100
AcDbEntity
  8
0
100
AcDbLine
 62
7
  6
CONTINUOUS
 10
82.7383192907
 20
183.6365916964
 11
82.364662925
 21
183.6581369591
  0
LINE
  5
336
100
AcDbEntity
  8
0
100
AcDbLine
 62
7
  6
CONTINUOUS
 10
99.4548465164
 20
181.4848150692
 11
100.1056965099
 21
181.3404584399
  0
LINE
  5
337
100
AcDbEntity
  8
0
100
AcDbLine
 62
7
  6
CONTINUOUS
 10
100.2162675317
 20
181.8389817785
 11
99.5654175382
 21
181.9833384078
  0
LINE
  5
338
100
AcDbEntity
  8
0
100
AcDbLine
 62
7
  6
CONTINUOUS
 10
99.0435671843
 20
182.7093055633
 11
98.5554297474
 21
182.8175730223
  0
LINE
  5
339
100
AcDbEntity
  8
0
100
AcDbLine
 62
7
  6
CONTINUOUS
 10
100.0045576556
 20
183.1935576131
 11
100.4926950925
 21
183.0852901541
  0
LINE
  5
33A
100
AcDbEntity
  8
0
100
AcDbLine
 62
7
  6
CONTINUOUS
 10
100.6032661013
 20
183.5838134345
 11
100.1151286644
 21
183.6920808935
  0
LINE
  5
33B
100
AcDbEntity
  8
0
100
AcDbLine
 62
7
  6
CONTINUOUS
 10
101.2572599867
 20
184.2233311546
 11
101.7453974236
 21
184.1150636955
  0
LINE
  5
33C
100
AcDbEntity
  8
0
100
AcDbLine
 62
7
  6
CONTINUOUS
 10
112.3211627176
 20
177.9747461127
 11
112.0708750958
 21
178.0590028696
  0
LINE
  5
33D
100
AcDbEntity
  8
0
100
AcDbLine
 62
7
  6
CONTINUOUS
 10
103.2182113796
 20
180.411493629
 11
103.6861583255
 21
180.2353526179
  0
LINE
  5
33E
100
AcDbEntity
  8
0
100
AcDbLine
 62
7
  6
CONTINUOUS
 10
103.2295735717
 20
184.226525943
 11
104.477432243
 21
183.756816524
  0
LINE
  5
33F
100
AcDbEntity
  8
0
100
AcDbLine
 62
7
  6
CONTINUOUS
 10
104.9453791889
 20
183.5806755128
 11
106.1932374138
 21
183.1109662618
  0
LINE
  5
340
100
AcDbEntity
  8
0
100
AcDbLine
 62
7
  6
CONTINUOUS
 10
100.9916187585
 20
183.4105033471
 11
100.6032661013
 21
183.5838134345
  0
LINE
  5
341
100
AcDbEntity
  8
0
100
AcDbLine
 62
7
  6
CONTINUOUS
 10
101.2788326777
 20
185.0902924071
 11
100.8904799042
 21
185.2636025203
  0
LINE
  5
342
100
AcDbEntity
  8
0
100
AcDbLine
 62
7
  6
CONTINUOUS
 10
99.6975611603
 20
183.3488231412
 11
100.0045576556
 21
183.1935576131
  0
LINE
  5
343
100
AcDbEntity
  8
0
100
AcDbLine
 62
7
  6
CONTINUOUS
 10
100.4926950925
 20
183.0852901541
 11
100.7996915877
 21
182.930024626
  0
LINE
  5
344
100
AcDbEntity
  8
0
100
AcDbLine
 62
7
  6
CONTINUOUS
 10
106.7704938625
 20
179.9780048493
 11
108.2279662769
 21
179.1695805672
  0
LINE
  5
345
100
AcDbEntity
  8
0
100
AcDbLine
 62
7
  6
CONTINUOUS
 10
108.3202179094
 20
179.5076982137
 11
107.0084922361
 21
180.2352803452
  0
LINE
  5
346
100
AcDbEntity
  8
0
100
AcDbLine
 62
7
  6
CONTINUOUS
 10
109.2355683359
 20
182.0169532552
 11
108.6525797038
 21
182.340322783
  0
LINE
  5
347
100
AcDbEntity
  8
0
100
AcDbLine
 62
7
  6
CONTINUOUS
 10
100.8612651736
 20
184.7470346548
 11
101.0869052742
 21
184.6098137377
  0
LINE
  5
348
100
AcDbEntity
  8
0
100
AcDbLine
 62
7
  6
CONTINUOUS
 10
110.5029522008
 20
178.6151644128
 11
111.6282956604
 21
177.75461375
  0
LINE
  5
349
100
AcDbEntity
  8
0
100
AcDbLine
 62
7
  6
CONTINUOUS
 10
112.0708750958
 20
178.0590028696
 11
110.8131380653
 21
179.0207949572
  0
LINE
  5
34A
100
AcDbEntity
  8
0
100
AcDbLine
 62
7
  6
CONTINUOUS
 10
111.5886028714
 20
180.0348715076
 11
112.8463399019
 21
179.07307942
  0
LINE
  5
34B
100
AcDbEntity
  8
0
100
AcDbLine
 62
7
  6
CONTINUOUS
 10
113.038630958
 20
179.4617258757
 11
111.4499111364
 21
180.6766206565
  0
LINE
  5
34C
100
AcDbEntity
  8
0
100
AcDbLine
 62
7
  6
CONTINUOUS
 10
87.5836364118
 20
185.4014181789
 11
87.101089211
 21
185.2704670466
  0
LINE
  5
34D
100
AcDbEntity
  8
0
100
AcDbLine
 62
7
  6
CONTINUOUS
 10
84.849202581
 20
184.6593618456
 11
84.3666553803
 21
184.5284107133
  0
LINE
  5
34E
100
AcDbEntity
  8
0
100
AcDbLine
 62
7
  6
CONTINUOUS
 10
82.364662925
 20
183.6581369591
 11
81.9490074192
 21
183.5682204914
  0
LINE
  5
34F
100
AcDbEntity
  8
0
100
AcDbLine
 62
7
  6
CONTINUOUS
 10
100.4836987455
 20
185.3538253942
 11
100.1398452473
 21
185.3429164955
  0
LINE
  5
350
100
AcDbEntity
  8
0
100
AcDbLine
 62
7
  6
CONTINUOUS
 10
100.3731277367
 20
184.8553021139
 11
100.8612651736
 21
184.7470346548
  0
LINE
  5
351
100
AcDbEntity
  8
0
100
AcDbLine
 62
7
  6
CONTINUOUS
 10
100.8904799042
 20
185.2636025203
 11
100.4836987455
 21
185.3538253942
  0
LINE
  5
352
100
AcDbEntity
  8
0
100
AcDbLine
 62
7
  6
CONTINUOUS
 10
106.3431446395
 20
183.5092189343
 11
103.3794807974
 21
184.6247786154
  0
LINE
  5
353
100
AcDbEntity
  8
0
100
AcDbLine
 62
7
  6
CONTINUOUS
 10
185.7800439806
 20
87.5882616006
 11
202.2787314555
 21
87.5882616006
  0
LINE
  5
354
100
AcDbEntity
  8
0
100
AcDbLine
 62
7
  6
CONTINUOUS
 10
184.029387718
 20
89.3382616006
 11
204.029387718
 21
89.3382616006
  0
LINE
  5
355
100
AcDbEntity
  8
0
100
AcDbLine
 62
7
  6
CONTINUOUS
 10
184.029387718
 20
89.3382616006
 11
185.779387718
 21
87.5882616006
  0
LINE
  5
356
100
AcDbEntity
  8
0
100
AcDbLine
 62
7
  6
CONTINUOUS
 10
180.2800055364
 20
117.5882616006
 11
207.7787698996
 21
117.5882616006
  0
LINE
  5
357
100
AcDbEntity
  8
BEZUGSACHSEN
100
AcDbLine
 62
7
  6
CONTINUOUS
 10
173.029633824
 20
117.7882616006
 11
215.0291416121
 21
117.7882616006
  0
LINE
  5
358
100
AcDbEntity
  8
BEZUGSACHSEN
100
AcDbLine
 62
7
  6
CONTINUOUS
 10
172.5657385322
 20
120.4177467987
 11
172.6729295693
 21
119.9935624124
  0
LINE
  5
359
100
AcDbEntity
  8
BEZUGSACHSEN
100
AcDbLine
 62
7
  6
CONTINUOUS
 10
170.7890000674
 20
130.4941313524
 11
172.5657385322
 21
120.4177467987
  0
LINE
  5
35A
100
AcDbEntity
  8
0
100
AcDbLine
 62
7
  6
CONTINUOUS
 10
214.9819360765
 20
121.7882616006
 11
216.2423689246
 21
121.7882616006
  0
LINE
  5
35B
100
AcDbEntity
  8
0
100
AcDbLine
 62
7
  6
CONTINUOUS
 10
216.3924587024
 20
122.6393254481
 11
215.9686190814
 21
122.6393254481
  0
LINE
  5
35C
100
AcDbEntity
  8
0
100
AcDbLine
 62
7
  6
CONTINUOUS
 10
215.137353962
 20
122.6393254481
 11
215.6626153913
 21
122.6393254481
  0
LINE
  5
35D
100
AcDbEntity
  8
0
100
AcDbLine
 62
7
  6
CONTINUOUS
 10
216.1632575402
 20
123.1499636851
 11
216.2811936307
 21
123.1499636851
  0
LINE
  5
35E
100
AcDbEntity
  8
0
100
AcDbLine
 62
7
  6
CONTINUOUS
 10
180.279387718
 20
117.7882616006
 11
180.279387718
 21
117.5882616006
  0
LINE
  5
35F
100
AcDbEntity
  8
0
100
AcDbLine
 62
7
  6
CONTINUOUS
 10
216.6129595649
 20
126.8946444474
 11
217.1211594243
 21
126.8946444474
  0
LINE
  5
360
100
AcDbEntity
  8
0
100
AcDbLine
 62
7
  6
CONTINUOUS
 10
216.7453605772
 20
127.5754954301
 11
217.2532877029
 21
127.5754954301
  0
LINE
  5
361
100
AcDbEntity
  8
0
100
AcDbLine
 62
7
  6
CONTINUOUS
 10
216.1414151498
 20
127.9159213982
 11
217.3133386492
 21
127.9159213982
  0
LINE
  5
362
100
AcDbEntity
  8
0
100
AcDbLine
 62
7
  6
CONTINUOUS
 10
217.0078951925
 20
128.4265596352
 11
217.3915276416
 21
128.4265596352
  0
LINE
  5
363
100
AcDbEntity
  8
0
100
AcDbLine
 62
7
  6
CONTINUOUS
 10
216.3056688318
 20
128.5967723809
 11
216.8274065906
 21
128.5967723809
  0
LINE
  5
364
100
AcDbEntity
  8
0
100
AcDbLine
 62
7
  6
CONTINUOUS
 10
217.1574224629
 20
128.7669851266
 11
217.4249093852
 21
128.7669851266
  0
LINE
  5
365
100
AcDbEntity
  8
0
100
AcDbLine
 62
7
  6
CONTINUOUS
 10
217.3104650987
 20
128.9371978722
 11
217.3867017438
 21
128.9371978722
  0
LINE
  5
366
100
AcDbEntity
  8
0
100
AcDbLine
 62
7
  6
CONTINUOUS
 10
216.5774159983
 20
129.2776233636
 11
217.0956498336
 21
129.2776233636
  0
LINE
  5
367
100
AcDbEntity
  8
0
100
AcDbLine
 62
7
  6
CONTINUOUS
 10
216.7661261026
 20
129.6180488549
 11
217.2814648989
 21
129.6180488549
  0
LINE
  5
368
100
AcDbEntity
  8
0
100
AcDbLine
 62
7
  6
CONTINUOUS
 10
216.9710126462
 20
129.7882616006
 11
217.5534559221
 21
129.7882616006
  0
LINE
  5
369
100
AcDbEntity
  8
0
100
AcDbLine
 62
7
  6
CONTINUOUS
 10
184.029387718
 20
117.5882616006
 11
184.029387718
 21
89.3382616006
  0
LINE
  5
36A
100
AcDbEntity
  8
BEZUGSACHSEN
100
AcDbLine
 62
7
  6
CONTINUOUS
 10
186.029387718
 20
148.641911342
 11
186.029387718
 21
191.402161109
  0
LINE
  5
36B
100
AcDbEntity
  8
BEZUGSACHSEN
100
AcDbLine
 62
7
  6
CONTINUOUS
 10
179.4772740231
 20
137.949792925
 11
172.2805948249
 21
134.2829017217
  0
LINE
  5
36C
100
AcDbEntity
  8
RUNDUNGEN
100
AcDbLine
 62
7
  6
CONTINUOUS
 10
208.5815014129
 20
137.949792925
 11
215.7781806111
 21
134.2829017217
  0
LINE
  5
36D
100
AcDbEntity
  8
RUNDUNGEN
100
AcDbLine
 62
7
  6
CONTINUOUS
 10
202.029387718
 20
148.641911342
 11
202.029387718
 21
191.402161109
  0
LINE
  5
36E
100
AcDbEntity
  8
0
100
AcDbLine
 62
7
  6
CONTINUOUS
 10
202.529387718
 20
185.4014181789
 11
202.529387718
 21
175.5755974172
  0
LINE
  5
36F
100
AcDbEntity
  8
0
100
AcDbLine
 62
7
  6
CONTINUOUS
 10
202.529387718
 20
174.9822513079
 11
202.529387718
 21
163.7475399439
  0
LINE
  5
370
100
AcDbEntity
  8
0
100
AcDbLine
 62
7
  6
CONTINUOUS
 10
204.029387718
 20
117.5882616006
 11
204.029387718
 21
89.3382616006
  0
LINE
  5
371
100
AcDbEntity
  8
0
100
AcDbLine
 62
7
  6
CONTINUOUS
 10
207.779387718
 20
117.7882616006
 11
207.779387718
 21
117.5882616006
  0
LINE
  5
372
100
AcDbEntity
  8
0
100
AcDbLine
 62
7
  6
CONTINUOUS
 10
202.029387718
 20
163.7475399439
 11
202.529387718
 21
163.7475399439
  0
LINE
  5
373
100
AcDbEntity
  8
0
100
AcDbLine
 62
7
  6
CONTINUOUS
 10
215.4930369038
 20
120.4177467987
 11
215.7346956409
 21
121.7882616006
  0
LINE
  5
374
100
AcDbEntity
  8
0
100
AcDbLine
 62
7
  6
CONTINUOUS
 10
217.1453114865
 20
129.7882616006
 11
217.2697753686
 21
130.4941313524
  0
LINE
  5
375
100
AcDbEntity
  8
0
100
AcDbLine
 62
7
  6
CONTINUOUS
 10
216.2424089468
 20
121.7882616006
 11
216.3924744654
 21
122.6393254481
  0
LINE
  5
376
100
AcDbEntity
  8
0
100
AcDbLine
 62
7
  6
CONTINUOUS
 10
217.0977920651
 20
126.6393803284
 11
217.4729589626
 21
128.7670575334
  0
LINE
  5
377
100
AcDbEntity
  8
0
100
AcDbLine
 62
7
  6
CONTINUOUS
 10
217.3133386492
 20
127.9159213982
 11
217.2532877029
 21
127.5754954301
  0
LINE
  5
378
100
AcDbEntity
  8
RUNDUNGEN
100
AcDbLine
 62
7
  6
CONTINUOUS
 10
215.3858458668
 20
119.9935624124
 11
215.4930369038
 21
120.4177467987
  0
LINE
  5
379
100
AcDbEntity
  8
0
100
AcDbLine
 62
7
  6
CONTINUOUS
 10
202.029387718
 20
165.2323234665
 11
202.529387718
 21
165.2323234665
  0
LINE
  5
37A
100
AcDbEntity
  8
0
100
AcDbLine
 62
7
  6
CONTINUOUS
 10
202.029387718
 20
167.0894326375
 11
202.529387718
 21
167.0894326375
  0
LINE
  5
37B
100
AcDbEntity
  8
0
100
AcDbLine
 62
7
  6
CONTINUOUS
 10
202.029387718
 20
167.4447393202
 11
202.529387718
 21
167.4447393202
  0
LINE
  5
37C
100
AcDbEntity
  8
0
100
AcDbLine
 62
7
  6
CONTINUOUS
 10
202.029387718
 20
167.6594840365
 11
202.529387718
 21
167.6594840365
  0
LINE
  5
37D
100
AcDbEntity
  8
0
100
AcDbLine
 62
7
  6
CONTINUOUS
 10
202.029387718
 20
167.7652581428
 11
202.529387718
 21
167.7652581428
  0
LINE
  5
37E
100
AcDbEntity
  8
0
100
AcDbLine
 62
7
  6
CONTINUOUS
 10
202.029387718
 20
167.8028179767
 11
202.529387718
 21
167.8028179767
  0
LINE
  5
37F
100
AcDbEntity
  8
0
100
AcDbLine
 62
7
  6
CONTINUOUS
 10
202.029387718
 20
167.8275149494
 11
202.529387718
 21
167.8275149494
  0
LINE
  5
380
100
AcDbEntity
  8
0
100
AcDbLine
 62
7
  6
CONTINUOUS
 10
202.029387718
 20
167.966833431
 11
202.529387718
 21
167.966833431
  0
LINE
  5
381
100
AcDbEntity
  8
0
100
AcDbLine
 62
7
  6
CONTINUOUS
 10
202.029387718
 20
169.2788581155
 11
202.529387718
 21
169.2788581155
  0
LINE
  5
382
100
AcDbEntity
  8
0
100
AcDbLine
 62
7
  6
CONTINUOUS
 10
202.029387718
 20
169.7126477406
 11
202.529387718
 21
169.7126477406
  0
LINE
  5
383
100
AcDbEntity
  8
0
100
AcDbLine
 62
7
  6
CONTINUOUS
 10
202.029387718
 20
169.8941888701
 11
202.529387718
 21
169.8941888701
  0
LINE
  5
384
100
AcDbEntity
  8
0
100
AcDbLine
 62
7
  6
CONTINUOUS
 10
202.029387718
 20
170.1357807291
 11
202.529387718
 21
170.1357807291
  0
LINE
  5
385
100
AcDbEntity
  8
0
100
AcDbLine
 62
7
  6
CONTINUOUS
 10
202.029387718
 20
171.4478054136
 11
202.529387718
 21
171.4478054136
  0
LINE
  5
386
100
AcDbEntity
  8
0
100
AcDbLine
 62
7
  6
CONTINUOUS
 10
202.029387718
 20
171.8815948319
 11
202.529387718
 21
171.8815948319
  0
LINE
  5
387
100
AcDbEntity
  8
0
100
AcDbLine
 62
7
  6
CONTINUOUS
 10
202.029387718
 20
172.920656321
 11
202.529387718
 21
172.920656321
  0
LINE
  5
388
100
AcDbEntity
  8
0
100
AcDbLine
 62
7
  6
CONTINUOUS
 10
202.029387718
 20
174.4959873528
 11
202.529387718
 21
174.4959873528
  0
LINE
  5
389
100
AcDbEntity
  8
0
100
AcDbLine
 62
7
  6
CONTINUOUS
 10
202.029387718
 20
174.7717472677
 11
202.529387718
 21
174.7717472677
  0
LINE
  5
38A
100
AcDbEntity
  8
0
100
AcDbLine
 62
7
  6
CONTINUOUS
 10
202.029387718
 20
174.9294335882
 11
202.529387718
 21
174.9294335882
  0
LINE
  5
38B
100
AcDbEntity
  8
0
100
AcDbLine
 62
7
  6
CONTINUOUS
 10
202.029387718
 20
174.9822513079
 11
202.529387718
 21
174.9822513079
  0
LINE
  5
38C
100
AcDbEntity
  8
0
100
AcDbLine
 62
7
  6
CONTINUOUS
 10
202.029387718
 20
175.5755974172
 11
202.529387718
 21
175.5755974172
  0
LINE
  5
38D
100
AcDbEntity
  8
0
100
AcDbLine
 62
7
  6
CONTINUOUS
 10
202.029387718
 20
175.9299415352
 11
202.529387718
 21
175.9299415352
  0
LINE
  5
38E
100
AcDbEntity
  8
0
100
AcDbLine
 62
7
  6
CONTINUOUS
 10
202.029387718
 20
176.2567905443
 11
202.529387718
 21
176.2567905443
  0
LINE
  5
38F
100
AcDbEntity
  8
0
100
AcDbLine
 62
7
  6
CONTINUOUS
 10
202.029387718
 20
179.4152104055
 11
202.529387718
 21
179.4152104055
  0
LINE
  5
390
100
AcDbEntity
  8
0
100
AcDbLine
 62
7
  6
CONTINUOUS
 10
202.029387718
 20
179.7220181624
 11
202.529387718
 21
179.7220181624
  0
LINE
  5
391
100
AcDbEntity
  8
0
100
AcDbLine
 62
7
  6
CONTINUOUS
 10
202.029387718
 20
180.3838223145
 11
202.529387718
 21
180.3838223145
  0
LINE
  5
392
100
AcDbEntity
  8
0
100
AcDbLine
 62
7
  6
CONTINUOUS
 10
202.029387718
 20
180.7847874046
 11
202.529387718
 21
180.7847874046
  0
LINE
  5
393
100
AcDbEntity
  8
0
100
AcDbLine
 62
7
  6
CONTINUOUS
 10
202.029387718
 20
181.8985793428
 11
202.529387718
 21
181.8985793428
  0
LINE
  5
394
100
AcDbEntity
  8
0
100
AcDbLine
 62
7
  6
CONTINUOUS
 10
202.029387718
 20
182.1658894029
 11
202.529387718
 21
182.1658894029
  0
LINE
  5
395
100
AcDbEntity
  8
0
100
AcDbLine
 62
7
  6
CONTINUOUS
 10
202.029387718
 20
182.3181086055
 11
202.529387718
 21
182.3181086055
  0
LINE
  5
396
100
AcDbEntity
  8
0
100
AcDbLine
 62
7
  6
CONTINUOUS
 10
202.029387718
 20
182.7639545667
 11
202.529387718
 21
182.7639545667
  0
LINE
  5
397
100
AcDbEntity
  8
0
100
AcDbLine
 62
7
  6
CONTINUOUS
 10
202.029387718
 20
183.0540035172
 11
202.529387718
 21
183.0540035172
  0
LINE
  5
398
100
AcDbEntity
  8
0
100
AcDbLine
 62
7
  6
CONTINUOUS
 10
202.029387718
 20
183.2997168035
 11
202.529387718
 21
183.2997168035
  0
LINE
  5
399
100
AcDbEntity
  8
0
100
AcDbLine
 62
7
  6
CONTINUOUS
 10
202.029387718
 20
183.5682204914
 11
202.529387718
 21
183.5682204914
  0
LINE
  5
39A
100
AcDbEntity
  8
0
100
AcDbLine
 62
7
  6
CONTINUOUS
 10
202.029387718
 20
183.6581369591
 11
202.529387718
 21
183.6581369591
  0
LINE
  5
39B
100
AcDbEntity
  8
0
100
AcDbLine
 62
7
  6
CONTINUOUS
 10
204.029387718
 20
89.3382616006
 11
202.279387718
 21
87.5882616006
  0
LINE
  5
39C
100
AcDbEntity
  8
0
100
AcDbLine
 62
7
  6
CONTINUOUS
 10
202.029387718
 20
184.5284107133
 11
202.529387718
 21
184.5284107133
  0
LINE
  5
39D
100
AcDbEntity
  8
0
100
AcDbLine
 62
7
  6
CONTINUOUS
 10
202.029387718
 20
184.6593618456
 11
202.529387718
 21
184.6593618456
  0
LINE
  5
39E
100
AcDbEntity
  8
0
100
AcDbLine
 62
7
  6
CONTINUOUS
 10
202.029387718
 20
185.2704670466
 11
202.529387718
 21
185.2704670466
  0
LINE
  5
39F
100
AcDbEntity
  8
0
100
AcDbLine
 62
7
  6
CONTINUOUS
 10
202.029387718
 20
185.4014181789
 11
202.529387718
 21
185.4014181789
  0
LINE
  5
3A0
100
AcDbEntity
  8
RUNDUNGEN
100
AcDbLine
 62
7
  6
CONTINUOUS
 10
199.029387718
 20
194.402161109
 11
189.029387718
 21
194.402161109
  0
LINE
  5
3A1
100
AcDbEntity
  8
RUNDUNGEN
100
AcDbLine
 62
7
  6
CONTINUOUS
 10
56.7042347019
 20
38.3714207849
 11
56.7042347019
 21
48.3714207849
  0
LINE
  5
3A2
100
AcDbEntity
  8
0
100
AcDbLine
 62
7
  6
CONTINUOUS
 10
64.8878602053
 20
35.3714207849
 11
64.8878602053
 21
34.8714207849
  0
LINE
  5
3A3
100
AcDbEntity
  8
0
100
AcDbLine
 62
7
  6
CONTINUOUS
 10
65.6302519665
 20
35.3714207849
 11
65.6302519665
 21
34.8714207849
  0
LINE
  5
3A4
100
AcDbEntity
  8
0
100
AcDbLine
 62
7
  6
CONTINUOUS
 10
65.8639428591
 20
35.3714207849
 11
65.8639428591
 21
34.8714207849
  0
LINE
  5
3A5
100
AcDbEntity
  8
0
100
AcDbLine
 62
7
  6
CONTINUOUS
 10
66.224752528
 20
35.3714207849
 11
66.224752528
 21
34.8714207849
  0
LINE
  5
3A6
100
AcDbEntity
  8
0
100
AcDbLine
 62
7
  6
CONTINUOUS
 10
66.6046417463
 20
35.3714207849
 11
66.6046417463
 21
34.8714207849
  0
LINE
  5
3A7
100
AcDbEntity
  8
0
100
AcDbLine
 62
7
  6
CONTINUOUS
 10
66.8532917002
 20
35.3714207849
 11
66.8532917002
 21
34.8714207849
  0
LINE
  5
3A8
100
AcDbEntity
  8
0
100
AcDbLine
 62
7
  6
CONTINUOUS
 10
67.8478910416
 20
35.3714207849
 11
67.8478910416
 21
34.8714207849
  0
LINE
  5
3A9
100
AcDbEntity
  8
0
100
AcDbLine
 62
7
  6
CONTINUOUS
 10
68.0965408769
 20
35.3714207849
 11
68.0965408769
 21
34.8714207849
  0
LINE
  5
3AA
100
AcDbEntity
  8
0
100
AcDbLine
 62
7
  6
CONTINUOUS
 10
68.7810875107
 20
35.3714207849
 11
68.7810875107
 21
34.8714207849
  0
LINE
  5
3AB
100
AcDbEntity
  8
0
100
AcDbLine
 62
7
  6
CONTINUOUS
 10
70.0132937191
 20
35.3714207849
 11
70.0132937191
 21
34.8714207849
  0
LINE
  5
3AC
100
AcDbEntity
  8
0
100
AcDbLine
 62
7
  6
CONTINUOUS
 10
70.3370388968
 20
35.3714207849
 11
70.3370388968
 21
34.8714207849
  0
LINE
  5
3AD
100
AcDbEntity
  8
0
100
AcDbLine
 62
7
  6
CONTINUOUS
 10
70.6764771125
 20
35.3714207849
 11
70.6764771125
 21
34.8714207849
  0
LWPOLYLINE
  5
3AE
100
AcDbEntity
  8
BEZUGSACHSEN
100
AcDbPolyline
 62
7
  6
CONTINUOUS
 90
4
 70
0
 10
75.6361045934
 20
58.5337983655
 10
75.5728645609
 20
58.461029385
 10
75.4913502213
 20
58.3663892435
 10
75.3602393553
 20
58.2121301585
  0
LWPOLYLINE
  5
3AF
100
AcDbEntity
  8
BEZUGSACHSEN
100
AcDbPolyline
 62
7
  6
CONTINUOUS
 90
7
 70
0
 10
75.3602929891
 20
58.2121987042
 10
74.8009270023
 20
57.5786210978
 10
74.1031491799
 20
56.8619988131
 10
73.3634087646
 20
56.1766599526
 10
72.5602005984
 20
55.5049698045
 10
71.6700395791
 20
54.8350774708
 10
70.8189236752
 20
54.2569742962
  0
LWPOLYLINE
  5
3B0
100
AcDbEntity
  8
RUNDUNGEN
100
AcDbPolyline
 62
7
  6
CONTINUOUS
 90
27
 70
0
 10
75.6361198658
 20
28.2090328721
 10
76.6269111866
 20
27.1429705724
 10
77.7994035623
 20
26.0369141712
 10
79.0424401588
 20
25.0155877186
 10
80.3504040181
 20
24.081555168
 10
81.7175603116
 20
23.2374903635
 10
83.1376674669
 20
22.4859780753
 10
84.6046395404
 20
21.8294751256
 10
86.1119135206
 20
21.270090951
 10
87.6530225649
 20
20.809774936
 10
89.2212988838
 20
20.4499646236
 10
90.8100856633
 20
20.1919974736
 10
92.4125599699
 20
20.036639254
 10
94.0218962238
 20
19.9845480628
 10
95.6312628216
 20
20.0357737423
 10
97.2338271143
 20
20.1902699457
 10
98.822764641
 20
20.4473822524
 10
100.3912518676
 20
20.8063486124
 10
101.9326321112
 20
21.2658354031
 10
103.4402362107
 20
21.8244085956
 10
104.9075971879
 20
22.480122868
 10
106.3281512581
 20
23.2308730135
 10
107.695810306
 20
24.0742056023
 10
109.0043296791
 20
25.0075377067
 10
110.2479719195
 20
26.0281981262
 10
111.4211214732
 20
27.1336290233
 10
112.4211615265
 20
28.2090331794
  0
LWPOLYLINE
  5
3B1
100
AcDbEntity
  8
RUNDUNGEN
100
AcDbPolyline
 62
7
  6
CONTINUOUS
 90
3
 70
0
 10
75.4913502213
 20
28.3764523263
 10
75.5728645609
 20
28.2818121847
 10
75.6361045934
 20
28.2090432043
  0
LINE
  5
3B2
100
AcDbEntity
  8
RUNDUNGEN
100
AcDbLine
 62
7
  6
CONTINUOUS
 10
75.3602393553
 20
28.5307114112
 11
75.4913502213
 21
28.3764523263
  0
LINE
  5
3B3
100
AcDbEntity
  8
RUNDUNGEN
100
AcDbLine
 62
7
  6
CONTINUOUS
 10
75.3602960493
 20
28.5306441693
 11
75.3602393553
 21
28.5307114112
  0
LINE
  5
3B4
100
AcDbEntity
  8
0
100
AcDbLine
 62
7
  6
CONTINUOUS
 10
71.1499860383
 20
35.3714207849
 11
71.1499860383
 21
34.8714207849
  0
LINE
  5
3B5
100
AcDbEntity
  8
0
100
AcDbLine
 62
7
  6
CONTINUOUS
 10
71.5208115052
 20
35.3714207849
 11
71.5208115052
 21
34.8714207849
  0
LINE
  5
3B6
100
AcDbEntity
  8
0
100
AcDbLine
 62
7
  6
CONTINUOUS
 10
71.9073301978
 20
35.3714207849
 11
71.9073301978
 21
34.8714207849
  0
LINE
  5
3B7
100
AcDbEntity
  8
0
100
AcDbLine
 62
7
  6
CONTINUOUS
 10
72.9128606176
 20
35.3714207849
 11
72.9128606176
 21
34.8714207849
  0
LINE
  5
3B8
100
AcDbEntity
  8
0
100
AcDbLine
 62
7
  6
CONTINUOUS
 10
73.1966956635
 20
35.3714207849
 11
73.1966956635
 21
34.8714207849
  0
LINE
  5
3B9
100
AcDbEntity
  8
0
100
AcDbLine
 62
7
  6
CONTINUOUS
 10
73.3621530841
 20
35.3714207849
 11
73.3621530841
 21
34.8714207849
  0
LINE
  5
3BA
100
AcDbEntity
  8
0
100
AcDbLine
 62
7
  6
CONTINUOUS
 10
73.4249270223
 20
35.3714207849
 11
73.4249270223
 21
34.8714207849
  0
LINE
  5
3BB
100
AcDbEntity
  8
BEZUGSACHSEN
100
AcDbLine
 62
7
  6
CONTINUOUS
 10
70.8150288797
 20
54.2544436132
 11
70.8189494757
 21
54.2569783341
  0
LWPOLYLINE
  5
3BC
100
AcDbEntity
  8
RUNDUNGEN
100
AcDbPolyline
 62
7
  6
CONTINUOUS
 90
7
 70
0
 10
70.8148957412
 20
32.4884717898
 10
71.6693490584
 20
31.9082565573
 10
72.558748497
 20
31.2390249649
 10
73.3608031712
 20
30.5684758182
 10
74.100030841
 20
29.8838827532
 10
74.7988412943
 20
29.1664775487
 10
75.3602936205
 20
28.5306421169
  0
LINE
  5
3BD
100
AcDbEntity
  8
0
100
AcDbLine
 62
7
  6
CONTINUOUS
 10
74.9625622441
 20
35.3714207849
 11
74.9625622441
 21
34.8714207849
  0
LINE
  5
3BE
100
AcDbEntity
  8
0
100
AcDbLine
 62
7
  6
CONTINUOUS
 10
75.3573647267
 20
35.3714207849
 11
75.3573647267
 21
34.8714207849
  0
LINE
  5
3BF
100
AcDbEntity
  8
0
100
AcDbLine
 62
7
  6
CONTINUOUS
 10
76.1805843291
 20
35.3714207849
 11
76.1805843291
 21
34.8714207849
  0
LINE
  5
3C0
100
AcDbEntity
  8
0
100
AcDbLine
 62
7
  6
CONTINUOUS
 10
76.8144037012
 20
35.3714207849
 11
76.8144037012
 21
34.8714207849
  0
LINE
  5
3C1
100
AcDbEntity
  8
0
100
AcDbLine
 62
7
  6
CONTINUOUS
 10
78.5750131019
 20
35.3714207849
 11
78.5750131019
 21
34.8714207849
  0
LINE
  5
3C2
100
AcDbEntity
  8
0
100
AcDbLine
 62
7
  6
CONTINUOUS
 10
78.99755935
 20
35.3714207849
 11
78.99755935
 21
34.8714207849
  0
LINE
  5
3C3
100
AcDbEntity
  8
0
100
AcDbLine
 62
7
  6
CONTINUOUS
 10
80.5717158779
 20
35.3714207849
 11
80.5717158779
 21
34.8714207849
  0
LINE
  5
3C4
100
AcDbEntity
  8
0
100
AcDbLine
 62
7
  6
CONTINUOUS
 10
80.5871587076
 20
35.3714207849
 11
80.5871587076
 21
34.8714207849
  0
LINE
  5
3C5
100
AcDbEntity
  8
0
100
AcDbLine
 62
7
  6
CONTINUOUS
 10
80.755153086
 20
35.3714207849
 11
80.755153086
 21
34.8714207849
  0
LINE
  5
3C6
100
AcDbEntity
  8
0
100
AcDbLine
 62
7
  6
CONTINUOUS
 10
80.9917016057
 20
35.3714207849
 11
80.9917016057
 21
34.8714207849
  0
LINE
  5
3C7
100
AcDbEntity
  8
0
100
AcDbLine
 62
7
  6
CONTINUOUS
 10
81.3388025338
 20
35.3714207849
 11
81.3388025338
 21
34.8714207849
  0
LINE
  5
3C8
100
AcDbEntity
  8
0
100
AcDbLine
 62
7
  6
CONTINUOUS
 10
81.9490074192
 20
35.3714207849
 11
81.9490074192
 21
34.8714207849
  0
LINE
  5
3C9
100
AcDbEntity
  8
0
100
AcDbLine
 62
7
  6
CONTINUOUS
 10
82.364662925
 20
35.3714207849
 11
82.364662925
 21
34.8714207849
  0
LINE
  5
3CA
100
AcDbEntity
  8
0
100
AcDbLine
 62
7
  6
CONTINUOUS
 10
82.7383192907
 20
35.3714207849
 11
82.7383192907
 21
34.8714207849
  0
LINE
  5
3CB
100
AcDbEntity
  8
0
100
AcDbLine
 62
7
  6
CONTINUOUS
 10
83.1805302341
 20
35.3714207849
 11
83.1805302341
 21
34.8714207849
  0
LINE
  5
3CC
100
AcDbEntity
  8
0
100
AcDbLine
 62
7
  6
CONTINUOUS
 10
83.4701900653
 20
35.3714207849
 11
83.4701900653
 21
34.8714207849
  0
LINE
  5
3CD
100
AcDbEntity
  8
0
100
AcDbLine
 62
7
  6
CONTINUOUS
 10
83.7178508524
 20
35.3714207849
 11
83.7178508524
 21
34.8714207849
  0
LINE
  5
3CE
100
AcDbEntity
  8
0
100
AcDbLine
 62
7
  6
CONTINUOUS
 10
84.2320069598
 20
35.3714207849
 11
84.2320069598
 21
34.8714207849
  0
LINE
  5
3CF
100
AcDbEntity
  8
0
100
AcDbLine
 62
7
  6
CONTINUOUS
 10
84.327116975
 20
35.3714207849
 11
84.327116975
 21
34.8714207849
  0
LINE
  5
3D0
100
AcDbEntity
  8
0
100
AcDbLine
 62
7
  6
CONTINUOUS
 10
84.3666553803
 20
35.3714207849
 11
84.3666553803
 21
34.8714207849
  0
LINE
  5
3D1
100
AcDbEntity
  8
0
100
AcDbLine
 62
7
  6
CONTINUOUS
 10
84.849202581
 20
35.3714207849
 11
84.849202581
 21
34.8714207849
  0
LINE
  5
3D2
100
AcDbEntity
  8
0
100
AcDbLine
 62
7
  6
CONTINUOUS
 10
93.5911402361
 20
55.6480165562
 11
93.2994738476
 21
55.3501442513
  0
LINE
  5
3D3
100
AcDbEntity
  8
0
100
AcDbLine
 62
7
  6
CONTINUOUS
 10
93.7369738476
 20
55.2756761751
 11
93.9557238476
 21
55.4246123275
  0
LINE
  5
3D4
100
AcDbEntity
  8
0
100
AcDbLine
 62
7
  6
CONTINUOUS
 10
97.2369734304
 20
55.7969527087
 11
96.8723906533
 21
55.57354848
  0
LINE
  5
3D5
100
AcDbEntity
  8
0
100
AcDbLine
 62
7
  6
CONTINUOUS
 10
93.8828070419
 20
55.7969527087
 11
93.5911402361
 21
55.6480165562
  0
LINE
  5
3D6
100
AcDbEntity
  8
RUNDUNGEN
100
AcDbLine
 62
7
  6
CONTINUOUS
 10
125.3083465811
 20
35.2904831928
 11
125.3084068146
 21
35.2904889234
  0
LINE
  5
3D7
100
AcDbEntity
  8
0
100
AcDbLine
 62
7
  6
CONTINUOUS
 10
122.0894162233
 20
34.8714207849
 11
116.5087885451
 21
34.8714207849
  0
LINE
  5
3D8
100
AcDbEntity
  8
0
100
AcDbLine
 62
7
  6
CONTINUOUS
 10
113.4276103148
 20
34.8714207849
 11
103.2182113796
 21
34.8714207849
  0
LINE
  5
3D9
100
AcDbEntity
  8
0
100
AcDbLine
 62
7
  6
CONTINUOUS
 10
101.7453974236
 20
34.8714207849
 11
98.5554297474
 21
34.8714207849
  0
LINE
  5
3DA
100
AcDbEntity
  8
0
100
AcDbLine
 62
7
  6
CONTINUOUS
 10
88.6312454704
 20
34.8714207849
 11
84.3666553803
 21
34.8714207849
  0
LINE
  5
3DB
100
AcDbEntity
  8
0
100
AcDbLine
 62
7
  6
CONTINUOUS
 10
84.327116975
 20
34.8714207849
 11
74.9625622441
 21
34.8714207849
  0
LINE
  5
3DC
100
AcDbEntity
  8
0
100
AcDbLine
 62
7
  6
CONTINUOUS
 10
73.4249270223
 20
34.8714207849
 11
64.8878602053
 21
34.8714207849
  0
LINE
  5
3DD
100
AcDbEntity
  8
RUNDUNGEN
100
AcDbLine
 62
7
  6
CONTINUOUS
 10
62.7488924444
 20
35.2904826395
 11
62.7489315986
 21
35.2904789144
  0
LINE
  5
3DE
100
AcDbEntity
  8
0
100
AcDbLine
 62
7
  6
CONTINUOUS
 10
86.3986469821
 20
35.3714207849
 11
86.3986469821
 21
34.8714207849
  0
LINE
  5
3DF
100
AcDbEntity
  8
0
100
AcDbLine
 62
7
  6
CONTINUOUS
 10
87.101089211
 20
35.3714207849
 11
87.101089211
 21
34.8714207849
  0
LINE
  5
3E0
100
AcDbEntity
  8
0
100
AcDbLine
 62
7
  6
CONTINUOUS
 10
87.5836364118
 20
35.3714207849
 11
87.5836364118
 21
34.8714207849
  0
LINE
  5
3E1
100
AcDbEntity
  8
0
100
AcDbLine
 62
7
  6
CONTINUOUS
 10
91.9140570419
 20
55.8714207849
 11
90.8203070419
 21
52.7437612182
  0
LINE
  5
3E2
100
AcDbEntity
  8
0
100
AcDbLine
 62
7
  6
CONTINUOUS
 10
91.111973639
 20
52.3714207849
 11
92.1328070419
 21
55.1267400226
  0
LINE
  5
3E3
100
AcDbEntity
  8
0
100
AcDbLine
 62
7
  6
CONTINUOUS
 10
93.5911402361
 20
55.0522719464
 11
93.7369738476
 21
55.2756761751
  0
LINE
  5
3E4
100
AcDbEntity
  8
0
100
AcDbLine
 62
7
  6
CONTINUOUS
 10
96.8723906533
 20
55.57354848
 11
96.6536406533
 21
55.3501442513
  0
LINE
  5
3E5
100
AcDbEntity
  8
0
100
AcDbLine
 62
7
  6
CONTINUOUS
 10
95.1953070419
 20
54.6054632804
 11
93.1536402361
 21
52.7437612182
  0
LINE
  5
3E6
100
AcDbEntity
  8
0
100
AcDbLine
 62
7
  6
CONTINUOUS
 10
93.7369738476
 20
52.7437612182
 11
95.5598902361
 21
54.3820590517
  0
LINE
  5
3E7
100
AcDbEntity
  8
0
100
AcDbLine
 62
7
  6
CONTINUOUS
 10
97.0911406533
 20
55.2756761751
 11
97.3098906533
 21
55.4246123275
  0
LINE
  5
3E8
100
AcDbEntity
  8
0
100
AcDbLine
 62
7
  6
CONTINUOUS
 10
98.2578070419
 20
52.9671654469
 11
98.0390570419
 21
52.8182292944
  0
LINE
  5
3E9
100
AcDbEntity
  8
0
100
AcDbLine
 62
7
  6
CONTINUOUS
 10
98.1119734304
 20
52.4458888676
 11
98.4765570419
 21
52.6692931159
  0
LINE
  5
3EA
100
AcDbEntity
  8
RUNDUNGEN
100
AcDbLine
 62
7
  6
CONTINUOUS
 10
59.7042614036
 20
35.3714207849
 11
128.3524837964
 21
35.3714207849
  0
LINE
  5
3EB
100
AcDbEntity
  8
0
100
AcDbLine
 62
7
  6
CONTINUOUS
 10
88.6312454704
 20
35.3714207849
 11
88.6312454704
 21
34.8714207849
  0
LINE
  5
3EC
100
AcDbEntity
  8
0
100
AcDbLine
 62
7
  6
CONTINUOUS
 10
89.0703070419
 20
55.8714207849
 11
89.0703070419
 21
52.3714207849
  0
LINE
  5
3ED
100
AcDbEntity
  8
0
100
AcDbLine
 62
7
  6
CONTINUOUS
 10
89.3619740264
 20
20.427123569
 11
89.3619740264
 21
20.3051586693
  0
LINE
  5
3EE
100
AcDbEntity
  8
0
100
AcDbLine
 62
7
  6
CONTINUOUS
 10
89.5078070419
 20
52.3714207849
 11
89.5078070419
 21
55.1267400226
  0
LINE
  5
3EF
100
AcDbEntity
  8
0
100
AcDbLine
 62
7
  6
CONTINUOUS
 10
90.0286406533
 20
20.3188786541
 11
90.0286406533
 21
20.119343604
  0
LINE
  5
3F0
100
AcDbEntity
  8
0
100
AcDbLine
 62
7
  6
CONTINUOUS
 10
91.1953072803
 20
20.154650638
 11
91.1953072803
 21
19.9183090234
  0
LINE
  5
3F1
100
AcDbEntity
  8
0
100
AcDbLine
 62
7
  6
CONTINUOUS
 10
93.2994738476
 20
55.3501442513
 11
93.2265570419
 21
55.0522719464
  0
LINE
  5
3F2
100
AcDbEntity
  8
0
100
AcDbLine
 62
7
  6
CONTINUOUS
 10
95.3411402361
 20
54.9033355853
 11
95.1953070419
 21
54.6054632804
  0
LINE
  5
3F3
100
AcDbEntity
  8
0
100
AcDbLine
 62
7
  6
CONTINUOUS
 10
96.6536406533
 20
55.3501442513
 11
96.5078070419
 21
55.0522719464
  0
LINE
  5
3F4
100
AcDbEntity
  8
0
100
AcDbLine
 62
7
  6
CONTINUOUS
 10
95.5598902361
 20
54.3820590517
 11
95.7057238476
 21
54.6054632804
  0
LINE
  5
3F5
100
AcDbEntity
  8
0
100
AcDbLine
 62
7
  6
CONTINUOUS
 10
96.7994734304
 20
54.8288675091
 11
97.0911406533
 21
55.2756761751
  0
LINE
  5
3F6
100
AcDbEntity
  8
0
100
AcDbLine
 62
7
  6
CONTINUOUS
 10
98.4765570419
 20
52.6692931159
 11
98.6953070419
 21
52.8926973706
  0
LINE
  5
3F7
100
AcDbEntity
  8
0
100
AcDbLine
 62
7
  6
CONTINUOUS
 10
91.8619740264
 20
20.0900179894
 11
91.8619740264
 21
19.8473525808
  0
LINE
  5
3F8
100
AcDbEntity
  8
0
100
AcDbLine
 62
7
  6
CONTINUOUS
 10
92.1328070419
 20
55.1267400226
 11
92.1328070419
 21
52.3714207849
  0
LINE
  5
3F9
100
AcDbEntity
  8
0
100
AcDbLine
 62
7
  6
CONTINUOUS
 10
92.5703070419
 20
52.3714207849
 11
92.5703070419
 21
55.8714207849
  0
LINE
  5
3FA
100
AcDbEntity
  8
0
100
AcDbLine
 62
7
  6
CONTINUOUS
 10
92.8619740264
 20
20.0220925653
 11
92.8619740264
 21
19.806659349
  0
LINE
  5
3FB
100
AcDbEntity
  8
0
100
AcDbLine
 62
7
  6
CONTINUOUS
 10
93.1536402361
 20
52.7437612182
 11
93.1536402361
 21
52.3714207849
  0
LINE
  5
3FC
100
AcDbEntity
  8
0
100
AcDbLine
 62
7
  6
CONTINUOUS
 10
93.5286405341
 20
20.0005138228
 11
93.5286405341
 21
19.8431351636
  0
LINE
  5
3FD
100
AcDbEntity
  8
0
100
AcDbLine
 62
7
  6
CONTINUOUS
 10
94.1953075187
 20
19.9900676948
 11
94.1953075187
 21
19.9584686157
  0
LINE
  5
3FE
100
AcDbEntity
  8
0
100
AcDbLine
 62
7
  6
CONTINUOUS
 10
96.4348906533
 20
54.8288675091
 11
96.3619734304
 21
54.4565271279
  0
LINE
  5
3FF
100
AcDbEntity
  8
0
100
AcDbLine
 62
7
  6
CONTINUOUS
 10
95.7057238476
 20
54.6054632804
 11
95.7786402361
 21
54.9033355853
  0
LINE
  5
400
100
AcDbEntity
  8
0
100
AcDbLine
 62
7
  6
CONTINUOUS
 10
96.5078070419
 20
55.0522719464
 11
96.4348906533
 21
54.8288675091
  0
LINE
  5
401
100
AcDbEntity
  8
0
100
AcDbLine
 62
7
  6
CONTINUOUS
 10
98.6953070419
 20
52.8926973706
 11
98.8411406533
 21
53.1905697277
  0
LINE
  5
402
100
AcDbEntity
  8
0
100
AcDbLine
 62
7
  6
CONTINUOUS
 10
98.5494734304
 20
53.4139739564
 11
98.2578070419
 21
52.9671654469
  0
LINE
  5
403
100
AcDbEntity
  8
0
100
AcDbLine
 62
7
  6
CONTINUOUS
 10
89.5078070419
 20
55.1267400226
 11
90.5286403404
 21
52.3714207849
  0
LINE
  5
404
100
AcDbEntity
  8
0
100
AcDbLine
 62
7
  6
CONTINUOUS
 10
90.8203070419
 20
52.7437612182
 11
89.7265570419
 21
55.8714207849
  0
LINE
  5
405
100
AcDbEntity
  8
0
100
AcDbLine
 62
7
  6
CONTINUOUS
 10
95.3411402361
 20
55.0522719464
 11
95.3411402361
 21
54.9033355853
  0
LINE
  5
406
100
AcDbEntity
  8
0
100
AcDbLine
 62
7
  6
CONTINUOUS
 10
95.7786402361
 20
52.3714207849
 11
95.7786402361
 21
52.7437612182
  0
LINE
  5
407
100
AcDbEntity
  8
0
100
AcDbLine
 62
7
  6
CONTINUOUS
 10
95.7786402361
 20
54.9033355853
 11
95.7786402361
 21
55.0522719464
  0
LINE
  5
408
100
AcDbEntity
  8
0
100
AcDbLine
 62
7
  6
CONTINUOUS
 10
96.3619734304
 20
54.4565271279
 11
96.3619734304
 21
53.7863144419
  0
LINE
  5
409
100
AcDbEntity
  8
0
100
AcDbLine
 62
7
  6
CONTINUOUS
 10
96.7265570419
 20
53.8607825181
 11
96.7265570419
 21
54.3820590517
  0
LINE
  5
40A
100
AcDbEntity
  8
0
100
AcDbLine
 62
7
  6
CONTINUOUS
 10
97.028641011
 20
20.1704888523
 11
97.028641011
 21
20.1508672967
  0
LINE
  5
40B
100
AcDbEntity
  8
0
100
AcDbLine
 62
7
  6
CONTINUOUS
 10
96.7265570419
 20
54.3820590517
 11
96.7994734304
 21
54.8288675091
  0
LINE
  5
40C
100
AcDbEntity
  8
0
100
AcDbLine
 62
7
  6
CONTINUOUS
 10
98.6223906533
 20
53.8607825181
 11
98.5494734304
 21
53.4139739564
  0
LINE
  5
40D
100
AcDbEntity
  8
0
100
AcDbLine
 62
7
  6
CONTINUOUS
 10
98.9140570419
 20
53.4139739564
 11
98.9869734304
 21
53.7863144419
  0
LINE
  5
40E
100
AcDbEntity
  8
0
100
AcDbLine
 62
7
  6
CONTINUOUS
 10
98.8411406533
 20
53.1905697277
 11
98.9140570419
 21
53.4139739564
  0
LINE
  5
40F
100
AcDbEntity
  8
0
100
AcDbLine
 62
7
  6
CONTINUOUS
 10
98.5554297474
 20
35.3714207849
 11
98.5554297474
 21
34.8714207849
  0
LINE
  5
410
100
AcDbEntity
  8
0
100
AcDbLine
 62
7
  6
CONTINUOUS
 10
98.6223906533
 20
54.3820590517
 11
98.6223906533
 21
53.8607825181
  0
LINE
  5
411
100
AcDbEntity
  8
0
100
AcDbLine
 62
7
  6
CONTINUOUS
 10
98.9869734304
 20
53.7863144419
 11
98.9869734304
 21
54.4565271279
  0
LINE
  5
412
100
AcDbEntity
  8
0
100
AcDbLine
 62
7
  6
CONTINUOUS
 10
99.0435671843
 20
35.3714207849
 11
99.0435671843
 21
34.8714207849
  0
LINE
  5
413
100
AcDbEntity
  8
0
100
AcDbLine
 62
7
  6
CONTINUOUS
 10
99.0696379
 20
35.3714207849
 11
99.0696379
 21
34.8714207849
  0
LINE
  5
414
100
AcDbEntity
  8
0
100
AcDbLine
 62
7
  6
CONTINUOUS
 10
99.1496400197
 20
35.3714207849
 11
99.1496400197
 21
34.8714207849
  0
LINE
  5
415
100
AcDbEntity
  8
0
100
AcDbLine
 62
7
  6
CONTINUOUS
 10
99.2233540772
 20
35.3714207849
 11
99.2233540772
 21
34.8714207849
  0
LINE
  5
416
100
AcDbEntity
  8
0
100
AcDbLine
 62
7
  6
CONTINUOUS
 10
99.3784243323
 20
35.3714207849
 11
99.3784243323
 21
34.8714207849
  0
LINE
  5
417
100
AcDbEntity
  8
0
100
AcDbLine
 62
7
  6
CONTINUOUS
 10
99.7775633058
 20
35.3714207849
 11
99.7775633058
 21
34.8714207849
  0
LINE
  5
418
100
AcDbEntity
  8
0
100
AcDbLine
 62
7
  6
CONTINUOUS
 10
100.1398452473
 20
35.3714207849
 11
100.1398452473
 21
34.8714207849
  0
LINE
  5
419
100
AcDbEntity
  8
0
100
AcDbLine
 62
7
  6
CONTINUOUS
 10
96.4348906533
 20
53.4139739564
 11
96.5078070419
 21
53.1905697277
  0
LINE
  5
41A
100
AcDbEntity
  8
0
100
AcDbLine
 62
7
  6
CONTINUOUS
 10
95.7786402361
 20
55.0522719464
 11
95.7057238476
 21
55.3501442513
  0
LINE
  5
41B
100
AcDbEntity
  8
0
100
AcDbLine
 62
7
  6
CONTINUOUS
 10
96.3619734304
 20
53.7863144419
 11
96.4348906533
 21
53.4139739564
  0
LINE
  5
41C
100
AcDbEntity
  8
0
100
AcDbLine
 62
7
  6
CONTINUOUS
 10
96.7994734304
 20
53.4139739564
 11
96.7265570419
 21
53.8607825181
  0
LINE
  5
41D
100
AcDbEntity
  8
0
100
AcDbLine
 62
7
  6
CONTINUOUS
 10
100.4836987455
 20
35.3714207849
 11
100.4836987455
 21
34.8714207849
  0
LINE
  5
41E
100
AcDbEntity
  8
0
100
AcDbLine
 62
7
  6
CONTINUOUS
 10
100.8904799042
 20
35.3714207849
 11
100.8904799042
 21
34.8714207849
  0
LINE
  5
41F
100
AcDbEntity
  8
0
100
AcDbLine
 62
7
  6
CONTINUOUS
 10
101.2788326777
 20
35.3714207849
 11
101.2788326777
 21
34.8714207849
  0
LINE
  5
420
100
AcDbEntity
  8
0
100
AcDbLine
 62
7
  6
CONTINUOUS
 10
101.5489720536
 20
35.3714207849
 11
101.5489720536
 21
34.8714207849
  0
LINE
  5
421
100
AcDbEntity
  8
0
100
AcDbLine
 62
7
  6
CONTINUOUS
 10
101.7193267662
 20
35.3714207849
 11
101.7193267662
 21
34.8714207849
  0
LINE
  5
422
100
AcDbEntity
  8
0
100
AcDbLine
 62
7
  6
CONTINUOUS
 10
101.7453974236
 20
35.3714207849
 11
101.7453974236
 21
34.8714207849
  0
LINE
  5
423
100
AcDbEntity
  8
0
100
AcDbLine
 62
7
  6
CONTINUOUS
 10
103.2182113796
 20
35.3714207849
 11
103.2182113796
 21
34.8714207849
  0
LINE
  5
424
100
AcDbEntity
  8
0
100
AcDbLine
 62
7
  6
CONTINUOUS
 10
103.2295735717
 20
35.3714207849
 11
103.2295735717
 21
34.8714207849
  0
LINE
  5
425
100
AcDbEntity
  8
0
100
AcDbLine
 62
7
  6
CONTINUOUS
 10
98.0390570419
 20
52.8182292944
 11
97.6744734304
 21
52.7437612182
  0
LINE
  5
426
100
AcDbEntity
  8
0
100
AcDbLine
 62
7
  6
CONTINUOUS
 10
97.6744734304
 20
52.3714207849
 11
98.1119734304
 21
52.4458888676
  0
LINE
  5
427
100
AcDbEntity
  8
BEZUGSACHSEN
100
AcDbLine
 62
7
  6
CONTINUOUS
 10
59.7042614036
 20
51.3714207849
 11
128.3524837964
 21
51.3714207849
  0
LINE
  5
428
100
AcDbEntity
  8
0
100
AcDbLine
 62
7
  6
CONTINUOUS
 10
89.0703070419
 20
52.3714207849
 11
89.5078070419
 21
52.3714207849
  0
LINE
  5
429
100
AcDbEntity
  8
0
100
AcDbLine
 62
7
  6
CONTINUOUS
 10
90.5286403404
 20
52.3714207849
 11
91.111973639
 21
52.3714207849
  0
LINE
  5
42A
100
AcDbEntity
  8
0
100
AcDbLine
 62
7
  6
CONTINUOUS
 10
92.1328070419
 20
52.3714207849
 11
92.5703070419
 21
52.3714207849
  0
LINE
  5
42B
100
AcDbEntity
  8
0
100
AcDbLine
 62
7
  6
CONTINUOUS
 10
93.1536402361
 20
52.3714207849
 11
95.7786402361
 21
52.3714207849
  0
LINE
  5
42C
100
AcDbEntity
  8
0
100
AcDbLine
 62
7
  6
CONTINUOUS
 10
96.6536406533
 20
52.8926973706
 11
96.8723906533
 21
52.6692931159
  0
LINE
  5
42D
100
AcDbEntity
  8
0
100
AcDbLine
 62
7
  6
CONTINUOUS
 10
95.1953070419
 20
55.2756761751
 11
95.3411402361
 21
55.0522719464
  0
LINE
  5
42E
100
AcDbEntity
  8
0
100
AcDbLine
 62
7
  6
CONTINUOUS
 10
97.0911406533
 20
52.9671654469
 11
96.7994734304
 21
53.4139739564
  0
LINE
  5
42F
100
AcDbEntity
  8
0
100
AcDbLine
 62
7
  6
CONTINUOUS
 10
96.5078070419
 20
53.1905697277
 11
96.6536406533
 21
52.8926973706
  0
LINE
  5
430
100
AcDbEntity
  8
0
100
AcDbLine
 62
7
  6
CONTINUOUS
 10
98.9140570419
 20
54.8288675091
 11
98.8411406533
 21
55.0522719464
  0
LINE
  5
431
100
AcDbEntity
  8
0
100
AcDbLine
 62
7
  6
CONTINUOUS
 10
98.9869734304
 20
54.4565271279
 11
98.9140570419
 21
54.8288675091
  0
LINE
  5
432
100
AcDbEntity
  8
0
100
AcDbLine
 62
7
  6
CONTINUOUS
 10
98.5494734304
 20
54.8288675091
 11
98.6223906533
 21
54.3820590517
  0
LINE
  5
433
100
AcDbEntity
  8
0
100
AcDbLine
 62
7
  6
CONTINUOUS
 10
103.3794807974
 20
35.3714207849
 11
103.3794807974
 21
34.8714207849
  0
LINE
  5
434
100
AcDbEntity
  8
0
100
AcDbLine
 62
7
  6
CONTINUOUS
 10
97.3098906533
 20
55.4246123275
 11
97.6744734304
 21
55.4990804037
  0
LINE
  5
435
100
AcDbEntity
  8
0
100
AcDbLine
 62
7
  6
CONTINUOUS
 10
93.9557238476
 20
55.4246123275
 11
94.3203070419
 21
55.4990804037
  0
LINE
  5
436
100
AcDbEntity
  8
0
100
AcDbLine
 62
7
  6
CONTINUOUS
 10
97.6744734304
 20
55.8714207849
 11
97.2369734304
 21
55.7969527087
  0
LINE
  5
437
100
AcDbEntity
  8
BEZUGSACHSEN
100
AcDbLine
 62
7
  6
CONTINUOUS
 10
62.7488924444
 20
51.4523589303
 11
62.7489315986
 21
51.4523626554
  0
LINE
  5
438
100
AcDbEntity
  8
0
100
AcDbLine
 62
7
  6
CONTINUOUS
 10
95.7786402361
 20
52.7437612182
 11
93.7369738476
 21
52.7437612182
  0
LINE
  5
439
100
AcDbEntity
  8
0
100
AcDbLine
 62
7
  6
CONTINUOUS
 10
93.2265570419
 20
55.0522719464
 11
93.5911402361
 21
55.0522719464
  0
LINE
  5
43A
100
AcDbEntity
  8
0
100
AcDbLine
 62
7
  6
CONTINUOUS
 10
94.3203070419
 20
55.4990804037
 11
94.6119738476
 21
55.4990804037
  0
LINE
  5
43B
100
AcDbEntity
  8
BEZUGSACHSEN
100
AcDbLine
 62
7
  6
CONTINUOUS
 10
125.3083465811
 20
51.452358377
 11
125.3084068146
 21
51.4523526464
  0
LINE
  5
43C
100
AcDbEntity
  8
0
100
AcDbLine
 62
7
  6
CONTINUOUS
 10
97.2369734304
 20
52.4458888676
 11
97.6744734304
 21
52.3714207849
  0
LINE
  5
43D
100
AcDbEntity
  8
0
100
AcDbLine
 62
7
  6
CONTINUOUS
 10
97.6744734304
 20
52.7437612182
 11
97.3098906533
 21
52.8182292944
  0
LINE
  5
43E
100
AcDbEntity
  8
0
100
AcDbLine
 62
7
  6
CONTINUOUS
 10
94.6119738476
 20
55.4990804037
 11
94.9765570419
 21
55.4246123275
  0
LINE
  5
43F
100
AcDbEntity
  8
0
100
AcDbLine
 62
7
  6
CONTINUOUS
 10
95.4140570419
 20
55.6480165562
 11
95.1223902361
 21
55.7969527087
  0
LINE
  5
440
100
AcDbEntity
  8
0
100
AcDbLine
 62
7
  6
CONTINUOUS
 10
96.8723906533
 20
52.6692931159
 11
97.2369734304
 21
52.4458888676
  0
LINE
  5
441
100
AcDbEntity
  8
0
100
AcDbLine
 62
7
  6
CONTINUOUS
 10
97.3098906533
 20
52.8182292944
 11
97.0911406533
 21
52.9671654469
  0
LINE
  5
442
100
AcDbEntity
  8
0
100
AcDbLine
 62
7
  6
CONTINUOUS
 10
94.9765570419
 20
55.4246123275
 11
95.1953070419
 21
55.2756761751
  0
LINE
  5
443
100
AcDbEntity
  8
0
100
AcDbLine
 62
7
  6
CONTINUOUS
 10
95.7057238476
 20
55.3501442513
 11
95.4140570419
 21
55.6480165562
  0
LINE
  5
444
100
AcDbEntity
  8
0
100
AcDbLine
 62
7
  6
CONTINUOUS
 10
98.6953070419
 20
55.3501442513
 11
98.4765570419
 21
55.57354848
  0
LINE
  5
445
100
AcDbEntity
  8
0
100
AcDbLine
 62
7
  6
CONTINUOUS
 10
98.2578070419
 20
55.2756761751
 11
98.5494734304
 21
54.8288675091
  0
LINE
  5
446
100
AcDbEntity
  8
0
100
AcDbLine
 62
7
  6
CONTINUOUS
 10
98.8411406533
 20
55.0522719464
 11
98.6953070419
 21
55.3501442513
  0
LINE
  5
447
100
AcDbEntity
  8
0
100
AcDbLine
 62
7
  6
CONTINUOUS
 10
106.3431446395
 20
35.3714207849
 11
106.3431446395
 21
34.8714207849
  0
LINE
  5
448
100
AcDbEntity
  8
0
100
AcDbLine
 62
7
  6
CONTINUOUS
 10
108.6525797038
 20
35.3714207849
 11
108.6525797038
 21
34.8714207849
  0
LINE
  5
449
100
AcDbEntity
  8
0
100
AcDbLine
 62
7
  6
CONTINUOUS
 10
94.3932238476
 20
55.8714207849
 11
93.8828070419
 21
55.7969527087
  0
LINE
  5
44A
100
AcDbEntity
  8
0
100
AcDbLine
 62
7
  6
CONTINUOUS
 10
94.6848902361
 20
55.8714207849
 11
94.3932238476
 21
55.8714207849
  0
LINE
  5
44B
100
AcDbEntity
  8
0
100
AcDbLine
 62
7
  6
CONTINUOUS
 10
92.5703070419
 20
55.8714207849
 11
91.9140570419
 21
55.8714207849
  0
LINE
  5
44C
100
AcDbEntity
  8
0
100
AcDbLine
 62
7
  6
CONTINUOUS
 10
89.7265570419
 20
55.8714207849
 11
89.0703070419
 21
55.8714207849
  0
LINE
  5
44D
100
AcDbEntity
  8
0
100
AcDbLine
 62
7
  6
CONTINUOUS
 10
95.1223902361
 20
55.7969527087
 11
94.6848902361
 21
55.8714207849
  0
LINE
  5
44E
100
AcDbEntity
  8
0
100
AcDbLine
 62
7
  6
CONTINUOUS
 10
98.1119734304
 20
55.7969527087
 11
97.6744734304
 21
55.8714207849
  0
LINE
  5
44F
100
AcDbEntity
  8
0
100
AcDbLine
 62
7
  6
CONTINUOUS
 10
97.6744734304
 20
55.4990804037
 11
98.0390570419
 21
55.4246123275
  0
LINE
  5
450
100
AcDbEntity
  8
0
100
AcDbLine
 62
7
  6
CONTINUOUS
 10
98.4765570419
 20
55.57354848
 11
98.1119734304
 21
55.7969527087
  0
LINE
  5
451
100
AcDbEntity
  8
0
100
AcDbLine
 62
7
  6
CONTINUOUS
 10
98.0390570419
 20
55.4246123275
 11
98.2578070419
 21
55.2756761751
  0
LINE
  5
452
100
AcDbEntity
  8
0
100
AcDbLine
 62
7
  6
CONTINUOUS
 10
109.2355683359
 20
35.3714207849
 11
109.2355683359
 21
34.8714207849
  0
LINE
  5
453
100
AcDbEntity
  8
0
100
AcDbLine
 62
7
  6
CONTINUOUS
 10
111.4499111364
 20
35.3714207849
 11
111.4499111364
 21
34.8714207849
  0
LINE
  5
454
100
AcDbEntity
  8
0
100
AcDbLine
 62
7
  6
CONTINUOUS
 10
113.038630958
 20
35.3714207849
 11
113.038630958
 21
34.8714207849
  0
LINE
  5
455
100
AcDbEntity
  8
0
100
AcDbLine
 62
7
  6
CONTINUOUS
 10
113.3179168626
 20
35.3714207849
 11
113.3179168626
 21
34.8714207849
  0
LINE
  5
456
100
AcDbEntity
  8
0
100
AcDbLine
 62
7
  6
CONTINUOUS
 10
113.4276103148
 20
35.3714207849
 11
113.4276103148
 21
34.8714207849
  0
LINE
  5
457
100
AcDbEntity
  8
0
100
AcDbLine
 62
7
  6
CONTINUOUS
 10
116.5086405341
 20
35.3714207849
 11
116.5086405341
 21
34.8714207849
  0
LINE
  5
458
100
AcDbEntity
  8
RUNDUNGEN
100
AcDbLine
 62
7
  6
CONTINUOUS
 10
112.556853562
 20
28.3658658877
 11
112.6970417061
 21
28.5307114025
  0
LINE
  5
459
100
AcDbEntity
  8
RUNDUNGEN
100
AcDbLine
 62
7
  6
CONTINUOUS
 10
112.4211764944
 20
28.209043232
 11
112.556853562
 21
28.3658658877
  0
LWPOLYLINE
  5
45A
100
AcDbEntity
  8
RUNDUNGEN
100
AcDbPolyline
 62
7
  6
CONTINUOUS
 90
7
 70
0
 10
112.6969845306
 20
28.5306412185
 10
113.2507897844
 20
29.158197504
 10
113.9494819022
 20
29.8763051697
 10
114.688210436
 20
30.5611929017
 10
115.4896802021
 20
31.2319929169
 10
116.3787904701
 20
31.9017366865
 10
117.2384788084
 20
32.485945701
  0
LINE
  5
45B
100
AcDbEntity
  8
RUNDUNGEN
100
AcDbLine
 62
7
  6
CONTINUOUS
 10
117.2384535743
 20
32.485942115
 11
117.2422521885
 21
32.4883979566
  0
LWPOLYLINE
  5
45C
100
AcDbEntity
  8
BEZUGSACHSEN
100
AcDbPolyline
 62
7
  6
CONTINUOUS
 90
7
 70
0
 10
117.2423816565
 20
54.2543722548
 10
116.3780861294
 20
54.8416077342
 10
115.4882082667
 20
55.512018911
 10
114.6855879713
 20
56.1839602612
 10
113.9463532948
 20
56.8695898317
 10
113.2486992105
 20
57.5869090974
 10
112.6969852196
 20
58.2121995342
  0
LWPOLYLINE
  5
45D
100
AcDbEntity
  8
BEZUGSACHSEN
100
AcDbPolyline
 62
7
  6
CONTINUOUS
 90
27
 70
0
 10
112.4211615265
 20
58.5338083904
 10
111.4211214732
 20
59.6092125464
 10
110.2479719195
 20
60.7146434436
 10
109.0043296791
 20
61.7353038631
 10
107.695810306
 20
62.6686359675
 10
106.3281512581
 20
63.5119685563
 10
104.9075971879
 20
64.2627187018
 10
103.4402362107
 20
64.9184329741
 10
101.9326321112
 20
65.4770061667
 10
100.3912518676
 20
65.9364929574
 10
98.822764641
 20
66.2954593174
 10
97.2338271143
 20
66.552571624
 10
95.6312628216
 20
66.7070678275
 10
94.0218962238
 20
66.7582935069
 10
92.4125599699
 20
66.7062023158
 10
90.8100856633
 20
66.5508440962
 10
89.2212988838
 20
66.2928769461
 10
87.6530225649
 20
65.9330666338
 10
86.1119135206
 20
65.4727506187
 10
84.6046395404
 20
64.9133664441
 10
83.1376674669
 20
64.2568634944
 10
81.7175603116
 20
63.5053512063
 10
80.3504040181
 20
62.6612864017
 10
79.0424401588
 20
61.7272538512
 10
77.7994035623
 20
60.7059273986
 10
76.6269111866
 20
59.5998709974
 10
75.6361198658
 20
58.5338086977
  0
LINE
  5
45E
100
AcDbEntity
  8
BEZUGSACHSEN
100
AcDbLine
 62
7
  6
CONTINUOUS
 10
112.556853562
 20
58.3769756821
 11
112.4211764944
 21
58.5337983377
  0
LINE
  5
45F
100
AcDbEntity
  8
BEZUGSACHSEN
100
AcDbLine
 62
7
  6
CONTINUOUS
 10
112.6970417061
 20
58.2121301672
 11
112.556853562
 21
58.3769756821
  0
LINE
  5
460
100
AcDbEntity
  8
BEZUGSACHSEN
100
AcDbLine
 62
7
  6
CONTINUOUS
 10
112.6969852196
 20
58.2121995342
 11
112.6970428738
 21
58.2121311539
  0
LINE
  5
461
100
AcDbEntity
  8
0
100
AcDbLine
 62
7
  6
CONTINUOUS
 10
120.3694162233
 20
35.3714207849
 11
120.3694162233
 21
34.8714207849
  0
LINE
  5
462
100
AcDbEntity
  8
0
100
AcDbLine
 62
7
  6
CONTINUOUS
 10
122.0894162233
 20
35.3714207849
 11
122.0894162233
 21
34.8714207849
  0
LINE
  5
463
100
AcDbEntity
  8
RUNDUNGEN
100
AcDbLine
 62
7
  6
CONTINUOUS
 10
131.3530463663
 20
38.3714207849
 11
131.3530463663
 21
48.3714207849
  0
ARC
  5
464
100
AcDbEntity
  8
RUNDUNGEN
100
AcDbCircle
 62
7
  6
CONTINUOUS
 10
107.3518635724
 20
144.2882616006
 40
52.0
100
AcDbArc
 50
106.115057936
 51
166.3670472149
  0
ARC
  5
465
100
AcDbEntity
  8
RUNDUNGEN
100
AcDbCircle
 62
7
  6
CONTINUOUS
 10
80.7054174958
 20
144.2882616006
 40
52.0
100
AcDbArc
 50
13.6329527851
 51
73.884942064
  0
ARC
  5
466
100
AcDbEntity
  8
0
100
AcDbCircle
 62
7
  6
CONTINUOUS
 10
94.0286405341
 20
155.2882616006
 40
20.0
100
AcDbArc
 50
195.4178001694
 51
200.4405601241
  0
ARC
  5
467
100
AcDbEntity
  8
0
100
AcDbCircle
 62
7
  6
CONTINUOUS
 10
94.0286405341
 20
155.2882616006
 40
20.0
100
AcDbArc
 50
339.5594396382
 51
344.5821998306
  0
ARC
  5
468
100
AcDbEntity
  8
RUNDUNGEN
100
AcDbCircle
 62
7
  6
CONTINUOUS
 10
94.0286405341
 20
155.2882616006
 40
20.0
100
AcDbArc
 50
344.5821998306
 51
195.4178001694
  0
ARC
  5
469
100
AcDbEntity
  8
BEZUGSACHSEN
100
AcDbCircle
 62
7
  6
CONTINUOUS
 10
122.0286405341
 20
117.7882616006
 40
7.0
100
AcDbArc
 50
120.7306631655
 51
180.0
  0
ARC
  5
46A
100
AcDbEntity
  8
0
100
AcDbCircle
 62
7
  6
CONTINUOUS
 10
122.0286405341
 20
117.7882616006
 40
7.0
100
AcDbArc
 50
120.7306631655
 51
180.0
  0
ARC
  5
46B
100
AcDbEntity
  8
BEZUGSACHSEN
100
AcDbCircle
 62
7
  6
CONTINUOUS
 10
66.0286405341
 20
117.7882616006
 40
7.0
100
AcDbArc
 50
0.0
 51
59.2693368345
  0
ARC
  5
46C
100
AcDbEntity
  8
BEZUGSACHSEN
100
AcDbCircle
 62
7
  6
CONTINUOUS
 10
60.7042347019
 20
155.6019135644
 40
4.0
100
AcDbArc
 50
166.3670472065
 51
201.5000000094
  0
ARC
  5
46D
100
AcDbEntity
  8
RUNDUNGEN
100
AcDbCircle
 62
7
  6
CONTINUOUS
 10
127.3530463663
 20
155.6019135644
 40
4.0
100
AcDbArc
 50
338.5
 51
13.6329527851
  0
ARC
  5
46E
100
AcDbEntity
  8
RUNDUNGEN
100
AcDbCircle
 62
7
  6
CONTINUOUS
 10
94.0286405341
 20
190.402161109
 40
4.0
100
AcDbArc
 50
73.884942064
 51
106.115057936
  0
ARC
  5
46F
100
AcDbEntity
  8
RUNDUNGEN
100
AcDbCircle
 62
7
  6
CONTINUOUS
 10
60.7042347019
 20
155.6019135644
 40
4.0
100
AcDbArc
 50
166.3670472149
 51
201.5
  0
ARC
  5
470
100
AcDbEntity
  8
BEZUGSACHSEN
100
AcDbCircle
 62
7
  6
CONTINUOUS
 10
71.1386670492
 20
126.3840600158
 40
3.0
100
AcDbArc
 50
201.500189245
 51
239.2694864289
  0
ARC
  5
471
100
AcDbEntity
  8
BEZUGSACHSEN
100
AcDbCircle
 62
7
  6
CONTINUOUS
 10
116.9186104809
 20
126.3840510337
 40
3.0
100
AcDbArc
 50
300.7306593163
 51
338.4999951305
  0
ARC
  5
472
100
AcDbEntity
  8
0
100
AcDbCircle
 62
7
  6
CONTINUOUS
 10
120.2486405341
 20
167.2278651674
 40
2.02
100
AcDbArc
 50
24.3178409637
 51
207.6321695996
  0
ARC
  5
473
100
AcDbEntity
  8
0
100
AcDbCircle
 62
7
  6
CONTINUOUS
 10
118.5286405341
 20
170.2069925564
 40
2.02
100
AcDbArc
 50
24.3178409637
 51
207.6321695996
  0
ARC
  5
474
100
AcDbEntity
  8
0
100
AcDbCircle
 62
7
  6
CONTINUOUS
 10
120.2486405341
 20
167.2278651674
 40
1.42
100
AcDbArc
 50
132.2839645558
 51
218.0967497698
  0
ARC
  5
475
100
AcDbEntity
  8
0
100
AcDbCircle
 62
7
  6
CONTINUOUS
 10
120.2486405341
 20
167.2278651674
 40
1.42
100
AcDbArc
 50
21.9032502302
 51
107.7160354442
  0
ARC
  5
476
100
AcDbEntity
  8
0
100
AcDbCircle
 62
7
  6
CONTINUOUS
 10
118.5286405341
 20
170.2069925564
 40
1.42
100
AcDbArc
 50
30.9278797274
 51
218.0967497698
  0
ARC
  5
477
100
AcDbEntity
  8
BEZUGSACHSEN
100
AcDbCircle
 62
7
  6
CONTINUOUS
 10
166.029387718
 20
117.7882616006
 40
7.0
100
AcDbArc
 50
0.0
 51
18.3634080603
  0
ARC
  5
478
100
AcDbEntity
  8
0
100
AcDbCircle
 62
7
  6
CONTINUOUS
 10
168.029387718
 20
139.1765402357
 40
50.0
100
AcDbArc
 50
350.0
 51
350.7631786906
  0
ARC
  5
479
100
AcDbEntity
  8
BEZUGSACHSEN
100
AcDbCircle
 62
7
  6
CONTINUOUS
 10
173.6425075996
 20
131.6098522275
 40
3.0
100
AcDbArc
 50
117.0
 51
189.2644682633
  0
ARC
  5
47A
100
AcDbEntity
  8
0
100
AcDbCircle
 62
7
  6
CONTINUOUS
 10
174.029387718
 20
148.6418710582
 40
12.0
100
AcDbArc
 50
340.8598897201
 51
342.8238511412
  0
ARC
  5
47B
100
AcDbEntity
  8
BEZUGSACHSEN
100
AcDbCircle
 62
7
  6
CONTINUOUS
 10
174.029387718
 20
148.6418710582
 40
12.0
100
AcDbArc
 50
297.0000016517
 51
0.000192341
  0
ARC
  5
47C
100
AcDbEntity
  8
0
100
AcDbCircle
 62
7
  6
CONTINUOUS
 10
174.029387718
 20
148.6418710582
 40
12.0
100
AcDbArc
 50
317.2898187154
 51
328.6092220886
  0
ARC
  5
47D
100
AcDbEntity
  8
0
100
AcDbCircle
 62
7
  6
CONTINUOUS
 10
174.029387718
 20
148.6418710582
 40
12.0
100
AcDbArc
 50
328.6453628894
 51
336.7840868714
  0
ARC
  5
47E
100
AcDbEntity
  8
BEZUGSACHSEN
100
AcDbCircle
 62
7
  6
CONTINUOUS
 10
189.029387718
 20
191.402161109
 40
3.0
100
AcDbArc
 50
90.0
 51
180.0
  0
ARC
  5
47F
100
AcDbEntity
  8
RUNDUNGEN
100
AcDbCircle
 62
7
  6
CONTINUOUS
 10
214.4162678365
 20
131.6098522275
 40
3.0
100
AcDbArc
 50
350.7355317367
 51
63.0
  0
ARC
  5
480
100
AcDbEntity
  8
RUNDUNGEN
100
AcDbCircle
 62
7
  6
CONTINUOUS
 10
214.029387718
 20
148.6418710582
 40
12.0
100
AcDbArc
 50
179.999807659
 51
242.9999983483
  0
ARC
  5
481
100
AcDbEntity
  8
0
100
AcDbCircle
 62
7
  6
CONTINUOUS
 10
214.029387718
 20
148.6418710582
 40
12.0
100
AcDbArc
 50
197.1761488588
 51
199.1401102799
  0
ARC
  5
482
100
AcDbEntity
  8
0
100
AcDbCircle
 62
7
  6
CONTINUOUS
 10
214.029387718
 20
148.6418710582
 40
12.0
100
AcDbArc
 50
203.2159131286
 51
211.3535538224
  0
ARC
  5
483
100
AcDbEntity
  8
0
100
AcDbCircle
 62
7
  6
CONTINUOUS
 10
214.029387718
 20
148.6418710582
 40
12.0
100
AcDbArc
 50
211.3916681431
 51
222.7101812846
  0
ARC
  5
484
100
AcDbEntity
  8
0
100
AcDbCircle
 62
7
  6
CONTINUOUS
 10
222.029387718
 20
117.7882616006
 40
7.0
100
AcDbArc
 50
161.6365919397
 51
180.0
  0
ARC
  5
485
100
AcDbEntity
  8
BEZUGSACHSEN
100
AcDbCircle
 62
7
  6
CONTINUOUS
 10
220.029387718
 20
139.1765402357
 40
50.0
100
AcDbArc
 50
189.2368213094
 51
190.0
  0
ARC
  5
486
100
AcDbEntity
  8
RUNDUNGEN
100
AcDbCircle
 62
7
  6
CONTINUOUS
 10
199.029387718
 20
191.402161109
 40
3.0
100
AcDbArc
 50
0.0
 51
90.0
  0
ARC
  5
487
100
AcDbEntity
  8
RUNDUNGEN
100
AcDbCircle
 62
7
  6
CONTINUOUS
 10
61.0437955292
 20
17.3714207849
 40
18.0
100
AcDbArc
 50
77.6659492002
 51
84.564582506
  0
ARC
  5
488
100
AcDbEntity
  8
RUNDUNGEN
100
AcDbCircle
 62
7
  6
CONTINUOUS
 10
61.0437955292
 20
17.3714207849
 40
18.0
100
AcDbArc
 50
57.1223903573
 51
76.5437043516
  0
ARC
  5
489
100
AcDbEntity
  8
RUNDUNGEN
100
AcDbCircle
 62
7
  6
CONTINUOUS
 10
63.0362449202
 20
38.2911778854
 40
3.0144809091
100
AcDbArc
 50
255.7172905047
 51
257.7430463582
  0
ARC
  5
48A
100
AcDbEntity
  8
RUNDUNGEN
100
AcDbCircle
 62
7
  6
CONTINUOUS
 10
63.0337722512
 20
38.2785071225
 40
3.0015740459
100
AcDbArc
 50
257.7378227618
 51
264.5548789706
  0
ARC
  5
48B
100
AcDbEntity
  8
RUNDUNGEN
100
AcDbCircle
 62
7
  6
CONTINUOUS
 10
59.7042347019
 20
38.3714207849
 40
3.0
100
AcDbArc
 50
180.0
 51
270.0
  0
ARC
  5
48C
100
AcDbEntity
  8
BEZUGSACHSEN
100
AcDbCircle
 62
7
  6
CONTINUOUS
 10
61.0437955292
 20
69.3714207849
 40
18.0
100
AcDbArc
 50
275.435417494
 51
302.8776096427
  0
ARC
  5
48D
100
AcDbEntity
  8
BEZUGSACHSEN
100
AcDbCircle
 62
7
  6
CONTINUOUS
 10
63.0362449202
 20
48.4516636844
 40
3.0144809091
100
AcDbArc
 50
102.2569536418
 51
104.2827094953
  0
ARC
  5
48E
100
AcDbEntity
  8
BEZUGSACHSEN
100
AcDbCircle
 62
7
  6
CONTINUOUS
 10
63.0337722512
 20
48.4643344472
 40
3.0015740459
100
AcDbArc
 50
95.4451210294
 51
102.2621772382
  0
ARC
  5
48F
100
AcDbEntity
  8
BEZUGSACHSEN
100
AcDbCircle
 62
7
  6
CONTINUOUS
 10
59.7042347019
 20
48.3714207849
 40
3.0
100
AcDbArc
 50
90.0
 51
180.0
  0
ARC
  5
490
100
AcDbEntity
  8
RUNDUNGEN
100
AcDbCircle
 62
7
  6
CONTINUOUS
 10
127.0134855391
 20
17.3714207849
 40
18.0
100
AcDbArc
 50
95.4353957322
 51
122.8776096427
  0
ARC
  5
491
100
AcDbEntity
  8
RUNDUNGEN
100
AcDbCircle
 62
7
  6
CONTINUOUS
 10
125.0210495843
 20
38.2911836576
 40
3.0144808492
100
AcDbArc
 50
282.2569057753
 51
284.2824670719
  0
ARC
  5
492
100
AcDbEntity
  8
RUNDUNGEN
100
AcDbCircle
 62
7
  6
CONTINUOUS
 10
125.0235224968
 20
38.2785115164
 40
3.0015725872
100
AcDbArc
 50
275.4446644589
 51
282.2621302106
  0
ARC
  5
493
100
AcDbEntity
  8
RUNDUNGEN
100
AcDbCircle
 62
7
  6
CONTINUOUS
 10
128.3530463663
 20
38.3714207849
 40
3.0
100
AcDbArc
 50
270.0
 51
360.0
  0
ARC
  5
494
100
AcDbEntity
  8
0
100
AcDbCircle
 62
7
  6
CONTINUOUS
 10
94.0286405341
 20
43.3714207849
 40
23.6236370744
100
AcDbArc
 50
263.1115697294
 51
264.7376625268
  0
ARC
  5
495
100
AcDbEntity
  8
0
100
AcDbCircle
 62
7
  6
CONTINUOUS
 10
94.0286405341
 20
43.3714207849
 40
23.4135453778
100
AcDbArc
 50
277.3616020267
 51
279.4230530311
  0
ARC
  5
496
100
AcDbEntity
  8
0
100
AcDbCircle
 62
7
  6
CONTINUOUS
 10
94.0286405341
 20
43.3714207849
 40
19.0
100
AcDbArc
 50
206.5767539122
 51
333.4242900192
  0
ARC
  5
497
100
AcDbEntity
  8
0
100
AcDbCircle
 62
7
  6
CONTINUOUS
 10
94.0286405341
 20
43.3714207849
 40
19.0
100
AcDbArc
 50
24.9067961549
 51
155.0928031426
  0
ARC
  5
498
100
AcDbEntity
  8
RUNDUNGEN
100
AcDbCircle
 62
7
  6
CONTINUOUS
 10
94.0286405341
 20
43.3714207849
 40
18.75
100
AcDbArc
 50
206.9846456733
 51
333.0153543306
  0
ARC
  5
499
100
AcDbEntity
  8
RUNDUNGEN
100
AcDbCircle
 62
7
  6
CONTINUOUS
 10
94.0286405341
 20
43.3714207849
 40
18.75
100
AcDbArc
 50
25.2615868775
 51
154.7384131223
  0
ARC
  5
49A
100
AcDbEntity
  8
BEZUGSACHSEN
100
AcDbCircle
 62
7
  6
CONTINUOUS
 10
125.0210495843
 20
48.4516579122
 40
3.0144808492
100
AcDbArc
 50
75.7175329281
 51
77.7430942247
  0
ARC
  5
49B
100
AcDbEntity
  8
BEZUGSACHSEN
100
AcDbCircle
 62
7
  6
CONTINUOUS
 10
125.0235224968
 20
48.4643300534
 40
3.0015725872
100
AcDbArc
 50
77.7378697894
 51
84.5553355411
  0
ARC
  5
49C
100
AcDbEntity
  8
BEZUGSACHSEN
100
AcDbCircle
 62
7
  6
CONTINUOUS
 10
128.3530463663
 20
48.3714207849
 40
3.0
100
AcDbArc
 50
0.0
 51
90.0
  0
ARC
  5
49D
100
AcDbEntity
  8
BEZUGSACHSEN
100
AcDbCircle
 62
7
  6
CONTINUOUS
 10
127.0134855391
 20
69.3714207849
 40
18.0
100
AcDbArc
 50
237.1223903573
 51
264.5646042678
  0
SPLINE
  5
49E
100
AcDbEntity
  8
0
100
AcDbSpline
 62
7
  6
CONTINUOUS
 70
0
 71
3
 72
11
 73
7
 74
0
 42
0.0000001
 43
0.0000001
 44
0.0000000001
 40
0.0
 40
0.0
 40
0.0
 40
0.0
 40
0.2525090421
 40
0.4999759041
 40
0.7476025685
 40
1.0
 40
1.0
 40
1.0
 40
1.0
 10
109.3893779897
 20
140.5023846291
 30
0.0
 10
109.1966198197
 20
140.2155474772
 30
0.0
 10
108.7738005341
 20
139.6736885347
 30
0.0
 10
108.0243078662
 20
138.9712695712
 30
0.0
 10
107.1770642065
 20
138.3914663357
 30
0.0
 10
106.5624596218
 20
138.0856424968
 30
0.0
 10
106.2448583629
 20
137.949792768
 30
0.0
  0
SPLINE
  5
49F
100
AcDbEntity
  8
0
100
AcDbSpline
 62
7
  6
CONTINUOUS
 70
0
 71
3
 72
11
 73
7
 74
0
 42
0.0000001
 43
0.0000001
 44
0.0000000001
 40
0.0
 40
0.0
 40
0.0
 40
0.0
 40
0.2523973309
 40
0.5000243916
 40
0.7474917918
 40
1.0
 40
1.0
 40
1.0
 40
1.0
 10
81.8124227054
 20
137.949792768
 30
0.0
 10
81.4948212573
 20
138.0856425777
 30
0.0
 10
80.8802157096
 20
138.3914669317
 30
0.0
 10
80.0329704065
 20
138.9712716244
 30
0.0
 10
79.2834773295
 20
139.6736919096
 30
0.0
 10
78.8606584248
 20
140.2155514696
 30
0.0
 10
78.6679008245
 20
140.5023880434
 30
0.0
  0
SPLINE
  5
4A0
100
AcDbEntity
  8
0
100
AcDbSpline
 62
7
  6
CONTINUOUS
 70
0
 71
3
 72
13
 73
9
 74
0
 42
0.0000001
 43
0.0000001
 44
0.0000000001
 40
0.0
 40
0.0
 40
0.0
 40
0.0
 40
0.0924366648
 40
0.2028443162
 40
0.3242958986
 40
0.4527801495
 40
0.7220436326
 40
1.0
 40
1.0
 40
1.0
 40
1.0
 10
112.769339925
 20
148.3035515562
 30
0.0
 10
112.7461280839
 20
148.2412717791
 30
0.0
 10
112.7032288483
 20
148.1016987331
 30
0.0
 10
112.6426043425
 20
147.8765722482
 30
0.0
 10
112.5794969375
 20
147.6252561738
 30
0.0
 10
112.490671052
 20
147.2626643149
 30
0.0
 10
112.3749117117
 20
146.7907992741
 30
0.0
 10
112.276086209
 20
146.4099212463
 30
0.0
 10
112.223986469
 20
146.216972506
 30
0.0
  0
SPLINE
  5
4A1
100
AcDbEntity
  8
0
100
AcDbSpline
 62
7
  6
CONTINUOUS
 70
0
 71
3
 72
13
 73
9
 74
0
 42
0.0000001
 43
0.0000001
 44
0.0000000001
 40
0.0
 40
0.0
 40
0.0
 40
0.0
 40
0.2779559764
 40
0.5472193345
 40
0.6757036839
 40
0.7971553746
 40
0.9075633063
 40
1.0
 40
1.0
 40
1.0
 40
1.0
 10
75.8333014113
 20
146.2169480645
 30
0.0
 10
75.7812009521
 20
146.4098987628
 30
0.0
 10
75.6823738949
 20
146.7907808029
 30
0.0
 10
75.5666131902
 20
147.2626511062
 30
0.0
 10
75.4777863328
 20
147.6252473233
 30
0.0
 10
75.4146782553
 20
147.8765667439
 30
0.0
 10
75.3540529778
 20
148.1016961809
 30
0.0
 10
75.3111532314
 20
148.2412711069
 30
0.0
 10
75.2879411094
 20
148.3035516387
 30
0.0
  0
SPLINE
  5
4A2
100
AcDbEntity
  8
0
100
AcDbSpline
 62
7
  6
CONTINUOUS
 70
0
 71
3
 72
11
 73
7
 74
0
 42
0.0000001
 43
0.0000001
 44
0.0000000001
 40
0.0
 40
0.0
 40
0.0
 40
0.0
 40
0.2485795374
 40
0.4933667519
 40
0.7415611546
 40
1.0
 40
1.0
 40
1.0
 40
1.0
 10
112.223986469
 20
146.216972506
 30
0.0
 10
112.0855051315
 20
145.7041450213
 30
0.0
 10
111.7575569602
 20
144.6995908688
 30
0.0
 10
111.1027359808
 20
143.2534318299
 30
0.0
 10
110.29977939
 20
141.8606252422
 30
0.0
 10
109.6973981505
 20
140.960741504
 30
0.0
 10
109.3893625363
 20
140.5023637435
 30
0.0
  0
SPLINE
  5
4A3
100
AcDbEntity
  8
0
100
AcDbSpline
 62
7
  6
CONTINUOUS
 70
0
 71
3
 72
11
 73
7
 74
0
 42
0.0000001
 43
0.0000001
 44
0.0000000001
 40
0.0
 40
0.0
 40
0.0
 40
0.0
 40
0.2584390684
 40
0.5066335589
 40
0.751420779
 40
1.0
 40
1.0
 40
1.0
 40
1.0
 10
78.6679176623
 20
140.5023652805
 30
0.0
 10
78.3598832853
 20
140.960741631
 30
0.0
 10
77.7575038309
 20
141.8606218483
 30
0.0
 10
76.9545500557
 20
143.2534229821
 30
0.0
 10
76.299730696
 20
144.6995747903
 30
0.0
 10
75.9717824765
 20
145.7041235347
 30
0.0
 10
75.8333014113
 20
146.2169480645
 30
0.0
  0
LINE
  5
4A4
100
AcDbEntity
  8
0
100
AcDbLine
 62
7
  6
CONTINUOUS
 10
216.4038664176
 20
123.8394714555
 11
216.2811936307
 21
123.1499636851
  0
LINE
  5
4A5
100
AcDbEntity
  8
0
100
AcDbLine
 62
7
  6
CONTINUOUS
 10
214.9819360765
 20
121.7882616006
 11
215.137353962
 21
122.6393254481
  0
LINE
  5
4A6
100
AcDbEntity
  8
0
100
AcDbLine
 62
7
  6
CONTINUOUS
 10
216.805412637
 20
127.9159213982
 11
216.7903967407
 21
127.8307984998
  0
LINE
  5
4A7
100
AcDbEntity
  8
0
100
AcDbLine
 62
7
  6
CONTINUOUS
 10
216.7903967407
 20
127.8307984998
 11
216.7453605772
 21
127.5754954301
  0
LINE
  5
4A8
100
AcDbEntity
  8
0
100
AcDbLine
 62
7
  6
CONTINUOUS
 10
215.6626153913
 20
122.6393254481
 11
215.5074510106
 21
121.7882616006
  0
ELLIPSE
  5
4A9
100
AcDbEntity
  8
0
100
AcDbEllipse
 62
7
  6
CONTINUOUS
 10
94.0286405341
 20
145.3644651965
 30
0.0
 11
19.0
 21
-0.0
 31
0.0
 40
0.5095254495
 41
-2.2691515648
 42
-0.8724410887
  0
ELLIPSE
  5
4AA
100
AcDbEntity
  8
0
100
AcDbEllipse
 62
7
  6
CONTINUOUS
 10
194.029387718
 20
133.2229873562
 30
0.0
 11
0.0
 21
24.7447735708
 31
0.0
 40
0.9631600593
 41
4.5313232752
 42
4.5522632646
  0
ELLIPSE
  5
4AB
100
AcDbEntity
  8
0
100
AcDbEllipse
 62
7
  6
CONTINUOUS
 10
194.029387718
 20
149.1702692959
 30
0.0
 11
0.0
 21
55.2331565693
 31
0.0
 40
0.4567277024
 41
-2.0718438732
 42
-2.0613330357
  0
ELLIPSE
  5
4AC
100
AcDbEntity
  8
0
100
AcDbEllipse
 62
7
  6
CONTINUOUS
 10
194.029387718
 20
129.9011045317
 30
0.0
 11
23.3447728299
 21
0.0
 31
0.0
 40
0.9102250647
 41
-0.3487750917
 42
-0.1662835564
  0
ELLIPSE
  5
4AD
100
AcDbEntity
  8
0
100
AcDbEllipse
 62
7
  6
CONTINUOUS
 10
194.029387718
 20
136.936263454
 30
0.0
 11
0.0
 21
38.1201822036
 31
0.0
 40
0.6285126339
 41
-1.8512748441
 42
-1.8443111824
  0
ELLIPSE
  5
4AE
100
AcDbEntity
  8
0
100
AcDbEllipse
 62
7
  6
CONTINUOUS
 10
194.029387718
 20
130.111077777
 30
0.0
 11
23.5843728536
 21
0.0
 31
0.0
 40
0.5127209228
 41
-0.068979643
 42
-0.0407837753
  0
ELLIPSE
  5
4AF
100
AcDbEntity
  8
0
100
AcDbEllipse
 62
7
  6
CONTINUOUS
 10
194.029387718
 20
129.5399276472
 30
0.0
 11
23.5692265049
 21
-0.0
 31
0.0
 40
0.1702894601
 41
0.0194653975
 42
0.0619128071
  0
ELLIPSE
  5
4B0
100
AcDbEntity
  8
0
100
AcDbEllipse
 62
7
  6
CONTINUOUS
 10
194.029387718
 20
146.0249449434
 30
0.0
 11
0.0
 21
40.5752110623
 31
0.0
 40
0.6285123915
 41
-2.0334312163
 42
-2.0194164141
  0
ELLIPSE
  5
4B1
100
AcDbEntity
  8
0
100
AcDbEllipse
 62
7
  6
CONTINUOUS
 10
194.029387718
 20
133.3593259649
 30
0.0
 11
24.0779013683
 21
-0.0
 31
0.0
 40
0.6858110723
 41
-0.3033533798
 42
-0.2818221794
  0
ELLIPSE
  5
4B2
100
AcDbEntity
  8
0
100
AcDbEllipse
 62
7
  6
CONTINUOUS
 10
194.029387718
 20
129.7236648282
 30
0.0
 11
23.5969278517
 21
-0.0
 31
0.0
 40
0.2043878871
 41
-0.1996852458
 42
-0.1637999071
  0
ELLIPSE
  5
4B3
100
AcDbEntity
  8
0
100
AcDbEllipse
 62
7
  6
CONTINUOUS
 10
194.029387718
 20
131.2329168154
 30
0.0
 11
23.0665924672
 21
-0.0
 31
0.0
 40
0.9238741304
 41
-0.4150697757
 42
-0.2050061511
  0
ELLIPSE
  5
4B4
100
AcDbEntity
  8
0
100
AcDbEllipse
 62
7
  6
CONTINUOUS
 10
194.029387718
 20
130.2887268399
 30
0.0
 11
23.1964897382
 21
0.0
 31
0.0
 40
0.1459449454
 41
-0.1994276158
 42
-0.1483738086
  0
ELLIPSE
  5
4B5
100
AcDbEntity
  8
0
100
AcDbEllipse
 62
7
  6
CONTINUOUS
 10
194.029387718
 20
132.7474045739
 30
0.0
 11
23.5416892055
 21
-0.0
 31
0.0
 40
0.5127208303
 41
-0.2915780532
 42
-0.2622564404
  0
ELLIPSE
  5
4B6
100
AcDbEntity
  8
0
100
AcDbEllipse
 62
7
  6
CONTINUOUS
 10
194.029387718
 20
138.5799294826
 30
0.0
 11
-0.0
 21
25.1909407135
 31
0.0
 40
0.9631595699
 41
-1.9782791319
 42
-1.9490217325
  0
ELLIPSE
  5
4B7
100
AcDbEntity
  8
0
100
AcDbEllipse
 62
7
  6
CONTINUOUS
 10
194.029387718
 20
313.9642060769
 30
0.0
 11
0.0
 21
227.0955725348
 31
0.0
 40
0.1697992161
 41
-2.5309000358
 42
-2.52569111
  0
ELLIPSE
  5
4B8
100
AcDbEntity
  8
0
100
AcDbEllipse
 62
7
  6
CONTINUOUS
 10
194.029387718
 20
148.3498642397
 30
0.0
 11
0.0
 21
53.9005672647
 31
0.0
 40
0.4567284991
 41
-1.9801885358
 42
-1.9664595164
  0
ELLIPSE
  5
4B9
100
AcDbEntity
  8
0
100
AcDbEllipse
 62
7
  6
CONTINUOUS
 10
194.029387718
 20
130.2906336851
 30
0.0
 11
23.7043711305
 21
0.0
 31
0.0
 40
0.1459449454
 41
-0.195660945
 42
-0.1457290974
  0
ELLIPSE
  5
4BA
100
AcDbEntity
  8
0
100
AcDbEllipse
 62
7
  6
CONTINUOUS
 10
194.029387718
 20
132.7709387631
 30
0.0
 11
24.0514731453
 21
-0.0
 31
0.0
 40
0.5127208303
 41
-0.2872119703
 42
-0.2585445652
  0
ELLIPSE
  5
4BB
100
AcDbEntity
  8
0
100
AcDbEllipse
 62
7
  6
CONTINUOUS
 10
194.029387718
 20
138.6764324856
 30
0.0
 11
0.0
 21
25.7268345018
 31
0.0
 40
0.9631595699
 41
-1.9733787194
 42
-1.9447846395
  0
ELLIPSE
  5
4BC
100
AcDbEntity
  8
0
100
AcDbEllipse
 62
7
  6
CONTINUOUS
 10
194.029387718
 20
317.0692371762
 30
0.0
 11
0.0
 21
231.4062336035
 31
0.0
 40
0.1697992161
 41
-2.5276934047
 42
-2.5226042393
  0
ELLIPSE
  5
4BD
100
AcDbEntity
  8
0
100
AcDbEllipse
 62
7
  6
CONTINUOUS
 10
194.029387718
 20
128.6328884731
 30
0.0
 11
23.4047193273
 21
0.0
 31
0.0
 40
0.2043879164
 41
0.0280360084
 42
0.0636575715
  0
ELLIPSE
  5
4BE
100
AcDbEntity
  8
0
100
AcDbEllipse
 62
7
  6
CONTINUOUS
 10
194.029387718
 20
129.6750205186
 30
0.0
 11
23.4329574151
 21
0.0
 31
0.0
 40
0.6858110723
 41
-0.0777644583
 42
-0.0565330658
  0
ELLIPSE
  5
4BF
100
AcDbEntity
  8
0
100
AcDbEllipse
 62
7
  6
CONTINUOUS
 10
194.029387718
 20
137.2116794929
 30
0.0
 11
0.0
 21
38.194576969
 31
0.0
 40
0.6285126339
 41
-1.8166444195
 42
-1.8028838872
  0
ELLIPSE
  5
4C0
100
AcDbEntity
  8
0
100
AcDbEllipse
 62
7
  6
CONTINUOUS
 10
194.029387718
 20
148.7790260741
 30
0.0
 11
0.0
 21
55.0921637285
 31
0.0
 40
0.4567284991
 41
-1.9792952429
 42
-1.9658674175
  0
ELLIPSE
  5
4C1
100
AcDbEntity
  8
0
100
AcDbEllipse
 62
7
  6
CONTINUOUS
 10
194.029387718
 20
131.3093290551
 30
0.0
 11
23.5809984317
 21
-0.0
 31
0.0
 40
0.9238741304
 41
-0.4092969563
 42
-0.2040528705
  0
ELLIPSE
  5
4C2
100
AcDbEntity
  8
0
100
AcDbEllipse
 62
7
  6
CONTINUOUS
 10
58.7969255484
 20
43.3714207849
 30
0.0
 11
48.9115335579
 21
-0.0
 31
0.0
 40
0.6936470227
 41
-0.7616148019
 42
-0.7602701
  0
ELLIPSE
  5
4C3
100
AcDbEntity
  8
0
100
AcDbEllipse
 62
7
  6
CONTINUOUS
 10
89.6654693221
 20
43.3714207849
 30
0.0
 11
24.2292718965
 21
-0.0
 31
0.0
 40
0.9836522403
 41
-1.410670611
 42
-1.3827324548
  0
ELLIPSE
  5
4C4
100
AcDbEntity
  8
0
100
AcDbEllipse
 62
7
  6
CONTINUOUS
 10
91.896459169
 20
43.3714207849
 30
0.0
 11
23.6805582762
 21
0.0
 31
0.0
 40
0.9959382114
 41
-1.5300125514
 42
-1.5018166838
  0
ELLIPSE
  5
4C5
100
AcDbEntity
  8
0
100
AcDbEllipse
 62
7
  6
CONTINUOUS
 10
93.3209361765
 20
43.3714207849
 30
0.0
 11
23.5798490982
 21
0.0
 31
0.0
 40
0.9995495055
 41
-1.6327091339
 42
-1.5902617243
  0
ELLIPSE
  5
4C6
100
AcDbEntity
  8
0
100
AcDbEllipse
 62
7
  6
CONTINUOUS
 10
94.6386495694
 20
43.3714207849
 30
0.0
 11
23.7122188273
 21
-0.0
 31
0.0
 40
0.9996690442
 41
-1.7664572718
 42
-1.7165254242
  0
ELLIPSE
  5
4C7
100
AcDbEntity
  8
0
100
AcDbEllipse
 62
7
  6
CONTINUOUS
 10
96.2030504249
 20
43.3714207849
 30
0.0
 11
24.1495635329
 21
-0.0
 31
0.0
 40
0.9959382128
 41
-1.8580082971
 42
-1.829340892
  0
ELLIPSE
  5
4C8
100
AcDbEntity
  8
0
100
AcDbEllipse
 62
7
  6
CONTINUOUS
 10
98.564975585
 20
43.3714207849
 30
0.0
 11
25.1908614106
 21
0.0
 31
0.0
 40
0.9836522241
 41
-1.972741528
 42
-1.9447846395
  0
ENDSEC
  0
SECTION
  2
OBJECTS
  0
DICTIONARY
  5
C
100
AcDbDictionary
280
0
281
1
  3
ACAD_GROUP
350
D
  3
ACAD_MLINESTYLE
350
17
  3
ACAD_LAYOUT
350
1A
  3
ACAD_PLOTSETTINGS
350
19
  3
ACAD_PLOTSTYLENAME
350
E
  0
DICTIONARY
  5
D
102
{ACAD_REACTORS
330
C
102
}
100
AcDbDictionary
280
0
281
1
  0
ACDBDICTIONARYWDFLT
  5
E
102
{ACAD_REACTORS
330
C
102
}
100
AcDbDictionary
281
1
  3
Normal
350
F
100
AcDbDictionaryWithDefault
340
F
  0
DICTIONARY
  5
17
102
{ACAD_REACTORS
330
C
102
}
100
AcDbDictionary
280
0
281
1
  3
Standard
350
18
  0
DICTIONARY
  5
19
102
{ACAD_REACTORS
330
C
102
}
100
AcDbDictionary
281
1
  0
DICTIONARY
  5
1A
102
{ACAD_REACTORS
330
C
102
}
100
AcDbDictionary
281
1
  3
Model
350
4C9
  3
Layout1
350
4CA
  0
ACDBPLACEHOLDER
  5
F
102
{ACAD_REACTORS
330
E
102
}
  0
MLINESTYLE
  5
18
102
{ACAD_REACTORS
330
17
102
}
100
AcDbMlineStyle
  2
STANDARD
 70
0
  3

 62
256
 51
90.0
 52
90.0
 71
2
 49
0.5
 62
256
  6
BYLAYER
 49
-0.5
 62
256
  6
BYLAYER
  0
LAYOUT
  5
4C9
102
{ACAD_REACTORS
330
1A
102
}
100
AcDbPlotSettings
  1

  2
none_device
  4
ISO_A4_(297.00_x_210.00_MM)
  6

 40
0.0
 41
0.0
 42
0.0
 43
0.0
 44
297.0
 45
210.0
 46
0.0
 47
0.0
 48
0.0
 49
0.0
140
0.0
141
0.0
142
1.0
143
1.0
 70
1024
 72
1
 73
0
 74
0
  7

 75
0
147
1.0
148
0.0
149
0.0
100
AcDbLayout
  1
Model
 70
0
 71
0
 10
0.0
 20
0.0
 11
297.0
 21
210.0
 12
0.0
 22
0.0
 32
0.0
 14
0.0
 24
0.0
 34
0.0
 15
0.0
 25
0.0
 35
0.0
146
0.0
 13
0.0
 23
0.0
 33
0.0
 16
1.0
 26
0.0
 36
0.0
 17
0.0
 27
1.0
 37
0.0
 76
0
330
208
345
0
346
0
  0
LAYOUT
  5
4CA
102
{ACAD_REACTORS
330
1A
102
}
100
AcDbPlotSettings
  1

  2
none_device
  4
ISO_A4_(297.00_x_210.00_MM)
  6

 40
0.0
 41
0.0
 42
0.0
 43
0.0
 44
297.0
 45
210.0
 46
0.0
 47
0.0
 48
0.0
 49
0.0
140
0.0
141
0.0
142
1.0
143
1.0
 70
0
 72
1
 73
0
 74
0
  7

 75
0
147
1.0
148
0.0
149
0.0
100
AcDbLayout
  1
Layout1
 70
0
 71
1
 10
0.0
 20
0.0
 11
297.0
 21
210.0
 12
0.0
 22
0.0
 32
0.0
 14
0.0
 24
0.0
 34
0.0
 15
0.0
 25
0.0
 35
0.0
146
0.0
 13
0.0
 23
0.0
 33
0.0
 16
1.0
 26
0.0
 36
0.0
 17
0.0
 27
1.0
 37
0.0
 76
0
330
209
345
0
346
0
  0
ENDSEC
  0
EOF
