999
DXF file: INOX-STAR_2t_M20_MAX_7998714_M31798-P-11.dxf
999
Pro/ENGINEER 2011490 by Parametric Technology Corporation
  0
SECTION
  2
HEADER
  9
$ACADVER
  1
AC1015
  9
$DWGCODEPAGE
  3
ANSI_1252
  9
$EXTMAX
 10
297.0
 20
210.0
 30
0.0
  9
$EXTMIN
 10
0.0
 20
0.0
 30
0.0
  9
$LIMMIN
 10
0.0
 20
0.0
  9
$LIMMAX
 10
297.0
 20
210.0
  9
$VIEWCTR
 10
148.5
 20
105.0
  9
$VIEWSIZE
 40
210.0
  9
$CLAYER
  8
0
  9
$LTSCALE
 40
16.335
  9
$CELTYPE
  6
BYLAYER
  9
$DIMSCALE
 40
1.0
  9
$DIMASZ
 40
3.5
  9
$DIMEXO
 40
1.85625
  9
$DIMDLI
 40
11.286
  9
$DIMEXE
 40
5.346
  9
$DIMCEN
 40
2.673
  9
$DIMLFAC
 40
1.0
  9
$DIMBLK
  1
_FILLED
  9
$DIMTXT
 40
3.5
  9
$DIMTOL
 70
1
  9
$DIMLIM
 70
0
  9
$DIMTFAC
 40
1.0
  9
$DIMTP
 40
0.005
  9
$DIMTM
 40
0.005
  9
$PDMODE
 70
3
  9
$PDSIZE
 40
0.3125
  9
$HANDSEED
  5
4CB
  9
$TILEMODE
 70
1
  9
$MEASUREMENT
 70
1
  9
$INSUNITS
 70
4
  0
ENDSEC
  0
SECTION
  2
CLASSES
  0
CLASS
  1
ACDBDICTIONARYWDFLT
  2
AcDbDictionaryWithDefault
  3
AutoCAD 2000
 90
0
280
0
281
0
  0
CLASS
  1
ACDBPLACEHOLDER
  2
AcDbPlaceHolder
  3
AutoCAD 2000
 90
0
280
0
281
0
  0
CLASS
  1
LAYOUT
  2
AcDbLayout
  3
AutoCAD 2000
 90
0
280
0
281
0
  0
ENDSEC
  0
SECTION
  2
TABLES
  0
TABLE
  2
VPORT
  5
8
100
AcDbSymbolTable
 70
2
  0
VPORT
  5
1F4
100
AcDbSymbolTableRecord
100
AcDbViewportTableRecord
  2
*ACTIVE
 70
0
 10
0.0
 20
0.0
 11
1.0
 21
1.0
 12
148.5
 22
105.0
 13
0.0
 23
0.0
 14
1.0
 24
1.0
 15
0.0
 25
0.0
 16
0.0
 26
0.0
 36
1.0
 17
0.0
 27
0.0
 37
0.0
 40
210.0
 41
1.4142857143
 42
50.0
 43
0.0
 44
0.0
 50
0.0
 51
0.0
 71
0
 72
100
 73
1
 74
1
 75
0
 76
0
 77
0
 78
0
  0
ENDTAB
  0
TABLE
  2
LTYPE
  5
5
100
AcDbSymbolTable
 70
6
  0
LTYPE
  5
14
100
AcDbSymbolTableRecord
100
AcDbLinetypeTableRecord
  2
BYBLOCK
 70
0
  3

 72
65
 73
0
 40
0.0
  0
LTYPE
  5
15
100
AcDbSymbolTableRecord
100
AcDbLinetypeTableRecord
  2
BYLAYER
 70
0
  3

 72
65
 73
0
 40
0.0
  0
LTYPE
  5
16
100
AcDbSymbolTableRecord
100
AcDbLinetypeTableRecord
  2
CONTINUOUS
 70
64
  3
Solid line
 72
65
 73
0
 40
0.0
  0
LTYPE
  5
1F5
100
AcDbSymbolTableRecord
100
AcDbLinetypeTableRecord
  2
CENTER
 70
64
  3
____ _ ____ _ ____ _ ____ _ ____ _ ____ _ ____
 72
65
 73
4
 40
0.6
 49
0.375
 74
0
 49
-0.075
 74
0
 49
0.075
 74
0
 49
-0.075
 74
0
  0
LTYPE
  5
1F6
100
AcDbSymbolTableRecord
100
AcDbLinetypeTableRecord
  2
HIDDEN
 70
64
  3
- - - - - - - - - - - - - - - - - - - -
 72
65
 73
2
 40
0.2
 49
0.1
 74
0
 49
-0.1
 74
0
  0
LTYPE
  5
1F7
100
AcDbSymbolTableRecord
100
AcDbLinetypeTableRecord
  2
PHANTOM
 70
64
  3
_____ _ _ _____ _ _ _____ _ _ _____
 72
65
 73
6
 40
0.8
 49
0.45
 74
0
 49
-0.05
 74
0
 49
0.1
 74
0
 49
-0.05
 74
0
 49
0.1
 74
0
 49
-0.05
 74
0
  0
LTYPE
  5
1F8
100
AcDbSymbolTableRecord
100
AcDbLinetypeTableRecord
  2
DOT
 70
64
  3
. . . . . . . . . . . . . . . . . . . .
 72
65
 73
2
 40
0.2
 49
0.1
 74
0
 49
-0.1
 74
0
  0
LTYPE
  5
1F9
100
AcDbSymbolTableRecord
100
AcDbLinetypeTableRecord
  2
DASHED
 70
64
  3
- - - - - - - - - - - - - - - - - - - -
 72
65
 73
2
 40
0.2
 49
0.1
 74
0
 49
-0.1
 74
0
  0
ENDTAB
  0
TABLE
  2
LAYER
  5
2
100
AcDbSymbolTable
 70
36
  0
LAYER
  5
10
100
AcDbSymbolTableRecord
100
AcDbLayerTableRecord
  2
0
 70
0
 62
7
  6
CONTINUOUS
370
-3
390
F
  0
LAYER
  5
1FA
100
AcDbSymbolTableRecord
100
AcDbLayerTableRecord
  2
DEFAULT_1
 70
0
 62
7
  6
CENTER
370
-3
390
F
  0
LAYER
  5
1FB
100
AcDbSymbolTableRecord
100
AcDbLayerTableRecord
  2
DEFAULT_2
 70
0
 62
8
  6
HIDDEN
370
-3
390
F
  0
LAYER
  5
1FC
100
AcDbSymbolTableRecord
100
AcDbLayerTableRecord
  2
DEFAULT_3
 70
0
 62
7
  6
PHANTOM
370
-3
390
F
  0
LAYER
  5
1FD
100
AcDbSymbolTableRecord
100
AcDbLayerTableRecord
  2
BEZUGSACHSEN
 70
0
 62
7
  6
CONTINUOUS
370
-3
390
F
  0
LAYER
  5
1FE
100
AcDbSymbolTableRecord
100
AcDbLayerTableRecord
  2
BG_STARTBEZUEGE
 70
0
 62
7
  6
CONTINUOUS
370
-3
390
F
  0
LAYER
  5
1FF
100
AcDbSymbolTableRecord
100
AcDbLayerTableRecord
  2
FLAECHEN
 70
0
 62
7
  6
CONTINUOUS
370
-3
390
F
  0
LAYER
  5
200
100
AcDbSymbolTableRecord
100
AcDbLayerTableRecord
  2
HILFEN
 70
0
 62
7
  6
CONTINUOUS
370
-3
390
F
  0
LAYER
  5
201
100
AcDbSymbolTableRecord
100
AcDbLayerTableRecord
  2
KURVEN
 70
0
 62
7
  6
CONTINUOUS
370
-3
390
F
  0
LAYER
  5
202
100
AcDbSymbolTableRecord
100
AcDbLayerTableRecord
  2
NORM
 70
0
 62
7
  6
CONTINUOUS
370
-3
390
F
  0
LAYER
  5
203
100
AcDbSymbolTableRecord
100
AcDbLayerTableRecord
  2
PLATZIERUNG
 70
0
 62
7
  6
CONTINUOUS
370
-3
390
F
  0
LAYER
  5
204
100
AcDbSymbolTableRecord
100
AcDbLayerTableRecord
  2
RUNDUNGEN
 70
0
 62
7
  6
CONTINUOUS
370
-3
390
F
  0
LAYER
  5
205
100
AcDbSymbolTableRecord
100
AcDbLayerTableRecord
  2
T_STARTBEZUEGE
 70
0
 62
7
  6
CONTINUOUS
370
-3
390
F
  0
ENDTAB
  0
TABLE
  2
STYLE
  5
3
100
AcDbSymbolTable
 70
1
  0
STYLE
  5
11
100
AcDbSymbolTableRecord
100
AcDbTextStyleTableRecord
  2
STANDARD
 70
0
 40
0.0
 41
0.7
 50
0.0
 71
0
 42
0.2
  3
txt
  4

  0
STYLE
  5
206
100
AcDbSymbolTableRecord
100
AcDbTextStyleTableRecord
  2
TEXTSTYLE_1
 70
0
 40
0.0
 41
0.8
 50
0.0
 71
0
 42
0.2
  3
gdt
  4

  0
ENDTAB
  0
TABLE
  2
VIEW
  5
6
100
AcDbSymbolTable
 70
0
  0
ENDTAB
  0
TABLE
  2
UCS
  5
7
100
AcDbSymbolTable
 70
0
  0
ENDTAB
  0
TABLE
  2
APPID
  5
9
100
AcDbSymbolTable
 70
1
  0
APPID
  5
207
100
AcDbSymbolTableRecord
100
AcDbRegAppTableRecord
  2
ACAD
 70
0
  0
ENDTAB
  0
TABLE
  2
BLOCK_RECORD
  5
1
100
AcDbSymbolTable
 70
0
  0
BLOCK_RECORD
  5
208
100
AcDbSymbolTableRecord
100
AcDbBlockTableRecord
  2
*Model_Space
  0
BLOCK_RECORD
  5
209
100
AcDbSymbolTableRecord
100
AcDbBlockTableRecord
  2
*Paper_Space
  0
ENDTAB
  0
TABLE
  2
DIMSTYLE
  5
A
100
AcDbSymbolTable
 70
1
100
AcDbDimStyleTable
 71
0
  0
DIMSTYLE
105
20A
100
AcDbSymbolTableRecord
100
AcDbDimStyleTableRecord
  2
STANDARD
 70
0
  3

  4

 40
1.0
 41
3.5
 42
0.0625
 43
0.38
 44
0.18
 45
0.0
 46
0.0
 47
0.005
 48
0.005
140
3.5
141
0.09
142
0.0
143
25.4
144
1.0
145
0.0
146
1.0
147
0.09
 71
1.0
 72
0.0
 73
0
 74
0
 75
0
 76
0
 77
1
 78
8
170
0
171
2
172
0
173
0
174
0
175
0
176
0
177
0
178
5
270
2
271
3
272
3
273
2
274
2
275
0
280
0
281
0
282
0
283
1
284
8
285
0
286
0
287
3
288
0
340
11
  0
ENDTAB
  0
ENDSEC
  0
SECTION
  2
BLOCKS
  0
BLOCK
  5
20
100
AcDbEntity
  8
0
100
AcDbBlockBegin
  2
*Model_Space
 70
0
 10
0.0
 20
0.0
 30
0.0
  3
*Model_Space
  1

  0
ENDBLK
  5
21
100
AcDbEntity
  8
0
100
AcDbBlockEnd
  0
BLOCK
  5
1C
100
AcDbEntity
  8
0
100
AcDbBlockBegin
  2
*Paper_Space
 70
0
 10
0.0
 20
0.0
 30
0.0
  3
*Paper_Space
  1

  0
ENDBLK
  5
1D
100
AcDbEntity
  8
0
100
AcDbBlockEnd
  0
ENDSEC
  0
SECTION
  2
ENTITIES
  0
MTEXT
  5
20B
100
AcDbEntity
  8
0
100
AcDbMText
 62
5
  6
CONTINUOUS
  7
STANDARD
 71
1
 72
1
 10
196.5666516454
 20
147.306426661
 30
0.0
 11
0.0
 21
1.0
 31
0.0
 44
0.9
  1
INOX STAR 2t RUD
 40
4.0
 41
50.9523809524
  0
MTEXT
  5
20C
100
AcDbEntity
  8
0
100
AcDbMText
 62
5
  6
CONTINUOUS
  7
STANDARD
 71
1
 72
1
 10
69.9238182437
 20
32.6217282901
 30
0.0
 11
1.0
 21
0.0
 31
0.0
 44
0.9
  1
INOX STAR 2t RUD
 40
4.0
 41
50.9523809524
  0
LINE
  5
20D
100
AcDbEntity
  8
0
100
AcDbLine
 62
7
  6
CONTINUOUS
 10
0.0
 20
0.0
 11
0.0
 21
210.0
  0
LINE
  5
20E
100
AcDbEntity
  8
0
100
AcDbLine
 62
7
  6
CONTINUOUS
 10
0.0
 20
0.0
 11
297.0
 21
0.0
  0
LINE
  5
20F
100
AcDbEntity
  8
0
100
AcDbLine
 62
7
  6
CONTINUOUS
 10
0.0
 20
210.0
 11
297.0
 21
210.0
  0
LINE
  5
210
100
AcDbEntity
  8
0
100
AcDbLine
 62
7
  6
CONTINUOUS
 10
297.0
 20
0.0
 11
297.0
 21
210.0
  0
LINE
  5
211
100
AcDbEntity
  8
0
100
AcDbLine
 62
7
  6
CONTINUOUS
 10
104.536898165
 20
66.7604999727
 11
88.036898165
 21
66.7604999727
  0
LINE
  5
212
100
AcDbEntity
  8
0
100
AcDbLine
 62
7
  6
CONTINUOUS
 10
106.286898165
 20
68.5104999727
 11
86.286898165
 21
68.5104999727
  0
LINE
  5
213
100
AcDbEntity
  8
0
100
AcDbLine
 62
7
  6
CONTINUOUS
 10
84.20726505
 20
192.7404588635
 11
83.5970601646
 21
192.4719551755
  0
LINE
  5
214
100
AcDbEntity
  8
0
100
AcDbLine
 62
7
  6
CONTINUOUS
 10
83.8027225884
 20
192.0045641438
 11
84.4129274737
 21
192.2730678317
  0
LINE
  5
215
100
AcDbEntity
  8
0
100
AcDbLine
 62
7
  6
CONTINUOUS
 10
72.5952965276
 20
183.9439856397
 11
72.27155135
 21
183.6682257249
  0
LINE
  5
216
100
AcDbEntity
  8
0
100
AcDbLine
 62
7
  6
CONTINUOUS
 10
83.5318969981
 20
191.7924136986
 11
83.8027225884
 21
192.0045641438
  0
LINE
  5
217
100
AcDbEntity
  8
0
100
AcDbLine
 62
7
  6
CONTINUOUS
 10
77.6156223575
 20
188.8942565345
 11
77.2208198749
 21
188.5874487776
  0
LINE
  5
218
100
AcDbEntity
  8
0
100
AcDbLine
 62
7
  6
CONTINUOUS
 10
72.6737634804
 20
183.3536199219
 11
72.946166341
 21
183.563740543
  0
LINE
  5
219
100
AcDbEntity
  8
0
100
AcDbLine
 62
7
  6
CONTINUOUS
 10
83.5970601646
 20
192.4719551755
 11
83.2499592365
 21
192.2262418893
  0
LINE
  5
21A
100
AcDbEntity
  8
0
100
AcDbLine
 62
7
  6
CONTINUOUS
 10
81.2558169808
 20
191.338127775
 11
80.8332707327
 21
191.0708177149
  0
LINE
  5
21B
100
AcDbEntity
  8
0
100
AcDbLine
 62
7
  6
CONTINUOUS
 10
79.072661332
 20
189.9570257767
 11
78.4388419599
 21
189.5560606866
  0
LINE
  5
21C
100
AcDbEntity
  8
0
100
AcDbLine
 62
7
  6
CONTINUOUS
 10
80.5773224405
 20
186.1756907018
 11
80.9998686886
 21
186.4430007618
  0
LINE
  5
21D
100
AcDbEntity
  8
0
100
AcDbLine
 62
7
  6
CONTINUOUS
 10
82.7604780893
 20
187.5567927001
 11
83.3942974614
 21
187.9577577902
  0
LINE
  5
21E
100
AcDbEntity
  8
0
100
AcDbLine
 62
7
  6
CONTINUOUS
 10
72.9347347433
 20
184.1016719603
 11
72.5952965276
 21
183.9439856397
  0
LINE
  5
21F
100
AcDbEntity
  8
0
100
AcDbLine
 62
7
  6
CONTINUOUS
 10
85.6126251138
 20
189.5466197648
 11
85.0024202284
 21
189.2781160769
  0
LINE
  5
220
100
AcDbEntity
  8
0
100
AcDbLine
 62
7
  6
CONTINUOUS
 10
85.2080826762
 20
188.8107249906
 11
85.8182875615
 21
189.0792286785
  0
LINE
  5
221
100
AcDbEntity
  8
0
100
AcDbLine
 62
7
  6
CONTINUOUS
 10
102.087962368
 20
193.8865463177
 11
102.3688881476
 21
193.9985870021
  0
LINE
  5
222
100
AcDbEntity
  8
0
100
AcDbLine
 62
7
  6
CONTINUOUS
 10
72.946166341
 20
183.563740543
 11
73.2342628272
 21
183.655788321
  0
LINE
  5
223
100
AcDbEntity
  8
0
100
AcDbLine
 62
7
  6
CONTINUOUS
 10
86.286898165
 20
68.5104999727
 11
88.036898165
 21
66.7604999727
  0
LINE
  5
224
100
AcDbEntity
  8
0
100
AcDbLine
 62
7
  6
CONTINUOUS
 10
68.1222004899
 20
176.6169776923
 11
67.8885095974
 21
176.2616710096
  0
LINE
  5
225
100
AcDbEntity
  8
0
100
AcDbLine
 62
7
  6
CONTINUOUS
 10
72.27155135
 20
183.6682257249
 11
71.0393451415
 21
182.0928946931
  0
LINE
  5
226
100
AcDbEntity
  8
0
100
AcDbLine
 62
7
  6
CONTINUOUS
 10
71.749608824
 20
182.1721216481
 11
72.6737634804
 21
183.3536199219
  0
LINE
  5
227
100
AcDbEntity
  8
0
100
AcDbLine
 62
7
  6
CONTINUOUS
 10
83.2499592365
 20
192.2262418893
 11
83.0134107168
 21
191.9361929388
  0
LINE
  5
228
100
AcDbEntity
  8
0
100
AcDbLine
 62
7
  6
CONTINUOUS
 10
68.3145721216
 20
176.1810948095
 11
68.4863970046
 21
176.3816423208
  0
LINE
  5
229
100
AcDbEntity
  8
0
100
AcDbLine
 62
7
  6
CONTINUOUS
 10
72.553261932
 20
177.8726097747
 11
72.3136590452
 21
177.6257404762
  0
LINE
  5
22A
100
AcDbEntity
  8
0
100
AcDbLine
 62
7
  6
CONTINUOUS
 10
85.883450704
 20
189.75877021
 11
85.6126251138
 21
189.5466197648
  0
LINE
  5
22B
100
AcDbEntity
  8
0
100
AcDbLine
 62
7
  6
CONTINUOUS
 10
79.67528193
 20
185.4290289163
 11
80.0700844127
 21
185.7358366732
  0
LINE
  5
22C
100
AcDbEntity
  8
0
100
AcDbLine
 62
7
  6
CONTINUOUS
 10
85.8182875615
 20
189.0792286785
 11
86.1653889231
 21
189.3249421636
  0
LINE
  5
22D
100
AcDbEntity
  8
0
100
AcDbLine
 62
7
  6
CONTINUOUS
 10
72.4017966686
 20
177.094955519
 11
72.7152362998
 21
177.2995018489
  0
LINE
  5
22E
100
AcDbEntity
  8
0
100
AcDbLine
 62
7
  6
CONTINUOUS
 10
102.0358209366
 20
194.4211587425
 11
101.6366819631
 21
194.1609881971
  0
LINE
  5
22F
100
AcDbEntity
  8
0
100
AcDbLine
 62
7
  6
CONTINUOUS
 10
68.4830101588
 20
176.8317224086
 11
68.1222004899
 21
176.6169776923
  0
LINE
  5
230
100
AcDbEntity
  8
0
100
AcDbLine
 62
7
  6
CONTINUOUS
 10
72.3136590452
 20
177.6257404762
 11
72.0416611
 21
177.4934925391
  0
LINE
  5
231
100
AcDbEntity
  8
0
100
AcDbLine
 62
7
  6
CONTINUOUS
 10
68.4863970046
 20
176.3816423208
 11
68.7063148397
 21
176.4732192222
  0
LINE
  5
232
100
AcDbEntity
  8
0
100
AcDbLine
 62
7
  6
CONTINUOUS
 10
103.099304395
 20
191.1341698048
 11
102.8183786607
 21
191.0221290494
  0
LINE
  5
233
100
AcDbEntity
  8
0
100
AcDbLine
 62
7
  6
CONTINUOUS
 10
67.8885095974
 20
176.2616710096
 11
67.1461178361
 21
174.4045618386
  0
LINE
  5
234
100
AcDbEntity
  8
0
100
AcDbLine
 62
7
  6
CONTINUOUS
 10
67.7268453401
 20
174.7108834563
 11
68.3145721216
 21
176.1810948095
  0
LINE
  5
235
100
AcDbEntity
  8
0
100
AcDbLine
 62
7
  6
CONTINUOUS
 10
70.3547985077
 20
181.053833204
 11
70.1061486724
 21
180.6200437857
  0
LINE
  5
236
100
AcDbEntity
  8
0
100
AcDbLine
 62
7
  6
CONTINUOUS
 10
69.1115493311
 20
178.8848861127
 11
68.8628993772
 21
178.4510964876
  0
LINE
  5
237
100
AcDbEntity
  8
0
100
AcDbLine
 62
7
  6
CONTINUOUS
 10
72.7190285679
 20
178.1618028581
 11
72.553261932
 21
177.8726097747
  0
LINE
  5
238
100
AcDbEntity
  8
0
100
AcDbLine
 62
7
  6
CONTINUOUS
 10
72.9962809112
 20
177.618669518
 11
73.1620475471
 21
177.9078626014
  0
LINE
  5
239
100
AcDbEntity
  8
0
100
AcDbLine
 62
7
  6
CONTINUOUS
 10
75.0200012363
 20
181.5184191476
 11
74.0958465799
 21
180.3369208738
  0
LINE
  5
23A
100
AcDbEntity
  8
0
100
AcDbLine
 62
7
  6
CONTINUOUS
 10
74.1900072052
 20
179.6284822761
 11
75.4222134136
 21
181.203813308
  0
LINE
  5
23B
100
AcDbEntity
  8
0
100
AcDbLine
 62
7
  6
CONTINUOUS
 10
86.1653889231
 20
189.3249421636
 11
86.4019369973
 21
189.6149909426
  0
LINE
  5
23C
100
AcDbEntity
  8
0
100
AcDbLine
 62
7
  6
CONTINUOUS
 10
72.7152362998
 20
177.2995018489
 11
72.9962809112
 21
177.618669518
  0
LINE
  5
23D
100
AcDbEntity
  8
0
100
AcDbLine
 62
7
  6
CONTINUOUS
 10
103.1514456906
 20
190.5995573185
 11
103.550584816
 21
190.8597278608
  0
LINE
  5
23E
100
AcDbEntity
  8
0
100
AcDbLine
 62
7
  6
CONTINUOUS
 10
114.7553102073
 20
186.6910665195
 11
115.1606907614
 21
186.8096250348
  0
LINE
  5
23F
100
AcDbEntity
  8
0
100
AcDbLine
 62
7
  6
CONTINUOUS
 10
69.4999610342
 20
175.7072276958
 11
68.9122342527
 21
174.2370163426
  0
LINE
  5
240
100
AcDbEntity
  8
0
100
AcDbLine
 62
7
  6
CONTINUOUS
 10
69.3863897292
 20
174.0474695325
 11
69.9122505454
 21
175.362921825
  0
LINE
  5
241
100
AcDbEntity
  8
0
100
AcDbLine
 62
7
  6
CONTINUOUS
 10
70.8603361779
 20
172.919778316
 11
71.0459341183
 21
173.3840556088
  0
LINE
  5
242
100
AcDbEntity
  8
0
100
AcDbLine
 62
7
  6
CONTINUOUS
 10
71.8192588401
 20
175.3185442547
 11
72.0357898295
 21
175.8602012438
  0
LINE
  5
243
100
AcDbEntity
  8
0
100
AcDbLine
 62
7
  6
CONTINUOUS
 10
75.1583333868
 20
181.8334083697
 11
75.0200012363
 21
181.5184191476
  0
LINE
  5
244
100
AcDbEntity
  8
0
100
AcDbLine
 62
7
  6
CONTINUOUS
 10
75.4222134136
 20
181.203813308
 11
75.6118878753
 21
181.5844418284
  0
LINE
  5
245
100
AcDbEntity
  8
0
100
AcDbLine
 62
7
  6
CONTINUOUS
 10
83.3716242528
 20
191.535927781
 11
83.5318969981
 21
191.7924136986
  0
LINE
  5
246
100
AcDbEntity
  8
0
100
AcDbLine
 62
7
  6
CONTINUOUS
 10
86.0437234253
 20
190.0152561822
 11
85.883450704
 21
189.75877021
  0
LINE
  5
247
100
AcDbEntity
  8
0
100
AcDbLine
 62
7
  6
CONTINUOUS
 10
72.8109587159
 20
178.4933193127
 11
72.7190285679
 21
178.1618028581
  0
LINE
  5
248
100
AcDbEntity
  8
0
100
AcDbLine
 62
7
  6
CONTINUOUS
 10
73.1620475471
 20
177.9078626014
 11
73.2954191698
 21
178.3116770203
  0
LINE
  5
249
100
AcDbEntity
  8
0
100
AcDbLine
 62
7
  6
CONTINUOUS
 10
83.0134107168
 20
191.9361929388
 11
82.8454163384
 21
191.4903469776
  0
LINE
  5
24A
100
AcDbEntity
  8
0
100
AcDbLine
 62
7
  6
CONTINUOUS
 10
103.3173022232
 20
191.3473423264
 11
103.099304395
 21
191.1341698048
  0
LINE
  5
24B
100
AcDbEntity
  8
0
100
AcDbLine
 62
7
  6
CONTINUOUS
 10
109.2667498669
 20
189.4075187172
 11
111.0372066476
 21
191.05317982
  0
LINE
  5
24C
100
AcDbEntity
  8
0
100
AcDbLine
 62
7
  6
CONTINUOUS
 10
108.2418812763
 20
188.4188386299
 11
109.0287514933
 21
189.1502432214
  0
LINE
  5
24D
100
AcDbEntity
  8
0
100
AcDbLine
 62
7
  6
CONTINUOUS
 10
110.9108373346
 20
191.5125611551
 11
107.8046398022
 21
188.6613657758
  0
LINE
  5
24E
100
AcDbEntity
  8
0
100
AcDbLine
 62
7
  6
CONTINUOUS
 10
115.0364985466
 20
187.3331480909
 11
114.81520845
 21
187.1809538207
  0
LINE
  5
24F
100
AcDbEntity
  8
0
100
AcDbLine
 62
7
  6
CONTINUOUS
 10
115.1606907614
 20
186.8096250348
 11
115.3819808579
 21
186.961819305
  0
LINE
  5
250
100
AcDbEntity
  8
0
100
AcDbLine
 62
7
  6
CONTINUOUS
 10
69.5137340916
 20
175.9709574772
 11
69.4999610342
 21
175.7072276958
  0
LINE
  5
251
100
AcDbEntity
  8
0
100
AcDbLine
 62
7
  6
CONTINUOUS
 10
75.6118878753
 20
181.5844418284
 11
75.6831846531
 21
181.9518653647
  0
LINE
  5
252
100
AcDbEntity
  8
0
100
AcDbLine
 62
7
  6
CONTINUOUS
 10
88.5047892197
 20
192.1825561662
 11
87.6725220697
 21
189.8402714795
  0
LINE
  5
253
100
AcDbEntity
  8
0
100
AcDbLine
 62
7
  6
CONTINUOUS
 10
89.3593468419
 20
194.4427054187
 11
88.656904613
 21
192.5765744681
  0
LINE
  5
254
100
AcDbEntity
  8
0
100
AcDbLine
 62
7
  6
CONTINUOUS
 10
88.1550692705
 20
189.9712226118
 11
88.857510579
 21
191.8373533126
  0
LINE
  5
255
100
AcDbEntity
  8
0
100
AcDbLine
 62
7
  6
CONTINUOUS
 10
86.4019369973
 20
189.6149909426
 11
86.5699313637
 21
190.060836931
  0
LINE
  5
256
100
AcDbEntity
  8
0
100
AcDbLine
 62
7
  6
CONTINUOUS
 10
88.9873364205
 20
192.3135072985
 11
89.8418940426
 21
194.573656551
  0
LINE
  5
257
100
AcDbEntity
  8
0
100
AcDbLine
 62
7
  6
CONTINUOUS
 10
103.550584816
 20
190.8597278608
 11
103.7870111586
 21
191.155987654
  0
LINE
  5
258
100
AcDbEntity
  8
0
100
AcDbLine
 62
7
  6
CONTINUOUS
 10
119.1461224758
 20
178.200988535
 11
119.6694007317
 21
178.5031033769
  0
LINE
  5
259
100
AcDbEntity
  8
0
100
AcDbLine
 62
7
  6
CONTINUOUS
 10
122.1043955982
 20
179.9089483186
 11
122.6276738541
 21
180.2110631605
  0
LINE
  5
25A
100
AcDbEntity
  8
0
100
AcDbLine
 62
7
  6
CONTINUOUS
 10
69.9397967044
 20
175.8903814985
 11
69.9054768097
 21
176.2630818899
  0
LINE
  5
25B
100
AcDbEntity
  8
0
100
AcDbLine
 62
7
  6
CONTINUOUS
 10
73.2954191698
 20
178.3116770203
 11
73.3135128105
 21
178.6855168571
  0
LINE
  5
25C
100
AcDbEntity
  8
0
100
AcDbLine
 62
7
  6
CONTINUOUS
 10
75.1782884057
 20
182.1351933864
 11
75.1583333868
 21
181.8334083697
  0
LINE
  5
25D
100
AcDbEntity
  8
0
100
AcDbLine
 62
7
  6
CONTINUOUS
 10
83.3219044485
 20
191.235106173
 11
83.3716242528
 21
191.535927781
  0
LINE
  5
25E
100
AcDbEntity
  8
0
100
AcDbLine
 62
7
  6
CONTINUOUS
 10
101.6366819631
 20
194.1609881971
 11
101.481611708
 21
193.8466839222
  0
LINE
  5
25F
100
AcDbEntity
  8
0
100
AcDbLine
 62
7
  6
CONTINUOUS
 10
101.9513205918
 20
193.655329017
 11
102.087962368
 21
193.8865463177
  0
LINE
  5
260
100
AcDbEntity
  8
0
100
AcDbLine
 62
7
  6
CONTINUOUS
 10
122.145259037
 20
176.4222511993
 11
122.6685372929
 21
176.7243660412
  0
LINE
  5
261
100
AcDbEntity
  8
0
100
AcDbLine
 62
7
  6
CONTINUOUS
 10
120.8661224758
 20
175.221861146
 11
121.3894007317
 21
175.5239759879
  0
LINE
  5
262
100
AcDbEntity
  8
0
100
AcDbLine
 62
7
  6
CONTINUOUS
 10
123.8243955982
 20
176.9298209296
 11
124.3476738541
 21
177.2319357715
  0
LINE
  5
263
100
AcDbEntity
  8
BEZUGSACHSEN
100
AcDbLine
 62
7
  6
CONTINUOUS
 10
70.6056756077
 20
134.4567854884
 11
70.4144495048
 21
134.942241232
  0
LINE
  5
264
100
AcDbEntity
  8
BEZUGSACHSEN
100
AcDbLine
 62
7
  6
CONTINUOUS
 10
68.7814663123
 20
139.0878105773
 11
65.5665800084
 21
147.2492749276
  0
LINE
  5
265
100
AcDbEntity
  8
BEZUGSACHSEN
100
AcDbLine
 62
7
  6
CONTINUOUS
 10
62.500036945
 20
155.0341480223
 11
61.8380870422
 21
156.7146057502
  0
LINE
  5
266
100
AcDbEntity
  8
RUNDUNGEN
100
AcDbLine
 62
7
  6
CONTINUOUS
 10
70.4144495048
 20
134.942241232
 11
59.2408220608
 21
163.3081470296
  0
LINE
  5
267
100
AcDbEntity
  8
0
100
AcDbLine
 62
7
  6
CONTINUOUS
 10
72.787610606
 20
178.7948607938
 11
72.8109587159
 21
178.4933193127
  0
LINE
  5
268
100
AcDbEntity
  8
0
100
AcDbLine
 62
7
  6
CONTINUOUS
 10
82.8454163384
 20
191.4903469776
 11
82.8299735087
 21
191.1116270825
  0
LINE
  5
269
100
AcDbEntity
  8
0
100
AcDbLine
 62
7
  6
CONTINUOUS
 10
86.0934433257
 20
190.316077572
 11
86.0437234253
 21
190.0152561822
  0
LINE
  5
26A
100
AcDbEntity
  8
0
100
AcDbLine
 62
7
  6
CONTINUOUS
 10
113.7081687672
 20
189.8488590286
 11
111.2783792057
 21
186.6714193852
  0
LINE
  5
26B
100
AcDbEntity
  8
0
100
AcDbLine
 62
7
  6
CONTINUOUS
 10
111.6755591611
 20
186.3676956901
 11
112.7612098317
 21
187.7874027849
  0
LINE
  5
26C
100
AcDbEntity
  8
0
100
AcDbLine
 62
7
  6
CONTINUOUS
 10
113.0713956961
 20
188.1930333293
 11
113.8468605022
 21
189.2071098797
  0
LINE
  5
26D
100
AcDbEntity
  8
0
100
AcDbLine
 62
7
  6
CONTINUOUS
 10
115.1915916236
 20
187.5359635525
 11
115.0364985466
 21
187.3331480909
  0
LINE
  5
26E
100
AcDbEntity
  8
0
100
AcDbLine
 62
7
  6
CONTINUOUS
 10
115.3819808579
 20
186.961819305
 11
115.588771579
 21
187.2322398573
  0
LINE
  5
26F
100
AcDbEntity
  8
0
100
AcDbLine
 62
7
  6
CONTINUOUS
 10
82.536898165
 20
126.9604999727
 11
82.536898165
 21
126.7604999727
  0
LINE
  5
270
100
AcDbEntity
  8
0
100
AcDbLine
 62
7
  6
CONTINUOUS
 10
86.286898165
 20
126.7604999727
 11
86.286898165
 21
68.5104999727
  0
LINE
  5
271
100
AcDbEntity
  8
0
100
AcDbLine
 62
7
  6
CONTINUOUS
 10
86.5699313637
 20
190.060836931
 11
86.5853746059
 21
190.4395570727
  0
LINE
  5
272
100
AcDbEntity
  8
0
100
AcDbLine
 62
7
  6
CONTINUOUS
 10
105.6377384282
 20
193.7970169875
 11
105.4878312026
 21
193.3987643151
  0
LINE
  5
273
100
AcDbEntity
  8
0
100
AcDbLine
 62
7
  6
CONTINUOUS
 10
106.7356898738
 20
192.9290548961
 11
105.4764690104
 21
189.5837320011
  0
LINE
  5
274
100
AcDbEntity
  8
0
100
AcDbLine
 62
7
  6
CONTINUOUS
 10
105.9444159563
 20
189.40759099
 11
107.2036368197
 21
192.7529138849
  0
LINE
  5
275
100
AcDbEntity
  8
0
100
AcDbLine
 62
7
  6
CONTINUOUS
 10
73.3135128105
 20
178.6855168571
 11
73.1839334689
 21
179.1440034401
  0
LINE
  5
276
100
AcDbEntity
  8
0
100
AcDbLine
 62
7
  6
CONTINUOUS
 10
75.6831846531
 20
181.9518653647
 11
75.6204107149
 21
182.4241575066
  0
LINE
  5
277
100
AcDbEntity
  8
0
100
AcDbLine
 62
7
  6
CONTINUOUS
 10
90.6202316572
 20
131.8115638202
 11
90.6202316572
 21
130.9604999727
  0
LINE
  5
278
100
AcDbEntity
  8
0
100
AcDbLine
 62
7
  6
CONTINUOUS
 10
101.481611708
 20
193.8466839222
 11
101.4078976505
 21
193.5143348359
  0
LINE
  5
279
100
AcDbEntity
  8
0
100
AcDbLine
 62
7
  6
CONTINUOUS
 10
101.9144635889
 20
193.4891545902
 11
101.9513205918
 21
193.655329017
  0
LINE
  5
27A
100
AcDbEntity
  8
0
100
AcDbLine
 62
7
  6
CONTINUOUS
 10
103.3725877276
 20
191.5966039666
 11
103.3173022232
 21
191.3473423264
  0
LINE
  5
27B
100
AcDbEntity
  8
0
100
AcDbLine
 62
7
  6
CONTINUOUS
 10
103.7870111586
 20
191.155987654
 11
103.879153666
 21
191.5714237209
  0
LINE
  5
27C
100
AcDbEntity
  8
0
100
AcDbLine
 62
7
  6
CONTINUOUS
 10
90.9535650005
 20
137.769010753
 11
90.7868983289
 21
137.0881597703
  0
LINE
  5
27D
100
AcDbEntity
  8
0
100
AcDbLine
 62
7
  6
CONTINUOUS
 10
108.4514950447
 20
192.2832046339
 11
108.6014022703
 21
192.6814573064
  0
LINE
  5
27E
100
AcDbEntity
  8
0
100
AcDbLine
 62
7
  6
CONTINUOUS
 10
91.6202316572
 20
137.0881597703
 11
91.9535650303
 21
137.5987980073
  0
LINE
  5
27F
100
AcDbEntity
  8
0
100
AcDbLine
 62
7
  6
CONTINUOUS
 10
91.6202316572
 20
138.4498617357
 11
90.9535650005
 21
137.769010753
  0
LINE
  5
280
100
AcDbEntity
  8
0
100
AcDbLine
 62
7
  6
CONTINUOUS
 10
92.2868982842
 20
138.790287227
 11
91.6202316572
 21
138.4498617357
  0
LINE
  5
281
100
AcDbEntity
  8
0
100
AcDbLine
 62
7
  6
CONTINUOUS
 10
110.036898165
 20
126.7604999727
 11
82.536898165
 21
126.7604999727
  0
LINE
  5
282
100
AcDbEntity
  8
BEZUGSACHSEN
100
AcDbLine
 62
7
  6
CONTINUOUS
 10
75.286898165
 20
126.9604999727
 11
117.286898165
 21
126.9604999727
  0
LINE
  5
283
100
AcDbEntity
  8
0
100
AcDbLine
 62
7
  6
CONTINUOUS
 10
69.4175482758
 20
176.1888989186
 11
69.5137340916
 21
175.9709574772
  0
LINE
  5
284
100
AcDbEntity
  8
0
100
AcDbLine
 62
7
  6
CONTINUOUS
 10
75.0798663871
 20
182.4237741243
 11
75.1782884057
 21
182.1351933864
  0
LINE
  5
285
100
AcDbEntity
  8
0
100
AcDbLine
 62
7
  6
CONTINUOUS
 10
95.6202316572
 20
137.0881597703
 11
95.6202316572
 21
136.7477338022
  0
LINE
  5
286
100
AcDbEntity
  8
0
100
AcDbLine
 62
7
  6
CONTINUOUS
 10
96.6202316572
 20
130.9604999727
 11
96.6202316572
 21
131.8115638202
  0
LINE
  5
287
100
AcDbEntity
  8
0
100
AcDbLine
 62
7
  6
CONTINUOUS
 10
96.6202316572
 20
136.7477338022
 11
96.6202316572
 21
137.0881597703
  0
LINE
  5
288
100
AcDbEntity
  8
0
100
AcDbLine
 62
7
  6
CONTINUOUS
 10
96.4535651495
 20
136.0668828195
 11
96.6202316572
 21
136.7477338022
  0
LINE
  5
289
100
AcDbEntity
  8
0
100
AcDbLine
 62
7
  6
CONTINUOUS
 10
115.2804873916
 20
187.7893998267
 11
115.1915916236
 21
187.5359635525
  0
LINE
  5
28A
100
AcDbEntity
  8
0
100
AcDbLine
 62
7
  6
CONTINUOUS
 10
95.6202316572
 20
136.7477338022
 11
95.286898165
 21
136.0668828195
  0
LINE
  5
28B
100
AcDbEntity
  8
0
100
AcDbLine
 62
7
  6
CONTINUOUS
 10
96.1202316572
 20
135.5562445825
 11
96.4535651495
 21
136.0668828195
  0
LINE
  5
28C
100
AcDbEntity
  8
0
100
AcDbLine
 62
7
  6
CONTINUOUS
 10
95.286898165
 20
136.0668828195
 11
90.6202316572
 21
131.8115638202
  0
LINE
  5
28D
100
AcDbEntity
  8
0
100
AcDbLine
 62
7
  6
CONTINUOUS
 10
91.9535650303
 20
131.8115638202
 11
96.1202316572
 21
135.5562445825
  0
LINE
  5
28E
100
AcDbEntity
  8
0
100
AcDbLine
 62
7
  6
CONTINUOUS
 10
91.9535650303
 20
137.5987980073
 11
92.4535650303
 21
137.9392234987
  0
LINE
  5
28F
100
AcDbEntity
  8
0
100
AcDbLine
 62
7
  6
CONTINUOUS
 10
90.6202316572
 20
130.9604999727
 11
96.6202316572
 21
130.9604999727
  0
LINE
  5
290
100
AcDbEntity
  8
0
100
AcDbLine
 62
7
  6
CONTINUOUS
 10
96.6202316572
 20
131.8115638202
 11
91.9535650303
 21
131.8115638202
  0
LINE
  5
291
100
AcDbEntity
  8
0
100
AcDbLine
 62
7
  6
CONTINUOUS
 10
97.9535651495
 20
135.7264573282
 11
99.2868986418
 21
135.7264573282
  0
LINE
  5
292
100
AcDbEntity
  8
0
100
AcDbLine
 62
7
  6
CONTINUOUS
 10
100.1202316572
 20
135.7264573282
 11
101.9535646727
 21
135.7264573282
  0
LINE
  5
293
100
AcDbEntity
  8
0
100
AcDbLine
 62
7
  6
CONTINUOUS
 10
100.6202316572
 20
131.1307127332
 11
101.6202316572
 21
130.9604999727
  0
LINE
  5
294
100
AcDbEntity
  8
0
100
AcDbLine
 62
7
  6
CONTINUOUS
 10
101.6202316572
 20
131.6413510149
 11
100.7868986418
 21
131.8115638202
  0
LINE
  5
295
100
AcDbEntity
  8
0
100
AcDbLine
 62
7
  6
CONTINUOUS
 10
100.1202316572
 20
131.3009254938
 11
100.6202316572
 21
131.1307127332
  0
LINE
  5
296
100
AcDbEntity
  8
0
100
AcDbLine
 62
7
  6
CONTINUOUS
 10
99.6202316572
 20
131.6413510149
 11
100.1202316572
 21
131.3009254938
  0
LINE
  5
297
100
AcDbEntity
  8
0
100
AcDbLine
 62
7
  6
CONTINUOUS
 10
100.7868986418
 20
131.8115638202
 11
100.2868986418
 21
132.1519893115
  0
LINE
  5
298
100
AcDbEntity
  8
0
100
AcDbLine
 62
7
  6
CONTINUOUS
 10
95.286898165
 20
137.5987980073
 11
95.6202316572
 21
137.0881597703
  0
LINE
  5
299
100
AcDbEntity
  8
0
100
AcDbLine
 62
7
  6
CONTINUOUS
 10
69.9054768097
 20
176.2630818899
 11
69.6821721288
 21
176.6215850763
  0
LINE
  5
29A
100
AcDbEntity
  8
0
100
AcDbLine
 62
7
  6
CONTINUOUS
 10
72.6489843417
 20
179.0664272422
 11
72.787610606
 21
178.7948607938
  0
LINE
  5
29B
100
AcDbEntity
  8
0
100
AcDbLine
 62
7
  6
CONTINUOUS
 10
82.8299735087
 20
191.1116270825
 11
82.9250831836
 21
190.6885713049
  0
LINE
  5
29C
100
AcDbEntity
  8
0
100
AcDbLine
 62
7
  6
CONTINUOUS
 10
83.3827369567
 20
190.8899491188
 11
83.3219044485
 21
191.235106173
  0
LINE
  5
29D
100
AcDbEntity
  8
0
100
AcDbLine
 62
7
  6
CONTINUOUS
 10
86.0326108175
 20
190.6612346261
 11
86.0934433257
 21
190.316077572
  0
LINE
  5
29E
100
AcDbEntity
  8
0
100
AcDbLine
 62
7
  6
CONTINUOUS
 10
100.8136873783
 20
191.9898113944
 11
100.8213296143
 21
191.6394179638
  0
LINE
  5
29F
100
AcDbEntity
  8
0
100
AcDbLine
 62
7
  6
CONTINUOUS
 10
97.9535651495
 20
136.4073083108
 11
97.9535651495
 21
135.7264573282
  0
LINE
  5
2A0
100
AcDbEntity
  8
0
100
AcDbLine
 62
7
  6
CONTINUOUS
 10
99.2868986418
 20
137.769010753
 11
99.2868986418
 21
136.4073083108
  0
LINE
  5
2A1
100
AcDbEntity
  8
0
100
AcDbLine
 62
7
  6
CONTINUOUS
 10
99.2868986418
 20
135.7264573282
 11
99.2868986418
 21
132.3222020572
  0
LINE
  5
2A2
100
AcDbEntity
  8
0
100
AcDbLine
 62
7
  6
CONTINUOUS
 10
100.1202316572
 20
132.6626276677
 11
100.1202316572
 21
135.7264573282
  0
LINE
  5
2A3
100
AcDbEntity
  8
0
100
AcDbLine
 62
7
  6
CONTINUOUS
 10
100.1202316572
 20
136.4073083108
 11
100.1202316572
 21
137.769010753
  0
LINE
  5
2A4
100
AcDbEntity
  8
0
100
AcDbLine
 62
7
  6
CONTINUOUS
 10
101.6202316572
 20
130.9604999727
 11
101.6202316572
 21
131.6413510149
  0
LINE
  5
2A5
100
AcDbEntity
  8
0
100
AcDbLine
 62
7
  6
CONTINUOUS
 10
101.9535646727
 20
135.7264573282
 11
101.9535646727
 21
136.4073083108
  0
LINE
  5
2A6
100
AcDbEntity
  8
0
100
AcDbLine
 62
7
  6
CONTINUOUS
 10
110.7195858819
 20
187.0445165177
 11
111.4938259667
 21
191.1891916273
  0
LINE
  5
2A7
100
AcDbEntity
  8
0
100
AcDbLine
 62
7
  6
CONTINUOUS
 10
110.4862239077
 20
188.3418189393
 11
110.2823439908
 21
187.2870438949
  0
LINE
  5
2A8
100
AcDbEntity
  8
0
100
AcDbLine
 62
7
  6
CONTINUOUS
 10
111.0372066476
 20
191.05317982
 11
110.5784755402
 21
188.6799365858
  0
LINE
  5
2A9
100
AcDbEntity
  8
0
100
AcDbLine
 62
7
  6
CONTINUOUS
 10
113.7938525092
 20
184.7478357893
 11
114.3871285348
 21
186.7583386084
  0
LINE
  5
2AA
100
AcDbEntity
  8
0
100
AcDbLine
 62
7
  6
CONTINUOUS
 10
113.8865532912
 20
186.9268521221
 11
113.330476147
 21
185.1021799072
  0
LINE
  5
2AB
100
AcDbEntity
  8
0
100
AcDbLine
 62
7
  6
CONTINUOUS
 10
115.588771579
 20
187.2322398573
 11
115.677667347
 21
187.4856761316
  0
LINE
  5
2AC
100
AcDbEntity
  8
0
100
AcDbLine
 62
7
  6
CONTINUOUS
 10
92.4535650303
 20
137.9392234987
 11
93.2868984034
 21
138.1094362443
  0
LINE
  5
2AD
100
AcDbEntity
  8
0
100
AcDbLine
 62
7
  6
CONTINUOUS
 10
93.4535649111
 20
138.9604999727
 11
92.2868982842
 21
138.790287227
  0
LINE
  5
2AE
100
AcDbEntity
  8
0
100
AcDbLine
 62
7
  6
CONTINUOUS
 10
101.9535646727
 20
136.4073083108
 11
100.1202316572
 21
136.4073083108
  0
LINE
  5
2AF
100
AcDbEntity
  8
0
100
AcDbLine
 62
7
  6
CONTINUOUS
 10
99.2868986418
 20
136.4073083108
 11
97.9535651495
 21
136.4073083108
  0
LINE
  5
2B0
100
AcDbEntity
  8
0
100
AcDbLine
 62
7
  6
CONTINUOUS
 10
90.7868983289
 20
137.0881597703
 11
91.6202316572
 21
137.0881597703
  0
LINE
  5
2B1
100
AcDbEntity
  8
0
100
AcDbLine
 62
7
  6
CONTINUOUS
 10
100.1202316572
 20
137.769010753
 11
99.2868986418
 21
137.769010753
  0
LINE
  5
2B2
100
AcDbEntity
  8
0
100
AcDbLine
 62
7
  6
CONTINUOUS
 10
93.2868984034
 20
138.1094362443
 11
93.9535649111
 21
138.1094362443
  0
LINE
  5
2B3
100
AcDbEntity
  8
0
100
AcDbLine
 62
7
  6
CONTINUOUS
 10
94.1202316572
 20
138.9604999727
 11
93.4535649111
 21
138.9604999727
  0
LINE
  5
2B4
100
AcDbEntity
  8
0
100
AcDbLine
 62
7
  6
CONTINUOUS
 10
95.1202316572
 20
138.790287227
 11
94.1202316572
 21
138.9604999727
  0
LINE
  5
2B5
100
AcDbEntity
  8
0
100
AcDbLine
 62
7
  6
CONTINUOUS
 10
93.9535649111
 20
138.1094362443
 11
94.786898165
 21
137.9392234987
  0
LINE
  5
2B6
100
AcDbEntity
  8
0
100
AcDbLine
 62
7
  6
CONTINUOUS
 10
95.786898165
 20
138.4498617357
 11
95.1202316572
 21
138.790287227
  0
LINE
  5
2B7
100
AcDbEntity
  8
0
100
AcDbLine
 62
7
  6
CONTINUOUS
 10
94.786898165
 20
137.9392234987
 11
95.286898165
 21
137.5987980073
  0
LINE
  5
2B8
100
AcDbEntity
  8
0
100
AcDbLine
 62
7
  6
CONTINUOUS
 10
96.4535651495
 20
137.769010753
 11
95.786898165
 21
138.4498617357
  0
LINE
  5
2B9
100
AcDbEntity
  8
0
100
AcDbLine
 62
7
  6
CONTINUOUS
 10
73.1839334689
 20
179.1440034401
 11
72.9714706649
 21
179.4578932893
  0
LINE
  5
2BA
100
AcDbEntity
  8
0
100
AcDbLine
 62
7
  6
CONTINUOUS
 10
99.2868986418
 20
132.3222020572
 11
99.6202316572
 21
131.6413510149
  0
LINE
  5
2BB
100
AcDbEntity
  8
0
100
AcDbLine
 62
7
  6
CONTINUOUS
 10
75.6204107149
 20
182.4241575066
 11
75.4549532943
 21
182.7651725817
  0
LINE
  5
2BC
100
AcDbEntity
  8
0
100
AcDbLine
 62
7
  6
CONTINUOUS
 10
100.2868986418
 20
132.1519893115
 11
100.1202316572
 21
132.6626276677
  0
LINE
  5
2BD
100
AcDbEntity
  8
0
100
AcDbLine
 62
7
  6
CONTINUOUS
 10
96.6202316572
 20
137.0881597703
 11
96.4535651495
 21
137.769010753
  0
LINE
  5
2BE
100
AcDbEntity
  8
0
100
AcDbLine
 62
7
  6
CONTINUOUS
 10
86.5853746059
 20
190.4395570727
 11
86.4902645906
 21
190.8626124401
  0
LINE
  5
2BF
100
AcDbEntity
  8
0
100
AcDbLine
 62
7
  6
CONTINUOUS
 10
101.3278955308
 20
191.614237723
 11
101.3018248152
 21
191.8815439354
  0
LINE
  5
2C0
100
AcDbEntity
  8
0
100
AcDbLine
 62
7
  6
CONTINUOUS
 10
101.4078976505
 20
193.5143348359
 11
101.4155398938
 21
193.1639414036
  0
LINE
  5
2C1
100
AcDbEntity
  8
0
100
AcDbLine
 62
7
  6
CONTINUOUS
 10
106.286898165
 20
126.7604999727
 11
106.286898165
 21
68.5104999727
  0
LINE
  5
2C2
100
AcDbEntity
  8
0
100
AcDbLine
 62
7
  6
CONTINUOUS
 10
82.9250831836
 20
190.6885713049
 11
83.439239291
 21
189.5200936164
  0
LINE
  5
2C3
100
AcDbEntity
  8
0
100
AcDbLine
 62
7
  6
CONTINUOUS
 10
83.8968930641
 20
189.7214714304
 11
83.3827369567
 21
190.8899491188
  0
LINE
  5
2C4
100
AcDbEntity
  8
0
100
AcDbLine
 62
7
  6
CONTINUOUS
 10
101.9405343046
 20
193.2218483778
 11
101.9144635889
 21
193.4891545902
  0
LINE
  5
2C5
100
AcDbEntity
  8
0
100
AcDbLine
 62
7
  6
CONTINUOUS
 10
104.0036550545
 20
193.2873020676
 11
103.977584397
 21
193.5546082671
  0
LINE
  5
2C6
100
AcDbEntity
  8
0
100
AcDbLine
 62
7
  6
CONTINUOUS
 10
110.036898165
 20
126.9604999727
 11
110.036898165
 21
126.7604999727
  0
LINE
  5
2C7
100
AcDbEntity
  8
0
100
AcDbLine
 62
7
  6
CONTINUOUS
 10
69.2114034981
 20
176.3610517986
 11
69.4175482758
 21
176.1888989186
  0
LINE
  5
2C8
100
AcDbEntity
  8
0
100
AcDbLine
 62
7
  6
CONTINUOUS
 10
69.6821721288
 20
176.6215850763
 11
69.4760273511
 21
176.7937379563
  0
LINE
  5
2C9
100
AcDbEntity
  8
0
100
AcDbLine
 62
7
  6
CONTINUOUS
 10
72.3950801082
 20
179.3080191012
 11
72.6489843417
 21
179.0664272422
  0
LINE
  5
2CA
100
AcDbEntity
  8
0
100
AcDbLine
 62
7
  6
CONTINUOUS
 10
75.4549532943
 20
182.7651725817
 11
75.1711182485
 21
183.0929826268
  0
LINE
  5
2CB
100
AcDbEntity
  8
0
100
AcDbLine
 62
7
  6
CONTINUOUS
 10
74.8630666963
 20
182.6991498688
 11
75.0798663871
 21
182.4237741243
  0
LINE
  5
2CC
100
AcDbEntity
  8
0
100
AcDbLine
 62
7
  6
CONTINUOUS
 10
78.4388419599
 20
189.5560606866
 11
80.5773224405
 21
186.1756907018
  0
LINE
  5
2CD
100
AcDbEntity
  8
0
100
AcDbLine
 62
7
  6
CONTINUOUS
 10
80.9998686886
 20
186.4430007618
 11
79.1343856836
 21
189.3918342043
  0
LINE
  5
2CE
100
AcDbEntity
  8
0
100
AcDbLine
 62
7
  6
CONTINUOUS
 10
85.5184547101
 20
191.8297123146
 11
86.0326108175
 21
190.6612346261
  0
LINE
  5
2CF
100
AcDbEntity
  8
0
100
AcDbLine
 62
7
  6
CONTINUOUS
 10
86.4902645906
 20
190.8626124401
 11
85.9761084832
 21
192.0310901285
  0
LINE
  5
2D0
100
AcDbEntity
  8
0
100
AcDbLine
 62
7
  6
CONTINUOUS
 10
115.677667347
 20
187.4856761316
 11
115.6858679456
 21
187.9079583421
  0
LINE
  5
2D1
100
AcDbEntity
  8
0
100
AcDbLine
 62
7
  6
CONTINUOUS
 10
71.0393451415
 20
182.0928946931
 11
74.1900072052
 21
179.6284822761
  0
LINE
  5
2D2
100
AcDbEntity
  8
0
100
AcDbLine
 62
7
  6
CONTINUOUS
 10
72.9714706649
 20
179.4578932893
 11
72.6437299436
 21
179.7418085195
  0
LINE
  5
2D3
100
AcDbEntity
  8
0
100
AcDbLine
 62
7
  6
CONTINUOUS
 10
77.2208198749
 20
188.5874487776
 11
79.67528193
 21
185.4290289163
  0
LINE
  5
2D4
100
AcDbEntity
  8
0
100
AcDbLine
 62
7
  6
CONTINUOUS
 10
80.0700844127
 20
185.7358366732
 11
77.6156223575
 21
188.8942565345
  0
LINE
  5
2D5
100
AcDbEntity
  8
0
100
AcDbLine
 62
7
  6
CONTINUOUS
 10
83.439239291
 20
189.5200936164
 11
83.6869004185
 21
189.164164123
  0
LINE
  5
2D6
100
AcDbEntity
  8
0
100
AcDbLine
 62
7
  6
CONTINUOUS
 10
80.8332707327
 20
191.0708177149
 11
82.6532541265
 21
188.1939070799
  0
LINE
  5
2D7
100
AcDbEntity
  8
0
100
AcDbLine
 62
7
  6
CONTINUOUS
 10
83.3942974614
 20
187.9577577902
 11
81.2558169808
 21
191.338127775
  0
LINE
  5
2D8
100
AcDbEntity
  8
0
100
AcDbLine
 62
7
  6
CONTINUOUS
 10
103.879153666
 20
191.5714237209
 11
103.7901553739
 21
191.9398618095
  0
LINE
  5
2D9
100
AcDbEntity
  8
0
100
AcDbLine
 62
7
  6
CONTINUOUS
 10
103.4710184586
 20
193.5797885127
 11
103.5155176176
 21
193.3955695266
  0
LINE
  5
2DA
100
AcDbEntity
  8
BEZUGSACHSEN
100
AcDbLine
 62
7
  6
CONTINUOUS
 10
130.7357092877
 20
156.7146057502
 11
130.0737593531
 21
155.0341479417
  0
LINE
  5
2DB
100
AcDbEntity
  8
RUNDUNGEN
100
AcDbLine
 62
7
  6
CONTINUOUS
 10
133.3329742691
 20
163.3081470296
 11
122.1593469575
 21
134.9422415681
  0
LINE
  5
2DC
100
AcDbEntity
  8
BEZUGSACHSEN
100
AcDbLine
 62
7
  6
CONTINUOUS
 10
122.1593469575
 20
134.9422415681
 11
121.9681207222
 21
134.4567854884
  0
LINE
  5
2DD
100
AcDbEntity
  8
0
100
AcDbLine
 62
7
  6
CONTINUOUS
 10
67.1461178361
 20
174.4045618386
 11
70.8603361779
 21
172.919778316
  0
LINE
  5
2DE
100
AcDbEntity
  8
0
100
AcDbLine
 62
7
  6
CONTINUOUS
 10
71.0459341183
 20
173.3840556088
 11
69.3863897292
 21
174.0474695325
  0
LINE
  5
2DF
100
AcDbEntity
  8
0
100
AcDbLine
 62
7
  6
CONTINUOUS
 10
68.9122342527
 20
174.2370163426
 11
67.7268453401
 21
174.7108834563
  0
LINE
  5
2E0
100
AcDbEntity
  8
0
100
AcDbLine
 62
7
  6
CONTINUOUS
 10
68.8628993772
 20
178.4510964876
 11
71.151830813
 21
177.1390718031
  0
LINE
  5
2E1
100
AcDbEntity
  8
0
100
AcDbLine
 62
7
  6
CONTINUOUS
 10
71.4004807669
 20
177.5728614282
 11
69.1115493311
 21
178.8848861127
  0
LINE
  5
2E2
100
AcDbEntity
  8
0
100
AcDbLine
 62
7
  6
CONTINUOUS
 10
70.1061486724
 20
180.6200437857
 11
72.3950801082
 21
179.3080191012
  0
LINE
  5
2E3
100
AcDbEntity
  8
0
100
AcDbLine
 62
7
  6
CONTINUOUS
 10
74.0958465799
 20
180.3369208738
 11
71.749608824
 21
182.1721216481
  0
LINE
  5
2E4
100
AcDbEntity
  8
0
100
AcDbLine
 62
7
  6
CONTINUOUS
 10
73.8575362765
 20
183.4856644497
 11
74.8630666963
 21
182.6991498688
  0
LINE
  5
2E5
100
AcDbEntity
  8
0
100
AcDbLine
 62
7
  6
CONTINUOUS
 10
75.1711182485
 20
183.0929826268
 11
74.1655878286
 21
183.8794972076
  0
LINE
  5
2E6
100
AcDbEntity
  8
0
100
AcDbLine
 62
7
  6
CONTINUOUS
 10
84.110277121
 20
189.4434404422
 11
83.8968930641
 21
189.7214714304
  0
LINE
  5
2E7
100
AcDbEntity
  8
0
100
AcDbLine
 62
7
  6
CONTINUOUS
 10
85.3050706532
 20
192.1077433027
 11
85.5184547101
 21
191.8297123146
  0
LINE
  5
2E8
100
AcDbEntity
  8
0
100
AcDbLine
 62
7
  6
CONTINUOUS
 10
85.9761084832
 20
192.0310901285
 11
85.7284476961
 21
192.3870200322
  0
LINE
  5
2E9
100
AcDbEntity
  8
0
100
AcDbLine
 62
7
  6
CONTINUOUS
 10
103.2651609341
 20
191.8819548418
 11
103.3725877276
 21
191.5966039666
  0
LINE
  5
2EA
100
AcDbEntity
  8
0
100
AcDbLine
 62
7
  6
CONTINUOUS
 10
100.8213296143
 20
191.6394179638
 11
100.9732558133
 21
191.1698480784
  0
LINE
  5
2EB
100
AcDbEntity
  8
0
100
AcDbLine
 62
7
  6
CONTINUOUS
 10
115.2514898663
 20
188.0258508537
 11
115.2804873916
 21
187.7893998267
  0
LINE
  5
2EC
100
AcDbEntity
  8
0
100
AcDbLine
 62
7
  6
CONTINUOUS
 10
71.151830813
 20
177.1390718031
 11
71.5624549709
 21
176.9997533215
  0
LINE
  5
2ED
100
AcDbEntity
  8
0
100
AcDbLine
 62
7
  6
CONTINUOUS
 10
68.9743255385
 20
176.4558252921
 11
69.2114034981
 21
176.3610517986
  0
LINE
  5
2EE
100
AcDbEntity
  8
0
100
AcDbLine
 62
7
  6
CONTINUOUS
 10
69.4760273511
 20
176.7937379563
 11
69.1599234788
 21
176.9201025849
  0
LINE
  5
2EF
100
AcDbEntity
  8
0
100
AcDbLine
 62
7
  6
CONTINUOUS
 10
72.6437299436
 20
179.7418085195
 11
70.3547985077
 21
181.053833204
  0
LINE
  5
2F0
100
AcDbEntity
  8
0
100
AcDbLine
 62
7
  6
CONTINUOUS
 10
103.977584397
 20
193.5546082671
 11
103.8072296844
 21
193.9410908502
  0
LINE
  5
2F1
100
AcDbEntity
  8
0
100
AcDbLine
 62
7
  6
CONTINUOUS
 10
71.7372681997
 20
177.4758659041
 11
71.4004807669
 21
177.5728614282
  0
LINE
  5
2F2
100
AcDbEntity
  8
0
100
AcDbLine
 62
7
  6
CONTINUOUS
 10
73.5380531267
 20
183.629763109
 11
73.8575362765
 21
183.4856644497
  0
LINE
  5
2F3
100
AcDbEntity
  8
0
100
AcDbLine
 62
7
  6
CONTINUOUS
 10
74.1655878286
 20
183.8794972076
 11
73.779069136
 21
184.0760303144
  0
LINE
  5
2F4
100
AcDbEntity
  8
0
100
AcDbLine
 62
7
  6
CONTINUOUS
 10
83.6869004185
 20
189.164164123
 11
83.9765598372
 21
188.9196959213
  0
LINE
  5
2F5
100
AcDbEntity
  8
0
100
AcDbLine
 62
7
  6
CONTINUOUS
 10
85.7284476961
 20
192.3870200322
 11
85.4387878649
 21
192.6314879873
  0
LINE
  5
2F6
100
AcDbEntity
  8
0
100
AcDbLine
 62
7
  6
CONTINUOUS
 10
101.5166787319
 20
191.3108422951
 11
101.3278955308
 21
191.614237723
  0
LINE
  5
2F7
100
AcDbEntity
  8
0
100
AcDbLine
 62
7
  6
CONTINUOUS
 10
101.4155398938
 20
193.1639414036
 11
101.6672508555
 21
192.7594142418
  0
LINE
  5
2F8
100
AcDbEntity
  8
0
100
AcDbLine
 62
7
  6
CONTINUOUS
 10
103.7901553739
 20
191.9398618095
 11
103.5384442667
 21
192.3443890036
  0
LINE
  5
2F9
100
AcDbEntity
  8
0
100
AcDbLine
 62
7
  6
CONTINUOUS
 10
103.345162905
 20
193.7820521098
 11
103.4710184586
 21
193.5797885127
  0
LINE
  5
2FA
100
AcDbEntity
  8
0
100
AcDbLine
 62
7
  6
CONTINUOUS
 10
115.6858679456
 20
187.9079583421
 11
115.5761744935
 21
188.3132558847
  0
LINE
  5
2FB
100
AcDbEntity
  8
0
100
AcDbLine
 62
7
  6
CONTINUOUS
 10
72.0357898295
 20
175.8602012438
 11
69.9397967044
 21
175.8903814985
  0
LINE
  5
2FC
100
AcDbEntity
  8
0
100
AcDbLine
 62
7
  6
CONTINUOUS
 10
69.9122505454
 20
175.362921825
 11
71.8192588401
 21
175.3185442547
  0
LINE
  5
2FD
100
AcDbEntity
  8
0
100
AcDbLine
 62
7
  6
CONTINUOUS
 10
68.7063148397
 20
176.4732192222
 11
68.9743255385
 21
176.4558252921
  0
LINE
  5
2FE
100
AcDbEntity
  8
0
100
AcDbLine
 62
7
  6
CONTINUOUS
 10
69.1599234788
 20
176.9201025849
 11
68.89191278
 21
176.9374965149
  0
LINE
  5
2FF
100
AcDbEntity
  8
0
100
AcDbLine
 62
7
  6
CONTINUOUS
 10
71.5624549709
 20
176.9997533215
 11
71.9406842922
 21
176.9750563488
  0
LINE
  5
300
100
AcDbEntity
  8
0
100
AcDbLine
 62
7
  6
CONTINUOUS
 10
82.6532541265
 20
188.1939070799
 11
79.072661332
 21
189.9570257767
  0
LINE
  5
301
100
AcDbEntity
  8
0
100
AcDbLine
 62
7
  6
CONTINUOUS
 10
79.1343856836
 20
189.3918342043
 11
82.7604780893
 21
187.5567927001
  0
LINE
  5
302
100
AcDbEntity
  8
0
100
AcDbLine
 62
7
  6
CONTINUOUS
 10
84.3656594451
 20
189.2768708003
 11
84.110277121
 21
189.4434404422
  0
LINE
  5
303
100
AcDbEntity
  8
0
100
AcDbLine
 62
7
  6
CONTINUOUS
 10
85.0496882331
 20
192.2743131628
 11
85.3050706532
 21
192.1077433027
  0
LINE
  5
304
100
AcDbEntity
  8
0
100
AcDbLine
 62
7
  6
CONTINUOUS
 10
86.6249130111
 20
193.7006490854
 11
88.5047892197
 21
192.1825561662
  0
LINE
  5
305
100
AcDbEntity
  8
0
100
AcDbLine
 62
7
  6
CONTINUOUS
 10
88.857510579
 20
191.8373533126
 11
90.4069559005
 21
190.5823278127
  0
LINE
  5
306
100
AcDbEntity
  8
0
100
AcDbLine
 62
7
  6
CONTINUOUS
 10
88.656904613
 20
192.5765744681
 11
87.1074602119
 21
193.8316002177
  0
LINE
  5
307
100
AcDbEntity
  8
0
100
AcDbLine
 62
7
  6
CONTINUOUS
 10
90.8895031012
 20
190.7132789451
 11
88.9873364205
 21
192.3135072985
  0
LINE
  5
308
100
AcDbEntity
  8
0
100
AcDbLine
 62
7
  6
CONTINUOUS
 10
120.7175411631
 20
175.4633706866
 11
120.8661224758
 21
175.221861146
  0
LINE
  5
309
100
AcDbEntity
  8
0
100
AcDbLine
 62
7
  6
CONTINUOUS
 10
118.9975411631
 20
178.4424980757
 11
119.1461224758
 21
178.200988535
  0
LINE
  5
30A
100
AcDbEntity
  8
0
100
AcDbLine
 62
7
  6
CONTINUOUS
 10
71.9406842922
 20
176.9750563488
 11
72.4017966686
 21
177.094955519
  0
LINE
  5
30B
100
AcDbEntity
  8
0
100
AcDbLine
 62
7
  6
CONTINUOUS
 10
68.89191278
 20
176.9374965149
 11
68.4830101588
 21
176.8317224086
  0
LINE
  5
30C
100
AcDbEntity
  8
0
100
AcDbLine
 62
7
  6
CONTINUOUS
 10
72.0416611
 20
177.4934925391
 11
71.7372681997
 21
177.4758659041
  0
LINE
  5
30D
100
AcDbEntity
  8
0
100
AcDbLine
 62
7
  6
CONTINUOUS
 10
73.2342628272
 20
183.655788321
 11
73.5380531267
 21
183.629763109
  0
LINE
  5
30E
100
AcDbEntity
  8
0
100
AcDbLine
 62
7
  6
CONTINUOUS
 10
73.779069136
 20
184.0760303144
 11
73.4082436691
 21
184.15448968
  0
LINE
  5
30F
100
AcDbEntity
  8
0
100
AcDbLine
 62
7
  6
CONTINUOUS
 10
83.9765598372
 20
188.9196959213
 11
84.4187707926
 21
188.7423538128
  0
LINE
  5
310
100
AcDbEntity
  8
0
100
AcDbLine
 62
7
  6
CONTINUOUS
 10
100.9732558133
 20
191.1698480784
 11
101.3247514917
 21
190.830363536
  0
LINE
  5
311
100
AcDbEntity
  8
0
100
AcDbLine
 62
7
  6
CONTINUOUS
 10
102.1477460783
 20
193.0015402085
 11
101.9405343046
 21
193.2218483778
  0
LINE
  5
312
100
AcDbEntity
  8
0
100
AcDbLine
 62
7
  6
CONTINUOUS
 10
103.0579492186
 20
192.1022629981
 11
103.2651609341
 21
191.8819548418
  0
LINE
  5
313
100
AcDbEntity
  8
0
100
AcDbLine
 62
7
  6
CONTINUOUS
 10
103.8072296844
 20
193.9410908502
 11
103.5370903085
 21
194.2625307792
  0
LINE
  5
314
100
AcDbEntity
  8
0
100
AcDbLine
 62
7
  6
CONTINUOUS
 10
115.1045975327
 20
188.2453177921
 11
115.2514898663
 21
188.0258508537
  0
LINE
  5
315
100
AcDbEntity
  8
0
100
AcDbLine
 62
7
  6
CONTINUOUS
 10
121.5515143753
 20
177.45064712
 11
122.145259037
 21
176.4222511993
  0
LINE
  5
316
100
AcDbEntity
  8
0
100
AcDbLine
 62
7
  6
CONTINUOUS
 10
122.6685372929
 20
176.7243660412
 11
122.0747926312
 21
177.7527619619
  0
LINE
  5
317
100
AcDbEntity
  8
0
100
AcDbLine
 62
7
  6
CONTINUOUS
 10
122.0047315354
 20
180.1088942467
 11
122.1043955982
 21
179.9089483186
  0
LINE
  5
318
100
AcDbEntity
  8
0
100
AcDbLine
 62
7
  6
CONTINUOUS
 10
102.7891638024
 20
190.5055611588
 11
103.1514456906
 21
190.5995573185
  0
LINE
  5
319
100
AcDbEntity
  8
0
100
AcDbLine
 62
7
  6
CONTINUOUS
 10
114.81520845
 20
187.1809538207
 11
114.5794203484
 21
187.1469844848
  0
LINE
  5
31A
100
AcDbEntity
  8
0
100
AcDbLine
 62
7
  6
CONTINUOUS
 10
73.4082436691
 20
184.15448968
 11
72.9347347433
 21
184.1016719603
  0
LINE
  5
31B
100
AcDbEntity
  8
0
100
AcDbLine
 62
7
  6
CONTINUOUS
 10
84.6630404969
 20
189.2217626422
 11
84.3656594451
 21
189.2768708003
  0
LINE
  5
31C
100
AcDbEntity
  8
0
100
AcDbLine
 62
7
  6
CONTINUOUS
 10
85.4387878649
 20
192.6314879873
 11
84.9965769215
 21
192.8088300685
  0
LINE
  5
31D
100
AcDbEntity
  8
0
100
AcDbLine
 62
7
  6
CONTINUOUS
 10
101.823675169
 20
191.1555767799
 11
101.5166787319
 21
191.3108422951
  0
LINE
  5
31E
100
AcDbEntity
  8
0
100
AcDbLine
 62
7
  6
CONTINUOUS
 10
107.8046398022
 20
188.6613657758
 11
108.2418812763
 21
188.4188386299
  0
LINE
  5
31F
100
AcDbEntity
  8
0
100
AcDbLine
 62
7
  6
CONTINUOUS
 10
110.2823439908
 20
187.2870438949
 11
110.7195858819
 21
187.0445165177
  0
LINE
  5
320
100
AcDbEntity
  8
0
100
AcDbLine
 62
7
  6
CONTINUOUS
 10
102.3733862952
 20
192.8643192656
 11
102.1477460783
 21
193.0015402085
  0
LINE
  5
321
100
AcDbEntity
  8
0
100
AcDbLine
 62
7
  6
CONTINUOUS
 10
111.2783792057
 20
186.6714193852
 11
111.6755591611
 21
186.3676956901
  0
LINE
  5
322
100
AcDbEntity
  8
0
100
AcDbLine
 62
7
  6
CONTINUOUS
 10
113.330476147
 20
185.1021799072
 11
113.7938525092
 21
184.7478357893
  0
LINE
  5
323
100
AcDbEntity
  8
0
100
AcDbLine
 62
7
  6
CONTINUOUS
 10
112.7612098317
 20
187.7874027849
 11
113.8865532912
 21
186.9268521221
  0
LINE
  5
324
100
AcDbEntity
  8
0
100
AcDbLine
 62
7
  6
CONTINUOUS
 10
114.3291327267
 20
187.2312412417
 11
113.0713956961
 21
188.1930333293
  0
LINE
  5
325
100
AcDbEntity
  8
0
100
AcDbLine
 62
7
  6
CONTINUOUS
 10
101.6672508555
 20
192.7594142418
 11
101.9558187911
 21
192.5210615133
  0
LINE
  5
326
100
AcDbEntity
  8
0
100
AcDbLine
 62
7
  6
CONTINUOUS
 10
103.5384442667
 20
192.3443890036
 11
103.2498763893
 21
192.5827417192
  0
LINE
  5
327
100
AcDbEntity
  8
0
100
AcDbLine
 62
7
  6
CONTINUOUS
 10
115.5761744935
 20
188.3132558847
 11
115.2968885888
 21
188.6339642478
  0
LINE
  5
328
100
AcDbEntity
  8
0
100
AcDbLine
 62
7
  6
CONTINUOUS
 10
106.286898165
 20
68.5104999727
 11
104.536898165
 21
66.7604999727
  0
LINE
  5
329
100
AcDbEntity
  8
0
100
AcDbLine
 62
7
  6
CONTINUOUS
 10
87.6725220697
 20
189.8402714795
 11
88.1550692705
 21
189.9712226118
  0
LINE
  5
32A
100
AcDbEntity
  8
0
100
AcDbLine
 62
7
  6
CONTINUOUS
 10
90.4069559005
 20
190.5823278127
 11
90.8895031012
 21
190.7132789451
  0
LINE
  5
32B
100
AcDbEntity
  8
0
100
AcDbLine
 62
7
  6
CONTINUOUS
 10
102.3981028781
 20
194.5151548676
 11
102.0358209366
 21
194.4211587425
  0
LINE
  5
32C
100
AcDbEntity
  8
0
100
AcDbLine
 62
7
  6
CONTINUOUS
 10
84.7924276038
 20
188.7208087218
 11
85.2080826762
 21
188.8107249906
  0
LINE
  5
32D
100
AcDbEntity
  8
0
100
AcDbLine
 62
7
  6
CONTINUOUS
 10
85.0024202284
 20
189.2781160769
 11
84.6630404969
 21
189.2217626422
  0
LINE
  5
32E
100
AcDbEntity
  8
0
100
AcDbLine
 62
7
  6
CONTINUOUS
 10
102.3688881476
 20
193.9985870021
 11
102.6313853675
 21
194.027540486
  0
LINE
  5
32F
100
AcDbEntity
  8
0
100
AcDbLine
 62
7
  6
CONTINUOUS
 10
102.8183786607
 20
191.0221290494
 11
102.4745251625
 21
191.0112201506
  0
LINE
  5
330
100
AcDbEntity
  8
0
100
AcDbLine
 62
7
  6
CONTINUOUS
 10
102.3639541407
 20
190.512696812
 11
102.7891638024
 21
190.5055611588
  0
LINE
  5
331
100
AcDbEntity
  8
0
100
AcDbLine
 62
7
  6
CONTINUOUS
 10
84.4187707926
 20
188.7423538128
 11
84.7924276038
 21
188.7208087218
  0
LINE
  5
332
100
AcDbEntity
  8
0
100
AcDbLine
 62
7
  6
CONTINUOUS
 10
84.9965769215
 20
192.8088300685
 11
84.6229205558
 21
192.8303753312
  0
LINE
  5
333
100
AcDbEntity
  8
0
100
AcDbLine
 62
7
  6
CONTINUOUS
 10
114.3871285348
 20
186.7583386084
 11
114.7553102073
 21
186.6910665195
  0
LINE
  5
334
100
AcDbEntity
  8
0
100
AcDbLine
 62
7
  6
CONTINUOUS
 10
84.7523072053
 20
192.3294212664
 11
85.0496882331
 21
192.2743131628
  0
LINE
  5
335
100
AcDbEntity
  8
0
100
AcDbLine
 62
7
  6
CONTINUOUS
 10
101.7131041473
 20
190.6570534413
 11
102.3639541407
 21
190.512696812
  0
LINE
  5
336
100
AcDbEntity
  8
0
100
AcDbLine
 62
7
  6
CONTINUOUS
 10
102.4745251625
 20
191.0112201506
 11
101.823675169
 21
191.1555767799
  0
LINE
  5
337
100
AcDbEntity
  8
0
100
AcDbLine
 62
7
  6
CONTINUOUS
 10
101.3018248152
 20
191.8815439354
 11
100.8136873783
 21
191.9898113944
  0
LINE
  5
338
100
AcDbEntity
  8
0
100
AcDbLine
 62
7
  6
CONTINUOUS
 10
102.2628152864
 20
192.3657959852
 11
102.7509527233
 21
192.2575285262
  0
LINE
  5
339
100
AcDbEntity
  8
0
100
AcDbLine
 62
7
  6
CONTINUOUS
 10
102.8615237321
 20
192.7560518066
 11
102.3733862952
 21
192.8643192656
  0
LINE
  5
33A
100
AcDbEntity
  8
0
100
AcDbLine
 62
7
  6
CONTINUOUS
 10
114.5794203484
 20
187.1469844848
 11
114.3291327267
 21
187.2312412417
  0
LINE
  5
33B
100
AcDbEntity
  8
0
100
AcDbLine
 62
7
  6
CONTINUOUS
 10
105.4764690104
 20
189.5837320011
 11
105.9444159563
 21
189.40759099
  0
LINE
  5
33C
100
AcDbEntity
  8
0
100
AcDbLine
 62
7
  6
CONTINUOUS
 10
105.4878312026
 20
193.3987643151
 11
106.7356898738
 21
192.9290548961
  0
LINE
  5
33D
100
AcDbEntity
  8
0
100
AcDbLine
 62
7
  6
CONTINUOUS
 10
107.2036368197
 20
192.7529138849
 11
108.4514950447
 21
192.2832046339
  0
LINE
  5
33E
100
AcDbEntity
  8
0
100
AcDbLine
 62
7
  6
CONTINUOUS
 10
101.3247514917
 20
190.830363536
 11
101.7131041473
 21
190.6570534413
  0
LINE
  5
33F
100
AcDbEntity
  8
0
100
AcDbLine
 62
7
  6
CONTINUOUS
 10
103.2498763893
 20
192.5827417192
 11
102.8615237321
 21
192.7560518066
  0
LINE
  5
340
100
AcDbEntity
  8
0
100
AcDbLine
 62
7
  6
CONTINUOUS
 10
103.5370903085
 20
194.2625307792
 11
103.148737535
 21
194.4358408924
  0
LINE
  5
341
100
AcDbEntity
  8
0
100
AcDbLine
 62
7
  6
CONTINUOUS
 10
101.9558187911
 20
192.5210615133
 11
102.2628152864
 21
192.3657959852
  0
LINE
  5
342
100
AcDbEntity
  8
0
100
AcDbLine
 62
7
  6
CONTINUOUS
 10
102.7509527233
 20
192.2575285262
 11
103.0579492186
 21
192.1022629981
  0
LINE
  5
343
100
AcDbEntity
  8
0
100
AcDbLine
 62
7
  6
CONTINUOUS
 10
109.0287514933
 20
189.1502432214
 11
110.4862239077
 21
188.3418189393
  0
LINE
  5
344
100
AcDbEntity
  8
0
100
AcDbLine
 62
7
  6
CONTINUOUS
 10
110.5784755402
 20
188.6799365858
 11
109.2667498669
 21
189.4075187172
  0
LINE
  5
345
100
AcDbEntity
  8
0
100
AcDbLine
 62
7
  6
CONTINUOUS
 10
111.4938259667
 20
191.1891916273
 11
110.9108373346
 21
191.5125611551
  0
LINE
  5
346
100
AcDbEntity
  8
0
100
AcDbLine
 62
7
  6
CONTINUOUS
 10
103.1195228044
 20
193.9192730269
 11
103.345162905
 21
193.7820521098
  0
LINE
  5
347
100
AcDbEntity
  8
0
100
AcDbLine
 62
7
  6
CONTINUOUS
 10
113.8468605022
 20
189.2071098797
 11
115.1045975327
 21
188.2453177921
  0
LINE
  5
348
100
AcDbEntity
  8
0
100
AcDbLine
 62
7
  6
CONTINUOUS
 10
115.2968885888
 20
188.6339642478
 11
113.7081687672
 21
189.8488590286
  0
LINE
  5
349
100
AcDbEntity
  8
0
100
AcDbLine
 62
7
  6
CONTINUOUS
 10
89.8418940426
 20
194.573656551
 11
89.3593468419
 21
194.4427054187
  0
LINE
  5
34A
100
AcDbEntity
  8
0
100
AcDbLine
 62
7
  6
CONTINUOUS
 10
87.1074602119
 20
193.8316002177
 11
86.6249130111
 21
193.7006490854
  0
LINE
  5
34B
100
AcDbEntity
  8
0
100
AcDbLine
 62
7
  6
CONTINUOUS
 10
84.6229205558
 20
192.8303753312
 11
84.20726505
 21
192.7404588635
  0
LINE
  5
34C
100
AcDbEntity
  8
0
100
AcDbLine
 62
7
  6
CONTINUOUS
 10
84.4129274737
 20
192.2730678317
 11
84.7523072053
 21
192.3294212664
  0
LINE
  5
34D
100
AcDbEntity
  8
0
100
AcDbLine
 62
7
  6
CONTINUOUS
 10
102.7419563763
 20
194.5260637663
 11
102.3981028781
 21
194.5151548676
  0
LINE
  5
34E
100
AcDbEntity
  8
0
100
AcDbLine
 62
7
  6
CONTINUOUS
 10
103.5155176176
 20
193.3955695266
 11
104.0036550545
 21
193.2873020676
  0
LINE
  5
34F
100
AcDbEntity
  8
0
100
AcDbLine
 62
7
  6
CONTINUOUS
 10
102.6313853675
 20
194.027540486
 11
103.1195228044
 21
193.9192730269
  0
LINE
  5
350
100
AcDbEntity
  8
0
100
AcDbLine
 62
7
  6
CONTINUOUS
 10
103.148737535
 20
194.4358408924
 11
102.7419563763
 21
194.5260637663
  0
LINE
  5
351
100
AcDbEntity
  8
0
100
AcDbLine
 62
7
  6
CONTINUOUS
 10
108.6014022703
 20
192.6814573064
 11
105.6377384282
 21
193.7970169875
  0
LINE
  5
352
100
AcDbEntity
  8
0
100
AcDbLine
 62
7
  6
CONTINUOUS
 10
190.15057963
 20
66.7604999727
 11
206.6498382479
 21
66.7604999727
  0
LINE
  5
353
100
AcDbEntity
  8
0
100
AcDbLine
 62
7
  6
CONTINUOUS
 10
188.400208939
 20
68.5104999727
 11
208.400208939
 21
68.5104999727
  0
LINE
  5
354
100
AcDbEntity
  8
0
100
AcDbLine
 62
7
  6
CONTINUOUS
 10
188.400208939
 20
68.5104999727
 11
190.150208939
 21
66.7604999727
  0
LINE
  5
355
100
AcDbEntity
  8
BEZUGSACHSEN
100
AcDbLine
 62
7
  6
CONTINUOUS
 10
176.9365597531
 20
129.5899851708
 11
177.0437507902
 21
129.1658007845
  0
LINE
  5
356
100
AcDbEntity
  8
BEZUGSACHSEN
100
AcDbLine
 62
7
  6
CONTINUOUS
 10
175.1598212883
 20
139.6663697245
 11
176.9365597531
 21
129.5899851708
  0
LINE
  5
357
100
AcDbEntity
  8
BEZUGSACHSEN
100
AcDbLine
 62
7
  6
CONTINUOUS
 10
183.8480952441
 20
147.1220312971
 11
176.6514160459
 21
143.4551400938
  0
LINE
  5
358
100
AcDbEntity
  8
0
100
AcDbLine
 62
7
  6
CONTINUOUS
 10
184.650208939
 20
126.9604999727
 11
184.650208939
 21
126.7604999727
  0
LINE
  5
359
100
AcDbEntity
  8
0
100
AcDbLine
 62
7
  6
CONTINUOUS
 10
188.400208939
 20
126.7604999727
 11
188.400208939
 21
68.5104999727
  0
LINE
  5
35A
100
AcDbEntity
  8
BEZUGSACHSEN
100
AcDbLine
 62
7
  6
CONTINUOUS
 10
190.400208939
 20
157.8141497141
 11
190.400208939
 21
200.5743994811
  0
LINE
  5
35B
100
AcDbEntity
  8
0
100
AcDbLine
 62
7
  6
CONTINUOUS
 10
184.6505837236
 20
126.7604999727
 11
212.1498341543
 21
126.7604999727
  0
LINE
  5
35C
100
AcDbEntity
  8
BEZUGSACHSEN
100
AcDbLine
 62
7
  6
CONTINUOUS
 10
177.4004550449
 20
126.9604999727
 11
219.399962833
 21
126.9604999727
  0
LINE
  5
35D
100
AcDbEntity
  8
0
100
AcDbLine
 62
7
  6
CONTINUOUS
 10
219.3527572975
 20
130.9604999727
 11
220.6131901456
 21
130.9604999727
  0
LINE
  5
35E
100
AcDbEntity
  8
0
100
AcDbLine
 62
7
  6
CONTINUOUS
 10
220.7632799234
 20
131.8115638202
 11
220.3394403023
 21
131.8115638202
  0
LINE
  5
35F
100
AcDbEntity
  8
0
100
AcDbLine
 62
7
  6
CONTINUOUS
 10
219.5081751829
 20
131.8115638202
 11
220.0334366122
 21
131.8115638202
  0
LINE
  5
360
100
AcDbEntity
  8
0
100
AcDbLine
 62
7
  6
CONTINUOUS
 10
220.5340787611
 20
132.3222020572
 11
220.6520148516
 21
132.3222020572
  0
LINE
  5
361
100
AcDbEntity
  8
0
100
AcDbLine
 62
7
  6
CONTINUOUS
 10
220.9837807859
 20
136.0668828195
 11
221.4919806452
 21
136.0668828195
  0
LINE
  5
362
100
AcDbEntity
  8
0
100
AcDbLine
 62
7
  6
CONTINUOUS
 10
221.1161817982
 20
136.7477338022
 11
221.6241089239
 21
136.7477338022
  0
LINE
  5
363
100
AcDbEntity
  8
0
100
AcDbLine
 62
7
  6
CONTINUOUS
 10
220.5122363707
 20
137.0881597703
 11
221.6841598701
 21
137.0881597703
  0
LINE
  5
364
100
AcDbEntity
  8
0
100
AcDbLine
 62
7
  6
CONTINUOUS
 10
221.3787164134
 20
137.5987980073
 11
221.7623488625
 21
137.5987980073
  0
LINE
  5
365
100
AcDbEntity
  8
0
100
AcDbLine
 62
7
  6
CONTINUOUS
 10
220.6764900527
 20
137.769010753
 11
221.1982278115
 21
137.769010753
  0
LINE
  5
366
100
AcDbEntity
  8
0
100
AcDbLine
 62
7
  6
CONTINUOUS
 10
221.5282436838
 20
137.9392234987
 11
221.7957306061
 21
137.9392234987
  0
LINE
  5
367
100
AcDbEntity
  8
0
100
AcDbLine
 62
7
  6
CONTINUOUS
 10
221.6812863196
 20
138.1094362443
 11
221.7575229647
 21
138.1094362443
  0
LINE
  5
368
100
AcDbEntity
  8
0
100
AcDbLine
 62
7
  6
CONTINUOUS
 10
220.9482372192
 20
138.4498617357
 11
221.4664710545
 21
138.4498617357
  0
LINE
  5
369
100
AcDbEntity
  8
0
100
AcDbLine
 62
7
  6
CONTINUOUS
 10
221.1369473236
 20
138.790287227
 11
221.6522861198
 21
138.790287227
  0
LINE
  5
36A
100
AcDbEntity
  8
0
100
AcDbLine
 62
7
  6
CONTINUOUS
 10
221.3418338671
 20
138.9604999727
 11
221.924277143
 21
138.9604999727
  0
LINE
  5
36B
100
AcDbEntity
  8
RUNDUNGEN
100
AcDbLine
 62
7
  6
CONTINUOUS
 10
206.400208939
 20
157.8141497141
 11
206.400208939
 21
200.5743994811
  0
LINE
  5
36C
100
AcDbEntity
  8
0
100
AcDbLine
 62
7
  6
CONTINUOUS
 10
206.900208939
 20
194.573656551
 11
206.900208939
 21
184.7478357893
  0
LINE
  5
36D
100
AcDbEntity
  8
0
100
AcDbLine
 62
7
  6
CONTINUOUS
 10
206.900208939
 20
184.15448968
 11
206.900208939
 21
172.919778316
  0
LINE
  5
36E
100
AcDbEntity
  8
0
100
AcDbLine
 62
7
  6
CONTINUOUS
 10
208.400208939
 20
126.7604999727
 11
208.400208939
 21
68.5104999727
  0
LINE
  5
36F
100
AcDbEntity
  8
0
100
AcDbLine
 62
7
  6
CONTINUOUS
 10
212.150208939
 20
126.9604999727
 11
212.150208939
 21
126.7604999727
  0
LINE
  5
370
100
AcDbEntity
  8
RUNDUNGEN
100
AcDbLine
 62
7
  6
CONTINUOUS
 10
212.9523226339
 20
147.1220312971
 11
220.1490018321
 21
143.4551400938
  0
LINE
  5
371
100
AcDbEntity
  8
0
100
AcDbLine
 62
7
  6
CONTINUOUS
 10
219.8638581248
 20
129.5899851708
 11
220.1055168618
 21
130.9604999727
  0
LINE
  5
372
100
AcDbEntity
  8
0
100
AcDbLine
 62
7
  6
CONTINUOUS
 10
221.5161327075
 20
138.9604999727
 11
221.6405965896
 21
139.6663697245
  0
LINE
  5
373
100
AcDbEntity
  8
0
100
AcDbLine
 62
7
  6
CONTINUOUS
 10
220.6132301677
 20
130.9604999727
 11
220.7632956864
 21
131.8115638202
  0
LINE
  5
374
100
AcDbEntity
  8
0
100
AcDbLine
 62
7
  6
CONTINUOUS
 10
221.4686132861
 20
135.8116187005
 11
221.8437801835
 21
137.9392959054
  0
LINE
  5
375
100
AcDbEntity
  8
0
100
AcDbLine
 62
7
  6
CONTINUOUS
 10
221.6841598701
 20
137.0881597703
 11
221.6241089239
 21
136.7477338022
  0
LINE
  5
376
100
AcDbEntity
  8
RUNDUNGEN
100
AcDbLine
 62
7
  6
CONTINUOUS
 10
219.7566670877
 20
129.1658007845
 11
219.8638581248
 21
129.5899851708
  0
LINE
  5
377
100
AcDbEntity
  8
0
100
AcDbLine
 62
7
  6
CONTINUOUS
 10
206.400208939
 20
172.919778316
 11
206.900208939
 21
172.919778316
  0
LINE
  5
378
100
AcDbEntity
  8
0
100
AcDbLine
 62
7
  6
CONTINUOUS
 10
206.400208939
 20
174.4045618386
 11
206.900208939
 21
174.4045618386
  0
LINE
  5
379
100
AcDbEntity
  8
0
100
AcDbLine
 62
7
  6
CONTINUOUS
 10
206.400208939
 20
176.2616710096
 11
206.900208939
 21
176.2616710096
  0
LINE
  5
37A
100
AcDbEntity
  8
0
100
AcDbLine
 62
7
  6
CONTINUOUS
 10
206.400208939
 20
176.6169776923
 11
206.900208939
 21
176.6169776923
  0
LINE
  5
37B
100
AcDbEntity
  8
0
100
AcDbLine
 62
7
  6
CONTINUOUS
 10
206.400208939
 20
176.8317224086
 11
206.900208939
 21
176.8317224086
  0
LINE
  5
37C
100
AcDbEntity
  8
0
100
AcDbLine
 62
7
  6
CONTINUOUS
 10
206.400208939
 20
176.9374965149
 11
206.900208939
 21
176.9374965149
  0
LINE
  5
37D
100
AcDbEntity
  8
0
100
AcDbLine
 62
7
  6
CONTINUOUS
 10
206.400208939
 20
176.9750563488
 11
206.900208939
 21
176.9750563488
  0
LINE
  5
37E
100
AcDbEntity
  8
0
100
AcDbLine
 62
7
  6
CONTINUOUS
 10
206.400208939
 20
176.9997533215
 11
206.900208939
 21
176.9997533215
  0
LINE
  5
37F
100
AcDbEntity
  8
0
100
AcDbLine
 62
7
  6
CONTINUOUS
 10
206.400208939
 20
177.1390718031
 11
206.900208939
 21
177.1390718031
  0
LINE
  5
380
100
AcDbEntity
  8
0
100
AcDbLine
 62
7
  6
CONTINUOUS
 10
206.400208939
 20
178.4510964876
 11
206.900208939
 21
178.4510964876
  0
LINE
  5
381
100
AcDbEntity
  8
0
100
AcDbLine
 62
7
  6
CONTINUOUS
 10
206.400208939
 20
178.8848861127
 11
206.900208939
 21
178.8848861127
  0
LINE
  5
382
100
AcDbEntity
  8
0
100
AcDbLine
 62
7
  6
CONTINUOUS
 10
206.400208939
 20
179.0664272422
 11
206.900208939
 21
179.0664272422
  0
LINE
  5
383
100
AcDbEntity
  8
0
100
AcDbLine
 62
7
  6
CONTINUOUS
 10
206.400208939
 20
179.3080191012
 11
206.900208939
 21
179.3080191012
  0
LINE
  5
384
100
AcDbEntity
  8
0
100
AcDbLine
 62
7
  6
CONTINUOUS
 10
206.400208939
 20
180.6200437857
 11
206.900208939
 21
180.6200437857
  0
LINE
  5
385
100
AcDbEntity
  8
0
100
AcDbLine
 62
7
  6
CONTINUOUS
 10
206.400208939
 20
181.053833204
 11
206.900208939
 21
181.053833204
  0
LINE
  5
386
100
AcDbEntity
  8
0
100
AcDbLine
 62
7
  6
CONTINUOUS
 10
206.400208939
 20
182.0928946931
 11
206.900208939
 21
182.0928946931
  0
LINE
  5
387
100
AcDbEntity
  8
0
100
AcDbLine
 62
7
  6
CONTINUOUS
 10
206.400208939
 20
183.6682257249
 11
206.900208939
 21
183.6682257249
  0
LINE
  5
388
100
AcDbEntity
  8
0
100
AcDbLine
 62
7
  6
CONTINUOUS
 10
206.400208939
 20
183.9439856397
 11
206.900208939
 21
183.9439856397
  0
LINE
  5
389
100
AcDbEntity
  8
0
100
AcDbLine
 62
7
  6
CONTINUOUS
 10
206.400208939
 20
184.1016719603
 11
206.900208939
 21
184.1016719603
  0
LINE
  5
38A
100
AcDbEntity
  8
0
100
AcDbLine
 62
7
  6
CONTINUOUS
 10
206.400208939
 20
184.15448968
 11
206.900208939
 21
184.15448968
  0
LINE
  5
38B
100
AcDbEntity
  8
0
100
AcDbLine
 62
7
  6
CONTINUOUS
 10
206.400208939
 20
184.7478357893
 11
206.900208939
 21
184.7478357893
  0
LINE
  5
38C
100
AcDbEntity
  8
0
100
AcDbLine
 62
7
  6
CONTINUOUS
 10
206.400208939
 20
185.1021799072
 11
206.900208939
 21
185.1021799072
  0
LINE
  5
38D
100
AcDbEntity
  8
0
100
AcDbLine
 62
7
  6
CONTINUOUS
 10
206.400208939
 20
185.4290289163
 11
206.900208939
 21
185.4290289163
  0
LINE
  5
38E
100
AcDbEntity
  8
0
100
AcDbLine
 62
7
  6
CONTINUOUS
 10
206.400208939
 20
188.5874487776
 11
206.900208939
 21
188.5874487776
  0
LINE
  5
38F
100
AcDbEntity
  8
0
100
AcDbLine
 62
7
  6
CONTINUOUS
 10
208.400208939
 20
68.5104999727
 11
206.650208939
 21
66.7604999727
  0
LINE
  5
390
100
AcDbEntity
  8
0
100
AcDbLine
 62
7
  6
CONTINUOUS
 10
206.400208939
 20
188.8942565345
 11
206.900208939
 21
188.8942565345
  0
LINE
  5
391
100
AcDbEntity
  8
0
100
AcDbLine
 62
7
  6
CONTINUOUS
 10
206.400208939
 20
189.5560606866
 11
206.900208939
 21
189.5560606866
  0
LINE
  5
392
100
AcDbEntity
  8
0
100
AcDbLine
 62
7
  6
CONTINUOUS
 10
206.400208939
 20
189.9570257767
 11
206.900208939
 21
189.9570257767
  0
LINE
  5
393
100
AcDbEntity
  8
0
100
AcDbLine
 62
7
  6
CONTINUOUS
 10
206.400208939
 20
191.0708177149
 11
206.900208939
 21
191.0708177149
  0
LINE
  5
394
100
AcDbEntity
  8
0
100
AcDbLine
 62
7
  6
CONTINUOUS
 10
206.400208939
 20
191.338127775
 11
206.900208939
 21
191.338127775
  0
LINE
  5
395
100
AcDbEntity
  8
0
100
AcDbLine
 62
7
  6
CONTINUOUS
 10
206.400208939
 20
191.4903469776
 11
206.900208939
 21
191.4903469776
  0
LINE
  5
396
100
AcDbEntity
  8
0
100
AcDbLine
 62
7
  6
CONTINUOUS
 10
206.400208939
 20
191.9361929388
 11
206.900208939
 21
191.9361929388
  0
LINE
  5
397
100
AcDbEntity
  8
0
100
AcDbLine
 62
7
  6
CONTINUOUS
 10
206.400208939
 20
192.2262418893
 11
206.900208939
 21
192.2262418893
  0
LINE
  5
398
100
AcDbEntity
  8
0
100
AcDbLine
 62
7
  6
CONTINUOUS
 10
206.400208939
 20
192.4719551755
 11
206.900208939
 21
192.4719551755
  0
LINE
  5
399
100
AcDbEntity
  8
0
100
AcDbLine
 62
7
  6
CONTINUOUS
 10
206.400208939
 20
192.7404588635
 11
206.900208939
 21
192.7404588635
  0
LINE
  5
39A
100
AcDbEntity
  8
0
100
AcDbLine
 62
7
  6
CONTINUOUS
 10
206.400208939
 20
192.8303753312
 11
206.900208939
 21
192.8303753312
  0
LINE
  5
39B
100
AcDbEntity
  8
0
100
AcDbLine
 62
7
  6
CONTINUOUS
 10
206.400208939
 20
193.7006490854
 11
206.900208939
 21
193.7006490854
  0
LINE
  5
39C
100
AcDbEntity
  8
0
100
AcDbLine
 62
7
  6
CONTINUOUS
 10
206.400208939
 20
193.8316002177
 11
206.900208939
 21
193.8316002177
  0
LINE
  5
39D
100
AcDbEntity
  8
0
100
AcDbLine
 62
7
  6
CONTINUOUS
 10
206.400208939
 20
194.4427054187
 11
206.900208939
 21
194.4427054187
  0
LINE
  5
39E
100
AcDbEntity
  8
0
100
AcDbLine
 62
7
  6
CONTINUOUS
 10
206.400208939
 20
194.573656551
 11
206.900208939
 21
194.573656551
  0
LINE
  5
39F
100
AcDbEntity
  8
RUNDUNGEN
100
AcDbLine
 62
7
  6
CONTINUOUS
 10
203.400208939
 20
203.5743994811
 11
193.400208939
 21
203.5743994811
  0
LINE
  5
3A0
100
AcDbEntity
  8
RUNDUNGEN
100
AcDbLine
 62
7
  6
CONTINUOUS
 10
58.9624923327
 20
25.4774981831
 11
58.9624923327
 21
35.4774981831
  0
LINE
  5
3A1
100
AcDbEntity
  8
0
100
AcDbLine
 62
7
  6
CONTINUOUS
 10
67.1461178361
 20
22.4774981831
 11
67.1461178361
 21
21.9774981831
  0
LINE
  5
3A2
100
AcDbEntity
  8
0
100
AcDbLine
 62
7
  6
CONTINUOUS
 10
67.8885095974
 20
22.4774981831
 11
67.8885095974
 21
21.9774981831
  0
LINE
  5
3A3
100
AcDbEntity
  8
0
100
AcDbLine
 62
7
  6
CONTINUOUS
 10
68.1222004899
 20
22.4774981831
 11
68.1222004899
 21
21.9774981831
  0
LINE
  5
3A4
100
AcDbEntity
  8
0
100
AcDbLine
 62
7
  6
CONTINUOUS
 10
68.4830101588
 20
22.4774981831
 11
68.4830101588
 21
21.9774981831
  0
LINE
  5
3A5
100
AcDbEntity
  8
0
100
AcDbLine
 62
7
  6
CONTINUOUS
 10
68.8628993772
 20
22.4774981831
 11
68.8628993772
 21
21.9774981831
  0
LINE
  5
3A6
100
AcDbEntity
  8
0
100
AcDbLine
 62
7
  6
CONTINUOUS
 10
69.1115493311
 20
22.4774981831
 11
69.1115493311
 21
21.9774981831
  0
LINE
  5
3A7
100
AcDbEntity
  8
0
100
AcDbLine
 62
7
  6
CONTINUOUS
 10
70.1061486724
 20
22.4774981831
 11
70.1061486724
 21
21.9774981831
  0
LINE
  5
3A8
100
AcDbEntity
  8
0
100
AcDbLine
 62
7
  6
CONTINUOUS
 10
70.3547985077
 20
22.4774981831
 11
70.3547985077
 21
21.9774981831
  0
LINE
  5
3A9
100
AcDbEntity
  8
0
100
AcDbLine
 62
7
  6
CONTINUOUS
 10
71.0393451415
 20
22.4774981831
 11
71.0393451415
 21
21.9774981831
  0
LINE
  5
3AA
100
AcDbEntity
  8
0
100
AcDbLine
 62
7
  6
CONTINUOUS
 10
72.27155135
 20
22.4774981831
 11
72.27155135
 21
21.9774981831
  0
LINE
  5
3AB
100
AcDbEntity
  8
0
100
AcDbLine
 62
7
  6
CONTINUOUS
 10
72.5952965276
 20
22.4774981831
 11
72.5952965276
 21
21.9774981831
  0
LINE
  5
3AC
100
AcDbEntity
  8
0
100
AcDbLine
 62
7
  6
CONTINUOUS
 10
72.9347347433
 20
22.4774981831
 11
72.9347347433
 21
21.9774981831
  0
LWPOLYLINE
  5
3AD
100
AcDbEntity
  8
BEZUGSACHSEN
100
AcDbPolyline
 62
7
  6
CONTINUOUS
 90
4
 70
0
 10
77.8943622242
 20
45.6398757637
 10
77.8311221917
 20
45.5671067833
 10
77.7496078522
 20
45.4724666418
 10
77.6184969861
 20
45.3182075568
  0
LWPOLYLINE
  5
3AE
100
AcDbEntity
  8
BEZUGSACHSEN
100
AcDbPolyline
 62
7
  6
CONTINUOUS
 90
7
 70
0
 10
77.6185506199
 20
45.3182761025
 10
77.0591846331
 20
44.6846984961
 10
76.3614068108
 20
43.9680762114
 10
75.6216663954
 20
43.2827373508
 10
74.8184582293
 20
42.6110472027
 10
73.9282972099
 20
41.941154869
 10
73.0771813061
 20
41.3630516945
  0
LWPOLYLINE
  5
3AF
100
AcDbEntity
  8
RUNDUNGEN
100
AcDbPolyline
 62
7
  6
CONTINUOUS
 90
27
 70
0
 10
77.8943774967
 20
15.3151102703
 10
78.8851688174
 20
14.2490479707
 10
80.0576611931
 20
13.1429915695
 10
81.3006977896
 20
12.1216651169
 10
82.6086616489
 20
11.1876325663
 10
83.9758179424
 20
10.3435677618
 10
85.3959250977
 20
9.5920554736
 10
86.8628971712
 20
8.9355525239
 10
88.3701711514
 20
8.3761683493
 10
89.9112801957
 20
7.9158523342
 10
91.4795565146
 20
7.5560420219
 10
93.0683432941
 20
7.2980748719
 10
94.6708176007
 20
7.1427166523
 10
96.2801538546
 20
7.0906254611
 10
97.8895204524
 20
7.1418511406
 10
99.4920847451
 20
7.296347344
 10
101.0810222718
 20
7.5534596506
 10
102.6495094984
 20
7.9124260106
 10
104.190889742
 20
8.3719128014
 10
105.6984938415
 20
8.9304859939
 10
107.1658548187
 20
9.5862002663
 10
108.5864088889
 20
10.3369504117
 10
109.9540679368
 20
11.1802830005
 10
111.2625873099
 20
12.1136151049
 10
112.5062295503
 20
13.1342755245
 10
113.679379104
 20
14.2397064216
 10
114.6794191573
 20
15.3151105777
  0
LWPOLYLINE
  5
3B0
100
AcDbEntity
  8
RUNDUNGEN
100
AcDbPolyline
 62
7
  6
CONTINUOUS
 90
3
 70
0
 10
77.7496078522
 20
15.4825297245
 10
77.8311221917
 20
15.387889583
 10
77.8943622242
 20
15.3151206026
  0
LINE
  5
3B1
100
AcDbEntity
  8
RUNDUNGEN
100
AcDbLine
 62
7
  6
CONTINUOUS
 10
77.6184969861
 20
15.6367888095
 11
77.7496078522
 21
15.4825297245
  0
LINE
  5
3B2
100
AcDbEntity
  8
RUNDUNGEN
100
AcDbLine
 62
7
  6
CONTINUOUS
 10
77.6185536801
 20
15.6367215675
 11
77.6184969861
 21
15.6367888095
  0
LINE
  5
3B3
100
AcDbEntity
  8
0
100
AcDbLine
 62
7
  6
CONTINUOUS
 10
73.4082436691
 20
22.4774981831
 11
73.4082436691
 21
21.9774981831
  0
LINE
  5
3B4
100
AcDbEntity
  8
0
100
AcDbLine
 62
7
  6
CONTINUOUS
 10
73.779069136
 20
22.4774981831
 11
73.779069136
 21
21.9774981831
  0
LINE
  5
3B5
100
AcDbEntity
  8
0
100
AcDbLine
 62
7
  6
CONTINUOUS
 10
74.1655878286
 20
22.4774981831
 11
74.1655878286
 21
21.9774981831
  0
LINE
  5
3B6
100
AcDbEntity
  8
0
100
AcDbLine
 62
7
  6
CONTINUOUS
 10
75.1711182485
 20
22.4774981831
 11
75.1711182485
 21
21.9774981831
  0
LINE
  5
3B7
100
AcDbEntity
  8
0
100
AcDbLine
 62
7
  6
CONTINUOUS
 10
75.4549532943
 20
22.4774981831
 11
75.4549532943
 21
21.9774981831
  0
LINE
  5
3B8
100
AcDbEntity
  8
0
100
AcDbLine
 62
7
  6
CONTINUOUS
 10
75.6204107149
 20
22.4774981831
 11
75.6204107149
 21
21.9774981831
  0
LINE
  5
3B9
100
AcDbEntity
  8
0
100
AcDbLine
 62
7
  6
CONTINUOUS
 10
75.6831846531
 20
22.4774981831
 11
75.6831846531
 21
21.9774981831
  0
LINE
  5
3BA
100
AcDbEntity
  8
BEZUGSACHSEN
100
AcDbLine
 62
7
  6
CONTINUOUS
 10
73.0732865106
 20
41.3605210115
 11
73.0772071065
 21
41.3630557324
  0
LWPOLYLINE
  5
3BB
100
AcDbEntity
  8
RUNDUNGEN
100
AcDbPolyline
 62
7
  6
CONTINUOUS
 90
7
 70
0
 10
73.073153372
 20
19.5945491881
 10
73.9276066892
 20
19.0143339555
 10
74.8170061278
 20
18.3451023632
 10
75.619060802
 20
17.6745532164
 10
76.3582884718
 20
16.9899601515
 10
77.0570989251
 20
16.2725549469
 10
77.6185512513
 20
15.6367195151
  0
LINE
  5
3BC
100
AcDbEntity
  8
0
100
AcDbLine
 62
7
  6
CONTINUOUS
 10
77.2208198749
 20
22.4774981831
 11
77.2208198749
 21
21.9774981831
  0
LINE
  5
3BD
100
AcDbEntity
  8
0
100
AcDbLine
 62
7
  6
CONTINUOUS
 10
77.6156223575
 20
22.4774981831
 11
77.6156223575
 21
21.9774981831
  0
LINE
  5
3BE
100
AcDbEntity
  8
0
100
AcDbLine
 62
7
  6
CONTINUOUS
 10
78.4388419599
 20
22.4774981831
 11
78.4388419599
 21
21.9774981831
  0
LINE
  5
3BF
100
AcDbEntity
  8
0
100
AcDbLine
 62
7
  6
CONTINUOUS
 10
79.072661332
 20
22.4774981831
 11
79.072661332
 21
21.9774981831
  0
LINE
  5
3C0
100
AcDbEntity
  8
0
100
AcDbLine
 62
7
  6
CONTINUOUS
 10
80.8332707327
 20
22.4774981831
 11
80.8332707327
 21
21.9774981831
  0
LINE
  5
3C1
100
AcDbEntity
  8
0
100
AcDbLine
 62
7
  6
CONTINUOUS
 10
81.2558169808
 20
22.4774981831
 11
81.2558169808
 21
21.9774981831
  0
LINE
  5
3C2
100
AcDbEntity
  8
0
100
AcDbLine
 62
7
  6
CONTINUOUS
 10
82.8299735087
 20
22.4774981831
 11
82.8299735087
 21
21.9774981831
  0
LINE
  5
3C3
100
AcDbEntity
  8
0
100
AcDbLine
 62
7
  6
CONTINUOUS
 10
82.8454163384
 20
22.4774981831
 11
82.8454163384
 21
21.9774981831
  0
LINE
  5
3C4
100
AcDbEntity
  8
0
100
AcDbLine
 62
7
  6
CONTINUOUS
 10
83.0134107168
 20
22.4774981831
 11
83.0134107168
 21
21.9774981831
  0
LINE
  5
3C5
100
AcDbEntity
  8
0
100
AcDbLine
 62
7
  6
CONTINUOUS
 10
83.2499592365
 20
22.4774981831
 11
83.2499592365
 21
21.9774981831
  0
LINE
  5
3C6
100
AcDbEntity
  8
0
100
AcDbLine
 62
7
  6
CONTINUOUS
 10
83.5970601646
 20
22.4774981831
 11
83.5970601646
 21
21.9774981831
  0
LINE
  5
3C7
100
AcDbEntity
  8
0
100
AcDbLine
 62
7
  6
CONTINUOUS
 10
84.20726505
 20
22.4774981831
 11
84.20726505
 21
21.9774981831
  0
LINE
  5
3C8
100
AcDbEntity
  8
0
100
AcDbLine
 62
7
  6
CONTINUOUS
 10
84.6229205558
 20
22.4774981831
 11
84.6229205558
 21
21.9774981831
  0
LINE
  5
3C9
100
AcDbEntity
  8
0
100
AcDbLine
 62
7
  6
CONTINUOUS
 10
84.9965769215
 20
22.4774981831
 11
84.9965769215
 21
21.9774981831
  0
LINE
  5
3CA
100
AcDbEntity
  8
0
100
AcDbLine
 62
7
  6
CONTINUOUS
 10
85.4387878649
 20
22.4774981831
 11
85.4387878649
 21
21.9774981831
  0
LINE
  5
3CB
100
AcDbEntity
  8
0
100
AcDbLine
 62
7
  6
CONTINUOUS
 10
85.7284476961
 20
22.4774981831
 11
85.7284476961
 21
21.9774981831
  0
LINE
  5
3CC
100
AcDbEntity
  8
0
100
AcDbLine
 62
7
  6
CONTINUOUS
 10
85.9761084832
 20
22.4774981831
 11
85.9761084832
 21
21.9774981831
  0
LINE
  5
3CD
100
AcDbEntity
  8
0
100
AcDbLine
 62
7
  6
CONTINUOUS
 10
86.4902645906
 20
22.4774981831
 11
86.4902645906
 21
21.9774981831
  0
LINE
  5
3CE
100
AcDbEntity
  8
0
100
AcDbLine
 62
7
  6
CONTINUOUS
 10
86.5853746059
 20
22.4774981831
 11
86.5853746059
 21
21.9774981831
  0
LINE
  5
3CF
100
AcDbEntity
  8
0
100
AcDbLine
 62
7
  6
CONTINUOUS
 10
86.6249130111
 20
22.4774981831
 11
86.6249130111
 21
21.9774981831
  0
LINE
  5
3D0
100
AcDbEntity
  8
0
100
AcDbLine
 62
7
  6
CONTINUOUS
 10
87.1074602119
 20
22.4774981831
 11
87.1074602119
 21
21.9774981831
  0
LINE
  5
3D1
100
AcDbEntity
  8
0
100
AcDbLine
 62
7
  6
CONTINUOUS
 10
95.8493978669
 20
42.7540939545
 11
95.5577314784
 21
42.4562216495
  0
LINE
  5
3D2
100
AcDbEntity
  8
0
100
AcDbLine
 62
7
  6
CONTINUOUS
 10
95.9952314784
 20
42.3817535733
 11
96.2139814784
 21
42.5306897258
  0
LINE
  5
3D3
100
AcDbEntity
  8
0
100
AcDbLine
 62
7
  6
CONTINUOUS
 10
99.4952310612
 20
42.9030301069
 11
99.1306482842
 21
42.6796258782
  0
LINE
  5
3D4
100
AcDbEntity
  8
0
100
AcDbLine
 62
7
  6
CONTINUOUS
 10
96.1410646727
 20
42.9030301069
 11
95.8493978669
 21
42.7540939545
  0
LINE
  5
3D5
100
AcDbEntity
  8
RUNDUNGEN
100
AcDbLine
 62
7
  6
CONTINUOUS
 10
127.566604212
 20
22.396560591
 11
127.5666644454
 21
22.3965663217
  0
LINE
  5
3D6
100
AcDbEntity
  8
0
100
AcDbLine
 62
7
  6
CONTINUOUS
 10
124.3476738541
 20
21.9774981831
 11
118.7670461759
 21
21.9774981831
  0
LINE
  5
3D7
100
AcDbEntity
  8
0
100
AcDbLine
 62
7
  6
CONTINUOUS
 10
115.6858679456
 20
21.9774981831
 11
105.4764690104
 21
21.9774981831
  0
LINE
  5
3D8
100
AcDbEntity
  8
0
100
AcDbLine
 62
7
  6
CONTINUOUS
 10
104.0036550545
 20
21.9774981831
 11
100.8136873783
 21
21.9774981831
  0
LINE
  5
3D9
100
AcDbEntity
  8
0
100
AcDbLine
 62
7
  6
CONTINUOUS
 10
90.8895031012
 20
21.9774981831
 11
86.6249130111
 21
21.9774981831
  0
LINE
  5
3DA
100
AcDbEntity
  8
0
100
AcDbLine
 62
7
  6
CONTINUOUS
 10
86.5853746059
 20
21.9774981831
 11
77.2208198749
 21
21.9774981831
  0
LINE
  5
3DB
100
AcDbEntity
  8
0
100
AcDbLine
 62
7
  6
CONTINUOUS
 10
75.6831846531
 20
21.9774981831
 11
67.1461178361
 21
21.9774981831
  0
LINE
  5
3DC
100
AcDbEntity
  8
RUNDUNGEN
100
AcDbLine
 62
7
  6
CONTINUOUS
 10
65.0071500752
 20
22.3965600378
 11
65.0071892295
 21
22.3965563126
  0
LINE
  5
3DD
100
AcDbEntity
  8
0
100
AcDbLine
 62
7
  6
CONTINUOUS
 10
88.656904613
 20
22.4774981831
 11
88.656904613
 21
21.9774981831
  0
LINE
  5
3DE
100
AcDbEntity
  8
0
100
AcDbLine
 62
7
  6
CONTINUOUS
 10
89.3593468419
 20
22.4774981831
 11
89.3593468419
 21
21.9774981831
  0
LINE
  5
3DF
100
AcDbEntity
  8
0
100
AcDbLine
 62
7
  6
CONTINUOUS
 10
89.8418940426
 20
22.4774981831
 11
89.8418940426
 21
21.9774981831
  0
LINE
  5
3E0
100
AcDbEntity
  8
0
100
AcDbLine
 62
7
  6
CONTINUOUS
 10
94.1723146727
 20
42.9774981831
 11
93.0785646727
 21
39.8498386164
  0
LINE
  5
3E1
100
AcDbEntity
  8
0
100
AcDbLine
 62
7
  6
CONTINUOUS
 10
93.3702312698
 20
39.4774981831
 11
94.3910646727
 21
42.2328174208
  0
LINE
  5
3E2
100
AcDbEntity
  8
0
100
AcDbLine
 62
7
  6
CONTINUOUS
 10
95.8493978669
 20
42.1583493446
 11
95.9952314784
 21
42.3817535733
  0
LINE
  5
3E3
100
AcDbEntity
  8
0
100
AcDbLine
 62
7
  6
CONTINUOUS
 10
99.1306482842
 20
42.6796258782
 11
98.9118982842
 21
42.4562216495
  0
LINE
  5
3E4
100
AcDbEntity
  8
0
100
AcDbLine
 62
7
  6
CONTINUOUS
 10
97.4535646727
 20
41.7115406786
 11
95.4118978669
 21
39.8498386164
  0
LINE
  5
3E5
100
AcDbEntity
  8
0
100
AcDbLine
 62
7
  6
CONTINUOUS
 10
95.9952314784
 20
39.8498386164
 11
97.8181478669
 21
41.4881364499
  0
LINE
  5
3E6
100
AcDbEntity
  8
0
100
AcDbLine
 62
7
  6
CONTINUOUS
 10
99.3493982842
 20
42.3817535733
 11
99.5681482842
 21
42.5306897258
  0
LINE
  5
3E7
100
AcDbEntity
  8
0
100
AcDbLine
 62
7
  6
CONTINUOUS
 10
100.5160646727
 20
40.0732428451
 11
100.2973146727
 21
39.9243066927
  0
LINE
  5
3E8
100
AcDbEntity
  8
0
100
AcDbLine
 62
7
  6
CONTINUOUS
 10
100.3702310612
 20
39.5519662659
 11
100.7348146727
 21
39.7753705141
  0
LINE
  5
3E9
100
AcDbEntity
  8
RUNDUNGEN
100
AcDbLine
 62
7
  6
CONTINUOUS
 10
61.9625190344
 20
22.4774981831
 11
130.6107414272
 21
22.4774981831
  0
LINE
  5
3EA
100
AcDbEntity
  8
0
100
AcDbLine
 62
7
  6
CONTINUOUS
 10
90.8895031012
 20
22.4774981831
 11
90.8895031012
 21
21.9774981831
  0
LINE
  5
3EB
100
AcDbEntity
  8
0
100
AcDbLine
 62
7
  6
CONTINUOUS
 10
91.3285646727
 20
42.9774981831
 11
91.3285646727
 21
39.4774981831
  0
LINE
  5
3EC
100
AcDbEntity
  8
0
100
AcDbLine
 62
7
  6
CONTINUOUS
 10
91.6202316572
 20
7.5332009673
 11
91.6202316572
 21
7.4112360676
  0
LINE
  5
3ED
100
AcDbEntity
  8
0
100
AcDbLine
 62
7
  6
CONTINUOUS
 10
91.7660646727
 20
39.4774981831
 11
91.7660646727
 21
42.2328174208
  0
LINE
  5
3EE
100
AcDbEntity
  8
0
100
AcDbLine
 62
7
  6
CONTINUOUS
 10
92.2868982842
 20
7.4249560523
 11
92.2868982842
 21
7.2254210023
  0
LINE
  5
3EF
100
AcDbEntity
  8
0
100
AcDbLine
 62
7
  6
CONTINUOUS
 10
93.4535649111
 20
7.2607280362
 11
93.4535649111
 21
7.0243864216
  0
LINE
  5
3F0
100
AcDbEntity
  8
0
100
AcDbLine
 62
7
  6
CONTINUOUS
 10
95.5577314784
 20
42.4562216495
 11
95.4848146727
 21
42.1583493446
  0
LINE
  5
3F1
100
AcDbEntity
  8
0
100
AcDbLine
 62
7
  6
CONTINUOUS
 10
97.5993978669
 20
42.0094129835
 11
97.4535646727
 21
41.7115406786
  0
LINE
  5
3F2
100
AcDbEntity
  8
0
100
AcDbLine
 62
7
  6
CONTINUOUS
 10
98.9118982842
 20
42.4562216495
 11
98.7660646727
 21
42.1583493446
  0
LINE
  5
3F3
100
AcDbEntity
  8
0
100
AcDbLine
 62
7
  6
CONTINUOUS
 10
97.8181478669
 20
41.4881364499
 11
97.9639814784
 21
41.7115406786
  0
LINE
  5
3F4
100
AcDbEntity
  8
0
100
AcDbLine
 62
7
  6
CONTINUOUS
 10
99.0577310612
 20
41.9349449073
 11
99.3493982842
 21
42.3817535733
  0
LINE
  5
3F5
100
AcDbEntity
  8
0
100
AcDbLine
 62
7
  6
CONTINUOUS
 10
100.7348146727
 20
39.7753705141
 11
100.9535646727
 21
39.9987747689
  0
LINE
  5
3F6
100
AcDbEntity
  8
0
100
AcDbLine
 62
7
  6
CONTINUOUS
 10
94.1202316572
 20
7.1960953876
 11
94.1202316572
 21
6.9534299791
  0
LINE
  5
3F7
100
AcDbEntity
  8
0
100
AcDbLine
 62
7
  6
CONTINUOUS
 10
94.3910646727
 20
42.2328174208
 11
94.3910646727
 21
39.4774981831
  0
LINE
  5
3F8
100
AcDbEntity
  8
0
100
AcDbLine
 62
7
  6
CONTINUOUS
 10
94.8285646727
 20
39.4774981831
 11
94.8285646727
 21
42.9774981831
  0
LINE
  5
3F9
100
AcDbEntity
  8
0
100
AcDbLine
 62
7
  6
CONTINUOUS
 10
95.1202316572
 20
7.1281699635
 11
95.1202316572
 21
6.9127367473
  0
LINE
  5
3FA
100
AcDbEntity
  8
0
100
AcDbLine
 62
7
  6
CONTINUOUS
 10
95.4118978669
 20
39.8498386164
 11
95.4118978669
 21
39.4774981831
  0
LINE
  5
3FB
100
AcDbEntity
  8
0
100
AcDbLine
 62
7
  6
CONTINUOUS
 10
95.786898165
 20
7.1065912211
 11
95.786898165
 21
6.9492125619
  0
LINE
  5
3FC
100
AcDbEntity
  8
0
100
AcDbLine
 62
7
  6
CONTINUOUS
 10
96.4535651495
 20
7.0961450931
 11
96.4535651495
 21
7.064546014
  0
LINE
  5
3FD
100
AcDbEntity
  8
0
100
AcDbLine
 62
7
  6
CONTINUOUS
 10
98.6931482842
 20
41.9349449073
 11
98.6202310612
 21
41.5626045262
  0
LINE
  5
3FE
100
AcDbEntity
  8
0
100
AcDbLine
 62
7
  6
CONTINUOUS
 10
97.9639814784
 20
41.7115406786
 11
98.0368978669
 21
42.0094129835
  0
LINE
  5
3FF
100
AcDbEntity
  8
0
100
AcDbLine
 62
7
  6
CONTINUOUS
 10
98.7660646727
 20
42.1583493446
 11
98.6931482842
 21
41.9349449073
  0
LINE
  5
400
100
AcDbEntity
  8
0
100
AcDbLine
 62
7
  6
CONTINUOUS
 10
100.9535646727
 20
39.9987747689
 11
101.0993982842
 21
40.296647126
  0
LINE
  5
401
100
AcDbEntity
  8
0
100
AcDbLine
 62
7
  6
CONTINUOUS
 10
100.8077310612
 20
40.5200513547
 11
100.5160646727
 21
40.0732428451
  0
LINE
  5
402
100
AcDbEntity
  8
0
100
AcDbLine
 62
7
  6
CONTINUOUS
 10
91.7660646727
 20
42.2328174208
 11
92.7868979712
 21
39.4774981831
  0
LINE
  5
403
100
AcDbEntity
  8
0
100
AcDbLine
 62
7
  6
CONTINUOUS
 10
93.0785646727
 20
39.8498386164
 11
91.9848146727
 21
42.9774981831
  0
LINE
  5
404
100
AcDbEntity
  8
0
100
AcDbLine
 62
7
  6
CONTINUOUS
 10
97.5993978669
 20
42.1583493446
 11
97.5993978669
 21
42.0094129835
  0
LINE
  5
405
100
AcDbEntity
  8
0
100
AcDbLine
 62
7
  6
CONTINUOUS
 10
98.0368978669
 20
39.4774981831
 11
98.0368978669
 21
39.8498386164
  0
LINE
  5
406
100
AcDbEntity
  8
0
100
AcDbLine
 62
7
  6
CONTINUOUS
 10
98.0368978669
 20
42.0094129835
 11
98.0368978669
 21
42.1583493446
  0
LINE
  5
407
100
AcDbEntity
  8
0
100
AcDbLine
 62
7
  6
CONTINUOUS
 10
98.6202310612
 20
41.5626045262
 11
98.6202310612
 21
40.8923918401
  0
LINE
  5
408
100
AcDbEntity
  8
0
100
AcDbLine
 62
7
  6
CONTINUOUS
 10
98.9848146727
 20
40.9668599163
 11
98.9848146727
 21
41.4881364499
  0
LINE
  5
409
100
AcDbEntity
  8
0
100
AcDbLine
 62
7
  6
CONTINUOUS
 10
99.2868986418
 20
7.2765662506
 11
99.2868986418
 21
7.256944695
  0
LINE
  5
40A
100
AcDbEntity
  8
0
100
AcDbLine
 62
7
  6
CONTINUOUS
 10
98.9848146727
 20
41.4881364499
 11
99.0577310612
 21
41.9349449073
  0
LINE
  5
40B
100
AcDbEntity
  8
0
100
AcDbLine
 62
7
  6
CONTINUOUS
 10
100.8806482842
 20
40.9668599163
 11
100.8077310612
 21
40.5200513547
  0
LINE
  5
40C
100
AcDbEntity
  8
0
100
AcDbLine
 62
7
  6
CONTINUOUS
 10
101.1723146727
 20
40.5200513547
 11
101.2452310612
 21
40.8923918401
  0
LINE
  5
40D
100
AcDbEntity
  8
0
100
AcDbLine
 62
7
  6
CONTINUOUS
 10
101.0993982842
 20
40.296647126
 11
101.1723146727
 21
40.5200513547
  0
LINE
  5
40E
100
AcDbEntity
  8
0
100
AcDbLine
 62
7
  6
CONTINUOUS
 10
100.8136873783
 20
22.4774981831
 11
100.8136873783
 21
21.9774981831
  0
LINE
  5
40F
100
AcDbEntity
  8
0
100
AcDbLine
 62
7
  6
CONTINUOUS
 10
100.8806482842
 20
41.4881364499
 11
100.8806482842
 21
40.9668599163
  0
LINE
  5
410
100
AcDbEntity
  8
0
100
AcDbLine
 62
7
  6
CONTINUOUS
 10
101.2452310612
 20
40.8923918401
 11
101.2452310612
 21
41.5626045262
  0
LINE
  5
411
100
AcDbEntity
  8
0
100
AcDbLine
 62
7
  6
CONTINUOUS
 10
101.3018248152
 20
22.4774981831
 11
101.3018248152
 21
21.9774981831
  0
LINE
  5
412
100
AcDbEntity
  8
0
100
AcDbLine
 62
7
  6
CONTINUOUS
 10
101.3278955308
 20
22.4774981831
 11
101.3278955308
 21
21.9774981831
  0
LINE
  5
413
100
AcDbEntity
  8
0
100
AcDbLine
 62
7
  6
CONTINUOUS
 10
101.4078976505
 20
22.4774981831
 11
101.4078976505
 21
21.9774981831
  0
LINE
  5
414
100
AcDbEntity
  8
0
100
AcDbLine
 62
7
  6
CONTINUOUS
 10
101.481611708
 20
22.4774981831
 11
101.481611708
 21
21.9774981831
  0
LINE
  5
415
100
AcDbEntity
  8
0
100
AcDbLine
 62
7
  6
CONTINUOUS
 10
101.6366819631
 20
22.4774981831
 11
101.6366819631
 21
21.9774981831
  0
LINE
  5
416
100
AcDbEntity
  8
0
100
AcDbLine
 62
7
  6
CONTINUOUS
 10
102.0358209366
 20
22.4774981831
 11
102.0358209366
 21
21.9774981831
  0
LINE
  5
417
100
AcDbEntity
  8
0
100
AcDbLine
 62
7
  6
CONTINUOUS
 10
102.3981028781
 20
22.4774981831
 11
102.3981028781
 21
21.9774981831
  0
LINE
  5
418
100
AcDbEntity
  8
0
100
AcDbLine
 62
7
  6
CONTINUOUS
 10
98.6931482842
 20
40.5200513547
 11
98.7660646727
 21
40.296647126
  0
LINE
  5
419
100
AcDbEntity
  8
0
100
AcDbLine
 62
7
  6
CONTINUOUS
 10
98.0368978669
 20
42.1583493446
 11
97.9639814784
 21
42.4562216495
  0
LINE
  5
41A
100
AcDbEntity
  8
0
100
AcDbLine
 62
7
  6
CONTINUOUS
 10
98.6202310612
 20
40.8923918401
 11
98.6931482842
 21
40.5200513547
  0
LINE
  5
41B
100
AcDbEntity
  8
0
100
AcDbLine
 62
7
  6
CONTINUOUS
 10
99.0577310612
 20
40.5200513547
 11
98.9848146727
 21
40.9668599163
  0
LINE
  5
41C
100
AcDbEntity
  8
0
100
AcDbLine
 62
7
  6
CONTINUOUS
 10
102.7419563763
 20
22.4774981831
 11
102.7419563763
 21
21.9774981831
  0
LINE
  5
41D
100
AcDbEntity
  8
0
100
AcDbLine
 62
7
  6
CONTINUOUS
 10
103.148737535
 20
22.4774981831
 11
103.148737535
 21
21.9774981831
  0
LINE
  5
41E
100
AcDbEntity
  8
0
100
AcDbLine
 62
7
  6
CONTINUOUS
 10
103.5370903085
 20
22.4774981831
 11
103.5370903085
 21
21.9774981831
  0
LINE
  5
41F
100
AcDbEntity
  8
0
100
AcDbLine
 62
7
  6
CONTINUOUS
 10
103.8072296844
 20
22.4774981831
 11
103.8072296844
 21
21.9774981831
  0
LINE
  5
420
100
AcDbEntity
  8
0
100
AcDbLine
 62
7
  6
CONTINUOUS
 10
103.977584397
 20
22.4774981831
 11
103.977584397
 21
21.9774981831
  0
LINE
  5
421
100
AcDbEntity
  8
0
100
AcDbLine
 62
7
  6
CONTINUOUS
 10
104.0036550545
 20
22.4774981831
 11
104.0036550545
 21
21.9774981831
  0
LINE
  5
422
100
AcDbEntity
  8
0
100
AcDbLine
 62
7
  6
CONTINUOUS
 10
105.4764690104
 20
22.4774981831
 11
105.4764690104
 21
21.9774981831
  0
LINE
  5
423
100
AcDbEntity
  8
0
100
AcDbLine
 62
7
  6
CONTINUOUS
 10
105.4878312026
 20
22.4774981831
 11
105.4878312026
 21
21.9774981831
  0
LINE
  5
424
100
AcDbEntity
  8
0
100
AcDbLine
 62
7
  6
CONTINUOUS
 10
100.2973146727
 20
39.9243066927
 11
99.9327310612
 21
39.8498386164
  0
LINE
  5
425
100
AcDbEntity
  8
0
100
AcDbLine
 62
7
  6
CONTINUOUS
 10
99.9327310612
 20
39.4774981831
 11
100.3702310612
 21
39.5519662659
  0
LINE
  5
426
100
AcDbEntity
  8
BEZUGSACHSEN
100
AcDbLine
 62
7
  6
CONTINUOUS
 10
61.9625190344
 20
38.4774981831
 11
130.6107414272
 21
38.4774981831
  0
LINE
  5
427
100
AcDbEntity
  8
0
100
AcDbLine
 62
7
  6
CONTINUOUS
 10
91.3285646727
 20
39.4774981831
 11
91.7660646727
 21
39.4774981831
  0
LINE
  5
428
100
AcDbEntity
  8
0
100
AcDbLine
 62
7
  6
CONTINUOUS
 10
92.7868979712
 20
39.4774981831
 11
93.3702312698
 21
39.4774981831
  0
LINE
  5
429
100
AcDbEntity
  8
0
100
AcDbLine
 62
7
  6
CONTINUOUS
 10
94.3910646727
 20
39.4774981831
 11
94.8285646727
 21
39.4774981831
  0
LINE
  5
42A
100
AcDbEntity
  8
0
100
AcDbLine
 62
7
  6
CONTINUOUS
 10
95.4118978669
 20
39.4774981831
 11
98.0368978669
 21
39.4774981831
  0
LINE
  5
42B
100
AcDbEntity
  8
0
100
AcDbLine
 62
7
  6
CONTINUOUS
 10
98.9118982842
 20
39.9987747689
 11
99.1306482842
 21
39.7753705141
  0
LINE
  5
42C
100
AcDbEntity
  8
0
100
AcDbLine
 62
7
  6
CONTINUOUS
 10
97.4535646727
 20
42.3817535733
 11
97.5993978669
 21
42.1583493446
  0
LINE
  5
42D
100
AcDbEntity
  8
0
100
AcDbLine
 62
7
  6
CONTINUOUS
 10
99.3493982842
 20
40.0732428451
 11
99.0577310612
 21
40.5200513547
  0
LINE
  5
42E
100
AcDbEntity
  8
0
100
AcDbLine
 62
7
  6
CONTINUOUS
 10
98.7660646727
 20
40.296647126
 11
98.9118982842
 21
39.9987747689
  0
LINE
  5
42F
100
AcDbEntity
  8
0
100
AcDbLine
 62
7
  6
CONTINUOUS
 10
101.1723146727
 20
41.9349449073
 11
101.0993982842
 21
42.1583493446
  0
LINE
  5
430
100
AcDbEntity
  8
0
100
AcDbLine
 62
7
  6
CONTINUOUS
 10
101.2452310612
 20
41.5626045262
 11
101.1723146727
 21
41.9349449073
  0
LINE
  5
431
100
AcDbEntity
  8
0
100
AcDbLine
 62
7
  6
CONTINUOUS
 10
100.8077310612
 20
41.9349449073
 11
100.8806482842
 21
41.4881364499
  0
LINE
  5
432
100
AcDbEntity
  8
0
100
AcDbLine
 62
7
  6
CONTINUOUS
 10
105.6377384282
 20
22.4774981831
 11
105.6377384282
 21
21.9774981831
  0
LINE
  5
433
100
AcDbEntity
  8
0
100
AcDbLine
 62
7
  6
CONTINUOUS
 10
99.5681482842
 20
42.5306897258
 11
99.9327310612
 21
42.605157802
  0
LINE
  5
434
100
AcDbEntity
  8
0
100
AcDbLine
 62
7
  6
CONTINUOUS
 10
96.2139814784
 20
42.5306897258
 11
96.5785646727
 21
42.605157802
  0
LINE
  5
435
100
AcDbEntity
  8
0
100
AcDbLine
 62
7
  6
CONTINUOUS
 10
99.9327310612
 20
42.9774981831
 11
99.4952310612
 21
42.9030301069
  0
LINE
  5
436
100
AcDbEntity
  8
BEZUGSACHSEN
100
AcDbLine
 62
7
  6
CONTINUOUS
 10
65.0071500752
 20
38.5584363285
 11
65.0071892295
 21
38.5584400537
  0
LINE
  5
437
100
AcDbEntity
  8
0
100
AcDbLine
 62
7
  6
CONTINUOUS
 10
98.0368978669
 20
39.8498386164
 11
95.9952314784
 21
39.8498386164
  0
LINE
  5
438
100
AcDbEntity
  8
0
100
AcDbLine
 62
7
  6
CONTINUOUS
 10
95.4848146727
 20
42.1583493446
 11
95.8493978669
 21
42.1583493446
  0
LINE
  5
439
100
AcDbEntity
  8
0
100
AcDbLine
 62
7
  6
CONTINUOUS
 10
96.5785646727
 20
42.605157802
 11
96.8702314784
 21
42.605157802
  0
LINE
  5
43A
100
AcDbEntity
  8
BEZUGSACHSEN
100
AcDbLine
 62
7
  6
CONTINUOUS
 10
127.566604212
 20
38.5584357753
 11
127.5666644454
 21
38.5584300446
  0
LINE
  5
43B
100
AcDbEntity
  8
0
100
AcDbLine
 62
7
  6
CONTINUOUS
 10
99.4952310612
 20
39.5519662659
 11
99.9327310612
 21
39.4774981831
  0
LINE
  5
43C
100
AcDbEntity
  8
0
100
AcDbLine
 62
7
  6
CONTINUOUS
 10
99.9327310612
 20
39.8498386164
 11
99.5681482842
 21
39.9243066927
  0
LINE
  5
43D
100
AcDbEntity
  8
0
100
AcDbLine
 62
7
  6
CONTINUOUS
 10
96.8702314784
 20
42.605157802
 11
97.2348146727
 21
42.5306897258
  0
LINE
  5
43E
100
AcDbEntity
  8
0
100
AcDbLine
 62
7
  6
CONTINUOUS
 10
97.6723146727
 20
42.7540939545
 11
97.3806478669
 21
42.9030301069
  0
LINE
  5
43F
100
AcDbEntity
  8
0
100
AcDbLine
 62
7
  6
CONTINUOUS
 10
99.1306482842
 20
39.7753705141
 11
99.4952310612
 21
39.5519662659
  0
LINE
  5
440
100
AcDbEntity
  8
0
100
AcDbLine
 62
7
  6
CONTINUOUS
 10
99.5681482842
 20
39.9243066927
 11
99.3493982842
 21
40.0732428451
  0
LINE
  5
441
100
AcDbEntity
  8
0
100
AcDbLine
 62
7
  6
CONTINUOUS
 10
97.2348146727
 20
42.5306897258
 11
97.4535646727
 21
42.3817535733
  0
LINE
  5
442
100
AcDbEntity
  8
0
100
AcDbLine
 62
7
  6
CONTINUOUS
 10
97.9639814784
 20
42.4562216495
 11
97.6723146727
 21
42.7540939545
  0
LINE
  5
443
100
AcDbEntity
  8
0
100
AcDbLine
 62
7
  6
CONTINUOUS
 10
100.9535646727
 20
42.4562216495
 11
100.7348146727
 21
42.6796258782
  0
LINE
  5
444
100
AcDbEntity
  8
0
100
AcDbLine
 62
7
  6
CONTINUOUS
 10
100.5160646727
 20
42.3817535733
 11
100.8077310612
 21
41.9349449073
  0
LINE
  5
445
100
AcDbEntity
  8
0
100
AcDbLine
 62
7
  6
CONTINUOUS
 10
101.0993982842
 20
42.1583493446
 11
100.9535646727
 21
42.4562216495
  0
LINE
  5
446
100
AcDbEntity
  8
0
100
AcDbLine
 62
7
  6
CONTINUOUS
 10
108.6014022703
 20
22.4774981831
 11
108.6014022703
 21
21.9774981831
  0
LINE
  5
447
100
AcDbEntity
  8
0
100
AcDbLine
 62
7
  6
CONTINUOUS
 10
110.9108373346
 20
22.4774981831
 11
110.9108373346
 21
21.9774981831
  0
LINE
  5
448
100
AcDbEntity
  8
0
100
AcDbLine
 62
7
  6
CONTINUOUS
 10
96.6514814784
 20
42.9774981831
 11
96.1410646727
 21
42.9030301069
  0
LINE
  5
449
100
AcDbEntity
  8
0
100
AcDbLine
 62
7
  6
CONTINUOUS
 10
96.9431478669
 20
42.9774981831
 11
96.6514814784
 21
42.9774981831
  0
LINE
  5
44A
100
AcDbEntity
  8
0
100
AcDbLine
 62
7
  6
CONTINUOUS
 10
94.8285646727
 20
42.9774981831
 11
94.1723146727
 21
42.9774981831
  0
LINE
  5
44B
100
AcDbEntity
  8
0
100
AcDbLine
 62
7
  6
CONTINUOUS
 10
91.9848146727
 20
42.9774981831
 11
91.3285646727
 21
42.9774981831
  0
LINE
  5
44C
100
AcDbEntity
  8
0
100
AcDbLine
 62
7
  6
CONTINUOUS
 10
97.3806478669
 20
42.9030301069
 11
96.9431478669
 21
42.9774981831
  0
LINE
  5
44D
100
AcDbEntity
  8
0
100
AcDbLine
 62
7
  6
CONTINUOUS
 10
100.3702310612
 20
42.9030301069
 11
99.9327310612
 21
42.9774981831
  0
LINE
  5
44E
100
AcDbEntity
  8
0
100
AcDbLine
 62
7
  6
CONTINUOUS
 10
99.9327310612
 20
42.605157802
 11
100.2973146727
 21
42.5306897258
  0
LINE
  5
44F
100
AcDbEntity
  8
0
100
AcDbLine
 62
7
  6
CONTINUOUS
 10
100.7348146727
 20
42.6796258782
 11
100.3702310612
 21
42.9030301069
  0
LINE
  5
450
100
AcDbEntity
  8
0
100
AcDbLine
 62
7
  6
CONTINUOUS
 10
100.2973146727
 20
42.5306897258
 11
100.5160646727
 21
42.3817535733
  0
LINE
  5
451
100
AcDbEntity
  8
0
100
AcDbLine
 62
7
  6
CONTINUOUS
 10
111.4938259667
 20
22.4774981831
 11
111.4938259667
 21
21.9774981831
  0
LINE
  5
452
100
AcDbEntity
  8
0
100
AcDbLine
 62
7
  6
CONTINUOUS
 10
113.7081687672
 20
22.4774981831
 11
113.7081687672
 21
21.9774981831
  0
LINE
  5
453
100
AcDbEntity
  8
0
100
AcDbLine
 62
7
  6
CONTINUOUS
 10
115.2968885888
 20
22.4774981831
 11
115.2968885888
 21
21.9774981831
  0
LINE
  5
454
100
AcDbEntity
  8
0
100
AcDbLine
 62
7
  6
CONTINUOUS
 10
115.5761744935
 20
22.4774981831
 11
115.5761744935
 21
21.9774981831
  0
LINE
  5
455
100
AcDbEntity
  8
0
100
AcDbLine
 62
7
  6
CONTINUOUS
 10
115.6858679456
 20
22.4774981831
 11
115.6858679456
 21
21.9774981831
  0
LINE
  5
456
100
AcDbEntity
  8
0
100
AcDbLine
 62
7
  6
CONTINUOUS
 10
118.766898165
 20
22.4774981831
 11
118.766898165
 21
21.9774981831
  0
LINE
  5
457
100
AcDbEntity
  8
RUNDUNGEN
100
AcDbLine
 62
7
  6
CONTINUOUS
 10
114.8151111928
 20
15.471943286
 11
114.9552993369
 21
15.6367888008
  0
LINE
  5
458
100
AcDbEntity
  8
RUNDUNGEN
100
AcDbLine
 62
7
  6
CONTINUOUS
 10
114.6794341253
 20
15.3151206303
 11
114.8151111928
 21
15.471943286
  0
LWPOLYLINE
  5
459
100
AcDbEntity
  8
RUNDUNGEN
100
AcDbPolyline
 62
7
  6
CONTINUOUS
 90
7
 70
0
 10
114.9552421614
 20
15.6367186168
 10
115.5090474152
 20
16.2642749023
 10
116.207739533
 20
16.982382568
 10
116.9464680669
 20
17.6672703
 10
117.7479378329
 20
18.3380703151
 10
118.6370481009
 20
19.0078140847
 10
119.4967364392
 20
19.5920230992
  0
LINE
  5
45A
100
AcDbEntity
  8
RUNDUNGEN
100
AcDbLine
 62
7
  6
CONTINUOUS
 10
119.4967112051
 20
19.5920195133
 11
119.5005098193
 21
19.5944753548
  0
LWPOLYLINE
  5
45B
100
AcDbEntity
  8
BEZUGSACHSEN
100
AcDbPolyline
 62
7
  6
CONTINUOUS
 90
7
 70
0
 10
119.5006392873
 20
41.360449653
 10
118.6363437602
 20
41.9476851324
 10
117.7464658975
 20
42.6180963093
 10
116.9438456021
 20
43.2900376594
 10
116.2046109257
 20
43.97566723
 10
115.5069568413
 20
44.6929864956
 10
114.9552428505
 20
45.3182769325
  0
LWPOLYLINE
  5
45C
100
AcDbEntity
  8
BEZUGSACHSEN
100
AcDbPolyline
 62
7
  6
CONTINUOUS
 90
27
 70
0
 10
114.6794191573
 20
45.6398857886
 10
113.679379104
 20
46.7152899447
 10
112.5062295503
 20
47.8207208418
 10
111.2625873099
 20
48.8413812614
 10
109.9540679368
 20
49.7747133657
 10
108.5864088889
 20
50.6180459545
 10
107.1658548187
 20
51.3687961
 10
105.6984938415
 20
52.0245103724
 10
104.190889742
 20
52.5830835649
 10
102.6495094984
 20
53.0425703557
 10
101.0810222718
 20
53.4015367156
 10
99.4920847451
 20
53.6586490223
 10
97.8895204524
 20
53.8131452257
 10
96.2801538546
 20
53.8643709052
 10
94.6708176007
 20
53.812279714
 10
93.0683432941
 20
53.6569214944
 10
91.4795565146
 20
53.3989543444
 10
89.9112801957
 20
53.0391440321
 10
88.3701711514
 20
52.578828017
 10
86.8628971712
 20
52.0194438424
 10
85.3959250977
 20
51.3629408927
 10
83.9758179424
 20
50.6114286045
 10
82.6086616489
 20
49.7673638
 10
81.3006977896
 20
48.8333312494
 10
80.0576611931
 20
47.8120047968
 10
78.8851688174
 20
46.7059483956
 10
77.8943774967
 20
45.639886096
  0
LINE
  5
45D
100
AcDbEntity
  8
BEZUGSACHSEN
100
AcDbLine
 62
7
  6
CONTINUOUS
 10
114.8151111928
 20
45.4830530803
 11
114.6794341253
 21
45.639875736
  0
LINE
  5
45E
100
AcDbEntity
  8
BEZUGSACHSEN
100
AcDbLine
 62
7
  6
CONTINUOUS
 10
114.9552993369
 20
45.3182075655
 11
114.8151111928
 21
45.4830530803
  0
LINE
  5
45F
100
AcDbEntity
  8
BEZUGSACHSEN
100
AcDbLine
 62
7
  6
CONTINUOUS
 10
114.9552428505
 20
45.3182769325
 11
114.9553005046
 21
45.3182085522
  0
LINE
  5
460
100
AcDbEntity
  8
0
100
AcDbLine
 62
7
  6
CONTINUOUS
 10
122.6276738541
 20
22.4774981831
 11
122.6276738541
 21
21.9774981831
  0
LINE
  5
461
100
AcDbEntity
  8
0
100
AcDbLine
 62
7
  6
CONTINUOUS
 10
124.3476738541
 20
22.4774981831
 11
124.3476738541
 21
21.9774981831
  0
LINE
  5
462
100
AcDbEntity
  8
RUNDUNGEN
100
AcDbLine
 62
7
  6
CONTINUOUS
 10
133.6113039972
 20
25.4774981831
 11
133.6113039972
 21
35.4774981831
  0
ARC
  5
463
100
AcDbEntity
  8
BEZUGSACHSEN
100
AcDbCircle
 62
7
  6
CONTINUOUS
 10
109.6101212032
 20
153.4604999727
 40
52.0
100
AcDbArc
 50
109.4623903485
 51
166.3670472149
  0
ARC
  5
464
100
AcDbEntity
  8
RUNDUNGEN
100
AcDbCircle
 62
7
  6
CONTINUOUS
 10
109.6101212032
 20
153.4604999727
 40
52.0
100
AcDbArc
 50
106.115057936
 51
166.3670472149
  0
ARC
  5
465
100
AcDbEntity
  8
RUNDUNGEN
100
AcDbCircle
 62
7
  6
CONTINUOUS
 10
82.9636751267
 20
153.4604999727
 40
52.0
100
AcDbArc
 50
13.6329527851
 51
73.884942064
  0
ARC
  5
466
100
AcDbEntity
  8
0
100
AcDbCircle
 62
7
  6
CONTINUOUS
 10
96.286898165
 20
164.4604999727
 40
20.0
100
AcDbArc
 50
195.4178001694
 51
200.4405601241
  0
ARC
  5
467
100
AcDbEntity
  8
0
100
AcDbCircle
 62
7
  6
CONTINUOUS
 10
96.286898165
 20
164.4604999727
 40
20.0
100
AcDbArc
 50
339.5594396382
 51
344.5821998306
  0
ARC
  5
468
100
AcDbEntity
  8
RUNDUNGEN
100
AcDbCircle
 62
7
  6
CONTINUOUS
 10
96.286898165
 20
164.4604999727
 40
20.0
100
AcDbArc
 50
344.5821998306
 51
195.4178001694
  0
ARC
  5
469
100
AcDbEntity
  8
BEZUGSACHSEN
100
AcDbCircle
 62
7
  6
CONTINUOUS
 10
124.286898165
 20
126.9604999727
 40
7.0
100
AcDbArc
 50
120.7306631655
 51
180.0
  0
ARC
  5
46A
100
AcDbEntity
  8
0
100
AcDbCircle
 62
7
  6
CONTINUOUS
 10
124.286898165
 20
126.9604999727
 40
7.0
100
AcDbArc
 50
120.7306631655
 51
180.0
  0
ARC
  5
46B
100
AcDbEntity
  8
BEZUGSACHSEN
100
AcDbCircle
 62
7
  6
CONTINUOUS
 10
68.286898165
 20
126.9604999727
 40
7.0
100
AcDbArc
 50
0.0
 51
59.2693368345
  0
ARC
  5
46C
100
AcDbEntity
  8
BEZUGSACHSEN
100
AcDbCircle
 62
7
  6
CONTINUOUS
 10
62.9624923327
 20
164.7741519365
 40
4.0
100
AcDbArc
 50
166.3670472065
 51
201.5000000094
  0
ARC
  5
46D
100
AcDbEntity
  8
RUNDUNGEN
100
AcDbCircle
 62
7
  6
CONTINUOUS
 10
129.6113039972
 20
164.7741519365
 40
4.0
100
AcDbArc
 50
338.5
 51
13.6329527851
  0
ARC
  5
46E
100
AcDbEntity
  8
RUNDUNGEN
100
AcDbCircle
 62
7
  6
CONTINUOUS
 10
96.286898165
 20
199.5743994811
 40
4.0
100
AcDbArc
 50
73.884942064
 51
106.115057936
  0
ARC
  5
46F
100
AcDbEntity
  8
RUNDUNGEN
100
AcDbCircle
 62
7
  6
CONTINUOUS
 10
62.9624923327
 20
164.7741519365
 40
4.0
100
AcDbArc
 50
166.3670472149
 51
201.5
  0
ARC
  5
470
100
AcDbEntity
  8
BEZUGSACHSEN
100
AcDbCircle
 62
7
  6
CONTINUOUS
 10
73.39692468
 20
135.5562983879
 40
3.0
100
AcDbArc
 50
201.500189245
 51
239.2694864289
  0
ARC
  5
471
100
AcDbEntity
  8
BEZUGSACHSEN
100
AcDbCircle
 62
7
  6
CONTINUOUS
 10
119.1768681117
 20
135.5562894058
 40
3.0
100
AcDbArc
 50
300.7306593163
 51
338.4999951305
  0
ARC
  5
472
100
AcDbEntity
  8
0
100
AcDbCircle
 62
7
  6
CONTINUOUS
 10
122.506898165
 20
176.4001035395
 40
2.02
100
AcDbArc
 50
24.3178409637
 51
207.6321695996
  0
ARC
  5
473
100
AcDbEntity
  8
0
100
AcDbCircle
 62
7
  6
CONTINUOUS
 10
120.786898165
 20
179.3792309285
 40
2.02
100
AcDbArc
 50
24.3178409637
 51
207.6321695996
  0
ARC
  5
474
100
AcDbEntity
  8
0
100
AcDbCircle
 62
7
  6
CONTINUOUS
 10
122.506898165
 20
176.4001035395
 40
1.42
100
AcDbArc
 50
132.2839645558
 51
218.0967497698
  0
ARC
  5
475
100
AcDbEntity
  8
0
100
AcDbCircle
 62
7
  6
CONTINUOUS
 10
122.506898165
 20
176.4001035395
 40
1.42
100
AcDbArc
 50
21.9032502302
 51
107.7160354442
  0
ARC
  5
476
100
AcDbEntity
  8
0
100
AcDbCircle
 62
7
  6
CONTINUOUS
 10
120.786898165
 20
179.3792309285
 40
1.42
100
AcDbArc
 50
30.9278797274
 51
218.0967497698
  0
ARC
  5
477
100
AcDbEntity
  8
BEZUGSACHSEN
100
AcDbCircle
 62
7
  6
CONTINUOUS
 10
170.400208939
 20
126.9604999727
 40
7.0
100
AcDbArc
 50
0.0
 51
18.3634080603
  0
ARC
  5
478
100
AcDbEntity
  8
0
100
AcDbCircle
 62
7
  6
CONTINUOUS
 10
172.400208939
 20
148.3487786078
 40
50.0
100
AcDbArc
 50
350.0
 51
350.7631786906
  0
ARC
  5
479
100
AcDbEntity
  8
BEZUGSACHSEN
100
AcDbCircle
 62
7
  6
CONTINUOUS
 10
178.0133288205
 20
140.7820905996
 40
3.0
100
AcDbArc
 50
117.0
 51
189.2644682633
  0
ARC
  5
47A
100
AcDbEntity
  8
0
100
AcDbCircle
 62
7
  6
CONTINUOUS
 10
178.400208939
 20
157.8141094303
 40
12.0
100
AcDbArc
 50
340.8598897201
 51
342.8238511412
  0
ARC
  5
47B
100
AcDbEntity
  8
BEZUGSACHSEN
100
AcDbCircle
 62
7
  6
CONTINUOUS
 10
178.400208939
 20
157.8141094303
 40
12.0
100
AcDbArc
 50
297.0000016517
 51
0.000192341
  0
ARC
  5
47C
100
AcDbEntity
  8
0
100
AcDbCircle
 62
7
  6
CONTINUOUS
 10
178.400208939
 20
157.8141094303
 40
12.0
100
AcDbArc
 50
317.2898187154
 51
328.6092220886
  0
ARC
  5
47D
100
AcDbEntity
  8
0
100
AcDbCircle
 62
7
  6
CONTINUOUS
 10
178.400208939
 20
157.8141094303
 40
12.0
100
AcDbArc
 50
328.6453628894
 51
336.7840868714
  0
ARC
  5
47E
100
AcDbEntity
  8
BEZUGSACHSEN
100
AcDbCircle
 62
7
  6
CONTINUOUS
 10
193.400208939
 20
200.5743994811
 40
3.0
100
AcDbArc
 50
90.0
 51
180.0
  0
ARC
  5
47F
100
AcDbEntity
  8
RUNDUNGEN
100
AcDbCircle
 62
7
  6
CONTINUOUS
 10
218.7870890574
 20
140.7820905996
 40
3.0
100
AcDbArc
 50
350.7355317367
 51
63.0
  0
ARC
  5
480
100
AcDbEntity
  8
RUNDUNGEN
100
AcDbCircle
 62
7
  6
CONTINUOUS
 10
218.400208939
 20
157.8141094303
 40
12.0
100
AcDbArc
 50
179.999807659
 51
242.9999983483
  0
ARC
  5
481
100
AcDbEntity
  8
0
100
AcDbCircle
 62
7
  6
CONTINUOUS
 10
218.400208939
 20
157.8141094303
 40
12.0
100
AcDbArc
 50
197.1761488588
 51
199.1401102799
  0
ARC
  5
482
100
AcDbEntity
  8
0
100
AcDbCircle
 62
7
  6
CONTINUOUS
 10
218.400208939
 20
157.8141094303
 40
12.0
100
AcDbArc
 50
203.2159131286
 51
211.3535538224
  0
ARC
  5
483
100
AcDbEntity
  8
0
100
AcDbCircle
 62
7
  6
CONTINUOUS
 10
218.400208939
 20
157.8141094303
 40
12.0
100
AcDbArc
 50
211.3916681431
 51
222.7101812846
  0
ARC
  5
484
100
AcDbEntity
  8
0
100
AcDbCircle
 62
7
  6
CONTINUOUS
 10
226.400208939
 20
126.9604999727
 40
7.0
100
AcDbArc
 50
161.6365919397
 51
180.0
  0
ARC
  5
485
100
AcDbEntity
  8
BEZUGSACHSEN
100
AcDbCircle
 62
7
  6
CONTINUOUS
 10
224.400208939
 20
148.3487786078
 40
50.0
100
AcDbArc
 50
189.2368213094
 51
190.0
  0
ARC
  5
486
100
AcDbEntity
  8
RUNDUNGEN
100
AcDbCircle
 62
7
  6
CONTINUOUS
 10
203.400208939
 20
200.5743994811
 40
3.0
100
AcDbArc
 50
0.0
 51
90.0
  0
ARC
  5
487
100
AcDbEntity
  8
RUNDUNGEN
100
AcDbCircle
 62
7
  6
CONTINUOUS
 10
63.30205316
 20
4.4774981831
 40
18.0
100
AcDbArc
 50
77.6659492002
 51
84.564582506
  0
ARC
  5
488
100
AcDbEntity
  8
RUNDUNGEN
100
AcDbCircle
 62
7
  6
CONTINUOUS
 10
63.30205316
 20
4.4774981831
 40
18.0
100
AcDbArc
 50
57.1223903573
 51
76.5437043516
  0
ARC
  5
489
100
AcDbEntity
  8
RUNDUNGEN
100
AcDbCircle
 62
7
  6
CONTINUOUS
 10
65.294502551
 20
25.3972552836
 40
3.0144809091
100
AcDbArc
 50
255.7172905047
 51
257.7430463582
  0
ARC
  5
48A
100
AcDbEntity
  8
RUNDUNGEN
100
AcDbCircle
 62
7
  6
CONTINUOUS
 10
65.2920298821
 20
25.3845845208
 40
3.0015740459
100
AcDbArc
 50
257.7378227618
 51
264.5548789706
  0
ARC
  5
48B
100
AcDbEntity
  8
RUNDUNGEN
100
AcDbCircle
 62
7
  6
CONTINUOUS
 10
61.9624923327
 20
25.4774981831
 40
3.0
100
AcDbArc
 50
180.0
 51
270.0
  0
ARC
  5
48C
100
AcDbEntity
  8
BEZUGSACHSEN
100
AcDbCircle
 62
7
  6
CONTINUOUS
 10
63.30205316
 20
56.4774981831
 40
18.0
100
AcDbArc
 50
275.435417494
 51
302.8776096427
  0
ARC
  5
48D
100
AcDbEntity
  8
BEZUGSACHSEN
100
AcDbCircle
 62
7
  6
CONTINUOUS
 10
65.294502551
 20
35.5577410827
 40
3.0144809091
100
AcDbArc
 50
102.2569536418
 51
104.2827094953
  0
ARC
  5
48E
100
AcDbEntity
  8
BEZUGSACHSEN
100
AcDbCircle
 62
7
  6
CONTINUOUS
 10
65.2920298821
 20
35.5704118455
 40
3.0015740459
100
AcDbArc
 50
95.4451210294
 51
102.2621772382
  0
ARC
  5
48F
100
AcDbEntity
  8
BEZUGSACHSEN
100
AcDbCircle
 62
7
  6
CONTINUOUS
 10
61.9624923327
 20
35.4774981831
 40
3.0
100
AcDbArc
 50
90.0
 51
180.0
  0
ARC
  5
490
100
AcDbEntity
  8
RUNDUNGEN
100
AcDbCircle
 62
7
  6
CONTINUOUS
 10
129.2717431699
 20
4.4774981831
 40
18.0
100
AcDbArc
 50
95.4353957322
 51
122.8776096427
  0
ARC
  5
491
100
AcDbEntity
  8
RUNDUNGEN
100
AcDbCircle
 62
7
  6
CONTINUOUS
 10
127.2793072151
 20
25.3972610558
 40
3.0144808492
100
AcDbArc
 50
282.2569057753
 51
284.2824670719
  0
ARC
  5
492
100
AcDbEntity
  8
RUNDUNGEN
100
AcDbCircle
 62
7
  6
CONTINUOUS
 10
127.2817801276
 20
25.3845889146
 40
3.0015725872
100
AcDbArc
 50
275.4446644589
 51
282.2621302106
  0
ARC
  5
493
100
AcDbEntity
  8
RUNDUNGEN
100
AcDbCircle
 62
7
  6
CONTINUOUS
 10
130.6113039972
 20
25.4774981831
 40
3.0
100
AcDbArc
 50
270.0
 51
360.0
  0
ARC
  5
494
100
AcDbEntity
  8
0
100
AcDbCircle
 62
7
  6
CONTINUOUS
 10
96.286898165
 20
30.4774981831
 40
23.6236370744
100
AcDbArc
 50
263.1115697294
 51
264.7376625268
  0
ARC
  5
495
100
AcDbEntity
  8
0
100
AcDbCircle
 62
7
  6
CONTINUOUS
 10
96.286898165
 20
30.4774981831
 40
23.4135453778
100
AcDbArc
 50
277.3616020267
 51
279.4230530311
  0
ARC
  5
496
100
AcDbEntity
  8
0
100
AcDbCircle
 62
7
  6
CONTINUOUS
 10
96.286898165
 20
30.4774981831
 40
19.0
100
AcDbArc
 50
206.5767539122
 51
333.4242900192
  0
ARC
  5
497
100
AcDbEntity
  8
0
100
AcDbCircle
 62
7
  6
CONTINUOUS
 10
96.286898165
 20
30.4774981831
 40
19.0
100
AcDbArc
 50
24.9067961549
 51
155.0928031426
  0
ARC
  5
498
100
AcDbEntity
  8
RUNDUNGEN
100
AcDbCircle
 62
7
  6
CONTINUOUS
 10
96.286898165
 20
30.4774981831
 40
18.75
100
AcDbArc
 50
206.9585272949
 51
333.0000361138
  0
ARC
  5
499
100
AcDbEntity
  8
RUNDUNGEN
100
AcDbCircle
 62
7
  6
CONTINUOUS
 10
96.286898165
 20
30.4774981831
 40
18.75
100
AcDbArc
 50
25.2756647683
 51
154.724335236
  0
ARC
  5
49A
100
AcDbEntity
  8
BEZUGSACHSEN
100
AcDbCircle
 62
7
  6
CONTINUOUS
 10
127.2793072151
 20
35.5577353104
 40
3.0144808493
100
AcDbArc
 50
75.7175329281
 51
77.7430942247
  0
ARC
  5
49B
100
AcDbEntity
  8
BEZUGSACHSEN
100
AcDbCircle
 62
7
  6
CONTINUOUS
 10
127.2817801276
 20
35.5704074517
 40
3.0015725872
100
AcDbArc
 50
77.7378697894
 51
84.5553355411
  0
ARC
  5
49C
100
AcDbEntity
  8
BEZUGSACHSEN
100
AcDbCircle
 62
7
  6
CONTINUOUS
 10
130.6113039972
 20
35.4774981831
 40
3.0
100
AcDbArc
 50
0.0
 51
90.0
  0
ARC
  5
49D
100
AcDbEntity
  8
BEZUGSACHSEN
100
AcDbCircle
 62
7
  6
CONTINUOUS
 10
129.2717431699
 20
56.4774981831
 40
18.0
100
AcDbArc
 50
237.1223903573
 51
264.5646042678
  0
SPLINE
  5
49E
100
AcDbEntity
  8
0
100
AcDbSpline
 62
7
  6
CONTINUOUS
 70
0
 71
3
 72
11
 73
7
 74
0
 42
0.0000001
 43
0.0000001
 44
0.0000000001
 40
0.0
 40
0.0
 40
0.0
 40
0.0
 40
0.2525090421
 40
0.4999759041
 40
0.7476025685
 40
1.0
 40
1.0
 40
1.0
 40
1.0
 10
111.6476356205
 20
149.6746230012
 30
0.0
 10
111.4548774505
 20
149.3877858492
 30
0.0
 10
111.032058165
 20
148.8459269067
 30
0.0
 10
110.282565497
 20
148.1435079433
 30
0.0
 10
109.4353218373
 20
147.5637047078
 30
0.0
 10
108.8207172526
 20
147.2578808688
 30
0.0
 10
108.5031159937
 20
147.1220311401
 30
0.0
  0
SPLINE
  5
49F
100
AcDbEntity
  8
0
100
AcDbSpline
 62
7
  6
CONTINUOUS
 70
0
 71
3
 72
11
 73
7
 74
0
 42
0.0000001
 43
0.0000001
 44
0.0000000001
 40
0.0
 40
0.0
 40
0.0
 40
0.0
 40
0.2523973309
 40
0.5000243916
 40
0.7474917918
 40
1.0
 40
1.0
 40
1.0
 40
1.0
 10
84.0706803362
 20
147.1220311401
 30
0.0
 10
83.7530788881
 20
147.2578809498
 30
0.0
 10
83.1384733404
 20
147.5637053038
 30
0.0
 10
82.2912280373
 20
148.1435099965
 30
0.0
 10
81.5417349603
 20
148.8459302816
 30
0.0
 10
81.1189160556
 20
149.3877898417
 30
0.0
 10
80.9261584553
 20
149.6746264155
 30
0.0
  0
SPLINE
  5
4A0
100
AcDbEntity
  8
0
100
AcDbSpline
 62
7
  6
CONTINUOUS
 70
0
 71
3
 72
13
 73
9
 74
0
 42
0.0000001
 43
0.0000001
 44
0.0000000001
 40
0.0
 40
0.0
 40
0.0
 40
0.0
 40
0.0924366648
 40
0.2028443162
 40
0.3242958986
 40
0.4527801495
 40
0.7220436326
 40
1.0
 40
1.0
 40
1.0
 40
1.0
 10
115.0275975558
 20
157.4757899283
 30
0.0
 10
115.0043857148
 20
157.4135101512
 30
0.0
 10
114.9614864792
 20
157.2739371052
 30
0.0
 10
114.9008619733
 20
157.0488106203
 30
0.0
 10
114.8377545684
 20
156.7974945459
 30
0.0
 10
114.7489286829
 20
156.434902687
 30
0.0
 10
114.6331693426
 20
155.9630376462
 30
0.0
 10
114.5343438398
 20
155.5821596184
 30
0.0
 10
114.4822440998
 20
155.389210878
 30
0.0
  0
SPLINE
  5
4A1
100
AcDbEntity
  8
0
100
AcDbSpline
 62
7
  6
CONTINUOUS
 70
0
 71
3
 72
13
 73
9
 74
0
 42
0.0000001
 43
0.0000001
 44
0.0000000001
 40
0.0
 40
0.0
 40
0.0
 40
0.0
 40
0.2779559764
 40
0.5472193345
 40
0.6757036839
 40
0.7971553746
 40
0.9075633063
 40
1.0
 40
1.0
 40
1.0
 40
1.0
 10
78.0915590421
 20
155.3891864366
 30
0.0
 10
78.039458583
 20
155.5821371349
 30
0.0
 10
77.9406315257
 20
155.963019175
 30
0.0
 10
77.824870821
 20
156.4348894783
 30
0.0
 10
77.7360439636
 20
156.7974856954
 30
0.0
 10
77.6729358861
 20
157.048805116
 30
0.0
 10
77.6123106086
 20
157.273934553
 30
0.0
 10
77.5694108622
 20
157.413509479
 30
0.0
 10
77.5461987402
 20
157.4757900108
 30
0.0
  0
SPLINE
  5
4A2
100
AcDbEntity
  8
0
100
AcDbSpline
 62
7
  6
CONTINUOUS
 70
0
 71
3
 72
11
 73
7
 74
0
 42
0.0000001
 43
0.0000001
 44
0.0000000001
 40
0.0
 40
0.0
 40
0.0
 40
0.0
 40
0.2485795374
 40
0.4933667519
 40
0.7415611546
 40
1.0
 40
1.0
 40
1.0
 40
1.0
 10
114.4822440998
 20
155.389210878
 30
0.0
 10
114.3437627623
 20
154.8763833934
 30
0.0
 10
114.0158145911
 20
153.8718292409
 30
0.0
 10
113.3609936116
 20
152.425670202
 30
0.0
 10
112.5580370208
 20
151.0328636143
 30
0.0
 10
111.9556557814
 20
150.1329798761
 30
0.0
 10
111.6476201671
 20
149.6746021156
 30
0.0
  0
SPLINE
  5
4A3
100
AcDbEntity
  8
0
100
AcDbSpline
 62
7
  6
CONTINUOUS
 70
0
 71
3
 72
11
 73
7
 74
0
 42
0.0000001
 43
0.0000001
 44
0.0000000001
 40
0.0
 40
0.0
 40
0.0
 40
0.0
 40
0.2584390684
 40
0.5066335589
 40
0.751420779
 40
1.0
 40
1.0
 40
1.0
 40
1.0
 10
80.9261752931
 20
149.6746036526
 30
0.0
 10
80.6181409161
 20
150.1329800031
 30
0.0
 10
80.0157614618
 20
151.0328602204
 30
0.0
 10
79.2128076865
 20
152.4256613542
 30
0.0
 10
78.5579883268
 20
153.8718131624
 30
0.0
 10
78.2300401073
 20
154.8763619068
 30
0.0
 10
78.0915590421
 20
155.3891864366
 30
0.0
  0
LINE
  5
4A4
100
AcDbEntity
  8
0
100
AcDbLine
 62
7
  6
CONTINUOUS
 10
220.7746876385
 20
133.0117098276
 11
220.6520148516
 21
132.3222020572
  0
LINE
  5
4A5
100
AcDbEntity
  8
0
100
AcDbLine
 62
7
  6
CONTINUOUS
 10
219.3527572975
 20
130.9604999727
 11
219.5081751829
 21
131.8115638202
  0
LINE
  5
4A6
100
AcDbEntity
  8
0
100
AcDbLine
 62
7
  6
CONTINUOUS
 10
221.1762338579
 20
137.0881597703
 11
221.1612179616
 21
137.0030368719
  0
LINE
  5
4A7
100
AcDbEntity
  8
0
100
AcDbLine
 62
7
  6
CONTINUOUS
 10
221.1612179616
 20
137.0030368719
 11
221.1161817982
 21
136.7477338022
  0
LINE
  5
4A8
100
AcDbEntity
  8
0
100
AcDbLine
 62
7
  6
CONTINUOUS
 10
220.0334366122
 20
131.8115638202
 11
219.8782722315
 21
130.9604999727
  0
ELLIPSE
  5
4A9
100
AcDbEntity
  8
0
100
AcDbEllipse
 62
7
  6
CONTINUOUS
 10
96.286898165
 20
154.5367035686
 30
0.0
 11
19.0
 21
-0.0
 31
0.0
 40
0.5095254495
 41
-2.2691515648
 42
-0.8724410887
  0
ELLIPSE
  5
4AA
100
AcDbEntity
  8
0
100
AcDbEllipse
 62
7
  6
CONTINUOUS
 10
198.400208939
 20
142.3952257283
 30
0.0
 11
0.0
 21
24.7447735708
 31
0.0
 40
0.9631600593
 41
4.5313232752
 42
4.5522632646
  0
ELLIPSE
  5
4AB
100
AcDbEntity
  8
0
100
AcDbEllipse
 62
7
  6
CONTINUOUS
 10
198.400208939
 20
158.342507668
 30
0.0
 11
0.0
 21
55.2331565693
 31
0.0
 40
0.4567277024
 41
-2.0718438732
 42
-2.0613330357
  0
ELLIPSE
  5
4AC
100
AcDbEntity
  8
0
100
AcDbEllipse
 62
7
  6
CONTINUOUS
 10
198.400208939
 20
139.0733429038
 30
0.0
 11
23.3447728299
 21
0.0
 31
0.0
 40
0.9102250647
 41
-0.3487750917
 42
-0.1662835564
  0
ELLIPSE
  5
4AD
100
AcDbEntity
  8
0
100
AcDbEllipse
 62
7
  6
CONTINUOUS
 10
198.400208939
 20
146.1085018261
 30
0.0
 11
0.0
 21
38.1201822036
 31
0.0
 40
0.6285126339
 41
-1.8512748441
 42
-1.8443111824
  0
ELLIPSE
  5
4AE
100
AcDbEntity
  8
0
100
AcDbEllipse
 62
7
  6
CONTINUOUS
 10
198.400208939
 20
139.2833161491
 30
0.0
 11
23.5843728536
 21
0.0
 31
0.0
 40
0.5127209228
 41
-0.068979643
 42
-0.0407837753
  0
ELLIPSE
  5
4AF
100
AcDbEntity
  8
0
100
AcDbEllipse
 62
7
  6
CONTINUOUS
 10
198.400208939
 20
138.7121660193
 30
0.0
 11
23.5692265049
 21
-0.0
 31
0.0
 40
0.1702894601
 41
0.0194653975
 42
0.0619128071
  0
ELLIPSE
  5
4B0
100
AcDbEntity
  8
0
100
AcDbEllipse
 62
7
  6
CONTINUOUS
 10
198.400208939
 20
155.1971833155
 30
0.0
 11
0.0
 21
40.5752110623
 31
0.0
 40
0.6285123915
 41
-2.0334312163
 42
-2.0194164141
  0
ELLIPSE
  5
4B1
100
AcDbEntity
  8
0
100
AcDbEllipse
 62
7
  6
CONTINUOUS
 10
198.400208939
 20
142.531564337
 30
0.0
 11
24.0779013683
 21
0.0
 31
0.0
 40
0.6858110723
 41
-0.3033533798
 42
-0.2818221794
  0
ELLIPSE
  5
4B2
100
AcDbEntity
  8
0
100
AcDbEllipse
 62
7
  6
CONTINUOUS
 10
198.400208939
 20
138.8959032003
 30
0.0
 11
23.5969278517
 21
-0.0
 31
0.0
 40
0.2043878871
 41
-0.1996852458
 42
-0.1637999071
  0
ELLIPSE
  5
4B3
100
AcDbEntity
  8
0
100
AcDbEllipse
 62
7
  6
CONTINUOUS
 10
198.400208939
 20
140.4051551874
 30
0.0
 11
23.0665924672
 21
-0.0
 31
0.0
 40
0.9238741304
 41
-0.4150697757
 42
-0.2050061511
  0
ELLIPSE
  5
4B4
100
AcDbEntity
  8
0
100
AcDbEllipse
 62
7
  6
CONTINUOUS
 10
198.400208939
 20
139.460965212
 30
0.0
 11
23.1964897382
 21
-0.0
 31
0.0
 40
0.1459449454
 41
-0.1994276158
 42
-0.1483738086
  0
ELLIPSE
  5
4B5
100
AcDbEntity
  8
0
100
AcDbEllipse
 62
7
  6
CONTINUOUS
 10
198.400208939
 20
141.919642946
 30
0.0
 11
23.5416892055
 21
0.0
 31
0.0
 40
0.5127208303
 41
-0.2915780532
 42
-0.2622564404
  0
ELLIPSE
  5
4B6
100
AcDbEntity
  8
0
100
AcDbEllipse
 62
7
  6
CONTINUOUS
 10
198.400208939
 20
147.7521678546
 30
0.0
 11
-0.0
 21
25.1909407135
 31
0.0
 40
0.9631595699
 41
-1.9782791319
 42
-1.9490217325
  0
ELLIPSE
  5
4B7
100
AcDbEntity
  8
0
100
AcDbEllipse
 62
7
  6
CONTINUOUS
 10
198.400208939
 20
323.136444449
 30
0.0
 11
-0.0
 21
227.0955725348
 31
0.0
 40
0.1697992161
 41
-2.5309000358
 42
-2.52569111
  0
ELLIPSE
  5
4B8
100
AcDbEntity
  8
0
100
AcDbEllipse
 62
7
  6
CONTINUOUS
 10
198.400208939
 20
157.5221026118
 30
0.0
 11
-0.0
 21
53.9005672647
 31
0.0
 40
0.4567284991
 41
-1.9801885358
 42
-1.9664595164
  0
ELLIPSE
  5
4B9
100
AcDbEntity
  8
0
100
AcDbEllipse
 62
7
  6
CONTINUOUS
 10
198.400208939
 20
139.4628720572
 30
0.0
 11
23.7043711305
 21
0.0
 31
0.0
 40
0.1459449454
 41
-0.195660945
 42
-0.1457290974
  0
ELLIPSE
  5
4BA
100
AcDbEntity
  8
0
100
AcDbEllipse
 62
7
  6
CONTINUOUS
 10
198.400208939
 20
141.9431771352
 30
0.0
 11
24.0514731453
 21
0.0
 31
0.0
 40
0.5127208303
 41
-0.2872119703
 42
-0.2585445652
  0
ELLIPSE
  5
4BB
100
AcDbEntity
  8
0
100
AcDbEllipse
 62
7
  6
CONTINUOUS
 10
198.400208939
 20
147.8486708577
 30
0.0
 11
0.0
 21
25.7268345018
 31
0.0
 40
0.9631595699
 41
-1.9733787194
 42
-1.9447846395
  0
ELLIPSE
  5
4BC
100
AcDbEntity
  8
0
100
AcDbEllipse
 62
7
  6
CONTINUOUS
 10
198.400208939
 20
326.2414755483
 30
0.0
 11
0.0
 21
231.4062336035
 31
0.0
 40
0.1697992161
 41
-2.5276934047
 42
-2.5226042393
  0
ELLIPSE
  5
4BD
100
AcDbEntity
  8
0
100
AcDbEllipse
 62
7
  6
CONTINUOUS
 10
198.400208939
 20
137.8051268452
 30
0.0
 11
23.4047193273
 21
0.0
 31
0.0
 40
0.2043879164
 41
0.0280360084
 42
0.0636575715
  0
ELLIPSE
  5
4BE
100
AcDbEntity
  8
0
100
AcDbEllipse
 62
7
  6
CONTINUOUS
 10
198.400208939
 20
138.8472588907
 30
0.0
 11
23.4329574151
 21
0.0
 31
0.0
 40
0.6858110723
 41
-0.0777644583
 42
-0.0565330658
  0
ELLIPSE
  5
4BF
100
AcDbEntity
  8
0
100
AcDbEllipse
 62
7
  6
CONTINUOUS
 10
198.400208939
 20
146.383917865
 30
0.0
 11
-0.0
 21
38.194576969
 31
0.0
 40
0.6285126339
 41
-1.8166444195
 42
-1.8028838872
  0
ELLIPSE
  5
4C0
100
AcDbEntity
  8
0
100
AcDbEllipse
 62
7
  6
CONTINUOUS
 10
198.400208939
 20
157.9512644462
 30
0.0
 11
-0.0
 21
55.0921637285
 31
0.0
 40
0.4567284991
 41
-1.9792952429
 42
-1.9658674175
  0
ELLIPSE
  5
4C1
100
AcDbEntity
  8
0
100
AcDbEllipse
 62
7
  6
CONTINUOUS
 10
198.400208939
 20
140.4815674271
 30
0.0
 11
23.5809984317
 21
-0.0
 31
0.0
 40
0.9238741304
 41
-0.4092969563
 42
-0.2040528705
  0
ELLIPSE
  5
4C2
100
AcDbEntity
  8
0
100
AcDbEllipse
 62
7
  6
CONTINUOUS
 10
61.0551831793
 20
30.4774981831
 30
0.0
 11
48.9115335579
 21
-0.0
 31
0.0
 40
0.6936470227
 41
-0.7616148019
 42
-0.7602701
  0
ELLIPSE
  5
4C3
100
AcDbEntity
  8
0
100
AcDbEllipse
 62
7
  6
CONTINUOUS
 10
91.9237269529
 20
30.4774981831
 30
0.0
 11
24.2292718965
 21
-0.0
 31
0.0
 40
0.9836522403
 41
-1.410670611
 42
-1.3827324548
  0
ELLIPSE
  5
4C4
100
AcDbEntity
  8
0
100
AcDbEllipse
 62
7
  6
CONTINUOUS
 10
94.1547167998
 20
30.4774981831
 30
0.0
 11
23.6805582762
 21
0.0
 31
0.0
 40
0.9959382114
 41
-1.5300125514
 42
-1.5018166838
  0
ELLIPSE
  5
4C5
100
AcDbEntity
  8
0
100
AcDbEllipse
 62
7
  6
CONTINUOUS
 10
95.5791938073
 20
30.4774981831
 30
0.0
 11
23.5798490982
 21
0.0
 31
0.0
 40
0.9995495055
 41
-1.6327091339
 42
-1.5902617243
  0
ELLIPSE
  5
4C6
100
AcDbEntity
  8
0
100
AcDbEllipse
 62
7
  6
CONTINUOUS
 10
96.8969072002
 20
30.4774981831
 30
0.0
 11
23.7122188273
 21
0.0
 31
0.0
 40
0.9996690442
 41
-1.7664572718
 42
-1.7165254242
  0
ELLIPSE
  5
4C7
100
AcDbEntity
  8
0
100
AcDbEllipse
 62
7
  6
CONTINUOUS
 10
98.4613080557
 20
30.4774981831
 30
0.0
 11
24.1495635329
 21
-0.0
 31
0.0
 40
0.9959382128
 41
-1.8580082971
 42
-1.829340892
  0
ELLIPSE
  5
4C8
100
AcDbEntity
  8
0
100
AcDbEllipse
 62
7
  6
CONTINUOUS
 10
100.8232332158
 20
30.4774981831
 30
0.0
 11
25.1908614106
 21
0.0
 31
0.0
 40
0.9836522241
 41
-1.972741528
 42
-1.9447846395
  0
ENDSEC
  0
SECTION
  2
OBJECTS
  0
DICTIONARY
  5
C
100
AcDbDictionary
280
0
281
1
  3
ACAD_GROUP
350
D
  3
ACAD_MLINESTYLE
350
17
  3
ACAD_LAYOUT
350
1A
  3
ACAD_PLOTSETTINGS
350
19
  3
ACAD_PLOTSTYLENAME
350
E
  0
DICTIONARY
  5
D
102
{ACAD_REACTORS
330
C
102
}
100
AcDbDictionary
280
0
281
1
  0
ACDBDICTIONARYWDFLT
  5
E
102
{ACAD_REACTORS
330
C
102
}
100
AcDbDictionary
281
1
  3
Normal
350
F
100
AcDbDictionaryWithDefault
340
F
  0
DICTIONARY
  5
17
102
{ACAD_REACTORS
330
C
102
}
100
AcDbDictionary
280
0
281
1
  3
Standard
350
18
  0
DICTIONARY
  5
19
102
{ACAD_REACTORS
330
C
102
}
100
AcDbDictionary
281
1
  0
DICTIONARY
  5
1A
102
{ACAD_REACTORS
330
C
102
}
100
AcDbDictionary
281
1
  3
Model
350
4C9
  3
Layout1
350
4CA
  0
ACDBPLACEHOLDER
  5
F
102
{ACAD_REACTORS
330
E
102
}
  0
MLINESTYLE
  5
18
102
{ACAD_REACTORS
330
17
102
}
100
AcDbMlineStyle
  2
STANDARD
 70
0
  3

 62
256
 51
90.0
 52
90.0
 71
2
 49
0.5
 62
256
  6
BYLAYER
 49
-0.5
 62
256
  6
BYLAYER
  0
LAYOUT
  5
4C9
102
{ACAD_REACTORS
330
1A
102
}
100
AcDbPlotSettings
  1

  2
none_device
  4
ISO_A4_(297.00_x_210.00_MM)
  6

 40
0.0
 41
0.0
 42
0.0
 43
0.0
 44
297.0
 45
210.0
 46
0.0
 47
0.0
 48
0.0
 49
0.0
140
0.0
141
0.0
142
1.0
143
1.0
 70
1024
 72
1
 73
0
 74
0
  7

 75
0
147
1.0
148
0.0
149
0.0
100
AcDbLayout
  1
Model
 70
0
 71
0
 10
0.0
 20
0.0
 11
297.0
 21
210.0
 12
0.0
 22
0.0
 32
0.0
 14
0.0
 24
0.0
 34
0.0
 15
0.0
 25
0.0
 35
0.0
146
0.0
 13
0.0
 23
0.0
 33
0.0
 16
1.0
 26
0.0
 36
0.0
 17
0.0
 27
1.0
 37
0.0
 76
0
330
208
345
0
346
0
  0
LAYOUT
  5
4CA
102
{ACAD_REACTORS
330
1A
102
}
100
AcDbPlotSettings
  1

  2
none_device
  4
ISO_A4_(297.00_x_210.00_MM)
  6

 40
0.0
 41
0.0
 42
0.0
 43
0.0
 44
297.0
 45
210.0
 46
0.0
 47
0.0
 48
0.0
 49
0.0
140
0.0
141
0.0
142
1.0
143
1.0
 70
0
 72
1
 73
0
 74
0
  7

 75
0
147
1.0
148
0.0
149
0.0
100
AcDbLayout
  1
Layout1
 70
0
 71
1
 10
0.0
 20
0.0
 11
297.0
 21
210.0
 12
0.0
 22
0.0
 32
0.0
 14
0.0
 24
0.0
 34
0.0
 15
0.0
 25
0.0
 35
0.0
146
0.0
 13
0.0
 23
0.0
 33
0.0
 16
1.0
 26
0.0
 36
0.0
 17
0.0
 27
1.0
 37
0.0
 76
0
330
209
345
0
346
0
  0
ENDSEC
  0
EOF
