999
DXF file: 001-m31797-p-10.dxf
999
Pro/ENGINEER 2011490 by Parametric Technology Corporation
  0
SECTION
  2
HEADER
  9
$ACADVER
  1
AC1015
  9
$DWGCODEPAGE
  3
ANSI_1252
  9
$EXTMAX
 10
420.0
 20
297.0
 30
0.0
  9
$EXTMIN
 10
0.0
 20
0.0
 30
0.0
  9
$LIMMIN
 10
0.0
 20
0.0
  9
$LIMMAX
 10
420.0
 20
297.0
  9
$VIEWCTR
 10
210.0
 20
148.5
  9
$VIEWSIZE
 40
297.0
  9
$CLAYER
  8
0
  9
$LTSCALE
 40
23.1
  9
$CELTYPE
  6
BYLAYER
  9
$DIMSCALE
 40
1.0
  9
$DIMASZ
 40
3.5
  9
$DIMEXO
 40
2.625
  9
$DIMDLI
 40
15.96
  9
$DIMEXE
 40
7.56
  9
$DIMCEN
 40
3.78
  9
$DIMLFAC
 40
1.0
  9
$DIMBLK
  1
_FILLED
  9
$DIMTXT
 40
3.5
  9
$DIMTOL
 70
1
  9
$DIMLIM
 70
0
  9
$DIMTFAC
 40
1.0
  9
$DIMTP
 40
0.005
  9
$DIMTM
 40
0.005
  9
$PDMODE
 70
3
  9
$PDSIZE
 40
0.3125
  9
$HANDSEED
  5
4EF
  9
$TILEMODE
 70
1
  9
$MEASUREMENT
 70
1
  9
$INSUNITS
 70
4
  0
ENDSEC
  0
SECTION
  2
CLASSES
  0
CLASS
  1
ACDBDICTIONARYWDFLT
  2
AcDbDictionaryWithDefault
  3
AutoCAD 2000
 90
0
280
0
281
0
  0
CLASS
  1
ACDBPLACEHOLDER
  2
AcDbPlaceHolder
  3
AutoCAD 2000
 90
0
280
0
281
0
  0
CLASS
  1
LAYOUT
  2
AcDbLayout
  3
AutoCAD 2000
 90
0
280
0
281
0
  0
ENDSEC
  0
SECTION
  2
TABLES
  0
TABLE
  2
VPORT
  5
8
100
AcDbSymbolTable
 70
2
  0
VPORT
  5
1F4
100
AcDbSymbolTableRecord
100
AcDbViewportTableRecord
  2
*ACTIVE
 70
0
 10
0.0
 20
0.0
 11
1.0
 21
1.0
 12
210.0
 22
148.5
 13
0.0
 23
0.0
 14
1.0
 24
1.0
 15
0.0
 25
0.0
 16
0.0
 26
0.0
 36
1.0
 17
0.0
 27
0.0
 37
0.0
 40
297.0
 41
1.4141414141
 42
50.0
 43
0.0
 44
0.0
 50
0.0
 51
0.0
 71
0
 72
100
 73
1
 74
1
 75
0
 76
0
 77
0
 78
0
  0
ENDTAB
  0
TABLE
  2
LTYPE
  5
5
100
AcDbSymbolTable
 70
6
  0
LTYPE
  5
14
100
AcDbSymbolTableRecord
100
AcDbLinetypeTableRecord
  2
BYBLOCK
 70
0
  3

 72
65
 73
0
 40
0.0
  0
LTYPE
  5
15
100
AcDbSymbolTableRecord
100
AcDbLinetypeTableRecord
  2
BYLAYER
 70
0
  3

 72
65
 73
0
 40
0.0
  0
LTYPE
  5
16
100
AcDbSymbolTableRecord
100
AcDbLinetypeTableRecord
  2
CONTINUOUS
 70
64
  3
Solid line
 72
65
 73
0
 40
0.0
  0
LTYPE
  5
1F5
100
AcDbSymbolTableRecord
100
AcDbLinetypeTableRecord
  2
CENTER
 70
64
  3
____ _ ____ _ ____ _ ____ _ ____ _ ____ _ ____
 72
65
 73
4
 40
0.6
 49
0.375
 74
0
 49
-0.075
 74
0
 49
0.075
 74
0
 49
-0.075
 74
0
  0
LTYPE
  5
1F6
100
AcDbSymbolTableRecord
100
AcDbLinetypeTableRecord
  2
HIDDEN
 70
64
  3
- - - - - - - - - - - - - - - - - - - -
 72
65
 73
2
 40
0.2
 49
0.1
 74
0
 49
-0.1
 74
0
  0
LTYPE
  5
1F7
100
AcDbSymbolTableRecord
100
AcDbLinetypeTableRecord
  2
PHANTOM
 70
64
  3
_____ _ _ _____ _ _ _____ _ _ _____
 72
65
 73
6
 40
0.8
 49
0.45
 74
0
 49
-0.05
 74
0
 49
0.1
 74
0
 49
-0.05
 74
0
 49
0.1
 74
0
 49
-0.05
 74
0
  0
LTYPE
  5
1F8
100
AcDbSymbolTableRecord
100
AcDbLinetypeTableRecord
  2
DOT
 70
64
  3
. . . . . . . . . . . . . . . . . . . .
 72
65
 73
2
 40
0.2
 49
0.1
 74
0
 49
-0.1
 74
0
  0
LTYPE
  5
1F9
100
AcDbSymbolTableRecord
100
AcDbLinetypeTableRecord
  2
DASHED
 70
64
  3
- - - - - - - - - - - - - - - - - - - -
 72
65
 73
2
 40
0.2
 49
0.1
 74
0
 49
-0.1
 74
0
  0
ENDTAB
  0
TABLE
  2
LAYER
  5
2
100
AcDbSymbolTable
 70
36
  0
LAYER
  5
10
100
AcDbSymbolTableRecord
100
AcDbLayerTableRecord
  2
0
 70
0
 62
7
  6
CONTINUOUS
370
-3
390
F
  0
LAYER
  5
1FA
100
AcDbSymbolTableRecord
100
AcDbLayerTableRecord
  2
DEFAULT_1
 70
0
 62
7
  6
CENTER
370
-3
390
F
  0
LAYER
  5
1FB
100
AcDbSymbolTableRecord
100
AcDbLayerTableRecord
  2
DEFAULT_2
 70
0
 62
8
  6
HIDDEN
370
-3
390
F
  0
LAYER
  5
1FC
100
AcDbSymbolTableRecord
100
AcDbLayerTableRecord
  2
DEFAULT_3
 70
0
 62
7
  6
PHANTOM
370
-3
390
F
  0
LAYER
  5
1FD
100
AcDbSymbolTableRecord
100
AcDbLayerTableRecord
  2
BEZUGSACHSEN
 70
0
 62
7
  6
CONTINUOUS
370
-3
390
F
  0
LAYER
  5
1FE
100
AcDbSymbolTableRecord
100
AcDbLayerTableRecord
  2
BG_STARTBEZUEGE
 70
0
 62
7
  6
CONTINUOUS
370
-3
390
F
  0
LAYER
  5
1FF
100
AcDbSymbolTableRecord
100
AcDbLayerTableRecord
  2
FLAECHEN
 70
0
 62
7
  6
CONTINUOUS
370
-3
390
F
  0
LAYER
  5
200
100
AcDbSymbolTableRecord
100
AcDbLayerTableRecord
  2
HILFEN
 70
0
 62
7
  6
CONTINUOUS
370
-3
390
F
  0
LAYER
  5
201
100
AcDbSymbolTableRecord
100
AcDbLayerTableRecord
  2
KURVEN
 70
0
 62
7
  6
CONTINUOUS
370
-3
390
F
  0
LAYER
  5
202
100
AcDbSymbolTableRecord
100
AcDbLayerTableRecord
  2
NORM
 70
0
 62
7
  6
CONTINUOUS
370
-3
390
F
  0
LAYER
  5
203
100
AcDbSymbolTableRecord
100
AcDbLayerTableRecord
  2
PLATZIERUNG
 70
0
 62
7
  6
CONTINUOUS
370
-3
390
F
  0
LAYER
  5
204
100
AcDbSymbolTableRecord
100
AcDbLayerTableRecord
  2
RUNDUNGEN
 70
0
 62
7
  6
CONTINUOUS
370
-3
390
F
  0
LAYER
  5
205
100
AcDbSymbolTableRecord
100
AcDbLayerTableRecord
  2
T_STARTBEZUEGE
 70
0
 62
7
  6
CONTINUOUS
370
-3
390
F
  0
ENDTAB
  0
TABLE
  2
STYLE
  5
3
100
AcDbSymbolTable
 70
1
  0
STYLE
  5
11
100
AcDbSymbolTableRecord
100
AcDbTextStyleTableRecord
  2
STANDARD
 70
0
 40
0.0
 41
0.7
 50
0.0
 71
0
 42
0.2
  3
txt
  4

  0
STYLE
  5
206
100
AcDbSymbolTableRecord
100
AcDbTextStyleTableRecord
  2
TEXTSTYLE_1
 70
0
 40
0.0
 41
0.8
 50
0.0
 71
0
 42
0.2
  3
gdt
  4

  0
ENDTAB
  0
TABLE
  2
VIEW
  5
6
100
AcDbSymbolTable
 70
0
  0
ENDTAB
  0
TABLE
  2
UCS
  5
7
100
AcDbSymbolTable
 70
0
  0
ENDTAB
  0
TABLE
  2
APPID
  5
9
100
AcDbSymbolTable
 70
1
  0
APPID
  5
207
100
AcDbSymbolTableRecord
100
AcDbRegAppTableRecord
  2
ACAD
 70
0
  0
ENDTAB
  0
TABLE
  2
BLOCK_RECORD
  5
1
100
AcDbSymbolTable
 70
0
  0
BLOCK_RECORD
  5
208
100
AcDbSymbolTableRecord
100
AcDbBlockTableRecord
  2
*Model_Space
  0
BLOCK_RECORD
  5
209
100
AcDbSymbolTableRecord
100
AcDbBlockTableRecord
  2
*Paper_Space
  0
ENDTAB
  0
TABLE
  2
DIMSTYLE
  5
A
100
AcDbSymbolTable
 70
1
100
AcDbDimStyleTable
 71
0
  0
DIMSTYLE
105
20A
100
AcDbSymbolTableRecord
100
AcDbDimStyleTableRecord
  2
STANDARD
 70
0
  3

  4

 40
1.0
 41
3.5
 42
0.0625
 43
0.38
 44
0.18
 45
0.0
 46
0.0
 47
0.005
 48
0.005
140
3.5
141
0.09
142
0.0
143
25.4
144
1.0
145
0.0
146
1.0
147
0.09
 71
1.0
 72
0.0
 73
0
 74
0
 75
0
 76
0
 77
1
 78
8
170
0
171
2
172
0
173
0
174
0
175
0
176
0
177
0
178
5
270
2
271
3
272
3
273
2
274
2
275
0
280
0
281
0
282
0
283
1
284
8
285
0
286
0
287
3
288
0
340
11
  0
ENDTAB
  0
ENDSEC
  0
SECTION
  2
BLOCKS
  0
BLOCK
  5
20
100
AcDbEntity
  8
0
100
AcDbBlockBegin
  2
*Model_Space
 70
0
 10
0.0
 20
0.0
 30
0.0
  3
*Model_Space
  1

  0
ENDBLK
  5
21
100
AcDbEntity
  8
0
100
AcDbBlockEnd
  0
BLOCK
  5
1C
100
AcDbEntity
  8
0
100
AcDbBlockBegin
  2
*Paper_Space
 70
0
 10
0.0
 20
0.0
 30
0.0
  3
*Paper_Space
  1

  0
ENDBLK
  5
1D
100
AcDbEntity
  8
0
100
AcDbBlockEnd
  0
ENDSEC
  0
SECTION
  2
ENTITIES
  0
MTEXT
  5
20B
100
AcDbEntity
  8
0
100
AcDbMText
 62
5
  6
CONTINUOUS
  7
STANDARD
 71
1
 72
1
 10
284.1616371258
 20
196.0188072143
 30
0.0
 11
0.0
 21
1.0
 31
0.0
 44
0.9
  1
INOX STAR 2,5t RUD
 40
4.5
 41
63.1071428571
  0
MTEXT
  5
20C
100
AcDbEntity
  8
0
100
AcDbMText
 62
5
  6
CONTINUOUS
  7
STANDARD
 71
1
 72
1
 10
116.6031634774
 20
66.9129472598
 30
0.0
 11
1.0
 21
0.0
 31
0.0
 44
0.9
  1
INOX STAR 2,5t RUD
 40
4.5
 41
63.1071428571
  0
LINE
  5
20D
100
AcDbEntity
  8
0
100
AcDbLine
 62
7
  6
CONTINUOUS
 10
0.0
 20
0.0
 11
0.0
 21
297.0
  0
LINE
  5
20E
100
AcDbEntity
  8
0
100
AcDbLine
 62
7
  6
CONTINUOUS
 10
0.0
 20
0.0
 11
420.0
 21
0.0
  0
LINE
  5
20F
100
AcDbEntity
  8
0
100
AcDbLine
 62
7
  6
CONTINUOUS
 10
0.0
 20
297.0
 11
420.0
 21
297.0
  0
LINE
  5
210
100
AcDbEntity
  8
0
100
AcDbLine
 62
7
  6
CONTINUOUS
 10
420.0
 20
0.0
 11
420.0
 21
297.0
  0
LINE
  5
211
100
AcDbEntity
  8
0
100
AcDbLine
 62
7
  6
CONTINUOUS
 10
157.8046420785
 20
134.7966034535
 11
137.8046420785
 21
134.7966034535
  0
LINE
  5
212
100
AcDbEntity
  8
0
100
AcDbLine
 62
7
  6
CONTINUOUS
 10
159.8046420785
 20
136.7966034535
 11
135.8046420785
 21
136.7966034535
  0
LINE
  5
213
100
AcDbEntity
  8
0
100
AcDbLine
 62
7
  6
CONTINUOUS
 10
133.1043838791
 20
251.4977051736
 11
132.3414167976
 21
251.1625554371
  0
LINE
  5
214
100
AcDbEntity
  8
0
100
AcDbLine
 62
7
  6
CONTINUOUS
 10
135.8046420785
 20
136.7966034535
 11
137.8046420785
 21
134.7966034535
  0
LINE
  5
215
100
AcDbEntity
  8
0
100
AcDbLine
 62
7
  6
CONTINUOUS
 10
118.6188904552
 20
240.5468797462
 11
117.0706822583
 21
238.5839606498
  0
LINE
  5
216
100
AcDbEntity
  8
0
100
AcDbLine
 62
7
  6
CONTINUOUS
 10
117.9589050809
 20
238.6794032718
 11
119.1200612286
 21
240.1515925941
  0
LINE
  5
217
100
AcDbEntity
  8
0
100
AcDbLine
 62
7
  6
CONTINUOUS
 10
119.0249625379
 20
240.8899403446
 11
118.6188904552
 21
240.5468797462
  0
LINE
  5
218
100
AcDbEntity
  8
0
100
AcDbLine
 62
7
  6
CONTINUOUS
 10
124.8484662024
 20
246.6506359853
 11
124.3574547826
 21
246.2639412922
  0
LINE
  5
219
100
AcDbEntity
  8
0
100
AcDbLine
 62
7
  6
CONTINUOUS
 10
132.259428529
 20
250.313179997
 11
132.5981272647
 21
250.5781550497
  0
LINE
  5
21A
100
AcDbEntity
  8
0
100
AcDbLine
 62
7
  6
CONTINUOUS
 10
119.1200612286
 20
240.1515925941
 11
119.4616241442
 21
240.4128642728
  0
LINE
  5
21B
100
AcDbEntity
  8
0
100
AcDbLine
 62
7
  6
CONTINUOUS
 10
132.3414167976
 20
251.1625554371
 11
131.9073475178
 21
250.8556868171
  0
LINE
  5
21C
100
AcDbEntity
  8
0
100
AcDbLine
 62
7
  6
CONTINUOUS
 10
129.3962555088
 20
249.7337624901
 11
128.8693073773
 21
249.3976811507
  0
LINE
  5
21D
100
AcDbEntity
  8
0
100
AcDbLine
 62
7
  6
CONTINUOUS
 10
126.6736901207
 20
247.9973422099
 11
125.8832679234
 21
247.4932202009
  0
LINE
  5
21E
100
AcDbEntity
  8
0
100
AcDbLine
 62
7
  6
CONTINUOUS
 10
119.4500539157
 20
241.0853308313
 11
119.0249625379
 21
240.8899403446
  0
LINE
  5
21F
100
AcDbEntity
  8
0
100
AcDbLine
 62
7
  6
CONTINUOUS
 10
132.5981272647
 20
250.5781550497
 11
133.3610943462
 21
250.9133047862
  0
LINE
  5
220
100
AcDbEntity
  8
0
100
AcDbLine
 62
7
  6
CONTINUOUS
 10
134.8585722807
 20
247.504302049
 11
134.0956051992
 21
247.1691523124
  0
LINE
  5
221
100
AcDbEntity
  8
0
100
AcDbLine
 62
7
  6
CONTINUOUS
 10
134.3523156963
 20
246.5847518568
 11
135.1152827778
 21
246.9199015934
  0
LINE
  5
222
100
AcDbEntity
  8
0
100
AcDbLine
 62
7
  6
CONTINUOUS
 10
113.1179327664
 20
231.2568090766
 11
112.1995468697
 21
228.9316064306
  0
LINE
  5
223
100
AcDbEntity
  8
0
100
AcDbLine
 62
7
  6
CONTINUOUS
 10
112.9238672521
 20
229.3175058608
 11
113.6509227172
 21
231.1582911964
  0
LINE
  5
224
100
AcDbEntity
  8
0
100
AcDbLine
 62
7
  6
CONTINUOUS
 10
116.201051213
 20
237.2692123129
 11
115.8902876356
 21
236.7269476184
  0
LINE
  5
225
100
AcDbEntity
  8
0
100
AcDbLine
 62
7
  6
CONTINUOUS
 10
114.6472333258
 20
234.5578888403
 11
114.3364696002
 21
234.0156238872
  0
LINE
  5
226
100
AcDbEntity
  8
0
100
AcDbLine
 62
7
  6
CONTINUOUS
 10
113.4082079797
 20
231.7021461406
 11
113.1179327664
 21
231.2568090766
  0
LINE
  5
227
100
AcDbEntity
  8
0
100
AcDbLine
 62
7
  6
CONTINUOUS
 10
122.0435578161
 20
237.8457505506
 11
120.8824016684
 21
236.3735612283
  0
LINE
  5
228
100
AcDbEntity
  8
0
100
AcDbLine
 62
7
  6
CONTINUOUS
 10
120.996520451
 20
235.4875442559
 11
122.544728648
 21
237.4504633523
  0
LINE
  5
229
100
AcDbEntity
  8
0
100
AcDbLine
 62
7
  6
CONTINUOUS
 10
131.9073475178
 20
250.8556868171
 11
131.6114338599
 21
250.4933116999
  0
LINE
  5
22A
100
AcDbEntity
  8
0
100
AcDbLine
 62
7
  6
CONTINUOUS
 10
113.6509227172
 20
231.1582911964
 11
113.864665736
 21
231.4098612809
  0
LINE
  5
22B
100
AcDbEntity
  8
0
100
AcDbLine
 62
7
  6
CONTINUOUS
 10
119.1520200605
 20
232.5765632202
 11
119.5032899802
 21
232.9755543669
  0
LINE
  5
22C
100
AcDbEntity
  8
0
100
AcDbLine
 62
7
  6
CONTINUOUS
 10
118.9494877404
 20
233.2929299345
 11
118.6500118571
 21
232.9843164047
  0
LINE
  5
22D
100
AcDbEntity
  8
0
100
AcDbLine
 62
7
  6
CONTINUOUS
 10
127.4510123274
 20
242.3358499342
 11
127.9420237472
 21
242.7225446273
  0
LINE
  5
22E
100
AcDbEntity
  8
0
100
AcDbLine
 62
7
  6
CONTINUOUS
 10
135.1972710164
 20
247.7692771017
 11
134.8585722807
 21
247.504302049
  0
LINE
  5
22F
100
AcDbEntity
  8
0
100
AcDbLine
 62
7
  6
CONTINUOUS
 10
135.1152827778
 20
246.9199015934
 11
135.5493525996
 21
247.2267704616
  0
LINE
  5
230
100
AcDbEntity
  8
0
100
AcDbLine
 62
7
  6
CONTINUOUS
 10
118.7602434941
 20
232.3208451089
 11
119.1520200605
 21
232.5765632202
  0
LINE
  5
231
100
AcDbEntity
  8
0
100
AcDbLine
 62
7
  6
CONTINUOUS
 10
128.5719186384
 20
243.2776351486
 11
129.0988667699
 21
243.613716488
  0
LINE
  5
232
100
AcDbEntity
  8
0
100
AcDbLine
 62
7
  6
CONTINUOUS
 10
131.2944840265
 20
245.0140554288
 11
132.0849062238
 21
245.5181774378
  0
LINE
  5
233
100
AcDbEntity
  8
0
100
AcDbLine
 62
7
  6
CONTINUOUS
 10
113.8581066043
 20
231.9724390837
 11
113.4082079797
 21
231.7021461406
  0
LINE
  5
234
100
AcDbEntity
  8
0
100
AcDbLine
 62
7
  6
CONTINUOUS
 10
118.6500118571
 20
232.9843164047
 11
118.3100292787
 21
232.818975938
  0
LINE
  5
235
100
AcDbEntity
  8
0
100
AcDbLine
 62
7
  6
CONTINUOUS
 10
113.864665736
 20
231.4098612809
 11
114.1390874938
 21
231.5254677679
  0
LINE
  5
236
100
AcDbEntity
  8
0
100
AcDbLine
 62
7
  6
CONTINUOUS
 10
154.6272118361
 20
252.9075308521
 11
154.9774811375
 21
253.0497878551
  0
LINE
  5
237
100
AcDbEntity
  8
0
100
AcDbLine
 62
7
  6
CONTINUOUS
 10
155.9130062849
 20
249.4750804585
 11
155.5627370406
 21
249.332823367
  0
LINE
  5
238
100
AcDbEntity
  8
0
100
AcDbLine
 62
7
  6
CONTINUOUS
 10
119.4616241442
 20
240.4128642728
 11
119.8222070933
 21
240.5264667758
  0
LINE
  5
239
100
AcDbEntity
  8
0
100
AcDbLine
 62
7
  6
CONTINUOUS
 10
119.7104657973
 20
233.3370643356
 11
119.8771349758
 21
233.8418473351
  0
LINE
  5
23A
100
AcDbEntity
  8
0
100
AcDbLine
 62
7
  6
CONTINUOUS
 10
115.1350947191
 20
230.5720873929
 11
114.408039254
 21
228.7313020573
  0
LINE
  5
23B
100
AcDbEntity
  8
0
100
AcDbLine
 62
7
  6
CONTINUOUS
 10
115.0017079439
 20
228.4968205797
 11
115.6522312692
 21
230.1438390744
  0
LINE
  5
23C
100
AcDbEntity
  8
0
100
AcDbLine
 62
7
  6
CONTINUOUS
 10
116.8499521616
 20
227.0948346371
 11
117.0795486357
 21
227.6761352986
  0
LINE
  5
23D
100
AcDbEntity
  8
0
100
AcDbLine
 62
7
  6
CONTINUOUS
 10
118.036200575
 20
230.0982212957
 11
118.3040632012
 21
230.7764055856
  0
LINE
  5
23E
100
AcDbEntity
  8
0
100
AcDbLine
 62
7
  6
CONTINUOUS
 10
122.2180638073
 20
238.2387846133
 11
122.0435578161
 21
237.8457505506
  0
LINE
  5
23F
100
AcDbEntity
  8
0
100
AcDbLine
 62
7
  6
CONTINUOUS
 10
122.544728648
 20
237.4504633523
 11
122.7837437989
 21
237.9252863405
  0
LINE
  5
240
100
AcDbEntity
  8
0
100
AcDbLine
 62
7
  6
CONTINUOUS
 10
119.1566635575
 20
233.6544399033
 11
118.9494877404
 21
233.2929299345
  0
LINE
  5
241
100
AcDbEntity
  8
0
100
AcDbLine
 62
7
  6
CONTINUOUS
 10
119.5032899802
 20
232.9755543669
 11
119.7104657973
 21
233.3370643356
  0
LINE
  5
242
100
AcDbEntity
  8
0
100
AcDbLine
 62
7
  6
CONTINUOUS
 10
132.0588859609
 20
249.9926986867
 11
132.259428529
 21
250.313179997
  0
LINE
  5
243
100
AcDbEntity
  8
0
100
AcDbLine
 62
7
  6
CONTINUOUS
 10
135.5493525996
 20
247.2267704616
 11
135.8452657005
 21
247.5891453647
  0
LINE
  5
244
100
AcDbEntity
  8
0
100
AcDbLine
 62
7
  6
CONTINUOUS
 10
154.5578326809
 20
253.5753731738
 11
154.0609645551
 21
253.247027998
  0
LINE
  5
245
100
AcDbEntity
  8
0
100
AcDbLine
 62
7
  6
CONTINUOUS
 10
115.1509481746
 20
230.9018179699
 11
115.1350947191
 21
230.5720873929
  0
LINE
  5
246
100
AcDbEntity
  8
0
100
AcDbLine
 62
7
  6
CONTINUOUS
 10
122.7837437989
 20
237.9252863405
 11
122.8747213059
 21
238.3842016126
  0
LINE
  5
247
100
AcDbEntity
  8
0
100
AcDbLine
 62
7
  6
CONTINUOUS
 10
119.271539012
 20
234.0688457938
 11
119.1566635575
 21
233.6544399033
  0
LINE
  5
248
100
AcDbEntity
  8
0
100
AcDbLine
 62
7
  6
CONTINUOUS
 10
131.6114338599
 20
250.4933116999
 11
131.4010903577
 21
249.9361364535
  0
LINE
  5
249
100
AcDbEntity
  8
0
100
AcDbLine
 62
7
  6
CONTINUOUS
 10
135.3978135545
 20
248.0897584802
 11
135.1972710164
 21
247.7692771017
  0
LINE
  5
24A
100
AcDbEntity
  8
0
100
AcDbLine
 62
7
  6
CONTINUOUS
 10
155.9823852709
 20
248.8072380589
 11
156.4792535866
 21
249.135583232
  0
LINE
  5
24B
100
AcDbEntity
  8
0
100
AcDbLine
 62
7
  6
CONTINUOUS
 10
170.4891353051
 20
243.8989486677
 11
170.9967766814
 21
244.0439791835
  0
LINE
  5
24C
100
AcDbEntity
  8
BEZUGSACHSEN
100
AcDbLine
 62
7
  6
CONTINUOUS
 10
117.7659657949
 20
181.6951808231
 11
113.471021693
 21
190.9057181726
  0
LINE
  5
24D
100
AcDbEntity
  8
RUNDUNGEN
100
AcDbLine
 62
7
  6
CONTINUOUS
 10
117.1089432841
 20
183.1041701444
 11
102.0314707415
 21
215.4379143556
  0
LINE
  5
24E
100
AcDbEntity
  8
0
100
AcDbLine
 62
7
  6
CONTINUOUS
 10
115.6839382349
 20
230.803300367
 11
115.6391129512
 21
231.2689945414
  0
LINE
  5
24F
100
AcDbEntity
  8
0
100
AcDbLine
 62
7
  6
CONTINUOUS
 10
119.8771349758
 20
233.8418473351
 11
119.8997100435
 21
234.3091491612
  0
LINE
  5
250
100
AcDbEntity
  8
0
100
AcDbLine
 62
7
  6
CONTINUOUS
 10
122.2445328489
 20
238.6159119305
 11
122.2180638073
 21
238.2387846133
  0
LINE
  5
251
100
AcDbEntity
  8
0
100
AcDbLine
 62
7
  6
CONTINUOUS
 10
138.4894524602
 20
250.7908504809
 11
137.4346603972
 21
247.8681722002
  0
LINE
  5
252
100
AcDbEntity
  8
0
100
AcDbLine
 62
7
  6
CONTINUOUS
 10
135.8452657005
 20
247.5891453647
 11
136.0556091877
 21
248.1463206452
  0
LINE
  5
253
100
AcDbEntity
  8
0
100
AcDbLine
 62
7
  6
CONTINUOUS
 10
139.5715998336
 20
253.6107230104
 11
138.6820286577
 21
251.2824275609
  0
LINE
  5
254
100
AcDbEntity
  8
0
100
AcDbLine
 62
7
  6
CONTINUOUS
 10
138.0386460579
 20
248.028877899
 11
138.9282160818
 21
250.357173042
  0
LINE
  5
255
100
AcDbEntity
  8
0
100
AcDbLine
 62
7
  6
CONTINUOUS
 10
139.093438121
 20
250.9515561797
 11
140.1755854943
 21
253.7714287092
  0
LINE
  5
256
100
AcDbEntity
  8
0
100
AcDbLine
 62
7
  6
CONTINUOUS
 10
156.1838220041
 20
249.7432549547
 11
155.9130062849
 21
249.4750804585
  0
LINE
  5
257
100
AcDbEntity
  8
0
100
AcDbLine
 62
7
  6
CONTINUOUS
 10
164.3046420785
 20
170.7966034535
 11
131.3046420785
 21
170.7966034535
  0
LINE
  5
258
100
AcDbEntity
  8
BEZUGSACHSEN
100
AcDbLine
 62
7
  6
CONTINUOUS
 10
122.8046420785
 20
170.9966034535
 11
172.8046420785
 21
170.9966034535
  0
LINE
  5
259
100
AcDbEntity
  8
0
100
AcDbLine
 62
7
  6
CONTINUOUS
 10
119.242320011
 20
234.4457700216
 11
119.271539012
 21
234.0688457938
  0
LINE
  5
25A
100
AcDbEntity
  8
0
100
AcDbLine
 62
7
  6
CONTINUOUS
 10
131.9964996804
 20
249.6167108459
 11
132.0588859609
 21
249.9926986867
  0
LINE
  5
25B
100
AcDbEntity
  8
0
100
AcDbLine
 62
7
  6
CONTINUOUS
 10
154.458231056
 20
252.6174405306
 11
154.6272118361
 21
252.9075308521
  0
LINE
  5
25C
100
AcDbEntity
  8
0
100
AcDbLine
 62
7
  6
CONTINUOUS
 10
156.4792535866
 20
249.135583232
 11
156.7724511782
 21
249.5077596661
  0
LINE
  5
25D
100
AcDbEntity
  8
0
100
AcDbLine
 62
7
  6
CONTINUOUS
 10
163.6360792743
 20
247.3286003525
 11
165.8533049817
 21
249.3811978614
  0
LINE
  5
25E
100
AcDbEntity
  8
0
100
AcDbLine
 62
7
  6
CONTINUOUS
 10
162.3524973578
 20
246.0953430296
 11
163.3379316755
 21
247.0076081588
  0
LINE
  5
25F
100
AcDbEntity
  8
0
100
AcDbLine
 62
7
  6
CONTINUOUS
 10
165.6965047069
 20
249.9557427432
 11
161.8065595971
 21
246.3996064293
  0
LINE
  5
260
100
AcDbEntity
  8
0
100
AcDbLine
 62
7
  6
CONTINUOUS
 10
170.8456264974
 20
244.6993397884
 11
170.5678311164
 21
244.5108282358
  0
LINE
  5
261
100
AcDbEntity
  8
0
100
AcDbLine
 62
7
  6
CONTINUOUS
 10
170.9967766814
 20
244.0439791835
 11
171.2745720624
 21
244.2324907361
  0
LINE
  5
262
100
AcDbEntity
  8
0
100
AcDbLine
 62
7
  6
CONTINUOUS
 10
152.4921427937
 20
178.2731991951
 11
151.6588090631
 21
178.060433263
  0
LINE
  5
263
100
AcDbEntity
  8
0
100
AcDbLine
 62
7
  6
CONTINUOUS
 10
151.6588090631
 20
176.9966034535
 11
152.7004753324
 21
177.2093694043
  0
LINE
  5
264
100
AcDbEntity
  8
0
100
AcDbLine
 62
7
  6
CONTINUOUS
 10
143.3254759284
 20
175.720007712
 11
144.3671427937
 21
175.720007712
  0
LINE
  5
265
100
AcDbEntity
  8
0
100
AcDbLine
 62
7
  6
CONTINUOUS
 10
134.1588090631
 20
176.9966034535
 11
141.6588090631
 21
176.9966034535
  0
LINE
  5
266
100
AcDbEntity
  8
0
100
AcDbLine
 62
7
  6
CONTINUOUS
 10
150.4088090631
 20
176.9966034535
 11
151.6588090631
 21
176.9966034535
  0
LINE
  5
267
100
AcDbEntity
  8
0
100
AcDbLine
 62
7
  6
CONTINUOUS
 10
151.6588090631
 20
178.060433263
 11
150.4088090631
 21
178.060433263
  0
LINE
  5
268
100
AcDbEntity
  8
0
100
AcDbLine
 62
7
  6
CONTINUOUS
 10
145.6171427937
 20
178.060433263
 11
144.5754753324
 21
178.060433263
  0
LINE
  5
269
100
AcDbEntity
  8
0
100
AcDbLine
 62
7
  6
CONTINUOUS
 10
141.6588090631
 20
178.060433263
 11
135.8254757794
 21
178.060433263
  0
LINE
  5
26A
100
AcDbEntity
  8
0
100
AcDbLine
 62
7
  6
CONTINUOUS
 10
149.3671427937
 20
177.2093694043
 11
150.4088090631
 21
176.9966034535
  0
LINE
  5
26B
100
AcDbEntity
  8
0
100
AcDbLine
 62
7
  6
CONTINUOUS
 10
150.4088090631
 20
178.060433263
 11
149.5754753324
 21
178.2731991951
  0
LINE
  5
26C
100
AcDbEntity
  8
0
100
AcDbLine
 62
7
  6
CONTINUOUS
 10
131.3046420785
 20
170.9966034535
 11
131.3046420785
 21
170.7966034535
  0
LINE
  5
26D
100
AcDbEntity
  8
0
100
AcDbLine
 62
7
  6
CONTINUOUS
 10
131.4010903577
 20
249.9361364535
 11
131.3814890351
 21
249.462748821
  0
LINE
  5
26E
100
AcDbEntity
  8
0
100
AcDbLine
 62
7
  6
CONTINUOUS
 10
135.4601999549
 20
248.4657460481
 11
135.3978135545
 21
248.0897584802
  0
LINE
  5
26F
100
AcDbEntity
  8
0
100
AcDbLine
 62
7
  6
CONTINUOUS
 10
154.0609645551
 20
253.247027998
 11
153.8696019446
 21
252.8529361105
  0
LINE
  5
270
100
AcDbEntity
  8
0
100
AcDbLine
 62
7
  6
CONTINUOUS
 10
149.5754753324
 20
182.1029864196
 11
150.4088090631
 21
182.3157523517
  0
LINE
  5
271
100
AcDbEntity
  8
0
100
AcDbLine
 62
7
  6
CONTINUOUS
 10
150.4088090631
 20
183.3795820121
 11
149.3671427937
 21
183.16681608
  0
LINE
  5
272
100
AcDbEntity
  8
0
100
AcDbLine
 62
7
  6
CONTINUOUS
 10
148.5338090631
 20
179.5497949366
 11
147.2838090631
 21
179.5497949366
  0
LINE
  5
273
100
AcDbEntity
  8
0
100
AcDbLine
 62
7
  6
CONTINUOUS
 10
147.2838090631
 20
181.4646886233
 11
148.7421427937
 21
181.4646886233
  0
LINE
  5
274
100
AcDbEntity
  8
0
100
AcDbLine
 62
7
  6
CONTINUOUS
 10
150.4088090631
 20
182.3157523517
 11
151.6588090631
 21
182.3157523517
  0
LINE
  5
275
100
AcDbEntity
  8
0
100
AcDbLine
 62
7
  6
CONTINUOUS
 10
156.4504765244
 20
182.9540501479
 11
158.1171416017
 21
182.9540501479
  0
LINE
  5
276
100
AcDbEntity
  8
0
100
AcDbLine
 62
7
  6
CONTINUOUS
 10
159.1588090631
 20
182.9540501479
 11
161.4504765244
 21
182.9540501479
  0
LINE
  5
277
100
AcDbEntity
  8
0
100
AcDbLine
 62
7
  6
CONTINUOUS
 10
151.6588090631
 20
183.3795820121
 11
150.4088090631
 21
183.3795820121
  0
LINE
  5
278
100
AcDbEntity
  8
0
100
AcDbLine
 62
7
  6
CONTINUOUS
 10
161.4504765244
 20
183.8051138762
 11
159.1588090631
 21
183.8051138762
  0
LINE
  5
279
100
AcDbEntity
  8
0
100
AcDbLine
 62
7
  6
CONTINUOUS
 10
158.1171416017
 20
183.8051138762
 11
156.4504765244
 21
183.8051138762
  0
LINE
  5
27A
100
AcDbEntity
  8
0
100
AcDbLine
 62
7
  6
CONTINUOUS
 10
134.3671424026
 20
184.6561782006
 11
135.4088090631
 21
184.6561782006
  0
LINE
  5
27B
100
AcDbEntity
  8
0
100
AcDbLine
 62
7
  6
CONTINUOUS
 10
159.7838090631
 20
177.2093694043
 11
161.0338090631
 21
176.9966034535
  0
LINE
  5
27C
100
AcDbEntity
  8
0
100
AcDbLine
 62
7
  6
CONTINUOUS
 10
161.0338090631
 20
177.8476672564
 11
159.9921416017
 21
178.060433263
  0
LINE
  5
27D
100
AcDbEntity
  8
0
100
AcDbLine
 62
7
  6
CONTINUOUS
 10
138.3254756304
 20
185.9327737931
 11
139.3671421977
 21
185.720007861
  0
LINE
  5
27E
100
AcDbEntity
  8
0
100
AcDbLine
 62
7
  6
CONTINUOUS
 10
152.7004753324
 20
183.16681608
 11
151.6588090631
 21
183.3795820121
  0
LINE
  5
27F
100
AcDbEntity
  8
0
100
AcDbLine
 62
7
  6
CONTINUOUS
 10
151.6588090631
 20
182.3157523517
 11
152.4921427937
 21
182.1029864196
  0
LINE
  5
280
100
AcDbEntity
  8
0
100
AcDbLine
 62
7
  6
CONTINUOUS
 10
159.1588090631
 20
177.422135355
 11
159.7838090631
 21
177.2093694043
  0
LINE
  5
281
100
AcDbEntity
  8
0
100
AcDbLine
 62
7
  6
CONTINUOUS
 10
140.6171421977
 20
186.3583056573
 11
139.7838090631
 21
186.7838375215
  0
LINE
  5
282
100
AcDbEntity
  8
0
100
AcDbLine
 62
7
  6
CONTINUOUS
 10
148.3254753324
 20
177.8476672564
 11
149.3671427937
 21
177.2093694043
  0
LINE
  5
283
100
AcDbEntity
  8
0
100
AcDbLine
 62
7
  6
CONTINUOUS
 10
149.5754753324
 20
178.2731991951
 11
148.9504753324
 21
178.6987310592
  0
LINE
  5
284
100
AcDbEntity
  8
0
100
AcDbLine
 62
7
  6
CONTINUOUS
 10
139.3671421977
 20
185.720007861
 11
139.9921421977
 21
185.2944759969
  0
LINE
  5
285
100
AcDbEntity
  8
0
100
AcDbLine
 62
7
  6
CONTINUOUS
 10
115.0295908059
 20
231.173745442
 11
115.1509481746
 21
230.9018179699
  0
LINE
  5
286
100
AcDbEntity
  8
0
100
AcDbLine
 62
7
  6
CONTINUOUS
 10
119.8997100435
 20
234.3091491612
 11
119.7376843782
 21
234.8822428356
  0
LINE
  5
287
100
AcDbEntity
  8
0
100
AcDbLine
 62
7
  6
CONTINUOUS
 10
122.8747213059
 20
238.3842016126
 11
122.7986418811
 21
238.9748792745
  0
LINE
  5
288
100
AcDbEntity
  8
0
100
AcDbLine
 62
7
  6
CONTINUOUS
 10
134.1588090631
 20
178.060433263
 11
134.1588090631
 21
176.9966034535
  0
LINE
  5
289
100
AcDbEntity
  8
0
100
AcDbLine
 62
7
  6
CONTINUOUS
 10
135.8046420785
 20
170.7966034535
 11
135.8046420785
 21
136.7966034535
  0
LINE
  5
28A
100
AcDbEntity
  8
0
100
AcDbLine
 62
7
  6
CONTINUOUS
 10
136.0556091877
 20
248.1463206452
 11
136.075211026
 21
248.6197085856
  0
LINE
  5
28B
100
AcDbEntity
  8
0
100
AcDbLine
 62
7
  6
CONTINUOUS
 10
169.2048863905
 20
247.8542871785
 11
166.1429029349
 21
243.9015340471
  0
LINE
  5
28C
100
AcDbEntity
  8
0
100
AcDbLine
 62
7
  6
CONTINUOUS
 10
166.6369970763
 20
243.5187861151
 11
168.0051173631
 21
245.2849098798
  0
LINE
  5
28D
100
AcDbEntity
  8
0
100
AcDbLine
 62
7
  6
CONTINUOUS
 10
168.3960088215
 20
245.7895166023
 11
169.3732376499
 21
247.0510336444
  0
LINE
  5
28E
100
AcDbEntity
  8
0
100
AcDbLine
 62
7
  6
CONTINUOUS
 10
175.775431086
 20
232.9031539068
 11
176.4296420785
 21
233.2808627994
  0
LINE
  5
28F
100
AcDbEntity
  8
0
100
AcDbLine
 62
7
  6
CONTINUOUS
 10
179.4296420785
 20
235.012913607
 11
180.0838530709
 21
235.3906224996
  0
LINE
  5
290
100
AcDbEntity
  8
0
100
AcDbLine
 62
7
  6
CONTINUOUS
 10
179.4805524251
 20
230.700632685
 11
180.1347634175
 21
231.0783415776
  0
LINE
  5
291
100
AcDbEntity
  8
0
100
AcDbLine
 62
7
  6
CONTINUOUS
 10
177.905431086
 20
229.2138856867
 11
178.5596420785
 21
229.5915945793
  0
LINE
  5
292
100
AcDbEntity
  8
0
100
AcDbLine
 62
7
  6
CONTINUOUS
 10
181.5596420785
 20
231.3236453869
 11
182.2138530709
 21
231.7013542795
  0
LINE
  5
293
100
AcDbEntity
  8
0
100
AcDbLine
 62
7
  6
CONTINUOUS
 10
136.4504757794
 20
185.720007861
 11
137.4921424957
 21
185.9327737931
  0
LINE
  5
294
100
AcDbEntity
  8
0
100
AcDbLine
 62
7
  6
CONTINUOUS
 10
137.7004756304
 20
186.9966034535
 11
136.2421423467
 21
186.7838375215
  0
LINE
  5
295
100
AcDbEntity
  8
0
100
AcDbLine
 62
7
  6
CONTINUOUS
 10
159.1588090631
 20
185.507241929
 11
158.1171416017
 21
185.507241929
  0
LINE
  5
296
100
AcDbEntity
  8
0
100
AcDbLine
 62
7
  6
CONTINUOUS
 10
137.4921424957
 20
185.9327737931
 11
138.3254756304
 21
185.9327737931
  0
LINE
  5
297
100
AcDbEntity
  8
0
100
AcDbLine
 62
7
  6
CONTINUOUS
 10
148.3254753324
 20
185.9327737931
 11
154.3671416017
 21
185.9327737931
  0
LINE
  5
298
100
AcDbEntity
  8
0
100
AcDbLine
 62
7
  6
CONTINUOUS
 10
154.3671416017
 20
186.9966034535
 11
147.2838090631
 21
186.9966034535
  0
LINE
  5
299
100
AcDbEntity
  8
0
100
AcDbLine
 62
7
  6
CONTINUOUS
 10
138.5338090631
 20
186.9966034535
 11
137.7004756304
 21
186.9966034535
  0
LINE
  5
29A
100
AcDbEntity
  8
0
100
AcDbLine
 62
7
  6
CONTINUOUS
 10
139.7838090631
 20
186.7838375215
 11
138.5338090631
 21
186.9966034535
  0
LINE
  5
29B
100
AcDbEntity
  8
0
100
AcDbLine
 62
7
  6
CONTINUOUS
 10
153.7421427937
 20
182.5285182838
 11
152.7004753324
 21
183.16681608
  0
LINE
  5
29C
100
AcDbEntity
  8
0
100
AcDbLine
 62
7
  6
CONTINUOUS
 10
158.5338090631
 20
177.8476672564
 11
159.1588090631
 21
177.422135355
  0
LINE
  5
29D
100
AcDbEntity
  8
0
100
AcDbLine
 62
7
  6
CONTINUOUS
 10
152.4921427937
 20
182.1029864196
 11
153.1171427937
 21
181.6774545554
  0
LINE
  5
29E
100
AcDbEntity
  8
0
100
AcDbLine
 62
7
  6
CONTINUOUS
 10
159.9921416017
 20
178.060433263
 11
159.3671416017
 21
178.4859651271
  0
LINE
  5
29F
100
AcDbEntity
  8
0
100
AcDbLine
 62
7
  6
CONTINUOUS
 10
141.4504759284
 20
185.507241929
 11
140.6171421977
 21
186.3583056573
  0
LINE
  5
2A0
100
AcDbEntity
  8
0
100
AcDbLine
 62
7
  6
CONTINUOUS
 10
147.7004753324
 20
178.6987310592
 11
148.3254753324
 21
177.8476672564
  0
LINE
  5
2A1
100
AcDbEntity
  8
0
100
AcDbLine
 62
7
  6
CONTINUOUS
 10
139.9921421977
 20
185.2944759969
 11
140.4088090631
 21
184.6561782006
  0
LINE
  5
2A2
100
AcDbEntity
  8
0
100
AcDbLine
 62
7
  6
CONTINUOUS
 10
115.6391129512
 20
231.2689945414
 11
115.3581320617
 21
231.7159658572
  0
LINE
  5
2A3
100
AcDbEntity
  8
0
100
AcDbLine
 62
7
  6
CONTINUOUS
 10
122.1229650581
 20
238.9771324099
 11
122.2445328489
 21
238.6159119305
  0
LINE
  5
2A4
100
AcDbEntity
  8
0
100
AcDbLine
 62
7
  6
CONTINUOUS
 10
140.4088090631
 20
184.6561782006
 11
140.4088090631
 21
184.2306457404
  0
LINE
  5
2A5
100
AcDbEntity
  8
0
100
AcDbLine
 62
7
  6
CONTINUOUS
 10
141.6588090631
 20
176.9966034535
 11
141.6588090631
 21
178.060433263
  0
LINE
  5
2A6
100
AcDbEntity
  8
0
100
AcDbLine
 62
7
  6
CONTINUOUS
 10
141.6588090631
 20
184.2306457404
 11
141.6588090631
 21
184.6561782006
  0
LINE
  5
2A7
100
AcDbEntity
  8
0
100
AcDbLine
 62
7
  6
CONTINUOUS
 10
153.8696019446
 20
252.8529361105
 11
153.7800744554
 21
252.4369283585
  0
LINE
  5
2A8
100
AcDbEntity
  8
0
100
AcDbLine
 62
7
  6
CONTINUOUS
 10
134.5754757421
 20
185.507241929
 11
134.3671424026
 21
184.6561782006
  0
LINE
  5
2A9
100
AcDbEntity
  8
0
100
AcDbLine
 62
7
  6
CONTINUOUS
 10
159.0840962196
 20
252.8147694392
 11
158.8978086589
 21
252.3165422508
  0
LINE
  5
2AA
100
AcDbEntity
  8
0
100
AcDbLine
 62
7
  6
CONTINUOUS
 10
160.4589208882
 20
251.7328410879
 11
158.894105169
 21
247.5477321467
  0
LINE
  5
2AB
100
AcDbEntity
  8
0
100
AcDbLine
 62
7
  6
CONTINUOUS
 10
159.4795221852
 20
247.3288442367
 11
161.0443379044
 21
251.5139531779
  0
LINE
  5
2AC
100
AcDbEntity
  8
0
100
AcDbLine
 62
7
  6
CONTINUOUS
 10
171.0410724091
 20
244.9516433853
 11
170.8456264974
 21
244.6993397884
  0
LINE
  5
2AD
100
AcDbEntity
  8
0
100
AcDbLine
 62
7
  6
CONTINUOUS
 10
171.2745720624
 20
244.2324907361
 11
171.5351665505
 21
244.5688954534
  0
LINE
  5
2AE
100
AcDbEntity
  8
0
100
AcDbLine
 62
7
  6
CONTINUOUS
 10
154.3671416017
 20
181.6774545554
 11
153.7421427937
 21
182.5285182838
  0
LINE
  5
2AF
100
AcDbEntity
  8
0
100
AcDbLine
 62
7
  6
CONTINUOUS
 10
153.1171427937
 20
181.6774545554
 11
153.5338090631
 21
181.0391567592
  0
LINE
  5
2B0
100
AcDbEntity
  8
0
100
AcDbLine
 62
7
  6
CONTINUOUS
 10
119.0690066838
 20
234.7852125127
 11
119.242320011
 21
234.4457700216
  0
LINE
  5
2B1
100
AcDbEntity
  8
0
100
AcDbLine
 62
7
  6
CONTINUOUS
 10
147.2838090631
 20
179.5497949366
 11
147.7004753324
 21
178.6987310592
  0
LINE
  5
2B2
100
AcDbEntity
  8
0
100
AcDbLine
 62
7
  6
CONTINUOUS
 10
148.9504753324
 20
178.6987310592
 11
148.5338090631
 21
179.5497949366
  0
LINE
  5
2B3
100
AcDbEntity
  8
0
100
AcDbLine
 62
7
  6
CONTINUOUS
 10
122.7986418811
 20
238.9748792745
 11
122.5935455695
 21
239.401980992
  0
LINE
  5
2B4
100
AcDbEntity
  8
0
100
AcDbLine
 62
7
  6
CONTINUOUS
 10
141.6588090631
 20
184.6561782006
 11
141.4504759284
 21
185.507241929
  0
LINE
  5
2B5
100
AcDbEntity
  8
0
100
AcDbLine
 62
7
  6
CONTINUOUS
 10
131.3814890351
 20
249.462748821
 11
131.5000434544
 21
248.9338544184
  0
LINE
  5
2B6
100
AcDbEntity
  8
0
100
AcDbLine
 62
7
  6
CONTINUOUS
 10
132.072268902
 20
249.1852167807
 11
131.9964996804
 21
249.6167108459
  0
LINE
  5
2B7
100
AcDbEntity
  8
0
100
AcDbLine
 62
7
  6
CONTINUOUS
 10
147.2838090631
 20
186.9966034535
 11
147.2838090631
 21
181.4646886233
  0
LINE
  5
2B8
100
AcDbEntity
  8
0
100
AcDbLine
 62
7
  6
CONTINUOUS
 10
148.3254753324
 20
182.5285182838
 11
148.3254753324
 21
185.9327737931
  0
LINE
  5
2B9
100
AcDbEntity
  8
0
100
AcDbLine
 62
7
  6
CONTINUOUS
 10
154.4134673427
 20
252.4094368003
 11
154.458231056
 21
252.6174405306
  0
LINE
  5
2BA
100
AcDbEntity
  8
0
100
AcDbLine
 62
7
  6
CONTINUOUS
 10
156.250967574
 20
250.0552605502
 11
156.1838220041
 21
249.7432549547
  0
LINE
  5
2BB
100
AcDbEntity
  8
0
100
AcDbLine
 62
7
  6
CONTINUOUS
 10
156.7724511782
 20
249.5077596661
 11
156.8843604613
 21
250.0277689919
  0
LINE
  5
2BC
100
AcDbEntity
  8
0
100
AcDbLine
 62
7
  6
CONTINUOUS
 10
141.4504759284
 20
183.3795820121
 11
141.6588090631
 21
184.2306457404
  0
LINE
  5
2BD
100
AcDbEntity
  8
0
100
AcDbLine
 62
7
  6
CONTINUOUS
 10
162.6054495754
 20
250.9302522238
 11
162.7917371361
 21
251.4284794122
  0
LINE
  5
2BE
100
AcDbEntity
  8
0
100
AcDbLine
 62
7
  6
CONTINUOUS
 10
140.4088090631
 20
184.2306457404
 11
139.9921421977
 21
183.3795820121
  0
LINE
  5
2BF
100
AcDbEntity
  8
0
100
AcDbLine
 62
7
  6
CONTINUOUS
 10
135.4088090631
 20
184.6561782006
 11
135.8254757794
 21
185.2944759969
  0
LINE
  5
2C0
100
AcDbEntity
  8
0
100
AcDbLine
 62
7
  6
CONTINUOUS
 10
135.4088090631
 20
186.3583056573
 11
134.5754757421
 21
185.507241929
  0
LINE
  5
2C1
100
AcDbEntity
  8
0
100
AcDbLine
 62
7
  6
CONTINUOUS
 10
119.7376843782
 20
234.8822428356
 11
119.4720706237
 21
235.2745812855
  0
LINE
  5
2C2
100
AcDbEntity
  8
0
100
AcDbLine
 62
7
  6
CONTINUOUS
 10
158.1171416017
 20
178.6987310592
 11
158.5338090631
 21
177.8476672564
  0
LINE
  5
2C3
100
AcDbEntity
  8
0
100
AcDbLine
 62
7
  6
CONTINUOUS
 10
154.7838090631
 20
180.613624597
 11
154.3671416017
 21
181.6774545554
  0
LINE
  5
2C4
100
AcDbEntity
  8
0
100
AcDbLine
 62
7
  6
CONTINUOUS
 10
153.5338090631
 20
181.0391567592
 11
153.7421427937
 21
180.4008586649
  0
LINE
  5
2C5
100
AcDbEntity
  8
0
100
AcDbLine
 62
7
  6
CONTINUOUS
 10
136.075211026
 20
248.6197085856
 11
135.9566561809
 21
249.1486024756
  0
LINE
  5
2C6
100
AcDbEntity
  8
0
100
AcDbLine
 62
7
  6
CONTINUOUS
 10
135.3844307334
 20
248.8972401133
 11
135.4601999549
 21
248.4657460481
  0
LINE
  5
2C7
100
AcDbEntity
  8
0
100
AcDbLine
 62
7
  6
CONTINUOUS
 10
153.7421427937
 20
180.4008586649
 11
153.7421427937
 21
179.9753268007
  0
LINE
  5
2C8
100
AcDbEntity
  8
0
100
AcDbLine
 62
7
  6
CONTINUOUS
 10
141.0338090631
 20
182.7412842158
 11
141.4504759284
 21
183.3795820121
  0
LINE
  5
2C9
100
AcDbEntity
  8
0
100
AcDbLine
 62
7
  6
CONTINUOUS
 10
135.8254757794
 20
185.2944759969
 11
136.4504757794
 21
185.720007861
  0
LINE
  5
2CA
100
AcDbEntity
  8
0
100
AcDbLine
 62
7
  6
CONTINUOUS
 10
114.7710225034
 20
231.387869532
 11
115.0295908059
 21
231.173745442
  0
LINE
  5
2CB
100
AcDbEntity
  8
0
100
AcDbLine
 62
7
  6
CONTINUOUS
 10
115.3581320617
 20
231.7159658572
 11
115.0995637593
 21
231.9300899472
  0
LINE
  5
2CC
100
AcDbEntity
  8
0
100
AcDbLine
 62
7
  6
CONTINUOUS
 10
118.751599262
 20
235.0871738213
 11
119.0690066838
 21
234.7852125127
  0
LINE
  5
2CD
100
AcDbEntity
  8
0
100
AcDbLine
 62
7
  6
CONTINUOUS
 10
121.8533596379
 20
239.3224451617
 11
122.1229650581
 21
238.9771324099
  0
LINE
  5
2CE
100
AcDbEntity
  8
0
100
AcDbLine
 62
7
  6
CONTINUOUS
 10
131.5000434544
 20
248.9338544184
 11
132.1418196821
 21
247.4728533135
  0
LINE
  5
2CF
100
AcDbEntity
  8
0
100
AcDbLine
 62
7
  6
CONTINUOUS
 10
132.7140451296
 20
247.7242156758
 11
132.072268902
 21
249.1852167807
  0
LINE
  5
2D0
100
AcDbEntity
  8
0
100
AcDbLine
 62
7
  6
CONTINUOUS
 10
159.3671416017
 20
178.4859651271
 11
159.1588090631
 21
179.1242630724
  0
LINE
  5
2D1
100
AcDbEntity
  8
0
100
AcDbLine
 62
7
  6
CONTINUOUS
 10
153.695014241
 20
250.0612249022
 11
153.6603246634
 21
250.395146063
  0
LINE
  5
2D2
100
AcDbEntity
  8
0
100
AcDbLine
 62
7
  6
CONTINUOUS
 10
153.0493136327
 20
250.5266394864
 11
153.061621381
 21
250.0887164546
  0
LINE
  5
2D3
100
AcDbEntity
  8
0
100
AcDbLine
 62
7
  6
CONTINUOUS
 10
153.7800744554
 20
252.4369283585
 11
153.7923822128
 21
251.9990053247
  0
LINE
  5
2D4
100
AcDbEntity
  8
0
100
AcDbLine
 62
7
  6
CONTINUOUS
 10
154.3671416017
 20
185.9327737931
 11
154.3671416017
 21
186.9966034535
  0
LINE
  5
2D5
100
AcDbEntity
  8
0
100
AcDbLine
 62
7
  6
CONTINUOUS
 10
154.7838090631
 20
179.7625608686
 11
154.7838090631
 21
180.613624597
  0
LINE
  5
2D6
100
AcDbEntity
  8
0
100
AcDbLine
 62
7
  6
CONTINUOUS
 10
156.4504765244
 20
183.8051138762
 11
156.4504765244
 21
182.9540501479
  0
LINE
  5
2D7
100
AcDbEntity
  8
0
100
AcDbLine
 62
7
  6
CONTINUOUS
 10
158.1171416017
 20
185.507241929
 11
158.1171416017
 21
183.8051138762
  0
LINE
  5
2D8
100
AcDbEntity
  8
0
100
AcDbLine
 62
7
  6
CONTINUOUS
 10
158.1171416017
 20
182.9540501479
 11
158.1171416017
 21
178.6987310592
  0
LINE
  5
2D9
100
AcDbEntity
  8
0
100
AcDbLine
 62
7
  6
CONTINUOUS
 10
159.1588090631
 20
179.1242630724
 11
159.1588090631
 21
182.9540501479
  0
LINE
  5
2DA
100
AcDbEntity
  8
0
100
AcDbLine
 62
7
  6
CONTINUOUS
 10
159.1588090631
 20
183.8051138762
 11
159.1588090631
 21
185.507241929
  0
LINE
  5
2DB
100
AcDbEntity
  8
0
100
AcDbLine
 62
7
  6
CONTINUOUS
 10
165.4461483127
 20
244.3711817331
 11
166.4244217211
 21
249.5500582102
  0
LINE
  5
2DC
100
AcDbEntity
  8
0
100
AcDbLine
 62
7
  6
CONTINUOUS
 10
165.1577252523
 20
245.9933962459
 11
164.9002100314
 21
244.675445423
  0
LINE
  5
2DD
100
AcDbEntity
  8
0
100
AcDbLine
 62
7
  6
CONTINUOUS
 10
165.8533049817
 20
249.3811978614
 11
165.2738941182
 21
246.4158092827
  0
LINE
  5
2DE
100
AcDbEntity
  8
0
100
AcDbLine
 62
7
  6
CONTINUOUS
 10
169.2721661447
 20
241.4774635681
 11
170.0294423722
 21
243.9859114715
  0
LINE
  5
2DF
100
AcDbEntity
  8
0
100
AcDbLine
 62
7
  6
CONTINUOUS
 10
169.405051078
 20
244.2004571626
 11
168.6957232939
 21
241.9240025787
  0
LINE
  5
2E0
100
AcDbEntity
  8
0
100
AcDbLine
 62
7
  6
CONTINUOUS
 10
171.1541684864
 20
245.2677385553
 11
171.0410724091
 21
244.9516433853
  0
LINE
  5
2E1
100
AcDbEntity
  8
0
100
AcDbLine
 62
7
  6
CONTINUOUS
 10
171.5351665505
 20
244.5688954534
 11
171.6482626279
 21
244.8849906234
  0
LINE
  5
2E2
100
AcDbEntity
  8
0
100
AcDbLine
 62
7
  6
CONTINUOUS
 10
144.5754753324
 20
178.060433263
 11
143.3254759284
 21
175.720007712
  0
LINE
  5
2E3
100
AcDbEntity
  8
0
100
AcDbLine
 62
7
  6
CONTINUOUS
 10
144.3671427937
 20
175.720007712
 11
145.6171427937
 21
178.060433263
  0
LINE
  5
2E4
100
AcDbEntity
  8
0
100
AcDbLine
 62
7
  6
CONTINUOUS
 10
139.9921421977
 20
183.3795820121
 11
134.1588090631
 21
178.060433263
  0
LINE
  5
2E5
100
AcDbEntity
  8
0
100
AcDbLine
 62
7
  6
CONTINUOUS
 10
135.8254757794
 20
178.060433263
 11
141.0338090631
 21
182.7412842158
  0
LINE
  5
2E6
100
AcDbEntity
  8
0
100
AcDbLine
 62
7
  6
CONTINUOUS
 10
136.2421423467
 20
186.7838375215
 11
135.4088090631
 21
186.3583056573
  0
LINE
  5
2E7
100
AcDbEntity
  8
0
100
AcDbLine
 62
7
  6
CONTINUOUS
 10
117.0706822583
 20
238.5839606498
 11
120.996520451
 21
235.4875442559
  0
LINE
  5
2E8
100
AcDbEntity
  8
0
100
AcDbLine
 62
7
  6
CONTINUOUS
 10
119.4720706237
 20
235.2745812855
 11
119.0623628394
 21
235.6294385158
  0
LINE
  5
2E9
100
AcDbEntity
  8
0
100
AcDbLine
 62
7
  6
CONTINUOUS
 10
122.5935455695
 20
239.401980992
 11
122.2404116872
 21
239.8131749358
  0
LINE
  5
2EA
100
AcDbEntity
  8
0
100
AcDbLine
 62
7
  6
CONTINUOUS
 10
124.3574547826
 20
246.2639412922
 11
127.4510123274
 21
242.3358499342
  0
LINE
  5
2EB
100
AcDbEntity
  8
0
100
AcDbLine
 62
7
  6
CONTINUOUS
 10
127.9420237472
 20
242.7225446273
 11
124.8484662024
 21
246.6506359853
  0
LINE
  5
2EC
100
AcDbEntity
  8
0
100
AcDbLine
 62
7
  6
CONTINUOUS
 10
125.8832679234
 20
247.4932202009
 11
128.5719186384
 21
243.2776351486
  0
LINE
  5
2ED
100
AcDbEntity
  8
0
100
AcDbLine
 62
7
  6
CONTINUOUS
 10
129.0988667699
 20
243.613716488
 11
126.7534480202
 21
247.2911418105
  0
LINE
  5
2EE
100
AcDbEntity
  8
0
100
AcDbLine
 62
7
  6
CONTINUOUS
 10
128.8693073773
 20
249.3976811507
 11
131.1575207594
 21
245.8099491793
  0
LINE
  5
2EF
100
AcDbEntity
  8
0
100
AcDbLine
 62
7
  6
CONTINUOUS
 10
132.0849062238
 20
245.5181774378
 11
129.3962555088
 21
249.7337624901
  0
LINE
  5
2F0
100
AcDbEntity
  8
0
100
AcDbLine
 62
7
  6
CONTINUOUS
 10
134.7426545057
 20
250.3582412182
 11
135.3844307334
 21
248.8972401133
  0
LINE
  5
2F1
100
AcDbEntity
  8
0
100
AcDbLine
 62
7
  6
CONTINUOUS
 10
135.9566561809
 20
249.1486024756
 11
135.3148799532
 21
250.6096035805
  0
LINE
  5
2F2
100
AcDbEntity
  8
0
100
AcDbLine
 62
7
  6
CONTINUOUS
 10
154.4481569203
 20
252.0755156395
 11
154.4134673427
 21
252.4094368003
  0
LINE
  5
2F3
100
AcDbEntity
  8
0
100
AcDbLine
 62
7
  6
CONTINUOUS
 10
157.0264921727
 20
252.1735534439
 11
156.9918026679
 21
252.5074745891
  0
LINE
  5
2F4
100
AcDbEntity
  8
0
100
AcDbLine
 62
7
  6
CONTINUOUS
 10
159.8046420785
 20
170.7966034535
 11
159.8046420785
 21
136.7966034535
  0
LINE
  5
2F5
100
AcDbEntity
  8
0
100
AcDbLine
 62
7
  6
CONTINUOUS
 10
161.0338090631
 20
176.9966034535
 11
161.0338090631
 21
177.8476672564
  0
LINE
  5
2F6
100
AcDbEntity
  8
0
100
AcDbLine
 62
7
  6
CONTINUOUS
 10
161.4504765244
 20
182.9540501479
 11
161.4504765244
 21
183.8051138762
  0
LINE
  5
2F7
100
AcDbEntity
  8
0
100
AcDbLine
 62
7
  6
CONTINUOUS
 10
164.3046420785
 20
170.9966034535
 11
164.3046420785
 21
170.7966034535
  0
LINE
  5
2F8
100
AcDbEntity
  8
0
100
AcDbLine
 62
7
  6
CONTINUOUS
 10
153.7421427937
 20
179.9753268007
 11
153.5338090631
 21
179.3370290045
  0
LINE
  5
2F9
100
AcDbEntity
  8
0
100
AcDbLine
 62
7
  6
CONTINUOUS
 10
154.3671416017
 20
178.6987310592
 11
154.7838090631
 21
179.7625608686
  0
LINE
  5
2FA
100
AcDbEntity
  8
0
100
AcDbLine
 62
7
  6
CONTINUOUS
 10
153.5338090631
 20
179.3370290045
 11
153.1171427937
 21
178.6987310592
  0
LINE
  5
2FB
100
AcDbEntity
  8
0
100
AcDbLine
 62
7
  6
CONTINUOUS
 10
148.7421427937
 20
181.4646886233
 11
149.5754753324
 21
182.1029864196
  0
LINE
  5
2FC
100
AcDbEntity
  8
0
100
AcDbLine
 62
7
  6
CONTINUOUS
 10
149.3671427937
 20
183.16681608
 11
148.3254753324
 21
182.5285182838
  0
LINE
  5
2FD
100
AcDbEntity
  8
0
100
AcDbLine
 62
7
  6
CONTINUOUS
 10
112.1995468697
 20
228.9316064306
 11
116.8499521616
 21
227.0948346371
  0
LINE
  5
2FE
100
AcDbEntity
  8
0
100
AcDbLine
 62
7
  6
CONTINUOUS
 10
117.0795486357
 20
227.6761352986
 11
115.0017079439
 21
228.4968205797
  0
LINE
  5
2FF
100
AcDbEntity
  8
0
100
AcDbLine
 62
7
  6
CONTINUOUS
 10
114.408039254
 20
228.7313020573
 11
112.9238672521
 21
229.3175058608
  0
LINE
  5
300
100
AcDbEntity
  8
0
100
AcDbLine
 62
7
  6
CONTINUOUS
 10
114.3364696002
 20
234.0156238872
 11
117.1977812266
 21
232.3758500901
  0
LINE
  5
301
100
AcDbEntity
  8
0
100
AcDbLine
 62
7
  6
CONTINUOUS
 10
117.5085449522
 20
232.9181150432
 11
114.6472333258
 21
234.5578888403
  0
LINE
  5
302
100
AcDbEntity
  8
0
100
AcDbLine
 62
7
  6
CONTINUOUS
 10
115.8902876356
 20
236.7269476184
 11
118.751599262
 21
235.0871738213
  0
LINE
  5
303
100
AcDbEntity
  8
0
100
AcDbLine
 62
7
  6
CONTINUOUS
 10
119.0623628394
 20
235.6294385158
 11
116.201051213
 21
237.2692123129
  0
LINE
  5
304
100
AcDbEntity
  8
0
100
AcDbLine
 62
7
  6
CONTINUOUS
 10
120.8824016684
 20
236.3735612283
 11
117.9589050809
 21
238.6794032718
  0
LINE
  5
305
100
AcDbEntity
  8
0
100
AcDbLine
 62
7
  6
CONTINUOUS
 10
120.6004325875
 20
240.3106631342
 11
121.8533596379
 21
239.3224451617
  0
LINE
  5
306
100
AcDbEntity
  8
0
100
AcDbLine
 62
7
  6
CONTINUOUS
 10
122.2404116872
 20
239.8131749358
 11
120.9874846367
 21
240.8013929083
  0
LINE
  5
307
100
AcDbEntity
  8
0
100
AcDbLine
 62
7
  6
CONTINUOUS
 10
132.1418196821
 20
247.4728533135
 11
132.4511161612
 21
247.0277467976
  0
LINE
  5
308
100
AcDbEntity
  8
0
100
AcDbLine
 62
7
  6
CONTINUOUS
 10
153.7421427937
 20
177.8476672564
 11
154.3671416017
 21
178.6987310592
  0
LINE
  5
309
100
AcDbEntity
  8
0
100
AcDbLine
 62
7
  6
CONTINUOUS
 10
153.1171427937
 20
178.6987310592
 11
152.4921427937
 21
178.2731991951
  0
LINE
  5
30A
100
AcDbEntity
  8
0
100
AcDbLine
 62
7
  6
CONTINUOUS
 10
152.7004753324
 20
177.2093694043
 11
153.7421427937
 21
177.8476672564
  0
LINE
  5
30B
100
AcDbEntity
  8
0
100
AcDbLine
 62
7
  6
CONTINUOUS
 10
117.1977812266
 20
232.3758500901
 11
117.7110770676
 21
232.2017481027
  0
LINE
  5
30C
100
AcDbEntity
  8
0
100
AcDbLine
 62
7
  6
CONTINUOUS
 10
114.4741878813
 20
231.5051103803
 11
114.7710225034
 21
231.387869532
  0
LINE
  5
30D
100
AcDbEntity
  8
0
100
AcDbLine
 62
7
  6
CONTINUOUS
 10
115.0995637593
 20
231.9300899472
 11
114.7037843555
 21
232.0864110418
  0
LINE
  5
30E
100
AcDbEntity
  8
0
100
AcDbLine
 62
7
  6
CONTINUOUS
 10
132.9805565309
 20
247.3765092245
 11
132.7140451296
 21
247.7242156758
  0
LINE
  5
30F
100
AcDbEntity
  8
0
100
AcDbLine
 62
7
  6
CONTINUOUS
 10
134.4761431044
 20
250.7059476695
 11
134.7426545057
 21
250.3582412182
  0
LINE
  5
310
100
AcDbEntity
  8
0
100
AcDbLine
 62
7
  6
CONTINUOUS
 10
135.3148799532
 20
250.6096035805
 11
135.0055839
 21
251.054710609
  0
LINE
  5
311
100
AcDbEntity
  8
0
100
AcDbLine
 62
7
  6
CONTINUOUS
 10
153.061621381
 20
250.0887164546
 11
153.2552175988
 21
249.5029603058
  0
LINE
  5
312
100
AcDbEntity
  8
0
100
AcDbLine
 62
7
  6
CONTINUOUS
 10
156.8843604613
 20
250.0277689919
 11
156.7702177699
 21
250.4876076976
  0
LINE
  5
313
100
AcDbEntity
  8
0
100
AcDbLine
 62
7
  6
CONTINUOUS
 10
156.3584097806
 20
252.5349661473
 11
156.415481142
 21
252.3050468673
  0
LINE
  5
314
100
AcDbEntity
  8
0
100
AcDbLine
 62
7
  6
CONTINUOUS
 10
171.6482626279
 20
244.8849906234
 11
171.6618098627
 21
245.4127690711
  0
LINE
  5
315
100
AcDbEntity
  8
0
100
AcDbLine
 62
7
  6
CONTINUOUS
 10
117.9295401344
 20
232.7969084604
 11
117.5085449522
 21
232.9181150432
  0
LINE
  5
316
100
AcDbEntity
  8
0
100
AcDbLine
 62
7
  6
CONTINUOUS
 10
120.2018103098
 20
240.4923999186
 11
120.6004325875
 21
240.3106631342
  0
LINE
  5
317
100
AcDbEntity
  8
0
100
AcDbLine
 62
7
  6
CONTINUOUS
 10
120.9874846367
 20
240.8013929083
 11
120.5053336628
 21
241.0490110693
  0
LINE
  5
318
100
AcDbEntity
  8
0
100
AcDbLine
 62
7
  6
CONTINUOUS
 10
132.4511161612
 20
247.0277467976
 11
132.8129981365
 21
246.7219338454
  0
LINE
  5
319
100
AcDbEntity
  8
0
100
AcDbLine
 62
7
  6
CONTINUOUS
 10
156.1144430259
 20
250.4110973907
 11
156.250967574
 21
250.0552605502
  0
LINE
  5
31A
100
AcDbEntity
  8
0
100
AcDbLine
 62
7
  6
CONTINUOUS
 10
118.3040632012
 20
230.7764055856
 11
115.6839382349
 21
230.803300367
  0
LINE
  5
31B
100
AcDbEntity
  8
0
100
AcDbLine
 62
7
  6
CONTINUOUS
 10
115.6522312692
 20
230.1438390744
 11
118.036200575
 21
230.0982212957
  0
LINE
  5
31C
100
AcDbEntity
  8
0
100
AcDbLine
 62
7
  6
CONTINUOUS
 10
114.1390874938
 20
231.5254677679
 11
114.4741878813
 21
231.5051103803
  0
LINE
  5
31D
100
AcDbEntity
  8
0
100
AcDbLine
 62
7
  6
CONTINUOUS
 10
114.7037843555
 20
232.0864110418
 11
114.368683968
 21
232.1067684294
  0
LINE
  5
31E
100
AcDbEntity
  8
0
100
AcDbLine
 62
7
  6
CONTINUOUS
 10
117.7110770676
 20
232.2017481027
 11
118.183866491
 21
232.1709193629
  0
LINE
  5
31F
100
AcDbEntity
  8
0
100
AcDbLine
 62
7
  6
CONTINUOUS
 10
133.2996533984
 20
247.168096405
 11
132.9805565309
 21
247.3765092245
  0
LINE
  5
320
100
AcDbEntity
  8
0
100
AcDbLine
 62
7
  6
CONTINUOUS
 10
135.0055839
 20
251.054710609
 11
134.6437014089
 21
251.3605232533
  0
LINE
  5
321
100
AcDbEntity
  8
0
100
AcDbLine
 62
7
  6
CONTINUOUS
 10
153.9333741708
 20
249.6834725222
 11
153.695014241
 21
250.0612249022
  0
LINE
  5
322
100
AcDbEntity
  8
0
100
AcDbLine
 62
7
  6
CONTINUOUS
 10
156.9918026679
 20
252.5074745891
 11
156.7758245791
 21
252.9892287614
  0
LINE
  5
323
100
AcDbEntity
  8
0
100
AcDbLine
 62
7
  6
CONTINUOUS
 10
171.1197682204
 20
245.5635229535
 11
171.1541684864
 21
245.2677385553
  0
LINE
  5
324
100
AcDbEntity
  8
RUNDUNGEN
100
AcDbLine
 62
7
  6
CONTINUOUS
 10
193.5778134154
 20
215.4379143556
 11
178.5003403855
 21
183.1041690992
  0
LINE
  5
325
100
AcDbEntity
  8
BEZUGSACHSEN
100
AcDbLine
 62
7
  6
CONTINUOUS
 10
178.5003403855
 20
183.1041690992
 11
177.8433183621
 21
181.6951808231
  0
LINE
  5
326
100
AcDbEntity
  8
0
100
AcDbLine
 62
7
  6
CONTINUOUS
 10
118.3100292787
 20
232.818975938
 11
117.9295401344
 21
232.7969084604
  0
LINE
  5
327
100
AcDbEntity
  8
0
100
AcDbLine
 62
7
  6
CONTINUOUS
 10
119.8222070933
 20
240.5264667758
 11
120.2018103098
 21
240.4923999186
  0
LINE
  5
328
100
AcDbEntity
  8
0
100
AcDbLine
 62
7
  6
CONTINUOUS
 10
120.5053336628
 20
241.0490110693
 11
120.0422022181
 21
241.148958934
  0
LINE
  5
329
100
AcDbEntity
  8
0
100
AcDbLine
 62
7
  6
CONTINUOUS
 10
132.8129981365
 20
246.7219338454
 11
133.3656222765
 21
246.4999085411
  0
LINE
  5
32A
100
AcDbEntity
  8
0
100
AcDbLine
 62
7
  6
CONTINUOUS
 10
131.1575207594
 20
245.8099491793
 11
126.6736901207
 21
247.9973422099
  0
LINE
  5
32B
100
AcDbEntity
  8
0
100
AcDbLine
 62
7
  6
CONTINUOUS
 10
126.7534480202
 20
247.2911418105
 11
131.2944840265
 21
245.0140554288
  0
LINE
  5
32C
100
AcDbEntity
  8
0
100
AcDbLine
 62
7
  6
CONTINUOUS
 10
134.1570461171
 20
250.9143607618
 11
134.4761431044
 21
250.7059476695
  0
LINE
  5
32D
100
AcDbEntity
  8
0
100
AcDbLine
 62
7
  6
CONTINUOUS
 10
136.1490148068
 20
252.7000574861
 11
138.4894524602
 21
250.7908504809
  0
LINE
  5
32E
100
AcDbEntity
  8
0
100
AcDbLine
 62
7
  6
CONTINUOUS
 10
138.9282160818
 20
250.357173042
 11
140.857245424
 21
248.7788377245
  0
LINE
  5
32F
100
AcDbEntity
  8
0
100
AcDbLine
 62
7
  6
CONTINUOUS
 10
138.6820286577
 20
251.2824275609
 11
136.7530004675
 21
252.8607631849
  0
LINE
  5
330
100
AcDbEntity
  8
0
100
AcDbLine
 62
7
  6
CONTINUOUS
 10
141.4612310847
 20
248.9395434233
 11
139.093438121
 21
250.9515561797
  0
LINE
  5
331
100
AcDbEntity
  8
0
100
AcDbLine
 62
7
  6
CONTINUOUS
 10
153.7923822128
 20
251.9990053247
 11
154.1101954855
 21
251.4953355792
  0
LINE
  5
332
100
AcDbEntity
  8
0
100
AcDbLine
 62
7
  6
CONTINUOUS
 10
156.7702177699
 20
250.4876076976
 11
156.4524043151
 21
250.9912774823
  0
LINE
  5
333
100
AcDbEntity
  8
0
100
AcDbLine
 62
7
  6
CONTINUOUS
 10
156.1995030532
 20
252.7868010397
 11
156.3584097806
 21
252.5349661473
  0
LINE
  5
334
100
AcDbEntity
  8
0
100
AcDbLine
 62
7
  6
CONTINUOUS
 10
171.6618098627
 20
245.4127690711
 11
171.5278598118
 21
245.920237477
  0
LINE
  5
335
100
AcDbEntity
  8
0
100
AcDbLine
 62
7
  6
CONTINUOUS
 10
114.368683968
 20
232.1067684294
 11
113.8581066043
 21
231.9724390837
  0
LINE
  5
336
100
AcDbEntity
  8
0
100
AcDbLine
 62
7
  6
CONTINUOUS
 10
118.183866491
 20
232.1709193629
 11
118.7602434941
 21
232.3208451089
  0
LINE
  5
337
100
AcDbEntity
  8
0
100
AcDbLine
 62
7
  6
CONTINUOUS
 10
170.5678311164
 20
244.5108282358
 11
170.2728365447
 21
244.4702081523
  0
LINE
  5
338
100
AcDbEntity
  8
0
100
AcDbLine
 62
7
  6
CONTINUOUS
 10
134.6437014089
 20
251.3605232533
 11
134.0910772839
 21
251.5825485234
  0
LINE
  5
339
100
AcDbEntity
  8
0
100
AcDbLine
 62
7
  6
CONTINUOUS
 10
153.2552175988
 20
249.5029603058
 11
153.6972478698
 21
249.0813768328
  0
LINE
  5
33A
100
AcDbEntity
  8
0
100
AcDbLine
 62
7
  6
CONTINUOUS
 10
154.7088987952
 20
251.8017651818
 11
154.4481569203
 21
252.0755156395
  0
LINE
  5
33B
100
AcDbEntity
  8
0
100
AcDbLine
 62
7
  6
CONTINUOUS
 10
155.8537012239
 20
250.6848478327
 11
156.1144430259
 21
250.4110973907
  0
LINE
  5
33C
100
AcDbEntity
  8
0
100
AcDbLine
 62
7
  6
CONTINUOUS
 10
156.7758245791
 20
252.9892287614
 11
156.435629559
 21
253.3888966183
  0
LINE
  5
33D
100
AcDbEntity
  8
0
100
AcDbLine
 62
7
  6
CONTINUOUS
 10
177.7339669234
 20
229.4884773989
 11
177.905431086
 21
229.2138856867
  0
LINE
  5
33E
100
AcDbEntity
  8
0
100
AcDbLine
 62
7
  6
CONTINUOUS
 10
175.6039669234
 20
233.177745619
 11
175.775431086
 21
232.9031539068
  0
LINE
  5
33F
100
AcDbEntity
  8
0
100
AcDbLine
 62
7
  6
CONTINUOUS
 10
178.7514300685
 20
231.9635096515
 11
179.4805524251
 21
230.700632685
  0
LINE
  5
340
100
AcDbEntity
  8
0
100
AcDbLine
 62
7
  6
CONTINUOUS
 10
155.5302809618
 20
248.6868965627
 11
155.9823852709
 21
248.8072380589
  0
LINE
  5
341
100
AcDbEntity
  8
0
100
AcDbLine
 62
7
  6
CONTINUOUS
 10
133.832676257
 20
246.4726833746
 11
134.3523156963
 21
246.5847518568
  0
LINE
  5
342
100
AcDbEntity
  8
0
100
AcDbLine
 62
7
  6
CONTINUOUS
 10
120.0422022181
 20
241.148958934
 11
119.4500539157
 21
241.0853308313
  0
LINE
  5
343
100
AcDbEntity
  8
0
100
AcDbLine
 62
7
  6
CONTINUOUS
 10
133.3656222765
 20
246.4999085411
 11
133.832676257
 21
246.4726833746
  0
LINE
  5
344
100
AcDbEntity
  8
0
100
AcDbLine
 62
7
  6
CONTINUOUS
 10
133.6713363078
 20
247.0989773889
 11
133.2996533984
 21
247.168096405
  0
LINE
  5
345
100
AcDbEntity
  8
0
100
AcDbLine
 62
7
  6
CONTINUOUS
 10
133.7853632376
 20
250.9834797098
 11
134.1570461171
 21
250.9143607618
  0
LINE
  5
346
100
AcDbEntity
  8
0
100
AcDbLine
 62
7
  6
CONTINUOUS
 10
170.0294423722
 20
243.9859114715
 11
170.4891353051
 21
243.8989486677
  0
LINE
  5
347
100
AcDbEntity
  8
0
100
AcDbLine
 62
7
  6
CONTINUOUS
 10
158.894105169
 20
247.5477321467
 11
159.4795221852
 21
247.3288442367
  0
LINE
  5
348
100
AcDbEntity
  8
0
100
AcDbLine
 62
7
  6
CONTINUOUS
 10
153.6972478698
 20
249.0813768328
 11
154.1840418215
 21
248.8677971162
  0
LINE
  5
349
100
AcDbEntity
  8
0
100
AcDbLine
 62
7
  6
CONTINUOUS
 10
154.318332977
 20
249.49180838
 11
153.9333741708
 21
249.6834725222
  0
LINE
  5
34A
100
AcDbEntity
  8
0
100
AcDbLine
 62
7
  6
CONTINUOUS
 10
161.8065595971
 20
246.3996064293
 11
162.3524973578
 21
246.0953430296
  0
LINE
  5
34B
100
AcDbEntity
  8
0
100
AcDbLine
 62
7
  6
CONTINUOUS
 10
164.9002100314
 20
244.675445423
 11
165.4461483127
 21
244.3711817331
  0
LINE
  5
34C
100
AcDbEntity
  8
0
100
AcDbLine
 62
7
  6
CONTINUOUS
 10
163.3379316755
 20
247.0076081588
 11
165.1577252523
 21
245.9933962459
  0
LINE
  5
34D
100
AcDbEntity
  8
0
100
AcDbLine
 62
7
  6
CONTINUOUS
 10
154.9920224539
 20
251.6320166049
 11
154.7088987952
 21
251.8017651818
  0
LINE
  5
34E
100
AcDbEntity
  8
0
100
AcDbLine
 62
7
  6
CONTINUOUS
 10
166.1429029349
 20
243.9015340471
 11
166.6369970763
 21
243.5187861151
  0
LINE
  5
34F
100
AcDbEntity
  8
0
100
AcDbLine
 62
7
  6
CONTINUOUS
 10
168.6957232939
 20
241.9240025787
 11
169.2721661447
 21
241.4774635681
  0
LINE
  5
350
100
AcDbEntity
  8
0
100
AcDbLine
 62
7
  6
CONTINUOUS
 10
168.0051173631
 20
245.2849098798
 11
169.405051078
 21
244.2004571626
  0
LINE
  5
351
100
AcDbEntity
  8
0
100
AcDbLine
 62
7
  6
CONTINUOUS
 10
154.1101954855
 20
251.4953355792
 11
154.4727724351
 21
251.1996695718
  0
LINE
  5
352
100
AcDbEntity
  8
0
100
AcDbLine
 62
7
  6
CONTINUOUS
 10
156.4524043151
 20
250.9912774823
 11
156.0898274383
 21
251.286943474
  0
LINE
  5
353
100
AcDbEntity
  8
0
100
AcDbLine
 62
7
  6
CONTINUOUS
 10
171.5278598118
 20
245.920237477
 11
171.1812629562
 21
246.3232954507
  0
LINE
  5
354
100
AcDbEntity
  8
0
100
AcDbLine
 62
7
  6
CONTINUOUS
 10
170.937869726
 20
245.8389980399
 11
171.1197682204
 21
245.5635229535
  0
LINE
  5
355
100
AcDbEntity
  8
0
100
AcDbLine
 62
7
  6
CONTINUOUS
 10
180.1347634175
 20
231.0783415776
 11
179.4051346258
 21
232.3420957155
  0
LINE
  5
356
100
AcDbEntity
  8
0
100
AcDbLine
 62
7
  6
CONTINUOUS
 10
179.319129574
 20
235.2396845972
 11
179.4296420785
 21
235.012913607
  0
LINE
  5
357
100
AcDbEntity
  8
0
100
AcDbLine
 62
7
  6
CONTINUOUS
 10
159.8046420785
 20
136.7966034535
 11
157.8046420785
 21
134.7966034535
  0
LINE
  5
358
100
AcDbEntity
  8
0
100
AcDbLine
 62
7
  6
CONTINUOUS
 10
137.4346603972
 20
247.8681722002
 11
138.0386460579
 21
248.028877899
  0
LINE
  5
359
100
AcDbEntity
  8
0
100
AcDbLine
 62
7
  6
CONTINUOUS
 10
140.857245424
 20
248.7788377245
 11
141.4612310847
 21
248.9395434233
  0
LINE
  5
35A
100
AcDbEntity
  8
0
100
AcDbLine
 62
7
  6
CONTINUOUS
 10
155.009937057
 20
253.6957146271
 11
154.5578326809
 21
253.5753731738
  0
LINE
  5
35B
100
AcDbEntity
  8
0
100
AcDbLine
 62
7
  6
CONTINUOUS
 10
140.1755854943
 20
253.7714287092
 11
139.5715998336
 21
253.6107230104
  0
LINE
  5
35C
100
AcDbEntity
  8
0
100
AcDbLine
 62
7
  6
CONTINUOUS
 10
136.7530004675
 20
252.8607631849
 11
136.1490148068
 21
252.7000574861
  0
LINE
  5
35D
100
AcDbEntity
  8
0
100
AcDbLine
 62
7
  6
CONTINUOUS
 10
133.6240238603
 20
251.6097739041
 11
133.1043838791
 21
251.4977051736
  0
LINE
  5
35E
100
AcDbEntity
  8
0
100
AcDbLine
 62
7
  6
CONTINUOUS
 10
134.0956051992
 20
247.1691523124
 11
133.6713363078
 21
247.0989773889
  0
LINE
  5
35F
100
AcDbEntity
  8
0
100
AcDbLine
 62
7
  6
CONTINUOUS
 10
133.3610943462
 20
250.9133047862
 11
133.7853632376
 21
250.9834797098
  0
LINE
  5
360
100
AcDbEntity
  8
0
100
AcDbLine
 62
7
  6
CONTINUOUS
 10
154.9774811375
 20
253.0497878551
 11
155.3053685095
 21
253.0880430086
  0
LINE
  5
361
100
AcDbEntity
  8
0
100
AcDbLine
 62
7
  6
CONTINUOUS
 10
155.5627370406
 20
249.332823367
 11
155.1330144483
 21
249.3164837946
  0
LINE
  5
362
100
AcDbEntity
  8
0
100
AcDbLine
 62
7
  6
CONTINUOUS
 10
155.4396596493
 20
253.7120541996
 11
155.009937057
 21
253.6957146271
  0
LINE
  5
363
100
AcDbEntity
  8
0
100
AcDbLine
 62
7
  6
CONTINUOUS
 10
154.9987232929
 20
248.6924725308
 11
155.5302809618
 21
248.6868965627
  0
LINE
  5
364
100
AcDbEntity
  8
0
100
AcDbLine
 62
7
  6
CONTINUOUS
 10
134.0910772839
 20
251.5825485234
 11
133.6240238603
 21
251.6097739041
  0
LINE
  5
365
100
AcDbEntity
  8
0
100
AcDbLine
 62
7
  6
CONTINUOUS
 10
154.1840418215
 20
248.8677971162
 11
154.9987232929
 21
248.6924725308
  0
LINE
  5
366
100
AcDbEntity
  8
0
100
AcDbLine
 62
7
  6
CONTINUOUS
 10
155.1330144483
 20
249.3164837946
 11
154.318332977
 21
249.49180838
  0
LINE
  5
367
100
AcDbEntity
  8
0
100
AcDbLine
 62
7
  6
CONTINUOUS
 10
153.6603246634
 20
250.395146063
 11
153.0493136327
 21
250.5266394864
  0
LINE
  5
368
100
AcDbEntity
  8
0
100
AcDbLine
 62
7
  6
CONTINUOUS
 10
154.8577313141
 20
251.0080054139
 11
155.4687423448
 21
250.8765119906
  0
LINE
  5
369
100
AcDbEntity
  8
0
100
AcDbLine
 62
7
  6
CONTINUOUS
 10
155.6030334846
 20
251.5005231815
 11
154.9920224539
 21
251.6320166049
  0
LINE
  5
36A
100
AcDbEntity
  8
0
100
AcDbLine
 62
7
  6
CONTINUOUS
 10
156.415481142
 20
252.3050468673
 11
157.0264921727
 21
252.1735534439
  0
LINE
  5
36B
100
AcDbEntity
  8
0
100
AcDbLine
 62
7
  6
CONTINUOUS
 10
155.3053685095
 20
253.0880430086
 11
155.9163795402
 21
252.9565495852
  0
LINE
  5
36C
100
AcDbEntity
  8
0
100
AcDbLine
 62
7
  6
CONTINUOUS
 10
170.2728365447
 20
244.4702081523
 11
169.9606408976
 21
244.5774809978
  0
LINE
  5
36D
100
AcDbEntity
  8
0
100
AcDbLine
 62
7
  6
CONTINUOUS
 10
158.8978086589
 20
252.3165422508
 11
160.4589208882
 21
251.7328410879
  0
LINE
  5
36E
100
AcDbEntity
  8
0
100
AcDbLine
 62
7
  6
CONTINUOUS
 10
161.0443379044
 20
251.5139531779
 11
162.6054495754
 21
250.9302522238
  0
LINE
  5
36F
100
AcDbEntity
  8
0
100
AcDbLine
 62
7
  6
CONTINUOUS
 10
162.7917371361
 20
251.4284794122
 11
159.0840962196
 21
252.8147694392
  0
LINE
  5
370
100
AcDbEntity
  8
0
100
AcDbLine
 62
7
  6
CONTINUOUS
 10
156.0898274383
 20
251.286943474
 11
155.6030334846
 21
251.5005231815
  0
LINE
  5
371
100
AcDbEntity
  8
0
100
AcDbLine
 62
7
  6
CONTINUOUS
 10
156.435629559
 20
253.3888966183
 11
155.9488354596
 21
253.6024763572
  0
LINE
  5
372
100
AcDbEntity
  8
0
100
AcDbLine
 62
7
  6
CONTINUOUS
 10
154.4727724351
 20
251.1996695718
 11
154.8577313141
 21
251.0080054139
  0
LINE
  5
373
100
AcDbEntity
  8
0
100
AcDbLine
 62
7
  6
CONTINUOUS
 10
155.4687423448
 20
250.8765119906
 11
155.8537012239
 21
250.6848478327
  0
LINE
  5
374
100
AcDbEntity
  8
0
100
AcDbLine
 62
7
  6
CONTINUOUS
 10
165.2738941182
 20
246.4158092827
 11
163.6360792743
 21
247.3286003525
  0
LINE
  5
375
100
AcDbEntity
  8
0
100
AcDbLine
 62
7
  6
CONTINUOUS
 10
166.4244217211
 20
249.5500582102
 11
165.6965047069
 21
249.9557427432
  0
LINE
  5
376
100
AcDbEntity
  8
0
100
AcDbLine
 62
7
  6
CONTINUOUS
 10
155.9163795402
 20
252.9565495852
 11
156.1995030532
 21
252.7868010397
  0
LINE
  5
377
100
AcDbEntity
  8
0
100
AcDbLine
 62
7
  6
CONTINUOUS
 10
169.9606408976
 20
244.5774809978
 11
168.3960088215
 21
245.7895166023
  0
LINE
  5
378
100
AcDbEntity
  8
0
100
AcDbLine
 62
7
  6
CONTINUOUS
 10
169.3732376499
 20
247.0510336444
 11
170.937869726
 21
245.8389980399
  0
LINE
  5
379
100
AcDbEntity
  8
0
100
AcDbLine
 62
7
  6
CONTINUOUS
 10
171.1812629562
 20
246.3232954507
 11
169.2048863905
 21
247.8542871785
  0
LINE
  5
37A
100
AcDbEntity
  8
0
100
AcDbLine
 62
7
  6
CONTINUOUS
 10
155.9488354596
 20
253.6024763572
 11
155.4396596493
 21
253.7120541996
  0
LINE
  5
37B
100
AcDbEntity
  8
0
100
AcDbLine
 62
7
  6
CONTINUOUS
 10
276.4648619681
 20
134.7966034535
 11
296.4639633232
 21
134.7966034535
  0
LINE
  5
37C
100
AcDbEntity
  8
0
100
AcDbLine
 62
7
  6
CONTINUOUS
 10
274.4644126456
 20
136.7966034535
 11
298.4644126456
 21
136.7966034535
  0
LINE
  5
37D
100
AcDbEntity
  8
0
100
AcDbLine
 62
7
  6
CONTINUOUS
 10
274.4644126456
 20
136.7966034535
 11
276.4644126456
 21
134.7966034535
  0
LINE
  5
37E
100
AcDbEntity
  8
0
100
AcDbLine
 62
7
  6
CONTINUOUS
 10
269.9648623872
 20
170.7966034535
 11
302.9639629041
 21
170.7966034535
  0
LINE
  5
37F
100
AcDbEntity
  8
BEZUGSACHSEN
100
AcDbLine
 62
7
  6
CONTINUOUS
 10
261.4646162876
 20
170.9966034535
 11
311.4642090037
 21
170.9966034535
  0
LINE
  5
380
100
AcDbEntity
  8
BEZUGSACHSEN
100
AcDbLine
 62
7
  6
CONTINUOUS
 10
260.6304308419
 20
175.7263492949
 11
260.765442301
 21
175.2019178791
  0
LINE
  5
381
100
AcDbEntity
  8
BEZUGSACHSEN
100
AcDbLine
 62
7
  6
CONTINUOUS
 10
259.224024995
 20
183.7024732053
 11
260.6304308419
 21
175.7263492949
  0
LINE
  5
382
100
AcDbEntity
  8
0
100
AcDbLine
 62
7
  6
CONTINUOUS
 10
311.9059849763
 20
175.720007712
 11
312.5797259889
 21
175.720007712
  0
LINE
  5
383
100
AcDbEntity
  8
0
100
AcDbLine
 62
7
  6
CONTINUOUS
 10
308.6637058523
 20
176.9966034535
 11
312.3094089671
 21
176.9966034535
  0
LINE
  5
384
100
AcDbEntity
  8
0
100
AcDbLine
 62
7
  6
CONTINUOUS
 10
312.8865917579
 20
176.9966034535
 11
312.9021397156
 21
176.9966034535
  0
LINE
  5
385
100
AcDbEntity
  8
0
100
AcDbLine
 62
7
  6
CONTINUOUS
 10
312.9359633466
 20
177.2093694043
 11
313.0216789416
 21
177.2093694043
  0
LINE
  5
386
100
AcDbEntity
  8
0
100
AcDbLine
 62
7
  6
CONTINUOUS
 10
313.0806428483
 20
177.8476672564
 11
313.1750759456
 21
177.8476672564
  0
LINE
  5
387
100
AcDbEntity
  8
0
100
AcDbLine
 62
7
  6
CONTINUOUS
 10
312.5021833142
 20
178.060433263
 11
310.3858745496
 21
178.060433263
  0
LINE
  5
388
100
AcDbEntity
  8
0
100
AcDbLine
 62
7
  6
CONTINUOUS
 10
308.8835966129
 20
178.060433263
 11
309.4758881776
 21
178.060433263
  0
LINE
  5
389
100
AcDbEntity
  8
0
100
AcDbLine
 62
7
  6
CONTINUOUS
 10
312.5105457668
 20
178.060433263
 11
313.128088531
 21
178.060433263
  0
LINE
  5
38A
100
AcDbEntity
  8
0
100
AcDbLine
 62
7
  6
CONTINUOUS
 10
312.822299718
 20
178.6987310592
 11
313.3300169138
 21
178.6987310592
  0
LINE
  5
38B
100
AcDbEntity
  8
0
100
AcDbLine
 62
7
  6
CONTINUOUS
 10
312.9674539108
 20
179.5497949366
 11
313.4752634024
 21
179.5497949366
  0
LINE
  5
38C
100
AcDbEntity
  8
0
100
AcDbLine
 62
7
  6
CONTINUOUS
 10
313.3051657052
 20
181.4646886233
 11
313.812972814
 21
181.4646886233
  0
LINE
  5
38D
100
AcDbEntity
  8
0
100
AcDbLine
 62
7
  6
CONTINUOUS
 10
269.9644126456
 20
170.9966034535
 11
269.9644126456
 21
170.7966034535
  0
LINE
  5
38E
100
AcDbEntity
  8
0
100
AcDbLine
 62
7
  6
CONTINUOUS
 10
312.5010210011
 20
183.3795820121
 11
313.0306609554
 21
183.3795820121
  0
LINE
  5
38F
100
AcDbEntity
  8
0
100
AcDbLine
 62
7
  6
CONTINUOUS
 10
312.7753140931
 20
184.2306457404
 11
313.3053488192
 21
184.2306457404
  0
LINE
  5
390
100
AcDbEntity
  8
0
100
AcDbLine
 62
7
  6
CONTINUOUS
 10
310.3420610937
 20
184.6561782006
 11
311.4776325231
 21
184.6561782006
  0
LINE
  5
391
100
AcDbEntity
  8
0
100
AcDbLine
 62
7
  6
CONTINUOUS
 10
312.8464168712
 20
184.6561782006
 11
313.383170024
 21
184.6561782006
  0
LINE
  5
392
100
AcDbEntity
  8
0
100
AcDbLine
 62
7
  6
CONTINUOUS
 10
312.8258205279
 20
185.2944759969
 11
313.3824226013
 21
185.2944759969
  0
LINE
  5
393
100
AcDbEntity
  8
0
100
AcDbLine
 62
7
  6
CONTINUOUS
 10
310.6015099493
 20
185.507241929
 11
311.2173530537
 21
185.507241929
  0
LINE
  5
394
100
AcDbEntity
  8
0
100
AcDbLine
 62
7
  6
CONTINUOUS
 10
312.6945611156
 20
185.720007861
 11
313.2717772673
 21
185.720007861
  0
LINE
  5
395
100
AcDbEntity
  8
0
100
AcDbLine
 62
7
  6
CONTINUOUS
 10
312.6481608667
 20
185.9327737931
 11
312.9612373988
 21
185.9327737931
  0
LINE
  5
396
100
AcDbEntity
  8
0
100
AcDbLine
 62
7
  6
CONTINUOUS
 10
311.1638620573
 20
186.3583056573
 11
311.8121604741
 21
186.3583056573
  0
LINE
  5
397
100
AcDbEntity
  8
0
100
AcDbLine
 62
7
  6
CONTINUOUS
 10
274.4644126456
 20
170.7966034535
 11
274.4644126456
 21
136.7966034535
  0
LINE
  5
398
100
AcDbEntity
  8
BEZUGSACHSEN
100
AcDbLine
 62
7
  6
CONTINUOUS
 10
276.9644126456
 20
208.8291502545
 11
276.9644126456
 21
261.7687561709
  0
LINE
  5
399
100
AcDbEntity
  8
0
100
AcDbLine
 62
7
  6
CONTINUOUS
 10
311.6196114274
 20
186.7838375215
 11
312.2852091763
 21
186.7838375215
  0
LINE
  5
39A
100
AcDbEntity
  8
0
100
AcDbLine
 62
7
  6
CONTINUOUS
 10
312.2652719505
 20
186.9966034535
 11
313.2334391475
 21
186.9966034535
  0
LINE
  5
39B
100
AcDbEntity
  8
0
100
AcDbLine
 62
7
  6
CONTINUOUS
 10
314.1683339105
 20
186.9966034535
 11
314.7885694315
 21
186.9966034535
  0
LINE
  5
39C
100
AcDbEntity
  8
BEZUGSACHSEN
100
AcDbLine
 62
7
  6
CONTINUOUS
 10
268.7742703009
 20
195.8235174939
 11
260.8380517282
 21
191.7798121584
  0
LINE
  5
39D
100
AcDbEntity
  8
RUNDUNGEN
100
AcDbLine
 62
7
  6
CONTINUOUS
 10
304.1545549904
 20
195.8235174939
 11
312.0907735631
 21
191.7798121584
  0
LINE
  5
39E
100
AcDbEntity
  8
RUNDUNGEN
100
AcDbLine
 62
7
  6
CONTINUOUS
 10
295.9644126456
 20
208.8291502545
 11
295.9644126456
 21
261.7687561709
  0
LINE
  5
39F
100
AcDbEntity
  8
0
100
AcDbLine
 62
7
  6
CONTINUOUS
 10
296.4644126456
 20
253.7714287092
 11
296.4644126456
 21
241.4774635681
  0
LINE
  5
3A0
100
AcDbEntity
  8
0
100
AcDbLine
 62
7
  6
CONTINUOUS
 10
296.4644126456
 20
241.148958934
 11
296.4644126456
 21
227.0948346371
  0
LINE
  5
3A1
100
AcDbEntity
  8
0
100
AcDbLine
 62
7
  6
CONTINUOUS
 10
298.4644126456
 20
170.7966034535
 11
298.4644126456
 21
136.7966034535
  0
LINE
  5
3A2
100
AcDbEntity
  8
0
100
AcDbLine
 62
7
  6
CONTINUOUS
 10
302.9644126456
 20
170.9966034535
 11
302.9644126456
 21
170.7966034535
  0
LINE
  5
3A3
100
AcDbEntity
  8
0
100
AcDbLine
 62
7
  6
CONTINUOUS
 10
314.1732293017
 20
186.9966034535
 11
314.2593047433
 21
187.8606450282
  0
LINE
  5
3A4
100
AcDbEntity
  8
0
100
AcDbLine
 62
7
  6
CONTINUOUS
 10
295.9644126456
 20
227.0948346371
 11
296.4644126456
 21
227.0948346371
  0
LINE
  5
3A5
100
AcDbEntity
  8
0
100
AcDbLine
 62
7
  6
CONTINUOUS
 10
295.9644126456
 20
228.9316064306
 11
296.4644126456
 21
228.9316064306
  0
LINE
  5
3A6
100
AcDbEntity
  8
0
100
AcDbLine
 62
7
  6
CONTINUOUS
 10
313.3300169138
 20
178.6987310592
 11
313.3052153695
 21
178.5569303225
  0
LINE
  5
3A7
100
AcDbEntity
  8
0
100
AcDbLine
 62
7
  6
CONTINUOUS
 10
312.7099564282
 20
178.060433263
 11
312.822299718
 21
178.6987310592
  0
LINE
  5
3A8
100
AcDbEntity
  8
0
100
AcDbLine
 62
7
  6
CONTINUOUS
 10
312.9725710753
 20
179.5497949366
 11
313.3102184974
 21
181.4646886233
  0
LINE
  5
3A9
100
AcDbEntity
  8
0
100
AcDbLine
 62
7
  6
CONTINUOUS
 10
314.7885694315
 20
186.9966034535
 11
313.812972814
 21
181.4646886233
  0
LINE
  5
3AA
100
AcDbEntity
  8
RUNDUNGEN
100
AcDbLine
 62
7
  6
CONTINUOUS
 10
312.1633829903
 20
175.2019178791
 11
312.2983944494
 21
175.7263492949
  0
LINE
  5
3AB
100
AcDbEntity
  8
0
100
AcDbLine
 62
7
  6
CONTINUOUS
 10
295.9644126456
 20
231.2568090766
 11
296.4644126456
 21
231.2568090766
  0
LINE
  5
3AC
100
AcDbEntity
  8
0
100
AcDbLine
 62
7
  6
CONTINUOUS
 10
295.9644126456
 20
231.7021461406
 11
296.4644126456
 21
231.7021461406
  0
LINE
  5
3AD
100
AcDbEntity
  8
0
100
AcDbLine
 62
7
  6
CONTINUOUS
 10
295.9644126456
 20
231.9724390837
 11
296.4644126456
 21
231.9724390837
  0
LINE
  5
3AE
100
AcDbEntity
  8
0
100
AcDbLine
 62
7
  6
CONTINUOUS
 10
295.9644126456
 20
232.1067684294
 11
296.4644126456
 21
232.1067684294
  0
LINE
  5
3AF
100
AcDbEntity
  8
0
100
AcDbLine
 62
7
  6
CONTINUOUS
 10
295.9644126456
 20
232.1709193629
 11
296.4644126456
 21
232.1709193629
  0
LINE
  5
3B0
100
AcDbEntity
  8
0
100
AcDbLine
 62
7
  6
CONTINUOUS
 10
295.9644126456
 20
232.2017481027
 11
296.4644126456
 21
232.2017481027
  0
LINE
  5
3B1
100
AcDbEntity
  8
0
100
AcDbLine
 62
7
  6
CONTINUOUS
 10
295.9644126456
 20
232.3758500901
 11
296.4644126456
 21
232.3758500901
  0
LINE
  5
3B2
100
AcDbEntity
  8
0
100
AcDbLine
 62
7
  6
CONTINUOUS
 10
295.9644126456
 20
234.0156238872
 11
296.4644126456
 21
234.0156238872
  0
LINE
  5
3B3
100
AcDbEntity
  8
0
100
AcDbLine
 62
7
  6
CONTINUOUS
 10
295.9644126456
 20
234.5578888403
 11
296.4644126456
 21
234.5578888403
  0
LINE
  5
3B4
100
AcDbEntity
  8
0
100
AcDbLine
 62
7
  6
CONTINUOUS
 10
295.9644126456
 20
234.7852125127
 11
296.4644126456
 21
234.7852125127
  0
LINE
  5
3B5
100
AcDbEntity
  8
0
100
AcDbLine
 62
7
  6
CONTINUOUS
 10
295.9644126456
 20
235.0871738213
 11
296.4644126456
 21
235.0871738213
  0
LINE
  5
3B6
100
AcDbEntity
  8
0
100
AcDbLine
 62
7
  6
CONTINUOUS
 10
295.9644126456
 20
236.7269476184
 11
296.4644126456
 21
236.7269476184
  0
LINE
  5
3B7
100
AcDbEntity
  8
0
100
AcDbLine
 62
7
  6
CONTINUOUS
 10
295.9644126456
 20
237.2692123129
 11
296.4644126456
 21
237.2692123129
  0
LINE
  5
3B8
100
AcDbEntity
  8
0
100
AcDbLine
 62
7
  6
CONTINUOUS
 10
295.9644126456
 20
238.5839606498
 11
296.4644126456
 21
238.5839606498
  0
LINE
  5
3B9
100
AcDbEntity
  8
0
100
AcDbLine
 62
7
  6
CONTINUOUS
 10
295.9644126456
 20
240.5468797462
 11
296.4644126456
 21
240.5468797462
  0
LINE
  5
3BA
100
AcDbEntity
  8
0
100
AcDbLine
 62
7
  6
CONTINUOUS
 10
295.9644126456
 20
240.8899403446
 11
296.4644126456
 21
240.8899403446
  0
LINE
  5
3BB
100
AcDbEntity
  8
0
100
AcDbLine
 62
7
  6
CONTINUOUS
 10
295.9644126456
 20
241.0853308313
 11
296.4644126456
 21
241.0853308313
  0
LINE
  5
3BC
100
AcDbEntity
  8
0
100
AcDbLine
 62
7
  6
CONTINUOUS
 10
295.9644126456
 20
241.148958934
 11
296.4644126456
 21
241.148958934
  0
LINE
  5
3BD
100
AcDbEntity
  8
0
100
AcDbLine
 62
7
  6
CONTINUOUS
 10
295.9644126456
 20
241.4774635681
 11
296.4644126456
 21
241.4774635681
  0
LINE
  5
3BE
100
AcDbEntity
  8
0
100
AcDbLine
 62
7
  6
CONTINUOUS
 10
295.9644126456
 20
241.9240025787
 11
296.4644126456
 21
241.9240025787
  0
LINE
  5
3BF
100
AcDbEntity
  8
0
100
AcDbLine
 62
7
  6
CONTINUOUS
 10
295.9644126456
 20
242.3358499342
 11
296.4644126456
 21
242.3358499342
  0
LINE
  5
3C0
100
AcDbEntity
  8
0
100
AcDbLine
 62
7
  6
CONTINUOUS
 10
295.9644126456
 20
246.2639412922
 11
296.4644126456
 21
246.2639412922
  0
LINE
  5
3C1
100
AcDbEntity
  8
0
100
AcDbLine
 62
7
  6
CONTINUOUS
 10
295.9644126456
 20
246.6506359853
 11
296.4644126456
 21
246.6506359853
  0
LINE
  5
3C2
100
AcDbEntity
  8
0
100
AcDbLine
 62
7
  6
CONTINUOUS
 10
295.9644126456
 20
247.4932202009
 11
296.4644126456
 21
247.4932202009
  0
LINE
  5
3C3
100
AcDbEntity
  8
0
100
AcDbLine
 62
7
  6
CONTINUOUS
 10
295.9644126456
 20
247.9973422099
 11
296.4644126456
 21
247.9973422099
  0
LINE
  5
3C4
100
AcDbEntity
  8
0
100
AcDbLine
 62
7
  6
CONTINUOUS
 10
295.9644126456
 20
249.3976811507
 11
296.4644126456
 21
249.3976811507
  0
LINE
  5
3C5
100
AcDbEntity
  8
0
100
AcDbLine
 62
7
  6
CONTINUOUS
 10
295.9644126456
 20
249.7337624901
 11
296.4644126456
 21
249.7337624901
  0
LINE
  5
3C6
100
AcDbEntity
  8
0
100
AcDbLine
 62
7
  6
CONTINUOUS
 10
295.9644126456
 20
249.9361364535
 11
296.4644126456
 21
249.9361364535
  0
LINE
  5
3C7
100
AcDbEntity
  8
0
100
AcDbLine
 62
7
  6
CONTINUOUS
 10
295.9644126456
 20
250.4933116999
 11
296.4644126456
 21
250.4933116999
  0
LINE
  5
3C8
100
AcDbEntity
  8
0
100
AcDbLine
 62
7
  6
CONTINUOUS
 10
295.9644126456
 20
250.8556868171
 11
296.4644126456
 21
250.8556868171
  0
LINE
  5
3C9
100
AcDbEntity
  8
0
100
AcDbLine
 62
7
  6
CONTINUOUS
 10
295.9644126456
 20
251.1625554371
 11
296.4644126456
 21
251.1625554371
  0
LINE
  5
3CA
100
AcDbEntity
  8
0
100
AcDbLine
 62
7
  6
CONTINUOUS
 10
295.9644126456
 20
251.4977051736
 11
296.4644126456
 21
251.4977051736
  0
LINE
  5
3CB
100
AcDbEntity
  8
0
100
AcDbLine
 62
7
  6
CONTINUOUS
 10
295.9644126456
 20
251.6097739041
 11
296.4644126456
 21
251.6097739041
  0
LINE
  5
3CC
100
AcDbEntity
  8
0
100
AcDbLine
 62
7
  6
CONTINUOUS
 10
295.9644126456
 20
252.7000574861
 11
296.4644126456
 21
252.7000574861
  0
LINE
  5
3CD
100
AcDbEntity
  8
0
100
AcDbLine
 62
7
  6
CONTINUOUS
 10
298.4644126456
 20
136.7966034535
 11
296.4644126456
 21
134.7966034535
  0
LINE
  5
3CE
100
AcDbEntity
  8
0
100
AcDbLine
 62
7
  6
CONTINUOUS
 10
295.9644126456
 20
252.8607631849
 11
296.4644126456
 21
252.8607631849
  0
LINE
  5
3CF
100
AcDbEntity
  8
0
100
AcDbLine
 62
7
  6
CONTINUOUS
 10
295.9644126456
 20
253.6107230104
 11
296.4644126456
 21
253.6107230104
  0
LINE
  5
3D0
100
AcDbEntity
  8
0
100
AcDbLine
 62
7
  6
CONTINUOUS
 10
295.9644126456
 20
253.7714287092
 11
296.4644126456
 21
253.7714287092
  0
LINE
  5
3D1
100
AcDbEntity
  8
RUNDUNGEN
100
AcDbLine
 62
7
  6
CONTINUOUS
 10
292.4644126456
 20
265.2687561709
 11
280.4644126456
 21
265.2687561709
  0
LINE
  5
3D2
100
AcDbEntity
  8
RUNDUNGEN
100
AcDbLine
 62
7
  6
CONTINUOUS
 10
101.5630096767
 20
58.4381582119
 11
101.5630096767
 21
70.4381582119
  0
LINE
  5
3D3
100
AcDbEntity
  8
0
100
AcDbLine
 62
7
  6
CONTINUOUS
 10
112.1995468697
 20
54.9381582119
 11
112.1995468697
 21
54.4381582119
  0
LINE
  5
3D4
100
AcDbEntity
  8
0
100
AcDbLine
 62
7
  6
CONTINUOUS
 10
113.1179327664
 20
54.9381582119
 11
113.1179327664
 21
54.4381582119
  0
LINE
  5
3D5
100
AcDbEntity
  8
0
100
AcDbLine
 62
7
  6
CONTINUOUS
 10
113.4082079797
 20
54.9381582119
 11
113.4082079797
 21
54.4381582119
  0
LINE
  5
3D6
100
AcDbEntity
  8
0
100
AcDbLine
 62
7
  6
CONTINUOUS
 10
113.8581066043
 20
54.9381582119
 11
113.8581066043
 21
54.4381582119
  0
LINE
  5
3D7
100
AcDbEntity
  8
0
100
AcDbLine
 62
7
  6
CONTINUOUS
 10
114.3364696002
 20
54.9381582119
 11
114.3364696002
 21
54.4381582119
  0
LINE
  5
3D8
100
AcDbEntity
  8
0
100
AcDbLine
 62
7
  6
CONTINUOUS
 10
114.6472333258
 20
54.9381582119
 11
114.6472333258
 21
54.4381582119
  0
LINE
  5
3D9
100
AcDbEntity
  8
0
100
AcDbLine
 62
7
  6
CONTINUOUS
 10
115.8902876356
 20
54.9381582119
 11
115.8902876356
 21
54.4381582119
  0
LINE
  5
3DA
100
AcDbEntity
  8
0
100
AcDbLine
 62
7
  6
CONTINUOUS
 10
116.201051213
 20
54.9381582119
 11
116.201051213
 21
54.4381582119
  0
LINE
  5
3DB
100
AcDbEntity
  8
0
100
AcDbLine
 62
7
  6
CONTINUOUS
 10
117.0706822583
 20
54.9381582119
 11
117.0706822583
 21
54.4381582119
  0
LINE
  5
3DC
100
AcDbEntity
  8
0
100
AcDbLine
 62
7
  6
CONTINUOUS
 10
118.6188904552
 20
54.9381582119
 11
118.6188904552
 21
54.4381582119
  0
LINE
  5
3DD
100
AcDbEntity
  8
0
100
AcDbLine
 62
7
  6
CONTINUOUS
 10
119.0249625379
 20
54.9381582119
 11
119.0249625379
 21
54.4381582119
  0
LINE
  5
3DE
100
AcDbEntity
  8
0
100
AcDbLine
 62
7
  6
CONTINUOUS
 10
119.4500539157
 20
54.9381582119
 11
119.4500539157
 21
54.4381582119
  0
LINE
  5
3DF
100
AcDbEntity
  8
0
100
AcDbLine
 62
7
  6
CONTINUOUS
 10
120.0422022181
 20
54.9381582119
 11
120.0422022181
 21
54.4381582119
  0
LINE
  5
3E0
100
AcDbEntity
  8
0
100
AcDbLine
 62
7
  6
CONTINUOUS
 10
120.5053336628
 20
54.9381582119
 11
120.5053336628
 21
54.4381582119
  0
LINE
  5
3E1
100
AcDbEntity
  8
0
100
AcDbLine
 62
7
  6
CONTINUOUS
 10
120.9874846367
 20
54.9381582119
 11
120.9874846367
 21
54.4381582119
  0
LINE
  5
3E2
100
AcDbEntity
  8
0
100
AcDbLine
 62
7
  6
CONTINUOUS
 10
122.2404116872
 20
54.9381582119
 11
122.2404116872
 21
54.4381582119
  0
LINE
  5
3E3
100
AcDbEntity
  8
0
100
AcDbLine
 62
7
  6
CONTINUOUS
 10
122.5935455695
 20
54.9381582119
 11
122.5935455695
 21
54.4381582119
  0
LINE
  5
3E4
100
AcDbEntity
  8
0
100
AcDbLine
 62
7
  6
CONTINUOUS
 10
122.7986418811
 20
54.9381582119
 11
122.7986418811
 21
54.4381582119
  0
LINE
  5
3E5
100
AcDbEntity
  8
0
100
AcDbLine
 62
7
  6
CONTINUOUS
 10
122.8747213059
 20
54.9381582119
 11
122.8747213059
 21
54.4381582119
  0
LINE
  5
3E6
100
AcDbEntity
  8
BEZUGSACHSEN
100
AcDbLine
 62
7
  6
CONTINUOUS
 10
126.6508450732
 20
82.7825168109
 11
126.5602575571
 21
82.6775695519
  0
LWPOLYLINE
  5
3E7
100
AcDbEntity
  8
BEZUGSACHSEN
100
AcDbPolyline
 62
7
  6
CONTINUOUS
 90
3
 70
0
 10
126.8073050398
 20
82.9611752817
 10
126.7898493893
 20
82.9414035278
 10
126.6508450732
 20
82.7825168109
  0
LWPOLYLINE
  5
3E8
100
AcDbEntity
  8
RUNDUNGEN
100
AcDbPolyline
 62
7
  6
CONTINUOUS
 90
29
 70
0
 10
126.8073109632
 20
45.9151358452
 10
127.9097473793
 20
44.7417892233
 10
129.141319519
 20
43.5841286556
 10
130.4428307446
 20
42.5065822708
 10
131.8092516863
 20
41.5119029855
 10
133.2351662266
 20
40.6029247426
 10
134.7150837103
 20
39.7822335133
 10
136.2434069012
 20
39.0521957611
 10
137.8143688414
 20
38.4149696143
 10
139.4221078765
 20
37.8724500949
 10
141.0606676918
 20
37.4262637659
 10
142.7239981908
 20
37.0777615211
 10
144.4059866183
 20
36.8280045825
 10
146.1004472385
 20
36.677760622
 10
147.801174758
 20
36.6274910214
 10
149.5019196432
 20
36.6773528109
 10
151.1964274587
 20
36.8271912953
 10
152.8784872824
 20
37.0765463851
 10
154.5419148379
 20
37.4246516864
 10
156.1805986077
 20
37.8704477864
 10
157.7884883771
 20
38.4125854888
 10
159.3596268506
 20
39.0494396749
 10
160.8881520564
 20
39.7791170592
 10
162.3682947139
 20
40.5994600884
 10
163.794455412
 20
41.5081025368
 10
165.1611429109
 20
42.5024593345
 10
166.4629405662
 20
43.5796975208
 10
167.6948178722
 20
44.7370642017
 10
168.8019734838
 20
45.9151361432
  0
LINE
  5
3E9
100
AcDbEntity
  8
RUNDUNGEN
100
AcDbLine
 62
7
  6
CONTINUOUS
 10
126.7200649449
 20
46.0143572254
 11
126.8073050398
 21
45.9151411421
  0
LWPOLYLINE
  5
3EA
100
AcDbEntity
  8
RUNDUNGEN
100
AcDbPolyline
 62
7
  6
CONTINUOUS
 90
3
 70
0
 10
126.5602575571
 20
46.198746872
 10
126.582189206
 20
46.1732354428
 10
126.7200649449
 20
46.0143572254
  0
LINE
  5
3EB
100
AcDbEntity
  8
0
100
AcDbLine
 62
7
  6
CONTINUOUS
 10
124.3574547826
 20
54.9381582119
 11
124.3574547826
 21
54.4381582119
  0
LINE
  5
3EC
100
AcDbEntity
  8
0
100
AcDbLine
 62
7
  6
CONTINUOUS
 10
124.8484662024
 20
54.9381582119
 11
124.8484662024
 21
54.4381582119
  0
LINE
  5
3ED
100
AcDbEntity
  8
0
100
AcDbLine
 62
7
  6
CONTINUOUS
 10
125.8832679234
 20
54.9381582119
 11
125.8832679234
 21
54.4381582119
  0
LINE
  5
3EE
100
AcDbEntity
  8
0
100
AcDbLine
 62
7
  6
CONTINUOUS
 10
126.6736901207
 20
54.9381582119
 11
126.6736901207
 21
54.4381582119
  0
LINE
  5
3EF
100
AcDbEntity
  8
0
100
AcDbLine
 62
7
  6
CONTINUOUS
 10
128.8693073773
 20
54.9381582119
 11
128.8693073773
 21
54.4381582119
  0
LINE
  5
3F0
100
AcDbEntity
  8
0
100
AcDbLine
 62
7
  6
CONTINUOUS
 10
129.3962555088
 20
54.9381582119
 11
129.3962555088
 21
54.4381582119
  0
LINE
  5
3F1
100
AcDbEntity
  8
0
100
AcDbLine
 62
7
  6
CONTINUOUS
 10
131.3814890351
 20
54.9381582119
 11
131.3814890351
 21
54.4381582119
  0
LINE
  5
3F2
100
AcDbEntity
  8
0
100
AcDbLine
 62
7
  6
CONTINUOUS
 10
131.4010903577
 20
54.9381582119
 11
131.4010903577
 21
54.4381582119
  0
LINE
  5
3F3
100
AcDbEntity
  8
0
100
AcDbLine
 62
7
  6
CONTINUOUS
 10
131.6114338599
 20
54.9381582119
 11
131.6114338599
 21
54.4381582119
  0
LINE
  5
3F4
100
AcDbEntity
  8
0
100
AcDbLine
 62
7
  6
CONTINUOUS
 10
131.9073475178
 20
54.9381582119
 11
131.9073475178
 21
54.4381582119
  0
LINE
  5
3F5
100
AcDbEntity
  8
0
100
AcDbLine
 62
7
  6
CONTINUOUS
 10
132.3414167976
 20
54.9381582119
 11
132.3414167976
 21
54.4381582119
  0
LINE
  5
3F6
100
AcDbEntity
  8
0
100
AcDbLine
 62
7
  6
CONTINUOUS
 10
133.1043838791
 20
54.9381582119
 11
133.1043838791
 21
54.4381582119
  0
LINE
  5
3F7
100
AcDbEntity
  8
0
100
AcDbLine
 62
7
  6
CONTINUOUS
 10
133.6240238603
 20
54.9381582119
 11
133.6240238603
 21
54.4381582119
  0
LINE
  5
3F8
100
AcDbEntity
  8
0
100
AcDbLine
 62
7
  6
CONTINUOUS
 10
134.0910772839
 20
54.9381582119
 11
134.0910772839
 21
54.4381582119
  0
LINE
  5
3F9
100
AcDbEntity
  8
0
100
AcDbLine
 62
7
  6
CONTINUOUS
 10
134.5754757421
 20
39.859653394
 11
134.5754757421
 21
39.6852178038
  0
LINE
  5
3FA
100
AcDbEntity
  8
0
100
AcDbLine
 62
7
  6
CONTINUOUS
 10
134.6437014089
 20
54.9381582119
 11
134.6437014089
 21
54.4381582119
  0
LINE
  5
3FB
100
AcDbEntity
  8
0
100
AcDbLine
 62
7
  6
CONTINUOUS
 10
135.0055839
 20
54.9381582119
 11
135.0055839
 21
54.4381582119
  0
LINE
  5
3FC
100
AcDbEntity
  8
0
100
AcDbLine
 62
7
  6
CONTINUOUS
 10
135.3148799532
 20
54.9381582119
 11
135.3148799532
 21
54.4381582119
  0
LINE
  5
3FD
100
AcDbEntity
  8
0
100
AcDbLine
 62
7
  6
CONTINUOUS
 10
135.4088090631
 20
39.4508600838
 11
135.4088090631
 21
39.0904103834
  0
LINE
  5
3FE
100
AcDbEntity
  8
0
100
AcDbLine
 62
7
  6
CONTINUOUS
 10
135.9566561809
 20
54.9381582119
 11
135.9566561809
 21
54.4381582119
  0
LINE
  5
3FF
100
AcDbEntity
  8
0
100
AcDbLine
 62
7
  6
CONTINUOUS
 10
136.075211026
 20
54.9381582119
 11
136.075211026
 21
54.4381582119
  0
LINE
  5
400
100
AcDbEntity
  8
0
100
AcDbLine
 62
7
  6
CONTINUOUS
 10
136.1490148068
 20
54.9381582119
 11
136.1490148068
 21
54.4381582119
  0
LINE
  5
401
100
AcDbEntity
  8
0
100
AcDbLine
 62
7
  6
CONTINUOUS
 10
136.2421423467
 20
39.0527998039
 11
136.2421423467
 21
38.6173616813
  0
LINE
  5
402
100
AcDbEntity
  8
0
100
AcDbLine
 62
7
  6
CONTINUOUS
 10
136.7530004675
 20
54.9381582119
 11
136.7530004675
 21
54.4381582119
  0
LINE
  5
403
100
AcDbEntity
  8
0
100
AcDbLine
 62
7
  6
CONTINUOUS
 10
147.1379750939
 20
79.1828390934
 11
146.8046420785
 21
78.8424136021
  0
LINE
  5
404
100
AcDbEntity
  8
0
100
AcDbLine
 62
7
  6
CONTINUOUS
 10
147.3046420785
 20
78.7573072292
 11
147.5546420785
 21
78.9275199749
  0
LINE
  5
405
100
AcDbEntity
  8
0
100
AcDbLine
 62
7
  6
CONTINUOUS
 10
147.4713085862
 20
79.3530518391
 11
147.1379750939
 21
79.1828390934
  0
LINE
  5
406
100
AcDbEntity
  8
0
100
AcDbLine
 62
7
  6
CONTINUOUS
 10
137.7004756304
 20
38.4611678895
 11
137.7004756304
 21
37.9724266889
  0
LINE
  5
407
100
AcDbEntity
  8
0
100
AcDbLine
 62
7
  6
CONTINUOUS
 10
138.5338090631
 20
38.1721998894
 11
138.5338090631
 21
37.66913171
  0
LINE
  5
408
100
AcDbEntity
  8
0
100
AcDbLine
 62
7
  6
CONTINUOUS
 10
138.6820286577
 20
54.9381582119
 11
138.6820286577
 21
54.4381582119
  0
LINE
  5
409
100
AcDbEntity
  8
0
100
AcDbLine
 62
7
  6
CONTINUOUS
 10
139.5715998336
 20
54.9381582119
 11
139.5715998336
 21
54.4381582119
  0
LINE
  5
40A
100
AcDbEntity
  8
0
100
AcDbLine
 62
7
  6
CONTINUOUS
 10
139.7838090631
 20
37.7739574289
 11
139.7838090631
 21
37.3075266074
  0
LINE
  5
40B
100
AcDbEntity
  8
0
100
AcDbLine
 62
7
  6
CONTINUOUS
 10
140.1755854943
 20
54.9381582119
 11
140.1755854943
 21
54.4381582119
  0
LINE
  5
40C
100
AcDbEntity
  8
0
100
AcDbLine
 62
7
  6
CONTINUOUS
 10
140.6171421977
 20
37.547037515
 11
140.6171421977
 21
37.152542192
  0
LINE
  5
40D
100
AcDbEntity
  8
0
100
AcDbLine
 62
7
  6
CONTINUOUS
 10
145.2213085862
 20
79.4381582119
 11
143.9713085862
 21
75.8636901357
  0
LINE
  5
40E
100
AcDbEntity
  8
0
100
AcDbLine
 62
7
  6
CONTINUOUS
 10
144.3046418401
 20
75.4381582119
 11
145.4713085862
 21
78.5870944836
  0
LINE
  5
40F
100
AcDbEntity
  8
0
100
AcDbLine
 62
7
  6
CONTINUOUS
 10
147.1379750939
 20
78.5019881107
 11
147.3046420785
 21
78.7573072292
  0
LINE
  5
410
100
AcDbEntity
  8
0
100
AcDbLine
 62
7
  6
CONTINUOUS
 10
148.9713085862
 20
77.9913496353
 11
146.6379750939
 21
75.8636901357
  0
LINE
  5
411
100
AcDbEntity
  8
0
100
AcDbLine
 62
7
  6
CONTINUOUS
 10
147.3046420785
 20
75.8636901357
 11
149.3879750939
 21
77.7360305168
  0
LINE
  5
412
100
AcDbEntity
  8
0
100
AcDbLine
 62
7
  6
CONTINUOUS
 10
182.2138530709
 20
54.4381582119
 11
175.3048856547
 21
54.4381582119
  0
LINE
  5
413
100
AcDbEntity
  8
0
100
AcDbLine
 62
7
  6
CONTINUOUS
 10
171.6618098627
 20
54.4381582119
 11
158.8978086589
 21
54.4381582119
  0
LINE
  5
414
100
AcDbEntity
  8
0
100
AcDbLine
 62
7
  6
CONTINUOUS
 10
157.0264921727
 20
54.4381582119
 11
153.0493136327
 21
54.4381582119
  0
LINE
  5
415
100
AcDbEntity
  8
0
100
AcDbLine
 62
7
  6
CONTINUOUS
 10
141.4612310847
 20
54.4381582119
 11
136.1490148068
 21
54.4381582119
  0
LINE
  5
416
100
AcDbEntity
  8
0
100
AcDbLine
 62
7
  6
CONTINUOUS
 10
136.075211026
 20
54.4381582119
 11
124.3574547826
 21
54.4381582119
  0
LINE
  5
417
100
AcDbEntity
  8
0
100
AcDbLine
 62
7
  6
CONTINUOUS
 10
122.8747213059
 20
54.4381582119
 11
112.1995468697
 21
54.4381582119
  0
LINE
  5
418
100
AcDbEntity
  8
RUNDUNGEN
100
AcDbLine
 62
7
  6
CONTINUOUS
 10
105.0630281365
 20
54.9381582119
 11
190.5460998219
 21
54.9381582119
  0
LINE
  5
419
100
AcDbEntity
  8
0
100
AcDbLine
 62
7
  6
CONTINUOUS
 10
141.4504759284
 20
37.3445908539
 11
141.4504759284
 21
37.1005746805
  0
LINE
  5
41A
100
AcDbEntity
  8
0
100
AcDbLine
 62
7
  6
CONTINUOUS
 10
141.4612310847
 20
54.9381582119
 11
141.4612310847
 21
54.4381582119
  0
LINE
  5
41B
100
AcDbEntity
  8
0
100
AcDbLine
 62
7
  6
CONTINUOUS
 10
141.6588090631
 20
37.3009407404
 11
141.6588090631
 21
37.2068053015
  0
LINE
  5
41C
100
AcDbEntity
  8
0
100
AcDbLine
 62
7
  6
CONTINUOUS
 10
141.9713085862
 20
79.4381582119
 11
141.9713085862
 21
75.4381582119
  0
LINE
  5
41D
100
AcDbEntity
  8
0
100
AcDbLine
 62
7
  6
CONTINUOUS
 10
142.4713085862
 20
75.4381582119
 11
142.4713085862
 21
78.5870944836
  0
LINE
  5
41E
100
AcDbEntity
  8
0
100
AcDbLine
 62
7
  6
CONTINUOUS
 10
146.8046420785
 20
78.8424136021
 11
146.7213085862
 21
78.5019881107
  0
LINE
  5
41F
100
AcDbEntity
  8
0
100
AcDbLine
 62
7
  6
CONTINUOUS
 10
149.1379750939
 20
78.3317751267
 11
148.9713085862
 21
77.9913496353
  0
LINE
  5
420
100
AcDbEntity
  8
0
100
AcDbLine
 62
7
  6
CONTINUOUS
 10
149.3879750939
 20
77.7360305168
 11
149.5546420785
 21
77.9913496353
  0
LINE
  5
421
100
AcDbEntity
  8
0
100
AcDbLine
 62
7
  6
CONTINUOUS
 10
152.3046416017
 20
79.4381582119
 11
150.3046416017
 21
77.140285907
  0
LINE
  5
422
100
AcDbEntity
  8
0
100
AcDbLine
 62
7
  6
CONTINUOUS
 10
150.8879755708
 20
77.140285907
 11
152.3046416017
 21
78.7573072292
  0
LINE
  5
423
100
AcDbEntity
  8
0
100
AcDbLine
 62
7
  6
CONTINUOUS
 10
145.4713085862
 20
78.5870944836
 11
145.4713085862
 21
75.4381582119
  0
LINE
  5
424
100
AcDbEntity
  8
0
100
AcDbLine
 62
7
  6
CONTINUOUS
 10
145.9713085862
 20
75.4381582119
 11
145.9713085862
 21
79.4381582119
  0
LINE
  5
425
100
AcDbEntity
  8
0
100
AcDbLine
 62
7
  6
CONTINUOUS
 10
146.6379750939
 20
75.8636901357
 11
146.6379750939
 21
75.4381582119
  0
LINE
  5
426
100
AcDbEntity
  8
0
100
AcDbLine
 62
7
  6
CONTINUOUS
 10
147.2838090631
 20
36.6427831635
 11
147.2838090631
 21
36.1140014261
  0
LINE
  5
427
100
AcDbEntity
  8
0
100
AcDbLine
 62
7
  6
CONTINUOUS
 10
149.5546420785
 20
77.9913496353
 11
149.6379750939
 21
78.3317751267
  0
LINE
  5
428
100
AcDbEntity
  8
0
100
AcDbLine
 62
7
  6
CONTINUOUS
 10
142.4713085862
 20
78.5870944836
 11
143.6379752131
 21
75.4381582119
  0
LINE
  5
429
100
AcDbEntity
  8
0
100
AcDbLine
 62
7
  6
CONTINUOUS
 10
143.9713085862
 20
75.8636901357
 11
142.7213085862
 21
79.4381582119
  0
LINE
  5
42A
100
AcDbEntity
  8
0
100
AcDbLine
 62
7
  6
CONTINUOUS
 10
149.1379750939
 20
78.5019881107
 11
149.1379750939
 21
78.3317751267
  0
LINE
  5
42B
100
AcDbEntity
  8
0
100
AcDbLine
 62
7
  6
CONTINUOUS
 10
149.6379750939
 20
75.4381582119
 11
149.6379750939
 21
75.8636901357
  0
LINE
  5
42C
100
AcDbEntity
  8
0
100
AcDbLine
 62
7
  6
CONTINUOUS
 10
149.6379750939
 20
78.3317751267
 11
149.6379750939
 21
78.5019881107
  0
LINE
  5
42D
100
AcDbEntity
  8
0
100
AcDbLine
 62
7
  6
CONTINUOUS
 10
150.3046416017
 20
77.140285907
 11
150.3046416017
 21
76.6296475508
  0
LINE
  5
42E
100
AcDbEntity
  8
0
100
AcDbLine
 62
7
  6
CONTINUOUS
 10
152.3046416017
 20
78.7573072292
 11
152.3046416017
 21
77.140285907
  0
LINE
  5
42F
100
AcDbEntity
  8
0
100
AcDbLine
 62
7
  6
CONTINUOUS
 10
152.3046416017
 20
76.6296475508
 11
152.3046416017
 21
75.4381582119
  0
LINE
  5
430
100
AcDbEntity
  8
0
100
AcDbLine
 62
7
  6
CONTINUOUS
 10
152.8046416017
 20
75.4381582119
 11
152.8046416017
 21
76.6296475508
  0
LINE
  5
431
100
AcDbEntity
  8
0
100
AcDbLine
 62
7
  6
CONTINUOUS
 10
152.8046416017
 20
77.140285907
 11
152.8046416017
 21
79.4381582119
  0
LINE
  5
432
100
AcDbEntity
  8
0
100
AcDbLine
 62
7
  6
CONTINUOUS
 10
153.0493136327
 20
54.9381582119
 11
153.0493136327
 21
54.4381582119
  0
LINE
  5
433
100
AcDbEntity
  8
0
100
AcDbLine
 62
7
  6
CONTINUOUS
 10
153.6379755708
 20
76.6296475508
 11
153.6379755708
 21
77.140285907
  0
LINE
  5
434
100
AcDbEntity
  8
0
100
AcDbLine
 62
7
  6
CONTINUOUS
 10
153.6603246634
 20
54.9381582119
 11
153.6603246634
 21
54.4381582119
  0
LINE
  5
435
100
AcDbEntity
  8
0
100
AcDbLine
 62
7
  6
CONTINUOUS
 10
153.695014241
 20
54.9381582119
 11
153.695014241
 21
54.4381582119
  0
LINE
  5
436
100
AcDbEntity
  8
0
100
AcDbLine
 62
7
  6
CONTINUOUS
 10
153.7800744554
 20
54.9381582119
 11
153.7800744554
 21
54.4381582119
  0
LINE
  5
437
100
AcDbEntity
  8
0
100
AcDbLine
 62
7
  6
CONTINUOUS
 10
153.8696019446
 20
54.9381582119
 11
153.8696019446
 21
54.4381582119
  0
LINE
  5
438
100
AcDbEntity
  8
0
100
AcDbLine
 62
7
  6
CONTINUOUS
 10
154.0609645551
 20
54.9381582119
 11
154.0609645551
 21
54.4381582119
  0
LINE
  5
439
100
AcDbEntity
  8
0
100
AcDbLine
 62
7
  6
CONTINUOUS
 10
154.3671416017
 20
37.3880769105
 11
154.3671416017
 21
36.8798069429
  0
LINE
  5
43A
100
AcDbEntity
  8
0
100
AcDbLine
 62
7
  6
CONTINUOUS
 10
154.5578326809
 20
54.9381582119
 11
154.5578326809
 21
54.4381582119
  0
LINE
  5
43B
100
AcDbEntity
  8
0
100
AcDbLine
 62
7
  6
CONTINUOUS
 10
155.009937057
 20
54.9381582119
 11
155.009937057
 21
54.4381582119
  0
LINE
  5
43C
100
AcDbEntity
  8
0
100
AcDbLine
 62
7
  6
CONTINUOUS
 10
155.4396596493
 20
54.9381582119
 11
155.4396596493
 21
54.4381582119
  0
LINE
  5
43D
100
AcDbEntity
  8
0
100
AcDbLine
 62
7
  6
CONTINUOUS
 10
149.6379750939
 20
78.5019881107
 11
149.5546420785
 21
78.8424136021
  0
LINE
  5
43E
100
AcDbEntity
  8
0
100
AcDbLine
 62
7
  6
CONTINUOUS
 10
155.9488354596
 20
54.9381582119
 11
155.9488354596
 21
54.4381582119
  0
LINE
  5
43F
100
AcDbEntity
  8
0
100
AcDbLine
 62
7
  6
CONTINUOUS
 10
156.435629559
 20
54.9381582119
 11
156.435629559
 21
54.4381582119
  0
LINE
  5
440
100
AcDbEntity
  8
0
100
AcDbLine
 62
7
  6
CONTINUOUS
 10
156.7758245791
 20
54.9381582119
 11
156.7758245791
 21
54.4381582119
  0
LINE
  5
441
100
AcDbEntity
  8
0
100
AcDbLine
 62
7
  6
CONTINUOUS
 10
156.9918026679
 20
54.9381582119
 11
156.9918026679
 21
54.4381582119
  0
LINE
  5
442
100
AcDbEntity
  8
0
100
AcDbLine
 62
7
  6
CONTINUOUS
 10
157.0264921727
 20
54.9381582119
 11
157.0264921727
 21
54.4381582119
  0
LINE
  5
443
100
AcDbEntity
  8
0
100
AcDbLine
 62
7
  6
CONTINUOUS
 10
158.1171416017
 20
38.5458036521
 11
158.1171416017
 21
38.3350692302
  0
LINE
  5
444
100
AcDbEntity
  8
0
100
AcDbLine
 62
7
  6
CONTINUOUS
 10
158.894105169
 20
54.9381582119
 11
158.894105169
 21
54.4381582119
  0
LINE
  5
445
100
AcDbEntity
  8
0
100
AcDbLine
 62
7
  6
CONTINUOUS
 10
158.8978086589
 20
54.9381582119
 11
158.8978086589
 21
54.4381582119
  0
LINE
  5
446
100
AcDbEntity
  8
0
100
AcDbLine
 62
7
  6
CONTINUOUS
 10
159.0840962196
 20
54.9381582119
 11
159.0840962196
 21
54.4381582119
  0
LINE
  5
447
100
AcDbEntity
  8
BEZUGSACHSEN
100
AcDbLine
 62
7
  6
CONTINUOUS
 10
105.0630281365
 20
73.9381582119
 11
190.5460998219
 21
73.9381582119
  0
LINE
  5
448
100
AcDbEntity
  8
0
100
AcDbLine
 62
7
  6
CONTINUOUS
 10
141.9713085862
 20
75.4381582119
 11
142.4713085862
 21
75.4381582119
  0
LINE
  5
449
100
AcDbEntity
  8
0
100
AcDbLine
 62
7
  6
CONTINUOUS
 10
143.6379752131
 20
75.4381582119
 11
144.3046418401
 21
75.4381582119
  0
LINE
  5
44A
100
AcDbEntity
  8
0
100
AcDbLine
 62
7
  6
CONTINUOUS
 10
145.4713085862
 20
75.4381582119
 11
145.9713085862
 21
75.4381582119
  0
LINE
  5
44B
100
AcDbEntity
  8
0
100
AcDbLine
 62
7
  6
CONTINUOUS
 10
146.6379750939
 20
75.4381582119
 11
149.6379750939
 21
75.4381582119
  0
LINE
  5
44C
100
AcDbEntity
  8
0
100
AcDbLine
 62
7
  6
CONTINUOUS
 10
152.3046416017
 20
75.4381582119
 11
152.8046416017
 21
75.4381582119
  0
LINE
  5
44D
100
AcDbEntity
  8
0
100
AcDbLine
 62
7
  6
CONTINUOUS
 10
148.9713085862
 20
78.7573072292
 11
149.1379750939
 21
78.5019881107
  0
LINE
  5
44E
100
AcDbEntity
  8
0
100
AcDbLine
 62
7
  6
CONTINUOUS
 10
159.1588090631
 20
38.9680390531
 11
159.1588090631
 21
38.7710237227
  0
LINE
  5
44F
100
AcDbEntity
  8
0
100
AcDbLine
 62
7
  6
CONTINUOUS
 10
147.5546420785
 20
78.9275199749
 11
147.9713085862
 21
79.0126263477
  0
LINE
  5
450
100
AcDbEntity
  8
0
100
AcDbLine
 62
7
  6
CONTINUOUS
 10
149.6379750939
 20
75.8636901357
 11
147.3046420785
 21
75.8636901357
  0
LINE
  5
451
100
AcDbEntity
  8
0
100
AcDbLine
 62
7
  6
CONTINUOUS
 10
150.3046416017
 20
76.6296475508
 11
152.3046416017
 21
76.6296475508
  0
LINE
  5
452
100
AcDbEntity
  8
0
100
AcDbLine
 62
7
  6
CONTINUOUS
 10
152.8046416017
 20
76.6296475508
 11
153.6379755708
 21
76.6296475508
  0
LINE
  5
453
100
AcDbEntity
  8
0
100
AcDbLine
 62
7
  6
CONTINUOUS
 10
153.6379755708
 20
77.140285907
 11
152.8046416017
 21
77.140285907
  0
LINE
  5
454
100
AcDbEntity
  8
0
100
AcDbLine
 62
7
  6
CONTINUOUS
 10
152.3046416017
 20
77.140285907
 11
150.8879755708
 21
77.140285907
  0
LINE
  5
455
100
AcDbEntity
  8
0
100
AcDbLine
 62
7
  6
CONTINUOUS
 10
146.7213085862
 20
78.5019881107
 11
147.1379750939
 21
78.5019881107
  0
LINE
  5
456
100
AcDbEntity
  8
0
100
AcDbLine
 62
7
  6
CONTINUOUS
 10
147.9713085862
 20
79.0126263477
 11
148.3046420785
 21
79.0126263477
  0
LINE
  5
457
100
AcDbEntity
  8
0
100
AcDbLine
 62
7
  6
CONTINUOUS
 10
148.3046420785
 20
79.0126263477
 11
148.7213085862
 21
78.9275199749
  0
LINE
  5
458
100
AcDbEntity
  8
0
100
AcDbLine
 62
7
  6
CONTINUOUS
 10
149.2213085862
 20
79.1828390934
 11
148.8879750939
 21
79.3530518391
  0
LINE
  5
459
100
AcDbEntity
  8
0
100
AcDbLine
 62
7
  6
CONTINUOUS
 10
148.7213085862
 20
78.9275199749
 11
148.9713085862
 21
78.7573072292
  0
LINE
  5
45A
100
AcDbEntity
  8
0
100
AcDbLine
 62
7
  6
CONTINUOUS
 10
149.5546420785
 20
78.8424136021
 11
149.2213085862
 21
79.1828390934
  0
LINE
  5
45B
100
AcDbEntity
  8
0
100
AcDbLine
 62
7
  6
CONTINUOUS
 10
162.7917371361
 20
54.9381582119
 11
162.7917371361
 21
54.4381582119
  0
LINE
  5
45C
100
AcDbEntity
  8
0
100
AcDbLine
 62
7
  6
CONTINUOUS
 10
165.6965047069
 20
54.9381582119
 11
165.6965047069
 21
54.4381582119
  0
LINE
  5
45D
100
AcDbEntity
  8
0
100
AcDbLine
 62
7
  6
CONTINUOUS
 10
148.0546420785
 20
79.4381582119
 11
147.4713085862
 21
79.3530518391
  0
LINE
  5
45E
100
AcDbEntity
  8
0
100
AcDbLine
 62
7
  6
CONTINUOUS
 10
152.8046416017
 20
79.4381582119
 11
152.3046416017
 21
79.4381582119
  0
LINE
  5
45F
100
AcDbEntity
  8
0
100
AcDbLine
 62
7
  6
CONTINUOUS
 10
148.3879750939
 20
79.4381582119
 11
148.0546420785
 21
79.4381582119
  0
LINE
  5
460
100
AcDbEntity
  8
0
100
AcDbLine
 62
7
  6
CONTINUOUS
 10
145.9713085862
 20
79.4381582119
 11
145.2213085862
 21
79.4381582119
  0
LINE
  5
461
100
AcDbEntity
  8
0
100
AcDbLine
 62
7
  6
CONTINUOUS
 10
142.7213085862
 20
79.4381582119
 11
141.9713085862
 21
79.4381582119
  0
LINE
  5
462
100
AcDbEntity
  8
0
100
AcDbLine
 62
7
  6
CONTINUOUS
 10
148.8879750939
 20
79.3530518391
 11
148.3879750939
 21
79.4381582119
  0
LINE
  5
463
100
AcDbEntity
  8
0
100
AcDbLine
 62
7
  6
CONTINUOUS
 10
166.4244217211
 20
54.9381582119
 11
166.4244217211
 21
54.4381582119
  0
LINE
  5
464
100
AcDbEntity
  8
0
100
AcDbLine
 62
7
  6
CONTINUOUS
 10
169.2048863905
 20
54.9381582119
 11
169.2048863905
 21
54.4381582119
  0
LINE
  5
465
100
AcDbEntity
  8
0
100
AcDbLine
 62
7
  6
CONTINUOUS
 10
171.1812629562
 20
54.9381582119
 11
171.1812629562
 21
54.4381582119
  0
LINE
  5
466
100
AcDbEntity
  8
0
100
AcDbLine
 62
7
  6
CONTINUOUS
 10
171.5278598118
 20
54.9381582119
 11
171.5278598118
 21
54.4381582119
  0
LINE
  5
467
100
AcDbEntity
  8
0
100
AcDbLine
 62
7
  6
CONTINUOUS
 10
171.6618098627
 20
54.9381582119
 11
171.6618098627
 21
54.4381582119
  0
LINE
  5
468
100
AcDbEntity
  8
0
100
AcDbLine
 62
7
  6
CONTINUOUS
 10
175.3046420785
 20
54.9381582119
 11
175.3046420785
 21
54.4381582119
  0
LINE
  5
469
100
AcDbEntity
  8
RUNDUNGEN
100
AcDbLine
 62
7
  6
CONTINUOUS
 10
168.9513714746
 20
46.0856586903
 11
169.0485366486
 21
46.1981762232
  0
LWPOLYLINE
  5
46A
100
AcDbEntity
  8
RUNDUNGEN
100
AcDbPolyline
 62
7
  6
CONTINUOUS
 90
3
 70
0
 10
168.8019791152
 20
45.9151411399
 10
168.8138802892
 20
45.9286170975
 10
168.9513714746
 20
46.0856586903
  0
LWPOLYLINE
  5
46B
100
AcDbEntity
  8
BEZUGSACHSEN
100
AcDbPolyline
 62
7
  6
CONTINUOUS
 90
29
 70
0
 10
168.8019734838
 20
82.9611802807
 10
167.6948178722
 20
84.1392522221
 10
166.4629405662
 20
85.296618903
 10
165.1611429109
 20
86.3738570894
 10
163.794455412
 20
87.3682138871
 10
162.3682947139
 20
88.2768563354
 10
160.8881520564
 20
89.0971993646
 10
159.3596268506
 20
89.8268767489
 10
157.7884883771
 20
90.4637309351
 10
156.1805986077
 20
91.0058686374
 10
154.5419148379
 20
91.4516647375
 10
152.8784872824
 20
91.7997700387
 10
151.1964274587
 20
92.0491251285
 10
149.5019196432
 20
92.1989636129
 10
147.801174758
 20
92.2488254024
 10
146.1004472385
 20
92.1985558018
 10
144.4059866183
 20
92.0483118413
 10
142.7239981908
 20
91.7985549028
 10
141.0606676918
 20
91.4500526579
 10
139.4221078765
 20
91.003866329
 10
137.8143688414
 20
90.4613468095
 10
136.2434069012
 20
89.8241206627
 10
134.7150837103
 20
89.0940829105
 10
133.2351662266
 20
88.2733916812
 10
131.8092516863
 20
87.3644134383
 10
130.4428307446
 20
86.369734153
 10
129.141319519
 20
85.2921877682
 10
127.9097473793
 20
84.1345272005
 10
126.8073109632
 20
82.9611805786
  0
LINE
  5
46C
100
AcDbEntity
  8
BEZUGSACHSEN
100
AcDbLine
 62
7
  6
CONTINUOUS
 10
168.8829022118
 20
82.8691771698
 11
168.8019791152
 21
82.961175284
  0
LWPOLYLINE
  5
46D
100
AcDbEntity
  8
BEZUGSACHSEN
100
AcDbPolyline
 62
7
  6
CONTINUOUS
 90
3
 70
0
 10
169.0485366486
 20
82.6781402006
 10
169.0192886229
 20
82.7121455006
 10
168.8829022118
 20
82.8691771698
  0
LINE
  5
46E
100
AcDbEntity
  8
0
100
AcDbLine
 62
7
  6
CONTINUOUS
 10
180.0838530709
 20
54.9381582119
 11
180.0838530709
 21
54.4381582119
  0
LINE
  5
46F
100
AcDbEntity
  8
0
100
AcDbLine
 62
7
  6
CONTINUOUS
 10
182.2138530709
 20
54.9381582119
 11
182.2138530709
 21
54.4381582119
  0
LINE
  5
470
100
AcDbEntity
  8
RUNDUNGEN
100
AcDbLine
 62
7
  6
CONTINUOUS
 10
194.0462744803
 20
58.4381582119
 11
194.0462744803
 21
70.4381582119
  0
ARC
  5
471
100
AcDbEntity
  8
BEZUGSACHSEN
100
AcDbCircle
 62
7
  6
CONTINUOUS
 10
131.7446708509
 20
203.4966034535
 40
64.0
100
AcDbArc
 50
71.1834219864
 51
74.2046054893
  0
ARC
  5
472
100
AcDbEntity
  8
RUNDUNGEN
100
AcDbCircle
 62
7
  6
CONTINUOUS
 10
163.8646133061
 20
203.4966034535
 40
64.0
100
AcDbArc
 50
105.7953945107
 51
166.2190706267
  0
ARC
  5
473
100
AcDbEntity
  8
RUNDUNGEN
100
AcDbCircle
 62
7
  6
CONTINUOUS
 10
131.7446708509
 20
203.4966034535
 40
64.0
100
AcDbArc
 50
13.7809293733
 51
74.2046054893
  0
ARC
  5
474
100
AcDbEntity
  8
0
100
AcDbCircle
 62
7
  6
CONTINUOUS
 10
147.8046420785
 20
216.9966034535
 40
24.0
100
AcDbArc
 50
195.0858624001
 51
200.7103063906
  0
ARC
  5
475
100
AcDbEntity
  8
0
100
AcDbCircle
 62
7
  6
CONTINUOUS
 10
147.8046420785
 20
216.9966034535
 40
24.0
100
AcDbArc
 50
339.2896932619
 51
344.9141375999
  0
ARC
  5
476
100
AcDbEntity
  8
RUNDUNGEN
100
AcDbCircle
 62
7
  6
CONTINUOUS
 10
147.8046420785
 20
216.9966034535
 40
24.0
100
AcDbArc
 50
344.9141375999
 51
195.0858624001
  0
ARC
  5
477
100
AcDbEntity
  8
BEZUGSACHSEN
100
AcDbCircle
 62
7
  6
CONTINUOUS
 10
185.8046420785
 20
170.9966034535
 40
13.0
100
AcDbArc
 50
132.4348614702
 51
180.0
  0
ARC
  5
478
100
AcDbEntity
  8
0
100
AcDbCircle
 62
7
  6
CONTINUOUS
 10
185.8046420785
 20
170.9966034535
 40
13.0
100
AcDbArc
 50
132.4348614702
 51
180.0
  0
ARC
  5
479
100
AcDbEntity
  8
BEZUGSACHSEN
100
AcDbCircle
 62
7
  6
CONTINUOUS
 10
109.8046420785
 20
170.9966034535
 40
13.0
100
AcDbArc
 50
0.0
 51
47.5651385298
  0
ARC
  5
47A
100
AcDbEntity
  8
BEZUGSACHSEN
100
AcDbCircle
 62
7
  6
CONTINUOUS
 10
106.5630096767
 20
217.5510056643
 40
5.0
100
AcDbArc
 50
166.2190706181
 51
205.00000001
  0
ARC
  5
47B
100
AcDbEntity
  8
BEZUGSACHSEN
100
AcDbCircle
 62
7
  6
CONTINUOUS
 10
189.0462744803
 20
217.5510056643
 40
5.0
100
AcDbArc
 50
334.9999999914
 51
13.7809293833
  0
ARC
  5
47C
100
AcDbEntity
  8
RUNDUNGEN
100
AcDbCircle
 62
7
  6
CONTINUOUS
 10
189.0462744803
 20
217.5510056643
 40
5.0
100
AcDbArc
 50
335.0
 51
13.7809293733
  0
ARC
  5
47D
100
AcDbEntity
  8
RUNDUNGEN
100
AcDbCircle
 62
7
  6
CONTINUOUS
 10
147.8046420785
 20
260.2687561709
 40
5.0
100
AcDbArc
 50
74.2046054893
 51
105.7953945107
  0
ARC
  5
47E
100
AcDbEntity
  8
RUNDUNGEN
100
AcDbCircle
 62
7
  6
CONTINUOUS
 10
106.5630096767
 20
217.5510056643
 40
5.0
100
AcDbArc
 50
166.2190706267
 51
205.0
  0
ARC
  5
47F
100
AcDbEntity
  8
BEZUGSACHSEN
100
AcDbCircle
 62
7
  6
CONTINUOUS
 10
174.6713089202
 20
183.174490164
 40
3.5
100
AcDbArc
 50
312.4324359263
 51
334.9973732574
  0
ARC
  5
480
100
AcDbEntity
  8
BEZUGSACHSEN
100
AcDbCircle
 62
7
  6
CONTINUOUS
 10
120.9379649624
 20
183.1745121974
 40
3.5
100
AcDbArc
 50
205.0030247222
 51
227.567931569
  0
ARC
  5
481
100
AcDbEntity
  8
0
100
AcDbCircle
 62
7
  6
CONTINUOUS
 10
179.9346420785
 20
230.6741263341
 40
2.5
100
AcDbArc
 50
24.2608295227
 51
208.3142771166
  0
ARC
  5
482
100
AcDbEntity
  8
0
100
AcDbCircle
 62
7
  6
CONTINUOUS
 10
177.8046420785
 20
234.3633945542
 40
2.5
100
AcDbArc
 50
24.2608295227
 51
208.3142771166
  0
ARC
  5
483
100
AcDbEntity
  8
0
100
AcDbCircle
 62
7
  6
CONTINUOUS
 10
179.9346420785
 20
230.6741263341
 40
1.75
100
AcDbArc
 50
132.5412744583
 51
218.2132107017
  0
ARC
  5
484
100
AcDbEntity
  8
0
100
AcDbCircle
 62
7
  6
CONTINUOUS
 10
179.9346420785
 20
230.6741263341
 40
1.75
100
AcDbArc
 50
21.7867892983
 51
107.6123707416
  0
ARC
  5
485
100
AcDbEntity
  8
0
100
AcDbCircle
 62
7
  6
CONTINUOUS
 10
177.8046420785
 20
234.3633945542
 40
1.75
100
AcDbArc
 50
30.0538889515
 51
218.2132107017
  0
ARC
  5
486
100
AcDbEntity
  8
0
100
AcDbCircle
 62
7
  6
CONTINUOUS
 10
227.3772398034
 20
198.7975171505
 40
87.6223786108
100
AcDbArc
 50
344.729606036
 51
345.5931473494
  0
ARC
  5
487
100
AcDbEntity
  8
0
100
AcDbCircle
 62
7
  6
CONTINUOUS
 10
264.465111265
 20
192.3852842294
 40
49.9944819141
100
AcDbArc
 50
351.9053669972
 51
353.8123243467
  0
ARC
  5
488
100
AcDbEntity
  8
0
100
AcDbCircle
 62
7
  6
CONTINUOUS
 10
264.4689392956
 20
192.3847856221
 40
49.9906214559
100
AcDbArc
 50
349.998216919
 51
350.579337087
  0
ARC
  5
489
100
AcDbEntity
  8
0
100
AcDbCircle
 62
7
  6
CONTINUOUS
 10
264.4694087949
 20
192.3847342953
 40
49.9901497986
100
AcDbArc
 50
350.6339411788
 51
351.9052989022
  0
ARC
  5
48A
100
AcDbEntity
  8
0
100
AcDbCircle
 62
7
  6
CONTINUOUS
 10
265.3585914788
 20
192.3722747976
 40
48.1106194846
100
AcDbArc
 50
350.2571057297
 51
350.7709072522
  0
ARC
  5
48B
100
AcDbEntity
  8
0
100
AcDbCircle
 62
7
  6
CONTINUOUS
 10
272.899900603
 20
196.5355909234
 40
39.281494738
100
AcDbArc
 50
342.3971362402
 51
343.6949224709
  0
ARC
  5
48C
100
AcDbEntity
  8
0
100
AcDbCircle
 62
7
  6
CONTINUOUS
 10
261.9644126456
 20
209.1886152756
 40
15.0
100
AcDbArc
 50
315.8995610712
 51
337.4563447769
  0
ARC
  5
48D
100
AcDbEntity
  8
BEZUGSACHSEN
100
AcDbCircle
 62
7
  6
CONTINUOUS
 10
261.9644126456
 20
209.1886152756
 40
15.0
100
AcDbArc
 50
297.0000006822
 51
358.6243780633
  0
ARC
  5
48E
100
AcDbEntity
  8
0
100
AcDbCircle
 62
7
  6
CONTINUOUS
 10
261.9644126456
 20
209.1886152756
 40
15.0
100
AcDbArc
 50
338.2257530476
 51
344.7452216946
  0
ARC
  5
48F
100
AcDbEntity
  8
BEZUGSACHSEN
100
AcDbCircle
 62
7
  6
CONTINUOUS
 10
248.4644126456
 20
170.9966034535
 40
13.0
100
AcDbArc
 50
0.0
 51
18.8738583154
  0
ARC
  5
490
100
AcDbEntity
  8
BEZUGSACHSEN
100
AcDbCircle
 62
7
  6
CONTINUOUS
 10
262.6537446802
 20
188.2156489754
 40
4.0
100
AcDbArc
 50
117.0
 51
185.2001606779
  0
ARC
  5
491
100
AcDbEntity
  8
BEZUGSACHSEN
100
AcDbCircle
 62
7
  6
CONTINUOUS
 10
308.4644126456
 20
192.3848820887
 40
50.0
100
AcDbArc
 50
185.1914945019
 51
190.0
  0
ARC
  5
492
100
AcDbEntity
  8
0
100
AcDbCircle
 62
7
  6
CONTINUOUS
 10
279.9271710755
 20
194.3912873392
 40
34.3837045329
100
AcDbArc
 50
341.8884157767
 51
342.8120299088
  0
ARC
  5
493
100
AcDbEntity
  8
0
100
AcDbCircle
 62
7
  6
CONTINUOUS
 10
285.6824611384
 20
184.0991435111
 40
27.169666518
100
AcDbArc
 50
1.1747649917
 51
2.5215480468
  0
ARC
  5
494
100
AcDbEntity
  8
0
100
AcDbCircle
 62
7
  6
CONTINUOUS
 10
292.8784585482
 20
197.8293156432
 40
21.585644572
100
AcDbArc
 50
325.1907756417
 51
327.8986553907
  0
ARC
  5
495
100
AcDbEntity
  8
RUNDUNGEN
100
AcDbCircle
 62
7
  6
CONTINUOUS
 10
310.9644126456
 20
209.1886152756
 40
15.0
100
AcDbArc
 50
181.3756219367
 51
242.9999993178
  0
ARC
  5
496
100
AcDbEntity
  8
0
100
AcDbCircle
 62
7
  6
CONTINUOUS
 10
310.9644126456
 20
209.1886152756
 40
15.0
100
AcDbArc
 50
195.2547783054
 51
201.7742469524
  0
ARC
  5
497
100
AcDbEntity
  8
0
100
AcDbCircle
 62
7
  6
CONTINUOUS
 10
310.9644126456
 20
209.1886152756
 40
15.0
100
AcDbArc
 50
202.5436552231
 51
224.1004389288
  0
ARC
  5
498
100
AcDbEntity
  8
0
100
AcDbCircle
 62
7
  6
CONTINUOUS
 10
301.7894839954
 20
196.855191321
 40
14.0735060551
100
AcDbArc
 50
311.7668554033
 51
314.3055503859
  0
ARC
  5
499
100
AcDbEntity
  8
0
100
AcDbCircle
 62
7
  6
CONTINUOUS
 10
324.4644126456
 20
170.9966034535
 40
13.0
100
AcDbArc
 50
161.1261416846
 51
180.0
  0
ARC
  5
49A
100
AcDbEntity
  8
0
100
AcDbCircle
 62
7
  6
CONTINUOUS
 10
302.4727816061
 20
182.3339912261
 40
10.7680028322
100
AcDbArc
 50
15.9580515925
 51
18.3277157012
  0
ARC
  5
49B
100
AcDbEntity
  8
0
100
AcDbCircle
 62
7
  6
CONTINUOUS
 10
309.3045369861
 20
180.8437449396
 40
5.9389352149
100
AcDbArc
 50
55.7988574014
 51
57.5985247117
  0
ARC
  5
49C
100
AcDbEntity
  8
0
100
AcDbCircle
 62
7
  6
CONTINUOUS
 10
309.6105740697
 20
181.2984951433
 40
5.3908024275
100
AcDbArc
 50
55.1043841748
 51
55.7722742599
  0
ARC
  5
49D
100
AcDbEntity
  8
RUNDUNGEN
100
AcDbCircle
 62
7
  6
CONTINUOUS
 10
310.2750806111
 20
188.2156489754
 40
4.0
100
AcDbArc
 50
354.7998393221
 51
63.0
  0
ARC
  5
49E
100
AcDbEntity
  8
BEZUGSACHSEN
100
AcDbCircle
 62
7
  6
CONTINUOUS
 10
280.4644126456
 20
261.7687561709
 40
3.5
100
AcDbArc
 50
90.0
 51
180.0
  0
ARC
  5
49F
100
AcDbEntity
  8
RUNDUNGEN
100
AcDbCircle
 62
7
  6
CONTINUOUS
 10
292.4644126456
 20
261.7687561709
 40
3.5
100
AcDbArc
 50
0.0
 51
90.0
  0
ARC
  5
4A0
100
AcDbEntity
  8
RUNDUNGEN
100
AcDbCircle
 62
7
  6
CONTINUOUS
 10
108.9748854478
 20
32.9381582119
 40
22.0
100
AcDbArc
 50
81.5633292284
 51
90.0
  0
ARC
  5
4A1
100
AcDbEntity
  8
RUNDUNGEN
100
AcDbCircle
 62
7
  6
CONTINUOUS
 10
108.9748854478
 20
32.9381582119
 40
22.0
100
AcDbArc
 50
39.0495128579
 51
77.9841722389
  0
ARC
  5
4A2
100
AcDbEntity
  8
RUNDUNGEN
100
AcDbCircle
 62
7
  6
CONTINUOUS
 10
105.0630096767
 20
58.4381582119
 40
3.5
100
AcDbArc
 50
180.0
 51
270.0
  0
ARC
  5
4A3
100
AcDbEntity
  8
BEZUGSACHSEN
100
AcDbCircle
 62
7
  6
CONTINUOUS
 10
108.9748854478
 20
95.9381582119
 40
22.0
100
AcDbArc
 50
270.0
 51
320.9504871421
  0
ARC
  5
4A4
100
AcDbEntity
  8
BEZUGSACHSEN
100
AcDbCircle
 62
7
  6
CONTINUOUS
 10
105.0630096767
 20
70.4381582119
 40
3.5
100
AcDbArc
 50
90.0
 51
180.0
  0
ARC
  5
4A5
100
AcDbEntity
  8
RUNDUNGEN
100
AcDbCircle
 62
7
  6
CONTINUOUS
 10
149.2414807254
 20
63.2051670291
 40
26.1066505031
100
AcDbArc
 50
318.5348466067
 51
319.3495951317
  0
ARC
  5
4A6
100
AcDbEntity
  8
RUNDUNGEN
100
AcDbCircle
 62
7
  6
CONTINUOUS
 10
186.6343987092
 20
32.9381582119
 40
22.0
100
AcDbArc
 50
102.0160439628
 51
140.950358734
  0
ARC
  5
4A7
100
AcDbEntity
  8
RUNDUNGEN
100
AcDbCircle
 62
7
  6
CONTINUOUS
 10
186.6343987092
 20
32.9381582119
 40
22.0
100
AcDbArc
 50
90.0
 51
101.6215985303
  0
ARC
  5
4A8
100
AcDbEntity
  8
RUNDUNGEN
100
AcDbCircle
 62
7
  6
CONTINUOUS
 10
190.5462744803
 20
58.4381582119
 40
3.5
100
AcDbArc
 50
270.0
 51
360.0
  0
ARC
  5
4A9
100
AcDbEntity
  8
0
100
AcDbCircle
 62
7
  6
CONTINUOUS
 10
147.8046420785
 20
64.4381582119
 40
28.3289449973
100
AcDbArc
 50
268.9465468967
 51
283.3944403156
  0
ARC
  5
4AA
100
AcDbEntity
  8
0
100
AcDbCircle
 62
7
  6
CONTINUOUS
 10
147.8046420785
 20
64.4381582119
 40
28.3289449973
100
AcDbArc
 50
249.1039936806
 51
250.8976559772
  0
ARC
  5
4AB
100
AcDbEntity
  8
0
100
AcDbCircle
 62
7
  6
CONTINUOUS
 10
147.8046420785
 20
64.4381582119
 40
28.0663303765
100
AcDbArc
 50
291.5573983975
 51
293.8627814086
  0
ARC
  5
4AC
100
AcDbEntity
  8
RUNDUNGEN
100
AcDbCircle
 62
7
  6
CONTINUOUS
 10
147.8046420785
 20
64.4381582119
 40
28.0
100
AcDbArc
 50
219.050601655
 51
220.6435898615
  0
ARC
  5
4AD
100
AcDbEntity
  8
RUNDUNGEN
100
AcDbCircle
 62
7
  6
CONTINUOUS
 10
147.8046420785
 20
64.4381582119
 40
28.0
100
AcDbArc
 50
319.3563617339
 51
320.9494992694
  0
ARC
  5
4AE
100
AcDbEntity
  8
BEZUGSACHSEN
100
AcDbCircle
 62
7
  6
CONTINUOUS
 10
147.8046420785
 20
64.4381582119
 40
28.0
100
AcDbArc
 50
39.0505007306
 51
40.6436382661
  0
ARC
  5
4AF
100
AcDbEntity
  8
BEZUGSACHSEN
100
AcDbCircle
 62
7
  6
CONTINUOUS
 10
147.8046420785
 20
64.4381582119
 40
28.0
100
AcDbArc
 50
139.3564101385
 51
140.949398345
  0
ARC
  5
4B0
100
AcDbEntity
  8
BEZUGSACHSEN
100
AcDbCircle
 62
7
  6
CONTINUOUS
 10
149.2414807252
 20
65.6711493946
 40
26.1066505034
100
AcDbArc
 50
40.6504048683
 51
41.4651533933
  0
ARC
  5
4B1
100
AcDbEntity
  8
0
100
AcDbCircle
 62
7
  6
CONTINUOUS
 10
147.8046420785
 20
64.4381582119
 40
22.75
100
AcDbArc
 50
206.0830404006
 51
333.9151330285
  0
ARC
  5
4B2
100
AcDbEntity
  8
0
100
AcDbCircle
 62
7
  6
CONTINUOUS
 10
147.8046420785
 20
64.4381582119
 40
22.75
100
AcDbArc
 50
24.6885638284
 51
155.3095632014
  0
ARC
  5
4B3
100
AcDbEntity
  8
RUNDUNGEN
100
AcDbCircle
 62
7
  6
CONTINUOUS
 10
147.8046420785
 20
64.4381582119
 40
22.5
100
AcDbArc
 50
206.3975733723
 51
333.6024266301
  0
ARC
  5
4B4
100
AcDbEntity
  8
RUNDUNGEN
100
AcDbCircle
 62
7
  6
CONTINUOUS
 10
147.8046420785
 20
64.4381582119
 40
22.5
100
AcDbArc
 50
24.9951878577
 51
155.0048121452
  0
ARC
  5
4B5
100
AcDbEntity
  8
BEZUGSACHSEN
100
AcDbCircle
 62
7
  6
CONTINUOUS
 10
190.5462744803
 20
70.4381582119
 40
3.5
100
AcDbArc
 50
0.0
 51
90.0
  0
ARC
  5
4B6
100
AcDbEntity
  8
BEZUGSACHSEN
100
AcDbCircle
 62
7
  6
CONTINUOUS
 10
186.6343987092
 20
95.9381582119
 40
22.0
100
AcDbArc
 50
219.049641266
 51
270.0
  0
SPLINE
  5
4B7
100
AcDbEntity
  8
0
100
AcDbSpline
 62
7
  6
CONTINUOUS
 70
0
 71
3
 72
11
 73
7
 74
0
 42
0.0000001
 43
0.0000001
 44
0.0000000001
 40
0.0
 40
0.0
 40
0.0
 40
0.0
 40
0.2503577297
 40
0.4974243765
 40
0.7459640894
 40
1.0
 40
1.0
 40
1.0
 40
1.0
 10
165.94572377
 20
198.7498376926
 30
0.0
 10
165.7046483692
 20
198.4211061548
 30
0.0
 10
165.1787878117
 20
197.8005932596
 30
0.0
 10
164.2608982774
 20
196.9985053657
 30
0.0
 10
163.2325494576
 20
196.3338768624
 30
0.0
 10
162.4916876877
 20
195.9810928643
 30
0.0
 10
162.1092342849
 20
195.8235174128
 30
0.0
  0
SPLINE
  5
4B8
100
AcDbEntity
  8
0
100
AcDbSpline
 62
7
  6
CONTINUOUS
 70
0
 71
3
 72
11
 73
7
 74
0
 42
0.0000001
 43
0.0000001
 44
0.0000000001
 40
0.0
 40
0.0
 40
0.0
 40
0.0
 40
0.2540358284
 40
0.5025752513
 40
0.7496418007
 40
1.0
 40
1.0
 40
1.0
 40
1.0
 10
133.5000498721
 20
195.8235174128
 30
0.0
 10
133.117596243
 20
195.9810929576
 30
0.0
 10
132.3767343781
 20
196.333877057
 30
0.0
 10
131.3483851355
 20
196.9985056373
 30
0.0
 10
130.430495212
 20
197.8005948903
 30
0.0
 10
129.9046330684
 20
198.4211082284
 30
0.0
 10
129.663557162
 20
198.7498408062
 30
0.0
  0
SPLINE
  5
4B9
100
AcDbEntity
  8
0
100
AcDbSpline
 62
7
  6
CONTINUOUS
 70
0
 71
3
 72
12
 73
8
 74
0
 42
0.0000001
 43
0.0000001
 44
0.0000000001
 40
0.0
 40
0.0
 40
0.0
 40
0.0
 40
0.2819293921
 40
0.5519764877
 40
0.7993418938
 40
0.9079301366
 40
1.0
 40
1.0
 40
1.0
 40
1.0
 10
125.861389309
 20
206.5909854655
 30
0.0
 10
125.8149285644
 20
206.7715826738
 30
0.0
 10
125.725991107
 20
207.1256911318
 30
0.0
 10
125.5996089686
 20
207.6390530134
 30
0.0
 10
125.4984456341
 20
208.0406275742
 30
0.0
 10
125.4178786984
 20
208.3257965935
 30
0.0
 10
125.3770486232
 20
208.4522050671
 30
0.0
 10
125.3555124087
 20
208.5091680145
 30
0.0
  0
SPLINE
  5
4BA
100
AcDbEntity
  8
0
100
AcDbSpline
 62
7
  6
CONTINUOUS
 70
0
 71
3
 72
11
 73
7
 74
0
 42
0.0000001
 43
0.0000001
 44
0.0000000001
 40
0.0
 40
0.0
 40
0.0
 40
0.0
 40
0.2569780044
 40
0.5063954119
 40
0.753065065
 40
1.0
 40
1.0
 40
1.0
 40
1.0
 10
129.6635571666
 20
198.7498570749
 30
0.0
 10
129.2192897376
 20
199.355662853
 30
0.0
 10
128.3772380126
 20
200.5753849557
 30
0.0
 10
127.304836811
 20
202.5026495606
 30
0.0
 10
126.4587842501
 20
204.5079113327
 30
0.0
 10
126.0412660737
 20
205.8918664249
 30
0.0
 10
125.861389309
 20
206.5909854655
 30
0.0
  0
SPLINE
  5
4BB
100
AcDbEntity
  8
0
100
AcDbSpline
 62
7
  6
CONTINUOUS
 70
0
 71
3
 72
11
 73
7
 74
0
 42
0.0000001
 43
0.0000001
 44
0.0000000001
 40
0.0
 40
0.0
 40
0.0
 40
0.0
 40
0.24693604
 40
0.4936054248
 40
0.743022432
 40
1.0
 40
1.0
 40
1.0
 40
1.0
 10
169.7478949001
 20
206.5909855269
 30
0.0
 10
169.5680177406
 20
205.8918629464
 30
0.0
 10
169.1505009054
 20
204.5079041422
 30
0.0
 10
168.3044432884
 20
202.5026420204
 30
0.0
 10
167.2320418816
 20
200.5753803626
 30
0.0
 10
166.38999093
 20
199.3556599391
 30
0.0
 10
165.9457237651
 20
198.7498551673
 30
0.0
  0
SPLINE
  5
4BC
100
AcDbEntity
  8
0
100
AcDbSpline
 62
7
  6
CONTINUOUS
 70
0
 71
3
 72
12
 73
8
 74
0
 42
0.0000001
 43
0.0000001
 44
0.0000000001
 40
0.0
 40
0.0
 40
0.0
 40
0.0
 40
0.0920701638
 40
0.2006598722
 40
0.4480258234
 40
0.7180716881
 40
1.0
 40
1.0
 40
1.0
 40
1.0
 10
170.2537717428
 20
208.5091680182
 30
0.0
 10
170.2322354583
 20
208.4522048866
 30
0.0
 10
170.1914049131
 20
208.3257953461
 30
0.0
 10
170.110837071
 20
208.0406249956
 30
0.0
 10
170.0096748103
 20
207.6390496338
 30
0.0
 10
169.8832923881
 20
207.1256890453
 30
0.0
 10
169.7943553909
 20
206.7715820576
 30
0.0
 10
169.7478949001
 20
206.5909855269
 30
0.0
  0
LINE
  5
4BD
100
AcDbEntity
  8
0
100
AcDbLine
 62
7
  6
CONTINUOUS
 10
312.3094089671
 20
176.9966034535
 11
312.5021833142
 21
178.060433263
  0
LINE
  5
4BE
100
AcDbEntity
  8
0
100
AcDbLine
 62
7
  6
CONTINUOUS
 10
313.6188402259
 20
184.2306457404
 11
313.6957655561
 21
184.6561782006
  0
LINE
  5
4BF
100
AcDbEntity
  8
0
100
AcDbLine
 62
7
  6
CONTINUOUS
 10
308.6637058523
 20
176.9966034535
 11
308.8835966129
 21
178.060433263
  0
LINE
  5
4C0
100
AcDbEntity
  8
0
100
AcDbLine
 62
7
  6
CONTINUOUS
 10
313.383170024
 20
184.6561782006
 11
313.3053488192
 21
184.2306457404
  0
LINE
  5
4C1
100
AcDbEntity
  8
0
100
AcDbLine
 62
7
  6
CONTINUOUS
 10
313.3051657052
 20
181.4646886233
 11
313.6360530929
 21
183.3408953534
  0
LINE
  5
4C2
100
AcDbEntity
  8
0
100
AcDbLine
 62
7
  6
CONTINUOUS
 10
313.6360530929
 20
183.3408953534
 11
313.699820708
 21
183.7024732053
  0
LINE
  5
4C3
100
AcDbEntity
  8
0
100
AcDbLine
 62
7
  6
CONTINUOUS
 10
309.4758881776
 20
178.060433263
 11
309.2575330908
 21
176.9966034535
  0
LINE
  5
4C4
100
AcDbEntity
  8
0
100
AcDbLine
 62
7
  6
CONTINUOUS
 10
312.5105457668
 20
178.060433263
 11
312.4791113976
 21
177.9319554378
  0
LINE
  5
4C5
100
AcDbEntity
  8
0
100
AcDbLine
 62
7
  6
CONTINUOUS
 10
313.7931238917
 20
184.2492433555
 11
313.7853470507
 21
184.2022334727
  0
SPLINE
  5
4C6
100
AcDbEntity
  8
0
100
AcDbSpline
 62
7
  6
CONTINUOUS
 70
0
 71
3
 72
9
 73
5
 74
0
 42
0.0000001
 43
0.0000001
 44
0.0000000001
 40
0.0
 40
0.0
 40
0.0
 40
0.0
 40
0.2391565906
 40
1.0
 40
1.0
 40
1.0
 40
1.0
 10
312.2652719505
 20
186.9966034535
 30
0.0
 10
312.2142312068
 20
186.9783788518
 30
0.0
 10
312.0003057958
 20
186.903593346
 30
0.0
 10
311.7845130661
 20
186.8341958872
 30
0.0
 10
311.6196114274
 20
186.7838375215
 30
0.0
  0
ELLIPSE
  5
4C7
100
AcDbEntity
  8
0
100
AcDbEllipse
 62
7
  6
CONTINUOUS
 10
147.8046420785
 20
204.8370952237
 30
0.0
 11
22.75
 21
-0.0
 31
0.0
 40
0.5095254495
 41
-2.2507709401
 42
-0.8908217135
  0
ELLIPSE
  5
4C8
100
AcDbEntity
  8
0
100
AcDbEllipse
 62
7
  6
CONTINUOUS
 10
286.4644126456
 20
187.8693866298
 30
0.0
 11
-0.0
 21
38.7851429006
 31
0.0
 40
0.7128923275
 41
-1.8321522627
 42
-1.8132690017
  0
ELLIPSE
  5
4C9
100
AcDbEntity
  8
0
100
AcDbEllipse
 62
7
  6
CONTINUOUS
 10
286.4644126456
 20
179.9602617012
 30
0.0
 11
26.9296674753
 21
-0.0
 31
0.0
 40
0.6163738601
 41
-0.1664971392
 42
-0.1276205062
  0
ELLIPSE
  5
4CA
100
AcDbEntity
  8
0
100
AcDbEllipse
 62
7
  6
CONTINUOUS
 10
286.4644126456
 20
177.7248912376
 30
0.0
 11
26.676773461
 21
0.0
 31
0.0
 40
0.2043879928
 41
-0.1339720741
 42
-0.0946907558
  0
ELLIPSE
  5
4CB
100
AcDbEntity
  8
0
100
AcDbEllipse
 62
7
  6
CONTINUOUS
 10
286.4644126456
 20
201.2175025984
 30
0.0
 11
0.0
 21
57.7363758345
 31
0.0
 40
0.5041447118
 41
4.2549863326
 42
4.2996903588
  0
ELLIPSE
  5
4CC
100
AcDbEntity
  8
0
100
AcDbEllipse
 62
7
  6
CONTINUOUS
 10
286.4644126456
 20
193.0120605184
 30
0.0
 11
29.0182627493
 21
-0.0
 31
0.0
 40
0.9102250647
 41
-0.6017276896
 42
-0.3993839694
  0
ELLIPSE
  5
4CD
100
AcDbEntity
  8
0
100
AcDbEllipse
 62
7
  6
CONTINUOUS
 10
286.4644126456
 20
206.2401329668
 30
0.0
 11
0.0
 21
48.5955261141
 31
0.0
 40
0.6285126339
 41
-2.0755135256
 42
-2.0605686758
  0
ELLIPSE
  5
4CE
100
AcDbEntity
  8
0
100
AcDbEllipse
 62
7
  6
CONTINUOUS
 10
286.4644126456
 20
406.6808528249
 30
0.0
 11
-0.0
 21
273.9687272651
 31
0.0
 40
0.1697988691
 41
3.7595542176
 42
3.7648958592
  0
ELLIPSE
  5
4CF
100
AcDbEntity
  8
0
100
AcDbEllipse
 62
7
  6
CONTINUOUS
 10
286.4644126456
 20
303.2044591173
 30
0.0
 11
-0.0
 21
199.4331209231
 31
0.0
 40
0.1697988691
 41
-2.207348293
 42
-2.202051898
  0
ELLIPSE
  5
4D0
100
AcDbEntity
  8
0
100
AcDbEllipse
 62
7
  6
CONTINUOUS
 10
286.4644126456
 20
184.1350620746
 30
0.0
 11
-0.0
 21
28.4163691518
 31
0.0
 40
0.9631600593
 41
-1.5224891812
 42
-1.4924781576
  0
ELLIPSE
  5
4D1
100
AcDbEntity
  8
0
100
AcDbEllipse
 62
7
  6
CONTINUOUS
 10
286.4644126456
 20
183.9660182562
 30
0.0
 11
27.6816753867
 21
-0.0
 31
0.0
 40
0.5127209228
 41
0.1693628412
 42
0.1998641713
  0
ELLIPSE
  5
4D2
100
AcDbEntity
  8
0
100
AcDbEllipse
 62
7
  6
CONTINUOUS
 10
286.4644126456
 20
185.5620188479
 30
0.0
 11
28.0633409453
 21
-0.0
 31
0.0
 40
0.1702894601
 41
0.2585405794
 42
0.3048938663
  0
ELLIPSE
  5
4D3
100
AcDbEntity
  8
0
100
AcDbEllipse
 62
7
  6
CONTINUOUS
 10
286.4644126456
 20
217.6009889039
 30
0.0
 11
-0.0
 21
51.6643136264
 31
0.0
 40
0.6285123915
 41
-2.2622667332
 42
-2.2463325053
  0
ELLIPSE
  5
4D4
100
AcDbEntity
  8
0
100
AcDbEllipse
 62
7
  6
CONTINUOUS
 10
286.4644126456
 20
195.894287154
 30
0.0
 11
29.6816122196
 21
-0.0
 31
0.0
 40
0.6858110723
 41
-0.5476967491
 42
-0.5233883452
  0
ELLIPSE
  5
4D5
100
AcDbEntity
  8
0
100
AcDbEllipse
 62
7
  6
CONTINUOUS
 10
286.4644126456
 20
188.2491801628
 30
0.0
 11
28.5312856244
 21
-0.0
 31
0.0
 40
0.2043878871
 41
-0.4486088785
 42
-0.4084927417
  0
ELLIPSE
  5
4D6
100
AcDbEntity
  8
0
100
AcDbEllipse
 62
7
  6
CONTINUOUS
 10
286.4644126456
 20
194.7836768643
 30
0.0
 11
28.8144715058
 21
0.0
 31
0.0
 40
0.9238741304
 41
-0.6792359365
 42
-0.4427081
  0
ELLIPSE
  5
4D7
100
AcDbEntity
  8
0
100
AcDbEllipse
 62
7
  6
CONTINUOUS
 10
286.4644126456
 20
184.2013770228
 30
0.0
 11
27.8180117687
 21
-0.0
 31
0.0
 40
0.2043879164
 41
0.2703805388
 42
0.3094340714
  0
ELLIPSE
  5
4D8
100
AcDbEntity
  8
0
100
AcDbEllipse
 62
7
  6
CONTINUOUS
 10
286.4644126456
 20
182.2220597389
 30
0.0
 11
27.2882654882
 21
0.0
 31
0.0
 40
0.6858110723
 41
0.164918771
 42
0.1880159441
  0
ELLIPSE
  5
4D9
100
AcDbEntity
  8
0
100
AcDbEllipse
 62
7
  6
CONTINUOUS
 10
286.4644126456
 20
184.8955342694
 30
0.0
 11
0.0
 21
42.8299707788
 31
0.0
 40
0.6285126339
 41
-1.576384874
 42
-1.5614816462
  0
ELLIPSE
  5
4DA
100
AcDbEntity
  8
0
100
AcDbEllipse
 62
7
  6
CONTINUOUS
 10
286.4644126456
 20
225.1223112407
 30
0.0
 11
0.0
 21
71.5945839246
 31
0.0
 40
0.4567284991
 41
-2.1932656488
 42
-2.1787096223
  0
ELLIPSE
  5
4DB
100
AcDbEntity
  8
0
100
AcDbEllipse
 62
7
  6
CONTINUOUS
 10
286.4644126456
 20
194.860089104
 30
0.0
 11
29.3288774703
 21
0.0
 31
0.0
 40
0.9238741304
 41
-0.6687435178
 42
-0.4375201366
  0
ELLIPSE
  5
4DC
100
AcDbEntity
  8
0
100
AcDbEllipse
 62
7
  6
CONTINUOUS
 10
286.4644126456
 20
200.7344038033
 30
0.0
 11
0.0
 21
61.7741761657
 31
0.0
 40
0.4567276565
 41
-1.9355437452
 42
-1.9208373291
  0
ELLIPSE
  5
4DD
100
AcDbEntity
  8
0
100
AcDbEllipse
 62
7
  6
CONTINUOUS
 10
286.4644126456
 20
224.6931494062
 30
0.0
 11
0.0
 21
70.4029874608
 31
0.0
 40
0.4567284991
 41
-2.1979167535
 42
-2.1922642142
  0
ELLIPSE
  5
4DE
100
AcDbEntity
  8
0
100
AcDbEllipse
 62
7
  6
CONTINUOUS
 10
286.4644126456
 20
201.1635672212
 30
0.0
 11
0.0
 21
62.965775113
 31
0.0
 40
0.4567276565
 41
-1.9356135172
 42
-1.9211842951
  0
ELLIPSE
  5
4DF
100
AcDbEntity
  8
0
100
AcDbEllipse
 62
7
  6
CONTINUOUS
 10
286.4644126456
 20
203.4064664462
 30
0.0
 11
0.0
 21
58.45907729
 31
0.0
 40
0.504144442
 41
-2.0641747617
 42
-2.0192457733
  0
ELLIPSE
  5
4E0
100
AcDbEntity
  8
0
100
AcDbEllipse
 62
7
  6
CONTINUOUS
 10
286.4644126456
 20
188.5781401679
 30
0.0
 11
28.5983446689
 21
0.0
 31
0.0
 40
0.1459449454
 41
-0.4443801509
 42
-0.3886306839
  0
ELLIPSE
  5
4E1
100
AcDbEntity
  8
0
100
AcDbEllipse
 62
7
  6
CONTINUOUS
 10
286.4644126456
 20
194.0477510124
 30
0.0
 11
29.4521363604
 21
0.0
 31
0.0
 40
0.5127208303
 41
-0.5342670667
 42
-0.5018301193
  0
ELLIPSE
  5
4E2
100
AcDbEntity
  8
0
100
AcDbEllipse
 62
7
  6
CONTINUOUS
 10
286.4644126456
 20
204.8053637527
 30
0.0
 11
-0.0
 21
32.1386621091
 31
0.0
 40
0.9631595699
 41
-2.2148780373
 42
-2.1821584451
  0
ELLIPSE
  5
4E3
100
AcDbEntity
  8
0
100
AcDbEllipse
 62
7
  6
CONTINUOUS
 10
286.4644126456
 20
469.4731716593
 30
0.0
 11
0.0
 21
319.1986672199
 31
0.0
 40
0.1697992161
 41
-2.6731832951
 42
-2.6673115896
  0
ELLIPSE
  5
4E4
100
AcDbEntity
  8
0
100
AcDbEllipse
 62
7
  6
CONTINUOUS
 10
148.7998727387
 20
64.4381582119
 30
0.0
 11
27.633219506
 21
-0.0
 31
0.0
 40
0.999351223
 41
-1.5502663301
 42
-1.5125386636
  0
ELLIPSE
  5
4E5
100
AcDbEntity
  8
0
100
AcDbEllipse
 62
7
  6
CONTINUOUS
 10
112.6392020129
 20
64.4381582119
 30
0.0
 11
48.8195253211
 21
-0.0
 31
0.0
 40
0.6936470227
 41
-0.9395407555
 42
-0.9342443606
  0
ELLIPSE
  5
4E6
100
AcDbEntity
  8
0
100
AcDbEllipse
 62
7
  6
CONTINUOUS
 10
142.7940695033
 20
64.4381582119
 30
0.0
 11
27.8243780458
 21
-0.0
 31
0.0
 40
0.9836522403
 41
-1.649114496
 42
-1.6191034724
  0
ELLIPSE
  5
4E7
100
AcDbEntity
  8
0
100
AcDbEllipse
 62
7
  6
CONTINUOUS
 10
145.3020377997
 20
64.4381582119
 30
0.0
 11
27.7945710596
 21
0.0
 31
0.0
 40
0.9959382114
 41
-1.7706604981
 42
-1.740159168
  0
ELLIPSE
  5
4E8
100
AcDbEntity
  8
0
100
AcDbEllipse
 62
7
  6
CONTINUOUS
 10
146.9619946257
 20
64.4381582119
 30
0.0
 11
28.0759890252
 21
0.0
 31
0.0
 40
0.9995495055
 41
-1.8756901931
 42
-1.8293369061
  0
ELLIPSE
  5
4E9
100
AcDbEntity
  8
0
100
AcDbEllipse
 62
7
  6
CONTINUOUS
 10
148.5405927833
 20
64.4381582119
 30
0.0
 11
28.607812591
 21
0.0
 31
0.0
 40
0.9996690442
 41
-2.0151764777
 42
-1.9594270107
  0
ELLIPSE
  5
4EA
100
AcDbEntity
  8
0
100
AcDbEllipse
 62
7
  6
CONTINUOUS
 10
150.4673071144
 20
64.4381582119
 30
0.0
 11
29.5722525569
 21
0.0
 31
0.0
 40
0.9959382128
 41
-2.1050633935
 42
-2.0726264461
  0
ELLIPSE
  5
4EB
100
AcDbEntity
  8
0
100
AcDbEllipse
 62
7
  6
CONTINUOUS
 10
153.4715553322
 20
64.4381582119
 30
0.0
 11
31.469109931
 21
0.0
 31
0.0
 40
0.9836522241
 41
-2.2148780373
 42
-2.1821584451
  0
ELLIPSE
  5
4EC
100
AcDbEntity
  8
0
100
AcDbEllipse
 62
7
  6
CONTINUOUS
 10
204.0879793155
 20
64.4381582119
 30
0.0
 11
78.1371853899
 21
0.0
 31
0.0
 40
0.6936477583
 41
-2.6731832951
 42
-2.6673115896
  0
ENDSEC
  0
SECTION
  2
OBJECTS
  0
DICTIONARY
  5
C
100
AcDbDictionary
280
0
281
1
  3
ACAD_GROUP
350
D
  3
ACAD_MLINESTYLE
350
17
  3
ACAD_LAYOUT
350
1A
  3
ACAD_PLOTSETTINGS
350
19
  3
ACAD_PLOTSTYLENAME
350
E
  0
DICTIONARY
  5
D
102
{ACAD_REACTORS
330
C
102
}
100
AcDbDictionary
280
0
281
1
  0
ACDBDICTIONARYWDFLT
  5
E
102
{ACAD_REACTORS
330
C
102
}
100
AcDbDictionary
281
1
  3
Normal
350
F
100
AcDbDictionaryWithDefault
340
F
  0
DICTIONARY
  5
17
102
{ACAD_REACTORS
330
C
102
}
100
AcDbDictionary
280
0
281
1
  3
Standard
350
18
  0
DICTIONARY
  5
19
102
{ACAD_REACTORS
330
C
102
}
100
AcDbDictionary
281
1
  0
DICTIONARY
  5
1A
102
{ACAD_REACTORS
330
C
102
}
100
AcDbDictionary
281
1
  3
Model
350
4ED
  3
Layout1
350
4EE
  0
ACDBPLACEHOLDER
  5
F
102
{ACAD_REACTORS
330
E
102
}
  0
MLINESTYLE
  5
18
102
{ACAD_REACTORS
330
17
102
}
100
AcDbMlineStyle
  2
STANDARD
 70
0
  3

 62
256
 51
90.0
 52
90.0
 71
2
 49
0.5
 62
256
  6
BYLAYER
 49
-0.5
 62
256
  6
BYLAYER
  0
LAYOUT
  5
4ED
102
{ACAD_REACTORS
330
1A
102
}
100
AcDbPlotSettings
  1

  2
none_device
  4
ISO_A3_(420.00_x_297.00_MM)
  6

 40
0.0
 41
0.0
 42
0.0
 43
0.0
 44
420.0
 45
297.0
 46
0.0
 47
0.0
 48
0.0
 49
0.0
140
0.0
141
0.0
142
1.0
143
1.0
 70
1024
 72
1
 73
0
 74
0
  7

 75
0
147
1.0
148
0.0
149
0.0
100
AcDbLayout
  1
Model
 70
0
 71
0
 10
0.0
 20
0.0
 11
420.0
 21
297.0
 12
0.0
 22
0.0
 32
0.0
 14
0.0
 24
0.0
 34
0.0
 15
0.0
 25
0.0
 35
0.0
146
0.0
 13
0.0
 23
0.0
 33
0.0
 16
1.0
 26
0.0
 36
0.0
 17
0.0
 27
1.0
 37
0.0
 76
0
330
208
345
0
346
0
  0
LAYOUT
  5
4EE
102
{ACAD_REACTORS
330
1A
102
}
100
AcDbPlotSettings
  1

  2
none_device
  4
ISO_A3_(420.00_x_297.00_MM)
  6

 40
0.0
 41
0.0
 42
0.0
 43
0.0
 44
420.0
 45
297.0
 46
0.0
 47
0.0
 48
0.0
 49
0.0
140
0.0
141
0.0
142
1.0
143
1.0
 70
0
 72
1
 73
0
 74
0
  7

 75
0
147
1.0
148
0.0
149
0.0
100
AcDbLayout
  1
Layout1
 70
0
 71
1
 10
0.0
 20
0.0
 11
420.0
 21
297.0
 12
0.0
 22
0.0
 32
0.0
 14
0.0
 24
0.0
 34
0.0
 15
0.0
 25
0.0
 35
0.0
146
0.0
 13
0.0
 23
0.0
 33
0.0
 16
1.0
 26
0.0
 36
0.0
 17
0.0
 27
1.0
 37
0.0
 76
0
330
209
345
0
346
0
  0
ENDSEC
  0
EOF
