999
DXF file: 001-m31025-p-10.dxf
999
Pro/ENGINEER 2011490 by Parametric Technology Corporation
  0
SECTION
  2
HEADER
  9
$ACADVER
  1
AC1015
  9
$DWGCODEPAGE
  3
ANSI_1252
  9
$EXTMAX
 10
297.0
 20
210.0
 30
0.0
  9
$EXTMIN
 10
0.0
 20
0.0
 30
0.0
  9
$LIMMIN
 10
0.0
 20
0.0
  9
$LIMMAX
 10
297.0
 20
210.0
  9
$VIEWCTR
 10
148.5
 20
105.0
  9
$VIEWSIZE
 40
210.0
  9
$CLAYER
  8
0
  9
$LTSCALE
 40
16.335
  9
$CELTYPE
  6
BYLAYER
  9
$DIMSCALE
 40
1.0
  9
$DIMASZ
 40
3.5
  9
$DIMEXO
 40
1.85625
  9
$DIMDLI
 40
11.286
  9
$DIMEXE
 40
5.346
  9
$DIMCEN
 40
2.673
  9
$DIMLFAC
 40
1.0
  9
$DIMBLK
  1
_FILLED
  9
$DIMTXT
 40
3.5
  9
$DIMTOL
 70
1
  9
$DIMLIM
 70
0
  9
$DIMTFAC
 40
1.0
  9
$DIMTP
 40
0.005
  9
$DIMTM
 40
0.005
  9
$PDMODE
 70
3
  9
$PDSIZE
 40
0.3125
  9
$HANDSEED
  5
48B
  9
$TILEMODE
 70
1
  9
$MEASUREMENT
 70
1
  9
$INSUNITS
 70
4
  0
ENDSEC
  0
SECTION
  2
CLASSES
  0
CLASS
  1
ACDBDICTIONARYWDFLT
  2
AcDbDictionaryWithDefault
  3
AutoCAD 2000
 90
0
280
0
281
0
  0
CLASS
  1
ACDBPLACEHOLDER
  2
AcDbPlaceHolder
  3
AutoCAD 2000
 90
0
280
0
281
0
  0
CLASS
  1
LAYOUT
  2
AcDbLayout
  3
AutoCAD 2000
 90
0
280
0
281
0
  0
ENDSEC
  0
SECTION
  2
TABLES
  0
TABLE
  2
VPORT
  5
8
100
AcDbSymbolTable
 70
2
  0
VPORT
  5
1F4
100
AcDbSymbolTableRecord
100
AcDbViewportTableRecord
  2
*ACTIVE
 70
0
 10
0.0
 20
0.0
 11
1.0
 21
1.0
 12
148.5
 22
105.0
 13
0.0
 23
0.0
 14
1.0
 24
1.0
 15
0.0
 25
0.0
 16
0.0
 26
0.0
 36
1.0
 17
0.0
 27
0.0
 37
0.0
 40
210.0
 41
1.4142857143
 42
50.0
 43
0.0
 44
0.0
 50
0.0
 51
0.0
 71
0
 72
100
 73
1
 74
1
 75
0
 76
0
 77
0
 78
0
  0
ENDTAB
  0
TABLE
  2
LTYPE
  5
5
100
AcDbSymbolTable
 70
6
  0
LTYPE
  5
14
100
AcDbSymbolTableRecord
100
AcDbLinetypeTableRecord
  2
BYBLOCK
 70
0
  3

 72
65
 73
0
 40
0.0
  0
LTYPE
  5
15
100
AcDbSymbolTableRecord
100
AcDbLinetypeTableRecord
  2
BYLAYER
 70
0
  3

 72
65
 73
0
 40
0.0
  0
LTYPE
  5
16
100
AcDbSymbolTableRecord
100
AcDbLinetypeTableRecord
  2
CONTINUOUS
 70
64
  3
Solid line
 72
65
 73
0
 40
0.0
  0
LTYPE
  5
1F5
100
AcDbSymbolTableRecord
100
AcDbLinetypeTableRecord
  2
CENTER
 70
64
  3
____ _ ____ _ ____ _ ____ _ ____ _ ____ _ ____
 72
65
 73
4
 40
0.6
 49
0.375
 74
0
 49
-0.075
 74
0
 49
0.075
 74
0
 49
-0.075
 74
0
  0
LTYPE
  5
1F6
100
AcDbSymbolTableRecord
100
AcDbLinetypeTableRecord
  2
HIDDEN
 70
64
  3
- - - - - - - - - - - - - - - - - - - -
 72
65
 73
2
 40
0.2
 49
0.1
 74
0
 49
-0.1
 74
0
  0
LTYPE
  5
1F7
100
AcDbSymbolTableRecord
100
AcDbLinetypeTableRecord
  2
PHANTOM
 70
64
  3
_____ _ _ _____ _ _ _____ _ _ _____
 72
65
 73
6
 40
0.8
 49
0.45
 74
0
 49
-0.05
 74
0
 49
0.1
 74
0
 49
-0.05
 74
0
 49
0.1
 74
0
 49
-0.05
 74
0
  0
LTYPE
  5
1F8
100
AcDbSymbolTableRecord
100
AcDbLinetypeTableRecord
  2
DOT
 70
64
  3
. . . . . . . . . . . . . . . . . . . .
 72
65
 73
2
 40
0.2
 49
0.1
 74
0
 49
-0.1
 74
0
  0
LTYPE
  5
1F9
100
AcDbSymbolTableRecord
100
AcDbLinetypeTableRecord
  2
DASHED
 70
64
  3
- - - - - - - - - - - - - - - - - - - -
 72
65
 73
2
 40
0.2
 49
0.1
 74
0
 49
-0.1
 74
0
  0
ENDTAB
  0
TABLE
  2
LAYER
  5
2
100
AcDbSymbolTable
 70
36
  0
LAYER
  5
10
100
AcDbSymbolTableRecord
100
AcDbLayerTableRecord
  2
0
 70
0
 62
7
  6
CONTINUOUS
370
-3
390
F
  0
LAYER
  5
1FA
100
AcDbSymbolTableRecord
100
AcDbLayerTableRecord
  2
DEFAULT_1
 70
0
 62
7
  6
CENTER
370
-3
390
F
  0
LAYER
  5
1FB
100
AcDbSymbolTableRecord
100
AcDbLayerTableRecord
  2
DEFAULT_2
 70
0
 62
8
  6
HIDDEN
370
-3
390
F
  0
LAYER
  5
1FC
100
AcDbSymbolTableRecord
100
AcDbLayerTableRecord
  2
DEFAULT_3
 70
0
 62
7
  6
PHANTOM
370
-3
390
F
  0
LAYER
  5
1FD
100
AcDbSymbolTableRecord
100
AcDbLayerTableRecord
  2
BEZUGSACHSEN
 70
0
 62
7
  6
CONTINUOUS
370
-3
390
F
  0
LAYER
  5
1FE
100
AcDbSymbolTableRecord
100
AcDbLayerTableRecord
  2
BG_STARTBEZUEGE
 70
0
 62
7
  6
CONTINUOUS
370
-3
390
F
  0
LAYER
  5
1FF
100
AcDbSymbolTableRecord
100
AcDbLayerTableRecord
  2
FLAECHEN
 70
0
 62
7
  6
CONTINUOUS
370
-3
390
F
  0
LAYER
  5
200
100
AcDbSymbolTableRecord
100
AcDbLayerTableRecord
  2
HILFEN
 70
0
 62
7
  6
CONTINUOUS
370
-3
390
F
  0
LAYER
  5
201
100
AcDbSymbolTableRecord
100
AcDbLayerTableRecord
  2
KURVEN
 70
0
 62
7
  6
CONTINUOUS
370
-3
390
F
  0
LAYER
  5
202
100
AcDbSymbolTableRecord
100
AcDbLayerTableRecord
  2
NORM
 70
0
 62
7
  6
CONTINUOUS
370
-3
390
F
  0
LAYER
  5
203
100
AcDbSymbolTableRecord
100
AcDbLayerTableRecord
  2
PLATZIERUNG
 70
0
 62
7
  6
CONTINUOUS
370
-3
390
F
  0
LAYER
  5
204
100
AcDbSymbolTableRecord
100
AcDbLayerTableRecord
  2
RUNDUNGEN
 70
0
 62
7
  6
CONTINUOUS
370
-3
390
F
  0
LAYER
  5
205
100
AcDbSymbolTableRecord
100
AcDbLayerTableRecord
  2
T_STARTBEZUEGE
 70
0
 62
7
  6
CONTINUOUS
370
-3
390
F
  0
ENDTAB
  0
TABLE
  2
STYLE
  5
3
100
AcDbSymbolTable
 70
1
  0
STYLE
  5
11
100
AcDbSymbolTableRecord
100
AcDbTextStyleTableRecord
  2
STANDARD
 70
0
 40
0.0
 41
0.7
 50
0.0
 71
0
 42
0.2
  3
txt
  4

  0
STYLE
  5
206
100
AcDbSymbolTableRecord
100
AcDbTextStyleTableRecord
  2
TEXTSTYLE_1
 70
0
 40
0.0
 41
0.8
 50
0.0
 71
0
 42
0.2
  3
gdt
  4

  0
ENDTAB
  0
TABLE
  2
VIEW
  5
6
100
AcDbSymbolTable
 70
0
  0
ENDTAB
  0
TABLE
  2
UCS
  5
7
100
AcDbSymbolTable
 70
0
  0
ENDTAB
  0
TABLE
  2
APPID
  5
9
100
AcDbSymbolTable
 70
1
  0
APPID
  5
207
100
AcDbSymbolTableRecord
100
AcDbRegAppTableRecord
  2
ACAD
 70
0
  0
ENDTAB
  0
TABLE
  2
BLOCK_RECORD
  5
1
100
AcDbSymbolTable
 70
0
  0
BLOCK_RECORD
  5
208
100
AcDbSymbolTableRecord
100
AcDbBlockTableRecord
  2
*Model_Space
  0
BLOCK_RECORD
  5
209
100
AcDbSymbolTableRecord
100
AcDbBlockTableRecord
  2
*Paper_Space
  0
ENDTAB
  0
TABLE
  2
DIMSTYLE
  5
A
100
AcDbSymbolTable
 70
1
100
AcDbDimStyleTable
 71
0
  0
DIMSTYLE
105
20A
100
AcDbSymbolTableRecord
100
AcDbDimStyleTableRecord
  2
STANDARD
 70
0
  3

  4

 40
1.0
 41
3.5
 42
0.0625
 43
0.38
 44
0.18
 45
0.0
 46
0.0
 47
0.005
 48
0.005
140
3.5
141
0.09
142
0.0
143
25.4
144
1.0
145
0.0
146
1.0
147
0.09
 71
1.0
 72
0.0
 73
0
 74
0
 75
0
 76
0
 77
1
 78
8
170
0
171
2
172
0
173
0
174
0
175
0
176
0
177
0
178
5
270
2
271
3
272
3
273
2
274
2
275
0
280
0
281
0
282
0
283
1
284
8
285
0
286
0
287
3
288
0
340
11
  0
ENDTAB
  0
ENDSEC
  0
SECTION
  2
BLOCKS
  0
BLOCK
  5
20
100
AcDbEntity
  8
0
100
AcDbBlockBegin
  2
*Model_Space
 70
0
 10
0.0
 20
0.0
 30
0.0
  3
*Model_Space
  1

  0
ENDBLK
  5
21
100
AcDbEntity
  8
0
100
AcDbBlockEnd
  0
BLOCK
  5
1C
100
AcDbEntity
  8
0
100
AcDbBlockBegin
  2
*Paper_Space
 70
0
 10
0.0
 20
0.0
 30
0.0
  3
*Paper_Space
  1

  0
ENDBLK
  5
1D
100
AcDbEntity
  8
0
100
AcDbBlockEnd
  0
ENDSEC
  0
SECTION
  2
ENTITIES
  0
MTEXT
  5
20B
100
AcDbEntity
  8
0
100
AcDbMText
 62
5
  6
CONTINUOUS
  7
STANDARD
 71
1
 72
1
 10
191.8083261425
 20
142.7424649252
 30
0.0
 11
0.0
 21
1.0
 31
0.0
 44
0.9
  1
INOX STAR 1t RUD
 40
3.5
 41
43.8333333333
  0
MTEXT
  5
20C
100
AcDbEntity
  8
0
100
AcDbMText
 62
5
  6
CONTINUOUS
  7
STANDARD
 71
1
 72
1
 10
71.7905370751
 20
55.9190770153
 30
0.0
 11
1.0
 21
0.0
 31
0.0
 44
0.9
  1
INOX STAR 1t RUD
 40
3.5
 41
43.8333333333
  0
LINE
  5
20D
100
AcDbEntity
  8
0
100
AcDbLine
 62
7
  6
CONTINUOUS
 10
0.0
 20
0.0
 11
0.0
 21
210.0
  0
LINE
  5
20E
100
AcDbEntity
  8
0
100
AcDbLine
 62
7
  6
CONTINUOUS
 10
0.0
 20
0.0
 11
297.0
 21
0.0
  0
LINE
  5
20F
100
AcDbEntity
  8
0
100
AcDbLine
 62
7
  6
CONTINUOUS
 10
0.0
 20
210.0
 11
297.0
 21
210.0
  0
LINE
  5
210
100
AcDbEntity
  8
0
100
AcDbLine
 62
7
  6
CONTINUOUS
 10
297.0
 20
0.0
 11
297.0
 21
210.0
  0
LINE
  5
211
100
AcDbEntity
  8
0
100
AcDbLine
 62
7
  6
CONTINUOUS
 10
100.8018168605
 20
100.4711339304
 11
87.8018168605
 21
100.4711339304
  0
LINE
  5
212
100
AcDbEntity
  8
0
100
AcDbLine
 62
7
  6
CONTINUOUS
 10
102.3018168605
 20
101.9711339304
 11
86.3018168605
 21
101.9711339304
  0
LINE
  5
213
100
AcDbEntity
  8
0
100
AcDbLine
 62
7
  6
CONTINUOUS
 10
83.7986740147
 20
181.2746206704
 11
83.2647103149
 21
181.0397581941
  0
LINE
  5
214
100
AcDbEntity
  8
0
100
AcDbLine
 62
7
  6
CONTINUOUS
 10
83.444604999
 20
180.6307646732
 11
83.9785686989
 21
180.8656271495
  0
LINE
  5
215
100
AcDbEntity
  8
0
100
AcDbLine
 62
7
  6
CONTINUOUS
 10
73.4272140596
 20
173.4013021135
 11
72.3477354437
 21
172.0239038712
  0
LINE
  5
216
100
AcDbEntity
  8
0
100
AcDbLine
 62
7
  6
CONTINUOUS
 10
72.9692812028
 20
172.0926419031
 11
73.7788901647
 21
173.1256905848
  0
LINE
  5
217
100
AcDbEntity
  8
0
100
AcDbLine
 62
7
  6
CONTINUOUS
 10
73.7107182937
 20
173.6423250448
 11
73.4272140596
 21
173.4013021135
  0
LINE
  5
218
100
AcDbEntity
  8
0
100
AcDbLine
 62
7
  6
CONTINUOUS
 10
83.2076054055
 20
180.4451677642
 11
83.444604999
 21
180.6307646732
  0
LINE
  5
219
100
AcDbEntity
  8
0
100
AcDbLine
 62
7
  6
CONTINUOUS
 10
78.0283051733
 20
177.9027888101
 11
77.6832580613
 21
177.6338115982
  0
LINE
  5
21A
100
AcDbEntity
  8
0
100
AcDbLine
 62
7
  6
CONTINUOUS
 10
73.7788901647
 20
173.1256905848
 11
74.0174157799
 21
173.3093214848
  0
LINE
  5
21B
100
AcDbEntity
  8
0
100
AcDbLine
 62
7
  6
CONTINUOUS
 10
83.2647103149
 20
181.0397581941
 11
82.9609654976
 21
180.8248035806
  0
LINE
  5
21C
100
AcDbEntity
  8
0
100
AcDbLine
 62
7
  6
CONTINUOUS
 10
81.2130862354
 20
180.0457861585
 11
80.8435591747
 21
179.8115725778
  0
LINE
  5
21D
100
AcDbEntity
  8
0
100
AcDbLine
 62
7
  6
CONTINUOUS
 10
79.303863059
 20
178.8356826394
 11
78.749572468
 21
178.4843622683
  0
LINE
  5
21E
100
AcDbEntity
  8
0
100
AcDbLine
 62
7
  6
CONTINUOUS
 10
74.0078565931
 20
173.78002069
 11
73.7107182937
 21
173.6423250448
  0
LINE
  5
21F
100
AcDbEntity
  8
0
100
AcDbLine
 62
7
  6
CONTINUOUS
 10
85.0279545034
 20
178.4798312763
 11
84.4939908036
 21
178.2449688
  0
LINE
  5
220
100
AcDbEntity
  8
0
100
AcDbLine
 62
7
  6
CONTINUOUS
 10
84.6738855087
 20
177.8359752313
 11
85.2078492085
 21
178.0708377076
  0
LINE
  5
221
100
AcDbEntity
  8
0
100
AcDbLine
 62
7
  6
CONTINUOUS
 10
86.3018168605
 20
101.9711339304
 11
87.8018168605
 21
100.4711339304
  0
LINE
  5
222
100
AcDbEntity
  8
0
100
AcDbLine
 62
7
  6
CONTINUOUS
 10
69.5884365918
 20
166.9153643398
 11
68.9404089917
 21
165.2897689936
  0
LINE
  5
223
100
AcDbEntity
  8
0
100
AcDbLine
 62
7
  6
CONTINUOUS
 10
69.4482872008
 20
165.5582896338
 11
69.9613090251
 21
166.8452192183
  0
LINE
  5
224
100
AcDbEntity
  8
0
100
AcDbLine
 62
7
  6
CONTINUOUS
 10
70.9989231459
 20
166.431584552
 11
70.4859013216
 21
165.1446549675
  0
LINE
  5
225
100
AcDbEntity
  8
0
100
AcDbLine
 62
7
  6
CONTINUOUS
 10
71.7464868824
 20
171.1121257976
 11
71.5289262134
 21
170.7325555072
  0
LINE
  5
226
100
AcDbEntity
  8
0
100
AcDbLine
 62
7
  6
CONTINUOUS
 10
70.6586835373
 20
169.2142743459
 11
70.4411227646
 21
168.8347038746
  0
LINE
  5
227
100
AcDbEntity
  8
0
100
AcDbLine
 62
7
  6
CONTINUOUS
 10
73.8152410988
 20
168.5816425028
 11
73.6702005837
 21
168.3285955219
  0
LINE
  5
228
100
AcDbEntity
  8
0
100
AcDbLine
 62
7
  6
CONTINUOUS
 10
69.7926166294
 20
167.2264544622
 11
69.5884365918
 21
166.9153643398
  0
LINE
  5
229
100
AcDbEntity
  8
0
100
AcDbLine
 62
7
  6
CONTINUOUS
 10
75.8303343981
 20
171.5179564425
 11
75.0207254362
 21
170.4849077608
  0
LINE
  5
22A
100
AcDbEntity
  8
0
100
AcDbLine
 62
7
  6
CONTINUOUS
 10
75.1025319283
 20
169.8649466394
 11
76.1820105442
 21
171.2423448817
  0
LINE
  5
22B
100
AcDbEntity
  8
0
100
AcDbLine
 62
7
  6
CONTINUOUS
 10
82.9609654976
 20
180.8248035806
 11
82.7539483514
 21
180.5710410848
  0
LINE
  5
22C
100
AcDbEntity
  8
0
100
AcDbLine
 62
7
  6
CONTINUOUS
 10
69.9613090251
 20
166.8452192183
 11
70.1114867369
 21
167.0208429973
  0
LINE
  5
22D
100
AcDbEntity
  8
0
100
AcDbLine
 62
7
  6
CONTINUOUS
 10
73.8119386413
 20
167.8271290505
 11
74.0578468366
 21
168.106405903
  0
LINE
  5
22E
100
AcDbEntity
  8
0
100
AcDbLine
 62
7
  6
CONTINUOUS
 10
73.6702005837
 20
168.3285955219
 11
73.4605525747
 21
168.1125805018
  0
LINE
  5
22F
100
AcDbEntity
  8
0
100
AcDbLine
 62
7
  6
CONTINUOUS
 10
85.2649540969
 20
178.6654281853
 11
85.0279545034
 21
178.4798312763
  0
LINE
  5
230
100
AcDbEntity
  8
0
100
AcDbLine
 62
7
  6
CONTINUOUS
 10
79.8350757567
 20
174.8734347026
 11
80.1801228686
 21
175.1424119145
  0
LINE
  5
231
100
AcDbEntity
  8
0
100
AcDbLine
 62
7
  6
CONTINUOUS
 10
85.2078492085
 20
178.0708377076
 11
85.5115944051
 21
178.2857924951
  0
LINE
  5
232
100
AcDbEntity
  8
0
100
AcDbLine
 62
7
  6
CONTINUOUS
 10
73.5376827066
 20
167.648145277
 11
73.8119386413
 21
167.8271290505
  0
LINE
  5
233
100
AcDbEntity
  8
0
100
AcDbLine
 62
7
  6
CONTINUOUS
 10
80.623281114
 20
175.5281457826
 11
80.9928081747
 21
175.7623593634
  0
LINE
  5
234
100
AcDbEntity
  8
0
100
AcDbLine
 62
7
  6
CONTINUOUS
 10
82.5325042903
 20
176.7382493018
 11
83.0867948814
 21
177.0895696729
  0
LINE
  5
235
100
AcDbEntity
  8
0
100
AcDbLine
 62
7
  6
CONTINUOUS
 10
70.1081439891
 20
167.4146600375
 11
69.7926166294
 21
167.2264544622
  0
LINE
  5
236
100
AcDbEntity
  8
0
100
AcDbLine
 62
7
  6
CONTINUOUS
 10
73.4605525747
 20
168.1125805018
 11
73.2225567923
 21
167.9968585802
  0
LINE
  5
237
100
AcDbEntity
  8
0
100
AcDbLine
 62
7
  6
CONTINUOUS
 10
70.1114867369
 20
167.0208429973
 11
70.3038375863
 21
167.1011580622
  0
LINE
  5
238
100
AcDbEntity
  8
0
100
AcDbLine
 62
7
  6
CONTINUOUS
 10
99.306398853
 20
182.2737433113
 11
99.5520649737
 21
182.3721390429
  0
LINE
  5
239
100
AcDbEntity
  8
0
100
AcDbLine
 62
7
  6
CONTINUOUS
 10
100.1948516165
 20
179.8667133175
 11
99.9491855356
 21
179.7683175238
  0
LINE
  5
23A
100
AcDbEntity
  8
0
100
AcDbLine
 62
7
  6
CONTINUOUS
 10
74.0174157799
 20
173.3093214848
 11
74.2695759752
 21
173.3896257556
  0
LINE
  5
23B
100
AcDbEntity
  8
0
100
AcDbLine
 62
7
  6
CONTINUOUS
 10
73.8956739127
 20
168.8717210825
 11
73.8152410988
 21
168.5816425028
  0
LINE
  5
23C
100
AcDbEntity
  8
0
100
AcDbLine
 62
7
  6
CONTINUOUS
 10
74.2028873518
 20
168.3594528839
 11
74.3195801332
 21
168.7127929406
  0
LINE
  5
23D
100
AcDbEntity
  8
0
100
AcDbLine
 62
7
  6
CONTINUOUS
 10
70.9009468924
 20
164.9792011319
 11
71.3599664296
 21
166.1306644698
  0
LINE
  5
23E
100
AcDbEntity
  8
0
100
AcDbLine
 62
7
  6
CONTINUOUS
 10
72.1915996841
 20
163.9937137934
 11
72.3536065841
 21
164.4001126299
  0
LINE
  5
23F
100
AcDbEntity
  8
0
100
AcDbLine
 62
7
  6
CONTINUOUS
 10
73.0286353085
 20
166.0934410509
 11
73.21764341
 21
166.5675731561
  0
LINE
  5
240
100
AcDbEntity
  8
0
100
AcDbLine
 62
7
  6
CONTINUOUS
 10
75.951634645
 20
171.7934578521
 11
75.8303343981
 21
171.5179564425
  0
LINE
  5
241
100
AcDbEntity
  8
0
100
AcDbLine
 62
7
  6
CONTINUOUS
 10
76.1820105442
 20
171.2423448817
 11
76.3482894048
 21
171.5752383266
  0
LINE
  5
242
100
AcDbEntity
  8
0
100
AcDbLine
 62
7
  6
CONTINUOUS
 10
74.0578468366
 20
168.106405903
 11
74.2028873518
 21
168.3594528839
  0
LINE
  5
243
100
AcDbEntity
  8
0
100
AcDbLine
 62
7
  6
CONTINUOUS
 10
83.067333865
 20
180.2207631409
 11
83.2076054055
 21
180.4451677642
  0
LINE
  5
244
100
AcDbEntity
  8
0
100
AcDbLine
 62
7
  6
CONTINUOUS
 10
85.5115944051
 20
178.2857924951
 11
85.7186111615
 21
178.5395548408
  0
LINE
  5
245
100
AcDbEntity
  8
0
100
AcDbLine
 62
7
  6
CONTINUOUS
 10
99.2600896029
 20
182.7414618184
 11
98.9111769992
 21
182.5133010099
  0
LINE
  5
246
100
AcDbEntity
  8
0
100
AcDbLine
 62
7
  6
CONTINUOUS
 10
71.0107523342
 20
166.6623596095
 11
70.9989231459
 21
166.431584552
  0
LINE
  5
247
100
AcDbEntity
  8
0
100
AcDbLine
 62
7
  6
CONTINUOUS
 10
76.3482894048
 20
171.5752383266
 11
76.4109769521
 21
171.896675003
  0
LINE
  5
248
100
AcDbEntity
  8
0
100
AcDbLine
 62
7
  6
CONTINUOUS
 10
82.7539483514
 20
180.5710410848
 11
82.6068961
 21
180.1809474153
  0
LINE
  5
249
100
AcDbEntity
  8
0
100
AcDbLine
 62
7
  6
CONTINUOUS
 10
85.4052256164
 20
178.8898328563
 11
85.2649540969
 21
178.6654281853
  0
LINE
  5
24A
100
AcDbEntity
  8
0
100
AcDbLine
 62
7
  6
CONTINUOUS
 10
100.2411607479
 20
179.3989947564
 11
100.5900734846
 21
179.6271555623
  0
LINE
  5
24B
100
AcDbEntity
  8
0
100
AcDbLine
 62
7
  6
CONTINUOUS
 10
110.39486932
 20
175.9753652289
 11
110.7497278739
 21
176.0785877036
  0
LINE
  5
24C
100
AcDbEntity
  8
BEZUGSACHSEN
100
AcDbLine
 62
7
  6
CONTINUOUS
 10
72.5926097974
 20
131.8540092155
 11
72.2822910404
 21
132.5676934961
  0
LINE
  5
24D
100
AcDbEntity
  8
BEZUGSACHSEN
100
AcDbLine
 62
7
  6
CONTINUOUS
 10
69.4506756379
 20
139.0799630764
 11
67.8400788293
 21
142.7840821431
  0
LINE
  5
24E
100
AcDbEntity
  8
BEZUGSACHSEN
100
AcDbLine
 62
7
  6
CONTINUOUS
 10
66.1023455466
 20
146.7805950823
 11
65.6720238761
 21
147.7702671692
  0
LINE
  5
24F
100
AcDbEntity
  8
RUNDUNGEN
100
AcDbLine
 62
7
  6
CONTINUOUS
 10
72.2822910404
 20
132.5676934961
 11
62.2611556863
 21
155.6147269551
  0
LINE
  5
250
100
AcDbEntity
  8
0
100
AcDbLine
 62
7
  6
CONTINUOUS
 10
71.3836248447
 20
166.5922146818
 11
71.3532808953
 21
166.9182984534
  0
LINE
  5
251
100
AcDbEntity
  8
0
100
AcDbLine
 62
7
  6
CONTINUOUS
 10
73.8752387994
 20
169.1355694512
 11
73.8956739127
 21
168.8717210825
  0
LINE
  5
252
100
AcDbEntity
  8
0
100
AcDbLine
 62
7
  6
CONTINUOUS
 10
74.3195801332
 20
168.7127929406
 11
74.3354052289
 21
169.0399031288
  0
LINE
  5
253
100
AcDbEntity
  8
0
100
AcDbLine
 62
7
  6
CONTINUOUS
 10
75.9693440626
 20
172.0575031741
 11
75.951634645
 21
171.7934578521
  0
LINE
  5
254
100
AcDbEntity
  8
0
100
AcDbLine
 62
7
  6
CONTINUOUS
 10
87.5611557178
 20
180.7849147908
 11
86.8305624966
 21
178.7362555919
  0
LINE
  5
255
100
AcDbEntity
  8
0
100
AcDbLine
 62
7
  6
CONTINUOUS
 10
85.7186111615
 20
178.5395548408
 11
85.8656634024
 21
178.9296485341
  0
LINE
  5
256
100
AcDbEntity
  8
0
100
AcDbLine
 62
7
  6
CONTINUOUS
 10
88.3111703343
 20
182.7616830739
 11
87.6946535882
 21
181.129527314
  0
LINE
  5
257
100
AcDbEntity
  8
0
100
AcDbLine
 62
7
  6
CONTINUOUS
 10
87.252922956
 20
178.8503515707
 11
87.8694388965
 21
180.482507113
  0
LINE
  5
258
100
AcDbEntity
  8
0
100
AcDbLine
 62
7
  6
CONTINUOUS
 10
87.9835161771
 20
180.8990107696
 11
88.7335307937
 21
182.8757790527
  0
LINE
  5
259
100
AcDbEntity
  8
0
100
AcDbLine
 62
7
  6
CONTINUOUS
 10
100.385326155
 20
180.0535186175
 11
100.1948516165
 21
179.8667133175
  0
LINE
  5
25A
100
AcDbEntity
  8
0
100
AcDbLine
 62
7
  6
CONTINUOUS
 10
105.3018168605
 20
124.4711339304
 11
83.3018168605
 21
124.4711339304
  0
LINE
  5
25B
100
AcDbEntity
  8
BEZUGSACHSEN
100
AcDbLine
 62
7
  6
CONTINUOUS
 10
112.3018168605
 20
124.6711339304
 11
76.3018168605
 21
124.6711339304
  0
LINE
  5
25C
100
AcDbEntity
  8
0
100
AcDbLine
 62
7
  6
CONTINUOUS
 10
91.6351501143
 20
127.1711339304
 11
92.6351501143
 21
127.1711339304
  0
LINE
  5
25D
100
AcDbEntity
  8
0
100
AcDbLine
 62
7
  6
CONTINUOUS
 10
83.0237904616
 20
179.9575506124
 11
83.067333865
 21
180.2207631409
  0
LINE
  5
25E
100
AcDbEntity
  8
0
100
AcDbLine
 62
7
  6
CONTINUOUS
 10
99.1871339229
 20
182.0712531713
 11
99.306398853
 21
182.2737433113
  0
LINE
  5
25F
100
AcDbEntity
  8
0
100
AcDbLine
 62
7
  6
CONTINUOUS
 10
100.5900734846
 20
179.6271555623
 11
100.7965664109
 21
179.8866857783
  0
LINE
  5
260
100
AcDbEntity
  8
0
100
AcDbLine
 62
7
  6
CONTINUOUS
 10
105.5936142393
 20
178.357820553
 11
107.1434420525
 21
179.7970441185
  0
LINE
  5
261
100
AcDbEntity
  8
0
100
AcDbLine
 62
7
  6
CONTINUOUS
 10
104.6964468118
 20
177.4931479988
 11
105.3852596427
 21
178.1328026163
  0
LINE
  5
262
100
AcDbEntity
  8
0
100
AcDbLine
 62
7
  6
CONTINUOUS
 10
107.0330582618
 20
180.1990548285
 11
104.3139605283
 21
177.7055394483
  0
LINE
  5
263
100
AcDbEntity
  8
0
100
AcDbLine
 62
7
  6
CONTINUOUS
 10
110.6417263323
 20
176.5368280099
 11
110.4479039343
 21
176.4039399034
  0
LINE
  5
264
100
AcDbEntity
  8
0
100
AcDbLine
 62
7
  6
CONTINUOUS
 10
110.7497278739
 20
176.0785877036
 11
110.9435502718
 21
176.2114758102
  0
LINE
  5
265
100
AcDbEntity
  8
0
100
AcDbLine
 62
7
  6
CONTINUOUS
 10
96.6351501143
 20
127.341346691
 11
97.6351501143
 21
127.1711339304
  0
LINE
  5
266
100
AcDbEntity
  8
0
100
AcDbLine
 62
7
  6
CONTINUOUS
 10
97.6351501143
 20
127.8519849727
 11
96.801816622
 21
128.022197778
  0
LINE
  5
267
100
AcDbEntity
  8
0
100
AcDbLine
 62
7
  6
CONTINUOUS
 10
96.1351501143
 20
127.5115594516
 11
96.6351501143
 21
127.341346691
  0
LINE
  5
268
100
AcDbEntity
  8
0
100
AcDbLine
 62
7
  6
CONTINUOUS
 10
83.3018168605
 20
124.6711339304
 11
83.3018168605
 21
124.4711339304
  0
LINE
  5
269
100
AcDbEntity
  8
0
100
AcDbLine
 62
7
  6
CONTINUOUS
 10
82.6068961
 20
180.1809474153
 11
82.5933350599
 21
179.8495694909
  0
LINE
  5
26A
100
AcDbEntity
  8
0
100
AcDbLine
 62
7
  6
CONTINUOUS
 10
85.4487691038
 20
179.1530451938
 11
85.4052256164
 21
178.8898328563
  0
LINE
  5
26B
100
AcDbEntity
  8
0
100
AcDbLine
 62
7
  6
CONTINUOUS
 10
98.9111769992
 20
182.5133010099
 11
98.7758937119
 21
182.2380862143
  0
LINE
  5
26C
100
AcDbEntity
  8
0
100
AcDbLine
 62
7
  6
CONTINUOUS
 10
93.9684833682
 20
131.9370912859
 11
95.301816622
 21
131.9370912859
  0
LINE
  5
26D
100
AcDbEntity
  8
0
100
AcDbLine
 62
7
  6
CONTINUOUS
 10
96.1351501143
 20
131.9370912859
 11
97.9684836066
 21
131.9370912859
  0
LINE
  5
26E
100
AcDbEntity
  8
0
100
AcDbLine
 62
7
  6
CONTINUOUS
 10
97.9684836066
 20
132.6179422686
 11
96.1351501143
 21
132.6179422686
  0
LINE
  5
26F
100
AcDbEntity
  8
0
100
AcDbLine
 62
7
  6
CONTINUOUS
 10
95.301816622
 20
132.6179422686
 11
93.9684833682
 21
132.6179422686
  0
LINE
  5
270
100
AcDbEntity
  8
0
100
AcDbLine
 62
7
  6
CONTINUOUS
 10
96.1351501143
 20
133.9796447108
 11
95.301816622
 21
133.9796447108
  0
LINE
  5
271
100
AcDbEntity
  8
0
100
AcDbLine
 62
7
  6
CONTINUOUS
 10
95.6351501143
 20
127.8519849727
 11
96.1351501143
 21
127.5115594516
  0
LINE
  5
272
100
AcDbEntity
  8
0
100
AcDbLine
 62
7
  6
CONTINUOUS
 10
96.801816622
 20
128.022197778
 11
96.301816622
 21
128.3626232693
  0
LINE
  5
273
100
AcDbEntity
  8
0
100
AcDbLine
 62
7
  6
CONTINUOUS
 10
70.9264061363
 20
166.8529772315
 11
71.0107523342
 21
166.6623596095
  0
LINE
  5
274
100
AcDbEntity
  8
0
100
AcDbLine
 62
7
  6
CONTINUOUS
 10
74.3354052289
 20
169.0399031288
 11
74.2220149162
 21
169.4410765179
  0
LINE
  5
275
100
AcDbEntity
  8
0
100
AcDbLine
 62
7
  6
CONTINUOUS
 10
76.4109769521
 20
171.896675003
 11
76.3564391259
 21
172.3099821929
  0
LINE
  5
276
100
AcDbEntity
  8
0
100
AcDbLine
 62
7
  6
CONTINUOUS
 10
86.3018168605
 20
124.4711339304
 11
86.3018168605
 21
101.9711339304
  0
LINE
  5
277
100
AcDbEntity
  8
0
100
AcDbLine
 62
7
  6
CONTINUOUS
 10
85.8656634024
 20
178.9296485341
 11
85.8792248034
 21
179.2610266742
  0
LINE
  5
278
100
AcDbEntity
  8
0
100
AcDbLine
 62
7
  6
CONTINUOUS
 10
109.4826419211
 20
178.7397639333
 11
107.3525329001
 21
175.9626007119
  0
LINE
  5
279
100
AcDbEntity
  8
0
100
AcDbLine
 62
7
  6
CONTINUOUS
 10
107.6996783028
 20
175.6963370842
 11
108.6514291554
 21
176.9371972646
  0
LINE
  5
27A
100
AcDbEntity
  8
0
100
AcDbLine
 62
7
  6
CONTINUOUS
 10
108.9233579342
 20
177.2917286974
 11
109.6031800081
 21
178.178057445
  0
LINE
  5
27B
100
AcDbEntity
  8
0
100
AcDbLine
 62
7
  6
CONTINUOUS
 10
114.1256044743
 20
168.6360182879
 11
114.5880735331
 21
168.9030249235
  0
LINE
  5
27C
100
AcDbEntity
  8
0
100
AcDbLine
 62
7
  6
CONTINUOUS
 10
116.6955601878
 20
170.1197829109
 11
117.1580292466
 21
170.3867895465
  0
LINE
  5
27D
100
AcDbEntity
  8
0
100
AcDbLine
 62
7
  6
CONTINUOUS
 10
116.7205823311
 20
167.1089140415
 11
117.1830513899
 21
167.3759206771
  0
LINE
  5
27E
100
AcDbEntity
  8
0
100
AcDbLine
 62
7
  6
CONTINUOUS
 10
115.6156044743
 20
166.0552625846
 11
116.0780735331
 21
166.3222692202
  0
LINE
  5
27F
100
AcDbEntity
  8
0
100
AcDbLine
 62
7
  6
CONTINUOUS
 10
118.1855601878
 20
167.5390272077
 11
118.6480292466
 21
167.8060338432
  0
LINE
  5
280
100
AcDbEntity
  8
0
100
AcDbLine
 62
7
  6
CONTINUOUS
 10
92.6351501143
 20
135.1711339304
 11
91.6351501143
 21
135.1711339304
  0
LINE
  5
281
100
AcDbEntity
  8
0
100
AcDbLine
 62
7
  6
CONTINUOUS
 10
71.3532808953
 20
166.9182984534
 11
71.1575872981
 21
167.2318004288
  0
LINE
  5
282
100
AcDbEntity
  8
0
100
AcDbLine
 62
7
  6
CONTINUOUS
 10
73.7539358494
 20
169.3731875571
 11
73.8752387994
 21
169.1355694512
  0
LINE
  5
283
100
AcDbEntity
  8
0
100
AcDbLine
 62
7
  6
CONTINUOUS
 10
75.883462733
 20
172.3100923442
 11
75.9693440626
 21
172.0575031741
  0
LINE
  5
284
100
AcDbEntity
  8
0
100
AcDbLine
 62
7
  6
CONTINUOUS
 10
90.6351501143
 20
133.9796447108
 11
90.6351501143
 21
132.6179422686
  0
LINE
  5
285
100
AcDbEntity
  8
0
100
AcDbLine
 62
7
  6
CONTINUOUS
 10
98.7758937119
 20
182.2380862143
 11
98.7118201602
 21
181.9471865507
  0
LINE
  5
286
100
AcDbEntity
  8
0
100
AcDbLine
 62
7
  6
CONTINUOUS
 10
102.4156653305
 20
182.1985180924
 11
102.2846752666
 21
181.8499797694
  0
LINE
  5
287
100
AcDbEntity
  8
0
100
AcDbLine
 62
7
  6
CONTINUOUS
 10
103.3767622723
 20
181.439544138
 11
102.2764455888
 21
178.5118218344
  0
LINE
  5
288
100
AcDbEntity
  8
0
100
AcDbLine
 62
7
  6
CONTINUOUS
 10
102.6859781671
 20
178.3579084909
 11
103.7862948507
 21
181.2856307946
  0
LINE
  5
289
100
AcDbEntity
  8
0
100
AcDbLine
 62
7
  6
CONTINUOUS
 10
110.7776908486
 20
176.7140938919
 11
110.6417263323
 21
176.5368280099
  0
LINE
  5
28A
100
AcDbEntity
  8
0
100
AcDbLine
 62
7
  6
CONTINUOUS
 10
110.9435502718
 20
176.2114758102
 11
111.1248362513
 21
176.4478302642
  0
LINE
  5
28B
100
AcDbEntity
  8
0
100
AcDbLine
 62
7
  6
CONTINUOUS
 10
74.2220149162
 20
169.4410765179
 11
74.0361042197
 21
169.7157262486
  0
LINE
  5
28C
100
AcDbEntity
  8
0
100
AcDbLine
 62
7
  6
CONTINUOUS
 10
95.301816622
 20
128.532836015
 11
95.6351501143
 21
127.8519849727
  0
LINE
  5
28D
100
AcDbEntity
  8
0
100
AcDbLine
 62
7
  6
CONTINUOUS
 10
76.3564391259
 20
172.3099821929
 11
76.2119450711
 21
172.60850665
  0
LINE
  5
28E
100
AcDbEntity
  8
0
100
AcDbLine
 62
7
  6
CONTINUOUS
 10
96.301816622
 20
128.3626232693
 11
96.1351501143
 21
128.8732616255
  0
LINE
  5
28F
100
AcDbEntity
  8
0
100
AcDbLine
 62
7
  6
CONTINUOUS
 10
82.5933350599
 20
179.8495694909
 11
82.676501775
 21
179.4793834933
  0
LINE
  5
290
100
AcDbEntity
  8
0
100
AcDbLine
 62
7
  6
CONTINUOUS
 10
83.0769746454
 20
179.6555303925
 11
83.0237904616
 21
179.9575506124
  0
LINE
  5
291
100
AcDbEntity
  8
0
100
AcDbLine
 62
7
  6
CONTINUOUS
 10
91.6351501143
 20
133.8094319651
 11
91.6351501143
 21
127.1711339304
  0
LINE
  5
292
100
AcDbEntity
  8
0
100
AcDbLine
 62
7
  6
CONTINUOUS
 10
92.6351501143
 20
127.1711339304
 11
92.6351501143
 21
135.1711339304
  0
LINE
  5
293
100
AcDbEntity
  8
0
100
AcDbLine
 62
7
  6
CONTINUOUS
 10
93.9684833682
 20
132.6179422686
 11
93.9684833682
 21
131.9370912859
  0
LINE
  5
294
100
AcDbEntity
  8
0
100
AcDbLine
 62
7
  6
CONTINUOUS
 10
99.1550971696
 20
181.9258034413
 11
99.1871339229
 21
182.0712531713
  0
LINE
  5
295
100
AcDbEntity
  8
0
100
AcDbLine
 62
7
  6
CONTINUOUS
 10
100.4333812851
 20
180.2716932125
 11
100.385326155
 21
180.0535186175
  0
LINE
  5
296
100
AcDbEntity
  8
0
100
AcDbLine
 62
7
  6
CONTINUOUS
 10
100.7965664109
 20
179.8866857783
 11
100.8766582944
 21
180.2503101031
  0
LINE
  5
297
100
AcDbEntity
  8
0
100
AcDbLine
 62
7
  6
CONTINUOUS
 10
104.8783814658
 20
180.87519531
 11
105.0093715297
 21
181.223733633
  0
LINE
  5
298
100
AcDbEntity
  8
0
100
AcDbLine
 62
7
  6
CONTINUOUS
 10
85.8792248034
 20
179.2610266742
 11
85.7960577904
 21
179.6312123129
  0
LINE
  5
299
100
AcDbEntity
  8
0
100
AcDbLine
 62
7
  6
CONTINUOUS
 10
85.39558492
 20
179.4550654137
 11
85.4487691038
 21
179.1530451938
  0
LINE
  5
29A
100
AcDbEntity
  8
0
100
AcDbLine
 62
7
  6
CONTINUOUS
 10
95.301816622
 20
133.9796447108
 11
95.301816622
 21
132.6179422686
  0
LINE
  5
29B
100
AcDbEntity
  8
0
100
AcDbLine
 62
7
  6
CONTINUOUS
 10
95.301816622
 20
131.9370912859
 11
95.301816622
 21
128.532836015
  0
LINE
  5
29C
100
AcDbEntity
  8
0
100
AcDbLine
 62
7
  6
CONTINUOUS
 10
96.1351501143
 20
128.8732616255
 11
96.1351501143
 21
131.9370912859
  0
LINE
  5
29D
100
AcDbEntity
  8
0
100
AcDbLine
 62
7
  6
CONTINUOUS
 10
96.1351501143
 20
132.6179422686
 11
96.1351501143
 21
133.9796447108
  0
LINE
  5
29E
100
AcDbEntity
  8
0
100
AcDbLine
 62
7
  6
CONTINUOUS
 10
97.6351501143
 20
127.1711339304
 11
97.6351501143
 21
127.8519849727
  0
LINE
  5
29F
100
AcDbEntity
  8
0
100
AcDbLine
 62
7
  6
CONTINUOUS
 10
97.9684836066
 20
131.9370912859
 11
97.9684836066
 21
132.6179422686
  0
LINE
  5
2A0
100
AcDbEntity
  8
0
100
AcDbLine
 62
7
  6
CONTINUOUS
 10
70.7458844752
 20
167.0034372241
 11
70.9264061363
 21
166.8529772315
  0
LINE
  5
2A1
100
AcDbEntity
  8
0
100
AcDbLine
 62
7
  6
CONTINUOUS
 10
71.1575872981
 20
167.2318004288
 11
70.977065637
 21
167.3822604214
  0
LINE
  5
2A2
100
AcDbEntity
  8
0
100
AcDbLine
 62
7
  6
CONTINUOUS
 10
73.5317652249
 20
169.5845757881
 11
73.7539358494
 21
169.3731875571
  0
LINE
  5
2A3
100
AcDbEntity
  8
0
100
AcDbLine
 62
7
  6
CONTINUOUS
 10
76.2119450711
 20
172.60850665
 11
75.9638597543
 21
172.8955742984
  0
LINE
  5
2A4
100
AcDbEntity
  8
0
100
AcDbLine
 62
7
  6
CONTINUOUS
 10
75.6939901003
 20
172.5512247378
 11
75.883462733
 21
172.3100923442
  0
LINE
  5
2A5
100
AcDbEntity
  8
0
100
AcDbLine
 62
7
  6
CONTINUOUS
 10
82.676501775
 20
179.4793834933
 11
83.1262385274
 21
178.4568995954
  0
LINE
  5
2A6
100
AcDbEntity
  8
0
100
AcDbLine
 62
7
  6
CONTINUOUS
 10
83.5267113977
 20
178.6330464946
 11
83.0769746454
 21
179.6555303925
  0
LINE
  5
2A7
100
AcDbEntity
  8
0
100
AcDbLine
 62
7
  6
CONTINUOUS
 10
98.6442549219
 20
180.2845007736
 11
98.6211002969
 21
180.5183600272
  0
LINE
  5
2A8
100
AcDbEntity
  8
0
100
AcDbLine
 62
7
  6
CONTINUOUS
 10
98.1938416642
 20
180.6124680015
 11
98.2009779317
 21
180.3058838787
  0
LINE
  5
2A9
100
AcDbEntity
  8
0
100
AcDbLine
 62
7
  6
CONTINUOUS
 10
98.7118201602
 20
181.9471865507
 11
98.718956434
 21
181.6406024265
  0
LINE
  5
2AA
100
AcDbEntity
  8
0
100
AcDbLine
 62
7
  6
CONTINUOUS
 10
106.8638716387
 20
176.2895950338
 11
107.5430399732
 21
179.9158662292
  0
LINE
  5
2AB
100
AcDbEntity
  8
0
100
AcDbLine
 62
7
  6
CONTINUOUS
 10
106.6602146508
 20
177.4248307129
 11
106.4813849903
 21
176.5019866858
  0
LINE
  5
2AC
100
AcDbEntity
  8
0
100
AcDbLine
 62
7
  6
CONTINUOUS
 10
107.1434420525
 20
179.7970441185
 11
106.7410741842
 21
177.7206455969
  0
LINE
  5
2AD
100
AcDbEntity
  8
0
100
AcDbLine
 62
7
  6
CONTINUOUS
 10
109.5511206711
 20
174.2762642343
 11
110.072796346
 21
176.0346970004
  0
LINE
  5
2AE
100
AcDbEntity
  8
0
100
AcDbLine
 62
7
  6
CONTINUOUS
 10
109.6350080171
 20
176.1827834837
 11
109.146117922
 21
174.5869049639
  0
LINE
  5
2AF
100
AcDbEntity
  8
0
100
AcDbLine
 62
7
  6
CONTINUOUS
 10
110.8557972295
 20
176.9357372181
 11
110.7776908486
 21
176.7140938919
  0
LINE
  5
2B0
100
AcDbEntity
  8
0
100
AcDbLine
 62
7
  6
CONTINUOUS
 10
111.1248362513
 20
176.4478302642
 11
111.2029426322
 21
176.6694735905
  0
LINE
  5
2B1
100
AcDbEntity
  8
0
100
AcDbLine
 62
7
  6
CONTINUOUS
 10
91.6351501143
 20
135.1711339304
 11
90.6351501143
 21
133.9796447108
  0
LINE
  5
2B2
100
AcDbEntity
  8
0
100
AcDbLine
 62
7
  6
CONTINUOUS
 10
90.6351501143
 20
132.6179422686
 11
91.6351501143
 21
133.8094319651
  0
LINE
  5
2B3
100
AcDbEntity
  8
0
100
AcDbLine
 62
7
  6
CONTINUOUS
 10
72.3477354437
 20
172.0239038712
 11
75.1025319283
 21
169.8649466394
  0
LINE
  5
2B4
100
AcDbEntity
  8
0
100
AcDbLine
 62
7
  6
CONTINUOUS
 10
75.0207254362
 20
170.4849077608
 11
72.9692812028
 21
172.0926419031
  0
LINE
  5
2B5
100
AcDbEntity
  8
0
100
AcDbLine
 62
7
  6
CONTINUOUS
 10
74.0361042197
 20
169.7157262486
 11
73.7493258939
 21
169.9641460784
  0
LINE
  5
2B6
100
AcDbEntity
  8
0
100
AcDbLine
 62
7
  6
CONTINUOUS
 10
77.6832580613
 20
177.6338115982
 11
79.8350757567
 21
174.8734347026
  0
LINE
  5
2B7
100
AcDbEntity
  8
0
100
AcDbLine
 62
7
  6
CONTINUOUS
 10
80.1801228686
 20
175.1424119145
 11
78.0283051733
 21
177.9027888101
  0
LINE
  5
2B8
100
AcDbEntity
  8
0
100
AcDbLine
 62
7
  6
CONTINUOUS
 10
78.749572468
 20
178.4843622683
 11
80.623281114
 21
175.5281457826
  0
LINE
  5
2B9
100
AcDbEntity
  8
0
100
AcDbLine
 62
7
  6
CONTINUOUS
 10
80.9928081747
 20
175.7623593634
 11
79.3582963486
 21
178.3411865554
  0
LINE
  5
2BA
100
AcDbEntity
  8
0
100
AcDbLine
 62
7
  6
CONTINUOUS
 10
80.8435591747
 20
179.8115725778
 11
82.4382048362
 21
177.2956436454
  0
LINE
  5
2BB
100
AcDbEntity
  8
0
100
AcDbLine
 62
7
  6
CONTINUOUS
 10
83.0867948814
 20
177.0895696729
 11
81.2130862354
 21
180.0457861585
  0
LINE
  5
2BC
100
AcDbEntity
  8
0
100
AcDbLine
 62
7
  6
CONTINUOUS
 10
84.9458481677
 20
180.4775493116
 11
85.39558492
 21
179.4550654137
  0
LINE
  5
2BD
100
AcDbEntity
  8
0
100
AcDbLine
 62
7
  6
CONTINUOUS
 10
85.7960577904
 20
179.6312123129
 11
85.346321038
 21
180.6536962108
  0
LINE
  5
2BE
100
AcDbEntity
  8
0
100
AcDbLine
 62
7
  6
CONTINUOUS
 10
99.1782517946
 20
181.6919441878
 11
99.1550971696
 21
181.9258034413
  0
LINE
  5
2BF
100
AcDbEntity
  8
0
100
AcDbLine
 62
7
  6
CONTINUOUS
 10
100.9833965793
 20
181.7518616953
 11
100.9602420052
 21
181.9857209377
  0
LINE
  5
2C0
100
AcDbEntity
  8
0
100
AcDbLine
 62
7
  6
CONTINUOUS
 10
102.3018168605
 20
124.4711339304
 11
102.3018168605
 21
101.9711339304
  0
LINE
  5
2C1
100
AcDbEntity
  8
0
100
AcDbLine
 62
7
  6
CONTINUOUS
 10
105.3018168605
 20
124.6711339304
 11
105.3018168605
 21
124.4711339304
  0
LINE
  5
2C2
100
AcDbEntity
  8
0
100
AcDbLine
 62
7
  6
CONTINUOUS
 10
68.9404089917
 20
165.2897689936
 11
72.1915996841
 21
163.9937137934
  0
LINE
  5
2C3
100
AcDbEntity
  8
0
100
AcDbLine
 62
7
  6
CONTINUOUS
 10
72.3536065841
 20
164.4001126299
 11
70.9009468924
 21
164.9792011319
  0
LINE
  5
2C4
100
AcDbEntity
  8
0
100
AcDbLine
 62
7
  6
CONTINUOUS
 10
70.4859013216
 20
165.1446549675
 11
69.4482872008
 21
165.5582896338
  0
LINE
  5
2C5
100
AcDbEntity
  8
0
100
AcDbLine
 62
7
  6
CONTINUOUS
 10
70.538361496
 20
167.0861642192
 11
70.7458844752
 21
167.0034372241
  0
LINE
  5
2C6
100
AcDbEntity
  8
0
100
AcDbLine
 62
7
  6
CONTINUOUS
 10
70.4411227646
 20
168.8347038746
 11
72.4439617761
 21
167.6867241555
  0
LINE
  5
2C7
100
AcDbEntity
  8
0
100
AcDbLine
 62
7
  6
CONTINUOUS
 10
72.6615225488
 20
168.0662946268
 11
70.6586835373
 21
169.2142743459
  0
LINE
  5
2C8
100
AcDbEntity
  8
0
100
AcDbLine
 62
7
  6
CONTINUOUS
 10
71.5289262134
 20
170.7325555072
 11
73.5317652249
 21
169.5845757881
  0
LINE
  5
2C9
100
AcDbEntity
  8
0
100
AcDbLine
 62
7
  6
CONTINUOUS
 10
73.7493258939
 20
169.9641460784
 11
71.7464868824
 21
171.1121257976
  0
LINE
  5
2CA
100
AcDbEntity
  8
0
100
AcDbLine
 62
7
  6
CONTINUOUS
 10
74.8147997556
 20
173.2402536238
 11
75.6939901003
 21
172.5512247378
  0
LINE
  5
2CB
100
AcDbEntity
  8
0
100
AcDbLine
 62
7
  6
CONTINUOUS
 10
75.9638597543
 20
172.8955742984
 11
75.0846694096
 21
173.5846031843
  0
LINE
  5
2CC
100
AcDbEntity
  8
0
100
AcDbLine
 62
7
  6
CONTINUOUS
 10
83.1262385274
 20
178.4568995954
 11
83.3428963699
 21
178.1454295338
  0
LINE
  5
2CD
100
AcDbEntity
  8
0
100
AcDbLine
 62
7
  6
CONTINUOUS
 10
72.4439617761
 20
167.6867241555
 11
72.8032604632
 21
167.5648279971
  0
LINE
  5
2CE
100
AcDbEntity
  8
0
100
AcDbLine
 62
7
  6
CONTINUOUS
 10
70.977065637
 20
167.3822604214
 11
70.700368396
 21
167.4925630557
  0
LINE
  5
2CF
100
AcDbEntity
  8
0
100
AcDbLine
 62
7
  6
CONTINUOUS
 10
83.7133867929
 20
178.3897420199
 11
83.5267113977
 21
178.6330464946
  0
LINE
  5
2D0
100
AcDbEntity
  8
0
100
AcDbLine
 62
7
  6
CONTINUOUS
 10
84.7591727725
 20
180.7208537864
 11
84.9458481677
 21
180.4775493116
  0
LINE
  5
2D1
100
AcDbEntity
  8
0
100
AcDbLine
 62
7
  6
CONTINUOUS
 10
85.346321038
 20
180.6536962108
 11
85.1296634935
 21
180.9651666314
  0
LINE
  5
2D2
100
AcDbEntity
  8
0
100
AcDbLine
 62
7
  6
CONTINUOUS
 10
98.2009779317
 20
180.3058838787
 11
98.3345153541
 21
179.8952054889
  0
LINE
  5
2D3
100
AcDbEntity
  8
0
100
AcDbLine
 62
7
  6
CONTINUOUS
 10
100.8766582944
 20
180.2503101031
 11
100.7983124152
 21
180.5725789597
  0
LINE
  5
2D4
100
AcDbEntity
  8
0
100
AcDbLine
 62
7
  6
CONTINUOUS
 10
100.5169649959
 20
182.007104047
 11
100.5561379467
 21
181.8459696696
  0
LINE
  5
2D5
100
AcDbEntity
  8
0
100
AcDbLine
 62
7
  6
CONTINUOUS
 10
111.2029426322
 20
176.6694735905
 11
111.2106557833
 21
177.0389596928
  0
LINE
  5
2D6
100
AcDbEntity
  8
0
100
AcDbLine
 62
7
  6
CONTINUOUS
 10
72.9562133272
 20
167.9814297053
 11
72.6615225488
 21
168.0662946268
  0
LINE
  5
2D7
100
AcDbEntity
  8
0
100
AcDbLine
 62
7
  6
CONTINUOUS
 10
74.5353709149
 20
173.3666032684
 11
74.8147997556
 21
173.2402536238
  0
LINE
  5
2D8
100
AcDbEntity
  8
0
100
AcDbLine
 62
7
  6
CONTINUOUS
 10
75.0846694096
 20
173.5846031843
 11
74.7466277205
 21
173.7568882124
  0
LINE
  5
2D9
100
AcDbEntity
  8
0
100
AcDbLine
 62
7
  6
CONTINUOUS
 10
83.3428963699
 20
178.1454295338
 11
83.5963170098
 21
177.9314827158
  0
LINE
  5
2DA
100
AcDbEntity
  8
0
100
AcDbLine
 62
7
  6
CONTINUOUS
 10
100.3390170292
 20
180.5212372041
 11
100.4333812851
 21
180.2716932125
  0
LINE
  5
2DB
100
AcDbEntity
  8
0
100
AcDbLine
 62
7
  6
CONTINUOUS
 10
73.21764341
 20
166.5675731561
 11
71.3836248447
 21
166.5922146818
  0
LINE
  5
2DC
100
AcDbEntity
  8
0
100
AcDbLine
 62
7
  6
CONTINUOUS
 10
71.3599664296
 20
166.1306644698
 11
73.0286353085
 21
166.0934410509
  0
LINE
  5
2DD
100
AcDbEntity
  8
0
100
AcDbLine
 62
7
  6
CONTINUOUS
 10
70.3038375863
 20
167.1011580622
 11
70.538361496
 21
167.0861642192
  0
LINE
  5
2DE
100
AcDbEntity
  8
0
100
AcDbLine
 62
7
  6
CONTINUOUS
 10
70.700368396
 20
167.4925630557
 11
70.4658444863
 21
167.5075568987
  0
LINE
  5
2DF
100
AcDbEntity
  8
0
100
AcDbLine
 62
7
  6
CONTINUOUS
 10
72.8032604632
 20
167.5648279971
 11
73.1342115712
 21
167.5432250663
  0
LINE
  5
2E0
100
AcDbEntity
  8
0
100
AcDbLine
 62
7
  6
CONTINUOUS
 10
79.3582963486
 20
178.3411865554
 11
82.5325042903
 21
176.7382493018
  0
LINE
  5
2E1
100
AcDbEntity
  8
0
100
AcDbLine
 62
7
  6
CONTINUOUS
 10
83.9368249644
 20
178.2439608364
 11
83.7133867929
 21
178.3897420199
  0
LINE
  5
2E2
100
AcDbEntity
  8
0
100
AcDbLine
 62
7
  6
CONTINUOUS
 10
85.1296634935
 20
180.9651666314
 11
84.8762424926
 21
181.1791132336
  0
LINE
  5
2E3
100
AcDbEntity
  8
0
100
AcDbLine
 62
7
  6
CONTINUOUS
 10
98.809829097
 20
180.0192721406
 11
98.6442549219
 21
180.2845007736
  0
LINE
  5
2E4
100
AcDbEntity
  8
0
100
AcDbLine
 62
7
  6
CONTINUOUS
 10
100.9602420052
 20
181.9857209377
 11
100.8106861957
 21
182.3236743847
  0
LINE
  5
2E5
100
AcDbEntity
  8
0
100
AcDbLine
 62
7
  6
CONTINUOUS
 10
110.8307254629
 20
177.1426685664
 11
110.8557972295
 21
176.9357372181
  0
LINE
  5
2E6
100
AcDbEntity
  8
BEZUGSACHSEN
100
AcDbLine
 62
7
  6
CONTINUOUS
 10
122.9316098448
 20
147.7702671692
 11
122.5012881497
 21
146.7805950257
  0
LINE
  5
2E7
100
AcDbEntity
  8
BEZUGSACHSEN
100
AcDbLine
 62
7
  6
CONTINUOUS
 10
120.7635548916
 20
142.7840821431
 11
119.1529580831
 21
139.0799630764
  0
LINE
  5
2E8
100
AcDbEntity
  8
RUNDUNGEN
100
AcDbLine
 62
7
  6
CONTINUOUS
 10
126.3424780346
 20
155.6147269551
 11
116.3213422026
 21
132.5676923971
  0
LINE
  5
2E9
100
AcDbEntity
  8
BEZUGSACHSEN
100
AcDbLine
 62
7
  6
CONTINUOUS
 10
116.3213422026
 20
132.5676923971
 11
116.0110239235
 21
131.8540092155
  0
LINE
  5
2EA
100
AcDbEntity
  8
0
100
AcDbLine
 62
7
  6
CONTINUOUS
 10
73.2225567923
 20
167.9968585802
 11
72.9562133272
 21
167.9814297053
  0
LINE
  5
2EB
100
AcDbEntity
  8
0
100
AcDbLine
 62
7
  6
CONTINUOUS
 10
74.2695759752
 20
173.3896257556
 11
74.5353709149
 21
173.3666032684
  0
LINE
  5
2EC
100
AcDbEntity
  8
0
100
AcDbLine
 62
7
  6
CONTINUOUS
 10
74.7466277205
 20
173.7568882124
 11
74.4222202609
 21
173.8258458257
  0
LINE
  5
2ED
100
AcDbEntity
  8
0
100
AcDbLine
 62
7
  6
CONTINUOUS
 10
83.5963170098
 20
177.9314827158
 11
83.9832288506
 21
177.7762516668
  0
LINE
  5
2EE
100
AcDbEntity
  8
0
100
AcDbLine
 62
7
  6
CONTINUOUS
 10
82.4382048362
 20
177.2956436454
 11
79.303863059
 21
178.8356826394
  0
LINE
  5
2EF
100
AcDbEntity
  8
0
100
AcDbLine
 62
7
  6
CONTINUOUS
 10
84.535734517
 20
180.8666351607
 11
84.7591727725
 21
180.7208537864
  0
LINE
  5
2F0
100
AcDbEntity
  8
0
100
AcDbLine
 62
7
  6
CONTINUOUS
 10
85.9177946665
 20
182.1151392668
 11
87.5611557178
 21
180.7849147908
  0
LINE
  5
2F1
100
AcDbEntity
  8
0
100
AcDbLine
 62
7
  6
CONTINUOUS
 10
87.8694388965
 20
180.482507113
 11
89.2239381644
 21
179.3827993991
  0
LINE
  5
2F2
100
AcDbEntity
  8
0
100
AcDbLine
 62
7
  6
CONTINUOUS
 10
87.6946535882
 20
181.129527314
 11
86.3401551258
 21
182.2292352455
  0
LINE
  5
2F3
100
AcDbEntity
  8
0
100
AcDbLine
 62
7
  6
CONTINUOUS
 10
89.6462986238
 20
179.4968953778
 11
87.9835161771
 21
180.8990107696
  0
LINE
  5
2F4
100
AcDbEntity
  8
0
100
AcDbLine
 62
7
  6
CONTINUOUS
 10
98.718956434
 20
181.6406024265
 11
98.9397220242
 21
181.2869643152
  0
LINE
  5
2F5
100
AcDbEntity
  8
0
100
AcDbLine
 62
7
  6
CONTINUOUS
 10
100.7983124152
 20
180.5725789597
 11
100.5775466978
 21
180.9262170991
  0
LINE
  5
2F6
100
AcDbEntity
  8
0
100
AcDbLine
 62
7
  6
CONTINUOUS
 10
100.4065821371
 20
182.1839231167
 11
100.5169649959
 21
182.007104047
  0
LINE
  5
2F7
100
AcDbEntity
  8
0
100
AcDbLine
 62
7
  6
CONTINUOUS
 10
111.2106557833
 20
177.0389596928
 11
111.115190125
 21
177.3937343251
  0
LINE
  5
2F8
100
AcDbEntity
  8
0
100
AcDbLine
 62
7
  6
CONTINUOUS
 10
73.1342115712
 20
167.5432250663
 11
73.5376827066
 21
167.648145277
  0
LINE
  5
2F9
100
AcDbEntity
  8
0
100
AcDbLine
 62
7
  6
CONTINUOUS
 10
70.4658444863
 20
167.5075568987
 11
70.1081439891
 21
167.4146600375
  0
LINE
  5
2FA
100
AcDbEntity
  8
0
100
AcDbLine
 62
7
  6
CONTINUOUS
 10
110.4479039343
 20
176.4039399034
 11
110.2415463153
 21
176.3745169631
  0
LINE
  5
2FB
100
AcDbEntity
  8
0
100
AcDbLine
 62
7
  6
CONTINUOUS
 10
84.8762424926
 20
181.1791132336
 11
84.4893306623
 21
181.3343442588
  0
LINE
  5
2FC
100
AcDbEntity
  8
0
100
AcDbLine
 62
7
  6
CONTINUOUS
 10
98.3345153541
 20
179.8952054889
 11
98.6425090718
 21
179.5986075648
  0
LINE
  5
2FD
100
AcDbEntity
  8
0
100
AcDbLine
 62
7
  6
CONTINUOUS
 10
99.3598444085
 20
181.4994404595
 11
99.1782517946
 21
181.6919441878
  0
LINE
  5
2FE
100
AcDbEntity
  8
0
100
AcDbLine
 62
7
  6
CONTINUOUS
 10
100.1574244663
 20
180.7137409212
 11
100.3390170292
 21
180.5212372041
  0
LINE
  5
2FF
100
AcDbEntity
  8
0
100
AcDbLine
 62
7
  6
CONTINUOUS
 10
100.8106861957
 20
182.3236743847
 11
100.5739023052
 21
182.6045876142
  0
LINE
  5
300
100
AcDbEntity
  8
0
100
AcDbLine
 62
7
  6
CONTINUOUS
 10
115.4747217356
 20
166.2861653058
 11
115.6156044743
 21
166.0552625846
  0
LINE
  5
301
100
AcDbEntity
  8
0
100
AcDbLine
 62
7
  6
CONTINUOUS
 10
113.9847217356
 20
168.8669210091
 11
114.1256044743
 21
168.6360182879
  0
LINE
  5
302
100
AcDbEntity
  8
0
100
AcDbLine
 62
7
  6
CONTINUOUS
 10
99.9242849698
 20
179.3162836419
 11
100.2411607479
 21
179.3989947564
  0
LINE
  5
303
100
AcDbEntity
  8
0
100
AcDbLine
 62
7
  6
CONTINUOUS
 10
84.3101757941
 20
177.7573517974
 11
84.6738855087
 21
177.8359752313
  0
LINE
  5
304
100
AcDbEntity
  8
0
100
AcDbLine
 62
7
  6
CONTINUOUS
 10
74.4222202609
 20
173.8258458257
 11
74.0078565931
 21
173.78002069
  0
LINE
  5
305
100
AcDbEntity
  8
0
100
AcDbLine
 62
7
  6
CONTINUOUS
 10
83.9832288506
 20
177.7762516668
 11
84.3101757941
 21
177.7573517974
  0
LINE
  5
306
100
AcDbEntity
  8
0
100
AcDbLine
 62
7
  6
CONTINUOUS
 10
110.072796346
 20
176.0346970004
 11
110.39486932
 21
175.9753652289
  0
LINE
  5
307
100
AcDbEntity
  8
0
100
AcDbLine
 62
7
  6
CONTINUOUS
 10
84.1970263153
 20
178.1957030647
 11
83.9368249644
 21
178.2439608364
  0
LINE
  5
308
100
AcDbEntity
  8
0
100
AcDbLine
 62
7
  6
CONTINUOUS
 10
84.2755331871
 20
180.9148928848
 11
84.535734517
 21
180.8666351607
  0
LINE
  5
309
100
AcDbEntity
  8
0
100
AcDbLine
 62
7
  6
CONTINUOUS
 10
102.2764455888
 20
178.5118218344
 11
102.6859781671
 21
178.3579084909
  0
LINE
  5
30A
100
AcDbEntity
  8
0
100
AcDbLine
 62
7
  6
CONTINUOUS
 10
98.6425090718
 20
179.5986075648
 11
98.9825395203
 21
179.4474593891
  0
LINE
  5
30B
100
AcDbEntity
  8
0
100
AcDbLine
 62
7
  6
CONTINUOUS
 10
99.0786497917
 20
179.8838086298
 11
98.809829097
 21
180.0192721406
  0
LINE
  5
30C
100
AcDbEntity
  8
0
100
AcDbLine
 62
7
  6
CONTINUOUS
 10
104.3139605283
 20
177.7055394483
 11
104.6964468118
 21
177.4931479988
  0
LINE
  5
30D
100
AcDbEntity
  8
0
100
AcDbLine
 62
7
  6
CONTINUOUS
 10
106.4813849903
 20
176.5019866858
 11
106.8638716387
 21
176.2895950338
  0
LINE
  5
30E
100
AcDbEntity
  8
0
100
AcDbLine
 62
7
  6
CONTINUOUS
 10
99.5574553481
 20
181.3796616073
 11
99.3598444085
 21
181.4994404595
  0
LINE
  5
30F
100
AcDbEntity
  8
0
100
AcDbLine
 62
7
  6
CONTINUOUS
 10
107.3525329001
 20
175.9626007119
 11
107.6996783028
 21
175.6963370842
  0
LINE
  5
310
100
AcDbEntity
  8
0
100
AcDbLine
 62
7
  6
CONTINUOUS
 10
109.146117922
 20
174.5869049639
 11
109.5511206711
 21
174.2762642343
  0
LINE
  5
311
100
AcDbEntity
  8
0
100
AcDbLine
 62
7
  6
CONTINUOUS
 10
108.6514291554
 20
176.9371972646
 11
109.6350080171
 21
176.1827834837
  0
LINE
  5
312
100
AcDbEntity
  8
0
100
AcDbLine
 62
7
  6
CONTINUOUS
 10
98.9397220242
 20
181.2869643152
 11
99.1925243422
 21
181.0787759395
  0
LINE
  5
313
100
AcDbEntity
  8
0
100
AcDbLine
 62
7
  6
CONTINUOUS
 10
100.5775466978
 20
180.9262170991
 11
100.3247444306
 21
181.1344054636
  0
LINE
  5
314
100
AcDbEntity
  8
0
100
AcDbLine
 62
7
  6
CONTINUOUS
 10
111.115190125
 20
177.3937343251
 11
110.8712235318
 21
177.6747094228
  0
LINE
  5
315
100
AcDbEntity
  8
0
100
AcDbLine
 62
7
  6
CONTINUOUS
 10
110.7024742247
 20
177.3348889523
 11
110.8307254629
 21
177.1426685664
  0
LINE
  5
316
100
AcDbEntity
  8
0
100
AcDbLine
 62
7
  6
CONTINUOUS
 10
116.2102475377
 20
167.9928398325
 11
116.7205823311
 21
167.1089140415
  0
LINE
  5
317
100
AcDbEntity
  8
0
100
AcDbLine
 62
7
  6
CONTINUOUS
 10
117.1830513899
 20
167.3759206771
 11
116.6727165965
 21
168.2598464681
  0
LINE
  5
318
100
AcDbEntity
  8
0
100
AcDbLine
 62
7
  6
CONTINUOUS
 10
116.5994470294
 20
170.3110295746
 11
116.6955601878
 21
170.1197829109
  0
LINE
  5
319
100
AcDbEntity
  8
0
100
AcDbLine
 62
7
  6
CONTINUOUS
 10
102.3018168605
 20
101.9711339304
 11
100.8018168605
 21
100.4711339304
  0
LINE
  5
31A
100
AcDbEntity
  8
0
100
AcDbLine
 62
7
  6
CONTINUOUS
 10
86.8305624966
 20
178.7362555919
 11
87.252922956
 21
178.8503515707
  0
LINE
  5
31B
100
AcDbEntity
  8
0
100
AcDbLine
 62
7
  6
CONTINUOUS
 10
89.2239381644
 20
179.3827993991
 11
89.6462986238
 21
179.4968953778
  0
LINE
  5
31C
100
AcDbEntity
  8
0
100
AcDbLine
 62
7
  6
CONTINUOUS
 10
99.5769654278
 20
182.8241729026
 11
99.2600896029
 21
182.7414618184
  0
LINE
  5
31D
100
AcDbEntity
  8
0
100
AcDbLine
 62
7
  6
CONTINUOUS
 10
84.1623841086
 20
181.3532442783
 11
83.7986740147
 21
181.2746206704
  0
LINE
  5
31E
100
AcDbEntity
  8
0
100
AcDbLine
 62
7
  6
CONTINUOUS
 10
84.4939908036
 20
178.2449688
 11
84.1970263153
 21
178.1957030647
  0
LINE
  5
31F
100
AcDbEntity
  8
0
100
AcDbLine
 62
7
  6
CONTINUOUS
 10
83.9785686989
 20
180.8656271495
 11
84.2755331871
 21
180.9148928848
  0
LINE
  5
320
100
AcDbEntity
  8
0
100
AcDbLine
 62
7
  6
CONTINUOUS
 10
99.5520649737
 20
182.3721390429
 11
99.7817126667
 21
182.3978099207
  0
LINE
  5
321
100
AcDbEntity
  8
0
100
AcDbLine
 62
7
  6
CONTINUOUS
 10
99.9491855356
 20
179.7683175238
 11
99.6483280365
 21
179.7583313158
  0
LINE
  5
322
100
AcDbEntity
  8
0
100
AcDbLine
 62
7
  6
CONTINUOUS
 10
99.8778229269
 20
182.8341591105
 11
99.5769654278
 21
182.8241729026
  0
LINE
  5
323
100
AcDbEntity
  8
0
100
AcDbLine
 62
7
  6
CONTINUOUS
 10
99.5522177651
 20
179.321982075
 11
99.9242849698
 21
179.3162836419
  0
LINE
  5
324
100
AcDbEntity
  8
0
100
AcDbLine
 62
7
  6
CONTINUOUS
 10
84.4893306623
 20
181.3343442588
 11
84.1623841086
 21
181.3532442783
  0
LINE
  5
325
100
AcDbEntity
  8
0
100
AcDbLine
 62
7
  6
CONTINUOUS
 10
98.9825395203
 20
179.4474593891
 11
99.5522177651
 21
179.321982075
  0
LINE
  5
326
100
AcDbEntity
  8
0
100
AcDbLine
 62
7
  6
CONTINUOUS
 10
99.6483280365
 20
179.7583313158
 11
99.0786497917
 21
179.8838086298
  0
LINE
  5
327
100
AcDbEntity
  8
0
100
AcDbLine
 62
7
  6
CONTINUOUS
 10
98.6211002969
 20
180.5183600272
 11
98.1938416642
 21
180.6124680015
  0
LINE
  5
328
100
AcDbEntity
  8
0
100
AcDbLine
 62
7
  6
CONTINUOUS
 10
99.4613450879
 20
180.9433124175
 11
99.8886037206
 21
180.8492044432
  0
LINE
  5
329
100
AcDbEntity
  8
0
100
AcDbLine
 62
7
  6
CONTINUOUS
 10
99.9847139807
 20
181.285553633
 11
99.5574553481
 21
181.3796616073
  0
LINE
  5
32A
100
AcDbEntity
  8
0
100
AcDbLine
 62
7
  6
CONTINUOUS
 10
100.5561379467
 20
181.8459696696
 11
100.9833965793
 21
181.7518616953
  0
LINE
  5
32B
100
AcDbEntity
  8
0
100
AcDbLine
 62
7
  6
CONTINUOUS
 10
99.7817126667
 20
182.3978099207
 11
100.2089712994
 21
182.3037019464
  0
LINE
  5
32C
100
AcDbEntity
  8
0
100
AcDbLine
 62
7
  6
CONTINUOUS
 10
110.2415463153
 20
176.3745169631
 11
110.0226521508
 21
176.4485602047
  0
LINE
  5
32D
100
AcDbEntity
  8
0
100
AcDbLine
 62
7
  6
CONTINUOUS
 10
102.2846752666
 20
181.8499797694
 11
103.3767622723
 21
181.439544138
  0
LINE
  5
32E
100
AcDbEntity
  8
0
100
AcDbLine
 62
7
  6
CONTINUOUS
 10
103.7862948507
 20
181.2856307946
 11
104.8783814658
 21
180.87519531
  0
LINE
  5
32F
100
AcDbEntity
  8
0
100
AcDbLine
 62
7
  6
CONTINUOUS
 10
105.0093715297
 20
181.223733633
 11
102.4156653305
 21
182.1985180924
  0
LINE
  5
330
100
AcDbEntity
  8
0
100
AcDbLine
 62
7
  6
CONTINUOUS
 10
100.3247444306
 20
181.1344054636
 11
99.9847139807
 21
181.285553633
  0
LINE
  5
331
100
AcDbEntity
  8
0
100
AcDbLine
 62
7
  6
CONTINUOUS
 10
100.5739023052
 20
182.6045876142
 11
100.2338717535
 21
182.7557358061
  0
LINE
  5
332
100
AcDbEntity
  8
0
100
AcDbLine
 62
7
  6
CONTINUOUS
 10
99.1925243422
 20
181.0787759395
 11
99.4613450879
 21
180.9433124175
  0
LINE
  5
333
100
AcDbEntity
  8
0
100
AcDbLine
 62
7
  6
CONTINUOUS
 10
99.8886037206
 20
180.8492044432
 11
100.1574244663
 21
180.7137409212
  0
LINE
  5
334
100
AcDbEntity
  8
0
100
AcDbLine
 62
7
  6
CONTINUOUS
 10
105.3852596427
 20
178.1328026163
 11
106.6602146508
 21
177.4248307129
  0
LINE
  5
335
100
AcDbEntity
  8
0
100
AcDbLine
 62
7
  6
CONTINUOUS
 10
106.7410741842
 20
177.7206455969
 11
105.5936142393
 21
178.357820553
  0
LINE
  5
336
100
AcDbEntity
  8
0
100
AcDbLine
 62
7
  6
CONTINUOUS
 10
107.5430399732
 20
179.9158662292
 11
107.0330582618
 21
180.1990548285
  0
LINE
  5
337
100
AcDbEntity
  8
0
100
AcDbLine
 62
7
  6
CONTINUOUS
 10
100.2089712994
 20
182.3037019464
 11
100.4065821371
 21
182.1839231167
  0
LINE
  5
338
100
AcDbEntity
  8
0
100
AcDbLine
 62
7
  6
CONTINUOUS
 10
110.0226521508
 20
176.4485602047
 11
108.9233579342
 21
177.2917286974
  0
LINE
  5
339
100
AcDbEntity
  8
0
100
AcDbLine
 62
7
  6
CONTINUOUS
 10
109.6031800081
 20
178.178057445
 11
110.7024742247
 21
177.3348889523
  0
LINE
  5
33A
100
AcDbEntity
  8
0
100
AcDbLine
 62
7
  6
CONTINUOUS
 10
110.8712235318
 20
177.6747094228
 11
109.4826419211
 21
178.7397639333
  0
LINE
  5
33B
100
AcDbEntity
  8
0
100
AcDbLine
 62
7
  6
CONTINUOUS
 10
88.7335307937
 20
182.8757790527
 11
88.3111703343
 21
182.7616830739
  0
LINE
  5
33C
100
AcDbEntity
  8
0
100
AcDbLine
 62
7
  6
CONTINUOUS
 10
86.3401551258
 20
182.2292352455
 11
85.9177946665
 21
182.1151392668
  0
LINE
  5
33D
100
AcDbEntity
  8
0
100
AcDbLine
 62
7
  6
CONTINUOUS
 10
100.2338717535
 20
182.7557358061
 11
99.8778229269
 21
182.8341591105
  0
LINE
  5
33E
100
AcDbEntity
  8
0
100
AcDbLine
 62
7
  6
CONTINUOUS
 10
186.8737645349
 20
100.4711339304
 11
199.8737645349
 21
100.4711339304
  0
LINE
  5
33F
100
AcDbEntity
  8
0
100
AcDbLine
 62
7
  6
CONTINUOUS
 10
185.3737645349
 20
101.9711339304
 11
201.3737645349
 21
101.9711339304
  0
LINE
  5
340
100
AcDbEntity
  8
0
100
AcDbLine
 62
7
  6
CONTINUOUS
 10
185.3737645349
 20
101.9711339304
 11
186.8737645349
 21
100.4711339304
  0
LINE
  5
341
100
AcDbEntity
  8
BEZUGSACHSEN
100
AcDbLine
 62
7
  6
CONTINUOUS
 10
174.3562512434
 20
136.3013640705
 11
175.2433601276
 21
126.1616631262
  0
LINE
  5
342
100
AcDbEntity
  8
0
100
AcDbLine
 62
7
  6
CONTINUOUS
 10
182.3746395516
 20
124.4711339304
 11
204.3728895182
 21
124.4711339304
  0
LINE
  5
343
100
AcDbEntity
  8
BEZUGSACHSEN
100
AcDbLine
 62
7
  6
CONTINUOUS
 10
175.3740792245
 20
124.6711339304
 11
211.3734498453
 21
124.6711339304
  0
LINE
  5
344
100
AcDbEntity
  8
BEZUGSACHSEN
100
AcDbLine
 62
7
  6
CONTINUOUS
 10
175.2433601276
 20
126.1616631262
 11
175.2671606019
 21
125.972786161
  0
LINE
  5
345
100
AcDbEntity
  8
0
100
AcDbLine
 62
7
  6
CONTINUOUS
 10
211.3962701139
 20
127.1711339304
 11
212.0200582315
 21
127.1711339304
  0
LINE
  5
346
100
AcDbEntity
  8
0
100
AcDbLine
 62
7
  6
CONTINUOUS
 10
212.0798538489
 20
127.8519849727
 11
212.1065718945
 21
127.8519849727
  0
LINE
  5
347
100
AcDbEntity
  8
0
100
AcDbLine
 62
7
  6
CONTINUOUS
 10
212.1396494662
 20
128.532836015
 11
212.186971292
 21
128.532836015
  0
LINE
  5
348
100
AcDbEntity
  8
0
100
AcDbLine
 62
7
  6
CONTINUOUS
 10
212.4386275583
 20
131.9370912859
 11
212.5084601757
 21
131.9370912859
  0
LINE
  5
349
100
AcDbEntity
  8
0
100
AcDbLine
 62
7
  6
CONTINUOUS
 10
211.705925849
 20
132.6179422686
 11
212.2175093987
 21
132.6179422686
  0
LINE
  5
34A
100
AcDbEntity
  8
0
100
AcDbLine
 62
7
  6
CONTINUOUS
 10
212.4984231704
 20
132.6179422686
 11
212.5680359278
 21
132.6179422686
  0
LINE
  5
34B
100
AcDbEntity
  8
0
100
AcDbLine
 62
7
  6
CONTINUOUS
 10
182.3737645349
 20
124.6711339304
 11
182.3737645349
 21
124.4711339304
  0
LINE
  5
34C
100
AcDbEntity
  8
0
100
AcDbLine
 62
7
  6
CONTINUOUS
 10
211.8274035994
 20
133.9796447108
 11
212.338863147
 21
133.9796447108
  0
LINE
  5
34D
100
AcDbEntity
  8
0
100
AcDbLine
 62
7
  6
CONTINUOUS
 10
212.6180144366
 20
133.9796447108
 11
212.6641613911
 21
133.9796447108
  0
LINE
  5
34E
100
AcDbEntity
  8
0
100
AcDbLine
 62
7
  6
CONTINUOUS
 10
212.1035132286
 20
135.1711339304
 11
212.7226567578
 21
135.1711339304
  0
LINE
  5
34F
100
AcDbEntity
  8
0
100
AcDbLine
 62
7
  6
CONTINUOUS
 10
185.3737645349
 20
124.4711339304
 11
185.3737645349
 21
101.9711339304
  0
LINE
  5
350
100
AcDbEntity
  8
BEZUGSACHSEN
100
AcDbLine
 62
7
  6
CONTINUOUS
 10
186.3737645349
 20
148.7674036397
 11
186.3737645349
 21
188.0500325544
  0
LINE
  5
351
100
AcDbEntity
  8
BEZUGSACHSEN
100
AcDbLine
 62
7
  6
CONTINUOUS
 10
182.2786925813
 20
142.0845905526
 11
175.7126228045
 21
138.7390108982
  0
LINE
  5
352
100
AcDbEntity
  8
RUNDUNGEN
100
AcDbLine
 62
7
  6
CONTINUOUS
 10
204.4688364885
 20
142.0845905526
 11
211.0349062652
 21
138.7390108982
  0
LINE
  5
353
100
AcDbEntity
  8
RUNDUNGEN
100
AcDbLine
 62
7
  6
CONTINUOUS
 10
200.3737645349
 20
148.7674036397
 11
200.3737645349
 21
188.0500325544
  0
LINE
  5
354
100
AcDbEntity
  8
0
100
AcDbLine
 62
7
  6
CONTINUOUS
 10
200.8737645349
 20
182.8757790527
 11
200.8737645349
 21
174.2762642343
  0
LINE
  5
355
100
AcDbEntity
  8
0
100
AcDbLine
 62
7
  6
CONTINUOUS
 10
200.8737645349
 20
173.8258458257
 11
200.8737645349
 21
167.5432250663
  0
LINE
  5
356
100
AcDbEntity
  8
0
100
AcDbLine
 62
7
  6
CONTINUOUS
 10
200.8737645349
 20
167.5075568987
 11
200.8737645349
 21
163.9937137934
  0
LINE
  5
357
100
AcDbEntity
  8
0
100
AcDbLine
 62
7
  6
CONTINUOUS
 10
201.3737645349
 20
124.4711339304
 11
201.3737645349
 21
101.9711339304
  0
LINE
  5
358
100
AcDbEntity
  8
0
100
AcDbLine
 62
7
  6
CONTINUOUS
 10
204.3737645349
 20
124.6711339304
 11
204.3737645349
 21
124.4711339304
  0
LINE
  5
359
100
AcDbEntity
  8
0
100
AcDbLine
 62
7
  6
CONTINUOUS
 10
211.5041689422
 20
126.1616631262
 11
211.5924861937
 21
127.1711339304
  0
LINE
  5
35A
100
AcDbEntity
  8
0
100
AcDbLine
 62
7
  6
CONTINUOUS
 10
212.2923955019
 20
135.1711339304
 11
212.3912778263
 21
136.3013640705
  0
LINE
  5
35B
100
AcDbEntity
  8
0
100
AcDbLine
 62
7
  6
CONTINUOUS
 10
200.3737645349
 20
163.9937137934
 11
200.8737645349
 21
163.9937137934
  0
LINE
  5
35C
100
AcDbEntity
  8
0
100
AcDbLine
 62
7
  6
CONTINUOUS
 10
200.3737645349
 20
165.2897689936
 11
200.8737645349
 21
165.2897689936
  0
LINE
  5
35D
100
AcDbEntity
  8
0
100
AcDbLine
 62
7
  6
CONTINUOUS
 10
212.5680359278
 20
132.6179422686
 11
212.5084601757
 21
131.9370912859
  0
LINE
  5
35E
100
AcDbEntity
  8
0
100
AcDbLine
 62
7
  6
CONTINUOUS
 10
212.4852189264
 20
131.9370912859
 11
212.186971292
 21
128.532836015
  0
LINE
  5
35F
100
AcDbEntity
  8
RUNDUNGEN
100
AcDbLine
 62
7
  6
CONTINUOUS
 10
211.4803684679
 20
125.972786161
 11
211.5041689422
 21
126.1616631262
  0
LINE
  5
360
100
AcDbEntity
  8
0
100
AcDbLine
 62
7
  6
CONTINUOUS
 10
200.3737645349
 20
166.9153643398
 11
200.8737645349
 21
166.9153643398
  0
LINE
  5
361
100
AcDbEntity
  8
0
100
AcDbLine
 62
7
  6
CONTINUOUS
 10
200.3737645349
 20
167.2264544622
 11
200.8737645349
 21
167.2264544622
  0
LINE
  5
362
100
AcDbEntity
  8
0
100
AcDbLine
 62
7
  6
CONTINUOUS
 10
200.3737645349
 20
167.4146600375
 11
200.8737645349
 21
167.4146600375
  0
LINE
  5
363
100
AcDbEntity
  8
0
100
AcDbLine
 62
7
  6
CONTINUOUS
 10
200.3737645349
 20
167.5075568987
 11
200.8737645349
 21
167.5075568987
  0
LINE
  5
364
100
AcDbEntity
  8
0
100
AcDbLine
 62
7
  6
CONTINUOUS
 10
200.3737645349
 20
167.5432250663
 11
200.8737645349
 21
167.5432250663
  0
LINE
  5
365
100
AcDbEntity
  8
0
100
AcDbLine
 62
7
  6
CONTINUOUS
 10
200.3737645349
 20
167.5648279971
 11
200.8737645349
 21
167.5648279971
  0
LINE
  5
366
100
AcDbEntity
  8
0
100
AcDbLine
 62
7
  6
CONTINUOUS
 10
200.3737645349
 20
167.6867241555
 11
200.8737645349
 21
167.6867241555
  0
LINE
  5
367
100
AcDbEntity
  8
0
100
AcDbLine
 62
7
  6
CONTINUOUS
 10
200.3737645349
 20
168.8347038746
 11
200.8737645349
 21
168.8347038746
  0
LINE
  5
368
100
AcDbEntity
  8
0
100
AcDbLine
 62
7
  6
CONTINUOUS
 10
200.3737645349
 20
169.2142743459
 11
200.8737645349
 21
169.2142743459
  0
LINE
  5
369
100
AcDbEntity
  8
0
100
AcDbLine
 62
7
  6
CONTINUOUS
 10
200.3737645349
 20
169.3731875571
 11
200.8737645349
 21
169.3731875571
  0
LINE
  5
36A
100
AcDbEntity
  8
0
100
AcDbLine
 62
7
  6
CONTINUOUS
 10
200.3737645349
 20
169.5845757881
 11
200.8737645349
 21
169.5845757881
  0
LINE
  5
36B
100
AcDbEntity
  8
0
100
AcDbLine
 62
7
  6
CONTINUOUS
 10
200.3737645349
 20
170.7325555072
 11
200.8737645349
 21
170.7325555072
  0
LINE
  5
36C
100
AcDbEntity
  8
0
100
AcDbLine
 62
7
  6
CONTINUOUS
 10
200.3737645349
 20
171.1121257976
 11
200.8737645349
 21
171.1121257976
  0
LINE
  5
36D
100
AcDbEntity
  8
0
100
AcDbLine
 62
7
  6
CONTINUOUS
 10
200.3737645349
 20
172.0239038712
 11
200.8737645349
 21
172.0239038712
  0
LINE
  5
36E
100
AcDbEntity
  8
0
100
AcDbLine
 62
7
  6
CONTINUOUS
 10
200.3737645349
 20
173.4013021135
 11
200.8737645349
 21
173.4013021135
  0
LINE
  5
36F
100
AcDbEntity
  8
0
100
AcDbLine
 62
7
  6
CONTINUOUS
 10
200.3737645349
 20
173.6423250448
 11
200.8737645349
 21
173.6423250448
  0
LINE
  5
370
100
AcDbEntity
  8
0
100
AcDbLine
 62
7
  6
CONTINUOUS
 10
200.3737645349
 20
173.78002069
 11
200.8737645349
 21
173.78002069
  0
LINE
  5
371
100
AcDbEntity
  8
0
100
AcDbLine
 62
7
  6
CONTINUOUS
 10
200.3737645349
 20
173.8258458257
 11
200.8737645349
 21
173.8258458257
  0
LINE
  5
372
100
AcDbEntity
  8
0
100
AcDbLine
 62
7
  6
CONTINUOUS
 10
200.3737645349
 20
174.2762642343
 11
200.8737645349
 21
174.2762642343
  0
LINE
  5
373
100
AcDbEntity
  8
0
100
AcDbLine
 62
7
  6
CONTINUOUS
 10
200.3737645349
 20
174.5869049639
 11
200.8737645349
 21
174.5869049639
  0
LINE
  5
374
100
AcDbEntity
  8
0
100
AcDbLine
 62
7
  6
CONTINUOUS
 10
200.3737645349
 20
174.8734347026
 11
200.8737645349
 21
174.8734347026
  0
LINE
  5
375
100
AcDbEntity
  8
0
100
AcDbLine
 62
7
  6
CONTINUOUS
 10
200.3737645349
 20
177.6338115982
 11
200.8737645349
 21
177.6338115982
  0
LINE
  5
376
100
AcDbEntity
  8
0
100
AcDbLine
 62
7
  6
CONTINUOUS
 10
200.3737645349
 20
177.9027888101
 11
200.8737645349
 21
177.9027888101
  0
LINE
  5
377
100
AcDbEntity
  8
0
100
AcDbLine
 62
7
  6
CONTINUOUS
 10
200.3737645349
 20
178.4843622683
 11
200.8737645349
 21
178.4843622683
  0
LINE
  5
378
100
AcDbEntity
  8
0
100
AcDbLine
 62
7
  6
CONTINUOUS
 10
200.3737645349
 20
178.8356826394
 11
200.8737645349
 21
178.8356826394
  0
LINE
  5
379
100
AcDbEntity
  8
0
100
AcDbLine
 62
7
  6
CONTINUOUS
 10
200.3737645349
 20
179.8115725778
 11
200.8737645349
 21
179.8115725778
  0
LINE
  5
37A
100
AcDbEntity
  8
0
100
AcDbLine
 62
7
  6
CONTINUOUS
 10
200.3737645349
 20
180.0457861585
 11
200.8737645349
 21
180.0457861585
  0
LINE
  5
37B
100
AcDbEntity
  8
0
100
AcDbLine
 62
7
  6
CONTINUOUS
 10
200.3737645349
 20
180.1809474153
 11
200.8737645349
 21
180.1809474153
  0
LINE
  5
37C
100
AcDbEntity
  8
0
100
AcDbLine
 62
7
  6
CONTINUOUS
 10
200.3737645349
 20
180.5710410848
 11
200.8737645349
 21
180.5710410848
  0
LINE
  5
37D
100
AcDbEntity
  8
0
100
AcDbLine
 62
7
  6
CONTINUOUS
 10
200.3737645349
 20
180.8248035806
 11
200.8737645349
 21
180.8248035806
  0
LINE
  5
37E
100
AcDbEntity
  8
0
100
AcDbLine
 62
7
  6
CONTINUOUS
 10
200.3737645349
 20
181.0397581941
 11
200.8737645349
 21
181.0397581941
  0
LINE
  5
37F
100
AcDbEntity
  8
0
100
AcDbLine
 62
7
  6
CONTINUOUS
 10
200.3737645349
 20
181.2746206704
 11
200.8737645349
 21
181.2746206704
  0
LINE
  5
380
100
AcDbEntity
  8
0
100
AcDbLine
 62
7
  6
CONTINUOUS
 10
200.3737645349
 20
181.3532442783
 11
200.8737645349
 21
181.3532442783
  0
LINE
  5
381
100
AcDbEntity
  8
0
100
AcDbLine
 62
7
  6
CONTINUOUS
 10
201.3737645349
 20
101.9711339304
 11
199.8737645349
 21
100.4711339304
  0
LINE
  5
382
100
AcDbEntity
  8
0
100
AcDbLine
 62
7
  6
CONTINUOUS
 10
200.3737645349
 20
182.1151392668
 11
200.8737645349
 21
182.1151392668
  0
LINE
  5
383
100
AcDbEntity
  8
0
100
AcDbLine
 62
7
  6
CONTINUOUS
 10
200.3737645349
 20
182.2292352455
 11
200.8737645349
 21
182.2292352455
  0
LINE
  5
384
100
AcDbEntity
  8
0
100
AcDbLine
 62
7
  6
CONTINUOUS
 10
200.3737645349
 20
182.7616830739
 11
200.8737645349
 21
182.7616830739
  0
LINE
  5
385
100
AcDbEntity
  8
0
100
AcDbLine
 62
7
  6
CONTINUOUS
 10
200.3737645349
 20
182.8757790527
 11
200.8737645349
 21
182.8757790527
  0
LINE
  5
386
100
AcDbEntity
  8
RUNDUNGEN
100
AcDbLine
 62
7
  6
CONTINUOUS
 10
197.8737645349
 20
190.5500325544
 11
188.8737645349
 21
190.5500325544
  0
LINE
  5
387
100
AcDbEntity
  8
RUNDUNGEN
100
AcDbLine
 62
7
  6
CONTINUOUS
 10
61.9708659467
 20
49.6003299419
 11
61.9708659467
 21
58.6003299419
  0
LINE
  5
388
100
AcDbEntity
  8
0
100
AcDbLine
 62
7
  6
CONTINUOUS
 10
68.9404089917
 20
47.1003299419
 11
68.9404089917
 21
46.6003299419
  0
LINE
  5
389
100
AcDbEntity
  8
0
100
AcDbLine
 62
7
  6
CONTINUOUS
 10
69.5884365918
 20
47.1003299419
 11
69.5884365918
 21
46.6003299419
  0
LINE
  5
38A
100
AcDbEntity
  8
0
100
AcDbLine
 62
7
  6
CONTINUOUS
 10
69.7926166294
 20
47.1003299419
 11
69.7926166294
 21
46.6003299419
  0
LINE
  5
38B
100
AcDbEntity
  8
0
100
AcDbLine
 62
7
  6
CONTINUOUS
 10
70.1081439891
 20
47.1003299419
 11
70.1081439891
 21
46.6003299419
  0
LINE
  5
38C
100
AcDbEntity
  8
0
100
AcDbLine
 62
7
  6
CONTINUOUS
 10
70.4411227646
 20
47.1003299419
 11
70.4411227646
 21
46.6003299419
  0
LINE
  5
38D
100
AcDbEntity
  8
0
100
AcDbLine
 62
7
  6
CONTINUOUS
 10
70.6586835373
 20
47.1003299419
 11
70.6586835373
 21
46.6003299419
  0
LINE
  5
38E
100
AcDbEntity
  8
0
100
AcDbLine
 62
7
  6
CONTINUOUS
 10
71.5289262134
 20
47.1003299419
 11
71.5289262134
 21
46.6003299419
  0
LINE
  5
38F
100
AcDbEntity
  8
0
100
AcDbLine
 62
7
  6
CONTINUOUS
 10
71.7464868824
 20
47.1003299419
 11
71.7464868824
 21
46.6003299419
  0
LINE
  5
390
100
AcDbEntity
  8
0
100
AcDbLine
 62
7
  6
CONTINUOUS
 10
72.3477354437
 20
47.1003299419
 11
72.3477354437
 21
46.6003299419
  0
LINE
  5
391
100
AcDbEntity
  8
0
100
AcDbLine
 62
7
  6
CONTINUOUS
 10
73.4272140596
 20
47.1003299419
 11
73.4272140596
 21
46.6003299419
  0
LINE
  5
392
100
AcDbEntity
  8
0
100
AcDbLine
 62
7
  6
CONTINUOUS
 10
73.7107182937
 20
47.1003299419
 11
73.7107182937
 21
46.6003299419
  0
LINE
  5
393
100
AcDbEntity
  8
0
100
AcDbLine
 62
7
  6
CONTINUOUS
 10
74.0078565931
 20
47.1003299419
 11
74.0078565931
 21
46.6003299419
  0
LINE
  5
394
100
AcDbEntity
  8
0
100
AcDbLine
 62
7
  6
CONTINUOUS
 10
74.4222202609
 20
47.1003299419
 11
74.4222202609
 21
46.6003299419
  0
LINE
  5
395
100
AcDbEntity
  8
0
100
AcDbLine
 62
7
  6
CONTINUOUS
 10
74.7466277205
 20
47.1003299419
 11
74.7466277205
 21
46.6003299419
  0
LINE
  5
396
100
AcDbEntity
  8
0
100
AcDbLine
 62
7
  6
CONTINUOUS
 10
75.0846694096
 20
47.1003299419
 11
75.0846694096
 21
46.6003299419
  0
LINE
  5
397
100
AcDbEntity
  8
0
100
AcDbLine
 62
7
  6
CONTINUOUS
 10
75.9638597543
 20
47.1003299419
 11
75.9638597543
 21
46.6003299419
  0
LINE
  5
398
100
AcDbEntity
  8
0
100
AcDbLine
 62
7
  6
CONTINUOUS
 10
76.2119450711
 20
47.1003299419
 11
76.2119450711
 21
46.6003299419
  0
LINE
  5
399
100
AcDbEntity
  8
0
100
AcDbLine
 62
7
  6
CONTINUOUS
 10
76.3564391259
 20
47.1003299419
 11
76.3564391259
 21
46.6003299419
  0
LINE
  5
39A
100
AcDbEntity
  8
0
100
AcDbLine
 62
7
  6
CONTINUOUS
 10
76.4109769521
 20
47.1003299419
 11
76.4109769521
 21
46.6003299419
  0
LWPOLYLINE
  5
39B
100
AcDbEntity
  8
BEZUGSACHSEN
100
AcDbPolyline
 62
7
  6
CONTINUOUS
 90
7
 70
0
 10
79.7546632834
 20
66.7437972374
 10
79.6732546798
 20
66.6559730387
 10
79.5018452216
 20
66.4749627337
 10
79.3283070351
 20
66.2969037423
 10
79.1526952786
 20
66.1218126
 10
78.9750660921
 20
65.9497058726
 10
78.9001108789
 20
65.8785385048
  0
LWPOLYLINE
  5
39C
100
AcDbEntity
  8
BEZUGSACHSEN
100
AcDbPolyline
 62
7
  6
CONTINUOUS
 90
5
 70
0
 10
78.9001112546
 20
65.8785388444
 10
78.8085155791
 20
65.7927965823
 10
78.7093417228
 20
65.7015269314
 10
78.6085123147
 20
65.6103622407
 10
78.5157921232
 20
65.5279438731
  0
LWPOLYLINE
  5
39D
100
AcDbEntity
  8
BEZUGSACHSEN
100
AcDbPolyline
 62
7
  6
CONTINUOUS
 90
7
 70
0
 10
78.5158436654
 20
65.5279955008
 10
77.8898877052
 20
65.0028680908
 10
77.0719594899
 20
64.3886986722
 10
76.1588295484
 20
63.7853143362
 10
75.1637500683
 20
63.2123853558
 10
74.1020171902
 20
62.6853155873
 10
73.1032789097
 20
62.2587246542
  0
LWPOLYLINE
  5
39E
100
AcDbEntity
  8
RUNDUNGEN
100
AcDbPolyline
 62
7
  6
CONTINUOUS
 90
5
 70
0
 10
78.5157921232
 20
42.6727160107
 10
78.6085123147
 20
42.590297643
 10
78.7093417228
 20
42.4991329523
 10
78.8085155791
 20
42.4078633015
 10
78.9001112546
 20
42.3221210394
  0
LWPOLYLINE
  5
39F
100
AcDbEntity
  8
RUNDUNGEN
100
AcDbPolyline
 62
7
  6
CONTINUOUS
 90
7
 70
0
 10
78.9001108789
 20
42.3221213789
 10
78.9750660921
 20
42.2509540111
 10
79.1526952786
 20
42.0788472837
 10
79.3283070351
 20
41.9037561414
 10
79.5018452216
 20
41.72569715
 10
79.6732546798
 20
41.544686845
 10
79.7546632834
 20
41.4568626463
  0
LWPOLYLINE
  5
3A0
100
AcDbEntity
  8
RUNDUNGEN
100
AcDbPolyline
 62
7
  6
CONTINUOUS
 90
23
 70
0
 10
79.7546755117
 20
41.4568507002
 10
80.7338896591
 20
40.4655440246
 10
81.8921916955
 20
39.4548216528
 10
83.1126175534
 20
38.5459120781
 10
84.3888764451
 20
37.7395529025
 10
85.7138279273
 20
37.0372855821
 10
87.0804349487
 20
36.4404911595
 10
88.4816718773
 20
35.9503947871
 10
89.9106864826
 20
35.5679848662
 10
91.3605541929
 20
35.2940854889
 10
92.8243355747
 20
35.1293008349
 10
94.2950253168
 20
35.0739974229
 10
95.7657562676
 20
35.1282897281
 10
97.2296592406
 20
35.2920696713
 10
98.6797313982
 20
35.5649774538
 10
100.109032832
 20
35.9464153769
 10
101.5106396194
 20
36.4355665186
 10
102.877699722
 20
37.0314506163
 10
104.2031844474
 20
37.7328499623
 10
105.4800568229
 20
38.5383927995
 10
106.7011620257
 20
39.4465381565
 10
107.8601906757
 20
40.4565360379
 10
108.8489582735
 20
41.4568514472
  0
LINE
  5
3A1
100
AcDbEntity
  8
0
100
AcDbLine
 62
7
  6
CONTINUOUS
 10
77.6832580613
 20
47.1003299419
 11
77.6832580613
 21
46.6003299419
  0
LINE
  5
3A2
100
AcDbEntity
  8
0
100
AcDbLine
 62
7
  6
CONTINUOUS
 10
78.0283051733
 20
47.1003299419
 11
78.0283051733
 21
46.6003299419
  0
LINE
  5
3A3
100
AcDbEntity
  8
0
100
AcDbLine
 62
7
  6
CONTINUOUS
 10
78.749572468
 20
47.1003299419
 11
78.749572468
 21
46.6003299419
  0
LINE
  5
3A4
100
AcDbEntity
  8
0
100
AcDbLine
 62
7
  6
CONTINUOUS
 10
79.303863059
 20
47.1003299419
 11
79.303863059
 21
46.6003299419
  0
LINE
  5
3A5
100
AcDbEntity
  8
BEZUGSACHSEN
100
AcDbLine
 62
7
  6
CONTINUOUS
 10
73.0987100154
 20
62.2568882595
 11
73.1026774094
 21
62.2584579129
  0
LWPOLYLINE
  5
3A6
100
AcDbEntity
  8
RUNDUNGEN
100
AcDbPolyline
 62
7
  6
CONTINUOUS
 90
7
 70
0
 10
73.0985526249
 20
45.9438061753
 10
74.103600114
 20
45.5146171795
 10
75.1655329357
 20
44.9873197603
 10
76.1588142843
 20
44.4153549807
 10
77.070221518
 20
43.8131878761
 10
77.8884122261
 20
43.1989696977
 10
78.5158437754
 20
42.672664286
  0
LINE
  5
3A7
100
AcDbEntity
  8
0
100
AcDbLine
 62
7
  6
CONTINUOUS
 10
80.8435591747
 20
47.1003299419
 11
80.8435591747
 21
46.6003299419
  0
LINE
  5
3A8
100
AcDbEntity
  8
0
100
AcDbLine
 62
7
  6
CONTINUOUS
 10
81.2130862354
 20
47.1003299419
 11
81.2130862354
 21
46.6003299419
  0
LINE
  5
3A9
100
AcDbEntity
  8
0
100
AcDbLine
 62
7
  6
CONTINUOUS
 10
82.5933350599
 20
47.1003299419
 11
82.5933350599
 21
46.6003299419
  0
LINE
  5
3AA
100
AcDbEntity
  8
0
100
AcDbLine
 62
7
  6
CONTINUOUS
 10
82.6068961
 20
47.1003299419
 11
82.6068961
 21
46.6003299419
  0
LINE
  5
3AB
100
AcDbEntity
  8
0
100
AcDbLine
 62
7
  6
CONTINUOUS
 10
82.7539483514
 20
47.1003299419
 11
82.7539483514
 21
46.6003299419
  0
LINE
  5
3AC
100
AcDbEntity
  8
0
100
AcDbLine
 62
7
  6
CONTINUOUS
 10
82.9609654976
 20
47.1003299419
 11
82.9609654976
 21
46.6003299419
  0
LINE
  5
3AD
100
AcDbEntity
  8
0
100
AcDbLine
 62
7
  6
CONTINUOUS
 10
83.2647103149
 20
47.1003299419
 11
83.2647103149
 21
46.6003299419
  0
LINE
  5
3AE
100
AcDbEntity
  8
0
100
AcDbLine
 62
7
  6
CONTINUOUS
 10
83.7986740147
 20
47.1003299419
 11
83.7986740147
 21
46.6003299419
  0
LINE
  5
3AF
100
AcDbEntity
  8
0
100
AcDbLine
 62
7
  6
CONTINUOUS
 10
84.1623841086
 20
47.1003299419
 11
84.1623841086
 21
46.6003299419
  0
LINE
  5
3B0
100
AcDbEntity
  8
0
100
AcDbLine
 62
7
  6
CONTINUOUS
 10
84.4893306623
 20
47.1003299419
 11
84.4893306623
 21
46.6003299419
  0
LINE
  5
3B1
100
AcDbEntity
  8
0
100
AcDbLine
 62
7
  6
CONTINUOUS
 10
84.8762424926
 20
47.1003299419
 11
84.8762424926
 21
46.6003299419
  0
LINE
  5
3B2
100
AcDbEntity
  8
0
100
AcDbLine
 62
7
  6
CONTINUOUS
 10
85.1296634935
 20
47.1003299419
 11
85.1296634935
 21
46.6003299419
  0
LINE
  5
3B3
100
AcDbEntity
  8
0
100
AcDbLine
 62
7
  6
CONTINUOUS
 10
85.346321038
 20
47.1003299419
 11
85.346321038
 21
46.6003299419
  0
LINE
  5
3B4
100
AcDbEntity
  8
0
100
AcDbLine
 62
7
  6
CONTINUOUS
 10
85.7960577904
 20
47.1003299419
 11
85.7960577904
 21
46.6003299419
  0
LINE
  5
3B5
100
AcDbEntity
  8
0
100
AcDbLine
 62
7
  6
CONTINUOUS
 10
85.8792248034
 20
47.1003299419
 11
85.8792248034
 21
46.6003299419
  0
LINE
  5
3B6
100
AcDbEntity
  8
0
100
AcDbLine
 62
7
  6
CONTINUOUS
 10
85.9177946665
 20
47.1003299419
 11
85.9177946665
 21
46.6003299419
  0
LINE
  5
3B7
100
AcDbEntity
  8
0
100
AcDbLine
 62
7
  6
CONTINUOUS
 10
86.3401551258
 20
47.1003299419
 11
86.3401551258
 21
46.6003299419
  0
LINE
  5
3B8
100
AcDbEntity
  8
0
100
AcDbLine
 62
7
  6
CONTINUOUS
 10
96.2393168605
 20
64.0365001622
 11
95.9268169797
 21
63.8450108234
  0
LINE
  5
3B9
100
AcDbEntity
  8
0
100
AcDbLine
 62
7
  6
CONTINUOUS
 10
96.3018169797
 20
63.7173512641
 11
96.4893169797
 21
63.7811810437
  0
LINE
  5
3BA
100
AcDbEntity
  8
0
100
AcDbLine
 62
7
  6
CONTINUOUS
 10
96.3018169797
 20
62.6322448317
 11
96.4893169797
 21
62.6960746113
  0
LINE
  5
3BB
100
AcDbEntity
  8
0
100
AcDbLine
 62
7
  6
CONTINUOUS
 10
118.6480292466
 20
46.6003299419
 11
113.7918334659
 21
46.6003299419
  0
LINE
  5
3BC
100
AcDbEntity
  8
0
100
AcDbLine
 62
7
  6
CONTINUOUS
 10
111.2106557833
 20
46.6003299419
 11
102.2764455888
 21
46.6003299419
  0
LINE
  5
3BD
100
AcDbEntity
  8
0
100
AcDbLine
 62
7
  6
CONTINUOUS
 10
100.9833965793
 20
46.6003299419
 11
98.1938416642
 21
46.6003299419
  0
LINE
  5
3BE
100
AcDbEntity
  8
0
100
AcDbLine
 62
7
  6
CONTINUOUS
 10
89.6462986238
 20
46.6003299419
 11
85.9177946665
 21
46.6003299419
  0
LINE
  5
3BF
100
AcDbEntity
  8
0
100
AcDbLine
 62
7
  6
CONTINUOUS
 10
85.8792248034
 20
46.6003299419
 11
77.6832580613
 21
46.6003299419
  0
LINE
  5
3C0
100
AcDbEntity
  8
0
100
AcDbLine
 62
7
  6
CONTINUOUS
 10
76.4109769521
 20
46.6003299419
 11
68.9404089917
 21
46.6003299419
  0
LINE
  5
3C1
100
AcDbEntity
  8
0
100
AcDbLine
 62
7
  6
CONTINUOUS
 10
87.6946535882
 20
47.1003299419
 11
87.6946535882
 21
46.6003299419
  0
LINE
  5
3C2
100
AcDbEntity
  8
0
100
AcDbLine
 62
7
  6
CONTINUOUS
 10
88.3111703343
 20
47.1003299419
 11
88.3111703343
 21
46.6003299419
  0
LINE
  5
3C3
100
AcDbEntity
  8
0
100
AcDbLine
 62
7
  6
CONTINUOUS
 10
88.7335307937
 20
47.1003299419
 11
88.7335307937
 21
46.6003299419
  0
LINE
  5
3C4
100
AcDbEntity
  8
0
100
AcDbLine
 62
7
  6
CONTINUOUS
 10
94.6768167413
 20
64.1003299419
 11
94.3018167413
 21
63.6535214845
  0
LINE
  5
3C5
100
AcDbEntity
  8
0
100
AcDbLine
 62
7
  6
CONTINUOUS
 10
94.3018167413
 20
63.1428830687
 11
94.6768167413
 21
63.5896917049
  0
LINE
  5
3C6
100
AcDbEntity
  8
0
100
AcDbLine
 62
7
  6
CONTINUOUS
 10
96.1143169797
 20
63.5896917049
 11
96.3018169797
 21
63.7173512641
  0
LINE
  5
3C7
100
AcDbEntity
  8
0
100
AcDbLine
 62
7
  6
CONTINUOUS
 10
96.2393168605
 20
62.9513937298
 11
95.8643168605
 21
62.6960746113
  0
LINE
  5
3C8
100
AcDbEntity
  8
0
100
AcDbLine
 62
7
  6
CONTINUOUS
 10
96.1143169797
 20
62.5045852724
 11
96.3018169797
 21
62.6322448317
  0
LINE
  5
3C9
100
AcDbEntity
  8
0
100
AcDbLine
 62
7
  6
CONTINUOUS
 10
97.1143170989
 20
61.4833086643
 11
96.9268170989
 21
61.4194788847
  0
LINE
  5
3CA
100
AcDbEntity
  8
RUNDUNGEN
100
AcDbLine
 62
7
  6
CONTINUOUS
 10
64.4738281007
 20
47.1003299419
 11
124.1325064554
 21
47.1003299419
  0
LINE
  5
3CB
100
AcDbEntity
  8
0
100
AcDbLine
 62
7
  6
CONTINUOUS
 10
89.6462986238
 20
47.1003299419
 11
89.6462986238
 21
46.6003299419
  0
LINE
  5
3CC
100
AcDbEntity
  8
0
100
AcDbLine
 62
7
  6
CONTINUOUS
 10
90.6351501143
 20
35.4311240091
 11
90.6351501143
 21
35.1352313298
  0
LINE
  5
3CD
100
AcDbEntity
  8
0
100
AcDbLine
 62
7
  6
CONTINUOUS
 10
90.8018168605
 20
64.1003299419
 11
90.8018168605
 21
61.1003299419
  0
LINE
  5
3CE
100
AcDbEntity
  8
0
100
AcDbLine
 62
7
  6
CONTINUOUS
 10
91.1768168605
 20
61.1003299419
 11
91.1768168605
 21
63.4620321456
  0
LINE
  5
3CF
100
AcDbEntity
  8
0
100
AcDbLine
 62
7
  6
CONTINUOUS
 10
91.6351501143
 20
35.2631729534
 11
91.6351501143
 21
34.8637424908
  0
LINE
  5
3D0
100
AcDbEntity
  8
0
100
AcDbLine
 62
7
  6
CONTINUOUS
 10
93.2393168605
 20
64.1003299419
 11
92.3018168605
 21
61.4194788847
  0
LINE
  5
3D1
100
AcDbEntity
  8
0
100
AcDbLine
 62
7
  6
CONTINUOUS
 10
92.5518168009
 20
61.1003299419
 11
93.4268168605
 21
63.4620321456
  0
LINE
  5
3D2
100
AcDbEntity
  8
0
100
AcDbLine
 62
7
  6
CONTINUOUS
 10
95.9893167413
 20
63.398202366
 11
96.1143169797
 21
63.5896917049
  0
LINE
  5
3D3
100
AcDbEntity
  8
0
100
AcDbLine
 62
7
  6
CONTINUOUS
 10
95.9268169797
 20
63.8450108234
 11
95.7393169797
 21
63.5896917049
  0
LINE
  5
3D4
100
AcDbEntity
  8
0
100
AcDbLine
 62
7
  6
CONTINUOUS
 10
95.9893167413
 20
62.3769257132
 11
96.1143169797
 21
62.5045852724
  0
LINE
  5
3D5
100
AcDbEntity
  8
0
100
AcDbLine
 62
7
  6
CONTINUOUS
 10
97.3018170989
 20
61.6109682236
 11
97.1143170989
 21
61.4833086643
  0
LINE
  5
3D6
100
AcDbEntity
  8
0
100
AcDbLine
 62
7
  6
CONTINUOUS
 10
97.1768168605
 20
61.1641597271
 11
97.4893170989
 21
61.3556490827
  0
LINE
  5
3D7
100
AcDbEntity
  8
0
100
AcDbLine
 62
7
  6
CONTINUOUS
 10
92.6351501143
 20
35.1505983189
 11
92.6351501143
 21
34.7514377189
  0
LINE
  5
3D8
100
AcDbEntity
  8
0
100
AcDbLine
 62
7
  6
CONTINUOUS
 10
93.4268168605
 20
63.4620321456
 11
93.4268168605
 21
61.1003299419
  0
LINE
  5
3D9
100
AcDbEntity
  8
0
100
AcDbLine
 62
7
  6
CONTINUOUS
 10
93.8018168605
 20
61.1003299419
 11
93.8018168605
 21
64.1003299419
  0
LINE
  5
3DA
100
AcDbEntity
  8
0
100
AcDbLine
 62
7
  6
CONTINUOUS
 10
93.9684833682
 20
35.0862766164
 11
93.9684833682
 21
34.906058549
  0
LINE
  5
3DB
100
AcDbEntity
  8
0
100
AcDbLine
 62
7
  6
CONTINUOUS
 10
94.3018167413
 20
63.6535214845
 11
94.3018167413
 21
63.1428830687
  0
LINE
  5
3DC
100
AcDbEntity
  8
0
100
AcDbLine
 62
7
  6
CONTINUOUS
 10
95.6143167413
 20
63.2705426279
 11
95.5518169797
 21
62.8237341705
  0
LINE
  5
3DD
100
AcDbEntity
  8
0
100
AcDbLine
 62
7
  6
CONTINUOUS
 10
95.8643168605
 20
62.8237341705
 11
95.9268169797
 21
63.2067128483
  0
LINE
  5
3DE
100
AcDbEntity
  8
0
100
AcDbLine
 62
7
  6
CONTINUOUS
 10
95.9268169797
 20
63.2067128483
 11
95.9893167413
 21
63.398202366
  0
LINE
  5
3DF
100
AcDbEntity
  8
0
100
AcDbLine
 62
7
  6
CONTINUOUS
 10
95.9268169797
 20
62.1854362849
 11
95.9893167413
 21
62.3769257132
  0
LINE
  5
3E0
100
AcDbEntity
  8
0
100
AcDbLine
 62
7
  6
CONTINUOUS
 10
95.7393169797
 20
63.5896917049
 11
95.6143167413
 21
63.2705426279
  0
LINE
  5
3E1
100
AcDbEntity
  8
0
100
AcDbLine
 62
7
  6
CONTINUOUS
 10
97.426816622
 20
61.8024576071
 11
97.3018170989
 21
61.6109682236
  0
LINE
  5
3E2
100
AcDbEntity
  8
0
100
AcDbLine
 62
7
  6
CONTINUOUS
 10
97.4893170989
 20
61.3556490827
 11
97.6768170989
 21
61.6109682236
  0
LINE
  5
3E3
100
AcDbEntity
  8
0
100
AcDbLine
 62
7
  6
CONTINUOUS
 10
91.1768168605
 20
63.4620321456
 11
92.0518168307
 21
61.1003299419
  0
LINE
  5
3E4
100
AcDbEntity
  8
0
100
AcDbLine
 62
7
  6
CONTINUOUS
 10
94.6768167413
 20
63.5896917049
 11
94.6768167413
 21
61.1003299419
  0
LINE
  5
3E5
100
AcDbEntity
  8
0
100
AcDbLine
 62
7
  6
CONTINUOUS
 10
95.0518167413
 20
61.1003299419
 11
95.0518167413
 21
64.1003299419
  0
LINE
  5
3E6
100
AcDbEntity
  8
0
100
AcDbLine
 62
7
  6
CONTINUOUS
 10
95.301816622
 20
35.1111633102
 11
95.301816622
 21
34.8099330856
  0
LINE
  5
3E7
100
AcDbEntity
  8
0
100
AcDbLine
 62
7
  6
CONTINUOUS
 10
95.5518169797
 20
62.8237341705
 11
95.5518169797
 21
62.3769257132
  0
LINE
  5
3E8
100
AcDbEntity
  8
0
100
AcDbLine
 62
7
  6
CONTINUOUS
 10
95.8643168605
 20
62.6960746113
 11
95.8643168605
 21
62.8237341705
  0
LINE
  5
3E9
100
AcDbEntity
  8
0
100
AcDbLine
 62
7
  6
CONTINUOUS
 10
95.9268169797
 20
61.993946946
 11
95.9268169797
 21
62.1854362849
  0
LINE
  5
3EA
100
AcDbEntity
  8
0
100
AcDbLine
 62
7
  6
CONTINUOUS
 10
96.1351501143
 20
35.1696171278
 11
96.1351501143
 21
34.87122961
  0
LINE
  5
3EB
100
AcDbEntity
  8
0
100
AcDbLine
 62
7
  6
CONTINUOUS
 10
97.4893170989
 20
61.993946946
 11
97.426816622
 21
61.8024576071
  0
LINE
  5
3EC
100
AcDbEntity
  8
0
100
AcDbLine
 62
7
  6
CONTINUOUS
 10
97.6768170989
 20
61.6109682236
 11
97.801816622
 21
61.9301171664
  0
LINE
  5
3ED
100
AcDbEntity
  8
0
100
AcDbLine
 62
7
  6
CONTINUOUS
 10
92.3018168605
 20
61.4194788847
 11
91.3643168605
 21
64.1003299419
  0
LINE
  5
3EE
100
AcDbEntity
  8
0
100
AcDbLine
 62
7
  6
CONTINUOUS
 10
95.5518169797
 20
62.3769257132
 11
95.6143167413
 21
61.9301171664
  0
LINE
  5
3EF
100
AcDbEntity
  8
0
100
AcDbLine
 62
7
  6
CONTINUOUS
 10
97.4893170989
 20
62.1854362849
 11
97.4893170989
 21
61.993946946
  0
LINE
  5
3F0
100
AcDbEntity
  8
0
100
AcDbLine
 62
7
  6
CONTINUOUS
 10
97.801816622
 20
61.9301171664
 11
97.801816622
 21
62.2492661539
  0
LINE
  5
3F1
100
AcDbEntity
  8
0
100
AcDbLine
 62
7
  6
CONTINUOUS
 10
97.9684836066
 20
35.4311185581
 11
97.9684836066
 21
35.256585078
  0
LINE
  5
3F2
100
AcDbEntity
  8
0
100
AcDbLine
 62
7
  6
CONTINUOUS
 10
98.1938416642
 20
47.1003299419
 11
98.1938416642
 21
46.6003299419
  0
LINE
  5
3F3
100
AcDbEntity
  8
0
100
AcDbLine
 62
7
  6
CONTINUOUS
 10
98.6211002969
 20
47.1003299419
 11
98.6211002969
 21
46.6003299419
  0
LINE
  5
3F4
100
AcDbEntity
  8
0
100
AcDbLine
 62
7
  6
CONTINUOUS
 10
98.6442549219
 20
47.1003299419
 11
98.6442549219
 21
46.6003299419
  0
LINE
  5
3F5
100
AcDbEntity
  8
0
100
AcDbLine
 62
7
  6
CONTINUOUS
 10
98.7118201602
 20
47.1003299419
 11
98.7118201602
 21
46.6003299419
  0
LINE
  5
3F6
100
AcDbEntity
  8
0
100
AcDbLine
 62
7
  6
CONTINUOUS
 10
98.7758937119
 20
47.1003299419
 11
98.7758937119
 21
46.6003299419
  0
LINE
  5
3F7
100
AcDbEntity
  8
0
100
AcDbLine
 62
7
  6
CONTINUOUS
 10
98.9111769992
 20
47.1003299419
 11
98.9111769992
 21
46.6003299419
  0
LINE
  5
3F8
100
AcDbEntity
  8
0
100
AcDbLine
 62
7
  6
CONTINUOUS
 10
99.2600896029
 20
47.1003299419
 11
99.2600896029
 21
46.6003299419
  0
LINE
  5
3F9
100
AcDbEntity
  8
0
100
AcDbLine
 62
7
  6
CONTINUOUS
 10
99.5769654278
 20
47.1003299419
 11
99.5769654278
 21
46.6003299419
  0
LINE
  5
3FA
100
AcDbEntity
  8
0
100
AcDbLine
 62
7
  6
CONTINUOUS
 10
95.6143167413
 20
61.9301171664
 11
95.7393169797
 21
61.6109682236
  0
LINE
  5
3FB
100
AcDbEntity
  8
0
100
AcDbLine
 62
7
  6
CONTINUOUS
 10
95.9893167413
 20
61.8024576071
 11
95.9268169797
 21
61.993946946
  0
LINE
  5
3FC
100
AcDbEntity
  8
0
100
AcDbLine
 62
7
  6
CONTINUOUS
 10
99.8778229269
 20
47.1003299419
 11
99.8778229269
 21
46.6003299419
  0
LINE
  5
3FD
100
AcDbEntity
  8
0
100
AcDbLine
 62
7
  6
CONTINUOUS
 10
100.2338717535
 20
47.1003299419
 11
100.2338717535
 21
46.6003299419
  0
LINE
  5
3FE
100
AcDbEntity
  8
0
100
AcDbLine
 62
7
  6
CONTINUOUS
 10
100.5739023052
 20
47.1003299419
 11
100.5739023052
 21
46.6003299419
  0
LINE
  5
3FF
100
AcDbEntity
  8
0
100
AcDbLine
 62
7
  6
CONTINUOUS
 10
100.8106861957
 20
47.1003299419
 11
100.8106861957
 21
46.6003299419
  0
LINE
  5
400
100
AcDbEntity
  8
0
100
AcDbLine
 62
7
  6
CONTINUOUS
 10
100.9602420052
 20
47.1003299419
 11
100.9602420052
 21
46.6003299419
  0
LINE
  5
401
100
AcDbEntity
  8
0
100
AcDbLine
 62
7
  6
CONTINUOUS
 10
100.9833965793
 20
47.1003299419
 11
100.9833965793
 21
46.6003299419
  0
LINE
  5
402
100
AcDbEntity
  8
0
100
AcDbLine
 62
7
  6
CONTINUOUS
 10
96.864316622
 20
61.1003299419
 11
97.1768168605
 21
61.1641597271
  0
LINE
  5
403
100
AcDbEntity
  8
BEZUGSACHSEN
100
AcDbLine
 62
7
  6
CONTINUOUS
 10
64.4738281007
 20
61.1003299419
 11
124.1325064554
 21
61.1003299419
  0
LINE
  5
404
100
AcDbEntity
  8
0
100
AcDbLine
 62
7
  6
CONTINUOUS
 10
96.9268170989
 20
61.4194788847
 11
96.4893169797
 21
61.4194788847
  0
LINE
  5
405
100
AcDbEntity
  8
0
100
AcDbLine
 62
7
  6
CONTINUOUS
 10
96.2393168605
 20
61.1641597271
 11
96.5518167413
 21
61.1003299419
  0
LINE
  5
406
100
AcDbEntity
  8
0
100
AcDbLine
 62
7
  6
CONTINUOUS
 10
96.4893169797
 20
61.4194788847
 11
96.3018169797
 21
61.4833086643
  0
LINE
  5
407
100
AcDbEntity
  8
0
100
AcDbLine
 62
7
  6
CONTINUOUS
 10
95.9268169797
 20
61.3556490827
 11
96.2393168605
 21
61.1641597271
  0
LINE
  5
408
100
AcDbEntity
  8
0
100
AcDbLine
 62
7
  6
CONTINUOUS
 10
96.3018169797
 20
61.4833086643
 11
96.1143169797
 21
61.6109682236
  0
LINE
  5
409
100
AcDbEntity
  8
0
100
AcDbLine
 62
7
  6
CONTINUOUS
 10
95.7393169797
 20
61.6109682236
 11
95.9268169797
 21
61.3556490827
  0
LINE
  5
40A
100
AcDbEntity
  8
0
100
AcDbLine
 62
7
  6
CONTINUOUS
 10
96.1143169797
 20
61.6109682236
 11
95.9893167413
 21
61.8024576071
  0
LINE
  5
40B
100
AcDbEntity
  8
0
100
AcDbLine
 62
7
  6
CONTINUOUS
 10
97.239316622
 20
63.5896917049
 11
97.3643168605
 21
63.398202366
  0
LINE
  5
40C
100
AcDbEntity
  8
0
100
AcDbLine
 62
7
  6
CONTINUOUS
 10
97.801816622
 20
62.2492661539
 11
97.6768170989
 21
62.568415052
  0
LINE
  5
40D
100
AcDbEntity
  8
0
100
AcDbLine
 62
7
  6
CONTINUOUS
 10
97.426816622
 20
62.3769257132
 11
97.4893170989
 21
62.1854362849
  0
LINE
  5
40E
100
AcDbEntity
  8
0
100
AcDbLine
 62
7
  6
CONTINUOUS
 10
97.6768170989
 20
63.398202366
 11
97.614316622
 21
63.5896917049
  0
LINE
  5
40F
100
AcDbEntity
  8
0
100
AcDbLine
 62
7
  6
CONTINUOUS
 10
102.2764455888
 20
47.1003299419
 11
102.2764455888
 21
46.6003299419
  0
LINE
  5
410
100
AcDbEntity
  8
0
100
AcDbLine
 62
7
  6
CONTINUOUS
 10
102.2846752666
 20
47.1003299419
 11
102.2846752666
 21
46.6003299419
  0
LINE
  5
411
100
AcDbEntity
  8
0
100
AcDbLine
 62
7
  6
CONTINUOUS
 10
102.4156653305
 20
47.1003299419
 11
102.4156653305
 21
46.6003299419
  0
LINE
  5
412
100
AcDbEntity
  8
0
100
AcDbLine
 62
7
  6
CONTINUOUS
 10
96.5518167413
 20
63.0152235094
 11
96.2393168605
 21
62.9513937298
  0
LINE
  5
413
100
AcDbEntity
  8
0
100
AcDbLine
 62
7
  6
CONTINUOUS
 10
96.5518167413
 20
64.1003299419
 11
96.2393168605
 21
64.0365001622
  0
LINE
  5
414
100
AcDbEntity
  8
0
100
AcDbLine
 62
7
  6
CONTINUOUS
 10
96.4893169797
 20
62.6960746113
 11
96.9268170989
 21
62.6960746113
  0
LINE
  5
415
100
AcDbEntity
  8
0
100
AcDbLine
 62
7
  6
CONTINUOUS
 10
96.864316622
 20
63.0152235094
 11
96.5518167413
 21
63.0152235094
  0
LINE
  5
416
100
AcDbEntity
  8
0
100
AcDbLine
 62
7
  6
CONTINUOUS
 10
97.3643168605
 20
63.398202366
 11
97.6768170989
 21
63.398202366
  0
LINE
  5
417
100
AcDbEntity
  8
0
100
AcDbLine
 62
7
  6
CONTINUOUS
 10
96.4893169797
 20
63.7811810437
 11
96.864316622
 21
63.7811810437
  0
LINE
  5
418
100
AcDbEntity
  8
0
100
AcDbLine
 62
7
  6
CONTINUOUS
 10
96.8018168605
 20
64.1003299419
 11
96.5518167413
 21
64.1003299419
  0
LINE
  5
419
100
AcDbEntity
  8
0
100
AcDbLine
 62
7
  6
CONTINUOUS
 10
95.0518167413
 20
64.1003299419
 11
94.6768167413
 21
64.1003299419
  0
LINE
  5
41A
100
AcDbEntity
  8
0
100
AcDbLine
 62
7
  6
CONTINUOUS
 10
93.8018168605
 20
64.1003299419
 11
93.2393168605
 21
64.1003299419
  0
LINE
  5
41B
100
AcDbEntity
  8
0
100
AcDbLine
 62
7
  6
CONTINUOUS
 10
91.3643168605
 20
64.1003299419
 11
90.8018168605
 21
64.1003299419
  0
LINE
  5
41C
100
AcDbEntity
  8
0
100
AcDbLine
 62
7
  6
CONTINUOUS
 10
97.1768168605
 20
62.9513937298
 11
96.864316622
 21
63.0152235094
  0
LINE
  5
41D
100
AcDbEntity
  8
0
100
AcDbLine
 62
7
  6
CONTINUOUS
 10
97.1143170989
 20
64.0365001622
 11
96.8018168605
 21
64.1003299419
  0
LINE
  5
41E
100
AcDbEntity
  8
0
100
AcDbLine
 62
7
  6
CONTINUOUS
 10
96.9268170989
 20
62.6960746113
 11
97.1143170989
 21
62.6322448317
  0
LINE
  5
41F
100
AcDbEntity
  8
0
100
AcDbLine
 62
7
  6
CONTINUOUS
 10
96.864316622
 20
63.7811810437
 11
97.051816622
 21
63.7173512641
  0
LINE
  5
420
100
AcDbEntity
  8
0
100
AcDbLine
 62
7
  6
CONTINUOUS
 10
97.4893170989
 20
62.7599043909
 11
97.1768168605
 21
62.9513937298
  0
LINE
  5
421
100
AcDbEntity
  8
0
100
AcDbLine
 62
7
  6
CONTINUOUS
 10
97.426816622
 20
63.8450108234
 11
97.1143170989
 21
64.0365001622
  0
LINE
  5
422
100
AcDbEntity
  8
0
100
AcDbLine
 62
7
  6
CONTINUOUS
 10
97.1143170989
 20
62.6322448317
 11
97.3018170989
 21
62.5045852724
  0
LINE
  5
423
100
AcDbEntity
  8
0
100
AcDbLine
 62
7
  6
CONTINUOUS
 10
97.051816622
 20
63.7173512641
 11
97.239316622
 21
63.5896917049
  0
LINE
  5
424
100
AcDbEntity
  8
0
100
AcDbLine
 62
7
  6
CONTINUOUS
 10
97.3018170989
 20
62.5045852724
 11
97.426816622
 21
62.3769257132
  0
LINE
  5
425
100
AcDbEntity
  8
0
100
AcDbLine
 62
7
  6
CONTINUOUS
 10
97.6768170989
 20
62.568415052
 11
97.4893170989
 21
62.7599043909
  0
LINE
  5
426
100
AcDbEntity
  8
0
100
AcDbLine
 62
7
  6
CONTINUOUS
 10
97.614316622
 20
63.5896917049
 11
97.426816622
 21
63.8450108234
  0
LINE
  5
427
100
AcDbEntity
  8
0
100
AcDbLine
 62
7
  6
CONTINUOUS
 10
105.0093715297
 20
47.1003299419
 11
105.0093715297
 21
46.6003299419
  0
LINE
  5
428
100
AcDbEntity
  8
0
100
AcDbLine
 62
7
  6
CONTINUOUS
 10
107.0330582618
 20
47.1003299419
 11
107.0330582618
 21
46.6003299419
  0
LINE
  5
429
100
AcDbEntity
  8
0
100
AcDbLine
 62
7
  6
CONTINUOUS
 10
107.5430399732
 20
47.1003299419
 11
107.5430399732
 21
46.6003299419
  0
LINE
  5
42A
100
AcDbEntity
  8
0
100
AcDbLine
 62
7
  6
CONTINUOUS
 10
109.4826419211
 20
47.1003299419
 11
109.4826419211
 21
46.6003299419
  0
LINE
  5
42B
100
AcDbEntity
  8
RUNDUNGEN
100
AcDbLine
 62
7
  6
CONTINUOUS
 10
115.5000589307
 20
45.9418468007
 11
115.5049453649
 21
45.943780191
  0
LINE
  5
42C
100
AcDbEntity
  8
0
100
AcDbLine
 62
7
  6
CONTINUOUS
 10
110.8712235318
 20
47.1003299419
 11
110.8712235318
 21
46.6003299419
  0
LINE
  5
42D
100
AcDbEntity
  8
0
100
AcDbLine
 62
7
  6
CONTINUOUS
 10
111.115190125
 20
47.1003299419
 11
111.115190125
 21
46.6003299419
  0
LINE
  5
42E
100
AcDbEntity
  8
0
100
AcDbLine
 62
7
  6
CONTINUOUS
 10
111.2106557833
 20
47.1003299419
 11
111.2106557833
 21
46.6003299419
  0
LWPOLYLINE
  5
42F
100
AcDbEntity
  8
BEZUGSACHSEN
100
AcDbPolyline
 62
7
  6
CONTINUOUS
 90
7
 70
0
 10
115.5050877189
 20
62.2568521078
 10
114.4906396034
 20
62.6903635442
 10
113.4288102504
 20
63.2183192826
 10
112.4344658882
 20
63.791706631
 10
111.5221912494
 20
64.3953973145
 10
110.704596366
 20
65.0101803873
 10
110.0877869457
 20
65.5279993655
  0
LINE
  5
430
100
AcDbEntity
  8
0
100
AcDbLine
 62
7
  6
CONTINUOUS
 10
113.7918168605
 20
47.1003299419
 11
113.7918168605
 21
46.6003299419
  0
LWPOLYLINE
  5
431
100
AcDbEntity
  8
RUNDUNGEN
100
AcDbPolyline
 62
7
  6
CONTINUOUS
 90
7
 70
0
 10
108.8489704676
 20
41.4568627153
 10
108.9223548892
 20
41.5360842995
 10
109.0936229605
 20
41.7171918318
 10
109.2670238588
 20
41.8953527632
 10
109.4425020807
 20
42.0705499019
 10
109.6200023912
 20
42.2427672751
 10
109.7035228591
 20
42.3221214042
  0
LWPOLYLINE
  5
432
100
AcDbEntity
  8
RUNDUNGEN
100
AcDbPolyline
 62
7
  6
CONTINUOUS
 90
5
 70
0
 10
109.703522509
 20
42.3221210796
 10
109.7858630246
 20
42.399263322
 10
109.8849868179
 20
42.4906375621
 10
109.9857675889
 20
42.5819084098
 10
110.0878418839
 20
42.6727162629
  0
LINE
  5
433
100
AcDbEntity
  8
RUNDUNGEN
100
AcDbLine
 62
7
  6
CONTINUOUS
 10
110.0877868207
 20
42.6726604081
 11
110.0878455131
 21
42.6727121425
  0
LWPOLYLINE
  5
434
100
AcDbEntity
  8
RUNDUNGEN
100
AcDbPolyline
 62
7
  6
CONTINUOUS
 90
7
 70
0
 10
110.0877868207
 20
42.6726604081
 10
110.7060854523
 20
43.1916699424
 10
111.523953201
 20
43.8065079069
 10
112.4345126886
 20
44.4089822183
 10
113.4270593021
 20
44.981401431
 10
114.4890776103
 20
45.5095776941
 10
115.500093948
 20
45.9418308887
  0
LINE
  5
435
100
AcDbEntity
  8
BEZUGSACHSEN
100
AcDbLine
 62
7
  6
CONTINUOUS
 10
110.0877869457
 20
65.5279993655
 11
110.0878455131
 21
65.5279477412
  0
LWPOLYLINE
  5
436
100
AcDbEntity
  8
BEZUGSACHSEN
100
AcDbPolyline
 62
7
  6
CONTINUOUS
 90
5
 70
0
 10
110.0878418839
 20
65.5279436208
 10
109.9857675889
 20
65.6187514739
 10
109.8849868179
 20
65.7100223216
 10
109.7858630246
 20
65.8013965617
 10
109.703522509
 20
65.8785388041
  0
LWPOLYLINE
  5
437
100
AcDbEntity
  8
BEZUGSACHSEN
100
AcDbPolyline
 62
7
  6
CONTINUOUS
 90
7
 70
0
 10
109.7035228591
 20
65.8785384796
 10
109.6200023912
 20
65.9578926086
 10
109.4425020807
 20
66.1301099818
 10
109.2670238588
 20
66.3053071205
 10
109.0936229605
 20
66.483468052
 10
108.9223548892
 20
66.6645755842
 10
108.8489704676
 20
66.7437971684
  0
LWPOLYLINE
  5
438
100
AcDbEntity
  8
BEZUGSACHSEN
100
AcDbPolyline
 62
7
  6
CONTINUOUS
 90
23
 70
0
 10
108.8489582735
 20
66.7438084365
 10
107.8601906757
 20
67.7441238459
 10
106.7011620257
 20
68.7541217272
 10
105.4800568229
 20
69.6622670843
 10
104.2031844474
 20
70.4678099214
 10
102.877699722
 20
71.1692092674
 10
101.5106396194
 20
71.7650933652
 10
100.109032832
 20
72.2542445068
 10
98.6797313982
 20
72.63568243
 10
97.2296592406
 20
72.9085902124
 10
95.7657562676
 20
73.0723701556
 10
94.2950253168
 20
73.1266624609
 10
92.8243355747
 20
73.0713590488
 10
91.3605541929
 20
72.9065743948
 10
89.9106864826
 20
72.6326750175
 10
88.4816718773
 20
72.2502650967
 10
87.0804349487
 20
71.7601687243
 10
85.7138279273
 20
71.1633743016
 10
84.3888764451
 20
70.4611069812
 10
83.1126175534
 20
69.6547478056
 10
81.8921916955
 20
68.745838231
 10
80.7338896591
 20
67.7351158591
 10
79.7546755117
 20
66.7438091835
  0
LINE
  5
439
100
AcDbEntity
  8
0
100
AcDbLine
 62
7
  6
CONTINUOUS
 10
117.1580292466
 20
47.1003299419
 11
117.1580292466
 21
46.6003299419
  0
LINE
  5
43A
100
AcDbEntity
  8
0
100
AcDbLine
 62
7
  6
CONTINUOUS
 10
118.6480292466
 20
47.1003299419
 11
118.6480292466
 21
46.6003299419
  0
LINE
  5
43B
100
AcDbEntity
  8
RUNDUNGEN
100
AcDbLine
 62
7
  6
CONTINUOUS
 10
126.6327677743
 20
49.6003299419
 11
126.6327677743
 21
58.6003299419
  0
ARC
  5
43C
100
AcDbEntity
  8
BEZUGSACHSEN
100
AcDbCircle
 62
7
  6
CONTINUOUS
 10
82.8160236995
 20
147.1711339304
 40
45.0
100
AcDbArc
 50
70.3643536685
 51
73.9327101043
  0
ARC
  5
43D
100
AcDbEntity
  8
BEZUGSACHSEN
100
AcDbCircle
 62
7
  6
CONTINUOUS
 10
105.7876100214
 20
147.1711339304
 40
45.0
100
AcDbArc
 50
106.0672898957
 51
109.6356463321
  0
ARC
  5
43E
100
AcDbEntity
  8
RUNDUNGEN
100
AcDbCircle
 62
7
  6
CONTINUOUS
 10
105.7876100214
 20
147.1711339304
 40
45.0
100
AcDbArc
 50
106.0672898957
 51
166.285175545
  0
ARC
  5
43F
100
AcDbEntity
  8
RUNDUNGEN
100
AcDbCircle
 62
7
  6
CONTINUOUS
 10
82.8160236995
 20
147.1711339304
 40
45.0
100
AcDbArc
 50
13.714824455
 51
73.9327101043
  0
ARC
  5
440
100
AcDbEntity
  8
0
100
AcDbCircle
 62
7
  6
CONTINUOUS
 10
125.8961238495
 20
130.7682879378
 40
23.200116878
100
AcDbArc
 50
144.8963062328
 51
146.1542221902
  0
ARC
  5
441
100
AcDbEntity
  8
0
100
AcDbCircle
 62
7
  6
CONTINUOUS
 10
63.0483803523
 20
131.0022843491
 40
22.7866843303
100
AcDbArc
 50
33.8344849335
 51
35.1152224203
  0
ARC
  5
442
100
AcDbEntity
  8
RUNDUNGEN
100
AcDbCircle
 62
7
  6
CONTINUOUS
 10
94.3018168605
 20
156.6711339304
 40
17.5
100
AcDbArc
 50
333.1817827563
 51
206.8182189759
  0
ARC
  5
443
100
AcDbEntity
  8
BEZUGSACHSEN
100
AcDbCircle
 62
7
  6
CONTINUOUS
 10
120.3018168605
 20
124.6711339304
 40
8.0
100
AcDbArc
 50
128.8287347599
 51
180.0
  0
ARC
  5
444
100
AcDbEntity
  8
0
100
AcDbCircle
 62
7
  6
CONTINUOUS
 10
120.3018168605
 20
124.6711339304
 40
8.0
100
AcDbArc
 50
128.8287347599
 51
180.0
  0
ARC
  5
445
100
AcDbEntity
  8
BEZUGSACHSEN
100
AcDbCircle
 62
7
  6
CONTINUOUS
 10
68.3018168605
 20
124.6711339304
 40
8.0
100
AcDbArc
 50
0.0
 51
51.1712652401
  0
ARC
  5
446
100
AcDbEntity
  8
0
100
AcDbCircle
 62
7
  6
CONTINUOUS
 10
103.2262335713
 20
152.1595060235
 40
7.5
100
AcDbArc
 50
323.1750851649
 51
333.1819089629
  0
ARC
  5
447
100
AcDbEntity
  8
0
100
AcDbCircle
 62
7
  6
CONTINUOUS
 10
85.3774001496
 20
152.1595060235
 40
7.5
100
AcDbArc
 50
206.8180950789
 51
216.8249621962
  0
ARC
  5
448
100
AcDbEntity
  8
RUNDUNGEN
100
AcDbCircle
 62
7
  6
CONTINUOUS
 10
123.1327677743
 20
157.0103486964
 40
3.5
100
AcDbArc
 50
336.5
 51
13.7148244551
  0
ARC
  5
449
100
AcDbEntity
  8
RUNDUNGEN
100
AcDbCircle
 62
7
  6
CONTINUOUS
 10
94.3018168605
 20
187.0500325544
 40
3.5
100
AcDbArc
 50
73.9327101043
 51
106.0672898957
  0
ARC
  5
44A
100
AcDbEntity
  8
RUNDUNGEN
100
AcDbCircle
 62
7
  6
CONTINUOUS
 10
65.4708659467
 20
157.0103486964
 40
3.5
100
AcDbArc
 50
166.2851755449
 51
203.5
  0
ARC
  5
44B
100
AcDbEntity
  8
BEZUGSACHSEN
100
AcDbCircle
 62
7
  6
CONTINUOUS
 10
113.7183780024
 20
132.8508916963
 40
2.5
100
AcDbArc
 50
308.8285176717
 51
336.4997548753
  0
ARC
  5
44C
100
AcDbEntity
  8
BEZUGSACHSEN
100
AcDbCircle
 62
7
  6
CONTINUOUS
 10
74.8852578057
 20
132.8508868963
 40
2.5
100
AcDbArc
 50
203.5001251657
 51
231.17137609
  0
ARC
  5
44D
100
AcDbEntity
  8
0
100
AcDbCircle
 62
7
  6
CONTINUOUS
 10
117.0418168605
 20
167.0865327866
 40
1.76
100
AcDbArc
 50
24.1299406899
 51
207.0549089536
  0
ARC
  5
44E
100
AcDbEntity
  8
0
100
AcDbCircle
 62
7
  6
CONTINUOUS
 10
115.5518168605
 20
169.6672884899
 40
1.76
100
AcDbArc
 50
24.1299406899
 51
207.0549089536
  0
ARC
  5
44F
100
AcDbEntity
  8
0
100
AcDbCircle
 62
7
  6
CONTINUOUS
 10
117.0418168605
 20
167.0865327866
 40
1.23
100
AcDbArc
 50
132.5375008066
 51
218.4149680847
  0
ARC
  5
450
100
AcDbEntity
  8
0
100
AcDbCircle
 62
7
  6
CONTINUOUS
 10
117.0418168605
 20
167.0865327866
 40
1.23
100
AcDbArc
 50
21.5850319153
 51
107.4624991934
  0
ARC
  5
451
100
AcDbEntity
  8
0
100
AcDbCircle
 62
7
  6
CONTINUOUS
 10
115.5518168605
 20
169.6672884899
 40
1.23
100
AcDbArc
 50
31.5696271103
 51
218.4149680847
  0
ARC
  5
452
100
AcDbEntity
  8
BEZUGSACHSEN
100
AcDbCircle
 62
7
  6
CONTINUOUS
 10
167.3737645349
 20
124.6711339304
 40
8.0
100
AcDbArc
 50
0.0
 51
9.3640278938
  0
ARC
  5
453
100
AcDbEntity
  8
BEZUGSACHSEN
100
AcDbCircle
 62
7
  6
CONTINUOUS
 10
176.8474293179
 20
136.5114081029
 40
2.5
100
AcDbArc
 50
117.0
 51
184.9999691245
  0
ARC
  5
454
100
AcDbEntity
  8
0
100
AcDbCircle
 62
7
  6
CONTINUOUS
 10
178.8737645349
 20
148.7671398415
 40
7.5
100
AcDbArc
 50
317.392356207
 51
318.4571339588
  0
ARC
  5
455
100
AcDbEntity
  8
BEZUGSACHSEN
100
AcDbCircle
 62
7
  6
CONTINUOUS
 10
178.8737645349
 20
148.7671398415
 40
7.5
100
AcDbArc
 50
296.9999939841
 51
0.0020152811
  0
ARC
  5
456
100
AcDbEntity
  8
BEZUGSACHSEN
100
AcDbCircle
 62
7
  6
CONTINUOUS
 10
188.8737645349
 20
188.0500325544
 40
2.5
100
AcDbArc
 50
90.0
 51
180.0
  0
ARC
  5
457
100
AcDbEntity
  8
RUNDUNGEN
100
AcDbCircle
 62
7
  6
CONTINUOUS
 10
209.9000997519
 20
136.5114081029
 40
2.5
100
AcDbArc
 50
355.0000308755
 51
63.0
  0
ARC
  5
458
100
AcDbEntity
  8
0
100
AcDbCircle
 62
7
  6
CONTINUOUS
 10
207.8737645349
 20
148.7671398415
 40
7.5
100
AcDbArc
 50
221.5428660412
 51
222.607643793
  0
ARC
  5
459
100
AcDbEntity
  8
RUNDUNGEN
100
AcDbCircle
 62
7
  6
CONTINUOUS
 10
207.8737645349
 20
148.7671398415
 40
7.5
100
AcDbArc
 50
179.9979847189
 51
243.0000060159
  0
ARC
  5
45A
100
AcDbEntity
  8
0
100
AcDbCircle
 62
7
  6
CONTINUOUS
 10
219.3737645349
 20
124.6711339304
 40
8.0
100
AcDbArc
 50
170.6359721062
 51
180.0
  0
ARC
  5
45B
100
AcDbEntity
  8
RUNDUNGEN
100
AcDbCircle
 62
7
  6
CONTINUOUS
 10
197.8737645349
 20
188.0500325544
 40
2.5
100
AcDbArc
 50
0.0
 51
90.0
  0
ARC
  5
45C
100
AcDbEntity
  8
RUNDUNGEN
100
AcDbCircle
 62
7
  6
CONTINUOUS
 10
67.0300365739
 20
30.6003299419
 40
16.5
100
AcDbArc
 50
83.3487641997
 51
85.8803201666
  0
ARC
  5
45D
100
AcDbEntity
  8
RUNDUNGEN
100
AcDbCircle
 62
7
  6
CONTINUOUS
 10
67.0300365739
 20
30.6003299419
 40
16.5
100
AcDbArc
 50
68.4224308854
 51
75.9391241913
  0
ARC
  5
45E
100
AcDbEntity
  8
RUNDUNGEN
100
AcDbCircle
 62
7
  6
CONTINUOUS
 10
68.3974800411
 20
49.5632612284
 40
2.5121873646
100
AcDbArc
 50
258.6436576702
 51
260.0389917067
  0
ARC
  5
45F
100
AcDbEntity
  8
RUNDUNGEN
100
AcDbCircle
 62
7
  6
CONTINUOUS
 10
64.4708659467
 20
49.6003299419
 40
2.5
100
AcDbArc
 50
180.0
 51
270.0
  0
ARC
  5
460
100
AcDbEntity
  8
RUNDUNGEN
100
AcDbCircle
 62
7
  6
CONTINUOUS
 10
68.3952571833
 20
49.5493270294
 40
2.4980787183
100
AcDbArc
 50
260.0339237962
 51
265.8715397322
  0
ARC
  5
461
100
AcDbEntity
  8
BEZUGSACHSEN
100
AcDbCircle
 62
7
  6
CONTINUOUS
 10
67.0300365739
 20
77.6003299419
 40
16.5
100
AcDbArc
 50
274.1196798334
 51
291.5775691146
  0
ARC
  5
462
100
AcDbEntity
  8
BEZUGSACHSEN
100
AcDbCircle
 62
7
  6
CONTINUOUS
 10
68.397479682
 20
58.6374005115
 40
2.512185474
100
AcDbArc
 50
99.9584103931
 51
101.356342638
  0
ARC
  5
463
100
AcDbEntity
  8
BEZUGSACHSEN
100
AcDbCircle
 62
7
  6
CONTINUOUS
 10
64.4708659467
 20
58.6003299419
 40
2.5
100
AcDbArc
 50
90.0
 51
180.0
  0
ARC
  5
464
100
AcDbEntity
  8
BEZUGSACHSEN
100
AcDbCircle
 62
7
  6
CONTINUOUS
 10
68.3952563178
 20
58.6513406809
 40
2.4980708498
100
AcDbArc
 50
94.1284533918
 51
99.9634758865
  0
ARC
  5
465
100
AcDbEntity
  8
RUNDUNGEN
100
AcDbCircle
 62
7
  6
CONTINUOUS
 10
121.573597147
 20
30.6003299419
 40
16.5
100
AcDbArc
 50
104.0608394964
 51
111.5798213583
  0
ARC
  5
466
100
AcDbEntity
  8
RUNDUNGEN
100
AcDbCircle
 62
7
  6
CONTINUOUS
 10
121.573597147
 20
30.6003299419
 40
16.5
100
AcDbArc
 50
94.1196576122
 51
100.2139432961
  0
ARC
  5
467
100
AcDbEntity
  8
RUNDUNGEN
100
AcDbCircle
 62
7
  6
CONTINUOUS
 10
120.206166919
 20
49.563265892
 40
2.5121875663
100
AcDbArc
 50
279.9606884091
 51
281.3558384948
  0
ARC
  5
468
100
AcDbEntity
  8
RUNDUNGEN
100
AcDbCircle
 62
7
  6
CONTINUOUS
 10
124.1327677743
 20
49.6003299419
 40
2.5
100
AcDbArc
 50
270.0
 51
360.0
  0
ARC
  5
469
100
AcDbEntity
  8
RUNDUNGEN
100
AcDbCircle
 62
7
  6
CONTINUOUS
 10
120.2083895732
 20
49.5493323976
 40
2.498079648
100
AcDbArc
 50
274.1280264501
 51
279.9657563144
  0
ARC
  5
46A
100
AcDbEntity
  8
0
100
AcDbCircle
 62
7
  6
CONTINUOUS
 10
94.3018168605
 20
54.1003299419
 40
19.4205408858
100
AcDbArc
 50
262.1076865728
 51
265.0768323408
  0
ARC
  5
46B
100
AcDbEntity
  8
0
100
AcDbCircle
 62
7
  6
CONTINUOUS
 10
94.3018168605
 20
54.1003299419
 40
19.3162990864
100
AcDbArc
 50
272.9675140995
 51
275.4462092348
  0
ARC
  5
46C
100
AcDbEntity
  8
0
100
AcDbCircle
 62
7
  6
CONTINUOUS
 10
94.3018168605
 20
54.1003299419
 40
19.1971655596
100
AcDbArc
 50
275.4801103704
 51
281.0111735031
  0
ARC
  5
46D
100
AcDbEntity
  8
0
100
AcDbCircle
 62
7
  6
CONTINUOUS
 10
94.3018168605
 20
54.1003299419
 40
19.1971655596
100
AcDbArc
 50
269.0050842638
 51
272.9859464994
  0
ARC
  5
46E
100
AcDbEntity
  8
0
100
AcDbCircle
 62
7
  6
CONTINUOUS
 10
94.3018168605
 20
54.1003299419
 40
15.25
100
AcDbArc
 50
209.4552344289
 51
330.4775458556
  0
ARC
  5
46F
100
AcDbEntity
  8
0
100
AcDbCircle
 62
7
  6
CONTINUOUS
 10
94.3018168605
 20
54.1003299419
 40
15.25
100
AcDbArc
 50
27.3216534118
 51
152.6800473212
  0
ARC
  5
470
100
AcDbEntity
  8
RUNDUNGEN
100
AcDbCircle
 62
7
  6
CONTINUOUS
 10
94.3018168605
 20
54.1003299419
 40
15.0
100
AcDbArc
 50
210.0364492839
 51
329.9635507153
  0
ARC
  5
471
100
AcDbEntity
  8
RUNDUNGEN
100
AcDbCircle
 62
7
  6
CONTINUOUS
 10
94.3018168605
 20
54.1003299419
 40
15.0
100
AcDbArc
 50
27.8250827641
 51
152.1749172374
  0
ARC
  5
472
100
AcDbEntity
  8
BEZUGSACHSEN
100
AcDbCircle
 62
7
  6
CONTINUOUS
 10
120.2061668
 20
58.6373933766
 40
2.5121881928
100
AcDbArc
 50
78.6441616072
 51
80.0384496714
  0
ARC
  5
473
100
AcDbEntity
  8
BEZUGSACHSEN
100
AcDbCircle
 62
7
  6
CONTINUOUS
 10
124.1327677743
 20
58.6003299419
 40
2.5
100
AcDbArc
 50
0.0
 51
90.0
  0
ARC
  5
474
100
AcDbEntity
  8
BEZUGSACHSEN
100
AcDbCircle
 62
7
  6
CONTINUOUS
 10
120.2083892861
 20
58.65132489
 40
2.498082258
100
AcDbArc
 50
80.0333809654
 51
85.8719712682
  0
ARC
  5
475
100
AcDbEntity
  8
BEZUGSACHSEN
100
AcDbCircle
 62
7
  6
CONTINUOUS
 10
121.573597147
 20
77.6003299419
 40
16.5
100
AcDbArc
 50
248.4201786417
 51
265.8803423878
  0
SPLINE
  5
476
100
AcDbEntity
  8
0
100
AcDbSpline
 62
7
  6
CONTINUOUS
 70
0
 71
3
 72
11
 73
7
 74
0
 42
0.0000001
 43
0.0000001
 44
0.0000000001
 40
0.0
 40
0.0
 40
0.0
 40
0.0
 40
0.2560265604
 40
0.5052553303
 40
0.7519010084
 40
1.0
 40
1.0
 40
1.0
 40
1.0
 10
106.6275213605
 20
143.6898329633
 30
0.0
 10
106.5093150092
 20
143.5134378429
 30
0.0
 10
106.2533607093
 20
143.1797574728
 30
0.0
 10
105.8072646031
 20
142.7411483986
 30
0.0
 10
105.3097480702
 20
142.3730180522
 30
0.0
 10
104.9496879979
 20
142.1737025898
 30
0.0
 10
104.764220691
 20
142.0845909101
 30
0.0
  0
SPLINE
  5
477
100
AcDbEntity
  8
0
100
AcDbSpline
 62
7
  6
CONTINUOUS
 70
0
 71
3
 72
11
 73
7
 74
0
 42
0.0000001
 43
0.0000001
 44
0.0000000001
 40
0.0
 40
0.0
 40
0.0
 40
0.0
 40
0.2480984445
 40
0.4947439923
 40
0.743973109
 40
1.0
 40
1.0
 40
1.0
 40
1.0
 10
83.8394130299
 20
142.0845909101
 30
0.0
 10
83.6539460753
 20
142.1737024205
 30
0.0
 10
83.2938863845
 20
142.3730176543
 30
0.0
 10
82.7963697978
 20
142.7411477812
 30
0.0
 10
82.3502731687
 20
143.1797572557
 30
0.0
 10
82.0943184404
 20
143.5134381746
 30
0.0
 10
81.9761119311
 20
143.6898335973
 30
0.0
  0
SPLINE
  5
478
100
AcDbEntity
  8
0
100
AcDbSpline
 62
7
  6
CONTINUOUS
 70
0
 71
3
 72
16
 73
12
 74
0
 42
0.0000001
 43
0.0000001
 44
0.0000000001
 40
0.0
 40
0.0
 40
0.0
 40
0.0
 40
0.2976601718
 40
0.4359392373
 40
0.5678013959
 40
0.6930595573
 40
0.810381096
 40
0.8650293009
 40
0.9159142258
 40
0.9616607635
 40
1.0
 40
1.0
 40
1.0
 40
1.0
 10
81.68781796
 20
144.1097001292
 30
0.0
 10
81.4456628591
 20
144.4543263497
 30
0.0
 10
81.0803871598
 20
144.951491387
 30
0.0
 10
80.6197885655
 20
145.6098758524
 30
0.0
 10
80.3110117564
 20
146.0765556995
 30
0.0
 10
80.0328800977
 20
146.5276441366
 30
0.0
 10
79.8234258169
 20
146.8924228589
 30
0.0
 10
79.6701028439
 20
147.1679742587
 30
0.0
 10
79.5659802944
 20
147.3550327054
 30
0.0
 10
79.4705520495
 20
147.5204170991
 30
0.0
 10
79.4063327178
 20
147.6208410659
 30
0.0
 10
79.3738162006
 20
147.6642673344
 30
0.0
  0
SPLINE
  5
479
100
AcDbEntity
  8
0
100
AcDbSpline
 62
7
  6
CONTINUOUS
 70
0
 71
3
 72
15
 73
11
 74
0
 42
0.0000001
 43
0.0000001
 44
0.0000000001
 40
0.0
 40
0.0
 40
0.0
 40
0.0
 40
0.0383497605
 40
0.0840651761
 40
0.1896054694
 40
0.3069258277
 40
0.4321845389
 40
0.5640509569
 40
0.7023351604
 40
1.0
 40
1.0
 40
1.0
 40
1.0
 10
109.2298246018
 20
147.664276779
 30
0.0
 10
109.1972991157
 20
147.6208384576
 30
0.0
 10
109.1331329057
 20
147.5204147833
 30
0.0
 10
108.9990629343
 20
147.2880851669
 30
0.0
 10
108.8163099985
 20
146.9548027828
 30
0.0
 10
108.5707344487
 20
146.5277373532
 30
0.0
 10
108.2926638774
 20
146.076599872
 30
0.0
 10
107.9838635778
 20
145.6099174385
 30
0.0
 10
107.5232738478
 20
144.9515001829
 30
0.0
 10
107.1579735022
 20
144.454333693
 30
0.0
 10
106.9158148416
 20
144.1097006486
 30
0.0
  0
LINE
  5
47A
100
AcDbEntity
  8
0
100
AcDbLine
 62
7
  6
CONTINUOUS
 10
212.6641613911
 20
133.9796447108
 11
212.6480372801
 21
133.7955931329
  0
LINE
  5
47B
100
AcDbEntity
  8
0
100
AcDbLine
 62
7
  6
CONTINUOUS
 10
212.6480372801
 20
133.7955931329
 11
212.5448669027
 21
132.6179422686
  0
LINE
  5
47C
100
AcDbEntity
  8
0
100
AcDbLine
 62
7
  6
CONTINUOUS
 10
212.0200582315
 20
127.1711339304
 11
212.6022077887
 21
133.7995836716
  0
LINE
  5
47D
100
AcDbEntity
  8
0
100
AcDbLine
 62
7
  6
CONTINUOUS
 10
212.6022077887
 20
133.7995836716
 11
212.7226567578
 21
135.1711339304
  0
LINE
  5
47E
100
AcDbEntity
  8
0
100
AcDbLine
 62
7
  6
CONTINUOUS
 10
212.338863147
 20
133.9796447108
 11
212.2175093987
 21
132.6179422686
  0
LINE
  5
47F
100
AcDbEntity
  8
0
100
AcDbLine
 62
7
  6
CONTINUOUS
 10
212.4900721311
 20
133.8094319651
 11
211.9034956481
 21
127.1711339304
  0
LINE
  5
480
100
AcDbEntity
  8
0
100
AcDbLine
 62
7
  6
CONTINUOUS
 10
211.8274035994
 20
133.9796447108
 11
211.705925849
 21
132.6179422686
  0
LINE
  5
481
100
AcDbEntity
  8
0
100
AcDbLine
 62
7
  6
CONTINUOUS
 10
211.8765249245
 20
132.6028618827
 11
211.3962701139
 21
127.1711339304
  0
ELLIPSE
  5
482
100
AcDbEntity
  8
0
100
AcDbEllipse
 62
7
  6
CONTINUOUS
 10
94.3018168605
 20
147.7378120769
 30
0.0
 11
15.25
 21
-0.0
 31
0.0
 40
0.5095254495
 41
-2.3268549746
 42
-0.814737679
  0
ELLIPSE
  5
483
100
AcDbEntity
  8
0
100
AcDbEllipse
 62
7
  6
CONTINUOUS
 10
193.3737645349
 20
137.7462019793
 30
0.0
 11
-0.0
 21
40.127632663
 31
0.0
 40
0.481703039
 41
-1.8199343318
 42
-1.8024645852
  0
ELLIPSE
  5
484
100
AcDbEntity
  8
0
100
AcDbEllipse
 62
7
  6
CONTINUOUS
 10
193.3737645349
 20
129.5273822172
 30
0.0
 11
18.8931687828
 21
0.0
 31
0.0
 40
0.6820621632
 41
-0.1481698528
 42
-0.1303827718
  0
ELLIPSE
  5
485
100
AcDbEntity
  8
0
100
AcDbEllipse
 62
7
  6
CONTINUOUS
 10
193.3737645349
 20
139.4452732468
 30
0.0
 11
-0.0
 21
23.5849185176
 31
0.0
 40
0.8347130334
 41
-1.8644784761
 42
-1.8120905345
  0
ELLIPSE
  5
486
100
AcDbEntity
  8
0
100
AcDbEllipse
 62
7
  6
CONTINUOUS
 10
193.3737645349
 20
140.821931224
 30
0.0
 11
0.0
 21
23.7284143836
 31
0.0
 40
0.8347133711
 41
-1.8633082484
 42
-1.8112515211
  0
ELLIPSE
  5
487
100
AcDbEntity
  8
0
100
AcDbEllipse
 62
7
  6
CONTINUOUS
 10
193.3737645349
 20
140.7589076802
 30
0.0
 11
-0.0
 21
23.1238244385
 31
0.0
 40
0.8347133711
 41
-1.8683395002
 42
-1.8148578261
  0
ELLIPSE
  5
488
100
AcDbEntity
  8
0
100
AcDbEllipse
 62
7
  6
CONTINUOUS
 10
96.3777841225
 20
54.1003299419
 30
0.0
 11
19.9149215889
 21
0.0
 31
0.0
 40
0.9945519832
 41
-1.8633082484
 42
-1.8112515211
  0
ENDSEC
  0
SECTION
  2
OBJECTS
  0
DICTIONARY
  5
C
100
AcDbDictionary
280
0
281
1
  3
ACAD_GROUP
350
D
  3
ACAD_MLINESTYLE
350
17
  3
ACAD_LAYOUT
350
1A
  3
ACAD_PLOTSETTINGS
350
19
  3
ACAD_PLOTSTYLENAME
350
E
  0
DICTIONARY
  5
D
102
{ACAD_REACTORS
330
C
102
}
100
AcDbDictionary
280
0
281
1
  0
ACDBDICTIONARYWDFLT
  5
E
102
{ACAD_REACTORS
330
C
102
}
100
AcDbDictionary
281
1
  3
Normal
350
F
100
AcDbDictionaryWithDefault
340
F
  0
DICTIONARY
  5
17
102
{ACAD_REACTORS
330
C
102
}
100
AcDbDictionary
280
0
281
1
  3
Standard
350
18
  0
DICTIONARY
  5
19
102
{ACAD_REACTORS
330
C
102
}
100
AcDbDictionary
281
1
  0
DICTIONARY
  5
1A
102
{ACAD_REACTORS
330
C
102
}
100
AcDbDictionary
281
1
  3
Model
350
489
  3
Layout1
350
48A
  0
ACDBPLACEHOLDER
  5
F
102
{ACAD_REACTORS
330
E
102
}
  0
MLINESTYLE
  5
18
102
{ACAD_REACTORS
330
17
102
}
100
AcDbMlineStyle
  2
STANDARD
 70
0
  3

 62
256
 51
90.0
 52
90.0
 71
2
 49
0.5
 62
256
  6
BYLAYER
 49
-0.5
 62
256
  6
BYLAYER
  0
LAYOUT
  5
489
102
{ACAD_REACTORS
330
1A
102
}
100
AcDbPlotSettings
  1

  2
none_device
  4
ISO_A4_(297.00_x_210.00_MM)
  6

 40
0.0
 41
0.0
 42
0.0
 43
0.0
 44
297.0
 45
210.0
 46
0.0
 47
0.0
 48
0.0
 49
0.0
140
0.0
141
0.0
142
1.0
143
1.0
 70
1024
 72
1
 73
0
 74
0
  7

 75
0
147
1.0
148
0.0
149
0.0
100
AcDbLayout
  1
Model
 70
0
 71
0
 10
0.0
 20
0.0
 11
297.0
 21
210.0
 12
0.0
 22
0.0
 32
0.0
 14
0.0
 24
0.0
 34
0.0
 15
0.0
 25
0.0
 35
0.0
146
0.0
 13
0.0
 23
0.0
 33
0.0
 16
1.0
 26
0.0
 36
0.0
 17
0.0
 27
1.0
 37
0.0
 76
0
330
208
345
0
346
0
  0
LAYOUT
  5
48A
102
{ACAD_REACTORS
330
1A
102
}
100
AcDbPlotSettings
  1

  2
none_device
  4
ISO_A4_(297.00_x_210.00_MM)
  6

 40
0.0
 41
0.0
 42
0.0
 43
0.0
 44
297.0
 45
210.0
 46
0.0
 47
0.0
 48
0.0
 49
0.0
140
0.0
141
0.0
142
1.0
143
1.0
 70
0
 72
1
 73
0
 74
0
  7

 75
0
147
1.0
148
0.0
149
0.0
100
AcDbLayout
  1
Layout1
 70
0
 71
1
 10
0.0
 20
0.0
 11
297.0
 21
210.0
 12
0.0
 22
0.0
 32
0.0
 14
0.0
 24
0.0
 34
0.0
 15
0.0
 25
0.0
 35
0.0
146
0.0
 13
0.0
 23
0.0
 33
0.0
 16
1.0
 26
0.0
 36
0.0
 17
0.0
 27
1.0
 37
0.0
 76
0
330
209
345
0
346
0
  0
ENDSEC
  0
EOF
