999
DXF file: INOX-STAR_0_5t_M12_7993835_M31024-P-10.dxf
999
Pro/ENGINEER 2011490 by Parametric Technology Corporation
  0
SECTION
  2
HEADER
  9
$ACADVER
  1
AC1015
  9
$DWGCODEPAGE
  3
ANSI_1252
  9
$EXTMAX
 10
297.0
 20
210.0
 30
0.0
  9
$EXTMIN
 10
0.0
 20
0.0
 30
0.0
  9
$LIMMIN
 10
0.0
 20
0.0
  9
$LIMMAX
 10
297.0
 20
210.0
  9
$VIEWCTR
 10
148.5
 20
105.0
  9
$VIEWSIZE
 40
210.0
  9
$CLAYER
  8
0
  9
$LTSCALE
 40
16.335
  9
$CELTYPE
  6
BYLAYER
  9
$DIMSCALE
 40
1.0
  9
$DIMASZ
 40
3.5
  9
$DIMEXO
 40
1.85625
  9
$DIMDLI
 40
11.286
  9
$DIMEXE
 40
5.346
  9
$DIMCEN
 40
2.673
  9
$DIMLFAC
 40
1.0
  9
$DIMBLK
  1
_FILLED
  9
$DIMTXT
 40
3.5
  9
$DIMTOL
 70
1
  9
$DIMLIM
 70
0
  9
$DIMTFAC
 40
1.0
  9
$DIMTP
 40
0.005
  9
$DIMTM
 40
0.005
  9
$PDMODE
 70
3
  9
$PDSIZE
 40
0.3125
  9
$HANDSEED
  5
514
  9
$TILEMODE
 70
1
  9
$MEASUREMENT
 70
1
  9
$INSUNITS
 70
4
  0
ENDSEC
  0
SECTION
  2
CLASSES
  0
CLASS
  1
ACDBDICTIONARYWDFLT
  2
AcDbDictionaryWithDefault
  3
AutoCAD 2000
 90
0
280
0
281
0
  0
CLASS
  1
ACDBPLACEHOLDER
  2
AcDbPlaceHolder
  3
AutoCAD 2000
 90
0
280
0
281
0
  0
CLASS
  1
LAYOUT
  2
AcDbLayout
  3
AutoCAD 2000
 90
0
280
0
281
0
  0
ENDSEC
  0
SECTION
  2
TABLES
  0
TABLE
  2
VPORT
  5
8
100
AcDbSymbolTable
 70
2
  0
VPORT
  5
1F4
100
AcDbSymbolTableRecord
100
AcDbViewportTableRecord
  2
*ACTIVE
 70
0
 10
0.0
 20
0.0
 11
1.0
 21
1.0
 12
148.5
 22
105.0
 13
0.0
 23
0.0
 14
1.0
 24
1.0
 15
0.0
 25
0.0
 16
0.0
 26
0.0
 36
1.0
 17
0.0
 27
0.0
 37
0.0
 40
210.0
 41
1.4142857143
 42
50.0
 43
0.0
 44
0.0
 50
0.0
 51
0.0
 71
0
 72
100
 73
1
 74
1
 75
0
 76
0
 77
0
 78
0
  0
ENDTAB
  0
TABLE
  2
LTYPE
  5
5
100
AcDbSymbolTable
 70
6
  0
LTYPE
  5
14
100
AcDbSymbolTableRecord
100
AcDbLinetypeTableRecord
  2
BYBLOCK
 70
0
  3

 72
65
 73
0
 40
0.0
  0
LTYPE
  5
15
100
AcDbSymbolTableRecord
100
AcDbLinetypeTableRecord
  2
BYLAYER
 70
0
  3

 72
65
 73
0
 40
0.0
  0
LTYPE
  5
16
100
AcDbSymbolTableRecord
100
AcDbLinetypeTableRecord
  2
CONTINUOUS
 70
64
  3
Solid line
 72
65
 73
0
 40
0.0
  0
LTYPE
  5
1F5
100
AcDbSymbolTableRecord
100
AcDbLinetypeTableRecord
  2
CENTER
 70
64
  3
____ _ ____ _ ____ _ ____ _ ____ _ ____ _ ____
 72
65
 73
4
 40
0.6
 49
0.375
 74
0
 49
-0.075
 74
0
 49
0.075
 74
0
 49
-0.075
 74
0
  0
LTYPE
  5
1F6
100
AcDbSymbolTableRecord
100
AcDbLinetypeTableRecord
  2
HIDDEN
 70
64
  3
- - - - - - - - - - - - - - - - - - - -
 72
65
 73
2
 40
0.2
 49
0.1
 74
0
 49
-0.1
 74
0
  0
LTYPE
  5
1F7
100
AcDbSymbolTableRecord
100
AcDbLinetypeTableRecord
  2
PHANTOM
 70
64
  3
_____ _ _ _____ _ _ _____ _ _ _____
 72
65
 73
6
 40
0.8
 49
0.45
 74
0
 49
-0.05
 74
0
 49
0.1
 74
0
 49
-0.05
 74
0
 49
0.1
 74
0
 49
-0.05
 74
0
  0
LTYPE
  5
1F8
100
AcDbSymbolTableRecord
100
AcDbLinetypeTableRecord
  2
DOT
 70
64
  3
. . . . . . . . . . . . . . . . . . . .
 72
65
 73
2
 40
0.2
 49
0.1
 74
0
 49
-0.1
 74
0
  0
LTYPE
  5
1F9
100
AcDbSymbolTableRecord
100
AcDbLinetypeTableRecord
  2
DASHED
 70
64
  3
- - - - - - - - - - - - - - - - - - - -
 72
65
 73
2
 40
0.2
 49
0.1
 74
0
 49
-0.1
 74
0
  0
ENDTAB
  0
TABLE
  2
LAYER
  5
2
100
AcDbSymbolTable
 70
36
  0
LAYER
  5
10
100
AcDbSymbolTableRecord
100
AcDbLayerTableRecord
  2
0
 70
0
 62
7
  6
CONTINUOUS
370
-3
390
F
  0
LAYER
  5
1FA
100
AcDbSymbolTableRecord
100
AcDbLayerTableRecord
  2
DEFAULT_1
 70
0
 62
7
  6
CENTER
370
-3
390
F
  0
LAYER
  5
1FB
100
AcDbSymbolTableRecord
100
AcDbLayerTableRecord
  2
DEFAULT_2
 70
0
 62
8
  6
HIDDEN
370
-3
390
F
  0
LAYER
  5
1FC
100
AcDbSymbolTableRecord
100
AcDbLayerTableRecord
  2
DEFAULT_3
 70
0
 62
7
  6
PHANTOM
370
-3
390
F
  0
LAYER
  5
1FD
100
AcDbSymbolTableRecord
100
AcDbLayerTableRecord
  2
BEZUGSACHSEN
 70
0
 62
7
  6
CONTINUOUS
370
-3
390
F
  0
LAYER
  5
1FE
100
AcDbSymbolTableRecord
100
AcDbLayerTableRecord
  2
BG_STARTBEZUEGE
 70
0
 62
7
  6
CONTINUOUS
370
-3
390
F
  0
LAYER
  5
1FF
100
AcDbSymbolTableRecord
100
AcDbLayerTableRecord
  2
FLAECHEN
 70
0
 62
7
  6
CONTINUOUS
370
-3
390
F
  0
LAYER
  5
200
100
AcDbSymbolTableRecord
100
AcDbLayerTableRecord
  2
HILFEN
 70
0
 62
7
  6
CONTINUOUS
370
-3
390
F
  0
LAYER
  5
201
100
AcDbSymbolTableRecord
100
AcDbLayerTableRecord
  2
KURVEN
 70
0
 62
7
  6
CONTINUOUS
370
-3
390
F
  0
LAYER
  5
202
100
AcDbSymbolTableRecord
100
AcDbLayerTableRecord
  2
NORM
 70
0
 62
7
  6
CONTINUOUS
370
-3
390
F
  0
LAYER
  5
203
100
AcDbSymbolTableRecord
100
AcDbLayerTableRecord
  2
PLATZIERUNG
 70
0
 62
7
  6
CONTINUOUS
370
-3
390
F
  0
LAYER
  5
204
100
AcDbSymbolTableRecord
100
AcDbLayerTableRecord
  2
RUNDUNGEN
 70
0
 62
7
  6
CONTINUOUS
370
-3
390
F
  0
LAYER
  5
205
100
AcDbSymbolTableRecord
100
AcDbLayerTableRecord
  2
T_STARTBEZUEGE
 70
0
 62
7
  6
CONTINUOUS
370
-3
390
F
  0
ENDTAB
  0
TABLE
  2
STYLE
  5
3
100
AcDbSymbolTable
 70
1
  0
STYLE
  5
11
100
AcDbSymbolTableRecord
100
AcDbTextStyleTableRecord
  2
STANDARD
 70
0
 40
0.0
 41
0.7
 50
0.0
 71
0
 42
0.2
  3
txt
  4

  0
STYLE
  5
206
100
AcDbSymbolTableRecord
100
AcDbTextStyleTableRecord
  2
TEXTSTYLE_1
 70
0
 40
0.0
 41
0.8
 50
0.0
 71
0
 42
0.2
  3
gdt
  4

  0
ENDTAB
  0
TABLE
  2
VIEW
  5
6
100
AcDbSymbolTable
 70
0
  0
ENDTAB
  0
TABLE
  2
UCS
  5
7
100
AcDbSymbolTable
 70
0
  0
ENDTAB
  0
TABLE
  2
APPID
  5
9
100
AcDbSymbolTable
 70
1
  0
APPID
  5
207
100
AcDbSymbolTableRecord
100
AcDbRegAppTableRecord
  2
ACAD
 70
0
  0
ENDTAB
  0
TABLE
  2
BLOCK_RECORD
  5
1
100
AcDbSymbolTable
 70
0
  0
BLOCK_RECORD
  5
208
100
AcDbSymbolTableRecord
100
AcDbBlockTableRecord
  2
*Model_Space
  0
BLOCK_RECORD
  5
209
100
AcDbSymbolTableRecord
100
AcDbBlockTableRecord
  2
*Paper_Space
  0
ENDTAB
  0
TABLE
  2
DIMSTYLE
  5
A
100
AcDbSymbolTable
 70
1
100
AcDbDimStyleTable
 71
0
  0
DIMSTYLE
105
20A
100
AcDbSymbolTableRecord
100
AcDbDimStyleTableRecord
  2
STANDARD
 70
0
  3

  4

 40
1.0
 41
3.5
 42
0.0625
 43
0.38
 44
0.18
 45
0.0
 46
0.0
 47
0.005
 48
0.005
140
3.5
141
0.09
142
0.0
143
25.4
144
1.0
145
0.0
146
1.0
147
0.09
 71
1.0
 72
0.0
 73
0
 74
0
 75
0
 76
0
 77
1
 78
8
170
0
171
2
172
0
173
0
174
0
175
0
176
0
177
0
178
5
270
2
271
3
272
3
273
2
274
2
275
0
280
0
281
0
282
0
283
1
284
8
285
0
286
0
287
3
288
0
340
11
  0
ENDTAB
  0
ENDSEC
  0
SECTION
  2
BLOCKS
  0
BLOCK
  5
20
100
AcDbEntity
  8
0
100
AcDbBlockBegin
  2
*Model_Space
 70
0
 10
0.0
 20
0.0
 30
0.0
  3
*Model_Space
  1

  0
ENDBLK
  5
21
100
AcDbEntity
  8
0
100
AcDbBlockEnd
  0
BLOCK
  5
1C
100
AcDbEntity
  8
0
100
AcDbBlockBegin
  2
*Paper_Space
 70
0
 10
0.0
 20
0.0
 30
0.0
  3
*Paper_Space
  1

  0
ENDBLK
  5
1D
100
AcDbEntity
  8
0
100
AcDbBlockEnd
  0
ENDSEC
  0
SECTION
  2
ENTITIES
  0
MTEXT
  5
20B
100
AcDbEntity
  8
0
100
AcDbMText
 62
5
  6
CONTINUOUS
  7
STANDARD
 71
1
 72
1
 10
186.5375810476
 20
125.8079958021
 30
0.0
 11
0.0
 21
1.0
 31
0.0
 44
0.9
  1
INOX STAR 0,5t RUD
 40
3.0
 41
42.0714285714
  0
MTEXT
  5
20C
100
AcDbEntity
  8
0
100
AcDbMText
 62
5
  6
CONTINUOUS
  7
STANDARD
 71
1
 72
1
 10
78.8404958895
 20
50.9836458022
 30
0.0
 11
1.0
 21
0.0
 31
0.0
 44
0.9
  1
INOX STAR 0,5t RUD
 40
3.0
 41
42.0714285714
  0
LINE
  5
20D
100
AcDbEntity
  8
0
100
AcDbLine
 62
7
  6
CONTINUOUS
 10
0.0
 20
0.0
 11
0.0
 21
210.0
  0
LINE
  5
20E
100
AcDbEntity
  8
0
100
AcDbLine
 62
7
  6
CONTINUOUS
 10
0.0
 20
0.0
 11
297.0
 21
0.0
  0
LINE
  5
20F
100
AcDbEntity
  8
0
100
AcDbLine
 62
7
  6
CONTINUOUS
 10
0.0
 20
210.0
 11
297.0
 21
210.0
  0
LINE
  5
210
100
AcDbEntity
  8
0
100
AcDbLine
 62
7
  6
CONTINUOUS
 10
297.0
 20
0.0
 11
297.0
 21
210.0
  0
LINE
  5
211
100
AcDbEntity
  8
0
100
AcDbLine
 62
7
  6
CONTINUOUS
 10
104.588190407
 20
95.9982269831
 11
95.088190407
 21
95.9982269831
  0
LINE
  5
212
100
AcDbEntity
  8
0
100
AcDbLine
 62
7
  6
CONTINUOUS
 10
105.838190407
 20
97.2482269831
 11
93.838190407
 21
97.2482269831
  0
LINE
  5
213
100
AcDbEntity
  8
0
100
AcDbLine
 62
7
  6
CONTINUOUS
 10
81.882205365
 20
156.0733826773
 11
80.9575331878
 21
154.8922893852
  0
LINE
  5
214
100
AcDbEntity
  8
0
100
AcDbLine
 62
7
  6
CONTINUOUS
 10
81.4902569303
 20
154.9514762231
 11
82.1837610632
 21
155.8372961921
  0
LINE
  5
215
100
AcDbEntity
  8
0
100
AcDbLine
 62
7
  6
CONTINUOUS
 10
82.125104832
 20
156.28009622
 11
81.882205365
 21
156.0733826773
  0
LINE
  5
216
100
AcDbEntity
  8
0
100
AcDbLine
 62
7
  6
CONTINUOUS
 10
90.2985048111
 20
162.1406056986
 11
90.5016348463
 21
162.2997046904
  0
LINE
  5
217
100
AcDbEntity
  8
0
100
AcDbLine
 62
7
  6
CONTINUOUS
 10
85.8602776954
 20
159.9644009797
 11
85.5643371952
 21
159.7340876706
  0
LINE
  5
218
100
AcDbEntity
  8
0
100
AcDbLine
 62
7
  6
CONTINUOUS
 10
82.1837610632
 20
155.8372961921
 11
82.3881322288
 21
155.9947971389
  0
LINE
  5
219
100
AcDbEntity
  8
0
100
AcDbLine
 62
7
  6
CONTINUOUS
 10
90.3474119171
 20
162.6502584747
 11
90.0870736633
 21
162.4659912508
  0
LINE
  5
21A
100
AcDbEntity
  8
0
100
AcDbLine
 62
7
  6
CONTINUOUS
 10
88.5902692351
 20
161.7991416227
 11
88.2734395956
 21
161.5985326012
  0
LINE
  5
21B
100
AcDbEntity
  8
0
100
AcDbLine
 62
7
  6
CONTINUOUS
 10
86.9533160722
 20
160.7626616625
 11
86.4780716128
 21
160.4617481303
  0
LINE
  5
21C
100
AcDbEntity
  8
0
100
AcDbLine
 62
7
  6
CONTINUOUS
 10
82.3797352806
 20
156.3982494192
 11
82.125104832
 21
156.28009622
  0
LINE
  5
21D
100
AcDbEntity
  8
0
100
AcDbLine
 62
7
  6
CONTINUOUS
 10
90.8050793033
 20
162.8516050527
 11
90.3474119171
 21
162.6502584747
  0
LINE
  5
21E
100
AcDbEntity
  8
0
100
AcDbLine
 62
7
  6
CONTINUOUS
 10
90.5016348463
 20
162.2997046904
 11
90.9593022325
 21
162.5010512684
  0
LINE
  5
21F
100
AcDbEntity
  8
0
100
AcDbLine
 62
7
  6
CONTINUOUS
 10
91.8589361122
 20
160.4561539066
 11
91.401268726
 21
160.2548073286
  0
LINE
  5
220
100
AcDbEntity
  8
0
100
AcDbLine
 62
7
  6
CONTINUOUS
 10
93.838190407
 20
97.2482269831
 11
95.088190407
 21
95.9982269831
  0
LINE
  5
221
100
AcDbEntity
  8
0
100
AcDbLine
 62
7
  6
CONTINUOUS
 10
78.5934826727
 20
150.5163928648
 11
78.037312628
 21
149.1233117899
  0
LINE
  5
222
100
AcDbEntity
  8
0
100
AcDbLine
 62
7
  6
CONTINUOUS
 10
78.4727553326
 20
149.3532480206
 11
78.9130565959
 21
150.4561038163
  0
LINE
  5
223
100
AcDbEntity
  8
0
100
AcDbLine
 62
7
  6
CONTINUOUS
 10
79.8022573421
 20
150.1011016361
 11
79.3619560788
 21
148.9982458405
  0
LINE
  5
224
100
AcDbEntity
  8
0
100
AcDbLine
 62
7
  6
CONTINUOUS
 10
80.4432186378
 20
154.1119570944
 11
80.2567344248
 21
153.7866132174
  0
LINE
  5
225
100
AcDbEntity
  8
0
100
AcDbLine
 62
7
  6
CONTINUOUS
 10
79.5107975724
 20
152.4852377096
 11
79.3243132704
 21
152.1598936775
  0
LINE
  5
226
100
AcDbEntity
  8
0
100
AcDbLine
 62
7
  6
CONTINUOUS
 10
78.7686314928
 20
150.7829513365
 11
78.5934826727
 21
150.5163928648
  0
LINE
  5
227
100
AcDbEntity
  8
0
100
AcDbLine
 62
7
  6
CONTINUOUS
 10
83.9428362158
 20
154.4601248355
 11
83.2493320828
 21
153.5743048665
  0
LINE
  5
228
100
AcDbEntity
  8
0
100
AcDbLine
 62
7
  6
CONTINUOUS
 10
83.3197197719
 20
153.0429450307
 11
84.2443919492
 21
154.2240383227
  0
LINE
  5
229
100
AcDbEntity
  8
0
100
AcDbLine
 62
7
  6
CONTINUOUS
 10
90.0870736633
 20
162.4659912508
 11
89.9096474496
 21
162.2484666283
  0
LINE
  5
22A
100
AcDbEntity
  8
0
100
AcDbLine
 62
7
  6
CONTINUOUS
 10
78.9130565959
 20
150.4561038163
 11
79.0418578901
 21
150.6065721431
  0
LINE
  5
22B
100
AcDbEntity
  8
0
100
AcDbLine
 62
7
  6
CONTINUOUS
 10
82.2135743602
 20
151.2962257916
 11
82.4243554912
 21
151.535603593
  0
LINE
  5
22C
100
AcDbEntity
  8
0
100
AcDbLine
 62
7
  6
CONTINUOUS
 10
82.092089405
 20
151.7260555548
 11
81.9123890402
 21
151.5409018336
  0
LINE
  5
22D
100
AcDbEntity
  8
0
100
AcDbLine
 62
7
  6
CONTINUOUS
 10
92.0620661474
 20
160.6152528984
 11
91.8589361122
 21
160.4561539066
  0
LINE
  5
22E
100
AcDbEntity
  8
0
100
AcDbLine
 62
7
  6
CONTINUOUS
 10
87.4068436685
 20
157.3665636694
 11
87.7027841686
 21
157.5968769786
  0
LINE
  5
22F
100
AcDbEntity
  8
0
100
AcDbLine
 62
7
  6
CONTINUOUS
 10
92.0131590594
 20
160.1056000814
 11
92.2734976383
 21
160.2898674545
  0
LINE
  5
230
100
AcDbEntity
  8
0
100
AcDbLine
 62
7
  6
CONTINUOUS
 10
81.9784961285
 20
151.1428137584
 11
82.2135743602
 21
151.2962257916
  0
LINE
  5
231
100
AcDbEntity
  8
0
100
AcDbLine
 62
7
  6
CONTINUOUS
 10
88.0829437845
 20
157.9271110138
 11
88.3997734241
 21
158.1277200353
  0
LINE
  5
232
100
AcDbEntity
  8
0
100
AcDbLine
 62
7
  6
CONTINUOUS
 10
89.7198969475
 20
158.963590974
 11
90.1951414068
 21
159.2645045062
  0
LINE
  5
233
100
AcDbEntity
  8
0
100
AcDbLine
 62
7
  6
CONTINUOUS
 10
79.0391665942
 20
150.9441310375
 11
78.7686314928
 21
150.7829513365
  0
LINE
  5
234
100
AcDbEntity
  8
0
100
AcDbLine
 62
7
  6
CONTINUOUS
 10
91.5554916732
 20
159.9042535033
 11
92.0131590594
 21
160.1056000814
  0
LINE
  5
235
100
AcDbEntity
  8
0
100
AcDbLine
 62
7
  6
CONTINUOUS
 10
104.1604561046
 20
163.7096951423
 11
104.3710931266
 21
163.7938692167
  0
LINE
  5
236
100
AcDbEntity
  8
0
100
AcDbLine
 62
7
  6
CONTINUOUS
 10
82.3881322288
 20
155.9947971389
 11
82.6042348171
 21
156.0637383053
  0
LINE
  5
237
100
AcDbEntity
  8
0
100
AcDbLine
 62
7
  6
CONTINUOUS
 10
82.2853574664
 20
152.1915895875
 11
82.216412273
 21
151.9429515762
  0
LINE
  5
238
100
AcDbEntity
  8
0
100
AcDbLine
 62
7
  6
CONTINUOUS
 10
82.5486783593
 20
151.7524996143
 11
82.6487041314
 21
152.0553614011
  0
LINE
  5
239
100
AcDbEntity
  8
0
100
AcDbLine
 62
7
  6
CONTINUOUS
 10
79.7176363108
 20
148.8562449949
 11
80.1115900815
 21
149.8430107287
  0
LINE
  5
23A
100
AcDbEntity
  8
0
100
AcDbLine
 62
7
  6
CONTINUOUS
 10
80.8234747779
 20
148.0109717005
 11
80.9625172891
 21
148.3592419692
  0
LINE
  5
23B
100
AcDbEntity
  8
0
100
AcDbLine
 62
7
  6
CONTINUOUS
 10
81.5418610636
 20
149.8103680336
 11
81.7040773708
 21
150.2166834578
  0
LINE
  5
23C
100
AcDbEntity
  8
0
100
AcDbLine
 62
7
  6
CONTINUOUS
 10
84.0466888153
 20
154.6963212773
 11
83.9428362158
 21
154.4601248355
  0
LINE
  5
23D
100
AcDbEntity
  8
0
100
AcDbLine
 62
7
  6
CONTINUOUS
 10
84.2443919492
 20
154.2240383227
 11
84.3867728456
 21
154.509447364
  0
LINE
  5
23E
100
AcDbEntity
  8
0
100
AcDbLine
 62
7
  6
CONTINUOUS
 10
82.216412273
 20
151.9429515762
 11
82.092089405
 21
151.7260555548
  0
LINE
  5
23F
100
AcDbEntity
  8
0
100
AcDbLine
 62
7
  6
CONTINUOUS
 10
82.4243554912
 20
151.535603593
 11
82.5486783593
 21
151.7524996143
  0
LINE
  5
240
100
AcDbEntity
  8
0
100
AcDbLine
 62
7
  6
CONTINUOUS
 10
90.1782871435
 20
161.9482494524
 11
90.2985048111
 21
162.1406056986
  0
LINE
  5
241
100
AcDbEntity
  8
0
100
AcDbLine
 62
7
  6
CONTINUOUS
 10
92.2734976383
 20
160.2898674545
 11
92.4509235179
 21
160.5073919483
  0
LINE
  5
242
100
AcDbEntity
  8
0
100
AcDbLine
 62
7
  6
CONTINUOUS
 10
104.1210768008
 20
164.1106277184
 11
103.8218556128
 21
163.9152958555
  0
LINE
  5
243
100
AcDbEntity
  8
0
100
AcDbLine
 62
7
  6
CONTINUOUS
 10
81.9123890402
 20
151.5409018336
 11
81.7083915457
 21
151.4417138972
  0
LINE
  5
244
100
AcDbEntity
  8
0
100
AcDbLine
 62
7
  6
CONTINUOUS
 10
79.0418578901
 20
150.6065721431
 11
79.2067654933
 21
150.6753286728
  0
LINE
  5
245
100
AcDbEntity
  8
0
100
AcDbLine
 62
7
  6
CONTINUOUS
 10
104.9203691831
 20
161.6459301319
 11
104.7097321951
 21
161.5617560042
  0
LINE
  5
246
100
AcDbEntity
  8
BEZUGSACHSEN
100
AcDbLine
 62
7
  6
CONTINUOUS
 10
81.8191924644
 20
119.7577722672
 11
81.5375064633
 21
120.361849846
  0
LINE
  5
247
100
AcDbEntity
  8
BEZUGSACHSEN
100
AcDbLine
 62
7
  6
CONTINUOUS
 10
80.2058658978
 20
123.2175622543
 11
78.6614930666
 21
126.5294804787
  0
LINE
  5
248
100
AcDbEntity
  8
RUNDUNGEN
100
AcDbLine
 62
7
  6
CONTINUOUS
 10
81.5375064633
 20
120.361849846
 11
72.0293409331
 21
140.7521766268
  0
LINE
  5
249
100
AcDbEntity
  8
0
100
AcDbLine
 62
7
  6
CONTINUOUS
 10
79.812498559
 20
150.2989035781
 11
79.8022573421
 21
150.1011016361
  0
LINE
  5
24A
100
AcDbEntity
  8
0
100
AcDbLine
 62
7
  6
CONTINUOUS
 10
84.3867728456
 20
154.509447364
 11
84.440366149
 21
154.7849915636
  0
LINE
  5
24B
100
AcDbEntity
  8
0
100
AcDbLine
 62
7
  6
CONTINUOUS
 10
89.9096474496
 20
162.2484666283
 11
89.783628879
 21
161.9140907444
  0
LINE
  5
24C
100
AcDbEntity
  8
0
100
AcDbLine
 62
7
  6
CONTINUOUS
 10
92.182283797
 20
160.8076091855
 11
92.0620661474
 21
160.6152528984
  0
LINE
  5
24D
100
AcDbEntity
  8
0
100
AcDbLine
 62
7
  6
CONTINUOUS
 10
104.9597483851
 20
161.2449975096
 11
105.258969687
 21
161.4403293702
  0
LINE
  5
24E
100
AcDbEntity
  8
0
100
AcDbLine
 62
7
  6
CONTINUOUS
 10
113.6627780665
 20
158.3121545339
 11
113.9668735746
 21
158.4008676908
  0
LINE
  5
24F
100
AcDbEntity
  8
0
100
AcDbLine
 62
7
  6
CONTINUOUS
 10
108.838190407
 20
113.9982269831
 11
90.838190407
 21
113.9982269831
  0
LINE
  5
250
100
AcDbEntity
  8
BEZUGSACHSEN
100
AcDbLine
 62
7
  6
CONTINUOUS
 10
84.838190407
 20
114.1982269831
 11
114.838190407
 21
114.1982269831
  0
LINE
  5
251
100
AcDbEntity
  8
0
100
AcDbLine
 62
7
  6
CONTINUOUS
 10
80.1320725484
 20
150.2386146956
 11
80.1062074564
 21
150.5181284346
  0
LINE
  5
252
100
AcDbEntity
  8
0
100
AcDbLine
 62
7
  6
CONTINUOUS
 10
82.267844185
 20
152.4177455281
 11
82.2853574664
 21
152.1915895875
  0
LINE
  5
253
100
AcDbEntity
  8
0
100
AcDbLine
 62
7
  6
CONTINUOUS
 10
82.6487041314
 20
152.0553614011
 11
82.6622716357
 21
152.3357414107
  0
LINE
  5
254
100
AcDbEntity
  8
0
100
AcDbLine
 62
7
  6
CONTINUOUS
 10
84.0617542362
 20
154.9226534615
 11
84.0466888153
 21
154.6963212773
  0
LINE
  5
255
100
AcDbEntity
  8
0
100
AcDbLine
 62
7
  6
CONTINUOUS
 10
94.0290786701
 20
162.4325641086
 11
93.4039377892
 21
160.6761850648
  0
LINE
  5
256
100
AcDbEntity
  8
0
100
AcDbLine
 62
7
  6
CONTINUOUS
 10
92.4509235179
 20
160.5073919483
 11
92.5769420795
 21
160.8417678526
  0
LINE
  5
257
100
AcDbEntity
  8
0
100
AcDbLine
 62
7
  6
CONTINUOUS
 10
94.670904419
 20
164.1273326342
 11
94.1433234274
 21
162.7280167067
  0
LINE
  5
258
100
AcDbEntity
  8
0
100
AcDbLine
 62
7
  6
CONTINUOUS
 10
93.7659007249
 20
160.7742046201
 11
94.2934810261
 21
162.1735203607
  0
LINE
  5
259
100
AcDbEntity
  8
0
100
AcDbLine
 62
7
  6
CONTINUOUS
 10
94.3910416058
 20
162.5305836639
 11
95.0328673547
 21
164.2253521895
  0
LINE
  5
25A
100
AcDbEntity
  8
0
100
AcDbLine
 62
7
  6
CONTINUOUS
 10
105.0837585642
 20
161.8059209043
 11
104.9203691831
 21
161.6459301319
  0
LINE
  5
25B
100
AcDbEntity
  8
0
100
AcDbLine
 62
7
  6
CONTINUOUS
 10
101.8616281454
 20
116.6982269831
 11
102.4085029368
 21
116.8471631486
  0
LINE
  5
25C
100
AcDbEntity
  8
0
100
AcDbLine
 62
7
  6
CONTINUOUS
 10
97.4866282497
 20
115.804609964
 11
98.033503354
 21
115.804609964
  0
LINE
  5
25D
100
AcDbEntity
  8
0
100
AcDbLine
 62
7
  6
CONTINUOUS
 10
101.2053781454
 20
116.6982269831
 11
101.8616281454
 21
116.6982269831
  0
LINE
  5
25E
100
AcDbEntity
  8
0
100
AcDbLine
 62
7
  6
CONTINUOUS
 10
101.8616281454
 20
117.4429078497
 11
101.2053781454
 21
117.4429078497
  0
LINE
  5
25F
100
AcDbEntity
  8
0
100
AcDbLine
 62
7
  6
CONTINUOUS
 10
98.689753354
 20
117.4429078497
 11
98.1428779368
 21
117.4429078497
  0
LINE
  5
260
100
AcDbEntity
  8
0
100
AcDbLine
 62
7
  6
CONTINUOUS
 10
93.9866281454
 20
116.8471631486
 11
94.6428781454
 21
116.6982269831
  0
LINE
  5
261
100
AcDbEntity
  8
0
100
AcDbLine
 62
7
  6
CONTINUOUS
 10
94.6428781454
 20
117.4429078497
 11
94.0960031976
 21
117.5918440021
  0
LINE
  5
262
100
AcDbEntity
  8
0
100
AcDbLine
 62
7
  6
CONTINUOUS
 10
100.658503354
 20
116.8471631486
 11
101.2053781454
 21
116.6982269831
  0
LINE
  5
263
100
AcDbEntity
  8
0
100
AcDbLine
 62
7
  6
CONTINUOUS
 10
93.4397531193
 20
117.2939716451
 11
93.9866281454
 21
116.8471631486
  0
LINE
  5
264
100
AcDbEntity
  8
0
100
AcDbLine
 62
7
  6
CONTINUOUS
 10
94.0960031976
 20
117.5918440021
 11
93.7678781193
 21
117.8897163071
  0
LINE
  5
265
100
AcDbEntity
  8
0
100
AcDbLine
 62
7
  6
CONTINUOUS
 10
90.1409819154
 20
161.7226357881
 11
90.1782871435
 21
161.9482494524
  0
LINE
  5
266
100
AcDbEntity
  8
0
100
AcDbLine
 62
7
  6
CONTINUOUS
 10
105.258969687
 20
161.4403293702
 11
105.436137985
 21
161.6626450006
  0
LINE
  5
267
100
AcDbEntity
  8
0
100
AcDbLine
 62
7
  6
CONTINUOUS
 10
109.5468493919
 20
160.3517096478
 11
110.8749622974
 21
161.5856645918
  0
LINE
  5
268
100
AcDbEntity
  8
0
100
AcDbLine
 62
7
  6
CONTINUOUS
 10
108.7780355455
 20
159.6103679671
 11
109.3683083504
 21
160.1587921292
  0
LINE
  5
269
100
AcDbEntity
  8
0
100
AcDbLine
 62
7
  6
CONTINUOUS
 10
110.7802607827
 20
161.930221345
 11
108.4501442905
 21
159.7923351528
  0
LINE
  5
26A
100
AcDbEntity
  8
0
100
AcDbLine
 62
7
  6
CONTINUOUS
 10
113.8739950952
 20
158.7935729139
 11
113.7079503303
 21
158.6795395305
  0
LINE
  5
26B
100
AcDbEntity
  8
0
100
AcDbLine
 62
7
  6
CONTINUOUS
 10
113.9668735746
 20
158.4008676908
 11
114.1329183396
 21
158.5149010742
  0
LINE
  5
26C
100
AcDbEntity
  8
0
100
AcDbLine
 62
7
  6
CONTINUOUS
 10
95.1897530933
 20
117.5918440021
 11
94.6428781454
 21
117.4429078497
  0
LINE
  5
26D
100
AcDbEntity
  8
0
100
AcDbLine
 62
7
  6
CONTINUOUS
 10
101.2053781454
 20
121.1663119741
 11
100.658503354
 21
121.0173758216
  0
LINE
  5
26E
100
AcDbEntity
  8
0
100
AcDbLine
 62
7
  6
CONTINUOUS
 10
94.6428781454
 20
116.6982269831
 11
95.2991281454
 21
116.8471631486
  0
LINE
  5
26F
100
AcDbEntity
  8
0
100
AcDbLine
 62
7
  6
CONTINUOUS
 10
100.2210031454
 20
118.4854610212
 11
99.5647531454
 21
118.4854610212
  0
LINE
  5
270
100
AcDbEntity
  8
0
100
AcDbLine
 62
7
  6
CONTINUOUS
 10
99.5647531454
 20
119.8258866019
 11
100.330378354
 21
119.8258866019
  0
LINE
  5
271
100
AcDbEntity
  8
0
100
AcDbLine
 62
7
  6
CONTINUOUS
 10
101.2053781454
 20
120.4216312118
 11
101.8616281454
 21
120.4216312118
  0
LINE
  5
272
100
AcDbEntity
  8
0
100
AcDbLine
 62
7
  6
CONTINUOUS
 10
104.3772535626
 20
120.8684396692
 11
105.2522527282
 21
120.8684396692
  0
LINE
  5
273
100
AcDbEntity
  8
0
100
AcDbLine
 62
7
  6
CONTINUOUS
 10
105.7991281454
 20
120.8684396692
 11
107.0022535626
 21
120.8684396692
  0
LINE
  5
274
100
AcDbEntity
  8
0
100
AcDbLine
 62
7
  6
CONTINUOUS
 10
101.8616281454
 20
121.1663119741
 11
101.2053781454
 21
121.1663119741
  0
LINE
  5
275
100
AcDbEntity
  8
0
100
AcDbLine
 62
7
  6
CONTINUOUS
 10
106.1272531454
 20
116.8471631486
 11
106.7835031454
 21
116.6982269831
  0
LINE
  5
276
100
AcDbEntity
  8
0
100
AcDbLine
 62
7
  6
CONTINUOUS
 10
106.7835031454
 20
117.2939716451
 11
106.2366277282
 21
117.4429078497
  0
LINE
  5
277
100
AcDbEntity
  8
0
100
AcDbLine
 62
7
  6
CONTINUOUS
 10
101.2053781454
 20
117.4429078497
 11
100.7678779368
 21
117.5918440021
  0
LINE
  5
278
100
AcDbEntity
  8
0
100
AcDbLine
 62
7
  6
CONTINUOUS
 10
105.7991281454
 20
116.9960993141
 11
106.1272531454
 21
116.8471631486
  0
LINE
  5
279
100
AcDbEntity
  8
0
100
AcDbLine
 62
7
  6
CONTINUOUS
 10
100.1116279368
 20
117.2939716451
 11
100.658503354
 21
116.8471631486
  0
LINE
  5
27A
100
AcDbEntity
  8
0
100
AcDbLine
 62
7
  6
CONTINUOUS
 10
93.1116281584
 20
117.7407801546
 11
93.4397531193
 21
117.2939716451
  0
LINE
  5
27B
100
AcDbEntity
  8
0
100
AcDbLine
 62
7
  6
CONTINUOUS
 10
93.7678781193
 20
117.8897163071
 11
93.3303781454
 21
118.7833333261
  0
LINE
  5
27C
100
AcDbEntity
  8
0
100
AcDbLine
 62
7
  6
CONTINUOUS
 10
84.440366149
 20
154.7849915636
 11
84.3934408818
 21
155.1392312618
  0
LINE
  5
27D
100
AcDbEntity
  8
0
100
AcDbLine
 62
7
  6
CONTINUOUS
 10
90.838190407
 20
114.1982269831
 11
90.838190407
 21
113.9982269831
  0
LINE
  5
27E
100
AcDbEntity
  8
0
100
AcDbLine
 62
7
  6
CONTINUOUS
 10
89.783628879
 20
161.9140907444
 11
89.7720274005
 21
161.630051613
  0
LINE
  5
27F
100
AcDbEntity
  8
0
100
AcDbLine
 62
7
  6
CONTINUOUS
 10
92.2195890971
 20
161.0332226862
 11
92.182283797
 21
160.8076091855
  0
LINE
  5
280
100
AcDbEntity
  8
0
100
AcDbLine
 62
7
  6
CONTINUOUS
 10
103.8218556128
 20
163.9152958555
 11
103.7057135888
 21
163.6794884479
  0
LINE
  5
281
100
AcDbEntity
  8
0
100
AcDbLine
 62
7
  6
CONTINUOUS
 10
104.058092971
 20
163.5362123696
 11
104.1604561046
 21
163.7096951423
  0
LINE
  5
282
100
AcDbEntity
  8
0
100
AcDbLine
 62
7
  6
CONTINUOUS
 10
107.0022535626
 20
121.464184279
 11
105.7991281454
 21
121.464184279
  0
LINE
  5
283
100
AcDbEntity
  8
0
100
AcDbLine
 62
7
  6
CONTINUOUS
 10
105.2522527282
 20
121.464184279
 11
104.3772535626
 21
121.464184279
  0
LINE
  5
284
100
AcDbEntity
  8
0
100
AcDbLine
 62
7
  6
CONTINUOUS
 10
105.7991281454
 20
122.6556739159
 11
105.2522527282
 21
122.6556739159
  0
LINE
  5
285
100
AcDbEntity
  8
0
100
AcDbLine
 62
7
  6
CONTINUOUS
 10
100.1116279368
 20
122.9535462208
 11
103.2835027282
 21
122.9535462208
  0
LINE
  5
286
100
AcDbEntity
  8
0
100
AcDbLine
 62
7
  6
CONTINUOUS
 10
103.2835027282
 20
123.6982269831
 11
99.5647531454
 21
123.6982269831
  0
LINE
  5
287
100
AcDbEntity
  8
0
100
AcDbLine
 62
7
  6
CONTINUOUS
 10
95.2991281454
 20
123.5492908306
 11
94.6428781454
 21
123.6982269831
  0
LINE
  5
288
100
AcDbEntity
  8
0
100
AcDbLine
 62
7
  6
CONTINUOUS
 10
94.6428781454
 20
122.9535462208
 11
95.1897530933
 21
122.8046100683
  0
LINE
  5
289
100
AcDbEntity
  8
0
100
AcDbLine
 62
7
  6
CONTINUOUS
 10
102.4085029368
 20
121.0173758216
 11
101.8616281454
 21
121.1663119741
  0
LINE
  5
28A
100
AcDbEntity
  8
0
100
AcDbLine
 62
7
  6
CONTINUOUS
 10
101.8616281454
 20
120.4216312118
 11
102.299128354
 21
120.2726950593
  0
LINE
  5
28B
100
AcDbEntity
  8
0
100
AcDbLine
 62
7
  6
CONTINUOUS
 10
95.8460032497
 20
123.1024823733
 11
95.2991281454
 21
123.5492908306
  0
LINE
  5
28C
100
AcDbEntity
  8
0
100
AcDbLine
 62
7
  6
CONTINUOUS
 10
100.7678779368
 20
117.5918440021
 11
100.4397529368
 21
117.8897163071
  0
LINE
  5
28D
100
AcDbEntity
  8
0
100
AcDbLine
 62
7
  6
CONTINUOUS
 10
95.1897530933
 20
122.8046100683
 11
95.5178782497
 21
122.5067377634
  0
LINE
  5
28E
100
AcDbEntity
  8
0
100
AcDbLine
 62
7
  6
CONTINUOUS
 10
96.1741282497
 20
122.6556739159
 11
95.8460032497
 21
123.1024823733
  0
LINE
  5
28F
100
AcDbEntity
  8
0
100
AcDbLine
 62
7
  6
CONTINUOUS
 10
79.7402860075
 20
150.4623273382
 11
79.812498559
 21
150.2989035781
  0
LINE
  5
290
100
AcDbEntity
  8
0
100
AcDbLine
 62
7
  6
CONTINUOUS
 10
92.8928781519
 20
118.3365248687
 11
93.1116281584
 21
117.7407801546
  0
LINE
  5
291
100
AcDbEntity
  8
0
100
AcDbLine
 62
7
  6
CONTINUOUS
 10
82.6622716357
 20
152.3357414107
 11
82.565083786
 21
152.6796054029
  0
LINE
  5
292
100
AcDbEntity
  8
0
100
AcDbLine
 62
7
  6
CONTINUOUS
 10
92.7835031487
 20
118.7833333261
 11
92.8928781519
 21
118.3365248687
  0
LINE
  5
293
100
AcDbEntity
  8
0
100
AcDbLine
 62
7
  6
CONTINUOUS
 10
92.6741281454
 20
119.528014297
 11
92.7835031487
 21
118.7833333261
  0
LINE
  5
294
100
AcDbEntity
  8
0
100
AcDbLine
 62
7
  6
CONTINUOUS
 10
92.6741281454
 20
120.8684396692
 11
92.6741281454
 21
119.528014297
  0
LINE
  5
295
100
AcDbEntity
  8
0
100
AcDbLine
 62
7
  6
CONTINUOUS
 10
93.2210031324
 20
119.6769504495
 11
93.2210031324
 21
120.7195035167
  0
LINE
  5
296
100
AcDbEntity
  8
0
100
AcDbLine
 62
7
  6
CONTINUOUS
 10
93.838190407
 20
113.9982269831
 11
93.838190407
 21
97.2482269831
  0
LINE
  5
297
100
AcDbEntity
  8
0
100
AcDbLine
 62
7
  6
CONTINUOUS
 10
92.5769420795
 20
160.8417678526
 11
92.5885438674
 21
161.125807169
  0
LINE
  5
298
100
AcDbEntity
  8
0
100
AcDbLine
 62
7
  6
CONTINUOUS
 10
112.8790245797
 20
160.6810297428
 11
111.0550704423
 21
158.2991835461
  0
LINE
  5
299
100
AcDbEntity
  8
0
100
AcDbLine
 62
7
  6
CONTINUOUS
 10
111.3528012168
 20
158.0711892789
 11
112.16775946
 21
159.1354184458
  0
LINE
  5
29A
100
AcDbEntity
  8
0
100
AcDbLine
 62
7
  6
CONTINUOUS
 10
112.4006046413
 20
159.4394838814
 11
112.9827177032
 21
160.1996476126
  0
LINE
  5
29B
100
AcDbEntity
  8
0
100
AcDbLine
 62
7
  6
CONTINUOUS
 10
117.0990523437
 20
152.125670484
 11
117.4828747613
 21
152.3472704602
  0
LINE
  5
29C
100
AcDbEntity
  8
0
100
AcDbLine
 62
7
  6
CONTINUOUS
 10
119.2828747613
 20
153.3865009447
 11
119.666697179
 21
153.6081009209
  0
LINE
  5
29D
100
AcDbEntity
  8
0
100
AcDbLine
 62
7
  6
CONTINUOUS
 10
94.0960031976
 20
122.8046100683
 11
94.6428781454
 21
122.9535462208
  0
LINE
  5
29E
100
AcDbEntity
  8
0
100
AcDbLine
 62
7
  6
CONTINUOUS
 10
94.6428781454
 20
123.6982269831
 11
93.9866281454
 21
123.5492908306
  0
LINE
  5
29F
100
AcDbEntity
  8
0
100
AcDbLine
 62
7
  6
CONTINUOUS
 10
102.955378354
 20
120.5705673642
 11
102.4085029368
 21
121.0173758216
  0
LINE
  5
2A0
100
AcDbEntity
  8
0
100
AcDbLine
 62
7
  6
CONTINUOUS
 10
105.4710031454
 20
117.2939716451
 11
105.7991281454
 21
116.9960993141
  0
LINE
  5
2A1
100
AcDbEntity
  8
0
100
AcDbLine
 62
7
  6
CONTINUOUS
 10
102.299128354
 20
120.2726950593
 11
102.627253354
 21
119.9748227544
  0
LINE
  5
2A2
100
AcDbEntity
  8
0
100
AcDbLine
 62
7
  6
CONTINUOUS
 10
106.2366277282
 20
117.4429078497
 11
105.9085027282
 21
117.7407801546
  0
LINE
  5
2A3
100
AcDbEntity
  8
0
100
AcDbLine
 62
7
  6
CONTINUOUS
 10
80.1062074564
 20
150.5181284346
 11
79.9386085573
 21
150.7869307993
  0
LINE
  5
2A4
100
AcDbEntity
  8
0
100
AcDbLine
 62
7
  6
CONTINUOUS
 10
99.7835029368
 20
117.8897163071
 11
100.1116279368
 21
117.2939716451
  0
LINE
  5
2A5
100
AcDbEntity
  8
0
100
AcDbLine
 62
7
  6
CONTINUOUS
 10
82.1638725063
 20
152.6214193534
 11
82.267844185
 21
152.4177455281
  0
LINE
  5
2A6
100
AcDbEntity
  8
0
100
AcDbLine
 62
7
  6
CONTINUOUS
 10
95.5178782497
 20
122.5067377634
 11
95.9553781454
 21
121.6131204314
  0
LINE
  5
2A7
100
AcDbEntity
  8
0
100
AcDbLine
 62
7
  6
CONTINUOUS
 10
96.3928780411
 20
122.059929306
 11
96.1741282497
 21
122.6556739159
  0
LINE
  5
2A8
100
AcDbEntity
  8
0
100
AcDbLine
 62
7
  6
CONTINUOUS
 10
83.9880325489
 20
155.1391213328
 11
84.0617542362
 21
154.9226534615
  0
LINE
  5
2A9
100
AcDbEntity
  8
0
100
AcDbLine
 62
7
  6
CONTINUOUS
 10
96.5022532497
 20
121.6131204314
 11
96.3928780411
 21
122.059929306
  0
LINE
  5
2AA
100
AcDbEntity
  8
0
100
AcDbLine
 62
7
  6
CONTINUOUS
 10
93.3303781454
 20
118.7833333261
 11
93.2210031324
 21
119.6769504495
  0
LINE
  5
2AB
100
AcDbEntity
  8
0
100
AcDbLine
 62
7
  6
CONTINUOUS
 10
96.0647530411
 20
120.7195035167
 11
96.0647530411
 21
119.6769504495
  0
LINE
  5
2AC
100
AcDbEntity
  8
0
100
AcDbLine
 62
7
  6
CONTINUOUS
 10
96.6116281454
 20
119.528014297
 11
96.6116281454
 21
120.8684396692
  0
LINE
  5
2AD
100
AcDbEntity
  8
0
100
AcDbLine
 62
7
  6
CONTINUOUS
 10
93.2210031324
 20
120.7195035167
 11
93.3303781454
 21
121.6131204314
  0
LINE
  5
2AE
100
AcDbEntity
  8
0
100
AcDbLine
 62
7
  6
CONTINUOUS
 10
92.7835031487
 20
121.6131204314
 11
92.6741281454
 21
120.8684396692
  0
LINE
  5
2AF
100
AcDbEntity
  8
0
100
AcDbLine
 62
7
  6
CONTINUOUS
 10
103.7057135888
 20
163.6794884479
 11
103.6505979215
 21
163.4301890159
  0
LINE
  5
2B0
100
AcDbEntity
  8
0
100
AcDbLine
 62
7
  6
CONTINUOUS
 10
92.8928781519
 20
122.059929306
 11
92.7835031487
 21
121.6131204314
  0
LINE
  5
2B1
100
AcDbEntity
  8
0
100
AcDbLine
 62
7
  6
CONTINUOUS
 10
106.8240688868
 20
163.6437882193
 11
106.7117097119
 21
163.3450719074
  0
LINE
  5
2B2
100
AcDbEntity
  8
0
100
AcDbLine
 62
7
  6
CONTINUOUS
 10
107.6476877124
 20
162.9930130756
 11
106.7038705176
 21
160.4837957209
  0
LINE
  5
2B3
100
AcDbEntity
  8
0
100
AcDbLine
 62
7
  6
CONTINUOUS
 10
107.0548622259
 20
160.3517736747
 11
107.9986794207
 21
162.8609910294
  0
LINE
  5
2B4
100
AcDbEntity
  8
0
100
AcDbLine
 62
7
  6
CONTINUOUS
 10
113.9904177946
 20
158.9456057737
 11
113.8739950952
 21
158.7935729139
  0
LINE
  5
2B5
100
AcDbEntity
  8
0
100
AcDbLine
 62
7
  6
CONTINUOUS
 10
114.1329183396
 20
158.5149010742
 11
114.2881485692
 21
158.7176115066
  0
LINE
  5
2B6
100
AcDbEntity
  8
0
100
AcDbLine
 62
7
  6
CONTINUOUS
 10
119.3009635525
 20
150.833509318
 11
119.6847859701
 21
151.0551092941
  0
LINE
  5
2B7
100
AcDbEntity
  8
0
100
AcDbLine
 62
7
  6
CONTINUOUS
 10
118.3590523437
 20
149.9432864665
 11
118.7428747613
 21
150.1648864426
  0
LINE
  5
2B8
100
AcDbEntity
  8
0
100
AcDbLine
 62
7
  6
CONTINUOUS
 10
120.5428747613
 20
151.2041169272
 11
120.926697179
 21
151.4257169033
  0
LINE
  5
2B9
100
AcDbEntity
  8
0
100
AcDbLine
 62
7
  6
CONTINUOUS
 10
82.565083786
 20
152.6796054029
 11
82.405734394
 21
152.9150212404
  0
LINE
  5
2BA
100
AcDbEntity
  8
0
100
AcDbLine
 62
7
  6
CONTINUOUS
 10
103.2835027282
 20
119.9748227544
 11
102.955378354
 21
120.5705673642
  0
LINE
  5
2BB
100
AcDbEntity
  8
0
100
AcDbLine
 62
7
  6
CONTINUOUS
 10
102.627253354
 20
119.9748227544
 11
102.8460031454
 21
119.528014297
  0
LINE
  5
2BC
100
AcDbEntity
  8
0
100
AcDbLine
 62
7
  6
CONTINUOUS
 10
84.3934408818
 20
155.1392312618
 11
84.2694598762
 21
155.3950469083
  0
LINE
  5
2BD
100
AcDbEntity
  8
0
100
AcDbLine
 62
7
  6
CONTINUOUS
 10
99.5647531454
 20
118.4854610212
 11
99.7835029368
 21
117.8897163071
  0
LINE
  5
2BE
100
AcDbEntity
  8
0
100
AcDbLine
 62
7
  6
CONTINUOUS
 10
100.4397529368
 20
117.8897163071
 11
100.2210031454
 21
118.4854610212
  0
LINE
  5
2BF
100
AcDbEntity
  8
0
100
AcDbLine
 62
7
  6
CONTINUOUS
 10
89.7720274005
 20
161.630051613
 11
89.8433380341
 21
161.3127549194
  0
LINE
  5
2C0
100
AcDbEntity
  8
0
100
AcDbLine
 62
7
  6
CONTINUOUS
 10
90.1865886555
 20
161.4637648889
 11
90.1409819154
 21
161.7226357881
  0
LINE
  5
2C1
100
AcDbEntity
  8
0
100
AcDbLine
 62
7
  6
CONTINUOUS
 10
92.173982357
 20
161.2920935853
 11
92.2195890971
 21
161.0332226862
  0
LINE
  5
2C2
100
AcDbEntity
  8
0
100
AcDbLine
 62
7
  6
CONTINUOUS
 10
96.6116281454
 20
120.8684396692
 11
96.5022532497
 21
121.6131204314
  0
LINE
  5
2C3
100
AcDbEntity
  8
0
100
AcDbLine
 62
7
  6
CONTINUOUS
 10
95.9553781454
 20
121.6131204314
 11
96.0647530411
 21
120.7195035167
  0
LINE
  5
2C4
100
AcDbEntity
  8
0
100
AcDbLine
 62
7
  6
CONTINUOUS
 10
99.5647531454
 20
123.6982269831
 11
99.5647531454
 21
119.8258866019
  0
LINE
  5
2C5
100
AcDbEntity
  8
0
100
AcDbLine
 62
7
  6
CONTINUOUS
 10
100.1116279368
 20
120.5705673642
 11
100.1116279368
 21
122.9535462208
  0
LINE
  5
2C6
100
AcDbEntity
  8
0
100
AcDbLine
 62
7
  6
CONTINUOUS
 10
96.0647530411
 20
119.6769504495
 11
95.9553781454
 21
118.7833333261
  0
LINE
  5
2C7
100
AcDbEntity
  8
0
100
AcDbLine
 62
7
  6
CONTINUOUS
 10
96.5022532497
 20
118.7833333261
 11
96.6116281454
 21
119.528014297
  0
LINE
  5
2C8
100
AcDbEntity
  8
0
100
AcDbLine
 62
7
  6
CONTINUOUS
 10
104.0305351566
 20
163.4115627409
 11
104.058092971
 21
163.5362123696
  0
LINE
  5
2C9
100
AcDbEntity
  8
0
100
AcDbLine
 62
7
  6
CONTINUOUS
 10
105.1250952858
 20
161.9928953473
 11
105.0837585642
 21
161.8059209043
  0
LINE
  5
2CA
100
AcDbEntity
  8
0
100
AcDbLine
 62
7
  6
CONTINUOUS
 10
105.436137985
 20
161.6626450006
 11
105.5050325209
 21
161.9742690723
  0
LINE
  5
2CB
100
AcDbEntity
  8
0
100
AcDbLine
 62
7
  6
CONTINUOUS
 10
96.3928780411
 20
118.3365248687
 11
96.5022532497
 21
118.7833333261
  0
LINE
  5
2CC
100
AcDbEntity
  8
0
100
AcDbLine
 62
7
  6
CONTINUOUS
 10
93.1116281584
 20
122.6556739159
 11
92.8928781519
 21
122.059929306
  0
LINE
  5
2CD
100
AcDbEntity
  8
0
100
AcDbLine
 62
7
  6
CONTINUOUS
 10
108.9346570864
 20
162.5089323235
 11
109.0470162613
 21
162.8076486354
  0
LINE
  5
2CE
100
AcDbEntity
  8
0
100
AcDbLine
 62
7
  6
CONTINUOUS
 10
93.3303781454
 20
121.6131204314
 11
93.7678781193
 21
122.5067377634
  0
LINE
  5
2CF
100
AcDbEntity
  8
0
100
AcDbLine
 62
7
  6
CONTINUOUS
 10
79.5856196212
 20
150.5913727504
 11
79.7402860075
 21
150.4623273382
  0
LINE
  5
2D0
100
AcDbEntity
  8
0
100
AcDbLine
 62
7
  6
CONTINUOUS
 10
105.2522527282
 20
117.8897163071
 11
105.4710031454
 21
117.2939716451
  0
LINE
  5
2D1
100
AcDbEntity
  8
0
100
AcDbLine
 62
7
  6
CONTINUOUS
 10
103.5022531454
 20
119.2301417835
 11
103.2835027282
 21
119.9748227544
  0
LINE
  5
2D2
100
AcDbEntity
  8
0
100
AcDbLine
 62
7
  6
CONTINUOUS
 10
102.8460031454
 20
119.528014297
 11
102.955378354
 21
119.081205631
  0
LINE
  5
2D3
100
AcDbEntity
  8
0
100
AcDbLine
 62
7
  6
CONTINUOUS
 10
92.5885438674
 20
161.125807169
 11
92.5172329784
 21
161.4431035548
  0
LINE
  5
2D4
100
AcDbEntity
  8
0
100
AcDbLine
 62
7
  6
CONTINUOUS
 10
102.955378354
 20
119.081205631
 11
102.955378354
 21
118.7833333261
  0
LINE
  5
2D5
100
AcDbEntity
  8
0
100
AcDbLine
 62
7
  6
CONTINUOUS
 10
103.2835027282
 20
122.9535462208
 11
103.2835027282
 21
123.6982269831
  0
LINE
  5
2D6
100
AcDbEntity
  8
0
100
AcDbLine
 62
7
  6
CONTINUOUS
 10
96.1741282497
 20
117.7407801546
 11
96.3928780411
 21
118.3365248687
  0
LINE
  5
2D7
100
AcDbEntity
  8
0
100
AcDbLine
 62
7
  6
CONTINUOUS
 10
95.9553781454
 20
118.7833333261
 11
95.5178782497
 21
117.8897163071
  0
LINE
  5
2D8
100
AcDbEntity
  8
0
100
AcDbLine
 62
7
  6
CONTINUOUS
 10
93.4397531193
 20
123.1024823733
 11
93.1116281584
 21
122.6556739159
  0
LINE
  5
2D9
100
AcDbEntity
  8
0
100
AcDbLine
 62
7
  6
CONTINUOUS
 10
79.9386085573
 20
150.7869307993
 11
79.7839421711
 21
150.9159762115
  0
LINE
  5
2DA
100
AcDbEntity
  8
0
100
AcDbLine
 62
7
  6
CONTINUOUS
 10
82.405734394
 20
152.9150212404
 11
82.1599267826
 21
153.127955273
  0
LINE
  5
2DB
100
AcDbEntity
  8
0
100
AcDbLine
 62
7
  6
CONTINUOUS
 10
81.9734425695
 20
152.8026113961
 11
82.1638725063
 21
152.6214193534
  0
LINE
  5
2DC
100
AcDbEntity
  8
0
100
AcDbLine
 62
7
  6
CONTINUOUS
 10
84.2694598762
 20
155.3950469083
 11
84.0566913215
 21
155.6409976787
  0
LINE
  5
2DD
100
AcDbEntity
  8
0
100
AcDbLine
 62
7
  6
CONTINUOUS
 10
83.8255232771
 20
155.3457243557
 11
83.9880325489
 21
155.1391213328
  0
LINE
  5
2DE
100
AcDbEntity
  8
0
100
AcDbLine
 62
7
  6
CONTINUOUS
 10
86.4780716128
 20
160.4617481303
 11
88.0829437845
 21
157.9271110138
  0
LINE
  5
2DF
100
AcDbEntity
  8
0
100
AcDbLine
 62
7
  6
CONTINUOUS
 10
89.8433380341
 20
161.3127549194
 11
90.2288953931
 21
160.4363703767
  0
LINE
  5
2E0
100
AcDbEntity
  8
0
100
AcDbLine
 62
7
  6
CONTINUOUS
 10
90.5721460145
 20
160.5873803462
 11
90.1865886555
 21
161.4637648889
  0
LINE
  5
2E1
100
AcDbEntity
  8
0
100
AcDbLine
 62
7
  6
CONTINUOUS
 10
105.9085027282
 20
117.7407801546
 11
105.7991281454
 21
118.1875887163
  0
LINE
  5
2E2
100
AcDbEntity
  8
0
100
AcDbLine
 62
7
  6
CONTINUOUS
 10
103.5915674817
 20
162.0050756232
 11
103.5718778298
 21
162.2055419113
  0
LINE
  5
2E3
100
AcDbEntity
  8
0
100
AcDbLine
 62
7
  6
CONTINUOUS
 10
103.2057195018
 20
162.2864930006
 11
103.2116302629
 21
162.0237018946
  0
LINE
  5
2E4
100
AcDbEntity
  8
0
100
AcDbLine
 62
7
  6
CONTINUOUS
 10
103.6505979215
 20
163.4301890159
 11
103.656508688
 21
163.1673979087
  0
LINE
  5
2E5
100
AcDbEntity
  8
0
100
AcDbLine
 62
7
  6
CONTINUOUS
 10
103.5022531454
 20
118.6343971737
 11
103.5022531454
 21
119.2301417835
  0
LINE
  5
2E6
100
AcDbEntity
  8
0
100
AcDbLine
 62
7
  6
CONTINUOUS
 10
104.3772535626
 20
121.464184279
 11
104.3772535626
 21
120.8684396692
  0
LINE
  5
2E7
100
AcDbEntity
  8
0
100
AcDbLine
 62
7
  6
CONTINUOUS
 10
105.2522527282
 20
122.6556739159
 11
105.2522527282
 21
121.464184279
  0
LINE
  5
2E8
100
AcDbEntity
  8
0
100
AcDbLine
 62
7
  6
CONTINUOUS
 10
105.2522527282
 20
120.8684396692
 11
105.2522527282
 21
117.8897163071
  0
LINE
  5
2E9
100
AcDbEntity
  8
0
100
AcDbLine
 62
7
  6
CONTINUOUS
 10
105.7991281454
 20
118.1875887163
 11
105.7991281454
 21
120.8684396692
  0
LINE
  5
2EA
100
AcDbEntity
  8
0
100
AcDbLine
 62
7
  6
CONTINUOUS
 10
105.7991281454
 20
121.464184279
 11
105.7991281454
 21
122.6556739159
  0
LINE
  5
2EB
100
AcDbEntity
  8
0
100
AcDbLine
 62
7
  6
CONTINUOUS
 10
105.838190407
 20
113.9982269831
 11
105.838190407
 21
97.2482269831
  0
LINE
  5
2EC
100
AcDbEntity
  8
0
100
AcDbLine
 62
7
  6
CONTINUOUS
 10
110.6360881793
 20
158.5792193665
 11
111.2174491227
 21
161.6875984307
  0
LINE
  5
2ED
100
AcDbEntity
  8
0
100
AcDbLine
 62
7
  6
CONTINUOUS
 10
110.4612798257
 20
159.5522344963
 11
110.3081966116
 21
158.7611867257
  0
LINE
  5
2EE
100
AcDbEntity
  8
0
100
AcDbLine
 62
7
  6
CONTINUOUS
 10
110.8749622974
 20
161.5856645918
 11
110.530524095
 21
159.8058075699
  0
LINE
  5
2EF
100
AcDbEntity
  8
0
100
AcDbLine
 62
7
  6
CONTINUOUS
 10
102.955378354
 20
118.7833333261
 11
102.8460031454
 21
118.3365248687
  0
LINE
  5
2F0
100
AcDbEntity
  8
0
100
AcDbLine
 62
7
  6
CONTINUOUS
 10
112.9406988706
 20
156.855219709
 11
113.3866760123
 21
158.3627954218
  0
LINE
  5
2F1
100
AcDbEntity
  8
0
100
AcDbLine
 62
7
  6
CONTINUOUS
 10
113.0113301773
 20
158.4894345438
 11
112.5933464895
 21
157.1212128758
  0
LINE
  5
2F2
100
AcDbEntity
  8
0
100
AcDbLine
 62
7
  6
CONTINUOUS
 10
114.0572182109
 20
159.135637826
 11
113.9904177946
 21
158.9456057737
  0
LINE
  5
2F3
100
AcDbEntity
  8
0
100
AcDbLine
 62
7
  6
CONTINUOUS
 10
114.2881485692
 20
158.7176115066
 11
114.3549489855
 21
158.9076435588
  0
LINE
  5
2F4
100
AcDbEntity
  8
0
100
AcDbLine
 62
7
  6
CONTINUOUS
 10
98.1428779368
 20
117.4429078497
 11
97.4866282497
 21
115.804609964
  0
LINE
  5
2F5
100
AcDbEntity
  8
0
100
AcDbLine
 62
7
  6
CONTINUOUS
 10
98.033503354
 20
115.804609964
 11
98.689753354
 21
117.4429078497
  0
LINE
  5
2F6
100
AcDbEntity
  8
0
100
AcDbLine
 62
7
  6
CONTINUOUS
 10
95.8460032497
 20
117.2939716451
 11
96.1741282497
 21
117.7407801546
  0
LINE
  5
2F7
100
AcDbEntity
  8
0
100
AcDbLine
 62
7
  6
CONTINUOUS
 10
93.7678781193
 20
122.5067377634
 11
94.0960031976
 21
122.8046100683
  0
LINE
  5
2F8
100
AcDbEntity
  8
0
100
AcDbLine
 62
7
  6
CONTINUOUS
 10
93.9866281454
 20
123.5492908306
 11
93.4397531193
 21
123.1024823733
  0
LINE
  5
2F9
100
AcDbEntity
  8
0
100
AcDbLine
 62
7
  6
CONTINUOUS
 10
78.037312628
 20
149.1233117899
 11
80.8234747779
 21
148.0109717005
  0
LINE
  5
2FA
100
AcDbEntity
  8
0
100
AcDbLine
 62
7
  6
CONTINUOUS
 10
79.3243132704
 20
152.1598936775
 11
81.0410214151
 21
151.1758918562
  0
LINE
  5
2FB
100
AcDbEntity
  8
0
100
AcDbLine
 62
7
  6
CONTINUOUS
 10
81.2275057171
 20
151.5012358883
 11
79.5107975724
 21
152.4852377096
  0
LINE
  5
2FC
100
AcDbEntity
  8
0
100
AcDbLine
 62
7
  6
CONTINUOUS
 10
80.9575331878
 20
154.8922893852
 11
83.3197197719
 21
153.0429450307
  0
LINE
  5
2FD
100
AcDbEntity
  8
0
100
AcDbLine
 62
7
  6
CONTINUOUS
 10
83.2493320828
 20
153.5743048665
 11
81.4902569303
 21
154.9514762231
  0
LINE
  5
2FE
100
AcDbEntity
  8
0
100
AcDbLine
 62
7
  6
CONTINUOUS
 10
85.5643371952
 20
159.7340876706
 11
87.4068436685
 21
157.3665636694
  0
LINE
  5
2FF
100
AcDbEntity
  8
0
100
AcDbLine
 62
7
  6
CONTINUOUS
 10
87.7027841686
 20
157.5968769786
 11
85.8602776954
 21
159.9644009797
  0
LINE
  5
300
100
AcDbEntity
  8
0
100
AcDbLine
 62
7
  6
CONTINUOUS
 10
88.3997734241
 20
158.1277200353
 11
86.9997785265
 21
160.3387864946
  0
LINE
  5
301
100
AcDbEntity
  8
0
100
AcDbLine
 62
7
  6
CONTINUOUS
 10
88.2734395956
 20
161.5985326012
 11
89.6392882569
 21
159.4413946225
  0
LINE
  5
302
100
AcDbEntity
  8
0
100
AcDbLine
 62
7
  6
CONTINUOUS
 10
90.1951414068
 20
159.2645045062
 11
88.5902692351
 21
161.7991416227
  0
LINE
  5
303
100
AcDbEntity
  8
0
100
AcDbLine
 62
7
  6
CONTINUOUS
 10
91.788424998
 20
162.168478128
 11
92.173982357
 21
161.2920935853
  0
LINE
  5
304
100
AcDbEntity
  8
0
100
AcDbLine
 62
7
  6
CONTINUOUS
 10
92.5172329784
 20
161.4431035548
 11
92.1316756194
 21
162.3194880975
  0
LINE
  5
305
100
AcDbEntity
  8
0
100
AcDbLine
 62
7
  6
CONTINUOUS
 10
104.0502248085
 20
163.2110964529
 11
104.0305351566
 21
163.4115627409
  0
LINE
  5
306
100
AcDbEntity
  8
0
100
AcDbLine
 62
7
  6
CONTINUOUS
 10
105.5975315584
 20
163.2612411659
 11
105.5778419502
 21
163.4617074443
  0
LINE
  5
307
100
AcDbEntity
  8
0
100
AcDbLine
 62
7
  6
CONTINUOUS
 10
106.7835031454
 20
116.6982269831
 11
106.7835031454
 21
117.2939716451
  0
LINE
  5
308
100
AcDbEntity
  8
0
100
AcDbLine
 62
7
  6
CONTINUOUS
 10
107.0022535626
 20
120.8684396692
 11
107.0022535626
 21
121.464184279
  0
LINE
  5
309
100
AcDbEntity
  8
0
100
AcDbLine
 62
7
  6
CONTINUOUS
 10
108.838190407
 20
114.1982269831
 11
108.838190407
 21
113.9982269831
  0
LINE
  5
30A
100
AcDbEntity
  8
0
100
AcDbLine
 62
7
  6
CONTINUOUS
 10
103.2835027282
 20
117.8897163071
 11
103.5022531454
 21
118.6343971737
  0
LINE
  5
30B
100
AcDbEntity
  8
0
100
AcDbLine
 62
7
  6
CONTINUOUS
 10
102.8460031454
 20
118.3365248687
 11
102.627253354
 21
117.8897163071
  0
LINE
  5
30C
100
AcDbEntity
  8
0
100
AcDbLine
 62
7
  6
CONTINUOUS
 10
95.5178782497
 20
117.8897163071
 11
95.1897530933
 21
117.5918440021
  0
LINE
  5
30D
100
AcDbEntity
  8
0
100
AcDbLine
 62
7
  6
CONTINUOUS
 10
80.9625172891
 20
148.3592419692
 11
79.7176363108
 21
148.8562449949
  0
LINE
  5
30E
100
AcDbEntity
  8
0
100
AcDbLine
 62
7
  6
CONTINUOUS
 10
79.3619560788
 20
148.9982458405
 11
78.4727553326
 21
149.3532480206
  0
LINE
  5
30F
100
AcDbEntity
  8
0
100
AcDbLine
 62
7
  6
CONTINUOUS
 10
79.4077793391
 20
150.6623732395
 11
79.5856196212
 21
150.5913727504
  0
LINE
  5
310
100
AcDbEntity
  8
0
100
AcDbLine
 62
7
  6
CONTINUOUS
 10
79.7839421711
 20
150.9159762115
 11
79.5468218503
 21
151.0106435082
  0
LINE
  5
311
100
AcDbEntity
  8
0
100
AcDbLine
 62
7
  6
CONTINUOUS
 10
80.2567344248
 20
153.7866132174
 11
81.9734425695
 21
152.8026113961
  0
LINE
  5
312
100
AcDbEntity
  8
0
100
AcDbLine
 62
7
  6
CONTINUOUS
 10
82.1599267826
 20
153.127955273
 11
80.4432186378
 21
154.1119570944
  0
LINE
  5
313
100
AcDbEntity
  8
0
100
AcDbLine
 62
7
  6
CONTINUOUS
 10
83.0716339613
 20
155.9359406238
 11
83.8255232771
 21
155.3457243557
  0
LINE
  5
314
100
AcDbEntity
  8
0
100
AcDbLine
 62
7
  6
CONTINUOUS
 10
84.0566913215
 20
155.6409976787
 11
83.3028020056
 21
156.2312139468
  0
LINE
  5
315
100
AcDbEntity
  8
0
100
AcDbLine
 62
7
  6
CONTINUOUS
 10
90.7321698467
 20
160.3788461996
 11
90.5721460145
 21
160.5873803462
  0
LINE
  5
316
100
AcDbEntity
  8
0
100
AcDbLine
 62
7
  6
CONTINUOUS
 10
90.2288953931
 20
160.4363703767
 11
90.4146230468
 21
160.1694105994
  0
LINE
  5
317
100
AcDbEntity
  8
0
100
AcDbLine
 62
7
  6
CONTINUOUS
 10
102.955378354
 20
117.2939716451
 11
103.2835027282
 21
117.8897163071
  0
LINE
  5
318
100
AcDbEntity
  8
0
100
AcDbLine
 62
7
  6
CONTINUOUS
 10
100.330378354
 20
119.8258866019
 11
100.7678779368
 21
120.2726950593
  0
LINE
  5
319
100
AcDbEntity
  8
0
100
AcDbLine
 62
7
  6
CONTINUOUS
 10
95.2991281454
 20
116.8471631486
 11
95.8460032497
 21
117.2939716451
  0
LINE
  5
31A
100
AcDbEntity
  8
0
100
AcDbLine
 62
7
  6
CONTINUOUS
 10
100.658503354
 20
121.0173758216
 11
100.1116279368
 21
120.5705673642
  0
LINE
  5
31B
100
AcDbEntity
  8
0
100
AcDbLine
 62
7
  6
CONTINUOUS
 10
100.7678779368
 20
120.2726950593
 11
101.2053781454
 21
120.4216312118
  0
LINE
  5
31C
100
AcDbEntity
  8
0
100
AcDbLine
 62
7
  6
CONTINUOUS
 10
81.4800969991
 20
151.4284917012
 11
81.2275057171
 21
151.5012358883
  0
LINE
  5
31D
100
AcDbEntity
  8
0
100
AcDbLine
 62
7
  6
CONTINUOUS
 10
81.0410214151
 20
151.1758918562
 11
81.3489905495
 21
151.0714059895
  0
LINE
  5
31E
100
AcDbEntity
  8
0
100
AcDbLine
 62
7
  6
CONTINUOUS
 10
83.3028020056
 20
156.2312139468
 11
83.0129775892
 21
156.378740762
  0
LINE
  5
31F
100
AcDbEntity
  8
0
100
AcDbLine
 62
7
  6
CONTINUOUS
 10
91.6284011658
 20
162.3770122746
 11
91.788424998
 21
162.168478128
  0
LINE
  5
320
100
AcDbEntity
  8
0
100
AcDbLine
 62
7
  6
CONTINUOUS
 10
92.1316756194
 20
162.3194880975
 11
91.945948221
 21
162.5864481826
  0
LINE
  5
321
100
AcDbEntity
  8
0
100
AcDbLine
 62
7
  6
CONTINUOUS
 10
103.2116302629
 20
162.0237018946
 11
103.325814882
 21
161.6716022115
  0
LINE
  5
322
100
AcDbEntity
  8
0
100
AcDbLine
 62
7
  6
CONTINUOUS
 10
105.5050325209
 20
161.9742690723
 11
105.4380955093
 21
162.2505520877
  0
LINE
  5
323
100
AcDbEntity
  8
0
100
AcDbLine
 62
7
  6
CONTINUOUS
 10
105.197904715
 20
163.4803337193
 11
105.2313732305
 21
163.3421922552
  0
LINE
  5
324
100
AcDbEntity
  8
0
100
AcDbLine
 62
7
  6
CONTINUOUS
 10
114.3549489855
 20
158.9076435588
 11
114.361313719
 21
159.2243509829
  0
LINE
  5
325
100
AcDbEntity
  8
0
100
AcDbLine
 62
7
  6
CONTINUOUS
 10
102.627253354
 20
117.8897163071
 11
102.299128354
 21
117.5918440021
  0
LINE
  5
326
100
AcDbEntity
  8
0
100
AcDbLine
 62
7
  6
CONTINUOUS
 10
102.4085029368
 20
116.8471631486
 11
102.955378354
 21
117.2939716451
  0
LINE
  5
327
100
AcDbEntity
  8
0
100
AcDbLine
 62
7
  6
CONTINUOUS
 10
102.299128354
 20
117.5918440021
 11
101.8616281454
 21
117.4429078497
  0
LINE
  5
328
100
AcDbEntity
  8
0
100
AcDbLine
 62
7
  6
CONTINUOUS
 10
80.1115900815
 20
149.8430107287
 11
81.5418610636
 21
149.8103680336
  0
LINE
  5
329
100
AcDbEntity
  8
0
100
AcDbLine
 62
7
  6
CONTINUOUS
 10
79.2067654933
 20
150.6753286728
 11
79.4077793391
 21
150.6623732395
  0
LINE
  5
32A
100
AcDbEntity
  8
0
100
AcDbLine
 62
7
  6
CONTINUOUS
 10
82.8320689687
 20
156.0441195812
 11
83.0716339613
 21
155.9359406238
  0
LINE
  5
32B
100
AcDbEntity
  8
0
100
AcDbLine
 62
7
  6
CONTINUOUS
 10
90.4146230468
 20
160.1694105994
 11
90.6318551156
 21
159.986044644
  0
LINE
  5
32C
100
AcDbEntity
  8
0
100
AcDbLine
 62
7
  6
CONTINUOUS
 10
105.044379367
 20
162.2068535484
 11
105.1250952858
 21
161.9928953473
  0
LINE
  5
32D
100
AcDbEntity
  8
0
100
AcDbLine
 62
7
  6
CONTINUOUS
 10
81.7083915457
 20
151.4417138972
 11
81.4800969991
 21
151.4284917012
  0
LINE
  5
32E
100
AcDbEntity
  8
0
100
AcDbLine
 62
7
  6
CONTINUOUS
 10
81.7040773708
 20
150.2166834578
 11
80.1320725484
 21
150.2386146956
  0
LINE
  5
32F
100
AcDbEntity
  8
0
100
AcDbLine
 62
7
  6
CONTINUOUS
 10
79.5468218503
 20
151.0106435082
 11
79.3458080045
 21
151.0235989416
  0
LINE
  5
330
100
AcDbEntity
  8
0
100
AcDbLine
 62
7
  6
CONTINUOUS
 10
81.3489905495
 20
151.0714059895
 11
81.6326627206
 21
151.0528860182
  0
LINE
  5
331
100
AcDbEntity
  8
0
100
AcDbLine
 62
7
  6
CONTINUOUS
 10
83.0129775892
 20
156.378740762
 11
82.7348842953
 21
156.4377071234
  0
LINE
  5
332
100
AcDbEntity
  8
0
100
AcDbLine
 62
7
  6
CONTINUOUS
 10
89.6392882569
 20
159.4413946225
 11
86.9533160722
 21
160.7626616625
  0
LINE
  5
333
100
AcDbEntity
  8
0
100
AcDbLine
 62
7
  6
CONTINUOUS
 10
86.9997785265
 20
160.3387864946
 11
89.7198969475
 21
158.963590974
  0
LINE
  5
334
100
AcDbEntity
  8
0
100
AcDbLine
 62
7
  6
CONTINUOUS
 10
90.923698076
 20
160.2539059159
 11
90.7321698467
 21
160.3788461996
  0
LINE
  5
335
100
AcDbEntity
  8
0
100
AcDbLine
 62
7
  6
CONTINUOUS
 10
92.6197813471
 20
163.5718885501
 11
94.0290786701
 21
162.4325641086
  0
LINE
  5
336
100
AcDbEntity
  8
0
100
AcDbLine
 62
7
  6
CONTINUOUS
 10
94.2934810261
 20
162.1735203607
 11
95.4550608611
 21
161.231629149
  0
LINE
  5
337
100
AcDbEntity
  8
0
100
AcDbLine
 62
7
  6
CONTINUOUS
 10
95.8170237968
 20
161.3296487043
 11
94.3910416058
 21
162.5305836639
  0
LINE
  5
338
100
AcDbEntity
  8
0
100
AcDbLine
 62
7
  6
CONTINUOUS
 10
91.945948221
 20
162.5864481826
 11
91.7287158429
 21
162.769813953
  0
LINE
  5
339
100
AcDbEntity
  8
0
100
AcDbLine
 62
7
  6
CONTINUOUS
 10
103.7333099145
 20
161.7776255919
 11
103.5915674817
 21
162.0050756232
  0
LINE
  5
33A
100
AcDbEntity
  8
0
100
AcDbLine
 62
7
  6
CONTINUOUS
 10
103.656508688
 20
163.1673979087
 11
103.8454986186
 21
162.8641312568
  0
LINE
  5
33B
100
AcDbEntity
  8
0
100
AcDbLine
 62
7
  6
CONTINUOUS
 10
105.5778419502
 20
163.4617074443
 11
105.4498784149
 21
163.7514822464
  0
LINE
  5
33C
100
AcDbEntity
  8
0
100
AcDbLine
 62
7
  6
CONTINUOUS
 10
114.0355900584
 20
159.3129907704
 11
114.0572182109
 21
159.135637826
  0
LINE
  5
33D
100
AcDbEntity
  8
RUNDUNGEN
100
AcDbLine
 62
7
  6
CONTINUOUS
 10
127.6470398809
 20
140.7521766268
 11
118.1388743156
 21
120.3618497708
  0
LINE
  5
33E
100
AcDbEntity
  8
BEZUGSACHSEN
100
AcDbLine
 62
7
  6
CONTINUOUS
 10
118.1388743156
 20
120.3618497708
 11
117.8571883496
 21
119.7577722672
  0
LINE
  5
33F
100
AcDbEntity
  8
0
100
AcDbLine
 62
7
  6
CONTINUOUS
 10
81.6326627206
 20
151.0528860182
 11
81.9784961285
 21
151.1428137584
  0
LINE
  5
340
100
AcDbEntity
  8
0
100
AcDbLine
 62
7
  6
CONTINUOUS
 10
79.3458080045
 20
151.0235989416
 11
79.0391665942
 21
150.9441310375
  0
LINE
  5
341
100
AcDbEntity
  8
0
100
AcDbLine
 62
7
  6
CONTINUOUS
 10
82.6042348171
 20
156.0637383053
 11
82.8320689687
 21
156.0441195812
  0
LINE
  5
342
100
AcDbEntity
  8
0
100
AcDbLine
 62
7
  6
CONTINUOUS
 10
90.6318551156
 20
159.986044644
 11
90.9635042675
 21
159.8530154617
  0
LINE
  5
343
100
AcDbEntity
  8
0
100
AcDbLine
 62
7
  6
CONTINUOUS
 10
91.4368728645
 20
162.501952722
 11
91.6284011658
 21
162.3770122746
  0
LINE
  5
344
100
AcDbEntity
  8
0
100
AcDbLine
 62
7
  6
CONTINUOUS
 10
94.1433234274
 20
162.7280167067
 11
92.9817442828
 21
163.6699081053
  0
LINE
  5
345
100
AcDbEntity
  8
0
100
AcDbLine
 62
7
  6
CONTINUOUS
 10
105.4380955093
 20
162.2505520877
 11
105.2491054697
 21
162.5538187638
  0
LINE
  5
346
100
AcDbEntity
  8
0
100
AcDbLine
 62
7
  6
CONTINUOUS
 10
105.1034096952
 20
163.6319670573
 11
105.197904715
 21
163.4803337193
  0
LINE
  5
347
100
AcDbEntity
  8
0
100
AcDbLine
 62
7
  6
CONTINUOUS
 10
114.361313719
 20
159.2243509829
 11
114.2792493159
 21
159.5283797339
  0
LINE
  5
348
100
AcDbEntity
  8
0
100
AcDbLine
 62
7
  6
CONTINUOUS
 10
113.7079503303
 20
158.6795395305
 11
113.5310920569
 21
158.6541821845
  0
LINE
  5
349
100
AcDbEntity
  8
0
100
AcDbLine
 62
7
  6
CONTINUOUS
 10
82.7348842953
 20
156.4377071234
 11
82.3797352806
 21
156.3982494192
  0
LINE
  5
34A
100
AcDbEntity
  8
0
100
AcDbLine
 62
7
  6
CONTINUOUS
 10
91.1467310478
 20
160.2125595983
 11
90.923698076
 21
160.2539059159
  0
LINE
  5
34B
100
AcDbEntity
  8
0
100
AcDbLine
 62
7
  6
CONTINUOUS
 10
91.7287158429
 20
162.769813953
 11
91.3970667
 21
162.9028431148
  0
LINE
  5
34C
100
AcDbEntity
  8
0
100
AcDbLine
 62
7
  6
CONTINUOUS
 10
103.8454986186
 20
162.8641312568
 11
104.0620463416
 21
162.6855142384
  0
LINE
  5
34D
100
AcDbEntity
  8
0
100
AcDbLine
 62
7
  6
CONTINUOUS
 10
103.325814882
 20
161.6716022115
 11
103.5896100895
 21
161.4171685126
  0
LINE
  5
34E
100
AcDbEntity
  8
0
100
AcDbLine
 62
7
  6
CONTINUOUS
 10
104.2057462018
 20
163.0459712699
 11
104.0502248085
 21
163.2110964529
  0
LINE
  5
34F
100
AcDbEntity
  8
0
100
AcDbLine
 62
7
  6
CONTINUOUS
 10
104.8888580174
 20
162.3719787217
 11
105.044379367
 21
162.2068535484
  0
LINE
  5
350
100
AcDbEntity
  8
0
100
AcDbLine
 62
7
  6
CONTINUOUS
 10
105.4498784149
 20
163.7514822464
 11
105.2471096427
 21
163.9924240695
  0
LINE
  5
351
100
AcDbEntity
  8
0
100
AcDbLine
 62
7
  6
CONTINUOUS
 10
93.4039377892
 20
160.6761850648
 11
93.7659007249
 21
160.7742046201
  0
LINE
  5
352
100
AcDbEntity
  8
0
100
AcDbLine
 62
7
  6
CONTINUOUS
 10
95.4550608611
 20
161.231629149
 11
95.8170237968
 21
161.3296487043
  0
LINE
  5
353
100
AcDbEntity
  8
0
100
AcDbLine
 62
7
  6
CONTINUOUS
 10
104.6880850734
 20
161.1743152446
 11
104.9597483851
 21
161.2449975096
  0
LINE
  5
354
100
AcDbEntity
  8
0
100
AcDbLine
 62
7
  6
CONTINUOUS
 10
91.2437457741
 20
159.8368375459
 11
91.5554916732
 21
159.9042535033
  0
LINE
  5
355
100
AcDbEntity
  8
0
100
AcDbLine
 62
7
  6
CONTINUOUS
 10
91.401268726
 20
160.2548073286
 11
91.1467310478
 21
160.2125595983
  0
LINE
  5
356
100
AcDbEntity
  8
0
100
AcDbLine
 62
7
  6
CONTINUOUS
 10
104.7097321951
 20
161.5617560042
 11
104.4518477068
 21
161.5533985892
  0
LINE
  5
357
100
AcDbEntity
  8
0
100
AcDbLine
 62
7
  6
CONTINUOUS
 10
104.3691742541
 20
161.1794496594
 11
104.6880850734
 21
161.1743152446
  0
LINE
  5
358
100
AcDbEntity
  8
0
100
AcDbLine
 62
7
  6
CONTINUOUS
 10
90.9635042675
 20
159.8530154617
 11
91.2437457741
 21
159.8368375459
  0
LINE
  5
359
100
AcDbEntity
  8
0
100
AcDbLine
 62
7
  6
CONTINUOUS
 10
113.3866760123
 20
158.3627954218
 11
113.6627780665
 21
158.3121545339
  0
LINE
  5
35A
100
AcDbEntity
  8
0
100
AcDbLine
 62
7
  6
CONTINUOUS
 10
91.2138399107
 20
162.5432989987
 11
91.4368728645
 21
162.501952722
  0
LINE
  5
35B
100
AcDbEntity
  8
0
100
AcDbLine
 62
7
  6
CONTINUOUS
 10
103.880963092
 20
161.2873844581
 11
104.3691742541
 21
161.1794496594
  0
LINE
  5
35C
100
AcDbEntity
  8
0
100
AcDbLine
 62
7
  6
CONTINUOUS
 10
104.4518477068
 20
161.5533985892
 11
103.9636365447
 21
161.6613333878
  0
LINE
  5
35D
100
AcDbEntity
  8
0
100
AcDbLine
 62
7
  6
CONTINUOUS
 10
113.5310920569
 20
158.6541821845
 11
113.3434191394
 21
158.7175017454
  0
LINE
  5
35E
100
AcDbEntity
  8
0
100
AcDbLine
 62
7
  6
CONTINUOUS
 10
106.7038705176
 20
160.4837957209
 11
107.0548622259
 21
160.3517736747
  0
LINE
  5
35F
100
AcDbEntity
  8
0
100
AcDbLine
 62
7
  6
CONTINUOUS
 10
103.5896100895
 20
161.4171685126
 11
103.880963092
 21
161.2873844581
  0
LINE
  5
360
100
AcDbEntity
  8
0
100
AcDbLine
 62
7
  6
CONTINUOUS
 10
103.9636365447
 20
161.6613333878
 11
103.7333099145
 21
161.7776255919
  0
LINE
  5
361
100
AcDbEntity
  8
0
100
AcDbLine
 62
7
  6
CONTINUOUS
 10
104.0620463416
 20
162.6855142384
 11
104.2923730155
 21
162.5692220247
  0
LINE
  5
362
100
AcDbEntity
  8
0
100
AcDbLine
 62
7
  6
CONTINUOUS
 10
104.6585313435
 20
162.4882709354
 11
104.8888580174
 21
162.3719787217
  0
LINE
  5
363
100
AcDbEntity
  8
0
100
AcDbLine
 62
7
  6
CONTINUOUS
 10
108.4501442905
 20
159.7923351528
 11
108.7780355455
 21
159.6103679671
  0
LINE
  5
364
100
AcDbEntity
  8
0
100
AcDbLine
 62
7
  6
CONTINUOUS
 10
110.3081966116
 20
158.7611867257
 11
110.6360881793
 21
158.5792193665
  0
LINE
  5
365
100
AcDbEntity
  8
0
100
AcDbLine
 62
7
  6
CONTINUOUS
 10
109.3683083504
 20
160.1587921292
 11
110.4612798257
 21
159.5522344963
  0
LINE
  5
366
100
AcDbEntity
  8
0
100
AcDbLine
 62
7
  6
CONTINUOUS
 10
110.530524095
 20
159.8058075699
 11
109.5468493919
 21
160.3517096478
  0
LINE
  5
367
100
AcDbEntity
  8
0
100
AcDbLine
 62
7
  6
CONTINUOUS
 10
104.3750464586
 20
162.9431709108
 11
104.2057462018
 21
163.0459712699
  0
LINE
  5
368
100
AcDbEntity
  8
0
100
AcDbLine
 62
7
  6
CONTINUOUS
 10
111.0550704423
 20
158.2991835461
 11
111.3528012168
 21
158.0711892789
  0
LINE
  5
369
100
AcDbEntity
  8
0
100
AcDbLine
 62
7
  6
CONTINUOUS
 10
112.5933464895
 20
157.1212128758
 11
112.9406988706
 21
156.855219709
  0
LINE
  5
36A
100
AcDbEntity
  8
0
100
AcDbLine
 62
7
  6
CONTINUOUS
 10
112.16775946
 20
159.1354184458
 11
113.0113301773
 21
158.4894345438
  0
LINE
  5
36B
100
AcDbEntity
  8
0
100
AcDbLine
 62
7
  6
CONTINUOUS
 10
113.3434191394
 20
158.7175017454
 11
112.4006046413
 21
159.4394838814
  0
LINE
  5
36C
100
AcDbEntity
  8
0
100
AcDbLine
 62
7
  6
CONTINUOUS
 10
105.2491054697
 20
162.5538187638
 11
105.0325577903
 21
162.7324357725
  0
LINE
  5
36D
100
AcDbEntity
  8
0
100
AcDbLine
 62
7
  6
CONTINUOUS
 10
114.2792493159
 20
159.5283797339
 11
114.069947678
 21
159.7690526741
  0
LINE
  5
36E
100
AcDbEntity
  8
0
100
AcDbLine
 62
7
  6
CONTINUOUS
 10
113.9255322013
 20
159.4776654766
 11
114.0355900584
 21
159.3129907704
  0
LINE
  5
36F
100
AcDbEntity
  8
0
100
AcDbLine
 62
7
  6
CONTINUOUS
 10
118.8627887649
 20
151.5924503127
 11
119.3009635525
 21
150.833509318
  0
LINE
  5
370
100
AcDbEntity
  8
0
100
AcDbLine
 62
7
  6
CONTINUOUS
 10
119.6847859701
 20
151.0551092941
 11
119.2466111825
 21
151.8140502889
  0
LINE
  5
371
100
AcDbEntity
  8
0
100
AcDbLine
 62
7
  6
CONTINUOUS
 10
119.1891122897
 20
153.5667529963
 11
119.2828747613
 21
153.3865009447
  0
LINE
  5
372
100
AcDbEntity
  8
0
100
AcDbLine
 62
7
  6
CONTINUOUS
 10
105.838190407
 20
97.2482269831
 11
104.588190407
 21
95.9982269831
  0
LINE
  5
373
100
AcDbEntity
  8
0
100
AcDbLine
 62
7
  6
CONTINUOUS
 10
95.0328673547
 20
164.2253521895
 11
94.670904419
 21
164.1273326342
  0
LINE
  5
374
100
AcDbEntity
  8
0
100
AcDbLine
 62
7
  6
CONTINUOUS
 10
92.9817442828
 20
163.6699081053
 11
92.6197813471
 21
163.5718885501
  0
LINE
  5
375
100
AcDbEntity
  8
0
100
AcDbLine
 62
7
  6
CONTINUOUS
 10
104.3927401525
 20
164.1813099574
 11
104.1210768008
 21
164.1106277184
  0
LINE
  5
376
100
AcDbEntity
  8
0
100
AcDbLine
 62
7
  6
CONTINUOUS
 10
91.1168255275
 20
162.9190211593
 11
90.8050793033
 21
162.8516050527
  0
LINE
  5
377
100
AcDbEntity
  8
0
100
AcDbLine
 62
7
  6
CONTINUOUS
 10
90.9593022325
 20
162.5010512684
 11
91.2138399107
 21
162.5432989987
  0
LINE
  5
378
100
AcDbEntity
  8
0
100
AcDbLine
 62
7
  6
CONTINUOUS
 10
104.3710931266
 20
163.7938692167
 11
104.5679511977
 21
163.8157184864
  0
LINE
  5
379
100
AcDbEntity
  8
0
100
AcDbLine
 62
7
  6
CONTINUOUS
 10
104.6506246408
 20
164.1896673725
 11
104.3927401525
 21
164.1813099574
  0
LINE
  5
37A
100
AcDbEntity
  8
0
100
AcDbLine
 62
7
  6
CONTINUOUS
 10
91.3970667
 20
162.9028431148
 11
91.1168255275
 21
162.9190211593
  0
LINE
  5
37B
100
AcDbEntity
  8
0
100
AcDbLine
 62
7
  6
CONTINUOUS
 10
103.5718778298
 20
162.2055419113
 11
103.2057195018
 21
162.2864930006
  0
LINE
  5
37C
100
AcDbEntity
  8
0
100
AcDbLine
 62
7
  6
CONTINUOUS
 10
104.2923730155
 20
162.5692220247
 11
104.6585313435
 21
162.4882709354
  0
LINE
  5
37D
100
AcDbEntity
  8
0
100
AcDbLine
 62
7
  6
CONTINUOUS
 10
104.7412047866
 20
162.8622198215
 11
104.3750464586
 21
162.9431709108
  0
LINE
  5
37E
100
AcDbEntity
  8
0
100
AcDbLine
 62
7
  6
CONTINUOUS
 10
105.2313732305
 20
163.3421922552
 11
105.5975315584
 21
163.2612411659
  0
LINE
  5
37F
100
AcDbEntity
  8
0
100
AcDbLine
 62
7
  6
CONTINUOUS
 10
104.5679511977
 20
163.8157184864
 11
104.9341095257
 21
163.734767397
  0
LINE
  5
380
100
AcDbEntity
  8
0
100
AcDbLine
 62
7
  6
CONTINUOUS
 10
104.9557565517
 20
164.1222081378
 11
104.6506246408
 21
164.1896673725
  0
LINE
  5
381
100
AcDbEntity
  8
0
100
AcDbLine
 62
7
  6
CONTINUOUS
 10
106.7117097119
 20
163.3450719074
 11
107.6476877124
 21
162.9930130756
  0
LINE
  5
382
100
AcDbEntity
  8
0
100
AcDbLine
 62
7
  6
CONTINUOUS
 10
107.9986794207
 20
162.8609910294
 11
108.9346570864
 21
162.5089323235
  0
LINE
  5
383
100
AcDbEntity
  8
0
100
AcDbLine
 62
7
  6
CONTINUOUS
 10
109.0470162613
 20
162.8076486354
 11
106.8240688868
 21
163.6437882193
  0
LINE
  5
384
100
AcDbEntity
  8
0
100
AcDbLine
 62
7
  6
CONTINUOUS
 10
105.0325577903
 20
162.7324357725
 11
104.7412047866
 21
162.8622198215
  0
LINE
  5
385
100
AcDbEntity
  8
0
100
AcDbLine
 62
7
  6
CONTINUOUS
 10
105.2471096427
 20
163.9924240695
 11
104.9557565517
 21
164.1222081378
  0
LINE
  5
386
100
AcDbEntity
  8
0
100
AcDbLine
 62
7
  6
CONTINUOUS
 10
111.2174491227
 20
161.6875984307
 11
110.7802607827
 21
161.930221345
  0
LINE
  5
387
100
AcDbEntity
  8
0
100
AcDbLine
 62
7
  6
CONTINUOUS
 10
104.9341095257
 20
163.734767397
 11
105.1034096952
 21
163.6319670573
  0
LINE
  5
388
100
AcDbEntity
  8
0
100
AcDbLine
 62
7
  6
CONTINUOUS
 10
112.9827177032
 20
160.1996476126
 11
113.9255322013
 21
159.4776654766
  0
LINE
  5
389
100
AcDbEntity
  8
0
100
AcDbLine
 62
7
  6
CONTINUOUS
 10
114.069947678
 20
159.7690526741
 11
112.8790245797
 21
160.6810297428
  0
LINE
  5
38A
100
AcDbEntity
  8
0
100
AcDbLine
 62
7
  6
CONTINUOUS
 10
183.0873909884
 20
95.9982269831
 11
192.5873909884
 21
95.9982269831
  0
LINE
  5
38B
100
AcDbEntity
  8
0
100
AcDbLine
 62
7
  6
CONTINUOUS
 10
181.8373909884
 20
97.2482269831
 11
193.8373909884
 21
97.2482269831
  0
LINE
  5
38C
100
AcDbEntity
  8
0
100
AcDbLine
 62
7
  6
CONTINUOUS
 10
181.8373909884
 20
97.2482269831
 11
183.0873909884
 21
95.9982269831
  0
LINE
  5
38D
100
AcDbEntity
  8
0
100
AcDbLine
 62
7
  6
CONTINUOUS
 10
178.8373909884
 20
113.9982269831
 11
196.8373909884
 21
113.9982269831
  0
LINE
  5
38E
100
AcDbEntity
  8
BEZUGSACHSEN
100
AcDbLine
 62
7
  6
CONTINUOUS
 10
172.8373909903
 20
114.1982269831
 11
202.8373909864
 21
114.1982269831
  0
LINE
  5
38F
100
AcDbEntity
  8
BEZUGSACHSEN
100
AcDbLine
 62
7
  6
CONTINUOUS
 10
171.9896030647
 20
123.8884872923
 11
172.7391742212
 21
115.3208497683
  0
LINE
  5
390
100
AcDbEntity
  8
BEZUGSACHSEN
100
AcDbLine
 62
7
  6
CONTINUOUS
 10
171.9210497926
 20
124.7890438707
 11
171.9896030647
 21
123.8884872923
  0
LINE
  5
391
100
AcDbEntity
  8
0
100
AcDbLine
 62
7
  6
CONTINUOUS
 10
202.7941993377
 20
115.804609964
 11
203.3753880759
 21
115.804609964
  0
LINE
  5
392
100
AcDbEntity
  8
0
100
AcDbLine
 62
7
  6
CONTINUOUS
 10
202.1418734828
 20
116.6982269831
 11
202.6747420897
 21
116.6982269831
  0
LINE
  5
393
100
AcDbEntity
  8
0
100
AcDbLine
 62
7
  6
CONTINUOUS
 10
201.9003026564
 20
116.8471631486
 11
202.4424357624
 21
116.8471631486
  0
LINE
  5
394
100
AcDbEntity
  8
0
100
AcDbLine
 62
7
  6
CONTINUOUS
 10
203.5097351916
 20
116.8471631486
 11
203.5496537287
 21
116.8471631486
  0
LINE
  5
395
100
AcDbEntity
  8
0
100
AcDbLine
 62
7
  6
CONTINUOUS
 10
201.7031269177
 20
117.2939716451
 11
202.2540383493
 21
117.2939716451
  0
LINE
  5
396
100
AcDbEntity
  8
0
100
AcDbLine
 62
7
  6
CONTINUOUS
 10
203.5637087114
 20
117.2939716451
 11
203.6077731261
 21
117.2939716451
  0
LINE
  5
397
100
AcDbEntity
  8
0
100
AcDbLine
 62
7
  6
CONTINUOUS
 10
203.1381973108
 20
117.4429078497
 11
203.5813431017
 21
117.4429078497
  0
LINE
  5
398
100
AcDbEntity
  8
BEZUGSACHSEN
100
AcDbLine
 62
7
  6
CONTINUOUS
 10
172.7391742212
 20
115.3208497683
 11
172.7580204602
 21
115.1709276861
  0
LINE
  5
399
100
AcDbEntity
  8
0
100
AcDbLine
 62
7
  6
CONTINUOUS
 10
202.5557392737
 20
117.5918440021
 11
202.9368784213
 21
117.5918440021
  0
LINE
  5
39A
100
AcDbEntity
  8
0
100
AcDbLine
 62
7
  6
CONTINUOUS
 10
201.5904785037
 20
117.7407801546
 11
202.1470990382
 21
117.7407801546
  0
LINE
  5
39B
100
AcDbEntity
  8
0
100
AcDbLine
 62
7
  6
CONTINUOUS
 10
202.5386872675
 20
117.8897163071
 11
203.0611067159
 21
117.8897163071
  0
LINE
  5
39C
100
AcDbEntity
  8
0
100
AcDbLine
 62
7
  6
CONTINUOUS
 10
203.2451372606
 20
117.8897163071
 11
203.66216988
 21
117.8897163071
  0
LINE
  5
39D
100
AcDbEntity
  8
0
100
AcDbLine
 62
7
  6
CONTINUOUS
 10
201.5397756504
 20
118.3365248687
 11
202.1002095631
 21
118.3365248687
  0
LINE
  5
39E
100
AcDbEntity
  8
0
100
AcDbLine
 62
7
  6
CONTINUOUS
 10
203.3441205295
 20
118.4854610212
 11
203.7120305089
 21
118.4854610212
  0
LINE
  5
39F
100
AcDbEntity
  8
0
100
AcDbLine
 62
7
  6
CONTINUOUS
 10
201.5277762876
 20
118.7833333261
 11
202.0900587353
 21
118.7833333261
  0
LINE
  5
3A0
100
AcDbEntity
  8
0
100
AcDbLine
 62
7
  6
CONTINUOUS
 10
202.7410492941
 20
118.7833333261
 11
203.2591586938
 21
118.7833333261
  0
LINE
  5
3A1
100
AcDbEntity
  8
0
100
AcDbLine
 62
7
  6
CONTINUOUS
 10
203.3866248441
 20
118.7833333261
 11
203.4319506013
 21
118.7833333261
  0
LINE
  5
3A2
100
AcDbEntity
  8
0
100
AcDbLine
 62
7
  6
CONTINUOUS
 10
203.4225797562
 20
119.081205631
 11
203.4585257163
 21
119.081205631
  0
LINE
  5
3A3
100
AcDbEntity
  8
0
100
AcDbLine
 62
7
  6
CONTINUOUS
 10
201.5444155711
 20
119.528014297
 11
202.1083338859
 21
119.528014297
  0
LINE
  5
3A4
100
AcDbEntity
  8
0
100
AcDbLine
 62
7
  6
CONTINUOUS
 10
203.4762175187
 20
119.528014297
 11
203.5197588518
 21
119.528014297
  0
LINE
  5
3A5
100
AcDbEntity
  8
0
100
AcDbLine
 62
7
  6
CONTINUOUS
 10
202.8497428981
 20
119.6769504495
 11
203.3667527954
 21
119.6769504495
  0
LINE
  5
3A6
100
AcDbEntity
  8
0
100
AcDbLine
 62
7
  6
CONTINUOUS
 10
203.502825806
 20
119.8258866019
 11
203.8293198196
 21
119.8258866019
  0
LINE
  5
3A7
100
AcDbEntity
  8
0
100
AcDbLine
 62
7
  6
CONTINUOUS
 10
202.9437743028
 20
120.7195035167
 11
203.4606027293
 21
120.7195035167
  0
LINE
  5
3A8
100
AcDbEntity
  8
0
100
AcDbLine
 62
7
  6
CONTINUOUS
 10
201.6766035135
 20
120.8684396692
 11
202.2394329121
 21
120.8684396692
  0
LINE
  5
3A9
100
AcDbEntity
  8
0
100
AcDbLine
 62
7
  6
CONTINUOUS
 10
201.8057050499
 20
121.6131204314
 11
202.365784085
 21
121.6131204314
  0
LINE
  5
3AA
100
AcDbEntity
  8
0
100
AcDbLine
 62
7
  6
CONTINUOUS
 10
202.9967504397
 20
121.6131204314
 11
203.5143354363
 21
121.6131204314
  0
LINE
  5
3AB
100
AcDbEntity
  8
0
100
AcDbLine
 62
7
  6
CONTINUOUS
 10
201.9040186908
 20
122.059929306
 11
202.4616743281
 21
122.059929306
  0
LINE
  5
3AC
100
AcDbEntity
  8
0
100
AcDbLine
 62
7
  6
CONTINUOUS
 10
202.9592394973
 20
122.5067377634
 11
203.4805745072
 21
122.5067377634
  0
LINE
  5
3AD
100
AcDbEntity
  8
0
100
AcDbLine
 62
7
  6
CONTINUOUS
 10
202.067597581
 20
122.6556739159
 11
202.6208529626
 21
122.6556739159
  0
LINE
  5
3AE
100
AcDbEntity
  8
0
100
AcDbLine
 62
7
  6
CONTINUOUS
 10
203.0442352744
 20
122.8046100683
 11
203.4134257093
 21
122.8046100683
  0
LINE
  5
3AF
100
AcDbEntity
  8
0
100
AcDbLine
 62
7
  6
CONTINUOUS
 10
178.8373909884
 20
114.1982269831
 11
178.8373909884
 21
113.9982269831
  0
LINE
  5
3B0
100
AcDbEntity
  8
0
100
AcDbLine
 62
7
  6
CONTINUOUS
 10
202.2608966904
 20
123.1024823733
 11
202.8083203184
 21
123.1024823733
  0
LINE
  5
3B1
100
AcDbEntity
  8
0
100
AcDbLine
 62
7
  6
CONTINUOUS
 10
202.5333730525
 20
123.5492908306
 11
203.0722962094
 21
123.5492908306
  0
LINE
  5
3B2
100
AcDbEntity
  8
0
100
AcDbLine
 62
7
  6
CONTINUOUS
 10
202.7917815523
 20
123.6982269831
 11
203.3221359136
 21
123.6982269831
  0
LINE
  5
3B3
100
AcDbEntity
  8
0
100
AcDbLine
 62
7
  6
CONTINUOUS
 10
203.6661716962
 20
123.6982269831
 11
204.1681541965
 21
123.6982269831
  0
LINE
  5
3B4
100
AcDbEntity
  8
0
100
AcDbLine
 62
7
  6
CONTINUOUS
 10
181.8373909884
 20
113.9982269831
 11
181.8373909884
 21
97.2482269831
  0
LINE
  5
3B5
100
AcDbEntity
  8
BEZUGSACHSEN
100
AcDbLine
 62
7
  6
CONTINUOUS
 10
181.8373909884
 20
133.8009421698
 11
181.8373909884
 21
168.8351415509
  0
LINE
  5
3B6
100
AcDbEntity
  8
BEZUGSACHSEN
100
AcDbLine
 62
7
  6
CONTINUOUS
 10
178.2884342424
 20
129.3899432019
 11
173.0089142742
 21
126.6998934169
  0
LINE
  5
3B7
100
AcDbEntity
  8
RUNDUNGEN
100
AcDbLine
 62
7
  6
CONTINUOUS
 10
197.3863477343
 20
129.3899432019
 11
202.6658677026
 21
126.6998934169
  0
LINE
  5
3B8
100
AcDbEntity
  8
0
100
AcDbLine
 62
7
  6
CONTINUOUS
 10
193.8373909884
 20
113.9982269831
 11
193.8373909884
 21
97.2482269831
  0
LINE
  5
3B9
100
AcDbEntity
  8
RUNDUNGEN
100
AcDbLine
 62
7
  6
CONTINUOUS
 10
193.8373909884
 20
133.8008658025
 11
193.8373909884
 21
168.8351415509
  0
LINE
  5
3BA
100
AcDbEntity
  8
0
100
AcDbLine
 62
7
  6
CONTINUOUS
 10
194.3373909884
 20
164.2253521895
 11
194.3373909884
 21
156.855219709
  0
LINE
  5
3BB
100
AcDbEntity
  8
0
100
AcDbLine
 62
7
  6
CONTINUOUS
 10
194.3373909884
 20
156.4377071234
 11
194.3373909884
 21
151.0528860182
  0
LINE
  5
3BC
100
AcDbEntity
  8
0
100
AcDbLine
 62
7
  6
CONTINUOUS
 10
194.3373909884
 20
151.0235989416
 11
194.3373909884
 21
148.0109717005
  0
LINE
  5
3BD
100
AcDbEntity
  8
0
100
AcDbLine
 62
7
  6
CONTINUOUS
 10
196.8373909884
 20
114.1982269831
 11
196.8373909884
 21
113.9982269831
  0
LINE
  5
3BE
100
AcDbEntity
  8
0
100
AcDbLine
 62
7
  6
CONTINUOUS
 10
203.685178912
 20
123.8884872923
 11
203.7537321841
 21
124.7890438707
  0
LINE
  5
3BF
100
AcDbEntity
  8
0
100
AcDbLine
 62
7
  6
CONTINUOUS
 10
202.9356077555
 20
115.3208497683
 11
202.9779312885
 21
115.804609964
  0
LINE
  5
3C0
100
AcDbEntity
  8
0
100
AcDbLine
 62
7
  6
CONTINUOUS
 10
203.6685332919
 20
123.6982269831
 11
203.685178912
 21
123.8884872923
  0
LINE
  5
3C1
100
AcDbEntity
  8
0
100
AcDbLine
 62
7
  6
CONTINUOUS
 10
193.8373909884
 20
148.0109717005
 11
194.3373909884
 21
148.0109717005
  0
LINE
  5
3C2
100
AcDbEntity
  8
0
100
AcDbLine
 62
7
  6
CONTINUOUS
 10
193.8373909884
 20
149.1233117899
 11
194.3373909884
 21
149.1233117899
  0
LINE
  5
3C3
100
AcDbEntity
  8
0
100
AcDbLine
 62
7
  6
CONTINUOUS
 10
203.66216988
 20
117.8897163071
 11
203.6535789042
 21
117.7904416392
  0
LINE
  5
3C4
100
AcDbEntity
  8
0
100
AcDbLine
 62
7
  6
CONTINUOUS
 10
204.1681541965
 20
123.6982269831
 11
203.8293198196
 21
119.8258866019
  0
LINE
  5
3C5
100
AcDbEntity
  8
0
100
AcDbLine
 62
7
  6
CONTINUOUS
 10
203.4585257163
 20
119.081205631
 11
203.4319506013
 21
118.7833333261
  0
LINE
  5
3C6
100
AcDbEntity
  8
RUNDUNGEN
100
AcDbLine
 62
7
  6
CONTINUOUS
 10
202.9167615166
 20
115.1709276861
 11
202.9356077555
 21
115.3208497683
  0
LINE
  5
3C7
100
AcDbEntity
  8
0
100
AcDbLine
 62
7
  6
CONTINUOUS
 10
193.8373909884
 20
150.5163928648
 11
194.3373909884
 21
150.5163928648
  0
LINE
  5
3C8
100
AcDbEntity
  8
0
100
AcDbLine
 62
7
  6
CONTINUOUS
 10
193.8373909884
 20
150.7829513365
 11
194.3373909884
 21
150.7829513365
  0
LINE
  5
3C9
100
AcDbEntity
  8
0
100
AcDbLine
 62
7
  6
CONTINUOUS
 10
193.8373909884
 20
150.9441310375
 11
194.3373909884
 21
150.9441310375
  0
LINE
  5
3CA
100
AcDbEntity
  8
0
100
AcDbLine
 62
7
  6
CONTINUOUS
 10
193.8373909884
 20
151.0235989416
 11
194.3373909884
 21
151.0235989416
  0
LINE
  5
3CB
100
AcDbEntity
  8
0
100
AcDbLine
 62
7
  6
CONTINUOUS
 10
193.8373909884
 20
151.0528860182
 11
194.3373909884
 21
151.0528860182
  0
LINE
  5
3CC
100
AcDbEntity
  8
0
100
AcDbLine
 62
7
  6
CONTINUOUS
 10
193.8373909884
 20
151.0714059895
 11
194.3373909884
 21
151.0714059895
  0
LINE
  5
3CD
100
AcDbEntity
  8
0
100
AcDbLine
 62
7
  6
CONTINUOUS
 10
193.8373909884
 20
151.1758918562
 11
194.3373909884
 21
151.1758918562
  0
LINE
  5
3CE
100
AcDbEntity
  8
0
100
AcDbLine
 62
7
  6
CONTINUOUS
 10
193.8373909884
 20
152.1598936775
 11
194.3373909884
 21
152.1598936775
  0
LINE
  5
3CF
100
AcDbEntity
  8
0
100
AcDbLine
 62
7
  6
CONTINUOUS
 10
193.8373909884
 20
152.4852377096
 11
194.3373909884
 21
152.4852377096
  0
LINE
  5
3D0
100
AcDbEntity
  8
0
100
AcDbLine
 62
7
  6
CONTINUOUS
 10
193.8373909884
 20
152.6214193534
 11
194.3373909884
 21
152.6214193534
  0
LINE
  5
3D1
100
AcDbEntity
  8
0
100
AcDbLine
 62
7
  6
CONTINUOUS
 10
193.8373909884
 20
152.8026113961
 11
194.3373909884
 21
152.8026113961
  0
LINE
  5
3D2
100
AcDbEntity
  8
0
100
AcDbLine
 62
7
  6
CONTINUOUS
 10
193.8373909884
 20
153.7866132174
 11
194.3373909884
 21
153.7866132174
  0
LINE
  5
3D3
100
AcDbEntity
  8
0
100
AcDbLine
 62
7
  6
CONTINUOUS
 10
193.8373909884
 20
154.1119570944
 11
194.3373909884
 21
154.1119570944
  0
LINE
  5
3D4
100
AcDbEntity
  8
0
100
AcDbLine
 62
7
  6
CONTINUOUS
 10
193.8373909884
 20
154.8922893852
 11
194.3373909884
 21
154.8922893852
  0
LINE
  5
3D5
100
AcDbEntity
  8
0
100
AcDbLine
 62
7
  6
CONTINUOUS
 10
193.8373909884
 20
156.0733826773
 11
194.3373909884
 21
156.0733826773
  0
LINE
  5
3D6
100
AcDbEntity
  8
0
100
AcDbLine
 62
7
  6
CONTINUOUS
 10
193.8373909884
 20
156.28009622
 11
194.3373909884
 21
156.28009622
  0
LINE
  5
3D7
100
AcDbEntity
  8
0
100
AcDbLine
 62
7
  6
CONTINUOUS
 10
193.8373909884
 20
156.3982494192
 11
194.3373909884
 21
156.3982494192
  0
LINE
  5
3D8
100
AcDbEntity
  8
0
100
AcDbLine
 62
7
  6
CONTINUOUS
 10
193.8373909884
 20
156.4377071234
 11
194.3373909884
 21
156.4377071234
  0
LINE
  5
3D9
100
AcDbEntity
  8
0
100
AcDbLine
 62
7
  6
CONTINUOUS
 10
193.8373909884
 20
156.855219709
 11
194.3373909884
 21
156.855219709
  0
LINE
  5
3DA
100
AcDbEntity
  8
0
100
AcDbLine
 62
7
  6
CONTINUOUS
 10
193.8373909884
 20
157.1212128758
 11
194.3373909884
 21
157.1212128758
  0
LINE
  5
3DB
100
AcDbEntity
  8
0
100
AcDbLine
 62
7
  6
CONTINUOUS
 10
193.8373909884
 20
157.3665636694
 11
194.3373909884
 21
157.3665636694
  0
LINE
  5
3DC
100
AcDbEntity
  8
0
100
AcDbLine
 62
7
  6
CONTINUOUS
 10
193.8373909884
 20
159.7340876706
 11
194.3373909884
 21
159.7340876706
  0
LINE
  5
3DD
100
AcDbEntity
  8
0
100
AcDbLine
 62
7
  6
CONTINUOUS
 10
193.8373909884
 20
159.9644009797
 11
194.3373909884
 21
159.9644009797
  0
LINE
  5
3DE
100
AcDbEntity
  8
0
100
AcDbLine
 62
7
  6
CONTINUOUS
 10
193.8373909884
 20
160.4617481303
 11
194.3373909884
 21
160.4617481303
  0
LINE
  5
3DF
100
AcDbEntity
  8
0
100
AcDbLine
 62
7
  6
CONTINUOUS
 10
193.8373909884
 20
160.7626616625
 11
194.3373909884
 21
160.7626616625
  0
LINE
  5
3E0
100
AcDbEntity
  8
0
100
AcDbLine
 62
7
  6
CONTINUOUS
 10
193.8373909884
 20
97.2482269831
 11
192.5873909884
 21
95.9982269831
  0
LINE
  5
3E1
100
AcDbEntity
  8
0
100
AcDbLine
 62
7
  6
CONTINUOUS
 10
193.8373909884
 20
161.5985326012
 11
194.3373909884
 21
161.5985326012
  0
LINE
  5
3E2
100
AcDbEntity
  8
0
100
AcDbLine
 62
7
  6
CONTINUOUS
 10
193.8373909884
 20
161.7991416227
 11
194.3373909884
 21
161.7991416227
  0
LINE
  5
3E3
100
AcDbEntity
  8
0
100
AcDbLine
 62
7
  6
CONTINUOUS
 10
193.8373909884
 20
161.9140907444
 11
194.3373909884
 21
161.9140907444
  0
LINE
  5
3E4
100
AcDbEntity
  8
0
100
AcDbLine
 62
7
  6
CONTINUOUS
 10
193.8373909884
 20
162.2484666283
 11
194.3373909884
 21
162.2484666283
  0
LINE
  5
3E5
100
AcDbEntity
  8
0
100
AcDbLine
 62
7
  6
CONTINUOUS
 10
193.8373909884
 20
162.4659912508
 11
194.3373909884
 21
162.4659912508
  0
LINE
  5
3E6
100
AcDbEntity
  8
0
100
AcDbLine
 62
7
  6
CONTINUOUS
 10
193.8373909884
 20
162.6502584747
 11
194.3373909884
 21
162.6502584747
  0
LINE
  5
3E7
100
AcDbEntity
  8
0
100
AcDbLine
 62
7
  6
CONTINUOUS
 10
193.8373909884
 20
162.8516050527
 11
194.3373909884
 21
162.8516050527
  0
LINE
  5
3E8
100
AcDbEntity
  8
0
100
AcDbLine
 62
7
  6
CONTINUOUS
 10
193.8373909884
 20
162.9190211593
 11
194.3373909884
 21
162.9190211593
  0
LINE
  5
3E9
100
AcDbEntity
  8
0
100
AcDbLine
 62
7
  6
CONTINUOUS
 10
193.8373909884
 20
163.5718885501
 11
194.3373909884
 21
163.5718885501
  0
LINE
  5
3EA
100
AcDbEntity
  8
0
100
AcDbLine
 62
7
  6
CONTINUOUS
 10
193.8373909884
 20
163.6699081053
 11
194.3373909884
 21
163.6699081053
  0
LINE
  5
3EB
100
AcDbEntity
  8
0
100
AcDbLine
 62
7
  6
CONTINUOUS
 10
193.8373909884
 20
164.1273326342
 11
194.3373909884
 21
164.1273326342
  0
LINE
  5
3EC
100
AcDbEntity
  8
0
100
AcDbLine
 62
7
  6
CONTINUOUS
 10
193.8373909884
 20
164.2253521895
 11
194.3373909884
 21
164.2253521895
  0
LINE
  5
3ED
100
AcDbEntity
  8
RUNDUNGEN
100
AcDbLine
 62
7
  6
CONTINUOUS
 10
191.8373909884
 20
170.8351415509
 11
183.8373909884
 21
170.8351415509
  0
LINE
  5
3EE
100
AcDbEntity
  8
RUNDUNGEN
100
AcDbLine
 62
7
  6
CONTINUOUS
 10
71.7482642942
 20
45.2720294331
 11
71.7482642942
 21
53.2720294331
  0
LINE
  5
3EF
100
AcDbEntity
  8
0
100
AcDbLine
 62
7
  6
CONTINUOUS
 10
78.037312628
 20
43.2720294331
 11
78.037312628
 21
42.7720294331
  0
LINE
  5
3F0
100
AcDbEntity
  8
0
100
AcDbLine
 62
7
  6
CONTINUOUS
 10
78.5934826727
 20
43.2720294331
 11
78.5934826727
 21
42.7720294331
  0
LINE
  5
3F1
100
AcDbEntity
  8
0
100
AcDbLine
 62
7
  6
CONTINUOUS
 10
78.7686314928
 20
43.2720294331
 11
78.7686314928
 21
42.7720294331
  0
LINE
  5
3F2
100
AcDbEntity
  8
0
100
AcDbLine
 62
7
  6
CONTINUOUS
 10
79.0391665942
 20
43.2720294331
 11
79.0391665942
 21
42.7720294331
  0
LINE
  5
3F3
100
AcDbEntity
  8
0
100
AcDbLine
 62
7
  6
CONTINUOUS
 10
79.3243132704
 20
43.2720294331
 11
79.3243132704
 21
42.7720294331
  0
LINE
  5
3F4
100
AcDbEntity
  8
0
100
AcDbLine
 62
7
  6
CONTINUOUS
 10
79.5107975724
 20
43.2720294331
 11
79.5107975724
 21
42.7720294331
  0
LINE
  5
3F5
100
AcDbEntity
  8
0
100
AcDbLine
 62
7
  6
CONTINUOUS
 10
80.2567344248
 20
43.2720294331
 11
80.2567344248
 21
42.7720294331
  0
LINE
  5
3F6
100
AcDbEntity
  8
0
100
AcDbLine
 62
7
  6
CONTINUOUS
 10
80.4432186378
 20
43.2720294331
 11
80.4432186378
 21
42.7720294331
  0
LINE
  5
3F7
100
AcDbEntity
  8
0
100
AcDbLine
 62
7
  6
CONTINUOUS
 10
80.9575331878
 20
43.2720294331
 11
80.9575331878
 21
42.7720294331
  0
LINE
  5
3F8
100
AcDbEntity
  8
0
100
AcDbLine
 62
7
  6
CONTINUOUS
 10
81.882205365
 20
43.2720294331
 11
81.882205365
 21
42.7720294331
  0
LINE
  5
3F9
100
AcDbEntity
  8
0
100
AcDbLine
 62
7
  6
CONTINUOUS
 10
82.125104832
 20
43.2720294331
 11
82.125104832
 21
42.7720294331
  0
LINE
  5
3FA
100
AcDbEntity
  8
0
100
AcDbLine
 62
7
  6
CONTINUOUS
 10
82.3797352806
 20
43.2720294331
 11
82.3797352806
 21
42.7720294331
  0
LINE
  5
3FB
100
AcDbEntity
  8
0
100
AcDbLine
 62
7
  6
CONTINUOUS
 10
82.7348842953
 20
43.2720294331
 11
82.7348842953
 21
42.7720294331
  0
LINE
  5
3FC
100
AcDbEntity
  8
0
100
AcDbLine
 62
7
  6
CONTINUOUS
 10
83.0129775892
 20
43.2720294331
 11
83.0129775892
 21
42.7720294331
  0
LINE
  5
3FD
100
AcDbEntity
  8
0
100
AcDbLine
 62
7
  6
CONTINUOUS
 10
83.3028020056
 20
43.2720294331
 11
83.3028020056
 21
42.7720294331
  0
LINE
  5
3FE
100
AcDbEntity
  8
0
100
AcDbLine
 62
7
  6
CONTINUOUS
 10
84.0566913215
 20
43.2720294331
 11
84.0566913215
 21
42.7720294331
  0
LINE
  5
3FF
100
AcDbEntity
  8
0
100
AcDbLine
 62
7
  6
CONTINUOUS
 10
84.2694598762
 20
43.2720294331
 11
84.2694598762
 21
42.7720294331
  0
LINE
  5
400
100
AcDbEntity
  8
0
100
AcDbLine
 62
7
  6
CONTINUOUS
 10
84.3934408818
 20
43.2720294331
 11
84.3934408818
 21
42.7720294331
  0
LINE
  5
401
100
AcDbEntity
  8
0
100
AcDbLine
 62
7
  6
CONTINUOUS
 10
84.440366149
 20
43.2720294331
 11
84.440366149
 21
42.7720294331
  0
LWPOLYLINE
  5
402
100
AcDbEntity
  8
RUNDUNGEN
100
AcDbPolyline
 62
7
  6
CONTINUOUS
 90
23
 70
0
 10
87.914234762
 20
38.6037039393
 10
88.7189831475
 20
37.7715057027
 10
89.6427285196
 20
36.9535112043
 10
90.6246921304
 20
36.2135989207
 10
91.6592192102
 20
35.5538890814
 10
92.7400550207
 20
34.9768271647
 10
93.8608200444
 20
34.4846077533
 10
95.0150503121
 20
34.0791333056
 10
96.196201004
 20
33.7619952064
 10
97.397615383
 20
33.5344634477
 10
98.612594117
 20
33.3974562565
 10
99.8343597135
 20
33.3515348019
 10
101.0561521265
 20
33.3968862746
 10
102.2712071584
 20
33.5333261674
 10
103.4727509015
 20
33.7602988987
 10
104.6540863574
 20
34.0768933503
 10
105.8085618541
 20
34.4818479617
 10
106.9296359983
 20
34.9735812484
 10
108.0108411057
 20
35.5501976342
 10
109.0457984506
 20
36.2095146652
 10
110.0282370372
 20
36.9490885011
 10
110.9524807055
 20
37.7667897434
 10
111.7621449755
 20
38.6037043874
  0
LINE
  5
403
100
AcDbEntity
  8
0
100
AcDbLine
 62
7
  6
CONTINUOUS
 10
85.5643371952
 20
43.2720294331
 11
85.5643371952
 21
42.7720294331
  0
LINE
  5
404
100
AcDbEntity
  8
0
100
AcDbLine
 62
7
  6
CONTINUOUS
 10
85.8602776954
 20
43.2720294331
 11
85.8602776954
 21
42.7720294331
  0
LINE
  5
405
100
AcDbEntity
  8
0
100
AcDbLine
 62
7
  6
CONTINUOUS
 10
86.4780716128
 20
43.2720294331
 11
86.4780716128
 21
42.7720294331
  0
LINE
  5
406
100
AcDbEntity
  8
0
100
AcDbLine
 62
7
  6
CONTINUOUS
 10
86.9533160722
 20
43.2720294331
 11
86.9533160722
 21
42.7720294331
  0
LINE
  5
407
100
AcDbEntity
  8
0
100
AcDbLine
 62
7
  6
CONTINUOUS
 10
88.2734395956
 20
43.2720294331
 11
88.2734395956
 21
42.7720294331
  0
LINE
  5
408
100
AcDbEntity
  8
0
100
AcDbLine
 62
7
  6
CONTINUOUS
 10
88.5902692351
 20
43.2720294331
 11
88.5902692351
 21
42.7720294331
  0
LINE
  5
409
100
AcDbEntity
  8
0
100
AcDbLine
 62
7
  6
CONTINUOUS
 10
89.7720274005
 20
43.2720294331
 11
89.7720274005
 21
42.7720294331
  0
LINE
  5
40A
100
AcDbEntity
  8
0
100
AcDbLine
 62
7
  6
CONTINUOUS
 10
89.783628879
 20
43.2720294331
 11
89.783628879
 21
42.7720294331
  0
LINE
  5
40B
100
AcDbEntity
  8
0
100
AcDbLine
 62
7
  6
CONTINUOUS
 10
89.9096474496
 20
43.2720294331
 11
89.9096474496
 21
42.7720294331
  0
LINE
  5
40C
100
AcDbEntity
  8
0
100
AcDbLine
 62
7
  6
CONTINUOUS
 10
90.0870736633
 20
43.2720294331
 11
90.0870736633
 21
42.7720294331
  0
LINE
  5
40D
100
AcDbEntity
  8
0
100
AcDbLine
 62
7
  6
CONTINUOUS
 10
90.3474119171
 20
43.2720294331
 11
90.3474119171
 21
42.7720294331
  0
LINE
  5
40E
100
AcDbEntity
  8
0
100
AcDbLine
 62
7
  6
CONTINUOUS
 10
90.8050793033
 20
43.2720294331
 11
90.8050793033
 21
42.7720294331
  0
LINE
  5
40F
100
AcDbEntity
  8
0
100
AcDbLine
 62
7
  6
CONTINUOUS
 10
91.1168255275
 20
43.2720294331
 11
91.1168255275
 21
42.7720294331
  0
LINE
  5
410
100
AcDbEntity
  8
0
100
AcDbLine
 62
7
  6
CONTINUOUS
 10
91.3970667
 20
43.2720294331
 11
91.3970667
 21
42.7720294331
  0
LINE
  5
411
100
AcDbEntity
  8
0
100
AcDbLine
 62
7
  6
CONTINUOUS
 10
91.7287158429
 20
43.2720294331
 11
91.7287158429
 21
42.7720294331
  0
LINE
  5
412
100
AcDbEntity
  8
0
100
AcDbLine
 62
7
  6
CONTINUOUS
 10
91.945948221
 20
43.2720294331
 11
91.945948221
 21
42.7720294331
  0
LINE
  5
413
100
AcDbEntity
  8
0
100
AcDbLine
 62
7
  6
CONTINUOUS
 10
92.1316756194
 20
43.2720294331
 11
92.1316756194
 21
42.7720294331
  0
LINE
  5
414
100
AcDbEntity
  8
0
100
AcDbLine
 62
7
  6
CONTINUOUS
 10
92.5172329784
 20
43.2720294331
 11
92.5172329784
 21
42.7720294331
  0
LINE
  5
415
100
AcDbEntity
  8
0
100
AcDbLine
 62
7
  6
CONTINUOUS
 10
92.5885438674
 20
43.2720294331
 11
92.5885438674
 21
42.7720294331
  0
LINE
  5
416
100
AcDbEntity
  8
0
100
AcDbLine
 62
7
  6
CONTINUOUS
 10
92.6197813471
 20
43.2720294331
 11
92.6197813471
 21
42.7720294331
  0
LINE
  5
417
100
AcDbEntity
  8
0
100
AcDbLine
 62
7
  6
CONTINUOUS
 10
92.6741281454
 20
35.0120257477
 11
92.6741281454
 21
34.8699875094
  0
LINE
  5
418
100
AcDbEntity
  8
0
100
AcDbLine
 62
7
  6
CONTINUOUS
 10
92.7835031487
 20
34.957745545
 11
92.7835031487
 21
34.7436363365
  0
LINE
  5
419
100
AcDbEntity
  8
0
100
AcDbLine
 62
7
  6
CONTINUOUS
 10
92.8928781519
 20
34.9097100526
 11
92.8928781519
 21
34.6477460934
  0
LINE
  5
41A
100
AcDbEntity
  8
0
100
AcDbLine
 62
7
  6
CONTINUOUS
 10
92.9817442828
 20
43.2720294331
 11
92.9817442828
 21
42.7720294331
  0
LINE
  5
41B
100
AcDbEntity
  8
0
100
AcDbLine
 62
7
  6
CONTINUOUS
 10
93.1116281584
 20
34.8136390679
 11
93.1116281584
 21
34.4885674589
  0
LINE
  5
41C
100
AcDbEntity
  8
0
100
AcDbLine
 62
7
  6
CONTINUOUS
 10
93.4397531193
 20
34.8485237311
 11
93.4397531193
 21
34.3011001031
  0
LINE
  5
41D
100
AcDbEntity
  8
0
100
AcDbLine
 62
7
  6
CONTINUOUS
 10
101.2444403176
 20
56.9741570984
 11
101.0569404964
 21
56.878412429
  0
LINE
  5
41E
100
AcDbEntity
  8
0
100
AcDbLine
 62
7
  6
CONTINUOUS
 10
120.926697179
 20
42.7720294331
 11
116.8179655901
 21
42.7720294331
  0
LINE
  5
41F
100
AcDbEntity
  8
0
100
AcDbLine
 62
7
  6
CONTINUOUS
 10
114.361313719
 20
42.7720294331
 11
106.7038705176
 21
42.7720294331
  0
LINE
  5
420
100
AcDbEntity
  8
0
100
AcDbLine
 62
7
  6
CONTINUOUS
 10
105.5975315584
 20
42.7720294331
 11
103.2057195018
 21
42.7720294331
  0
LINE
  5
421
100
AcDbEntity
  8
0
100
AcDbLine
 62
7
  6
CONTINUOUS
 10
95.8170237968
 20
42.7720294331
 11
92.6197813471
 21
42.7720294331
  0
LINE
  5
422
100
AcDbEntity
  8
0
100
AcDbLine
 62
7
  6
CONTINUOUS
 10
92.5885438674
 20
42.7720294331
 11
85.5643371952
 21
42.7720294331
  0
LINE
  5
423
100
AcDbEntity
  8
0
100
AcDbLine
 62
7
  6
CONTINUOUS
 10
84.440366149
 20
42.7720294331
 11
78.037312628
 21
42.7720294331
  0
LINE
  5
424
100
AcDbEntity
  8
0
100
AcDbLine
 62
7
  6
CONTINUOUS
 10
93.9866281454
 20
34.576047369
 11
93.9866281454
 21
34.0371242122
  0
LINE
  5
425
100
AcDbEntity
  8
0
100
AcDbLine
 62
7
  6
CONTINUOUS
 10
94.1433234274
 20
43.2720294331
 11
94.1433234274
 21
42.7720294331
  0
LINE
  5
426
100
AcDbEntity
  8
0
100
AcDbLine
 62
7
  6
CONTINUOUS
 10
94.6428781454
 20
34.3176388692
 11
94.6428781454
 21
33.7872845079
  0
LINE
  5
427
100
AcDbEntity
  8
0
100
AcDbLine
 62
7
  6
CONTINUOUS
 10
94.670904419
 20
43.2720294331
 11
94.670904419
 21
42.7720294331
  0
LINE
  5
428
100
AcDbEntity
  8
0
100
AcDbLine
 62
7
  6
CONTINUOUS
 10
95.0328673547
 20
43.2720294331
 11
95.0328673547
 21
42.7720294331
  0
LINE
  5
429
100
AcDbEntity
  8
0
100
AcDbLine
 62
7
  6
CONTINUOUS
 10
95.2991281454
 20
34.0028586146
 11
95.2991281454
 21
33.5959319666
  0
LINE
  5
42A
100
AcDbEntity
  8
0
100
AcDbLine
 62
7
  6
CONTINUOUS
 10
100.1194403176
 20
57.0220294331
 11
99.8381903176
 21
56.6869230901
  0
LINE
  5
42B
100
AcDbEntity
  8
0
100
AcDbLine
 62
7
  6
CONTINUOUS
 10
99.8381903176
 20
56.3039442782
 11
100.1194403176
 21
56.6390507554
  0
LINE
  5
42C
100
AcDbEntity
  8
0
100
AcDbLine
 62
7
  6
CONTINUOUS
 10
101.0569404964
 20
56.878412429
 11
100.869440407
 21
56.6869230901
  0
LINE
  5
42D
100
AcDbEntity
  8
0
100
AcDbLine
 62
7
  6
CONTINUOUS
 10
101.150690407
 20
56.6390507554
 11
101.291315407
 21
56.7347954248
  0
LINE
  5
42E
100
AcDbEntity
  8
RUNDUNGEN
100
AcDbLine
 62
7
  6
CONTINUOUS
 10
73.7511962931
 20
43.2720294331
 11
125.9279243775
 21
43.2720294331
  0
LINE
  5
42F
100
AcDbEntity
  8
0
100
AcDbLine
 62
7
  6
CONTINUOUS
 10
95.8170237968
 20
43.2720294331
 11
95.8170237968
 21
42.7720294331
  0
LINE
  5
430
100
AcDbEntity
  8
0
100
AcDbLine
 62
7
  6
CONTINUOUS
 10
95.8460032497
 20
33.856023048
 11
95.8460032497
 21
33.4881399749
  0
LINE
  5
431
100
AcDbEntity
  8
0
100
AcDbLine
 62
7
  6
CONTINUOUS
 10
96.1741282497
 20
33.7679217248
 11
96.1741282497
 21
33.4488806904
  0
LINE
  5
432
100
AcDbEntity
  8
0
100
AcDbLine
 62
7
  6
CONTINUOUS
 10
96.3928780411
 20
33.7247472152
 11
96.3928780411
 21
33.453153107
  0
LINE
  5
433
100
AcDbEntity
  8
0
100
AcDbLine
 62
7
  6
CONTINUOUS
 10
96.5022532497
 20
33.7040330187
 11
96.5022532497
 21
33.4696770271
  0
LINE
  5
434
100
AcDbEntity
  8
0
100
AcDbLine
 62
7
  6
CONTINUOUS
 10
96.6116281454
 20
33.6833188814
 11
96.6116281454
 21
33.5134795115
  0
LINE
  5
435
100
AcDbEntity
  8
0
100
AcDbLine
 62
7
  6
CONTINUOUS
 10
97.213190407
 20
57.0220294331
 11
97.213190407
 21
55.2720294331
  0
LINE
  5
436
100
AcDbEntity
  8
0
100
AcDbLine
 62
7
  6
CONTINUOUS
 10
97.494440407
 20
55.2720294331
 11
97.494440407
 21
56.543306086
  0
LINE
  5
437
100
AcDbEntity
  8
0
100
AcDbLine
 62
7
  6
CONTINUOUS
 10
99.041315407
 20
57.0220294331
 11
98.4293362388
 21
55.2720294331
  0
LINE
  5
438
100
AcDbEntity
  8
0
100
AcDbLine
 62
7
  6
CONTINUOUS
 10
98.7109381167
 20
55.2720294331
 11
99.181940407
 21
56.543306086
  0
LINE
  5
439
100
AcDbEntity
  8
0
100
AcDbLine
 62
7
  6
CONTINUOUS
 10
101.0569404964
 20
56.4954337512
 11
101.150690407
 21
56.6390507554
  0
LINE
  5
43A
100
AcDbEntity
  8
0
100
AcDbLine
 62
7
  6
CONTINUOUS
 10
102.0881905858
 20
56.2081996088
 11
101.0615238538
 21
55.2720294331
  0
LINE
  5
43B
100
AcDbEntity
  8
0
100
AcDbLine
 62
7
  6
CONTINUOUS
 10
101.4406998338
 20
55.2720294331
 11
102.3225652282
 21
56.0645826047
  0
LINE
  5
43C
100
AcDbEntity
  8
0
100
AcDbLine
 62
7
  6
CONTINUOUS
 10
99.181940407
 20
56.543306086
 11
99.181940407
 21
55.2720294331
  0
LINE
  5
43D
100
AcDbEntity
  8
0
100
AcDbLine
 62
7
  6
CONTINUOUS
 10
99.463190407
 20
55.2720294331
 11
99.463190407
 21
57.0220294331
  0
LINE
  5
43E
100
AcDbEntity
  8
0
100
AcDbLine
 62
7
  6
CONTINUOUS
 10
99.5647531454
 20
33.3616682725
 11
99.5647531454
 21
32.941266225
  0
LINE
  5
43F
100
AcDbEntity
  8
0
100
AcDbLine
 62
7
  6
CONTINUOUS
 10
99.8381903176
 20
56.6869230901
 11
99.8381903176
 21
56.3039442782
  0
LINE
  5
440
100
AcDbEntity
  8
0
100
AcDbLine
 62
7
  6
CONTINUOUS
 10
100.1194403176
 20
56.6390507554
 11
100.1194403176
 21
55.2720294331
  0
LINE
  5
441
100
AcDbEntity
  8
0
100
AcDbLine
 62
7
  6
CONTINUOUS
 10
100.869440407
 20
56.6869230901
 11
100.8225653176
 21
56.4954337512
  0
LINE
  5
442
100
AcDbEntity
  8
0
100
AcDbLine
 62
7
  6
CONTINUOUS
 10
102.1819402282
 20
56.3996889477
 11
102.0881905858
 21
56.2081996088
  0
LINE
  5
443
100
AcDbEntity
  8
0
100
AcDbLine
 62
7
  6
CONTINUOUS
 10
102.3225652282
 20
56.0645826047
 11
102.416315407
 21
56.2081996088
  0
LINE
  5
444
100
AcDbEntity
  8
0
100
AcDbLine
 62
7
  6
CONTINUOUS
 10
100.4006903176
 20
55.2720294331
 11
100.4006903176
 21
57.0220294331
  0
LINE
  5
445
100
AcDbEntity
  8
0
100
AcDbLine
 62
7
  6
CONTINUOUS
 10
102.1819402282
 20
56.4954337512
 11
102.1819402282
 21
56.3996889477
  0
LINE
  5
446
100
AcDbEntity
  8
0
100
AcDbLine
 62
7
  6
CONTINUOUS
 10
102.416315407
 20
56.2081996088
 11
102.4631902282
 21
56.3996889477
  0
LINE
  5
447
100
AcDbEntity
  8
0
100
AcDbLine
 62
7
  6
CONTINUOUS
 10
97.494440407
 20
56.543306086
 11
97.9654426492
 21
55.2720294331
  0
LINE
  5
448
100
AcDbEntity
  8
0
100
AcDbLine
 62
7
  6
CONTINUOUS
 10
98.2470445752
 20
55.2720294331
 11
97.635065407
 21
57.0220294331
  0
LINE
  5
449
100
AcDbEntity
  8
0
100
AcDbLine
 62
7
  6
CONTINUOUS
 10
102.4631902282
 20
56.3996889477
 11
102.4631902282
 21
56.4954337512
  0
LINE
  5
44A
100
AcDbEntity
  8
0
100
AcDbLine
 62
7
  6
CONTINUOUS
 10
103.2057195018
 20
43.2720294331
 11
103.2057195018
 21
42.7720294331
  0
LINE
  5
44B
100
AcDbEntity
  8
0
100
AcDbLine
 62
7
  6
CONTINUOUS
 10
103.2835027282
 20
33.8203340685
 11
103.2835027282
 21
33.3064909861
  0
LINE
  5
44C
100
AcDbEntity
  8
0
100
AcDbLine
 62
7
  6
CONTINUOUS
 10
103.5022531454
 20
33.7682054139
 11
103.5022531454
 21
33.7566614121
  0
LINE
  5
44D
100
AcDbEntity
  8
0
100
AcDbLine
 62
7
  6
CONTINUOUS
 10
103.5718778298
 20
43.2720294331
 11
103.5718778298
 21
42.7720294331
  0
LINE
  5
44E
100
AcDbEntity
  8
0
100
AcDbLine
 62
7
  6
CONTINUOUS
 10
103.5915674817
 20
43.2720294331
 11
103.5915674817
 21
42.7720294331
  0
LINE
  5
44F
100
AcDbEntity
  8
0
100
AcDbLine
 62
7
  6
CONTINUOUS
 10
103.6505979215
 20
43.2720294331
 11
103.6505979215
 21
42.7720294331
  0
LINE
  5
450
100
AcDbEntity
  8
0
100
AcDbLine
 62
7
  6
CONTINUOUS
 10
103.7057135888
 20
43.2720294331
 11
103.7057135888
 21
42.7720294331
  0
LINE
  5
451
100
AcDbEntity
  8
0
100
AcDbLine
 62
7
  6
CONTINUOUS
 10
103.8218556128
 20
43.2720294331
 11
103.8218556128
 21
42.7720294331
  0
LINE
  5
452
100
AcDbEntity
  8
0
100
AcDbLine
 62
7
  6
CONTINUOUS
 10
104.1210768008
 20
43.2720294331
 11
104.1210768008
 21
42.7720294331
  0
LINE
  5
453
100
AcDbEntity
  8
0
100
AcDbLine
 62
7
  6
CONTINUOUS
 10
104.3772535626
 20
34.0027029699
 11
104.3772535626
 21
33.7859388651
  0
LINE
  5
454
100
AcDbEntity
  8
0
100
AcDbLine
 62
7
  6
CONTINUOUS
 10
104.3927401525
 20
43.2720294331
 11
104.3927401525
 21
42.7720294331
  0
LINE
  5
455
100
AcDbEntity
  8
0
100
AcDbLine
 62
7
  6
CONTINUOUS
 10
102.4631902282
 20
56.4954337512
 11
102.416315407
 21
56.6869230901
  0
LINE
  5
456
100
AcDbEntity
  8
0
100
AcDbLine
 62
7
  6
CONTINUOUS
 10
104.6506246408
 20
43.2720294331
 11
104.6506246408
 21
42.7720294331
  0
LINE
  5
457
100
AcDbEntity
  8
0
100
AcDbLine
 62
7
  6
CONTINUOUS
 10
104.9557565517
 20
43.2720294331
 11
104.9557565517
 21
42.7720294331
  0
LINE
  5
458
100
AcDbEntity
  8
0
100
AcDbLine
 62
7
  6
CONTINUOUS
 10
105.2471096427
 20
43.2720294331
 11
105.2471096427
 21
42.7720294331
  0
LINE
  5
459
100
AcDbEntity
  8
0
100
AcDbLine
 62
7
  6
CONTINUOUS
 10
105.2522527282
 20
34.2867117751
 11
105.2522527282
 21
33.9591160327
  0
LINE
  5
45A
100
AcDbEntity
  8
0
100
AcDbLine
 62
7
  6
CONTINUOUS
 10
105.4498784149
 20
43.2720294331
 11
105.4498784149
 21
42.7720294331
  0
LINE
  5
45B
100
AcDbEntity
  8
0
100
AcDbLine
 62
7
  6
CONTINUOUS
 10
105.5778419502
 20
43.2720294331
 11
105.5778419502
 21
42.7720294331
  0
LINE
  5
45C
100
AcDbEntity
  8
0
100
AcDbLine
 62
7
  6
CONTINUOUS
 10
105.5975315584
 20
43.2720294331
 11
105.5975315584
 21
42.7720294331
  0
LINE
  5
45D
100
AcDbEntity
  8
0
100
AcDbLine
 62
7
  6
CONTINUOUS
 10
105.7991281454
 20
34.4785389059
 11
105.7991281454
 21
34.1636010269
  0
LINE
  5
45E
100
AcDbEntity
  8
BEZUGSACHSEN
100
AcDbLine
 62
7
  6
CONTINUOUS
 10
73.7511962931
 20
55.2720294331
 11
125.9279243775
 21
55.2720294331
  0
LINE
  5
45F
100
AcDbEntity
  8
0
100
AcDbLine
 62
7
  6
CONTINUOUS
 10
102.0881905858
 20
56.6390507554
 11
102.1819402282
 21
56.4954337512
  0
LINE
  5
460
100
AcDbEntity
  8
0
100
AcDbLine
 62
7
  6
CONTINUOUS
 10
106.7038705176
 20
43.2720294331
 11
106.7038705176
 21
42.7720294331
  0
LINE
  5
461
100
AcDbEntity
  8
0
100
AcDbLine
 62
7
  6
CONTINUOUS
 10
106.7117097119
 20
43.2720294331
 11
106.7117097119
 21
42.7720294331
  0
LINE
  5
462
100
AcDbEntity
  8
0
100
AcDbLine
 62
7
  6
CONTINUOUS
 10
106.8240688868
 20
43.2720294331
 11
106.8240688868
 21
42.7720294331
  0
LINE
  5
463
100
AcDbEntity
  8
0
100
AcDbLine
 62
7
  6
CONTINUOUS
 10
107.0022535626
 20
35.0123088471
 11
107.0022535626
 21
34.8117979511
  0
LINE
  5
464
100
AcDbEntity
  8
0
100
AcDbLine
 62
7
  6
CONTINUOUS
 10
101.291315407
 20
56.7347954248
 11
101.5256903176
 21
56.7826677595
  0
LINE
  5
465
100
AcDbEntity
  8
0
100
AcDbLine
 62
7
  6
CONTINUOUS
 10
101.572565407
 20
57.0220294331
 11
101.2444403176
 21
56.9741570984
  0
LINE
  5
466
100
AcDbEntity
  8
0
100
AcDbLine
 62
7
  6
CONTINUOUS
 10
100.8225653176
 20
56.4954337512
 11
101.0569404964
 21
56.4954337512
  0
LINE
  5
467
100
AcDbEntity
  8
0
100
AcDbLine
 62
7
  6
CONTINUOUS
 10
101.5256903176
 20
56.7826677595
 11
101.713190407
 21
56.7826677595
  0
LINE
  5
468
100
AcDbEntity
  8
0
100
AcDbLine
 62
7
  6
CONTINUOUS
 10
101.7600652282
 20
57.0220294331
 11
101.572565407
 21
57.0220294331
  0
LINE
  5
469
100
AcDbEntity
  8
0
100
AcDbLine
 62
7
  6
CONTINUOUS
 10
100.4006903176
 20
57.0220294331
 11
100.1194403176
 21
57.0220294331
  0
LINE
  5
46A
100
AcDbEntity
  8
0
100
AcDbLine
 62
7
  6
CONTINUOUS
 10
99.463190407
 20
57.0220294331
 11
99.041315407
 21
57.0220294331
  0
LINE
  5
46B
100
AcDbEntity
  8
0
100
AcDbLine
 62
7
  6
CONTINUOUS
 10
97.635065407
 20
57.0220294331
 11
97.213190407
 21
57.0220294331
  0
LINE
  5
46C
100
AcDbEntity
  8
0
100
AcDbLine
 62
7
  6
CONTINUOUS
 10
102.0413152282
 20
56.9741570984
 11
101.7600652282
 21
57.0220294331
  0
LINE
  5
46D
100
AcDbEntity
  8
0
100
AcDbLine
 62
7
  6
CONTINUOUS
 10
101.713190407
 20
56.7826677595
 11
101.9475655858
 21
56.7347954248
  0
LINE
  5
46E
100
AcDbEntity
  8
0
100
AcDbLine
 62
7
  6
CONTINUOUS
 10
102.2288155858
 20
56.878412429
 11
102.0413152282
 21
56.9741570984
  0
LINE
  5
46F
100
AcDbEntity
  8
0
100
AcDbLine
 62
7
  6
CONTINUOUS
 10
101.9475655858
 20
56.7347954248
 11
102.0881905858
 21
56.6390507554
  0
LINE
  5
470
100
AcDbEntity
  8
0
100
AcDbLine
 62
7
  6
CONTINUOUS
 10
102.416315407
 20
56.6869230901
 11
102.2288155858
 21
56.878412429
  0
LINE
  5
471
100
AcDbEntity
  8
0
100
AcDbLine
 62
7
  6
CONTINUOUS
 10
109.0470162613
 20
43.2720294331
 11
109.0470162613
 21
42.7720294331
  0
LINE
  5
472
100
AcDbEntity
  8
0
100
AcDbLine
 62
7
  6
CONTINUOUS
 10
110.7802607827
 20
43.2720294331
 11
110.7802607827
 21
42.7720294331
  0
LINE
  5
473
100
AcDbEntity
  8
0
100
AcDbLine
 62
7
  6
CONTINUOUS
 10
111.2174491227
 20
43.2720294331
 11
111.2174491227
 21
42.7720294331
  0
LINE
  5
474
100
AcDbEntity
  8
0
100
AcDbLine
 62
7
  6
CONTINUOUS
 10
112.8790245797
 20
43.2720294331
 11
112.8790245797
 21
42.7720294331
  0
LINE
  5
475
100
AcDbEntity
  8
0
100
AcDbLine
 62
7
  6
CONTINUOUS
 10
114.069947678
 20
43.2720294331
 11
114.069947678
 21
42.7720294331
  0
LINE
  5
476
100
AcDbEntity
  8
0
100
AcDbLine
 62
7
  6
CONTINUOUS
 10
114.2792493159
 20
43.2720294331
 11
114.2792493159
 21
42.7720294331
  0
LINE
  5
477
100
AcDbEntity
  8
0
100
AcDbLine
 62
7
  6
CONTINUOUS
 10
114.361313719
 20
43.2720294331
 11
114.361313719
 21
42.7720294331
  0
LINE
  5
478
100
AcDbEntity
  8
0
100
AcDbLine
 62
7
  6
CONTINUOUS
 10
116.8178747613
 20
43.2720294331
 11
116.8178747613
 21
42.7720294331
  0
LWPOLYLINE
  5
479
100
AcDbEntity
  8
BEZUGSACHSEN
100
AcDbPolyline
 62
7
  6
CONTINUOUS
 90
23
 70
0
 10
111.7621449755
 20
59.9403544789
 10
110.9524807055
 20
60.7772691228
 10
110.0282370372
 20
61.5949703652
 10
109.0457984506
 20
62.334544201
 10
108.0108411057
 20
62.9938612321
 10
106.9296359983
 20
63.5704776178
 10
105.8085618541
 20
64.0622109046
 10
104.6540863574
 20
64.4671655159
 10
103.4727509015
 20
64.7837599676
 10
102.2712071584
 20
65.0107326988
 10
101.0561521265
 20
65.1471725917
 10
99.8343597135
 20
65.1925240644
 10
98.612594117
 20
65.1466026098
 10
97.397615383
 20
65.0095954186
 10
96.196201004
 20
64.7820636599
 10
95.0150503121
 20
64.4649255607
 10
93.8608200444
 20
64.0594511129
 10
92.7400550207
 20
63.5672317016
 10
91.6592192102
 20
62.9901697849
 10
90.6246921304
 20
62.3304599456
 10
89.6427285196
 20
61.5905476619
 10
88.7189831475
 20
60.7725531635
 10
87.914234762
 20
59.940354927
  0
LINE
  5
47A
100
AcDbEntity
  8
0
100
AcDbLine
 62
7
  6
CONTINUOUS
 10
119.666697179
 20
43.2720294331
 11
119.666697179
 21
42.7720294331
  0
LINE
  5
47B
100
AcDbEntity
  8
0
100
AcDbLine
 62
7
  6
CONTINUOUS
 10
120.926697179
 20
43.2720294331
 11
120.926697179
 21
42.7720294331
  0
LINE
  5
47C
100
AcDbEntity
  8
RUNDUNGEN
100
AcDbLine
 62
7
  6
CONTINUOUS
 10
127.9281165198
 20
45.2720294331
 11
127.9281165198
 21
53.2720294331
  0
ARC
  5
47D
100
AcDbEntity
  8
RUNDUNGEN
100
AcDbCircle
 62
7
  6
CONTINUOUS
 10
90.0257417207
 20
133.1982269831
 40
39.0
100
AcDbArc
 50
14.1847958619
 51
74.1828637372
  0
ARC
  5
47E
100
AcDbEntity
  8
BEZUGSACHSEN
100
AcDbCircle
 62
7
  6
CONTINUOUS
 10
78.838190407
 20
114.1982269831
 40
6.0
100
AcDbArc
 50
0.0
 51
53.1872189461
  0
ARC
  5
47F
100
AcDbEntity
  8
0
100
AcDbCircle
 62
7
  6
CONTINUOUS
 10
91.1431107551
 20
136.7590377939
 40
5.0
100
AcDbArc
 50
209.5984257403
 51
233.0507250063
  0
ARC
  5
480
100
AcDbEntity
  8
BEZUGSACHSEN
100
AcDbCircle
 62
7
  6
CONTINUOUS
 10
83.6317974849
 20
120.6030314228
 40
2.0
100
AcDbArc
 50
205.0007153886
 51
233.1878494892
  0
ARC
  5
481
100
AcDbEntity
  8
BEZUGSACHSEN
100
AcDbCircle
 62
7
  6
CONTINUOUS
 10
74.7482642942
 20
142.0200314121
 40
3.0
100
AcDbArc
 50
165.8152040092
 51
205.0000001523
  0
ARC
  5
482
100
AcDbEntity
  8
RUNDUNGEN
100
AcDbCircle
 62
7
  6
CONTINUOUS
 10
74.7482642942
 20
142.0200314121
 40
3.0
100
AcDbArc
 50
165.8152041381
 51
205.0
  0
ARC
  5
483
100
AcDbEntity
  8
BEZUGSACHSEN
100
AcDbCircle
 62
7
  6
CONTINUOUS
 10
109.6506390933
 20
133.1982269831
 40
39.0
100
AcDbArc
 50
162.0653252761
 51
165.8152041381
  0
ARC
  5
484
100
AcDbEntity
  8
RUNDUNGEN
100
AcDbCircle
 62
7
  6
CONTINUOUS
 10
109.6506390933
 20
133.1982269831
 40
39.0
100
AcDbArc
 50
105.8171362628
 51
165.8152041381
  0
ARC
  5
485
100
AcDbEntity
  8
BEZUGSACHSEN
100
AcDbCircle
 62
7
  6
CONTINUOUS
 10
120.838190407
 20
114.1982269831
 40
6.0
100
AcDbArc
 50
126.8127810539
 51
180.0
  0
ARC
  5
486
100
AcDbEntity
  8
0
100
AcDbCircle
 62
7
  6
CONTINUOUS
 10
120.838190407
 20
114.1982269831
 40
6.0
100
AcDbArc
 50
126.8127810539
 51
180.0
  0
ARC
  5
487
100
AcDbEntity
  8
0
100
AcDbCircle
 62
7
  6
CONTINUOUS
 10
108.5332700589
 20
136.7590377939
 40
5.0
100
AcDbArc
 50
306.94909505
 51
330.4016634563
  0
ARC
  5
488
100
AcDbEntity
  8
BEZUGSACHSEN
100
AcDbCircle
 62
7
  6
CONTINUOUS
 10
116.0445820026
 20
120.6030285782
 40
2.0
100
AcDbArc
 50
306.8122297624
 51
334.9993745266
  0
ARC
  5
489
100
AcDbEntity
  8
RUNDUNGEN
100
AcDbCircle
 62
7
  6
CONTINUOUS
 10
99.838190407
 20
141.6982269831
 40
15.0
100
AcDbArc
 50
330.4015625761
 51
209.5984671562
  0
ARC
  5
48A
100
AcDbEntity
  8
BEZUGSACHSEN
100
AcDbCircle
 62
7
  6
CONTINUOUS
 10
124.9281165198
 20
142.0200314121
 40
3.0
100
AcDbArc
 50
334.9999998711
 51
339.5257076219
  0
ARC
  5
48B
100
AcDbEntity
  8
RUNDUNGEN
100
AcDbCircle
 62
7
  6
CONTINUOUS
 10
124.9281165198
 20
142.0200314121
 40
3.0
100
AcDbArc
 50
335.0
 51
14.1847958619
  0
ARC
  5
48C
100
AcDbEntity
  8
RUNDUNGEN
100
AcDbCircle
 62
7
  6
CONTINUOUS
 10
99.838190407
 20
167.8351415509
 40
3.0
100
AcDbArc
 50
74.1828637372
 51
105.8171362628
  0
ARC
  5
48D
100
AcDbEntity
  8
0
100
AcDbCircle
 62
7
  6
CONTINUOUS
 10
119.5678747613
 20
150.8144054955
 40
1.49
100
AcDbArc
 50
24.2221809446
 51
215.7778190554
  0
ARC
  5
48E
100
AcDbEntity
  8
0
100
AcDbCircle
 62
7
  6
CONTINUOUS
 10
118.3078747613
 20
152.996789513
 40
1.49
100
AcDbArc
 50
24.2221809446
 51
215.7778190554
  0
ARC
  5
48F
100
AcDbEntity
  8
0
100
AcDbCircle
 62
7
  6
CONTINUOUS
 10
119.5678747613
 20
150.8144054955
 40
1.05
100
AcDbArc
 50
132.1837511226
 51
218.2132107017
  0
ARC
  5
490
100
AcDbEntity
  8
0
100
AcDbCircle
 62
7
  6
CONTINUOUS
 10
119.5678747613
 20
150.8144054955
 40
1.05
100
AcDbArc
 50
21.7867892983
 51
107.8162488774
  0
ARC
  5
491
100
AcDbEntity
  8
0
100
AcDbCircle
 62
7
  6
CONTINUOUS
 10
118.3078747613
 20
152.996789513
 40
1.05
100
AcDbArc
 50
32.8938283409
 51
218.2132107017
  0
ARC
  5
492
100
AcDbEntity
  8
BEZUGSACHSEN
100
AcDbCircle
 62
7
  6
CONTINUOUS
 10
166.8373909884
 20
114.1982269831
 40
6.0
100
AcDbArc
 50
0.0
 51
9.3297833329
  0
ARC
  5
493
100
AcDbEntity
  8
BEZUGSACHSEN
100
AcDbCircle
 62
7
  6
CONTINUOUS
 10
173.916895876
 20
124.9178806754
 40
2.0
100
AcDbArc
 50
117.0
 51
183.7069628101
  0
ARC
  5
494
100
AcDbEntity
  8
BEZUGSACHSEN
100
AcDbCircle
 62
7
  6
CONTINUOUS
 10
175.3373909884
 20
135.181432106
 40
6.5
100
AcDbArc
 50
297.0010388227
 51
360.0
  0
ARC
  5
495
100
AcDbEntity
  8
0
100
AcDbCircle
 62
7
  6
CONTINUOUS
 10
175.3373909884
 20
135.181432106
 40
6.5
100
AcDbArc
 50
312.7113405997
 51
319.2029836558
  0
ARC
  5
496
100
AcDbEntity
  8
BEZUGSACHSEN
100
AcDbCircle
 62
7
  6
CONTINUOUS
 10
183.8373909884
 20
168.8351415509
 40
2.0
100
AcDbArc
 50
90.0
 51
180.0
  0
ARC
  5
497
100
AcDbEntity
  8
0
100
AcDbCircle
 62
7
  6
CONTINUOUS
 10
200.3373909884
 20
135.181432106
 40
6.5
100
AcDbArc
 50
220.7970163442
 51
227.2886594003
  0
ARC
  5
498
100
AcDbEntity
  8
RUNDUNGEN
100
AcDbCircle
 62
7
  6
CONTINUOUS
 10
200.3373909884
 20
135.181432106
 40
6.5
100
AcDbArc
 50
180.0
 51
242.9989611773
  0
ARC
  5
499
100
AcDbEntity
  8
RUNDUNGEN
100
AcDbCircle
 62
7
  6
CONTINUOUS
 10
201.7578861008
 20
124.9178806754
 40
2.0
100
AcDbArc
 50
356.2930371899
 51
63.0
  0
ARC
  5
49A
100
AcDbEntity
  8
0
100
AcDbCircle
 62
7
  6
CONTINUOUS
 10
208.8373909884
 20
114.1982269831
 40
6.0
100
AcDbArc
 50
170.6702166671
 51
180.0
  0
ARC
  5
49B
100
AcDbEntity
  8
RUNDUNGEN
100
AcDbCircle
 62
7
  6
CONTINUOUS
 10
191.8373909884
 20
168.8351415509
 40
2.0
100
AcDbArc
 50
0.0
 51
90.0
  0
ARC
  5
49C
100
AcDbEntity
  8
RUNDUNGEN
100
AcDbCircle
 62
7
  6
CONTINUOUS
 10
76.6798989173
 20
28.529708533
 40
15.08959844
100
AcDbArc
 50
41.8923840838
 51
42.9475461846
  0
ARC
  5
49D
100
AcDbEntity
  8
RUNDUNGEN
100
AcDbCircle
 62
7
  6
CONTINUOUS
 10
77.477510632
 20
29.2720294331
 40
14.0
100
AcDbArc
 50
87.6973771975
 51
90.0
  0
ARC
  5
49E
100
AcDbEntity
  8
RUNDUNGEN
100
AcDbCircle
 62
7
  6
CONTINUOUS
 10
77.477510632
 20
29.2720294331
 40
14.0
100
AcDbArc
 50
42.9478946915
 51
74.4776465991
  0
ARC
  5
49F
100
AcDbEntity
  8
RUNDUNGEN
100
AcDbCircle
 62
7
  6
CONTINUOUS
 10
73.7482642942
 20
45.2720294331
 40
2.0
100
AcDbArc
 50
180.0
 51
270.0
  0
ARC
  5
4A0
100
AcDbEntity
  8
BEZUGSACHSEN
100
AcDbCircle
 62
7
  6
CONTINUOUS
 10
76.6798989174
 20
70.0143503332
 40
15.0895984399
100
AcDbArc
 50
317.0524538154
 51
318.1076159162
  0
ARC
  5
4A1
100
AcDbEntity
  8
BEZUGSACHSEN
100
AcDbCircle
 62
7
  6
CONTINUOUS
 10
77.477510632
 20
69.2720294331
 40
14.0
100
AcDbArc
 50
270.0
 51
317.0521053085
  0
ARC
  5
4A2
100
AcDbEntity
  8
BEZUGSACHSEN
100
AcDbCircle
 62
7
  6
CONTINUOUS
 10
73.7482642942
 20
53.2720294331
 40
2.0
100
AcDbArc
 50
90.0
 51
180.0
  0
ARC
  5
4A3
100
AcDbEntity
  8
RUNDUNGEN
100
AcDbCircle
 62
7
  6
CONTINUOUS
 10
122.9963657059
 20
28.5298147046
 40
15.0894410532
100
AcDbArc
 50
137.052448314
 51
138.107593494
  0
ARC
  5
4A4
100
AcDbEntity
  8
RUNDUNGEN
100
AcDbCircle
 62
7
  6
CONTINUOUS
 10
122.198870182
 20
29.2720294331
 40
14.0
100
AcDbArc
 50
105.3243663813
 51
137.0520875947
  0
ARC
  5
4A5
100
AcDbEntity
  8
RUNDUNGEN
100
AcDbCircle
 62
7
  6
CONTINUOUS
 10
122.198870182
 20
29.2720294331
 40
14.0
100
AcDbArc
 50
90.0
 51
95.1829038765
  0
ARC
  5
4A6
100
AcDbEntity
  8
RUNDUNGEN
100
AcDbCircle
 62
7
  6
CONTINUOUS
 10
125.9281165198
 20
45.2720294331
 40
2.0
100
AcDbArc
 50
270.0
 51
360.0
  0
ARC
  5
4A7
100
AcDbEntity
  8
0
100
AcDbCircle
 62
7
  6
CONTINUOUS
 10
99.838190407
 20
49.2720294331
 40
16.3330522223
100
AcDbArc
 50
269.0407467778
 51
282.1775099462
  0
ARC
  5
4A8
100
AcDbEntity
  8
0
100
AcDbCircle
 62
7
  6
CONTINUOUS
 10
99.838190407
 20
49.2720294331
 40
16.2418406478
100
AcDbArc
 50
289.4716525664
 51
291.5314090952
  0
ARC
  5
4A9
100
AcDbEntity
  8
0
100
AcDbCircle
 62
7
  6
CONTINUOUS
 10
99.838190407
 20
49.2720294331
 40
16.1375988118
100
AcDbArc
 50
291.6775056745
 51
296.3552927091
  0
ARC
  5
4AA
100
AcDbEntity
  8
0
100
AcDbCircle
 62
7
  6
CONTINUOUS
 10
99.838190407
 20
49.2720294331
 40
16.1375988118
100
AcDbArc
 50
286.3361676237
 51
289.6025608176
  0
ARC
  5
4AB
100
AcDbEntity
  8
0
100
AcDbCircle
 62
7
  6
CONTINUOUS
 10
99.838190407
 20
49.2720294331
 40
12.25
100
AcDbArc
 50
212.0472053846
 51
327.9527833212
  0
ARC
  5
4AC
100
AcDbEntity
  8
0
100
AcDbCircle
 62
7
  6
CONTINUOUS
 10
99.838190407
 20
49.2720294331
 40
12.25
100
AcDbArc
 50
29.3278420857
 51
150.6721203593
  0
ARC
  5
4AD
100
AcDbEntity
  8
RUNDUNGEN
100
AcDbCircle
 62
7
  6
CONTINUOUS
 10
99.838190407
 20
49.2720294331
 40
12.0
100
AcDbArc
 50
212.8516003977
 51
327.1521408394
  0
ARC
  5
4AE
100
AcDbEntity
  8
RUNDUNGEN
100
AcDbCircle
 62
7
  6
CONTINUOUS
 10
99.838190407
 20
49.2720294331
 40
12.0
100
AcDbArc
 50
30.0000000588
 51
149.999999938
  0
ARC
  5
4AF
100
AcDbEntity
  8
BEZUGSACHSEN
100
AcDbCircle
 62
7
  6
CONTINUOUS
 10
125.9281165198
 20
53.2720294331
 40
2.0
100
AcDbArc
 50
0.0
 51
90.0
  0
ARC
  5
4B0
100
AcDbEntity
  8
BEZUGSACHSEN
100
AcDbCircle
 62
7
  6
CONTINUOUS
 10
122.9963657059
 20
70.0142441617
 40
15.0894410532
100
AcDbArc
 50
221.892406506
 51
222.947551686
  0
ARC
  5
4B1
100
AcDbEntity
  8
BEZUGSACHSEN
100
AcDbCircle
 62
7
  6
CONTINUOUS
 10
122.198870182
 20
69.2720294331
 40
14.0
100
AcDbArc
 50
222.9479124053
 51
270.0
  0
SPLINE
  5
4B2
100
AcDbEntity
  8
0
100
AcDbSpline
 62
7
  6
CONTINUOUS
 70
0
 71
3
 72
9
 73
5
 74
0
 42
0.0000001
 43
0.0000001
 44
0.0000000001
 40
0.0
 40
0.0
 40
0.0
 40
0.0
 40
0.4970925622
 40
1.0
 40
1.0
 40
1.0
 40
1.0
 10
109.0359003227
 20
130.4053612372
 30
0.0
 10
108.8253180473
 20
130.1843746087
 30
0.0
 10
108.3478058891
 20
129.7883305047
 30
0.0
 10
107.7971829635
 20
129.506904312
 30
0.0
 10
107.5113852867
 20
129.3898896988
 30
0.0
  0
SPLINE
  5
4B3
100
AcDbEntity
  8
0
100
AcDbSpline
 62
7
  6
CONTINUOUS
 70
0
 71
3
 72
9
 73
5
 74
0
 42
0.0000001
 43
0.0000001
 44
0.0000000001
 40
0.0
 40
0.0
 40
0.0
 40
0.0
 40
0.5029084761
 40
1.0
 40
1.0
 40
1.0
 40
1.0
 10
92.1649955273
 20
129.3898896988
 30
0.0
 10
91.8791975286
 20
129.5069044438
 30
0.0
 10
91.328575205
 20
129.7883305291
 30
0.0
 10
90.8510632968
 20
130.1843739539
 30
0.0
 10
90.6404815582
 20
130.4053598176
 30
0.0
  0
SPLINE
  5
4B4
100
AcDbEntity
  8
0
100
AcDbSpline
 62
7
  6
CONTINUOUS
 70
0
 71
3
 72
10
 73
6
 74
0
 42
0.0000001
 43
0.0000001
 44
0.0000000001
 40
0.0
 40
0.0
 40
0.0
 40
0.0
 40
0.55328927
 40
0.7925589983
 40
1.0
 40
1.0
 40
1.0
 40
1.0
 10
89.0074648734
 20
132.0137103325
 30
0.0
 10
88.847684128
 20
132.1527252394
 30
0.0
 10
88.6195488883
 20
132.3527518905
 30
0.0
 10
88.3321573471
 20
132.605495805
 30
0.0
 10
88.2010278615
 20
132.7154683604
 30
0.0
 10
88.1375699147
 20
132.7631993297
 30
0.0
  0
SPLINE
  5
4B5
100
AcDbEntity
  8
0
100
AcDbSpline
 62
7
  6
CONTINUOUS
 70
0
 71
3
 72
10
 73
6
 74
0
 42
0.0000001
 43
0.0000001
 44
0.0000000001
 40
0.0
 40
0.0
 40
0.0
 40
0.0
 40
0.2198994947
 40
0.462366079
 40
1.0
 40
1.0
 40
1.0
 40
1.0
 10
110.6689202833
 20
132.0137143464
 30
0.0
 10
110.542135873
 20
131.9034111627
 30
0.0
 10
110.2822544466
 20
131.6638114424
 30
0.0
 10
109.7354146031
 20
131.1299384562
 30
0.0
 10
109.3193419084
 20
130.70281404
 30
0.0
 10
109.0359003218
 20
130.4053683007
 30
0.0
  0
SPLINE
  5
4B6
100
AcDbEntity
  8
0
100
AcDbSpline
 62
7
  6
CONTINUOUS
 70
0
 71
3
 72
10
 73
6
 74
0
 42
0.0000001
 43
0.0000001
 44
0.0000000001
 40
0.0
 40
0.0
 40
0.0
 40
0.0
 40
0.5376339904
 40
0.7801006226
 40
1.0
 40
1.0
 40
1.0
 40
1.0
 10
90.6404815591
 20
130.405366529
 30
0.0
 10
90.3570402778
 20
130.7028116766
 30
0.0
 10
89.9409691375
 20
131.1299363166
 30
0.0
 10
89.3941305733
 20
131.6638087868
 30
0.0
 10
89.1342492516
 20
131.9034076797
 30
0.0
 10
89.0074648734
 20
132.0137103325
 30
0.0
  0
SPLINE
  5
4B7
100
AcDbEntity
  8
0
100
AcDbSpline
 62
7
  6
CONTINUOUS
 70
0
 71
3
 72
10
 73
6
 74
0
 42
0.0000001
 43
0.0000001
 44
0.0000000001
 40
0.0
 40
0.0
 40
0.0
 40
0.0
 40
0.2074424594
 40
0.4467126423
 40
1.0
 40
1.0
 40
1.0
 40
1.0
 10
111.5387986006
 20
132.7631900696
 30
0.0
 10
111.4753412348
 20
132.7154598494
 30
0.0
 10
111.3442145217
 20
132.6054877233
 30
0.0
 10
111.0568285131
 20
132.3527483257
 30
0.0
 10
110.8286972887
 20
132.1527264532
 30
0.0
 10
110.6689202833
 20
132.0137143464
 30
0.0
  0
LINE
  5
4B8
100
AcDbEntity
  8
0
100
AcDbLine
 62
7
  6
CONTINUOUS
 10
202.3843061343
 20
119.6769504495
 11
202.4844523738
 21
120.7195035167
  0
LINE
  5
4B9
100
AcDbEntity
  8
0
100
AcDbLine
 62
7
  6
CONTINUOUS
 10
203.4762175187
 20
119.528014297
 11
203.59594091
 21
120.8684396692
  0
LINE
  5
4BA
100
AcDbEntity
  8
0
100
AcDbLine
 62
7
  6
CONTINUOUS
 10
201.5444155711
 20
119.528014297
 11
201.6766035135
 21
120.8684396692
  0
LINE
  5
4BB
100
AcDbEntity
  8
0
100
AcDbLine
 62
7
  6
CONTINUOUS
 10
202.8497428981
 20
119.6769504495
 11
202.9437743028
 21
120.7195035167
  0
LINE
  5
4BC
100
AcDbEntity
  8
0
100
AcDbLine
 62
7
  6
CONTINUOUS
 10
203.4606027293
 20
120.7195035167
 11
203.3667527954
 21
119.6769504495
  0
LINE
  5
4BD
100
AcDbEntity
  8
0
100
AcDbLine
 62
7
  6
CONTINUOUS
 10
203.6160826689
 20
123.125792457
 11
203.6520784039
 21
123.5371639658
  0
LINE
  5
4BE
100
AcDbEntity
  8
0
100
AcDbLine
 62
7
  6
CONTINUOUS
 10
203.6520784039
 20
123.5371639658
 11
203.6661716962
 21
123.6982269831
  0
LINE
  5
4BF
100
AcDbEntity
  8
0
100
AcDbLine
 62
7
  6
CONTINUOUS
 10
202.2394329121
 20
120.8684396692
 11
202.1083338859
 21
119.528014297
  0
ELLIPSE
  5
4C0
100
AcDbEntity
  8
0
100
AcDbEllipse
 62
7
  6
CONTINUOUS
 10
99.838190407
 20
134.2553796801
 30
0.0
 11
12.25
 21
-0.0
 31
0.0
 40
0.5095254495
 41
-2.2477011046
 42
-0.893891549
  0
ELLIPSE
  5
4C1
100
AcDbEntity
  8
0
100
AcDbEllipse
 62
7
  6
CONTINUOUS
 10
187.8373909884
 20
122.4698647904
 30
0.0
 11
0.0
 21
29.459216235
 31
0.0
 40
0.5437883212
 41
-1.7474099684
 42
-1.7303161208
  0
ELLIPSE
  5
4C2
100
AcDbEntity
  8
0
100
AcDbEllipse
 62
7
  6
CONTINUOUS
 10
187.8373909884
 20
131.8950445458
 30
0.0
 11
0.0
 21
34.8259303431
 31
0.0
 40
0.4817023708
 41
-1.9338278801
 42
-1.9246941012
  0
ELLIPSE
  5
4C3
100
AcDbEntity
  8
0
100
AcDbEllipse
 62
7
  6
CONTINUOUS
 10
187.8373909884
 20
160.3424645654
 30
0.0
 11
-0.0
 21
79.8188001507
 31
0.0
 40
0.2286238849
 41
-2.1140647519
 42
-2.1075382765
  0
ELLIPSE
  5
4C4
100
AcDbEntity
  8
0
100
AcDbEllipse
 62
7
  6
CONTINUOUS
 10
187.8373909884
 20
130.8033564226
 30
0.0
 11
0.0
 21
69.2614923229
 31
0.0
 40
0.2286240073
 41
-1.7495949507
 42
-1.7452250321
  0
ELLIPSE
  5
4C5
100
AcDbEntity
  8
0
100
AcDbEllipse
 62
7
  6
CONTINUOUS
 10
187.8373909884
 20
118.4443930091
 30
0.0
 11
15.8327976273
 21
0.0
 31
0.0
 40
0.8191159012
 41
-0.1234719931
 42
-0.0888229378
  0
ELLIPSE
  5
4C6
100
AcDbEntity
  8
0
100
AcDbEllipse
 62
7
  6
CONTINUOUS
 10
187.8373909884
 20
117.1728478861
 30
0.0
 11
15.7576807083
 21
0.0
 31
0.0
 40
0.2724178592
 41
-0.1107918554
 42
-0.0759428808
  0
ELLIPSE
  5
4C7
100
AcDbEntity
  8
0
100
AcDbEllipse
 62
7
  6
CONTINUOUS
 10
187.8373909884
 20
129.4919729547
 30
0.0
 11
0.0
 21
42.0401325302
 31
0.0
 40
0.3908971725
 41
-1.9024198188
 42
-1.8614814129
  0
ELLIPSE
  5
4C8
100
AcDbEntity
  8
0
100
AcDbEllipse
 62
7
  6
CONTINUOUS
 10
187.8373909884
 20
141.4336859616
 30
0.0
 11
0.0
 21
36.530473756
 31
0.0
 40
0.4817025833
 41
-2.1442972866
 42
-2.1154407028
  0
ELLIPSE
  5
4C9
100
AcDbEntity
  8
0
100
AcDbEllipse
 62
7
  6
CONTINUOUS
 10
187.8373909884
 20
129.2298744179
 30
0.0
 11
16.7638847307
 21
0.0
 31
0.0
 40
0.9106778712
 41
-0.4560274175
 42
-0.4344080105
  0
ELLIPSE
  5
4CA
100
AcDbEntity
  8
0
100
AcDbEllipse
 62
7
  6
CONTINUOUS
 10
187.8373909884
 20
124.474865385
 30
0.0
 11
16.3963430984
 21
-0.0
 31
0.0
 40
0.2724177574
 41
-0.3832522293
 42
-0.3475493764
  0
ELLIPSE
  5
4CB
100
AcDbEntity
  8
0
100
AcDbEllipse
 62
7
  6
CONTINUOUS
 10
187.8373909884
 20
116.1297023314
 30
0.0
 11
15.6664432105
 21
0.0
 31
0.0
 40
0.2724177574
 41
0.3127743453
 42
0.3496798616
  0
ELLIPSE
  5
4CC
100
AcDbEntity
  8
0
100
AcDbEllipse
 62
7
  6
CONTINUOUS
 10
187.8373909884
 20
113.4923096697
 30
0.0
 11
15.3913756381
 21
-0.0
 31
0.0
 40
0.9106778712
 41
0.2968164946
 42
0.319117579
  0
ELLIPSE
  5
4CD
100
AcDbEntity
  8
0
100
AcDbEllipse
 62
7
  6
CONTINUOUS
 10
187.8373909884
 20
111.0484677492
 30
0.0
 11
0.0
 21
31.1006145962
 31
0.0
 40
0.4817027576
 41
-1.3490110814
 42
-1.3194537356
  0
ELLIPSE
  5
4CE
100
AcDbEntity
  8
0
100
AcDbEllipse
 62
7
  6
CONTINUOUS
 10
187.8373909884
 20
199.9694404713
 30
0.0
 11
-0.0
 21
187.963250178
 31
0.0
 40
0.0855948241
 41
-2.0174228498
 42
-2.0121581874
  0
ELLIPSE
  5
4CF
100
AcDbEntity
  8
0
100
AcDbEllipse
 62
7
  6
CONTINUOUS
 10
187.8373909884
 20
423.193957118
 30
0.0
 11
-0.0
 21
347.5242750004
 31
0.0
 40
0.085594865
 41
-2.6267481145
 42
-2.6215498323
  0
ELLIPSE
  5
4D0
100
AcDbEntity
  8
0
100
AcDbEllipse
 62
7
  6
CONTINUOUS
 10
187.8373909884
 20
117.9486386764
 30
0.0
 11
15.8269076698
 21
0.0
 31
0.0
 40
0.2269950976
 41
-0.3554892548
 42
-0.3116116312
  0
ELLIPSE
  5
4D1
100
AcDbEntity
  8
0
100
AcDbEllipse
 62
7
  6
CONTINUOUS
 10
187.8373909884
 20
121.4982947026
 30
0.0
 11
16.0992959148
 21
0.0
 31
0.0
 40
0.8191163723
 41
-0.3604555531
 42
-0.324482734
  0
ELLIPSE
  5
4D2
100
AcDbEntity
  8
0
100
AcDbEllipse
 62
7
  6
CONTINUOUS
 10
187.8373909884
 20
125.4039692144
 30
0.0
 11
0.0
 21
22.4439629474
 31
0.0
 40
0.729144963
 41
-1.9405055068
 42
-1.91924119
  0
ELLIPSE
  5
4D3
100
AcDbEntity
  8
0
100
AcDbEllipse
 62
7
  6
CONTINUOUS
 10
187.8373909884
 20
139.1979474575
 30
0.0
 11
0.0
 21
48.174624435
 31
0.0
 40
0.3566120044
 41
-2.0324216951
 42
-2.0186563192
  0
ELLIPSE
  5
4D4
100
AcDbEntity
  8
0
100
AcDbEllipse
 62
7
  6
CONTINUOUS
 10
187.8373909884
 20
161.025407043
 30
0.0
 11
0.0
 21
80.0628463699
 31
0.0
 40
0.2286240073
 41
-2.1331656926
 42
-2.1265826582
  0
ELLIPSE
  5
4D5
100
AcDbEntity
  8
0
100
AcDbEllipse
 62
7
  6
CONTINUOUS
 10
187.8373909884
 20
253.9542496645
 30
0.0
 11
0.0
 21
188.7932491561
 31
0.0
 40
0.1179743671
 41
-2.3688135257
 42
-2.3631797651
  0
ELLIPSE
  5
4D6
100
AcDbEntity
  8
0
100
AcDbEllipse
 62
7
  6
CONTINUOUS
 10
187.8373909884
 20
187.9325641188
 30
0.0
 11
0.0
 21
149.4661913166
 31
0.0
 40
0.1179744183
 41
-2.0360963298
 42
-2.0305291219
  0
ELLIPSE
  5
4D7
100
AcDbEntity
  8
0
100
AcDbEllipse
 62
7
  6
CONTINUOUS
 10
187.8373909884
 20
133.0231041646
 30
0.0
 11
-0.0
 21
70.0548950808
 31
0.0
 40
0.2286237625
 41
-1.7343971945
 42
-1.7279362962
  0
ELLIPSE
  5
4D8
100
AcDbEntity
  8
0
100
AcDbEllipse
 62
7
  6
CONTINUOUS
 10
187.8373909884
 20
123.249988155
 30
0.0
 11
0.0
 21
44.3747404334
 31
0.0
 40
0.3566120706
 41
-1.597617927
 42
-1.5841898025
  0
ELLIPSE
  5
4D9
100
AcDbEntity
  8
0
100
AcDbEllipse
 62
7
  6
CONTINUOUS
 10
187.8373909884
 20
120.267235925
 30
0.0
 11
-0.0
 21
21.8320033889
 31
0.0
 40
0.7291450493
 41
-1.4611761449
 42
-1.4405619617
  0
ELLIPSE
  5
4DA
100
AcDbEntity
  8
0
100
AcDbEllipse
 62
7
  6
CONTINUOUS
 10
187.8373909884
 20
120.7797318809
 30
0.0
 11
16.0365906309
 21
0.0
 31
0.0
 40
0.8191163002
 41
0.1777602093
 42
0.2124341945
  0
ELLIPSE
  5
4DB
100
AcDbEntity
  8
0
100
AcDbEllipse
 62
7
  6
CONTINUOUS
 10
187.8373909884
 20
122.5923136631
 30
0.0
 11
16.2330964963
 21
0.0
 31
0.0
 40
0.2269950777
 41
0.2627188481
 42
0.3048244934
  0
ELLIPSE
  5
4DC
100
AcDbEntity
  8
0
100
AcDbEllipse
 62
7
  6
CONTINUOUS
 10
187.8373909884
 20
141.1478011243
 30
0.0
 11
-0.0
 21
118.1806604278
 31
0.0
 40
0.1179745469
 41
-1.7611840823
 42
-1.7547708411
  0
ELLIPSE
  5
4DD
100
AcDbEntity
  8
0
100
AcDbEllipse
 62
7
  6
CONTINUOUS
 10
187.8373909884
 20
111.5227118321
 30
0.0
 11
0.0
 21
60.3203563094
 31
0.0
 40
0.2286235152
 41
-1.4575942824
 42
-1.4501360774
  0
ELLIPSE
  5
4DE
100
AcDbEntity
  8
0
100
AcDbEllipse
 62
7
  6
CONTINUOUS
 10
187.8373909884
 20
108.8515555287
 30
0.0
 11
0.0
 21
39.5771295022
 31
0.0
 40
0.3566123762
 41
-1.3442585769
 42
-1.3287829226
  0
ELLIPSE
  5
4DF
100
AcDbEntity
  8
0
100
AcDbEllipse
 62
7
  6
CONTINUOUS
 10
187.8373909884
 20
110.9687351065
 30
0.0
 11
0.0
 21
20.0407935861
 31
0.0
 40
0.7291448748
 41
-1.2496883825
 42
-1.2260977305
  0
ELLIPSE
  5
4E0
100
AcDbEntity
  8
0
100
AcDbEllipse
 62
7
  6
CONTINUOUS
 10
187.8373909884
 20
112.9358740821
 30
0.0
 11
14.8514713355
 21
0.0
 31
0.0
 40
0.8191164901
 41
0.3273317592
 42
0.3663889164
  0
ELLIPSE
  5
4E1
100
AcDbEntity
  8
0
100
AcDbEllipse
 62
7
  6
CONTINUOUS
 10
187.8373909884
 20
115.5872901609
 30
0.0
 11
15.1185462002
 21
0.0
 31
0.0
 40
0.2269950976
 41
0.3296533057
 42
0.3759038466
  0
ELLIPSE
  5
4E2
100
AcDbEntity
  8
0
100
AcDbEllipse
 62
7
  6
CONTINUOUS
 10
187.8373909884
 20
124.9491367439
 30
0.0
 11
15.9374401766
 21
0.0
 31
0.0
 40
0.2269950777
 41
-0.3973123234
 42
-0.3530623863
  0
ELLIPSE
  5
4E3
100
AcDbEntity
  8
0
100
AcDbEllipse
 62
7
  6
CONTINUOUS
 10
187.8373909884
 20
129.2832273875
 30
0.0
 11
16.2780210013
 21
0.0
 31
0.0
 40
0.819116418
 41
-0.4819938653
 42
-0.4445335673
  0
ELLIPSE
  5
4E4
100
AcDbEntity
  8
0
100
AcDbEllipse
 62
7
  6
CONTINUOUS
 10
187.8373909884
 20
134.5372810696
 30
0.0
 11
0.0
 21
22.8485946001
 31
0.0
 40
0.7291449612
 41
-2.1176645943
 42
-2.0949258933
  0
ELLIPSE
  5
4E5
100
AcDbEntity
  8
0
100
AcDbEllipse
 62
7
  6
CONTINUOUS
 10
187.8373909884
 20
152.9057471697
 30
0.0
 11
-0.0
 21
50.0737810239
 31
0.0
 40
0.3566124424
 41
-2.2344604571
 42
-2.2194449295
  0
ELLIPSE
  5
4E6
100
AcDbEntity
  8
0
100
AcDbEllipse
 62
7
  6
CONTINUOUS
 10
187.8373909884
 20
180.8458688055
 30
0.0
 11
-0.0
 21
85.096562893
 31
0.0
 40
0.2286232704
 41
-2.3406986465
 42
-2.3334112795
  0
ELLIPSE
  5
4E7
100
AcDbEntity
  8
0
100
AcDbEllipse
 62
7
  6
CONTINUOUS
 10
187.8373909884
 20
294.428313936
 30
0.0
 11
-0.0
 21
209.4848330204
 31
0.0
 40
0.1179745981
 41
-2.5472344628
 42
-2.5409158051
  0
ELLIPSE
  5
4E8
100
AcDbEntity
  8
0
100
AcDbEllipse
 62
7
  6
CONTINUOUS
 10
187.8373909884
 20
121.6434709329
 30
0.0
 11
16.1486985072
 21
0.0
 31
0.0
 40
0.2724177574
 41
0.2671086367
 42
0.3023862708
  0
ELLIPSE
  5
4E9
100
AcDbEntity
  8
0
100
AcDbEllipse
 62
7
  6
CONTINUOUS
 10
187.8373909884
 20
119.7009595875
 30
0.0
 11
15.4325218361
 21
-0.0
 31
0.0
 40
0.9106776527
 41
0.2009924777
 42
0.2077717512
  0
ELLIPSE
  5
4EA
100
AcDbEntity
  8
0
100
AcDbEllipse
 62
7
  6
CONTINUOUS
 10
187.8373909884
 20
119.3209305553
 30
0.0
 11
0.0
 21
31.5537447698
 31
0.0
 40
0.4817024943
 41
-1.4980882938
 42
-1.4696595265
  0
ELLIPSE
  5
4EB
100
AcDbEntity
  8
0
100
AcDbEllipse
 62
7
  6
CONTINUOUS
 10
187.8373909884
 20
243.6157309352
 30
0.0
 11
0.0
 21
215.0611316255
 31
0.0
 40
0.0855946772
 41
-2.1790654324
 42
-2.1740109595
  0
ELLIPSE
  5
4EC
100
AcDbEntity
  8
0
100
AcDbEllipse
 62
7
  6
CONTINUOUS
 10
187.8373909884
 20
367.5623680032
 30
0.0
 11
-0.0
 21
303.6584560258
 31
0.0
 40
0.0855946364
 41
-2.5309375254
 42
-2.5258239648
  0
ELLIPSE
  5
4ED
100
AcDbEntity
  8
0
100
AcDbEllipse
 62
7
  6
CONTINUOUS
 10
187.8373909884
 20
132.7827336205
 30
0.0
 11
0.0
 21
33.9593618464
 31
0.0
 40
0.4817026686
 41
-2.0247854946
 42
-1.9957074313
  0
ELLIPSE
  5
4EE
100
AcDbEntity
  8
0
100
AcDbEllipse
 62
7
  6
CONTINUOUS
 10
187.8373909884
 20
122.9483889224
 30
0.0
 11
15.715737592
 21
-0.0
 31
0.0
 40
0.9106776527
 41
5.9135579238
 42
5.9219207585
  0
ELLIPSE
  5
4EF
100
AcDbEntity
  8
0
100
AcDbEllipse
 62
7
  6
CONTINUOUS
 10
187.8373909884
 20
130.6382456642
 30
0.0
 11
0.0
 21
41.0375161606
 31
0.0
 40
0.3908969767
 41
4.3425500671
 42
4.3732621156
  0
ELLIPSE
  5
4F0
100
AcDbEntity
  8
0
100
AcDbEllipse
 62
7
  6
CONTINUOUS
 10
187.8373909884
 20
119.7373768184
 30
0.0
 11
15.9360222821
 21
0.0
 31
0.0
 40
0.9106776527
 41
0.1920023807
 42
0.2129559266
  0
ELLIPSE
  5
4F1
100
AcDbEntity
  8
0
100
AcDbEllipse
 62
7
  6
CONTINUOUS
 10
187.8373909884
 20
119.5101735319
 30
0.0
 11
-0.0
 21
32.6127408639
 31
0.0
 40
0.4817024943
 41
-1.5062691846
 42
-1.4787833073
  0
ELLIPSE
  5
4F2
100
AcDbEntity
  8
0
100
AcDbEllipse
 62
7
  6
CONTINUOUS
 10
187.8373909884
 20
249.6092797038
 30
0.0
 11
0.0
 21
223.4460440752
 31
0.0
 40
0.0855946772
 41
-2.185635665
 42
-2.1807482326
  0
ELLIPSE
  5
4F3
100
AcDbEntity
  8
0
100
AcDbEllipse
 62
7
  6
CONTINUOUS
 10
187.8373909884
 20
373.5559224938
 30
0.0
 11
0.0
 21
312.0433745231
 31
0.0
 40
0.0855946364
 41
-2.5260587767
 42
-2.5211162316
  0
ELLIPSE
  5
4F4
100
AcDbEntity
  8
0
100
AcDbEllipse
 62
7
  6
CONTINUOUS
 10
187.8373909884
 20
132.9719764601
 30
0.0
 11
0.0
 21
35.0183575452
 31
0.0
 40
0.4817026686
 41
-2.0160599541
 42
-1.9879690677
  0
ELLIPSE
  5
4F5
100
AcDbEntity
  8
0
100
AcDbEllipse
 62
7
  6
CONTINUOUS
 10
187.8373909884
 20
122.9848061532
 30
0.0
 11
16.2192380381
 21
0.0
 31
0.0
 40
0.9106776527
 41
-0.3737586488
 42
-0.3521859975
  0
ELLIPSE
  5
4F6
100
AcDbEntity
  8
0
100
AcDbEllipse
 62
7
  6
CONTINUOUS
 10
187.8373909884
 20
118.9610967835
 30
0.0
 11
15.9140878017
 21
-0.0
 31
0.0
 40
0.2724177574
 41
-0.3577781741
 42
-0.3213413332
  0
ELLIPSE
  5
4F7
100
AcDbEntity
  8
0
100
AcDbEllipse
 62
7
  6
CONTINUOUS
 10
187.8373909884
 20
144.3028124629
 30
0.0
 11
0.0
 21
123.4772578488
 31
0.0
 40
0.1179745469
 41
-1.7789701715
 42
-1.7728101433
  0
ELLIPSE
  5
4F8
100
AcDbEntity
  8
0
100
AcDbEllipse
 62
7
  6
CONTINUOUS
 10
187.8373909884
 20
112.3628210789
 30
0.0
 11
-0.0
 21
62.670966835
 31
0.0
 40
0.2286235152
 41
-1.4753328757
 42
-1.4681683138
  0
ELLIPSE
  5
4F9
100
AcDbEntity
  8
0
100
AcDbEllipse
 62
7
  6
CONTINUOUS
 10
187.8373909884
 20
109.1968461148
 30
0.0
 11
0.0
 21
41.0263045002
 31
0.0
 40
0.3566123762
 41
-1.3610057997
 42
-1.3461351496
  0
ELLIPSE
  5
4FA
100
AcDbEntity
  8
0
100
AcDbEllipse
 62
7
  6
CONTINUOUS
 10
187.8373909884
 20
111.051329374
 30
0.0
 11
0.0
 21
20.7340852154
 31
0.0
 40
0.7291448748
 41
-1.2649701148
 42
-1.2422889105
  0
ELLIPSE
  5
4FB
100
AcDbEntity
  8
0
100
AcDbEllipse
 62
7
  6
CONTINUOUS
 10
187.8373909884
 20
112.9653365348
 30
0.0
 11
15.3546684191
 21
0.0
 31
0.0
 40
0.8191164901
 41
0.3137612604
 42
0.3513477603
  0
ELLIPSE
  5
4FC
100
AcDbEntity
  8
0
100
AcDbEllipse
 62
7
  6
CONTINUOUS
 10
187.8373909884
 20
115.5895527751
 30
0.0
 11
15.6205550858
 21
0.0
 31
0.0
 40
0.2269950976
 41
0.3180063027
 42
0.3625687118
  0
ELLIPSE
  5
4FD
100
AcDbEntity
  8
0
100
AcDbEllipse
 62
7
  6
CONTINUOUS
 10
187.8373909884
 20
128.618612466
 30
0.0
 11
0.0
 21
45.6539154952
 31
0.0
 40
0.3566120044
 41
-1.8080199882
 42
-1.7946161754
  0
ELLIPSE
  5
4FE
100
AcDbEntity
  8
0
100
AcDbEllipse
 62
7
  6
CONTINUOUS
 10
187.8373909884
 20
130.9256232802
 30
0.0
 11
-0.0
 21
42.353278325
 31
0.0
 40
0.3908969767
 41
-1.9358731796
 42
-1.8947735227
  0
ELLIPSE
  5
4FF
100
AcDbEntity
  8
0
100
AcDbEllipse
 62
7
  6
CONTINUOUS
 10
187.8373909884
 20
124.9513993577
 30
0.0
 11
16.4394490622
 21
-0.0
 31
0.0
 40
0.2269950777
 41
-0.385186288
 42
-0.3424761087
  0
ELLIPSE
  5
500
100
AcDbEntity
  8
0
100
AcDbEllipse
 62
7
  6
CONTINUOUS
 10
187.8373909884
 20
129.3126898351
 30
0.0
 11
16.7812180846
 21
0.0
 31
0.0
 40
0.819116418
 41
-0.4687712149
 42
-0.4326578707
  0
ELLIPSE
  5
501
100
AcDbEntity
  8
0
100
AcDbEllipse
 62
7
  6
CONTINUOUS
 10
187.8373909884
 20
134.6198753175
 30
0.0
 11
0.0
 21
23.5418861461
 31
0.0
 40
0.7291449612
 41
-2.1039004105
 42
-2.0820027946
  0
ELLIPSE
  5
502
100
AcDbEntity
  8
0
100
AcDbEllipse
 62
7
  6
CONTINUOUS
 10
187.8373909884
 20
153.2510376276
 30
0.0
 11
-0.0
 21
51.5229557376
 31
0.0
 40
0.3566124424
 41
-2.22104298
 42
-2.2065946609
  0
ELLIPSE
  5
503
100
AcDbEntity
  8
0
100
AcDbEllipse
 62
7
  6
CONTINUOUS
 10
187.8373909884
 20
181.6859798511
 30
0.0
 11
0.0
 21
87.4471762565
 31
0.0
 40
0.2286232704
 41
-2.3280960576
 42
-2.3210880912
  0
ELLIPSE
  5
504
100
AcDbEntity
  8
0
100
AcDbEllipse
 62
7
  6
CONTINUOUS
 10
187.8373909884
 20
297.5833225348
 30
0.0
 11
0.0
 21
214.7814273255
 31
0.0
 40
0.1179745981
 41
-2.5370570251
 42
-2.5309836188
  0
ELLIPSE
  5
505
100
AcDbEntity
  8
0
100
AcDbEllipse
 62
7
  6
CONTINUOUS
 10
94.2712577258
 20
49.2720294331
 30
0.0
 11
18.6914425834
 21
-0.0
 31
0.0
 40
0.9546179174
 41
-1.0676790427
 42
-1.0542705843
  0
ELLIPSE
  5
506
100
AcDbEntity
  8
0
100
AcDbEllipse
 62
7
  6
CONTINUOUS
 10
86.7615930864
 20
49.2720294331
 30
0.0
 11
21.9528285307
 21
-0.0
 31
0.0
 40
0.8032307524
 41
-1.1110635317
 42
-1.1054963238
  0
ELLIPSE
  5
507
100
AcDbEntity
  8
0
100
AcDbEllipse
 62
7
  6
CONTINUOUS
 10
93.7091812629
 20
49.2720294331
 30
0.0
 11
17.1488732644
 21
-0.0
 31
0.0
 40
0.933951371
 41
-1.4136563574
 42
-1.4071954591
  0
ELLIPSE
  5
508
100
AcDbEntity
  8
0
100
AcDbEllipse
 62
7
  6
CONTINUOUS
 10
95.9559036722
 20
49.2720294331
 30
0.0
 11
16.2938364063
 21
-0.0
 31
0.0
 40
0.971199641
 41
-1.5574028511
 42
-1.5439747266
  0
ELLIPSE
  5
509
100
AcDbEntity
  8
0
100
AcDbEllipse
 62
7
  6
CONTINUOUS
 10
97.9281376084
 20
49.2720294331
 30
0.0
 11
16.0328794
 21
-0.0
 31
0.0
 40
0.9928782467
 41
-1.7010306919
 42
-1.6804165087
  0
ELLIPSE
  5
50A
100
AcDbEntity
  8
0
100
AcDbEllipse
 62
7
  6
CONTINUOUS
 10
98.6889539523
 20
49.2720294331
 30
0.0
 11
16.0777169863
 21
-0.0
 31
0.0
 40
0.9974420277
 41
-1.7832305213
 42
-1.7485565361
  0
ELLIPSE
  5
50B
100
AcDbEntity
  8
0
100
AcDbEllipse
 62
7
  6
CONTINUOUS
 10
99.5158092925
 20
49.2720294331
 30
0.0
 11
16.2362973439
 21
-0.0
 31
0.0
 40
0.9998028585
 41
-1.8756208202
 42
-1.8335151749
  0
ELLIPSE
  5
50C
100
AcDbEntity
  8
0
100
AcDbEllipse
 62
7
  6
CONTINUOUS
 10
100.1646695795
 20
49.2720294331
 30
0.0
 11
16.4426905985
 21
0.0
 31
0.0
 40
0.9998028585
 41
-1.9559826148
 42
-1.9132724355
  0
ELLIPSE
  5
50D
100
AcDbEntity
  8
0
100
AcDbEllipse
 62
7
  6
CONTINUOUS
 10
101.0407895625
 20
49.2720294331
 30
0.0
 11
16.8242540736
 21
0.0
 31
0.0
 40
0.9974420269
 41
-2.0395675417
 42
-2.0034541975
  0
ELLIPSE
  5
50E
100
AcDbEntity
  8
0
100
AcDbEllipse
 62
7
  6
CONTINUOUS
 10
101.8978385628
 20
49.2720294331
 30
0.0
 11
17.2885726385
 21
-0.0
 31
0.0
 40
0.992878245
 41
-2.1039004105
 42
-2.0820027946
  0
ELLIPSE
  5
50F
100
AcDbEntity
  8
0
100
AcDbEllipse
 62
7
  6
CONTINUOUS
 10
104.3458649454
 20
49.2720294331
 30
0.0
 11
18.918588129
 21
0.0
 31
0.0
 40
0.9711996985
 41
-2.22104298
 42
-2.2065946609
  0
ELLIPSE
  5
510
100
AcDbEntity
  8
0
100
AcDbEllipse
 62
7
  6
CONTINUOUS
 10
107.4888269868
 20
49.2720294331
 30
0.0
 11
21.4063232216
 21
0.0
 31
0.0
 40
0.9339511142
 41
-2.3280960576
 42
-2.3210880912
  0
ELLIPSE
  5
511
100
AcDbEntity
  8
0
100
AcDbEllipse
 62
7
  6
CONTINUOUS
 10
118.6291304339
 20
49.2720294331
 30
0.0
 11
31.5460268392
 21
0.0
 31
0.0
 40
0.8032311869
 41
-2.5370570251
 42
-2.5309836188
  0
ENDSEC
  0
SECTION
  2
OBJECTS
  0
DICTIONARY
  5
C
100
AcDbDictionary
280
0
281
1
  3
ACAD_GROUP
350
D
  3
ACAD_MLINESTYLE
350
17
  3
ACAD_LAYOUT
350
1A
  3
ACAD_PLOTSETTINGS
350
19
  3
ACAD_PLOTSTYLENAME
350
E
  0
DICTIONARY
  5
D
102
{ACAD_REACTORS
330
C
102
}
100
AcDbDictionary
280
0
281
1
  0
ACDBDICTIONARYWDFLT
  5
E
102
{ACAD_REACTORS
330
C
102
}
100
AcDbDictionary
281
1
  3
Normal
350
F
100
AcDbDictionaryWithDefault
340
F
  0
DICTIONARY
  5
17
102
{ACAD_REACTORS
330
C
102
}
100
AcDbDictionary
280
0
281
1
  3
Standard
350
18
  0
DICTIONARY
  5
19
102
{ACAD_REACTORS
330
C
102
}
100
AcDbDictionary
281
1
  0
DICTIONARY
  5
1A
102
{ACAD_REACTORS
330
C
102
}
100
AcDbDictionary
281
1
  3
Model
350
512
  3
Layout1
350
513
  0
ACDBPLACEHOLDER
  5
F
102
{ACAD_REACTORS
330
E
102
}
  0
MLINESTYLE
  5
18
102
{ACAD_REACTORS
330
17
102
}
100
AcDbMlineStyle
  2
STANDARD
 70
0
  3

 62
256
 51
90.0
 52
90.0
 71
2
 49
0.5
 62
256
  6
BYLAYER
 49
-0.5
 62
256
  6
BYLAYER
  0
LAYOUT
  5
512
102
{ACAD_REACTORS
330
1A
102
}
100
AcDbPlotSettings
  1

  2
none_device
  4
ISO_A4_(297.00_x_210.00_MM)
  6

 40
0.0
 41
0.0
 42
0.0
 43
0.0
 44
297.0
 45
210.0
 46
0.0
 47
0.0
 48
0.0
 49
0.0
140
0.0
141
0.0
142
1.0
143
1.0
 70
1024
 72
1
 73
0
 74
0
  7

 75
0
147
1.0
148
0.0
149
0.0
100
AcDbLayout
  1
Model
 70
0
 71
0
 10
0.0
 20
0.0
 11
297.0
 21
210.0
 12
0.0
 22
0.0
 32
0.0
 14
0.0
 24
0.0
 34
0.0
 15
0.0
 25
0.0
 35
0.0
146
0.0
 13
0.0
 23
0.0
 33
0.0
 16
1.0
 26
0.0
 36
0.0
 17
0.0
 27
1.0
 37
0.0
 76
0
330
208
345
0
346
0
  0
LAYOUT
  5
513
102
{ACAD_REACTORS
330
1A
102
}
100
AcDbPlotSettings
  1

  2
none_device
  4
ISO_A4_(297.00_x_210.00_MM)
  6

 40
0.0
 41
0.0
 42
0.0
 43
0.0
 44
297.0
 45
210.0
 46
0.0
 47
0.0
 48
0.0
 49
0.0
140
0.0
141
0.0
142
1.0
143
1.0
 70
0
 72
1
 73
0
 74
0
  7

 75
0
147
1.0
148
0.0
149
0.0
100
AcDbLayout
  1
Layout1
 70
0
 71
1
 10
0.0
 20
0.0
 11
297.0
 21
210.0
 12
0.0
 22
0.0
 32
0.0
 14
0.0
 24
0.0
 34
0.0
 15
0.0
 25
0.0
 35
0.0
146
0.0
 13
0.0
 23
0.0
 33
0.0
 16
1.0
 26
0.0
 36
0.0
 17
0.0
 27
1.0
 37
0.0
 76
0
330
209
345
0
346
0
  0
ENDSEC
  0
EOF
