999
DXF file: INOX-STAR_0_5t_M12_MAX_7997822_M31024-P-11.dxf
999
Pro/ENGINEER 2011490 by Parametric Technology Corporation
  0
SECTION
  2
HEADER
  9
$ACADVER
  1
AC1015
  9
$DWGCODEPAGE
  3
ANSI_1252
  9
$EXTMAX
 10
297.0
 20
210.0
 30
0.0
  9
$EXTMIN
 10
0.0
 20
0.0
 30
0.0
  9
$LIMMIN
 10
0.0
 20
0.0
  9
$LIMMAX
 10
297.0
 20
210.0
  9
$VIEWCTR
 10
148.5
 20
105.0
  9
$VIEWSIZE
 40
210.0
  9
$CLAYER
  8
0
  9
$LTSCALE
 40
16.335
  9
$CELTYPE
  6
BYLAYER
  9
$DIMSCALE
 40
1.0
  9
$DIMASZ
 40
3.5
  9
$DIMEXO
 40
1.85625
  9
$DIMDLI
 40
11.286
  9
$DIMEXE
 40
5.346
  9
$DIMCEN
 40
2.673
  9
$DIMLFAC
 40
1.0
  9
$DIMBLK
  1
_FILLED
  9
$DIMTXT
 40
3.5
  9
$DIMTOL
 70
1
  9
$DIMLIM
 70
0
  9
$DIMTFAC
 40
1.0
  9
$DIMTP
 40
0.005
  9
$DIMTM
 40
0.005
  9
$PDMODE
 70
3
  9
$PDSIZE
 40
0.3125
  9
$HANDSEED
  5
517
  9
$TILEMODE
 70
1
  9
$MEASUREMENT
 70
1
  9
$INSUNITS
 70
4
  0
ENDSEC
  0
SECTION
  2
CLASSES
  0
CLASS
  1
ACDBDICTIONARYWDFLT
  2
AcDbDictionaryWithDefault
  3
AutoCAD 2000
 90
0
280
0
281
0
  0
CLASS
  1
ACDBPLACEHOLDER
  2
AcDbPlaceHolder
  3
AutoCAD 2000
 90
0
280
0
281
0
  0
CLASS
  1
LAYOUT
  2
AcDbLayout
  3
AutoCAD 2000
 90
0
280
0
281
0
  0
ENDSEC
  0
SECTION
  2
TABLES
  0
TABLE
  2
VPORT
  5
8
100
AcDbSymbolTable
 70
2
  0
VPORT
  5
1F4
100
AcDbSymbolTableRecord
100
AcDbViewportTableRecord
  2
*ACTIVE
 70
0
 10
0.0
 20
0.0
 11
1.0
 21
1.0
 12
148.5
 22
105.0
 13
0.0
 23
0.0
 14
1.0
 24
1.0
 15
0.0
 25
0.0
 16
0.0
 26
0.0
 36
1.0
 17
0.0
 27
0.0
 37
0.0
 40
210.0
 41
1.4142857143
 42
50.0
 43
0.0
 44
0.0
 50
0.0
 51
0.0
 71
0
 72
100
 73
1
 74
1
 75
0
 76
0
 77
0
 78
0
  0
ENDTAB
  0
TABLE
  2
LTYPE
  5
5
100
AcDbSymbolTable
 70
6
  0
LTYPE
  5
14
100
AcDbSymbolTableRecord
100
AcDbLinetypeTableRecord
  2
BYBLOCK
 70
0
  3

 72
65
 73
0
 40
0.0
  0
LTYPE
  5
15
100
AcDbSymbolTableRecord
100
AcDbLinetypeTableRecord
  2
BYLAYER
 70
0
  3

 72
65
 73
0
 40
0.0
  0
LTYPE
  5
16
100
AcDbSymbolTableRecord
100
AcDbLinetypeTableRecord
  2
CONTINUOUS
 70
64
  3
Solid line
 72
65
 73
0
 40
0.0
  0
LTYPE
  5
1F5
100
AcDbSymbolTableRecord
100
AcDbLinetypeTableRecord
  2
CENTER
 70
64
  3
____ _ ____ _ ____ _ ____ _ ____ _ ____ _ ____
 72
65
 73
4
 40
0.6
 49
0.375
 74
0
 49
-0.075
 74
0
 49
0.075
 74
0
 49
-0.075
 74
0
  0
LTYPE
  5
1F6
100
AcDbSymbolTableRecord
100
AcDbLinetypeTableRecord
  2
HIDDEN
 70
64
  3
- - - - - - - - - - - - - - - - - - - -
 72
65
 73
2
 40
0.2
 49
0.1
 74
0
 49
-0.1
 74
0
  0
LTYPE
  5
1F7
100
AcDbSymbolTableRecord
100
AcDbLinetypeTableRecord
  2
PHANTOM
 70
64
  3
_____ _ _ _____ _ _ _____ _ _ _____
 72
65
 73
6
 40
0.8
 49
0.45
 74
0
 49
-0.05
 74
0
 49
0.1
 74
0
 49
-0.05
 74
0
 49
0.1
 74
0
 49
-0.05
 74
0
  0
LTYPE
  5
1F8
100
AcDbSymbolTableRecord
100
AcDbLinetypeTableRecord
  2
DOT
 70
64
  3
. . . . . . . . . . . . . . . . . . . .
 72
65
 73
2
 40
0.2
 49
0.1
 74
0
 49
-0.1
 74
0
  0
LTYPE
  5
1F9
100
AcDbSymbolTableRecord
100
AcDbLinetypeTableRecord
  2
DASHED
 70
64
  3
- - - - - - - - - - - - - - - - - - - -
 72
65
 73
2
 40
0.2
 49
0.1
 74
0
 49
-0.1
 74
0
  0
ENDTAB
  0
TABLE
  2
LAYER
  5
2
100
AcDbSymbolTable
 70
36
  0
LAYER
  5
10
100
AcDbSymbolTableRecord
100
AcDbLayerTableRecord
  2
0
 70
0
 62
7
  6
CONTINUOUS
370
-3
390
F
  0
LAYER
  5
1FA
100
AcDbSymbolTableRecord
100
AcDbLayerTableRecord
  2
DEFAULT_1
 70
0
 62
7
  6
CENTER
370
-3
390
F
  0
LAYER
  5
1FB
100
AcDbSymbolTableRecord
100
AcDbLayerTableRecord
  2
DEFAULT_2
 70
0
 62
8
  6
HIDDEN
370
-3
390
F
  0
LAYER
  5
1FC
100
AcDbSymbolTableRecord
100
AcDbLayerTableRecord
  2
DEFAULT_3
 70
0
 62
7
  6
PHANTOM
370
-3
390
F
  0
LAYER
  5
1FD
100
AcDbSymbolTableRecord
100
AcDbLayerTableRecord
  2
BEZUGSACHSEN
 70
0
 62
7
  6
CONTINUOUS
370
-3
390
F
  0
LAYER
  5
1FE
100
AcDbSymbolTableRecord
100
AcDbLayerTableRecord
  2
BG_STARTBEZUEGE
 70
0
 62
7
  6
CONTINUOUS
370
-3
390
F
  0
LAYER
  5
1FF
100
AcDbSymbolTableRecord
100
AcDbLayerTableRecord
  2
FLAECHEN
 70
0
 62
7
  6
CONTINUOUS
370
-3
390
F
  0
LAYER
  5
200
100
AcDbSymbolTableRecord
100
AcDbLayerTableRecord
  2
HILFEN
 70
0
 62
7
  6
CONTINUOUS
370
-3
390
F
  0
LAYER
  5
201
100
AcDbSymbolTableRecord
100
AcDbLayerTableRecord
  2
KURVEN
 70
0
 62
7
  6
CONTINUOUS
370
-3
390
F
  0
LAYER
  5
202
100
AcDbSymbolTableRecord
100
AcDbLayerTableRecord
  2
NORM
 70
0
 62
7
  6
CONTINUOUS
370
-3
390
F
  0
LAYER
  5
203
100
AcDbSymbolTableRecord
100
AcDbLayerTableRecord
  2
PLATZIERUNG
 70
0
 62
7
  6
CONTINUOUS
370
-3
390
F
  0
LAYER
  5
204
100
AcDbSymbolTableRecord
100
AcDbLayerTableRecord
  2
RUNDUNGEN
 70
0
 62
7
  6
CONTINUOUS
370
-3
390
F
  0
LAYER
  5
205
100
AcDbSymbolTableRecord
100
AcDbLayerTableRecord
  2
T_STARTBEZUEGE
 70
0
 62
7
  6
CONTINUOUS
370
-3
390
F
  0
LAYER
  5
206
100
AcDbSymbolTableRecord
100
AcDbLayerTableRecord
  2
ZEICHNUNGSBEMASSUNGEN
 70
0
 62
7
  6
CONTINUOUS
370
-3
390
F
  0
ENDTAB
  0
TABLE
  2
STYLE
  5
3
100
AcDbSymbolTable
 70
1
  0
STYLE
  5
11
100
AcDbSymbolTableRecord
100
AcDbTextStyleTableRecord
  2
STANDARD
 70
0
 40
0.0
 41
0.7
 50
0.0
 71
0
 42
0.2
  3
txt
  4

  0
STYLE
  5
207
100
AcDbSymbolTableRecord
100
AcDbTextStyleTableRecord
  2
TEXTSTYLE_1
 70
0
 40
0.0
 41
0.8
 50
0.0
 71
0
 42
0.2
  3
gdt
  4

  0
ENDTAB
  0
TABLE
  2
VIEW
  5
6
100
AcDbSymbolTable
 70
0
  0
ENDTAB
  0
TABLE
  2
UCS
  5
7
100
AcDbSymbolTable
 70
0
  0
ENDTAB
  0
TABLE
  2
APPID
  5
9
100
AcDbSymbolTable
 70
1
  0
APPID
  5
208
100
AcDbSymbolTableRecord
100
AcDbRegAppTableRecord
  2
ACAD
 70
0
  0
ENDTAB
  0
TABLE
  2
BLOCK_RECORD
  5
1
100
AcDbSymbolTable
 70
0
  0
BLOCK_RECORD
  5
209
100
AcDbSymbolTableRecord
100
AcDbBlockTableRecord
  2
*Model_Space
  0
BLOCK_RECORD
  5
20A
100
AcDbSymbolTableRecord
100
AcDbBlockTableRecord
  2
*Paper_Space
  0
ENDTAB
  0
TABLE
  2
DIMSTYLE
  5
A
100
AcDbSymbolTable
 70
1
100
AcDbDimStyleTable
 71
0
  0
DIMSTYLE
105
20B
100
AcDbSymbolTableRecord
100
AcDbDimStyleTableRecord
  2
STANDARD
 70
0
  3

  4

 40
1.0
 41
3.5
 42
0.0625
 43
0.38
 44
0.18
 45
0.0
 46
0.0
 47
0.005
 48
0.005
140
3.5
141
0.09
142
0.0
143
25.4
144
1.0
145
0.0
146
1.0
147
0.09
 71
1.0
 72
0.0
 73
0
 74
0
 75
0
 76
0
 77
1
 78
8
170
0
171
2
172
0
173
0
174
0
175
0
176
0
177
0
178
5
270
2
271
3
272
3
273
2
274
2
275
0
280
0
281
0
282
0
283
1
284
8
285
0
286
0
287
3
288
0
340
11
  0
ENDTAB
  0
ENDSEC
  0
SECTION
  2
BLOCKS
  0
BLOCK
  5
20
100
AcDbEntity
  8
0
100
AcDbBlockBegin
  2
*Model_Space
 70
0
 10
0.0
 20
0.0
 30
0.0
  3
*Model_Space
  1

  0
ENDBLK
  5
21
100
AcDbEntity
  8
0
100
AcDbBlockEnd
  0
BLOCK
  5
1C
100
AcDbEntity
  8
0
100
AcDbBlockBegin
  2
*Paper_Space
 70
0
 10
0.0
 20
0.0
 30
0.0
  3
*Paper_Space
  1

  0
ENDBLK
  5
1D
100
AcDbEntity
  8
0
100
AcDbBlockEnd
  0
ENDSEC
  0
SECTION
  2
ENTITIES
  0
MTEXT
  5
20C
100
AcDbEntity
  8
0
100
AcDbMText
 62
5
  6
CONTINUOUS
  7
STANDARD
 71
1
 72
1
 10
187.7837533523
 20
146.1624598587
 30
0.0
 11
0.0
 21
1.0
 31
0.0
 44
0.9
  1
INOX STAR 0,5t RUD
 40
3.0
 41
42.0714285714
  0
MTEXT
  5
20D
100
AcDbEntity
  8
0
100
AcDbMText
 62
5
  6
CONTINUOUS
  7
STANDARD
 71
1
 72
1
 10
79.8780059531
 20
47.3256944787
 30
0.0
 11
1.0
 21
0.0
 31
0.0
 44
0.9
  1
INOX STAR 0,5t RUD
 40
3.0
 41
42.0714285714
  0
LINE
  5
20E
100
AcDbEntity
  8
0
100
AcDbLine
 62
7
  6
CONTINUOUS
 10
0.0
 20
0.0
 11
0.0
 21
210.0
  0
LINE
  5
20F
100
AcDbEntity
  8
0
100
AcDbLine
 62
7
  6
CONTINUOUS
 10
0.0
 20
0.0
 11
297.0
 21
0.0
  0
LINE
  5
210
100
AcDbEntity
  8
0
100
AcDbLine
 62
7
  6
CONTINUOUS
 10
0.0
 20
210.0
 11
297.0
 21
210.0
  0
LINE
  5
211
100
AcDbEntity
  8
0
100
AcDbLine
 62
7
  6
CONTINUOUS
 10
297.0
 20
0.0
 11
297.0
 21
210.0
  0
LINE
  5
212
100
AcDbEntity
  8
0
100
AcDbLine
 62
7
  6
CONTINUOUS
 10
105.9722837936
 20
85.6802945703
 11
96.4722837936
 21
85.6802945703
  0
LINE
  5
213
100
AcDbEntity
  8
0
100
AcDbLine
 62
7
  6
CONTINUOUS
 10
107.2222837936
 20
86.9302945703
 11
95.2222837936
 21
86.9302945703
  0
LINE
  5
214
100
AcDbEntity
  8
0
100
AcDbLine
 62
7
  6
CONTINUOUS
 10
92.1891726899
 20
184.53367264
 11
91.7315053038
 21
184.3323260619
  0
LINE
  5
215
100
AcDbEntity
  8
0
100
AcDbLine
 62
7
  6
CONTINUOUS
 10
91.885728233
 20
183.9817722776
 11
92.3433956191
 21
184.1831188556
  0
LINE
  5
216
100
AcDbEntity
  8
0
100
AcDbLine
 62
7
  6
CONTINUOUS
 10
83.5091982186
 20
177.9621638072
 11
83.2662987517
 21
177.7554502645
  0
LINE
  5
217
100
AcDbEntity
  8
0
100
AcDbLine
 62
7
  6
CONTINUOUS
 10
91.6825981978
 20
183.8226732859
 11
91.885728233
 21
183.9817722776
  0
LINE
  5
218
100
AcDbEntity
  8
0
100
AcDbLine
 62
7
  6
CONTINUOUS
 10
87.244371082
 20
181.6464685669
 11
86.9484305818
 21
181.4161552578
  0
LINE
  5
219
100
AcDbEntity
  8
0
100
AcDbLine
 62
7
  6
CONTINUOUS
 10
83.5678544499
 20
177.5193637793
 11
83.7722256155
 21
177.6768647261
  0
LINE
  5
21A
100
AcDbEntity
  8
0
100
AcDbLine
 62
7
  6
CONTINUOUS
 10
91.7315053038
 20
184.3323260619
 11
91.4711670499
 21
184.148058838
  0
LINE
  5
21B
100
AcDbEntity
  8
0
100
AcDbLine
 62
7
  6
CONTINUOUS
 10
89.9743626218
 20
183.4812092099
 11
89.6575329822
 21
183.2806001884
  0
LINE
  5
21C
100
AcDbEntity
  8
0
100
AcDbLine
 62
7
  6
CONTINUOUS
 10
88.3374094588
 20
182.4447292497
 11
87.8621649995
 21
182.1438157175
  0
LINE
  5
21D
100
AcDbEntity
  8
0
100
AcDbLine
 62
7
  6
CONTINUOUS
 10
89.4670371712
 20
179.609178601
 11
89.7838668107
 21
179.8097876225
  0
LINE
  5
21E
100
AcDbEntity
  8
0
100
AcDbLine
 62
7
  6
CONTINUOUS
 10
91.1039903341
 20
180.6456585612
 11
91.5792347934
 21
180.9465720934
  0
LINE
  5
21F
100
AcDbEntity
  8
0
100
AcDbLine
 62
7
  6
CONTINUOUS
 10
83.7638286673
 20
178.0803170064
 11
83.5091982186
 21
177.9621638072
  0
LINE
  5
220
100
AcDbEntity
  8
0
100
AcDbLine
 62
7
  6
CONTINUOUS
 10
93.2430294988
 20
182.1382214938
 11
92.7853621127
 21
181.9368749158
  0
LINE
  5
221
100
AcDbEntity
  8
0
100
AcDbLine
 62
7
  6
CONTINUOUS
 10
92.9395850599
 20
181.5863210906
 11
93.397252446
 21
181.7876676686
  0
LINE
  5
222
100
AcDbEntity
  8
0
100
AcDbLine
 62
7
  6
CONTINUOUS
 10
105.5445494912
 20
185.3917627295
 11
105.7551865132
 21
185.4759368039
  0
LINE
  5
223
100
AcDbEntity
  8
0
100
AcDbLine
 62
7
  6
CONTINUOUS
 10
83.7722256155
 20
177.6768647261
 11
83.9883282037
 21
177.7458058925
  0
LINE
  5
224
100
AcDbEntity
  8
0
100
AcDbLine
 62
7
  6
CONTINUOUS
 10
95.2222837936
 20
86.9302945703
 11
96.4722837936
 21
85.6802945703
  0
LINE
  5
225
100
AcDbEntity
  8
0
100
AcDbLine
 62
7
  6
CONTINUOUS
 10
80.1527248795
 20
172.4650189237
 11
79.9775760594
 21
172.198460452
  0
LINE
  5
226
100
AcDbEntity
  8
0
100
AcDbLine
 62
7
  6
CONTINUOUS
 10
83.2662987517
 20
177.7554502645
 11
82.3416265744
 21
176.5743569725
  0
LINE
  5
227
100
AcDbEntity
  8
0
100
AcDbLine
 62
7
  6
CONTINUOUS
 10
82.8743503169
 20
176.6335438103
 11
83.5678544499
 21
177.5193637793
  0
LINE
  5
228
100
AcDbEntity
  8
0
100
AcDbLine
 62
7
  6
CONTINUOUS
 10
91.4711670499
 20
184.148058838
 11
91.2937408362
 21
183.9305342155
  0
LINE
  5
229
100
AcDbEntity
  8
0
100
AcDbLine
 62
7
  6
CONTINUOUS
 10
80.2971499825
 20
172.1381714035
 11
80.4259512768
 21
172.2886397303
  0
LINE
  5
22A
100
AcDbEntity
  8
0
100
AcDbLine
 62
7
  6
CONTINUOUS
 10
83.4761827916
 20
173.408123142
 11
83.2964824269
 21
173.2229694208
  0
LINE
  5
22B
100
AcDbEntity
  8
0
100
AcDbLine
 62
7
  6
CONTINUOUS
 10
93.446159534
 20
182.2973204856
 11
93.2430294988
 21
182.1382214938
  0
LINE
  5
22C
100
AcDbEntity
  8
0
100
AcDbLine
 62
7
  6
CONTINUOUS
 10
88.7909370551
 20
179.0486312567
 11
89.0868775552
 21
179.2789445658
  0
LINE
  5
22D
100
AcDbEntity
  8
0
100
AcDbLine
 62
7
  6
CONTINUOUS
 10
93.397252446
 20
181.7876676686
 11
93.657591025
 21
181.9719350417
  0
LINE
  5
22E
100
AcDbEntity
  8
0
100
AcDbLine
 62
7
  6
CONTINUOUS
 10
83.3625895151
 20
172.8248813457
 11
83.5976677468
 21
172.9782933788
  0
LINE
  5
22F
100
AcDbEntity
  8
0
100
AcDbLine
 62
7
  6
CONTINUOUS
 10
105.5051701874
 20
185.7926953056
 11
105.2059489994
 21
185.5973634427
  0
LINE
  5
230
100
AcDbEntity
  8
0
100
AcDbLine
 62
7
  6
CONTINUOUS
 10
80.4232599808
 20
172.6261986248
 11
80.1527248795
 21
172.4650189237
  0
LINE
  5
231
100
AcDbEntity
  8
0
100
AcDbLine
 62
7
  6
CONTINUOUS
 10
83.2964824269
 20
173.2229694208
 11
83.0924849324
 21
173.1237814844
  0
LINE
  5
232
100
AcDbEntity
  8
0
100
AcDbLine
 62
7
  6
CONTINUOUS
 10
80.4259512768
 20
172.2886397303
 11
80.5908588799
 21
172.35739626
  0
LINE
  5
233
100
AcDbEntity
  8
0
100
AcDbLine
 62
7
  6
CONTINUOUS
 10
106.3044625697
 20
183.3279977191
 11
106.0938255817
 21
183.2438235914
  0
LINE
  5
234
100
AcDbEntity
  8
0
100
AcDbLine
 62
7
  6
CONTINUOUS
 10
79.9775760594
 20
172.198460452
 11
79.4214060147
 21
170.8053793771
  0
LINE
  5
235
100
AcDbEntity
  8
0
100
AcDbLine
 62
7
  6
CONTINUOUS
 10
79.8568487192
 20
171.0353156079
 11
80.2971499825
 21
172.1381714035
  0
LINE
  5
236
100
AcDbEntity
  8
0
100
AcDbLine
 62
7
  6
CONTINUOUS
 10
81.8273120245
 20
175.7940246816
 11
81.6408278114
 21
175.4686808046
  0
LINE
  5
237
100
AcDbEntity
  8
0
100
AcDbLine
 62
7
  6
CONTINUOUS
 10
80.894890959
 20
174.1673052968
 11
80.708406657
 21
173.8419612647
  0
LINE
  5
238
100
AcDbEntity
  8
0
100
AcDbLine
 62
7
  6
CONTINUOUS
 10
83.6005056596
 20
173.6250191634
 11
83.4761827916
 21
173.408123142
  0
LINE
  5
239
100
AcDbEntity
  8
0
100
AcDbLine
 62
7
  6
CONTINUOUS
 10
83.8084488779
 20
173.2176711802
 11
83.9327717459
 21
173.4345672016
  0
LINE
  5
23A
100
AcDbEntity
  8
0
100
AcDbLine
 62
7
  6
CONTINUOUS
 10
91.5623805301
 20
183.6303170397
 11
91.6825981978
 21
183.8226732859
  0
LINE
  5
23B
100
AcDbEntity
  8
0
100
AcDbLine
 62
7
  6
CONTINUOUS
 10
85.3269296024
 20
176.1421924227
 11
84.6334254694
 21
175.2563724537
  0
LINE
  5
23C
100
AcDbEntity
  8
0
100
AcDbLine
 62
7
  6
CONTINUOUS
 10
84.7038131585
 20
174.7250126179
 11
85.6284853358
 21
175.90610591
  0
LINE
  5
23D
100
AcDbEntity
  8
0
100
AcDbLine
 62
7
  6
CONTINUOUS
 10
93.657591025
 20
181.9719350417
 11
93.8350169045
 21
182.1894595355
  0
LINE
  5
23E
100
AcDbEntity
  8
0
100
AcDbLine
 62
7
  6
CONTINUOUS
 10
83.5976677468
 20
172.9782933788
 11
83.8084488779
 21
173.2176711802
  0
LINE
  5
23F
100
AcDbEntity
  8
0
100
AcDbLine
 62
7
  6
CONTINUOUS
 10
106.3438417718
 20
182.9270650968
 11
106.6430630737
 21
183.1223969574
  0
LINE
  5
240
100
AcDbEntity
  8
0
100
AcDbLine
 62
7
  6
CONTINUOUS
 10
115.0468714531
 20
179.9942221211
 11
115.3509669613
 21
180.082935278
  0
LINE
  5
241
100
AcDbEntity
  8
0
100
AcDbLine
 62
7
  6
CONTINUOUS
 10
81.1863507287
 20
171.7831692233
 11
80.7460494654
 21
170.6803134277
  0
LINE
  5
242
100
AcDbEntity
  8
0
100
AcDbLine
 62
7
  6
CONTINUOUS
 10
81.1017296975
 20
170.5383125821
 11
81.4956834681
 21
171.5250783159
  0
LINE
  5
243
100
AcDbEntity
  8
0
100
AcDbLine
 62
7
  6
CONTINUOUS
 10
82.2075681646
 20
169.6930392877
 11
82.3466106757
 21
170.0413095564
  0
LINE
  5
244
100
AcDbEntity
  8
0
100
AcDbLine
 62
7
  6
CONTINUOUS
 10
82.9259544502
 20
171.4924356208
 11
83.0881707574
 21
171.898751045
  0
LINE
  5
245
100
AcDbEntity
  8
0
100
AcDbLine
 62
7
  6
CONTINUOUS
 10
85.4307822019
 20
176.3783888645
 11
85.3269296024
 21
176.1421924227
  0
LINE
  5
246
100
AcDbEntity
  8
0
100
AcDbLine
 62
7
  6
CONTINUOUS
 10
85.6284853358
 20
175.90610591
 11
85.7708662323
 21
176.1915149512
  0
LINE
  5
247
100
AcDbEntity
  8
0
100
AcDbLine
 62
7
  6
CONTINUOUS
 10
93.5663771836
 20
182.4896767727
 11
93.446159534
 21
182.2973204856
  0
LINE
  5
248
100
AcDbEntity
  8
0
100
AcDbLine
 62
7
  6
CONTINUOUS
 10
106.4678519508
 20
183.4879884915
 11
106.3044625697
 21
183.3279977191
  0
LINE
  5
249
100
AcDbEntity
  8
0
100
AcDbLine
 62
7
  6
CONTINUOUS
 10
83.669450853
 20
173.8736571747
 11
83.6005056596
 21
173.6250191634
  0
LINE
  5
24A
100
AcDbEntity
  8
0
100
AcDbLine
 62
7
  6
CONTINUOUS
 10
83.9327717459
 20
173.4345672016
 11
84.0327975181
 21
173.7374289883
  0
LINE
  5
24B
100
AcDbEntity
  8
0
100
AcDbLine
 62
7
  6
CONTINUOUS
 10
91.2937408362
 20
183.9305342155
 11
91.1677222656
 21
183.5961583316
  0
LINE
  5
24C
100
AcDbEntity
  8
0
100
AcDbLine
 62
7
  6
CONTINUOUS
 10
110.9309427785
 20
182.033777235
 11
112.259055684
 21
183.267732179
  0
LINE
  5
24D
100
AcDbEntity
  8
0
100
AcDbLine
 62
7
  6
CONTINUOUS
 10
110.1621289321
 20
181.2924355543
 11
110.752401737
 21
181.8408597164
  0
LINE
  5
24E
100
AcDbEntity
  8
0
100
AcDbLine
 62
7
  6
CONTINUOUS
 10
112.1643541694
 20
183.6122889323
 11
109.8342376771
 21
181.47440274
  0
LINE
  5
24F
100
AcDbEntity
  8
0
100
AcDbLine
 62
7
  6
CONTINUOUS
 10
115.2580884819
 20
180.4756405011
 11
115.0920437169
 21
180.3616071178
  0
LINE
  5
250
100
AcDbEntity
  8
0
100
AcDbLine
 62
7
  6
CONTINUOUS
 10
115.3509669613
 20
180.082935278
 11
115.5170117262
 21
180.1969686614
  0
LINE
  5
251
100
AcDbEntity
  8
0
100
AcDbLine
 62
7
  6
CONTINUOUS
 10
81.1965919456
 20
171.9809711653
 11
81.1863507287
 21
171.7831692233
  0
LINE
  5
252
100
AcDbEntity
  8
0
100
AcDbLine
 62
7
  6
CONTINUOUS
 10
85.7708662323
 20
176.1915149512
 11
85.8244595356
 21
176.4670591509
  0
LINE
  5
253
100
AcDbEntity
  8
0
100
AcDbLine
 62
7
  6
CONTINUOUS
 10
95.4131720567
 20
184.1146316958
 11
94.7880311759
 21
182.3582526521
  0
LINE
  5
254
100
AcDbEntity
  8
0
100
AcDbLine
 62
7
  6
CONTINUOUS
 10
93.8350169045
 20
182.1894595355
 11
93.9610354661
 21
182.5238354398
  0
LINE
  5
255
100
AcDbEntity
  8
0
100
AcDbLine
 62
7
  6
CONTINUOUS
 10
96.0549978057
 20
185.8094002214
 11
95.5274168141
 21
184.4100842939
  0
LINE
  5
256
100
AcDbEntity
  8
0
100
AcDbLine
 62
7
  6
CONTINUOUS
 10
95.1499941115
 20
182.4562722073
 11
95.6775744127
 21
183.8555879479
  0
LINE
  5
257
100
AcDbEntity
  8
0
100
AcDbLine
 62
7
  6
CONTINUOUS
 10
95.7751349924
 20
184.2126512511
 11
96.4169607413
 21
185.9074197767
  0
LINE
  5
258
100
AcDbEntity
  8
0
100
AcDbLine
 62
7
  6
CONTINUOUS
 10
105.4421863576
 20
185.2182799569
 11
105.5445494912
 21
185.3917627295
  0
LINE
  5
259
100
AcDbEntity
  8
0
100
AcDbLine
 62
7
  6
CONTINUOUS
 10
106.6430630737
 20
183.1223969574
 11
106.8202313716
 21
183.3447125878
  0
LINE
  5
25A
100
AcDbEntity
  8
0
100
AcDbLine
 62
7
  6
CONTINUOUS
 10
118.4831457303
 20
173.8077380713
 11
118.866968148
 21
174.0293380474
  0
LINE
  5
25B
100
AcDbEntity
  8
0
100
AcDbLine
 62
7
  6
CONTINUOUS
 10
120.666968148
 20
175.0685685319
 11
121.0507905656
 21
175.2901685081
  0
LINE
  5
25C
100
AcDbEntity
  8
0
100
AcDbLine
 62
7
  6
CONTINUOUS
 10
81.5161659351
 20
171.9206822828
 11
81.4903008431
 21
172.2001960218
  0
LINE
  5
25D
100
AcDbEntity
  8
0
100
AcDbLine
 62
7
  6
CONTINUOUS
 10
84.0327975181
 20
173.7374289883
 11
84.0463650224
 21
174.0178089979
  0
LINE
  5
25E
100
AcDbEntity
  8
0
100
AcDbLine
 62
7
  6
CONTINUOUS
 10
85.4458476228
 20
176.6047210487
 11
85.4307822019
 21
176.3783888645
  0
LINE
  5
25F
100
AcDbEntity
  8
0
100
AcDbLine
 62
7
  6
CONTINUOUS
 10
91.525075302
 20
183.4047033753
 11
91.5623805301
 21
183.6303170397
  0
LINE
  5
260
100
AcDbEntity
  8
0
100
AcDbLine
 62
7
  6
CONTINUOUS
 10
105.2059489994
 20
185.5973634427
 11
105.0898069754
 21
185.3615560351
  0
LINE
  5
261
100
AcDbEntity
  8
0
100
AcDbLine
 62
7
  6
CONTINUOUS
 10
114.2631179663
 20
182.36309733
 11
112.4391638289
 21
179.9812511333
  0
LINE
  5
262
100
AcDbEntity
  8
0
100
AcDbLine
 62
7
  6
CONTINUOUS
 10
112.7368946035
 20
179.7532568662
 11
113.5518528466
 21
180.817486033
  0
LINE
  5
263
100
AcDbEntity
  8
0
100
AcDbLine
 62
7
  6
CONTINUOUS
 10
113.7846980279
 20
181.1215514686
 11
114.3668110898
 21
181.8817151998
  0
LINE
  5
264
100
AcDbEntity
  8
0
100
AcDbLine
 62
7
  6
CONTINUOUS
 10
120.6850569391
 20
172.5155769052
 11
121.0688793568
 21
172.7371768813
  0
LINE
  5
265
100
AcDbEntity
  8
0
100
AcDbLine
 62
7
  6
CONTINUOUS
 10
119.7431457303
 20
171.6253540537
 11
120.126968148
 21
171.8469540299
  0
LINE
  5
266
100
AcDbEntity
  8
0
100
AcDbLine
 62
7
  6
CONTINUOUS
 10
121.926968148
 20
172.8861845144
 11
122.3107905656
 21
173.1077844905
  0
LINE
  5
267
100
AcDbEntity
  8
0
100
AcDbLine
 62
7
  6
CONTINUOUS
 10
83.6519375716
 20
174.0998131153
 11
83.669450853
 21
173.8736571747
  0
LINE
  5
268
100
AcDbEntity
  8
0
100
AcDbLine
 62
7
  6
CONTINUOUS
 10
91.1677222656
 20
183.5961583316
 11
91.1561207871
 21
183.3121192002
  0
LINE
  5
269
100
AcDbEntity
  8
0
100
AcDbLine
 62
7
  6
CONTINUOUS
 10
93.6036824837
 20
182.7152902734
 11
93.5663771836
 21
182.4896767727
  0
LINE
  5
26A
100
AcDbEntity
  8
0
100
AcDbLine
 62
7
  6
CONTINUOUS
 10
115.3745111812
 20
180.627673361
 11
115.2580884819
 21
180.4756405011
  0
LINE
  5
26B
100
AcDbEntity
  8
0
100
AcDbLine
 62
7
  6
CONTINUOUS
 10
115.5170117262
 20
180.1969686614
 11
115.6722419558
 21
180.3996790938
  0
LINE
  5
26C
100
AcDbEntity
  8
BEZUGSACHSEN
100
AcDbLine
 62
7
  6
CONTINUOUS
 10
83.203285851
 20
141.4398398544
 11
82.9215998499
 21
142.0439174332
  0
LINE
  5
26D
100
AcDbEntity
  8
BEZUGSACHSEN
100
AcDbLine
 62
7
  6
CONTINUOUS
 10
81.5899592844
 20
144.8996298415
 11
80.0455864532
 21
148.2115480659
  0
LINE
  5
26E
100
AcDbEntity
  8
RUNDUNGEN
100
AcDbLine
 62
7
  6
CONTINUOUS
 10
82.9215998499
 20
142.0439174332
 11
73.4134343197
 21
162.434244214
  0
LINE
  5
26F
100
AcDbEntity
  8
0
100
AcDbLine
 62
7
  6
CONTINUOUS
 10
92.2222837936
 20
135.8802945703
 11
92.2222837936
 21
135.6802945703
  0
LINE
  5
270
100
AcDbEntity
  8
0
100
AcDbLine
 62
7
  6
CONTINUOUS
 10
93.9610354661
 20
182.5238354398
 11
93.972637254
 21
182.8078747562
  0
LINE
  5
271
100
AcDbEntity
  8
0
100
AcDbLine
 62
7
  6
CONTINUOUS
 10
94.1675965353
 20
143.2951880187
 11
94.058221532
 21
142.5505072564
  0
LINE
  5
272
100
AcDbEntity
  8
0
100
AcDbLine
 62
7
  6
CONTINUOUS
 10
94.2769715386
 20
143.7419968933
 11
94.1675965353
 21
143.2951880187
  0
LINE
  5
273
100
AcDbEntity
  8
0
100
AcDbLine
 62
7
  6
CONTINUOUS
 10
94.4957215451
 20
144.3377415031
 11
94.2769715386
 21
143.7419968933
  0
LINE
  5
274
100
AcDbEntity
  8
0
100
AcDbLine
 62
7
  6
CONTINUOUS
 10
108.2081622734
 20
185.3258558066
 11
108.0958030985
 21
185.0271394946
  0
LINE
  5
275
100
AcDbEntity
  8
0
100
AcDbLine
 62
7
  6
CONTINUOUS
 10
109.031781099
 20
184.6750806628
 11
108.0879639042
 21
182.1658633081
  0
LINE
  5
276
100
AcDbEntity
  8
0
100
AcDbLine
 62
7
  6
CONTINUOUS
 10
108.4389556126
 20
182.0338412619
 11
109.3827728073
 21
184.5430586166
  0
LINE
  5
277
100
AcDbEntity
  8
0
100
AcDbLine
 62
7
  6
CONTINUOUS
 10
94.714471532
 20
143.2951880187
 11
95.151971506
 21
144.1888053506
  0
LINE
  5
278
100
AcDbEntity
  8
0
100
AcDbLine
 62
7
  6
CONTINUOUS
 10
94.823846506
 20
144.7845499605
 11
94.4957215451
 21
144.3377415031
  0
LINE
  5
279
100
AcDbEntity
  8
0
100
AcDbLine
 62
7
  6
CONTINUOUS
 10
95.151971506
 20
144.1888053506
 11
95.4800965842
 21
144.4866776555
  0
LINE
  5
27A
100
AcDbEntity
  8
0
100
AcDbLine
 62
7
  6
CONTINUOUS
 10
95.370721532
 20
145.2313584178
 11
94.823846506
 21
144.7845499605
  0
LINE
  5
27B
100
AcDbEntity
  8
0
100
AcDbLine
 62
7
  6
CONTINUOUS
 10
85.8244595356
 20
176.4670591509
 11
85.7775342684
 21
176.8212988491
  0
LINE
  5
27C
100
AcDbEntity
  8
0
100
AcDbLine
 62
7
  6
CONTINUOUS
 10
94.058221532
 20
142.5505072564
 11
94.058221532
 21
141.2100818842
  0
LINE
  5
27D
100
AcDbEntity
  8
0
100
AcDbLine
 62
7
  6
CONTINUOUS
 10
94.605096519
 20
141.3590180367
 11
94.605096519
 21
142.4015711039
  0
LINE
  5
27E
100
AcDbEntity
  8
0
100
AcDbLine
 62
7
  6
CONTINUOUS
 10
95.2222837936
 20
135.6802945703
 11
95.2222837936
 21
86.9302945703
  0
LINE
  5
27F
100
AcDbEntity
  8
0
100
AcDbLine
 62
7
  6
CONTINUOUS
 10
97.4488464277
 20
142.4015711039
 11
97.4488464277
 21
141.3590180367
  0
LINE
  5
280
100
AcDbEntity
  8
0
100
AcDbLine
 62
7
  6
CONTINUOUS
 10
94.605096519
 20
142.4015711039
 11
94.714471532
 21
143.2951880187
  0
LINE
  5
281
100
AcDbEntity
  8
0
100
AcDbLine
 62
7
  6
CONTINUOUS
 10
97.4488464277
 20
141.3590180367
 11
97.339471532
 21
140.4654009133
  0
LINE
  5
282
100
AcDbEntity
  8
0
100
AcDbLine
 62
7
  6
CONTINUOUS
 10
97.8863466363
 20
140.4654009133
 11
97.995721532
 21
141.2100818842
  0
LINE
  5
283
100
AcDbEntity
  8
0
100
AcDbLine
 62
7
  6
CONTINUOUS
 10
105.0898069754
 20
185.3615560351
 11
105.0346913081
 21
185.1122566031
  0
LINE
  5
284
100
AcDbEntity
  8
0
100
AcDbLine
 62
7
  6
CONTINUOUS
 10
105.4146285433
 20
185.0936303282
 11
105.4421863576
 21
185.2182799569
  0
LINE
  5
285
100
AcDbEntity
  8
0
100
AcDbLine
 62
7
  6
CONTINUOUS
 10
106.5091886724
 20
183.6749629345
 11
106.4678519508
 21
183.4879884915
  0
LINE
  5
286
100
AcDbEntity
  8
0
100
AcDbLine
 62
7
  6
CONTINUOUS
 10
106.8202313716
 20
183.3447125878
 11
106.8891259075
 21
183.6563366595
  0
LINE
  5
287
100
AcDbEntity
  8
0
100
AcDbLine
 62
7
  6
CONTINUOUS
 10
97.7769714277
 20
140.018592456
 11
97.8863466363
 21
140.4654009133
  0
LINE
  5
288
100
AcDbEntity
  8
0
100
AcDbLine
 62
7
  6
CONTINUOUS
 10
97.5582216363
 20
139.4228477418
 11
97.7769714277
 21
140.018592456
  0
LINE
  5
289
100
AcDbEntity
  8
0
100
AcDbLine
 62
7
  6
CONTINUOUS
 10
110.3187504731
 20
184.1909999107
 11
110.4311096479
 21
184.4897162226
  0
LINE
  5
28A
100
AcDbEntity
  8
0
100
AcDbLine
 62
7
  6
CONTINUOUS
 10
97.339471532
 20
140.4654009133
 11
96.9019716363
 21
139.5717838943
  0
LINE
  5
28B
100
AcDbEntity
  8
0
100
AcDbLine
 62
7
  6
CONTINUOUS
 10
94.823846506
 20
138.9760392323
 11
95.370721532
 21
138.5292307358
  0
LINE
  5
28C
100
AcDbEntity
  8
0
100
AcDbLine
 62
7
  6
CONTINUOUS
 10
95.4800965842
 20
139.2739115894
 11
95.151971506
 21
139.5717838943
  0
LINE
  5
28D
100
AcDbEntity
  8
0
100
AcDbLine
 62
7
  6
CONTINUOUS
 10
94.4957215451
 20
139.4228477418
 11
94.823846506
 21
138.9760392323
  0
LINE
  5
28E
100
AcDbEntity
  8
0
100
AcDbLine
 62
7
  6
CONTINUOUS
 10
95.151971506
 20
139.5717838943
 11
94.714471532
 21
140.4654009133
  0
LINE
  5
28F
100
AcDbEntity
  8
0
100
AcDbLine
 62
7
  6
CONTINUOUS
 10
81.1243793941
 20
172.1443949254
 11
81.1965919456
 21
171.9809711653
  0
LINE
  5
290
100
AcDbEntity
  8
0
100
AcDbLine
 62
7
  6
CONTINUOUS
 10
94.2769715386
 20
140.018592456
 11
94.4957215451
 21
139.4228477418
  0
LINE
  5
291
100
AcDbEntity
  8
0
100
AcDbLine
 62
7
  6
CONTINUOUS
 10
84.0463650224
 20
174.0178089979
 11
83.9491771727
 21
174.3616729901
  0
LINE
  5
292
100
AcDbEntity
  8
0
100
AcDbLine
 62
7
  6
CONTINUOUS
 10
94.1675965353
 20
140.4654009133
 11
94.2769715386
 21
140.018592456
  0
LINE
  5
293
100
AcDbEntity
  8
0
100
AcDbLine
 62
7
  6
CONTINUOUS
 10
94.058221532
 20
141.2100818842
 11
94.1675965353
 21
140.4654009133
  0
LINE
  5
294
100
AcDbEntity
  8
0
100
AcDbLine
 62
7
  6
CONTINUOUS
 10
94.714471532
 20
140.4654009133
 11
94.605096519
 21
141.3590180367
  0
LINE
  5
295
100
AcDbEntity
  8
0
100
AcDbLine
 62
7
  6
CONTINUOUS
 10
97.995721532
 20
141.2100818842
 11
97.995721532
 21
142.5505072564
  0
LINE
  5
296
100
AcDbEntity
  8
0
100
AcDbLine
 62
7
  6
CONTINUOUS
 10
100.948846532
 20
145.3802945703
 11
100.948846532
 21
141.5079541892
  0
LINE
  5
297
100
AcDbEntity
  8
0
100
AcDbLine
 62
7
  6
CONTINUOUS
 10
101.4957213234
 20
142.2526349514
 11
101.4957213234
 21
144.635613808
  0
LINE
  5
298
100
AcDbEntity
  8
0
100
AcDbLine
 62
7
  6
CONTINUOUS
 10
115.4413115975
 20
180.8177054132
 11
115.3745111812
 21
180.627673361
  0
LINE
  5
299
100
AcDbEntity
  8
0
100
AcDbLine
 62
7
  6
CONTINUOUS
 10
115.6722419558
 20
180.3996790938
 11
115.7390423721
 21
180.589711146
  0
LINE
  5
29A
100
AcDbEntity
  8
0
100
AcDbLine
 62
7
  6
CONTINUOUS
 10
99.5269713234
 20
139.1249754369
 11
98.8707216363
 21
137.4866775512
  0
LINE
  5
29B
100
AcDbEntity
  8
0
100
AcDbLine
 62
7
  6
CONTINUOUS
 10
99.4175967407
 20
137.4866775512
 11
100.0738467407
 21
139.1249754369
  0
LINE
  5
29C
100
AcDbEntity
  8
0
100
AcDbLine
 62
7
  6
CONTINUOUS
 10
97.2300966363
 20
138.9760392323
 11
97.5582216363
 21
139.4228477418
  0
LINE
  5
29D
100
AcDbEntity
  8
0
100
AcDbLine
 62
7
  6
CONTINUOUS
 10
101.7144717407
 20
141.5079541892
 11
102.1519713234
 21
141.9547626465
  0
LINE
  5
29E
100
AcDbEntity
  8
0
100
AcDbLine
 62
7
  6
CONTINUOUS
 10
96.9019716363
 20
139.5717838943
 11
96.5738464799
 21
139.2739115894
  0
LINE
  5
29F
100
AcDbEntity
  8
0
100
AcDbLine
 62
7
  6
CONTINUOUS
 10
96.683221532
 20
138.5292307358
 11
97.2300966363
 21
138.9760392323
  0
LINE
  5
2A0
100
AcDbEntity
  8
0
100
AcDbLine
 62
7
  6
CONTINUOUS
 10
102.0425967407
 20
142.6994434088
 11
101.4957213234
 21
142.2526349514
  0
LINE
  5
2A1
100
AcDbEntity
  8
0
100
AcDbLine
 62
7
  6
CONTINUOUS
 10
102.1519713234
 20
141.9547626465
 11
102.589471532
 21
142.103698799
  0
LINE
  5
2A2
100
AcDbEntity
  8
0
100
AcDbLine
 62
7
  6
CONTINUOUS
 10
103.245721532
 20
138.3802945703
 11
103.7925963234
 21
138.5292307358
  0
LINE
  5
2A3
100
AcDbEntity
  8
0
100
AcDbLine
 62
7
  6
CONTINUOUS
 10
96.026971532
 20
138.3802945703
 11
96.683221532
 21
138.5292307358
  0
LINE
  5
2A4
100
AcDbEntity
  8
0
100
AcDbLine
 62
7
  6
CONTINUOUS
 10
110.2222837936
 20
135.6802945703
 11
92.2222837936
 21
135.6802945703
  0
LINE
  5
2A5
100
AcDbEntity
  8
BEZUGSACHSEN
100
AcDbLine
 62
7
  6
CONTINUOUS
 10
86.2222837936
 20
135.8802945703
 11
116.2222837936
 21
135.8802945703
  0
LINE
  5
2A6
100
AcDbEntity
  8
0
100
AcDbLine
 62
7
  6
CONTINUOUS
 10
98.8707216363
 20
137.4866775512
 11
99.4175967407
 21
137.4866775512
  0
LINE
  5
2A7
100
AcDbEntity
  8
0
100
AcDbLine
 62
7
  6
CONTINUOUS
 10
102.589471532
 20
138.3802945703
 11
103.245721532
 21
138.3802945703
  0
LINE
  5
2A8
100
AcDbEntity
  8
0
100
AcDbLine
 62
7
  6
CONTINUOUS
 10
103.245721532
 20
139.1249754369
 11
102.589471532
 21
139.1249754369
  0
LINE
  5
2A9
100
AcDbEntity
  8
0
100
AcDbLine
 62
7
  6
CONTINUOUS
 10
100.0738467407
 20
139.1249754369
 11
99.5269713234
 21
139.1249754369
  0
LINE
  5
2AA
100
AcDbEntity
  8
0
100
AcDbLine
 62
7
  6
CONTINUOUS
 10
95.370721532
 20
138.5292307358
 11
96.026971532
 21
138.3802945703
  0
LINE
  5
2AB
100
AcDbEntity
  8
0
100
AcDbLine
 62
7
  6
CONTINUOUS
 10
96.026971532
 20
139.1249754369
 11
95.4800965842
 21
139.2739115894
  0
LINE
  5
2AC
100
AcDbEntity
  8
0
100
AcDbLine
 62
7
  6
CONTINUOUS
 10
102.0425967407
 20
138.5292307358
 11
102.589471532
 21
138.3802945703
  0
LINE
  5
2AD
100
AcDbEntity
  8
0
100
AcDbLine
 62
7
  6
CONTINUOUS
 10
102.589471532
 20
139.1249754369
 11
102.1519713234
 21
139.2739115894
  0
LINE
  5
2AE
100
AcDbEntity
  8
0
100
AcDbLine
 62
7
  6
CONTINUOUS
 10
101.4957213234
 20
138.9760392323
 11
102.0425967407
 21
138.5292307358
  0
LINE
  5
2AF
100
AcDbEntity
  8
0
100
AcDbLine
 62
7
  6
CONTINUOUS
 10
97.5582216363
 20
144.3377415031
 11
97.2300966363
 21
144.7845499605
  0
LINE
  5
2B0
100
AcDbEntity
  8
0
100
AcDbLine
 62
7
  6
CONTINUOUS
 10
101.1675963234
 20
139.5717838943
 11
101.4957213234
 21
138.9760392323
  0
LINE
  5
2B1
100
AcDbEntity
  8
0
100
AcDbLine
 62
7
  6
CONTINUOUS
 10
83.547965893
 20
174.3034869406
 11
83.6519375716
 21
174.0998131153
  0
LINE
  5
2B2
100
AcDbEntity
  8
0
100
AcDbLine
 62
7
  6
CONTINUOUS
 10
96.9019716363
 20
144.1888053506
 11
97.339471532
 21
143.2951880187
  0
LINE
  5
2B3
100
AcDbEntity
  8
0
100
AcDbLine
 62
7
  6
CONTINUOUS
 10
97.7769714277
 20
143.7419968933
 11
97.5582216363
 21
144.3377415031
  0
LINE
  5
2B4
100
AcDbEntity
  8
0
100
AcDbLine
 62
7
  6
CONTINUOUS
 10
100.948846532
 20
140.1675286084
 11
101.1675963234
 21
139.5717838943
  0
LINE
  5
2B5
100
AcDbEntity
  8
0
100
AcDbLine
 62
7
  6
CONTINUOUS
 10
85.3721259355
 20
176.82118892
 11
85.4458476228
 21
176.6047210487
  0
LINE
  5
2B6
100
AcDbEntity
  8
0
100
AcDbLine
 62
7
  6
CONTINUOUS
 10
97.8863466363
 20
143.2951880187
 11
97.7769714277
 21
143.7419968933
  0
LINE
  5
2B7
100
AcDbEntity
  8
0
100
AcDbLine
 62
7
  6
CONTINUOUS
 10
91.1561207871
 20
183.3121192002
 11
91.2274314207
 21
182.9948225066
  0
LINE
  5
2B8
100
AcDbEntity
  8
0
100
AcDbLine
 62
7
  6
CONTINUOUS
 10
91.5706820422
 20
183.1458324762
 11
91.525075302
 21
183.4047033753
  0
LINE
  5
2B9
100
AcDbEntity
  8
0
100
AcDbLine
 62
7
  6
CONTINUOUS
 10
93.5580757436
 20
182.9741611725
 11
93.6036824837
 21
182.7152902734
  0
LINE
  5
2BA
100
AcDbEntity
  8
0
100
AcDbLine
 62
7
  6
CONTINUOUS
 10
97.995721532
 20
142.5505072564
 11
97.8863466363
 21
143.2951880187
  0
LINE
  5
2BB
100
AcDbEntity
  8
0
100
AcDbLine
 62
7
  6
CONTINUOUS
 10
97.339471532
 20
143.2951880187
 11
97.4488464277
 21
142.4015711039
  0
LINE
  5
2BC
100
AcDbEntity
  8
0
100
AcDbLine
 62
7
  6
CONTINUOUS
 10
104.5898128884
 20
183.9685605878
 11
104.5957236495
 21
183.7057694818
  0
LINE
  5
2BD
100
AcDbEntity
  8
0
100
AcDbLine
 62
7
  6
CONTINUOUS
 10
104.3394717407
 20
140.7632732182
 11
104.3394717407
 21
140.4654009133
  0
LINE
  5
2BE
100
AcDbEntity
  8
0
100
AcDbLine
 62
7
  6
CONTINUOUS
 10
104.6675961148
 20
144.635613808
 11
104.6675961148
 21
145.3802945703
  0
LINE
  5
2BF
100
AcDbEntity
  8
0
100
AcDbLine
 62
7
  6
CONTINUOUS
 10
104.886346532
 20
140.3164647609
 11
104.886346532
 21
140.9122093707
  0
LINE
  5
2C0
100
AcDbEntity
  8
0
100
AcDbLine
 62
7
  6
CONTINUOUS
 10
105.7613469493
 20
143.1462518662
 11
105.7613469493
 21
142.5505072564
  0
LINE
  5
2C1
100
AcDbEntity
  8
0
100
AcDbLine
 62
7
  6
CONTINUOUS
 10
112.0201815659
 20
180.2612869537
 11
112.6015425093
 21
183.3696660179
  0
LINE
  5
2C2
100
AcDbEntity
  8
0
100
AcDbLine
 62
7
  6
CONTINUOUS
 10
111.8453732124
 20
181.2343020836
 11
111.6922899982
 21
180.443254313
  0
LINE
  5
2C3
100
AcDbEntity
  8
0
100
AcDbLine
 62
7
  6
CONTINUOUS
 10
112.259055684
 20
183.267732179
 11
111.9146174816
 21
181.4878751571
  0
LINE
  5
2C4
100
AcDbEntity
  8
0
100
AcDbLine
 62
7
  6
CONTINUOUS
 10
104.3394717407
 20
140.4654009133
 11
104.230096532
 21
140.018592456
  0
LINE
  5
2C5
100
AcDbEntity
  8
0
100
AcDbLine
 62
7
  6
CONTINUOUS
 10
104.6675961148
 20
139.5717838943
 11
104.886346532
 21
140.3164647609
  0
LINE
  5
2C6
100
AcDbEntity
  8
0
100
AcDbLine
 62
7
  6
CONTINUOUS
 10
114.3247922572
 20
178.5372872963
 11
114.7707693989
 21
180.044863009
  0
LINE
  5
2C7
100
AcDbEntity
  8
0
100
AcDbLine
 62
7
  6
CONTINUOUS
 10
114.3954235639
 20
180.171502131
 11
113.9774398762
 21
178.803280463
  0
LINE
  5
2C8
100
AcDbEntity
  8
0
100
AcDbLine
 62
7
  6
CONTINUOUS
 10
104.230096532
 20
140.018592456
 11
104.0113467407
 21
139.5717838943
  0
LINE
  5
2C9
100
AcDbEntity
  8
0
100
AcDbLine
 62
7
  6
CONTINUOUS
 10
104.3394717407
 20
138.9760392323
 11
104.6675961148
 21
139.5717838943
  0
LINE
  5
2CA
100
AcDbEntity
  8
0
100
AcDbLine
 62
7
  6
CONTINUOUS
 10
104.0113467407
 20
139.5717838943
 11
103.6832217407
 21
139.2739115894
  0
LINE
  5
2CB
100
AcDbEntity
  8
0
100
AcDbLine
 62
7
  6
CONTINUOUS
 10
103.7925963234
 20
138.5292307358
 11
104.3394717407
 21
138.9760392323
  0
LINE
  5
2CC
100
AcDbEntity
  8
0
100
AcDbLine
 62
7
  6
CONTINUOUS
 10
103.6832217407
 20
139.2739115894
 11
103.245721532
 21
139.1249754369
  0
LINE
  5
2CD
100
AcDbEntity
  8
0
100
AcDbLine
 62
7
  6
CONTINUOUS
 10
96.5738464799
 20
139.2739115894
 11
96.026971532
 21
139.1249754369
  0
LINE
  5
2CE
100
AcDbEntity
  8
0
100
AcDbLine
 62
7
  6
CONTINUOUS
 10
102.589471532
 20
142.8483795613
 11
102.0425967407
 21
142.6994434088
  0
LINE
  5
2CF
100
AcDbEntity
  8
0
100
AcDbLine
 62
7
  6
CONTINUOUS
 10
101.605096532
 20
140.1675286084
 11
100.948846532
 21
140.1675286084
  0
LINE
  5
2D0
100
AcDbEntity
  8
0
100
AcDbLine
 62
7
  6
CONTINUOUS
 10
100.948846532
 20
141.5079541892
 11
101.7144717407
 21
141.5079541892
  0
LINE
  5
2D1
100
AcDbEntity
  8
0
100
AcDbLine
 62
7
  6
CONTINUOUS
 10
102.589471532
 20
142.103698799
 11
103.245721532
 21
142.103698799
  0
LINE
  5
2D2
100
AcDbEntity
  8
0
100
AcDbLine
 62
7
  6
CONTINUOUS
 10
105.7613469493
 20
142.5505072564
 11
106.6363461148
 21
142.5505072564
  0
LINE
  5
2D3
100
AcDbEntity
  8
0
100
AcDbLine
 62
7
  6
CONTINUOUS
 10
107.183221532
 20
142.5505072564
 11
108.3863469493
 21
142.5505072564
  0
LINE
  5
2D4
100
AcDbEntity
  8
0
100
AcDbLine
 62
7
  6
CONTINUOUS
 10
103.245721532
 20
142.8483795613
 11
102.589471532
 21
142.8483795613
  0
LINE
  5
2D5
100
AcDbEntity
  8
0
100
AcDbLine
 62
7
  6
CONTINUOUS
 10
108.3863469493
 20
143.1462518662
 11
107.183221532
 21
143.1462518662
  0
LINE
  5
2D6
100
AcDbEntity
  8
0
100
AcDbLine
 62
7
  6
CONTINUOUS
 10
106.6363461148
 20
143.1462518662
 11
105.7613469493
 21
143.1462518662
  0
LINE
  5
2D7
100
AcDbEntity
  8
0
100
AcDbLine
 62
7
  6
CONTINUOUS
 10
107.511346532
 20
138.5292307358
 11
108.167596532
 21
138.3802945703
  0
LINE
  5
2D8
100
AcDbEntity
  8
0
100
AcDbLine
 62
7
  6
CONTINUOUS
 10
108.167596532
 20
138.9760392323
 11
107.6207211148
 21
139.1249754369
  0
LINE
  5
2D9
100
AcDbEntity
  8
0
100
AcDbLine
 62
7
  6
CONTINUOUS
 10
96.026971532
 20
144.635613808
 11
96.5738464799
 21
144.4866776555
  0
LINE
  5
2DA
100
AcDbEntity
  8
0
100
AcDbLine
 62
7
  6
CONTINUOUS
 10
103.7925963234
 20
142.6994434088
 11
103.245721532
 21
142.8483795613
  0
LINE
  5
2DB
100
AcDbEntity
  8
0
100
AcDbLine
 62
7
  6
CONTINUOUS
 10
103.245721532
 20
142.103698799
 11
103.6832217407
 21
141.9547626465
  0
LINE
  5
2DC
100
AcDbEntity
  8
0
100
AcDbLine
 62
7
  6
CONTINUOUS
 10
107.183221532
 20
138.6781669013
 11
107.511346532
 21
138.5292307358
  0
LINE
  5
2DD
100
AcDbEntity
  8
0
100
AcDbLine
 62
7
  6
CONTINUOUS
 10
97.2300966363
 20
144.7845499605
 11
96.683221532
 21
145.2313584178
  0
LINE
  5
2DE
100
AcDbEntity
  8
0
100
AcDbLine
 62
7
  6
CONTINUOUS
 10
104.3394717407
 20
142.2526349514
 11
103.7925963234
 21
142.6994434088
  0
LINE
  5
2DF
100
AcDbEntity
  8
0
100
AcDbLine
 62
7
  6
CONTINUOUS
 10
102.1519713234
 20
139.2739115894
 11
101.8238463234
 21
139.5717838943
  0
LINE
  5
2E0
100
AcDbEntity
  8
0
100
AcDbLine
 62
7
  6
CONTINUOUS
 10
96.5738464799
 20
144.4866776555
 11
96.9019716363
 21
144.1888053506
  0
LINE
  5
2E1
100
AcDbEntity
  8
0
100
AcDbLine
 62
7
  6
CONTINUOUS
 10
106.855096532
 20
138.9760392323
 11
107.183221532
 21
138.6781669013
  0
LINE
  5
2E2
100
AcDbEntity
  8
0
100
AcDbLine
 62
7
  6
CONTINUOUS
 10
103.6832217407
 20
141.9547626465
 11
104.0113467407
 21
141.6568903416
  0
LINE
  5
2E3
100
AcDbEntity
  8
0
100
AcDbLine
 62
7
  6
CONTINUOUS
 10
107.6207211148
 20
139.1249754369
 11
107.2925961148
 21
139.4228477418
  0
LINE
  5
2E4
100
AcDbEntity
  8
0
100
AcDbLine
 62
7
  6
CONTINUOUS
 10
81.4903008431
 20
172.2001960218
 11
81.3227019439
 21
172.4689983865
  0
LINE
  5
2E5
100
AcDbEntity
  8
0
100
AcDbLine
 62
7
  6
CONTINUOUS
 10
104.6675961148
 20
141.6568903416
 11
104.3394717407
 21
142.2526349514
  0
LINE
  5
2E6
100
AcDbEntity
  8
0
100
AcDbLine
 62
7
  6
CONTINUOUS
 10
104.0113467407
 20
141.6568903416
 11
104.230096532
 21
141.2100818842
  0
LINE
  5
2E7
100
AcDbEntity
  8
0
100
AcDbLine
 62
7
  6
CONTINUOUS
 10
85.7775342684
 20
176.8212988491
 11
85.6535532628
 21
177.0771144955
  0
LINE
  5
2E8
100
AcDbEntity
  8
0
100
AcDbLine
 62
7
  6
CONTINUOUS
 10
101.8238463234
 20
139.5717838943
 11
101.605096532
 21
140.1675286084
  0
LINE
  5
2E9
100
AcDbEntity
  8
0
100
AcDbLine
 62
7
  6
CONTINUOUS
 10
104.886346532
 20
140.9122093707
 11
104.6675961148
 21
141.6568903416
  0
LINE
  5
2EA
100
AcDbEntity
  8
0
100
AcDbLine
 62
7
  6
CONTINUOUS
 10
104.230096532
 20
141.2100818842
 11
104.3394717407
 21
140.7632732182
  0
LINE
  5
2EB
100
AcDbEntity
  8
0
100
AcDbLine
 62
7
  6
CONTINUOUS
 10
93.972637254
 20
182.8078747562
 11
93.901326365
 21
183.125171142
  0
LINE
  5
2EC
100
AcDbEntity
  8
0
100
AcDbLine
 62
7
  6
CONTINUOUS
 10
104.9756608683
 20
183.6871432104
 11
104.9559712164
 21
183.8876094985
  0
LINE
  5
2ED
100
AcDbEntity
  8
0
100
AcDbLine
 62
7
  6
CONTINUOUS
 10
105.0346913081
 20
185.1122566031
 11
105.0406020747
 21
184.8494654959
  0
LINE
  5
2EE
100
AcDbEntity
  8
0
100
AcDbLine
 62
7
  6
CONTINUOUS
 10
106.6363461148
 20
144.3377415031
 11
106.6363461148
 21
143.1462518662
  0
LINE
  5
2EF
100
AcDbEntity
  8
0
100
AcDbLine
 62
7
  6
CONTINUOUS
 10
106.6363461148
 20
142.5505072564
 11
106.6363461148
 21
139.5717838943
  0
LINE
  5
2F0
100
AcDbEntity
  8
0
100
AcDbLine
 62
7
  6
CONTINUOUS
 10
107.183221532
 20
139.8696563035
 11
107.183221532
 21
142.5505072564
  0
LINE
  5
2F1
100
AcDbEntity
  8
0
100
AcDbLine
 62
7
  6
CONTINUOUS
 10
107.183221532
 20
143.1462518662
 11
107.183221532
 21
144.3377415031
  0
LINE
  5
2F2
100
AcDbEntity
  8
0
100
AcDbLine
 62
7
  6
CONTINUOUS
 10
107.2222837936
 20
135.6802945703
 11
107.2222837936
 21
86.9302945703
  0
LINE
  5
2F3
100
AcDbEntity
  8
0
100
AcDbLine
 62
7
  6
CONTINUOUS
 10
108.167596532
 20
138.3802945703
 11
108.167596532
 21
138.9760392323
  0
LINE
  5
2F4
100
AcDbEntity
  8
0
100
AcDbLine
 62
7
  6
CONTINUOUS
 10
108.3863469493
 20
142.5505072564
 11
108.3863469493
 21
143.1462518662
  0
LINE
  5
2F5
100
AcDbEntity
  8
0
100
AcDbLine
 62
7
  6
CONTINUOUS
 10
95.4800965842
 20
144.4866776555
 11
96.026971532
 21
144.635613808
  0
LINE
  5
2F6
100
AcDbEntity
  8
0
100
AcDbLine
 62
7
  6
CONTINUOUS
 10
96.026971532
 20
145.3802945703
 11
95.370721532
 21
145.2313584178
  0
LINE
  5
2F7
100
AcDbEntity
  8
0
100
AcDbLine
 62
7
  6
CONTINUOUS
 10
107.183221532
 20
144.3377415031
 11
106.6363461148
 21
144.3377415031
  0
LINE
  5
2F8
100
AcDbEntity
  8
0
100
AcDbLine
 62
7
  6
CONTINUOUS
 10
101.4957213234
 20
144.635613808
 11
104.6675961148
 21
144.635613808
  0
LINE
  5
2F9
100
AcDbEntity
  8
0
100
AcDbLine
 62
7
  6
CONTINUOUS
 10
104.6675961148
 20
145.3802945703
 11
100.948846532
 21
145.3802945703
  0
LINE
  5
2FA
100
AcDbEntity
  8
0
100
AcDbLine
 62
7
  6
CONTINUOUS
 10
96.683221532
 20
145.2313584178
 11
96.026971532
 21
145.3802945703
  0
LINE
  5
2FB
100
AcDbEntity
  8
0
100
AcDbLine
 62
7
  6
CONTINUOUS
 10
83.9491771727
 20
174.3616729901
 11
83.7898277806
 21
174.5970888277
  0
LINE
  5
2FC
100
AcDbEntity
  8
0
100
AcDbLine
 62
7
  6
CONTINUOUS
 10
91.2274314207
 20
182.9948225066
 11
91.6129887797
 21
182.1184379639
  0
LINE
  5
2FD
100
AcDbEntity
  8
0
100
AcDbLine
 62
7
  6
CONTINUOUS
 10
106.6363461148
 20
139.5717838943
 11
106.855096532
 21
138.9760392323
  0
LINE
  5
2FE
100
AcDbEntity
  8
0
100
AcDbLine
 62
7
  6
CONTINUOUS
 10
107.2925961148
 20
139.4228477418
 11
107.183221532
 21
139.8696563035
  0
LINE
  5
2FF
100
AcDbEntity
  8
0
100
AcDbLine
 62
7
  6
CONTINUOUS
 10
105.4343181952
 20
184.8931640401
 11
105.4146285433
 21
185.0936303282
  0
LINE
  5
300
100
AcDbEntity
  8
0
100
AcDbLine
 62
7
  6
CONTINUOUS
 10
106.981624945
 20
184.9433087531
 11
106.9619353368
 21
185.1437750315
  0
LINE
  5
301
100
AcDbEntity
  8
0
100
AcDbLine
 62
7
  6
CONTINUOUS
 10
110.2222837936
 20
135.8802945703
 11
110.2222837936
 21
135.6802945703
  0
LINE
  5
302
100
AcDbEntity
  8
0
100
AcDbLine
 62
7
  6
CONTINUOUS
 10
80.9697130078
 20
172.2734403376
 11
81.1243793941
 21
172.1443949254
  0
LINE
  5
303
100
AcDbEntity
  8
0
100
AcDbLine
 62
7
  6
CONTINUOUS
 10
85.2096166638
 20
177.0277919429
 11
85.3721259355
 21
176.82118892
  0
LINE
  5
304
100
AcDbEntity
  8
0
100
AcDbLine
 62
7
  6
CONTINUOUS
 10
87.8621649995
 20
182.1438157175
 11
89.4670371712
 21
179.609178601
  0
LINE
  5
305
100
AcDbEntity
  8
0
100
AcDbLine
 62
7
  6
CONTINUOUS
 10
89.7838668107
 20
179.8097876225
 11
88.3838719131
 21
182.0208540819
  0
LINE
  5
306
100
AcDbEntity
  8
0
100
AcDbLine
 62
7
  6
CONTINUOUS
 10
91.9562394012
 20
182.2694479335
 11
91.5706820422
 21
183.1458324762
  0
LINE
  5
307
100
AcDbEntity
  8
0
100
AcDbLine
 62
7
  6
CONTINUOUS
 10
93.1725183846
 20
183.8505457152
 11
93.5580757436
 21
182.9741611725
  0
LINE
  5
308
100
AcDbEntity
  8
0
100
AcDbLine
 62
7
  6
CONTINUOUS
 10
93.901326365
 20
183.125171142
 11
93.515769006
 21
184.0015556847
  0
LINE
  5
309
100
AcDbEntity
  8
0
100
AcDbLine
 62
7
  6
CONTINUOUS
 10
115.7390423721
 20
180.589711146
 11
115.7454071057
 21
180.9064185701
  0
LINE
  5
30A
100
AcDbEntity
  8
BEZUGSACHSEN
100
AcDbLine
 62
7
  6
CONTINUOUS
 10
122.398981134
 20
148.2115480659
 11
120.8546083028
 21
144.8996298415
  0
LINE
  5
30B
100
AcDbEntity
  8
RUNDUNGEN
100
AcDbLine
 62
7
  6
CONTINUOUS
 10
129.0311332675
 20
162.434244214
 11
119.5229677022
 21
142.043917358
  0
LINE
  5
30C
100
AcDbEntity
  8
BEZUGSACHSEN
100
AcDbLine
 62
7
  6
CONTINUOUS
 10
119.5229677022
 20
142.043917358
 11
119.2412817362
 21
141.4398398544
  0
LINE
  5
30D
100
AcDbEntity
  8
0
100
AcDbLine
 62
7
  6
CONTINUOUS
 10
81.3227019439
 20
172.4689983865
 11
81.1680355577
 21
172.5980437988
  0
LINE
  5
30E
100
AcDbEntity
  8
0
100
AcDbLine
 62
7
  6
CONTINUOUS
 10
83.7898277806
 20
174.5970888277
 11
83.5440201692
 21
174.8100228602
  0
LINE
  5
30F
100
AcDbEntity
  8
0
100
AcDbLine
 62
7
  6
CONTINUOUS
 10
83.3575359561
 20
174.4846789833
 11
83.547965893
 21
174.3034869406
  0
LINE
  5
310
100
AcDbEntity
  8
0
100
AcDbLine
 62
7
  6
CONTINUOUS
 10
85.6535532628
 20
177.0771144955
 11
85.4407847081
 21
177.3230652659
  0
LINE
  5
311
100
AcDbEntity
  8
0
100
AcDbLine
 62
7
  6
CONTINUOUS
 10
86.9484305818
 20
181.4161552578
 11
88.7909370551
 21
179.0486312567
  0
LINE
  5
312
100
AcDbEntity
  8
0
100
AcDbLine
 62
7
  6
CONTINUOUS
 10
89.0868775552
 20
179.2789445658
 11
87.244371082
 21
181.6464685669
  0
LINE
  5
313
100
AcDbEntity
  8
0
100
AcDbLine
 62
7
  6
CONTINUOUS
 10
89.6575329822
 20
183.2806001884
 11
91.0233816435
 21
181.1234622097
  0
LINE
  5
314
100
AcDbEntity
  8
0
100
AcDbLine
 62
7
  6
CONTINUOUS
 10
91.5792347934
 20
180.9465720934
 11
89.9743626218
 21
183.4812092099
  0
LINE
  5
315
100
AcDbEntity
  8
0
100
AcDbLine
 62
7
  6
CONTINUOUS
 10
106.8891259075
 20
183.6563366595
 11
106.822188896
 21
183.932619675
  0
LINE
  5
316
100
AcDbEntity
  8
0
100
AcDbLine
 62
7
  6
CONTINUOUS
 10
106.5819981016
 20
185.1624013065
 11
106.6154666171
 21
185.0242598425
  0
LINE
  5
317
100
AcDbEntity
  8
0
100
AcDbLine
 62
7
  6
CONTINUOUS
 10
80.708406657
 20
173.8419612647
 11
82.4251148017
 21
172.8579594434
  0
LINE
  5
318
100
AcDbEntity
  8
0
100
AcDbLine
 62
7
  6
CONTINUOUS
 10
82.6115991037
 20
173.1833034755
 11
80.894890959
 21
174.1673052968
  0
LINE
  5
319
100
AcDbEntity
  8
0
100
AcDbLine
 62
7
  6
CONTINUOUS
 10
82.3416265744
 20
176.5743569725
 11
84.7038131585
 21
174.7250126179
  0
LINE
  5
31A
100
AcDbEntity
  8
0
100
AcDbLine
 62
7
  6
CONTINUOUS
 10
84.6334254694
 20
175.2563724537
 11
82.8743503169
 21
176.6335438103
  0
LINE
  5
31B
100
AcDbEntity
  8
0
100
AcDbLine
 62
7
  6
CONTINUOUS
 10
84.4557273479
 20
177.618008211
 11
85.2096166638
 21
177.0277919429
  0
LINE
  5
31C
100
AcDbEntity
  8
0
100
AcDbLine
 62
7
  6
CONTINUOUS
 10
85.4407847081
 20
177.3230652659
 11
84.6868953922
 21
177.9132815341
  0
LINE
  5
31D
100
AcDbEntity
  8
0
100
AcDbLine
 62
7
  6
CONTINUOUS
 10
92.1162632333
 20
182.0609137868
 11
91.9562394012
 21
182.2694479335
  0
LINE
  5
31E
100
AcDbEntity
  8
0
100
AcDbLine
 62
7
  6
CONTINUOUS
 10
91.6129887797
 20
182.1184379639
 11
91.7987164334
 21
181.8514781866
  0
LINE
  5
31F
100
AcDbEntity
  8
0
100
AcDbLine
 62
7
  6
CONTINUOUS
 10
93.515769006
 20
184.0015556847
 11
93.3300416077
 21
184.2685157698
  0
LINE
  5
320
100
AcDbEntity
  8
0
100
AcDbLine
 62
7
  6
CONTINUOUS
 10
104.5957236495
 20
183.7057694818
 11
104.7099082686
 21
183.3536697987
  0
LINE
  5
321
100
AcDbEntity
  8
0
100
AcDbLine
 62
7
  6
CONTINUOUS
 10
115.419683445
 20
180.9950583576
 11
115.4413115975
 21
180.8177054132
  0
LINE
  5
322
100
AcDbEntity
  8
0
100
AcDbLine
 62
7
  6
CONTINUOUS
 10
79.4214060147
 20
170.8053793771
 11
82.2075681646
 21
169.6930392877
  0
LINE
  5
323
100
AcDbEntity
  8
0
100
AcDbLine
 62
7
  6
CONTINUOUS
 10
82.3466106757
 20
170.0413095564
 11
81.1017296975
 21
170.5383125821
  0
LINE
  5
324
100
AcDbEntity
  8
0
100
AcDbLine
 62
7
  6
CONTINUOUS
 10
80.7460494654
 20
170.6803134277
 11
79.8568487192
 21
171.0353156079
  0
LINE
  5
325
100
AcDbEntity
  8
0
100
AcDbLine
 62
7
  6
CONTINUOUS
 10
80.7918727257
 20
172.3444408267
 11
80.9697130078
 21
172.2734403376
  0
LINE
  5
326
100
AcDbEntity
  8
0
100
AcDbLine
 62
7
  6
CONTINUOUS
 10
81.1680355577
 20
172.5980437988
 11
80.9309152369
 21
172.6927110954
  0
LINE
  5
327
100
AcDbEntity
  8
0
100
AcDbLine
 62
7
  6
CONTINUOUS
 10
81.6408278114
 20
175.4686808046
 11
83.3575359561
 21
174.4846789833
  0
LINE
  5
328
100
AcDbEntity
  8
0
100
AcDbLine
 62
7
  6
CONTINUOUS
 10
83.5440201692
 20
174.8100228602
 11
81.8273120245
 21
175.7940246816
  0
LINE
  5
329
100
AcDbEntity
  8
0
100
AcDbLine
 62
7
  6
CONTINUOUS
 10
93.0124945524
 20
184.0590798619
 11
93.1725183846
 21
183.8505457152
  0
LINE
  5
32A
100
AcDbEntity
  8
0
100
AcDbLine
 62
7
  6
CONTINUOUS
 10
106.9619353368
 20
185.1437750315
 11
106.8339718015
 21
185.4335498336
  0
LINE
  5
32B
100
AcDbEntity
  8
0
100
AcDbLine
 62
7
  6
CONTINUOUS
 10
106.4284727536
 20
183.8889211356
 11
106.5091886724
 21
183.6749629345
  0
LINE
  5
32C
100
AcDbEntity
  8
0
100
AcDbLine
 62
7
  6
CONTINUOUS
 10
82.8641903857
 20
173.1105592884
 11
82.6115991037
 21
173.1833034755
  0
LINE
  5
32D
100
AcDbEntity
  8
0
100
AcDbLine
 62
7
  6
CONTINUOUS
 10
82.4251148017
 20
172.8579594434
 11
82.7330839361
 21
172.7534735767
  0
LINE
  5
32E
100
AcDbEntity
  8
0
100
AcDbLine
 62
7
  6
CONTINUOUS
 10
84.2161623553
 20
177.7261871684
 11
84.4557273479
 21
177.618008211
  0
LINE
  5
32F
100
AcDbEntity
  8
0
100
AcDbLine
 62
7
  6
CONTINUOUS
 10
84.6868953922
 20
177.9132815341
 11
84.3970709758
 21
178.0608083492
  0
LINE
  5
330
100
AcDbEntity
  8
0
100
AcDbLine
 62
7
  6
CONTINUOUS
 10
91.7987164334
 20
181.8514781866
 11
92.0159485023
 21
181.6681122313
  0
LINE
  5
331
100
AcDbEntity
  8
0
100
AcDbLine
 62
7
  6
CONTINUOUS
 10
105.1174033011
 20
183.4596931791
 11
104.9756608683
 21
183.6871432104
  0
LINE
  5
332
100
AcDbEntity
  8
0
100
AcDbLine
 62
7
  6
CONTINUOUS
 10
105.0406020747
 20
184.8494654959
 11
105.2295920052
 21
184.546198844
  0
LINE
  5
333
100
AcDbEntity
  8
0
100
AcDbLine
 62
7
  6
CONTINUOUS
 10
106.822188896
 20
183.932619675
 11
106.6331988563
 21
184.235886351
  0
LINE
  5
334
100
AcDbEntity
  8
0
100
AcDbLine
 62
7
  6
CONTINUOUS
 10
115.7454071057
 20
180.9064185701
 11
115.6633427025
 21
181.2104473211
  0
LINE
  5
335
100
AcDbEntity
  8
0
100
AcDbLine
 62
7
  6
CONTINUOUS
 10
83.0881707574
 20
171.898751045
 11
81.5161659351
 21
171.9206822828
  0
LINE
  5
336
100
AcDbEntity
  8
0
100
AcDbLine
 62
7
  6
CONTINUOUS
 10
81.4956834681
 20
171.5250783159
 11
82.9259544502
 21
171.4924356208
  0
LINE
  5
337
100
AcDbEntity
  8
0
100
AcDbLine
 62
7
  6
CONTINUOUS
 10
80.5908588799
 20
172.35739626
 11
80.7918727257
 21
172.3444408267
  0
LINE
  5
338
100
AcDbEntity
  8
0
100
AcDbLine
 62
7
  6
CONTINUOUS
 10
80.9309152369
 20
172.6927110954
 11
80.7299013911
 21
172.7056665288
  0
LINE
  5
339
100
AcDbEntity
  8
0
100
AcDbLine
 62
7
  6
CONTINUOUS
 10
82.7330839361
 20
172.7534735767
 11
83.0167561072
 21
172.7349536054
  0
LINE
  5
33A
100
AcDbEntity
  8
0
100
AcDbLine
 62
7
  6
CONTINUOUS
 10
88.3838719131
 20
182.0208540819
 11
91.1039903341
 21
180.6456585612
  0
LINE
  5
33B
100
AcDbEntity
  8
0
100
AcDbLine
 62
7
  6
CONTINUOUS
 10
92.3077914626
 20
181.9359735031
 11
92.1162632333
 21
182.0609137868
  0
LINE
  5
33C
100
AcDbEntity
  8
0
100
AcDbLine
 62
7
  6
CONTINUOUS
 10
94.0038747338
 20
185.2539561373
 11
95.4131720567
 21
184.1146316958
  0
LINE
  5
33D
100
AcDbEntity
  8
0
100
AcDbLine
 62
7
  6
CONTINUOUS
 10
95.6775744127
 20
183.8555879479
 11
96.8391542478
 21
182.9136967362
  0
LINE
  5
33E
100
AcDbEntity
  8
0
100
AcDbLine
 62
7
  6
CONTINUOUS
 10
95.5274168141
 20
184.4100842939
 11
94.3658376694
 21
185.3519756925
  0
LINE
  5
33F
100
AcDbEntity
  8
0
100
AcDbLine
 62
7
  6
CONTINUOUS
 10
97.2011171834
 20
183.0117162915
 11
95.7751349924
 21
184.2126512511
  0
LINE
  5
340
100
AcDbEntity
  8
0
100
AcDbLine
 62
7
  6
CONTINUOUS
 10
93.3300416077
 20
184.2685157698
 11
93.1128092295
 21
184.4518815402
  0
LINE
  5
341
100
AcDbEntity
  8
0
100
AcDbLine
 62
7
  6
CONTINUOUS
 10
106.4875030818
 20
185.3140346445
 11
106.5819981016
 21
185.1624013065
  0
LINE
  5
342
100
AcDbEntity
  8
0
100
AcDbLine
 62
7
  6
CONTINUOUS
 10
83.0924849324
 20
173.1237814844
 11
82.8641903857
 21
173.1105592884
  0
LINE
  5
343
100
AcDbEntity
  8
0
100
AcDbLine
 62
7
  6
CONTINUOUS
 10
84.3970709758
 20
178.0608083492
 11
84.118977682
 21
178.1197747106
  0
LINE
  5
344
100
AcDbEntity
  8
0
100
AcDbLine
 62
7
  6
CONTINUOUS
 10
92.0159485023
 20
181.6681122313
 11
92.3475976541
 21
181.5350830489
  0
LINE
  5
345
100
AcDbEntity
  8
0
100
AcDbLine
 62
7
  6
CONTINUOUS
 10
91.0233816435
 20
181.1234622097
 11
88.3374094588
 21
182.4447292497
  0
LINE
  5
346
100
AcDbEntity
  8
0
100
AcDbLine
 62
7
  6
CONTINUOUS
 10
92.8209662511
 20
184.1840203092
 11
93.0124945524
 21
184.0590798619
  0
LINE
  5
347
100
AcDbEntity
  8
0
100
AcDbLine
 62
7
  6
CONTINUOUS
 10
104.7099082686
 20
183.3536697987
 11
104.9737034761
 21
183.0992360998
  0
LINE
  5
348
100
AcDbEntity
  8
0
100
AcDbLine
 62
7
  6
CONTINUOUS
 10
105.5898395884
 20
184.7280388571
 11
105.4343181952
 21
184.8931640401
  0
LINE
  5
349
100
AcDbEntity
  8
0
100
AcDbLine
 62
7
  6
CONTINUOUS
 10
106.272951404
 20
184.054046309
 11
106.4284727536
 21
183.8889211356
  0
LINE
  5
34A
100
AcDbEntity
  8
0
100
AcDbLine
 62
7
  6
CONTINUOUS
 10
106.8339718015
 20
185.4335498336
 11
106.6312030293
 21
185.6744916567
  0
LINE
  5
34B
100
AcDbEntity
  8
0
100
AcDbLine
 62
7
  6
CONTINUOUS
 10
115.3096255879
 20
181.1597330638
 11
115.419683445
 21
180.9950583576
  0
LINE
  5
34C
100
AcDbEntity
  8
0
100
AcDbLine
 62
7
  6
CONTINUOUS
 10
120.2468821515
 20
173.2745178999
 11
120.6850569391
 21
172.5155769052
  0
LINE
  5
34D
100
AcDbEntity
  8
0
100
AcDbLine
 62
7
  6
CONTINUOUS
 10
121.0688793568
 20
172.7371768813
 11
120.6307045692
 21
173.4961178761
  0
LINE
  5
34E
100
AcDbEntity
  8
0
100
AcDbLine
 62
7
  6
CONTINUOUS
 10
120.5732056763
 20
175.2488205836
 11
120.666968148
 21
175.0685685319
  0
LINE
  5
34F
100
AcDbEntity
  8
0
100
AcDbLine
 62
7
  6
CONTINUOUS
 10
83.0167561072
 20
172.7349536054
 11
83.3625895151
 21
172.8248813457
  0
LINE
  5
350
100
AcDbEntity
  8
0
100
AcDbLine
 62
7
  6
CONTINUOUS
 10
80.7299013911
 20
172.7056665288
 11
80.4232599808
 21
172.6261986248
  0
LINE
  5
351
100
AcDbEntity
  8
0
100
AcDbLine
 62
7
  6
CONTINUOUS
 10
115.0920437169
 20
180.3616071178
 11
114.9151854435
 21
180.3362497717
  0
LINE
  5
352
100
AcDbEntity
  8
0
100
AcDbLine
 62
7
  6
CONTINUOUS
 10
84.118977682
 20
178.1197747106
 11
83.7638286673
 21
178.0803170064
  0
LINE
  5
353
100
AcDbEntity
  8
0
100
AcDbLine
 62
7
  6
CONTINUOUS
 10
83.9883282037
 20
177.7458058925
 11
84.2161623553
 21
177.7261871684
  0
LINE
  5
354
100
AcDbEntity
  8
0
100
AcDbLine
 62
7
  6
CONTINUOUS
 10
92.5308244344
 20
181.8946271855
 11
92.3077914626
 21
181.9359735031
  0
LINE
  5
355
100
AcDbEntity
  8
0
100
AcDbLine
 62
7
  6
CONTINUOUS
 10
93.1128092295
 20
184.4518815402
 11
92.7811600866
 21
184.5849107021
  0
LINE
  5
356
100
AcDbEntity
  8
0
100
AcDbLine
 62
7
  6
CONTINUOUS
 10
112.4391638289
 20
179.9812511333
 11
112.7368946035
 21
179.7532568662
  0
LINE
  5
357
100
AcDbEntity
  8
0
100
AcDbLine
 62
7
  6
CONTINUOUS
 10
113.9774398762
 20
178.803280463
 11
114.3247922572
 21
178.5372872963
  0
LINE
  5
358
100
AcDbEntity
  8
0
100
AcDbLine
 62
7
  6
CONTINUOUS
 10
113.5518528466
 20
180.817486033
 11
114.3954235639
 21
180.171502131
  0
LINE
  5
359
100
AcDbEntity
  8
0
100
AcDbLine
 62
7
  6
CONTINUOUS
 10
105.2295920052
 20
184.546198844
 11
105.4461397283
 21
184.3675818256
  0
LINE
  5
35A
100
AcDbEntity
  8
0
100
AcDbLine
 62
7
  6
CONTINUOUS
 10
106.6331988563
 20
184.235886351
 11
106.4166511769
 21
184.4145033597
  0
LINE
  5
35B
100
AcDbEntity
  8
0
100
AcDbLine
 62
7
  6
CONTINUOUS
 10
115.6633427025
 20
181.2104473211
 11
115.4540410646
 21
181.4511202613
  0
LINE
  5
35C
100
AcDbEntity
  8
0
100
AcDbLine
 62
7
  6
CONTINUOUS
 10
107.2222837936
 20
86.9302945703
 11
105.9722837936
 21
85.6802945703
  0
LINE
  5
35D
100
AcDbEntity
  8
0
100
AcDbLine
 62
7
  6
CONTINUOUS
 10
94.7880311759
 20
182.3582526521
 11
95.1499941115
 21
182.4562722073
  0
LINE
  5
35E
100
AcDbEntity
  8
0
100
AcDbLine
 62
7
  6
CONTINUOUS
 10
96.8391542478
 20
182.9136967362
 11
97.2011171834
 21
183.0117162915
  0
LINE
  5
35F
100
AcDbEntity
  8
0
100
AcDbLine
 62
7
  6
CONTINUOUS
 10
106.07217846
 20
182.8563828318
 11
106.3438417718
 21
182.9270650968
  0
LINE
  5
360
100
AcDbEntity
  8
0
100
AcDbLine
 62
7
  6
CONTINUOUS
 10
105.7768335392
 20
185.8633775446
 11
105.5051701874
 21
185.7926953056
  0
LINE
  5
361
100
AcDbEntity
  8
0
100
AcDbLine
 62
7
  6
CONTINUOUS
 10
92.6278391607
 20
181.5189051331
 11
92.9395850599
 21
181.5863210906
  0
LINE
  5
362
100
AcDbEntity
  8
0
100
AcDbLine
 62
7
  6
CONTINUOUS
 10
92.7853621127
 20
181.9368749158
 11
92.5308244344
 21
181.8946271855
  0
LINE
  5
363
100
AcDbEntity
  8
0
100
AcDbLine
 62
7
  6
CONTINUOUS
 10
106.0938255817
 20
183.2438235914
 11
105.8359410935
 21
183.2354661764
  0
LINE
  5
364
100
AcDbEntity
  8
0
100
AcDbLine
 62
7
  6
CONTINUOUS
 10
105.7532676407
 20
182.8615172467
 11
106.07217846
 21
182.8563828318
  0
LINE
  5
365
100
AcDbEntity
  8
0
100
AcDbLine
 62
7
  6
CONTINUOUS
 10
92.3475976541
 20
181.5350830489
 11
92.6278391607
 21
181.5189051331
  0
LINE
  5
366
100
AcDbEntity
  8
0
100
AcDbLine
 62
7
  6
CONTINUOUS
 10
114.7707693989
 20
180.044863009
 11
115.0468714531
 21
179.9942221211
  0
LINE
  5
367
100
AcDbEntity
  8
0
100
AcDbLine
 62
7
  6
CONTINUOUS
 10
92.5979332974
 20
184.2253665859
 11
92.8209662511
 21
184.1840203092
  0
LINE
  5
368
100
AcDbEntity
  8
0
100
AcDbLine
 62
7
  6
CONTINUOUS
 10
105.2650564786
 20
182.9694520453
 11
105.7532676407
 21
182.8615172467
  0
LINE
  5
369
100
AcDbEntity
  8
0
100
AcDbLine
 62
7
  6
CONTINUOUS
 10
105.8359410935
 20
183.2354661764
 11
105.3477299313
 21
183.343400975
  0
LINE
  5
36A
100
AcDbEntity
  8
0
100
AcDbLine
 62
7
  6
CONTINUOUS
 10
104.9559712164
 20
183.8876094985
 11
104.5898128884
 21
183.9685605878
  0
LINE
  5
36B
100
AcDbEntity
  8
0
100
AcDbLine
 62
7
  6
CONTINUOUS
 10
114.9151854435
 20
180.3362497717
 11
114.727512526
 21
180.3995693327
  0
LINE
  5
36C
100
AcDbEntity
  8
0
100
AcDbLine
 62
7
  6
CONTINUOUS
 10
108.0879639042
 20
182.1658633081
 11
108.4389556126
 21
182.0338412619
  0
LINE
  5
36D
100
AcDbEntity
  8
0
100
AcDbLine
 62
7
  6
CONTINUOUS
 10
104.9737034761
 20
183.0992360998
 11
105.2650564786
 21
182.9694520453
  0
LINE
  5
36E
100
AcDbEntity
  8
0
100
AcDbLine
 62
7
  6
CONTINUOUS
 10
106.4166511769
 20
184.4145033597
 11
106.1252981732
 21
184.5442874087
  0
LINE
  5
36F
100
AcDbEntity
  8
0
100
AcDbLine
 62
7
  6
CONTINUOUS
 10
106.6312030293
 20
185.6744916567
 11
106.3398499383
 21
185.804275725
  0
LINE
  5
370
100
AcDbEntity
  8
0
100
AcDbLine
 62
7
  6
CONTINUOUS
 10
105.3477299313
 20
183.343400975
 11
105.1174033011
 21
183.4596931791
  0
LINE
  5
371
100
AcDbEntity
  8
0
100
AcDbLine
 62
7
  6
CONTINUOUS
 10
105.4461397283
 20
184.3675818256
 11
105.6764664022
 21
184.251289612
  0
LINE
  5
372
100
AcDbEntity
  8
0
100
AcDbLine
 62
7
  6
CONTINUOUS
 10
106.0426247301
 20
184.1703385226
 11
106.272951404
 21
184.054046309
  0
LINE
  5
373
100
AcDbEntity
  8
0
100
AcDbLine
 62
7
  6
CONTINUOUS
 10
109.8342376771
 20
181.47440274
 11
110.1621289321
 21
181.2924355543
  0
LINE
  5
374
100
AcDbEntity
  8
0
100
AcDbLine
 62
7
  6
CONTINUOUS
 10
111.6922899982
 20
180.443254313
 11
112.0201815659
 21
180.2612869537
  0
LINE
  5
375
100
AcDbEntity
  8
0
100
AcDbLine
 62
7
  6
CONTINUOUS
 10
110.752401737
 20
181.8408597164
 11
111.8453732124
 21
181.2343020836
  0
LINE
  5
376
100
AcDbEntity
  8
0
100
AcDbLine
 62
7
  6
CONTINUOUS
 10
111.9146174816
 20
181.4878751571
 11
110.9309427785
 21
182.033777235
  0
LINE
  5
377
100
AcDbEntity
  8
0
100
AcDbLine
 62
7
  6
CONTINUOUS
 10
112.6015425093
 20
183.3696660179
 11
112.1643541694
 21
183.6122889323
  0
LINE
  5
378
100
AcDbEntity
  8
0
100
AcDbLine
 62
7
  6
CONTINUOUS
 10
105.7591398452
 20
184.6252384981
 11
105.5898395884
 21
184.7280388571
  0
LINE
  5
379
100
AcDbEntity
  8
0
100
AcDbLine
 62
7
  6
CONTINUOUS
 10
106.3182029123
 20
185.4168349842
 11
106.4875030818
 21
185.3140346445
  0
LINE
  5
37A
100
AcDbEntity
  8
0
100
AcDbLine
 62
7
  6
CONTINUOUS
 10
114.727512526
 20
180.3995693327
 11
113.7846980279
 21
181.1215514686
  0
LINE
  5
37B
100
AcDbEntity
  8
0
100
AcDbLine
 62
7
  6
CONTINUOUS
 10
114.3668110898
 20
181.8817151998
 11
115.3096255879
 21
181.1597330638
  0
LINE
  5
37C
100
AcDbEntity
  8
0
100
AcDbLine
 62
7
  6
CONTINUOUS
 10
115.4540410646
 20
181.4511202613
 11
114.2631179663
 21
182.36309733
  0
LINE
  5
37D
100
AcDbEntity
  8
0
100
AcDbLine
 62
7
  6
CONTINUOUS
 10
96.4169607413
 20
185.9074197767
 11
96.0549978057
 21
185.8094002214
  0
LINE
  5
37E
100
AcDbEntity
  8
0
100
AcDbLine
 62
7
  6
CONTINUOUS
 10
94.3658376694
 20
185.3519756925
 11
94.0038747338
 21
185.2539561373
  0
LINE
  5
37F
100
AcDbEntity
  8
0
100
AcDbLine
 62
7
  6
CONTINUOUS
 10
92.5009189142
 20
184.6010887465
 11
92.1891726899
 21
184.53367264
  0
LINE
  5
380
100
AcDbEntity
  8
0
100
AcDbLine
 62
7
  6
CONTINUOUS
 10
92.3433956191
 20
184.1831188556
 11
92.5979332974
 21
184.2253665859
  0
LINE
  5
381
100
AcDbEntity
  8
0
100
AcDbLine
 62
7
  6
CONTINUOUS
 10
105.7551865132
 20
185.4759368039
 11
105.9520445844
 21
185.4977860736
  0
LINE
  5
382
100
AcDbEntity
  8
0
100
AcDbLine
 62
7
  6
CONTINUOUS
 10
106.0347180274
 20
185.8717349597
 11
105.7768335392
 21
185.8633775446
  0
LINE
  5
383
100
AcDbEntity
  8
0
100
AcDbLine
 62
7
  6
CONTINUOUS
 10
92.7811600866
 20
184.5849107021
 11
92.5009189142
 21
184.6010887465
  0
LINE
  5
384
100
AcDbEntity
  8
0
100
AcDbLine
 62
7
  6
CONTINUOUS
 10
105.6764664022
 20
184.251289612
 11
106.0426247301
 21
184.1703385226
  0
LINE
  5
385
100
AcDbEntity
  8
0
100
AcDbLine
 62
7
  6
CONTINUOUS
 10
106.1252981732
 20
184.5442874087
 11
105.7591398452
 21
184.6252384981
  0
LINE
  5
386
100
AcDbEntity
  8
0
100
AcDbLine
 62
7
  6
CONTINUOUS
 10
106.6154666171
 20
185.0242598425
 11
106.981624945
 21
184.9433087531
  0
LINE
  5
387
100
AcDbEntity
  8
0
100
AcDbLine
 62
7
  6
CONTINUOUS
 10
105.9520445844
 20
185.4977860736
 11
106.3182029123
 21
185.4168349842
  0
LINE
  5
388
100
AcDbEntity
  8
0
100
AcDbLine
 62
7
  6
CONTINUOUS
 10
106.3398499383
 20
185.804275725
 11
106.0347180274
 21
185.8717349597
  0
LINE
  5
389
100
AcDbEntity
  8
0
100
AcDbLine
 62
7
  6
CONTINUOUS
 10
108.0958030985
 20
185.0271394946
 11
109.031781099
 21
184.6750806628
  0
LINE
  5
38A
100
AcDbEntity
  8
0
100
AcDbLine
 62
7
  6
CONTINUOUS
 10
109.3827728073
 20
184.5430586166
 11
110.3187504731
 21
184.1909999107
  0
LINE
  5
38B
100
AcDbEntity
  8
0
100
AcDbLine
 62
7
  6
CONTINUOUS
 10
110.4311096479
 20
184.4897162226
 11
108.2081622734
 21
185.3258558066
  0
LINE
  5
38C
100
AcDbEntity
  8
0
100
AcDbLine
 62
7
  6
CONTINUOUS
 10
184.5443313953
 20
85.6802945703
 11
194.0443313953
 21
85.6802945703
  0
LINE
  5
38D
100
AcDbEntity
  8
0
100
AcDbLine
 62
7
  6
CONTINUOUS
 10
183.2943313953
 20
86.9302945703
 11
195.2943313953
 21
86.9302945703
  0
LINE
  5
38E
100
AcDbEntity
  8
0
100
AcDbLine
 62
7
  6
CONTINUOUS
 10
183.2943313953
 20
86.9302945703
 11
184.5443313953
 21
85.6802945703
  0
LINE
  5
38F
100
AcDbEntity
  8
BEZUGSACHSEN
100
AcDbLine
 62
7
  6
CONTINUOUS
 10
173.4465434717
 20
145.5705548795
 11
174.1961146282
 21
137.0029173555
  0
LINE
  5
390
100
AcDbEntity
  8
BEZUGSACHSEN
100
AcDbLine
 62
7
  6
CONTINUOUS
 10
173.3779901996
 20
146.4711114579
 11
173.4465434717
 21
145.5705548795
  0
LINE
  5
391
100
AcDbEntity
  8
BEZUGSACHSEN
100
AcDbLine
 62
7
  6
CONTINUOUS
 10
179.7453746494
 20
151.0720107891
 11
174.4658546811
 21
148.3819610041
  0
LINE
  5
392
100
AcDbEntity
  8
BEZUGSACHSEN
100
AcDbLine
 62
7
  6
CONTINUOUS
 10
174.1961146282
 20
137.0029173555
 11
174.2149608671
 21
136.8529952734
  0
LINE
  5
393
100
AcDbEntity
  8
0
100
AcDbLine
 62
7
  6
CONTINUOUS
 10
180.2943313953
 20
135.8802945703
 11
180.2943313953
 21
135.6802945703
  0
LINE
  5
394
100
AcDbEntity
  8
0
100
AcDbLine
 62
7
  6
CONTINUOUS
 10
183.2943313953
 20
135.6802945703
 11
183.2943313953
 21
86.9302945703
  0
LINE
  5
395
100
AcDbEntity
  8
BEZUGSACHSEN
100
AcDbLine
 62
7
  6
CONTINUOUS
 10
183.2943313953
 20
155.483009757
 11
183.2943313953
 21
190.5172091381
  0
LINE
  5
396
100
AcDbEntity
  8
0
100
AcDbLine
 62
7
  6
CONTINUOUS
 10
180.2943313953
 20
135.6802945703
 11
198.2943313953
 21
135.6802945703
  0
LINE
  5
397
100
AcDbEntity
  8
BEZUGSACHSEN
100
AcDbLine
 62
7
  6
CONTINUOUS
 10
174.2943313973
 20
135.8802945703
 11
204.2943313934
 21
135.8802945703
  0
LINE
  5
398
100
AcDbEntity
  8
0
100
AcDbLine
 62
7
  6
CONTINUOUS
 10
204.2511397447
 20
137.4866775512
 11
204.8323284828
 21
137.4866775512
  0
LINE
  5
399
100
AcDbEntity
  8
0
100
AcDbLine
 62
7
  6
CONTINUOUS
 10
203.5988138898
 20
138.3802945703
 11
204.1316824966
 21
138.3802945703
  0
LINE
  5
39A
100
AcDbEntity
  8
0
100
AcDbLine
 62
7
  6
CONTINUOUS
 10
203.3572430633
 20
138.5292307358
 11
203.8993761694
 21
138.5292307358
  0
LINE
  5
39B
100
AcDbEntity
  8
0
100
AcDbLine
 62
7
  6
CONTINUOUS
 10
204.9666755986
 20
138.5292307358
 11
205.0065941357
 21
138.5292307358
  0
LINE
  5
39C
100
AcDbEntity
  8
0
100
AcDbLine
 62
7
  6
CONTINUOUS
 10
203.1600673247
 20
138.9760392323
 11
203.7109787563
 21
138.9760392323
  0
LINE
  5
39D
100
AcDbEntity
  8
0
100
AcDbLine
 62
7
  6
CONTINUOUS
 10
205.0206491184
 20
138.9760392323
 11
205.0647135331
 21
138.9760392323
  0
LINE
  5
39E
100
AcDbEntity
  8
0
100
AcDbLine
 62
7
  6
CONTINUOUS
 10
204.5951377178
 20
139.1249754369
 11
205.0382835086
 21
139.1249754369
  0
LINE
  5
39F
100
AcDbEntity
  8
0
100
AcDbLine
 62
7
  6
CONTINUOUS
 10
204.0126796807
 20
139.2739115894
 11
204.3938188282
 21
139.2739115894
  0
LINE
  5
3A0
100
AcDbEntity
  8
0
100
AcDbLine
 62
7
  6
CONTINUOUS
 10
203.0474189107
 20
139.4228477418
 11
203.6040394452
 21
139.4228477418
  0
LINE
  5
3A1
100
AcDbEntity
  8
0
100
AcDbLine
 62
7
  6
CONTINUOUS
 10
203.9956276745
 20
139.5717838943
 11
204.5180471228
 21
139.5717838943
  0
LINE
  5
3A2
100
AcDbEntity
  8
0
100
AcDbLine
 62
7
  6
CONTINUOUS
 10
204.7020776675
 20
139.5717838943
 11
205.119110287
 21
139.5717838943
  0
LINE
  5
3A3
100
AcDbEntity
  8
0
100
AcDbLine
 62
7
  6
CONTINUOUS
 10
202.9967160574
 20
140.018592456
 11
203.5571499701
 21
140.018592456
  0
LINE
  5
3A4
100
AcDbEntity
  8
0
100
AcDbLine
 62
7
  6
CONTINUOUS
 10
204.8010609364
 20
140.1675286084
 11
205.1689709159
 21
140.1675286084
  0
LINE
  5
3A5
100
AcDbEntity
  8
0
100
AcDbLine
 62
7
  6
CONTINUOUS
 10
202.9847166946
 20
140.4654009133
 11
203.5469991423
 21
140.4654009133
  0
LINE
  5
3A6
100
AcDbEntity
  8
0
100
AcDbLine
 62
7
  6
CONTINUOUS
 10
204.1979897011
 20
140.4654009133
 11
204.7160991007
 21
140.4654009133
  0
LINE
  5
3A7
100
AcDbEntity
  8
0
100
AcDbLine
 62
7
  6
CONTINUOUS
 10
204.8435652511
 20
140.4654009133
 11
204.8888910083
 21
140.4654009133
  0
LINE
  5
3A8
100
AcDbEntity
  8
0
100
AcDbLine
 62
7
  6
CONTINUOUS
 10
204.8795201632
 20
140.7632732182
 11
204.9154661233
 21
140.7632732182
  0
LINE
  5
3A9
100
AcDbEntity
  8
0
100
AcDbLine
 62
7
  6
CONTINUOUS
 10
203.0013559781
 20
141.2100818842
 11
203.5652742929
 21
141.2100818842
  0
LINE
  5
3AA
100
AcDbEntity
  8
0
100
AcDbLine
 62
7
  6
CONTINUOUS
 10
204.9331579257
 20
141.2100818842
 11
204.9766992588
 21
141.2100818842
  0
LINE
  5
3AB
100
AcDbEntity
  8
0
100
AcDbLine
 62
7
  6
CONTINUOUS
 10
204.3066833051
 20
141.3590180367
 11
204.8236932024
 21
141.3590180367
  0
LINE
  5
3AC
100
AcDbEntity
  8
0
100
AcDbLine
 62
7
  6
CONTINUOUS
 10
204.9597662129
 20
141.5079541892
 11
205.2862602265
 21
141.5079541892
  0
LINE
  5
3AD
100
AcDbEntity
  8
0
100
AcDbLine
 62
7
  6
CONTINUOUS
 10
204.4007147098
 20
142.4015711039
 11
204.9175431363
 21
142.4015711039
  0
LINE
  5
3AE
100
AcDbEntity
  8
0
100
AcDbLine
 62
7
  6
CONTINUOUS
 10
203.1335439205
 20
142.5505072564
 11
203.6963733191
 21
142.5505072564
  0
LINE
  5
3AF
100
AcDbEntity
  8
0
100
AcDbLine
 62
7
  6
CONTINUOUS
 10
203.2626454569
 20
143.2951880187
 11
203.822724492
 21
143.2951880187
  0
LINE
  5
3B0
100
AcDbEntity
  8
0
100
AcDbLine
 62
7
  6
CONTINUOUS
 10
204.4536908467
 20
143.2951880187
 11
204.9712758433
 21
143.2951880187
  0
LINE
  5
3B1
100
AcDbEntity
  8
0
100
AcDbLine
 62
7
  6
CONTINUOUS
 10
195.2943313953
 20
135.6802945703
 11
195.2943313953
 21
86.9302945703
  0
LINE
  5
3B2
100
AcDbEntity
  8
RUNDUNGEN
100
AcDbLine
 62
7
  6
CONTINUOUS
 10
195.2943313953
 20
155.4829333897
 11
195.2943313953
 21
190.5172091381
  0
LINE
  5
3B3
100
AcDbEntity
  8
0
100
AcDbLine
 62
7
  6
CONTINUOUS
 10
195.7943313953
 20
185.9074197767
 11
195.7943313953
 21
178.5372872963
  0
LINE
  5
3B4
100
AcDbEntity
  8
0
100
AcDbLine
 62
7
  6
CONTINUOUS
 10
195.7943313953
 20
178.1197747106
 11
195.7943313953
 21
172.7349536054
  0
LINE
  5
3B5
100
AcDbEntity
  8
0
100
AcDbLine
 62
7
  6
CONTINUOUS
 10
195.7943313953
 20
172.7056665288
 11
195.7943313953
 21
169.6930392877
  0
LINE
  5
3B6
100
AcDbEntity
  8
0
100
AcDbLine
 62
7
  6
CONTINUOUS
 10
203.3609590978
 20
143.7419968933
 11
203.9186147351
 21
143.7419968933
  0
LINE
  5
3B7
100
AcDbEntity
  8
0
100
AcDbLine
 62
7
  6
CONTINUOUS
 10
204.4161799043
 20
144.1888053506
 11
204.9375149142
 21
144.1888053506
  0
LINE
  5
3B8
100
AcDbEntity
  8
0
100
AcDbLine
 62
7
  6
CONTINUOUS
 10
203.524537988
 20
144.3377415031
 11
204.0777933696
 21
144.3377415031
  0
LINE
  5
3B9
100
AcDbEntity
  8
0
100
AcDbLine
 62
7
  6
CONTINUOUS
 10
204.5011756814
 20
144.4866776555
 11
204.8703661163
 21
144.4866776555
  0
LINE
  5
3BA
100
AcDbEntity
  8
0
100
AcDbLine
 62
7
  6
CONTINUOUS
 10
203.7178370974
 20
144.7845499605
 11
204.2652607254
 21
144.7845499605
  0
LINE
  5
3BB
100
AcDbEntity
  8
0
100
AcDbLine
 62
7
  6
CONTINUOUS
 10
203.9903134595
 20
145.2313584178
 11
204.5292366163
 21
145.2313584178
  0
LINE
  5
3BC
100
AcDbEntity
  8
0
100
AcDbLine
 62
7
  6
CONTINUOUS
 10
204.2487219593
 20
145.3802945703
 11
204.7790763206
 21
145.3802945703
  0
LINE
  5
3BD
100
AcDbEntity
  8
0
100
AcDbLine
 62
7
  6
CONTINUOUS
 10
205.1231121032
 20
145.3802945703
 11
205.6250946035
 21
145.3802945703
  0
LINE
  5
3BE
100
AcDbEntity
  8
0
100
AcDbLine
 62
7
  6
CONTINUOUS
 10
198.2943313953
 20
135.8802945703
 11
198.2943313953
 21
135.6802945703
  0
LINE
  5
3BF
100
AcDbEntity
  8
0
100
AcDbLine
 62
7
  6
CONTINUOUS
 10
205.142119319
 20
145.5705548795
 11
205.2106725911
 21
146.4711114579
  0
LINE
  5
3C0
100
AcDbEntity
  8
0
100
AcDbLine
 62
7
  6
CONTINUOUS
 10
204.3925481625
 20
137.0029173555
 11
204.4348716955
 21
137.4866775512
  0
LINE
  5
3C1
100
AcDbEntity
  8
0
100
AcDbLine
 62
7
  6
CONTINUOUS
 10
205.1254736988
 20
145.3802945703
 11
205.142119319
 21
145.5705548795
  0
LINE
  5
3C2
100
AcDbEntity
  8
RUNDUNGEN
100
AcDbLine
 62
7
  6
CONTINUOUS
 10
204.3737019236
 20
136.8529952734
 11
204.3925481625
 21
137.0029173555
  0
LINE
  5
3C3
100
AcDbEntity
  8
RUNDUNGEN
100
AcDbLine
 62
7
  6
CONTINUOUS
 10
198.8432881413
 20
151.0720107891
 11
204.1228081096
 21
148.3819610041
  0
LINE
  5
3C4
100
AcDbEntity
  8
0
100
AcDbLine
 62
7
  6
CONTINUOUS
 10
205.119110287
 20
139.5717838943
 11
205.1105193112
 21
139.4725092264
  0
LINE
  5
3C5
100
AcDbEntity
  8
0
100
AcDbLine
 62
7
  6
CONTINUOUS
 10
205.6250946035
 20
145.3802945703
 11
205.2862602265
 21
141.5079541892
  0
LINE
  5
3C6
100
AcDbEntity
  8
0
100
AcDbLine
 62
7
  6
CONTINUOUS
 10
204.9154661233
 20
140.7632732182
 11
204.8888910083
 21
140.4654009133
  0
LINE
  5
3C7
100
AcDbEntity
  8
0
100
AcDbLine
 62
7
  6
CONTINUOUS
 10
195.2943313953
 20
169.6930392877
 11
195.7943313953
 21
169.6930392877
  0
LINE
  5
3C8
100
AcDbEntity
  8
0
100
AcDbLine
 62
7
  6
CONTINUOUS
 10
195.2943313953
 20
170.8053793771
 11
195.7943313953
 21
170.8053793771
  0
LINE
  5
3C9
100
AcDbEntity
  8
0
100
AcDbLine
 62
7
  6
CONTINUOUS
 10
195.2943313953
 20
172.198460452
 11
195.7943313953
 21
172.198460452
  0
LINE
  5
3CA
100
AcDbEntity
  8
0
100
AcDbLine
 62
7
  6
CONTINUOUS
 10
195.2943313953
 20
172.4650189237
 11
195.7943313953
 21
172.4650189237
  0
LINE
  5
3CB
100
AcDbEntity
  8
0
100
AcDbLine
 62
7
  6
CONTINUOUS
 10
195.2943313953
 20
172.6261986248
 11
195.7943313953
 21
172.6261986248
  0
LINE
  5
3CC
100
AcDbEntity
  8
0
100
AcDbLine
 62
7
  6
CONTINUOUS
 10
195.2943313953
 20
172.7056665288
 11
195.7943313953
 21
172.7056665288
  0
LINE
  5
3CD
100
AcDbEntity
  8
0
100
AcDbLine
 62
7
  6
CONTINUOUS
 10
195.2943313953
 20
172.7349536054
 11
195.7943313953
 21
172.7349536054
  0
LINE
  5
3CE
100
AcDbEntity
  8
0
100
AcDbLine
 62
7
  6
CONTINUOUS
 10
195.2943313953
 20
172.7534735767
 11
195.7943313953
 21
172.7534735767
  0
LINE
  5
3CF
100
AcDbEntity
  8
0
100
AcDbLine
 62
7
  6
CONTINUOUS
 10
195.2943313953
 20
172.8579594434
 11
195.7943313953
 21
172.8579594434
  0
LINE
  5
3D0
100
AcDbEntity
  8
0
100
AcDbLine
 62
7
  6
CONTINUOUS
 10
195.2943313953
 20
173.8419612647
 11
195.7943313953
 21
173.8419612647
  0
LINE
  5
3D1
100
AcDbEntity
  8
0
100
AcDbLine
 62
7
  6
CONTINUOUS
 10
195.2943313953
 20
174.1673052968
 11
195.7943313953
 21
174.1673052968
  0
LINE
  5
3D2
100
AcDbEntity
  8
0
100
AcDbLine
 62
7
  6
CONTINUOUS
 10
195.2943313953
 20
174.3034869406
 11
195.7943313953
 21
174.3034869406
  0
LINE
  5
3D3
100
AcDbEntity
  8
0
100
AcDbLine
 62
7
  6
CONTINUOUS
 10
195.2943313953
 20
174.4846789833
 11
195.7943313953
 21
174.4846789833
  0
LINE
  5
3D4
100
AcDbEntity
  8
0
100
AcDbLine
 62
7
  6
CONTINUOUS
 10
195.2943313953
 20
175.4686808046
 11
195.7943313953
 21
175.4686808046
  0
LINE
  5
3D5
100
AcDbEntity
  8
0
100
AcDbLine
 62
7
  6
CONTINUOUS
 10
195.2943313953
 20
175.7940246816
 11
195.7943313953
 21
175.7940246816
  0
LINE
  5
3D6
100
AcDbEntity
  8
0
100
AcDbLine
 62
7
  6
CONTINUOUS
 10
195.2943313953
 20
176.5743569725
 11
195.7943313953
 21
176.5743569725
  0
LINE
  5
3D7
100
AcDbEntity
  8
0
100
AcDbLine
 62
7
  6
CONTINUOUS
 10
195.2943313953
 20
86.9302945703
 11
194.0443313953
 21
85.6802945703
  0
LINE
  5
3D8
100
AcDbEntity
  8
0
100
AcDbLine
 62
7
  6
CONTINUOUS
 10
195.2943313953
 20
177.7554502645
 11
195.7943313953
 21
177.7554502645
  0
LINE
  5
3D9
100
AcDbEntity
  8
0
100
AcDbLine
 62
7
  6
CONTINUOUS
 10
195.2943313953
 20
177.9621638072
 11
195.7943313953
 21
177.9621638072
  0
LINE
  5
3DA
100
AcDbEntity
  8
0
100
AcDbLine
 62
7
  6
CONTINUOUS
 10
195.2943313953
 20
178.0803170064
 11
195.7943313953
 21
178.0803170064
  0
LINE
  5
3DB
100
AcDbEntity
  8
0
100
AcDbLine
 62
7
  6
CONTINUOUS
 10
195.2943313953
 20
178.1197747106
 11
195.7943313953
 21
178.1197747106
  0
LINE
  5
3DC
100
AcDbEntity
  8
0
100
AcDbLine
 62
7
  6
CONTINUOUS
 10
195.2943313953
 20
178.5372872963
 11
195.7943313953
 21
178.5372872963
  0
LINE
  5
3DD
100
AcDbEntity
  8
0
100
AcDbLine
 62
7
  6
CONTINUOUS
 10
195.2943313953
 20
178.803280463
 11
195.7943313953
 21
178.803280463
  0
LINE
  5
3DE
100
AcDbEntity
  8
0
100
AcDbLine
 62
7
  6
CONTINUOUS
 10
195.2943313953
 20
179.0486312567
 11
195.7943313953
 21
179.0486312567
  0
LINE
  5
3DF
100
AcDbEntity
  8
0
100
AcDbLine
 62
7
  6
CONTINUOUS
 10
195.2943313953
 20
181.4161552578
 11
195.7943313953
 21
181.4161552578
  0
LINE
  5
3E0
100
AcDbEntity
  8
0
100
AcDbLine
 62
7
  6
CONTINUOUS
 10
195.2943313953
 20
181.6464685669
 11
195.7943313953
 21
181.6464685669
  0
LINE
  5
3E1
100
AcDbEntity
  8
0
100
AcDbLine
 62
7
  6
CONTINUOUS
 10
195.2943313953
 20
182.1438157175
 11
195.7943313953
 21
182.1438157175
  0
LINE
  5
3E2
100
AcDbEntity
  8
0
100
AcDbLine
 62
7
  6
CONTINUOUS
 10
195.2943313953
 20
182.4447292497
 11
195.7943313953
 21
182.4447292497
  0
LINE
  5
3E3
100
AcDbEntity
  8
0
100
AcDbLine
 62
7
  6
CONTINUOUS
 10
195.2943313953
 20
183.2806001884
 11
195.7943313953
 21
183.2806001884
  0
LINE
  5
3E4
100
AcDbEntity
  8
0
100
AcDbLine
 62
7
  6
CONTINUOUS
 10
195.2943313953
 20
183.4812092099
 11
195.7943313953
 21
183.4812092099
  0
LINE
  5
3E5
100
AcDbEntity
  8
0
100
AcDbLine
 62
7
  6
CONTINUOUS
 10
195.2943313953
 20
183.5961583316
 11
195.7943313953
 21
183.5961583316
  0
LINE
  5
3E6
100
AcDbEntity
  8
0
100
AcDbLine
 62
7
  6
CONTINUOUS
 10
195.2943313953
 20
183.9305342155
 11
195.7943313953
 21
183.9305342155
  0
LINE
  5
3E7
100
AcDbEntity
  8
0
100
AcDbLine
 62
7
  6
CONTINUOUS
 10
195.2943313953
 20
184.148058838
 11
195.7943313953
 21
184.148058838
  0
LINE
  5
3E8
100
AcDbEntity
  8
0
100
AcDbLine
 62
7
  6
CONTINUOUS
 10
195.2943313953
 20
184.3323260619
 11
195.7943313953
 21
184.3323260619
  0
LINE
  5
3E9
100
AcDbEntity
  8
0
100
AcDbLine
 62
7
  6
CONTINUOUS
 10
195.2943313953
 20
184.53367264
 11
195.7943313953
 21
184.53367264
  0
LINE
  5
3EA
100
AcDbEntity
  8
0
100
AcDbLine
 62
7
  6
CONTINUOUS
 10
195.2943313953
 20
184.6010887465
 11
195.7943313953
 21
184.6010887465
  0
LINE
  5
3EB
100
AcDbEntity
  8
0
100
AcDbLine
 62
7
  6
CONTINUOUS
 10
195.2943313953
 20
185.2539561373
 11
195.7943313953
 21
185.2539561373
  0
LINE
  5
3EC
100
AcDbEntity
  8
0
100
AcDbLine
 62
7
  6
CONTINUOUS
 10
195.2943313953
 20
185.3519756925
 11
195.7943313953
 21
185.3519756925
  0
LINE
  5
3ED
100
AcDbEntity
  8
0
100
AcDbLine
 62
7
  6
CONTINUOUS
 10
195.2943313953
 20
185.8094002214
 11
195.7943313953
 21
185.8094002214
  0
LINE
  5
3EE
100
AcDbEntity
  8
0
100
AcDbLine
 62
7
  6
CONTINUOUS
 10
195.2943313953
 20
185.9074197767
 11
195.7943313953
 21
185.9074197767
  0
LINE
  5
3EF
100
AcDbEntity
  8
RUNDUNGEN
100
AcDbLine
 62
7
  6
CONTINUOUS
 10
193.2943313953
 20
192.5172091381
 11
185.2943313953
 21
192.5172091381
  0
LINE
  5
3F0
100
AcDbEntity
  8
RUNDUNGEN
100
AcDbLine
 62
7
  6
CONTINUOUS
 10
73.1323576808
 20
41.7753724564
 11
73.1323576808
 21
49.7753724564
  0
LINE
  5
3F1
100
AcDbEntity
  8
0
100
AcDbLine
 62
7
  6
CONTINUOUS
 10
79.4214060147
 20
39.7753724564
 11
79.4214060147
 21
39.2753724564
  0
LINE
  5
3F2
100
AcDbEntity
  8
0
100
AcDbLine
 62
7
  6
CONTINUOUS
 10
79.9775760594
 20
39.7753724564
 11
79.9775760594
 21
39.2753724564
  0
LINE
  5
3F3
100
AcDbEntity
  8
0
100
AcDbLine
 62
7
  6
CONTINUOUS
 10
80.1527248795
 20
39.7753724564
 11
80.1527248795
 21
39.2753724564
  0
LINE
  5
3F4
100
AcDbEntity
  8
0
100
AcDbLine
 62
7
  6
CONTINUOUS
 10
80.4232599808
 20
39.7753724564
 11
80.4232599808
 21
39.2753724564
  0
LINE
  5
3F5
100
AcDbEntity
  8
0
100
AcDbLine
 62
7
  6
CONTINUOUS
 10
80.708406657
 20
39.7753724564
 11
80.708406657
 21
39.2753724564
  0
LINE
  5
3F6
100
AcDbEntity
  8
0
100
AcDbLine
 62
7
  6
CONTINUOUS
 10
80.894890959
 20
39.7753724564
 11
80.894890959
 21
39.2753724564
  0
LINE
  5
3F7
100
AcDbEntity
  8
0
100
AcDbLine
 62
7
  6
CONTINUOUS
 10
81.6408278114
 20
39.7753724564
 11
81.6408278114
 21
39.2753724564
  0
LINE
  5
3F8
100
AcDbEntity
  8
0
100
AcDbLine
 62
7
  6
CONTINUOUS
 10
81.8273120245
 20
39.7753724564
 11
81.8273120245
 21
39.2753724564
  0
LINE
  5
3F9
100
AcDbEntity
  8
0
100
AcDbLine
 62
7
  6
CONTINUOUS
 10
82.3416265744
 20
39.7753724564
 11
82.3416265744
 21
39.2753724564
  0
LINE
  5
3FA
100
AcDbEntity
  8
0
100
AcDbLine
 62
7
  6
CONTINUOUS
 10
83.2662987517
 20
39.7753724564
 11
83.2662987517
 21
39.2753724564
  0
LINE
  5
3FB
100
AcDbEntity
  8
0
100
AcDbLine
 62
7
  6
CONTINUOUS
 10
83.5091982186
 20
39.7753724564
 11
83.5091982186
 21
39.2753724564
  0
LINE
  5
3FC
100
AcDbEntity
  8
0
100
AcDbLine
 62
7
  6
CONTINUOUS
 10
83.7638286673
 20
39.7753724564
 11
83.7638286673
 21
39.2753724564
  0
LINE
  5
3FD
100
AcDbEntity
  8
0
100
AcDbLine
 62
7
  6
CONTINUOUS
 10
84.118977682
 20
39.7753724564
 11
84.118977682
 21
39.2753724564
  0
LINE
  5
3FE
100
AcDbEntity
  8
0
100
AcDbLine
 62
7
  6
CONTINUOUS
 10
84.3970709758
 20
39.7753724564
 11
84.3970709758
 21
39.2753724564
  0
LINE
  5
3FF
100
AcDbEntity
  8
0
100
AcDbLine
 62
7
  6
CONTINUOUS
 10
84.6868953922
 20
39.7753724564
 11
84.6868953922
 21
39.2753724564
  0
LINE
  5
400
100
AcDbEntity
  8
0
100
AcDbLine
 62
7
  6
CONTINUOUS
 10
85.4407847081
 20
39.7753724564
 11
85.4407847081
 21
39.2753724564
  0
LINE
  5
401
100
AcDbEntity
  8
0
100
AcDbLine
 62
7
  6
CONTINUOUS
 10
85.6535532628
 20
39.7753724564
 11
85.6535532628
 21
39.2753724564
  0
LINE
  5
402
100
AcDbEntity
  8
0
100
AcDbLine
 62
7
  6
CONTINUOUS
 10
85.7775342684
 20
39.7753724564
 11
85.7775342684
 21
39.2753724564
  0
LINE
  5
403
100
AcDbEntity
  8
0
100
AcDbLine
 62
7
  6
CONTINUOUS
 10
85.8244595356
 20
39.7753724564
 11
85.8244595356
 21
39.2753724564
  0
LWPOLYLINE
  5
404
100
AcDbEntity
  8
RUNDUNGEN
100
AcDbPolyline
 62
7
  6
CONTINUOUS
 90
23
 70
0
 10
89.2983281487
 20
35.1070469625
 10
90.1030765341
 20
34.274848726
 10
91.0268219062
 20
33.4568542276
 10
92.0087855171
 20
32.7169419439
 10
93.0433125968
 20
32.0572321046
 10
94.1241484073
 20
31.480170188
 10
95.2449134311
 20
30.9879507766
 10
96.3991436988
 20
30.5824763289
 10
97.5802943906
 20
30.2653382296
 10
98.7817087697
 20
30.0378064709
 10
99.9966875036
 20
29.9007992797
 10
101.2184531001
 20
29.8548778252
 10
102.4402455132
 20
29.9002292979
 10
103.655300545
 20
30.0366691907
 10
104.8568442881
 20
30.263641922
 10
106.038179744
 20
30.5802363736
 10
107.1926552408
 20
30.985190985
 10
108.3137293849
 20
31.4769242717
 10
109.3949344923
 20
32.0535406575
 10
110.4298918373
 20
32.7128576885
 10
111.4123304238
 20
33.4524315243
 10
112.3365740921
 20
34.2701327667
 10
113.1462383622
 20
35.1070474106
  0
LINE
  5
405
100
AcDbEntity
  8
0
100
AcDbLine
 62
7
  6
CONTINUOUS
 10
86.9484305818
 20
39.7753724564
 11
86.9484305818
 21
39.2753724564
  0
LINE
  5
406
100
AcDbEntity
  8
0
100
AcDbLine
 62
7
  6
CONTINUOUS
 10
87.244371082
 20
39.7753724564
 11
87.244371082
 21
39.2753724564
  0
LINE
  5
407
100
AcDbEntity
  8
0
100
AcDbLine
 62
7
  6
CONTINUOUS
 10
87.8621649995
 20
39.7753724564
 11
87.8621649995
 21
39.2753724564
  0
LINE
  5
408
100
AcDbEntity
  8
0
100
AcDbLine
 62
7
  6
CONTINUOUS
 10
88.3374094588
 20
39.7753724564
 11
88.3374094588
 21
39.2753724564
  0
LINE
  5
409
100
AcDbEntity
  8
0
100
AcDbLine
 62
7
  6
CONTINUOUS
 10
89.6575329822
 20
39.7753724564
 11
89.6575329822
 21
39.2753724564
  0
LINE
  5
40A
100
AcDbEntity
  8
0
100
AcDbLine
 62
7
  6
CONTINUOUS
 10
89.9743626218
 20
39.7753724564
 11
89.9743626218
 21
39.2753724564
  0
LINE
  5
40B
100
AcDbEntity
  8
0
100
AcDbLine
 62
7
  6
CONTINUOUS
 10
91.1561207871
 20
39.7753724564
 11
91.1561207871
 21
39.2753724564
  0
LINE
  5
40C
100
AcDbEntity
  8
0
100
AcDbLine
 62
7
  6
CONTINUOUS
 10
91.1677222656
 20
39.7753724564
 11
91.1677222656
 21
39.2753724564
  0
LINE
  5
40D
100
AcDbEntity
  8
0
100
AcDbLine
 62
7
  6
CONTINUOUS
 10
91.2937408362
 20
39.7753724564
 11
91.2937408362
 21
39.2753724564
  0
LINE
  5
40E
100
AcDbEntity
  8
0
100
AcDbLine
 62
7
  6
CONTINUOUS
 10
91.4711670499
 20
39.7753724564
 11
91.4711670499
 21
39.2753724564
  0
LINE
  5
40F
100
AcDbEntity
  8
0
100
AcDbLine
 62
7
  6
CONTINUOUS
 10
91.7315053038
 20
39.7753724564
 11
91.7315053038
 21
39.2753724564
  0
LINE
  5
410
100
AcDbEntity
  8
0
100
AcDbLine
 62
7
  6
CONTINUOUS
 10
92.1891726899
 20
39.7753724564
 11
92.1891726899
 21
39.2753724564
  0
LINE
  5
411
100
AcDbEntity
  8
0
100
AcDbLine
 62
7
  6
CONTINUOUS
 10
92.5009189142
 20
39.7753724564
 11
92.5009189142
 21
39.2753724564
  0
LINE
  5
412
100
AcDbEntity
  8
0
100
AcDbLine
 62
7
  6
CONTINUOUS
 10
92.7811600866
 20
39.7753724564
 11
92.7811600866
 21
39.2753724564
  0
LINE
  5
413
100
AcDbEntity
  8
0
100
AcDbLine
 62
7
  6
CONTINUOUS
 10
93.1128092295
 20
39.7753724564
 11
93.1128092295
 21
39.2753724564
  0
LINE
  5
414
100
AcDbEntity
  8
0
100
AcDbLine
 62
7
  6
CONTINUOUS
 10
93.3300416077
 20
39.7753724564
 11
93.3300416077
 21
39.2753724564
  0
LINE
  5
415
100
AcDbEntity
  8
0
100
AcDbLine
 62
7
  6
CONTINUOUS
 10
93.515769006
 20
39.7753724564
 11
93.515769006
 21
39.2753724564
  0
LINE
  5
416
100
AcDbEntity
  8
0
100
AcDbLine
 62
7
  6
CONTINUOUS
 10
93.901326365
 20
39.7753724564
 11
93.901326365
 21
39.2753724564
  0
LINE
  5
417
100
AcDbEntity
  8
0
100
AcDbLine
 62
7
  6
CONTINUOUS
 10
93.972637254
 20
39.7753724564
 11
93.972637254
 21
39.2753724564
  0
LINE
  5
418
100
AcDbEntity
  8
0
100
AcDbLine
 62
7
  6
CONTINUOUS
 10
94.0038747338
 20
39.7753724564
 11
94.0038747338
 21
39.2753724564
  0
LINE
  5
419
100
AcDbEntity
  8
0
100
AcDbLine
 62
7
  6
CONTINUOUS
 10
94.058221532
 20
31.515368771
 11
94.058221532
 21
31.3733305327
  0
LINE
  5
41A
100
AcDbEntity
  8
0
100
AcDbLine
 62
7
  6
CONTINUOUS
 10
94.1675965353
 20
31.4610885682
 11
94.1675965353
 21
31.2469793598
  0
LINE
  5
41B
100
AcDbEntity
  8
0
100
AcDbLine
 62
7
  6
CONTINUOUS
 10
94.2769715386
 20
31.4130530759
 11
94.2769715386
 21
31.1510891167
  0
LINE
  5
41C
100
AcDbEntity
  8
0
100
AcDbLine
 62
7
  6
CONTINUOUS
 10
94.3658376694
 20
39.7753724564
 11
94.3658376694
 21
39.2753724564
  0
LINE
  5
41D
100
AcDbEntity
  8
0
100
AcDbLine
 62
7
  6
CONTINUOUS
 10
94.4957215451
 20
31.3169820912
 11
94.4957215451
 21
30.9919104822
  0
LINE
  5
41E
100
AcDbEntity
  8
0
100
AcDbLine
 62
7
  6
CONTINUOUS
 10
94.823846506
 20
31.3518667544
 11
94.823846506
 21
30.8044431263
  0
LINE
  5
41F
100
AcDbEntity
  8
0
100
AcDbLine
 62
7
  6
CONTINUOUS
 10
102.6285337042
 20
53.4775001217
 11
102.441033883
 21
53.3817554522
  0
LINE
  5
420
100
AcDbEntity
  8
0
100
AcDbLine
 62
7
  6
CONTINUOUS
 10
122.3107905656
 20
39.2753724564
 11
118.2020589768
 21
39.2753724564
  0
LINE
  5
421
100
AcDbEntity
  8
0
100
AcDbLine
 62
7
  6
CONTINUOUS
 10
115.7454071057
 20
39.2753724564
 11
108.0879639042
 21
39.2753724564
  0
LINE
  5
422
100
AcDbEntity
  8
0
100
AcDbLine
 62
7
  6
CONTINUOUS
 10
106.981624945
 20
39.2753724564
 11
104.5898128884
 21
39.2753724564
  0
LINE
  5
423
100
AcDbEntity
  8
0
100
AcDbLine
 62
7
  6
CONTINUOUS
 10
97.2011171834
 20
39.2753724564
 11
94.0038747338
 21
39.2753724564
  0
LINE
  5
424
100
AcDbEntity
  8
0
100
AcDbLine
 62
7
  6
CONTINUOUS
 10
93.972637254
 20
39.2753724564
 11
86.9484305818
 21
39.2753724564
  0
LINE
  5
425
100
AcDbEntity
  8
0
100
AcDbLine
 62
7
  6
CONTINUOUS
 10
85.8244595356
 20
39.2753724564
 11
79.4214060147
 21
39.2753724564
  0
LINE
  5
426
100
AcDbEntity
  8
0
100
AcDbLine
 62
7
  6
CONTINUOUS
 10
95.370721532
 20
31.0793903923
 11
95.370721532
 21
30.5404672354
  0
LINE
  5
427
100
AcDbEntity
  8
0
100
AcDbLine
 62
7
  6
CONTINUOUS
 10
95.5274168141
 20
39.7753724564
 11
95.5274168141
 21
39.2753724564
  0
LINE
  5
428
100
AcDbEntity
  8
0
100
AcDbLine
 62
7
  6
CONTINUOUS
 10
96.026971532
 20
30.8209818925
 11
96.026971532
 21
30.2906275311
  0
LINE
  5
429
100
AcDbEntity
  8
0
100
AcDbLine
 62
7
  6
CONTINUOUS
 10
96.0549978057
 20
39.7753724564
 11
96.0549978057
 21
39.2753724564
  0
LINE
  5
42A
100
AcDbEntity
  8
0
100
AcDbLine
 62
7
  6
CONTINUOUS
 10
96.4169607413
 20
39.7753724564
 11
96.4169607413
 21
39.2753724564
  0
LINE
  5
42B
100
AcDbEntity
  8
0
100
AcDbLine
 62
7
  6
CONTINUOUS
 10
96.683221532
 20
30.5062016378
 11
96.683221532
 21
30.0992749899
  0
LINE
  5
42C
100
AcDbEntity
  8
0
100
AcDbLine
 62
7
  6
CONTINUOUS
 10
101.5035337042
 20
53.5253724564
 11
101.2222837042
 21
53.1902661134
  0
LINE
  5
42D
100
AcDbEntity
  8
0
100
AcDbLine
 62
7
  6
CONTINUOUS
 10
101.2222837042
 20
52.8072873015
 11
101.5035337042
 21
53.1423937786
  0
LINE
  5
42E
100
AcDbEntity
  8
0
100
AcDbLine
 62
7
  6
CONTINUOUS
 10
102.441033883
 20
53.3817554522
 11
102.2535337936
 21
53.1902661134
  0
LINE
  5
42F
100
AcDbEntity
  8
0
100
AcDbLine
 62
7
  6
CONTINUOUS
 10
102.5347837936
 20
53.1423937786
 11
102.6754087936
 21
53.2381384481
  0
LINE
  5
430
100
AcDbEntity
  8
RUNDUNGEN
100
AcDbLine
 62
7
  6
CONTINUOUS
 10
75.1352896797
 20
39.7753724564
 11
127.3120177641
 21
39.7753724564
  0
LINE
  5
431
100
AcDbEntity
  8
0
100
AcDbLine
 62
7
  6
CONTINUOUS
 10
97.2011171834
 20
39.7753724564
 11
97.2011171834
 21
39.2753724564
  0
LINE
  5
432
100
AcDbEntity
  8
0
100
AcDbLine
 62
7
  6
CONTINUOUS
 10
97.2300966363
 20
30.3593660712
 11
97.2300966363
 21
29.9914829981
  0
LINE
  5
433
100
AcDbEntity
  8
0
100
AcDbLine
 62
7
  6
CONTINUOUS
 10
97.5582216363
 20
30.271264748
 11
97.5582216363
 21
29.9522237137
  0
LINE
  5
434
100
AcDbEntity
  8
0
100
AcDbLine
 62
7
  6
CONTINUOUS
 10
97.7769714277
 20
30.2280902385
 11
97.7769714277
 21
29.9564961303
  0
LINE
  5
435
100
AcDbEntity
  8
0
100
AcDbLine
 62
7
  6
CONTINUOUS
 10
97.8863466363
 20
30.2073760419
 11
97.8863466363
 21
29.9730200503
  0
LINE
  5
436
100
AcDbEntity
  8
0
100
AcDbLine
 62
7
  6
CONTINUOUS
 10
97.995721532
 20
30.1866619047
 11
97.995721532
 21
30.0168225347
  0
LINE
  5
437
100
AcDbEntity
  8
0
100
AcDbLine
 62
7
  6
CONTINUOUS
 10
98.5972837936
 20
53.5253724564
 11
98.5972837936
 21
51.7753724564
  0
LINE
  5
438
100
AcDbEntity
  8
0
100
AcDbLine
 62
7
  6
CONTINUOUS
 10
98.8785337936
 20
51.7753724564
 11
98.8785337936
 21
53.0466491092
  0
LINE
  5
439
100
AcDbEntity
  8
0
100
AcDbLine
 62
7
  6
CONTINUOUS
 10
100.4254087936
 20
53.5253724564
 11
99.8134296254
 21
51.7753724564
  0
LINE
  5
43A
100
AcDbEntity
  8
0
100
AcDbLine
 62
7
  6
CONTINUOUS
 10
100.0950315033
 20
51.7753724564
 11
100.5660337936
 21
53.0466491092
  0
LINE
  5
43B
100
AcDbEntity
  8
0
100
AcDbLine
 62
7
  6
CONTINUOUS
 10
102.441033883
 20
52.9987767745
 11
102.5347837936
 21
53.1423937786
  0
LINE
  5
43C
100
AcDbEntity
  8
0
100
AcDbLine
 62
7
  6
CONTINUOUS
 10
103.4722839724
 20
52.7115426321
 11
102.4456172404
 21
51.7753724564
  0
LINE
  5
43D
100
AcDbEntity
  8
0
100
AcDbLine
 62
7
  6
CONTINUOUS
 10
102.8247932204
 20
51.7753724564
 11
103.7066586148
 21
52.5679256279
  0
LINE
  5
43E
100
AcDbEntity
  8
0
100
AcDbLine
 62
7
  6
CONTINUOUS
 10
100.5660337936
 20
53.0466491092
 11
100.5660337936
 21
51.7753724564
  0
LINE
  5
43F
100
AcDbEntity
  8
0
100
AcDbLine
 62
7
  6
CONTINUOUS
 10
100.8472837936
 20
51.7753724564
 11
100.8472837936
 21
53.5253724564
  0
LINE
  5
440
100
AcDbEntity
  8
0
100
AcDbLine
 62
7
  6
CONTINUOUS
 10
100.948846532
 20
29.8650112958
 11
100.948846532
 21
29.4446092483
  0
LINE
  5
441
100
AcDbEntity
  8
0
100
AcDbLine
 62
7
  6
CONTINUOUS
 10
101.2222837042
 20
53.1902661134
 11
101.2222837042
 21
52.8072873015
  0
LINE
  5
442
100
AcDbEntity
  8
0
100
AcDbLine
 62
7
  6
CONTINUOUS
 10
101.5035337042
 20
53.1423937786
 11
101.5035337042
 21
51.7753724564
  0
LINE
  5
443
100
AcDbEntity
  8
0
100
AcDbLine
 62
7
  6
CONTINUOUS
 10
102.2535337936
 20
53.1902661134
 11
102.2066587042
 21
52.9987767745
  0
LINE
  5
444
100
AcDbEntity
  8
0
100
AcDbLine
 62
7
  6
CONTINUOUS
 10
103.5660336148
 20
52.9030319709
 11
103.4722839724
 21
52.7115426321
  0
LINE
  5
445
100
AcDbEntity
  8
0
100
AcDbLine
 62
7
  6
CONTINUOUS
 10
103.7066586148
 20
52.5679256279
 11
103.8004087936
 21
52.7115426321
  0
LINE
  5
446
100
AcDbEntity
  8
0
100
AcDbLine
 62
7
  6
CONTINUOUS
 10
101.7847837042
 20
51.7753724564
 11
101.7847837042
 21
53.5253724564
  0
LINE
  5
447
100
AcDbEntity
  8
0
100
AcDbLine
 62
7
  6
CONTINUOUS
 10
103.5660336148
 20
52.9987767745
 11
103.5660336148
 21
52.9030319709
  0
LINE
  5
448
100
AcDbEntity
  8
0
100
AcDbLine
 62
7
  6
CONTINUOUS
 10
103.8004087936
 20
52.7115426321
 11
103.8472836148
 21
52.9030319709
  0
LINE
  5
449
100
AcDbEntity
  8
0
100
AcDbLine
 62
7
  6
CONTINUOUS
 10
98.8785337936
 20
53.0466491092
 11
99.3495360358
 21
51.7753724564
  0
LINE
  5
44A
100
AcDbEntity
  8
0
100
AcDbLine
 62
7
  6
CONTINUOUS
 10
99.6311379618
 20
51.7753724564
 11
99.0191587936
 21
53.5253724564
  0
LINE
  5
44B
100
AcDbEntity
  8
0
100
AcDbLine
 62
7
  6
CONTINUOUS
 10
103.8472836148
 20
52.9030319709
 11
103.8472836148
 21
52.9987767745
  0
LINE
  5
44C
100
AcDbEntity
  8
0
100
AcDbLine
 62
7
  6
CONTINUOUS
 10
104.5898128884
 20
39.7753724564
 11
104.5898128884
 21
39.2753724564
  0
LINE
  5
44D
100
AcDbEntity
  8
0
100
AcDbLine
 62
7
  6
CONTINUOUS
 10
104.6675961148
 20
30.3236770917
 11
104.6675961148
 21
29.8098340093
  0
LINE
  5
44E
100
AcDbEntity
  8
0
100
AcDbLine
 62
7
  6
CONTINUOUS
 10
104.886346532
 20
30.2715484372
 11
104.886346532
 21
30.2600044353
  0
LINE
  5
44F
100
AcDbEntity
  8
0
100
AcDbLine
 62
7
  6
CONTINUOUS
 10
104.9559712164
 20
39.7753724564
 11
104.9559712164
 21
39.2753724564
  0
LINE
  5
450
100
AcDbEntity
  8
0
100
AcDbLine
 62
7
  6
CONTINUOUS
 10
104.9756608683
 20
39.7753724564
 11
104.9756608683
 21
39.2753724564
  0
LINE
  5
451
100
AcDbEntity
  8
0
100
AcDbLine
 62
7
  6
CONTINUOUS
 10
105.0346913081
 20
39.7753724564
 11
105.0346913081
 21
39.2753724564
  0
LINE
  5
452
100
AcDbEntity
  8
0
100
AcDbLine
 62
7
  6
CONTINUOUS
 10
105.0898069754
 20
39.7753724564
 11
105.0898069754
 21
39.2753724564
  0
LINE
  5
453
100
AcDbEntity
  8
0
100
AcDbLine
 62
7
  6
CONTINUOUS
 10
105.2059489994
 20
39.7753724564
 11
105.2059489994
 21
39.2753724564
  0
LINE
  5
454
100
AcDbEntity
  8
0
100
AcDbLine
 62
7
  6
CONTINUOUS
 10
105.5051701874
 20
39.7753724564
 11
105.5051701874
 21
39.2753724564
  0
LINE
  5
455
100
AcDbEntity
  8
0
100
AcDbLine
 62
7
  6
CONTINUOUS
 10
105.7613469493
 20
30.5060459932
 11
105.7613469493
 21
30.2892818884
  0
LINE
  5
456
100
AcDbEntity
  8
0
100
AcDbLine
 62
7
  6
CONTINUOUS
 10
105.7768335392
 20
39.7753724564
 11
105.7768335392
 21
39.2753724564
  0
LINE
  5
457
100
AcDbEntity
  8
0
100
AcDbLine
 62
7
  6
CONTINUOUS
 10
103.8472836148
 20
52.9987767745
 11
103.8004087936
 21
53.1902661134
  0
LINE
  5
458
100
AcDbEntity
  8
0
100
AcDbLine
 62
7
  6
CONTINUOUS
 10
106.0347180274
 20
39.7753724564
 11
106.0347180274
 21
39.2753724564
  0
LINE
  5
459
100
AcDbEntity
  8
0
100
AcDbLine
 62
7
  6
CONTINUOUS
 10
106.3398499383
 20
39.7753724564
 11
106.3398499383
 21
39.2753724564
  0
LINE
  5
45A
100
AcDbEntity
  8
0
100
AcDbLine
 62
7
  6
CONTINUOUS
 10
106.6312030293
 20
39.7753724564
 11
106.6312030293
 21
39.2753724564
  0
LINE
  5
45B
100
AcDbEntity
  8
0
100
AcDbLine
 62
7
  6
CONTINUOUS
 10
106.6363461148
 20
30.7900547984
 11
106.6363461148
 21
30.4624590559
  0
LINE
  5
45C
100
AcDbEntity
  8
0
100
AcDbLine
 62
7
  6
CONTINUOUS
 10
106.8339718015
 20
39.7753724564
 11
106.8339718015
 21
39.2753724564
  0
LINE
  5
45D
100
AcDbEntity
  8
0
100
AcDbLine
 62
7
  6
CONTINUOUS
 10
106.9619353368
 20
39.7753724564
 11
106.9619353368
 21
39.2753724564
  0
LINE
  5
45E
100
AcDbEntity
  8
0
100
AcDbLine
 62
7
  6
CONTINUOUS
 10
106.981624945
 20
39.7753724564
 11
106.981624945
 21
39.2753724564
  0
LINE
  5
45F
100
AcDbEntity
  8
0
100
AcDbLine
 62
7
  6
CONTINUOUS
 10
107.183221532
 20
30.9818819292
 11
107.183221532
 21
30.6669440502
  0
LINE
  5
460
100
AcDbEntity
  8
BEZUGSACHSEN
100
AcDbLine
 62
7
  6
CONTINUOUS
 10
75.1352896797
 20
51.7753724564
 11
127.3120177641
 21
51.7753724564
  0
LINE
  5
461
100
AcDbEntity
  8
0
100
AcDbLine
 62
7
  6
CONTINUOUS
 10
103.4722839724
 20
53.1423937786
 11
103.5660336148
 21
52.9987767745
  0
LINE
  5
462
100
AcDbEntity
  8
0
100
AcDbLine
 62
7
  6
CONTINUOUS
 10
108.0879639042
 20
39.7753724564
 11
108.0879639042
 21
39.2753724564
  0
LINE
  5
463
100
AcDbEntity
  8
0
100
AcDbLine
 62
7
  6
CONTINUOUS
 10
108.0958030985
 20
39.7753724564
 11
108.0958030985
 21
39.2753724564
  0
LINE
  5
464
100
AcDbEntity
  8
0
100
AcDbLine
 62
7
  6
CONTINUOUS
 10
108.2081622734
 20
39.7753724564
 11
108.2081622734
 21
39.2753724564
  0
LINE
  5
465
100
AcDbEntity
  8
0
100
AcDbLine
 62
7
  6
CONTINUOUS
 10
108.3863469493
 20
31.5156518704
 11
108.3863469493
 21
31.3151409744
  0
LINE
  5
466
100
AcDbEntity
  8
0
100
AcDbLine
 62
7
  6
CONTINUOUS
 10
102.6754087936
 20
53.2381384481
 11
102.9097837042
 21
53.2860107828
  0
LINE
  5
467
100
AcDbEntity
  8
0
100
AcDbLine
 62
7
  6
CONTINUOUS
 10
102.9566587936
 20
53.5253724564
 11
102.6285337042
 21
53.4775001217
  0
LINE
  5
468
100
AcDbEntity
  8
0
100
AcDbLine
 62
7
  6
CONTINUOUS
 10
102.2066587042
 20
52.9987767745
 11
102.441033883
 21
52.9987767745
  0
LINE
  5
469
100
AcDbEntity
  8
0
100
AcDbLine
 62
7
  6
CONTINUOUS
 10
102.9097837042
 20
53.2860107828
 11
103.0972837936
 21
53.2860107828
  0
LINE
  5
46A
100
AcDbEntity
  8
0
100
AcDbLine
 62
7
  6
CONTINUOUS
 10
103.1441586148
 20
53.5253724564
 11
102.9566587936
 21
53.5253724564
  0
LINE
  5
46B
100
AcDbEntity
  8
0
100
AcDbLine
 62
7
  6
CONTINUOUS
 10
101.7847837042
 20
53.5253724564
 11
101.5035337042
 21
53.5253724564
  0
LINE
  5
46C
100
AcDbEntity
  8
0
100
AcDbLine
 62
7
  6
CONTINUOUS
 10
100.8472837936
 20
53.5253724564
 11
100.4254087936
 21
53.5253724564
  0
LINE
  5
46D
100
AcDbEntity
  8
0
100
AcDbLine
 62
7
  6
CONTINUOUS
 10
99.0191587936
 20
53.5253724564
 11
98.5972837936
 21
53.5253724564
  0
LINE
  5
46E
100
AcDbEntity
  8
0
100
AcDbLine
 62
7
  6
CONTINUOUS
 10
103.4254086148
 20
53.4775001217
 11
103.1441586148
 21
53.5253724564
  0
LINE
  5
46F
100
AcDbEntity
  8
0
100
AcDbLine
 62
7
  6
CONTINUOUS
 10
103.0972837936
 20
53.2860107828
 11
103.3316589724
 21
53.2381384481
  0
LINE
  5
470
100
AcDbEntity
  8
0
100
AcDbLine
 62
7
  6
CONTINUOUS
 10
103.6129089724
 20
53.3817554522
 11
103.4254086148
 21
53.4775001217
  0
LINE
  5
471
100
AcDbEntity
  8
0
100
AcDbLine
 62
7
  6
CONTINUOUS
 10
103.3316589724
 20
53.2381384481
 11
103.4722839724
 21
53.1423937786
  0
LINE
  5
472
100
AcDbEntity
  8
0
100
AcDbLine
 62
7
  6
CONTINUOUS
 10
103.8004087936
 20
53.1902661134
 11
103.6129089724
 21
53.3817554522
  0
LINE
  5
473
100
AcDbEntity
  8
0
100
AcDbLine
 62
7
  6
CONTINUOUS
 10
110.4311096479
 20
39.7753724564
 11
110.4311096479
 21
39.2753724564
  0
LINE
  5
474
100
AcDbEntity
  8
0
100
AcDbLine
 62
7
  6
CONTINUOUS
 10
112.1643541694
 20
39.7753724564
 11
112.1643541694
 21
39.2753724564
  0
LINE
  5
475
100
AcDbEntity
  8
0
100
AcDbLine
 62
7
  6
CONTINUOUS
 10
112.6015425093
 20
39.7753724564
 11
112.6015425093
 21
39.2753724564
  0
LINE
  5
476
100
AcDbEntity
  8
0
100
AcDbLine
 62
7
  6
CONTINUOUS
 10
114.2631179663
 20
39.7753724564
 11
114.2631179663
 21
39.2753724564
  0
LINE
  5
477
100
AcDbEntity
  8
0
100
AcDbLine
 62
7
  6
CONTINUOUS
 10
115.4540410646
 20
39.7753724564
 11
115.4540410646
 21
39.2753724564
  0
LINE
  5
478
100
AcDbEntity
  8
0
100
AcDbLine
 62
7
  6
CONTINUOUS
 10
115.6633427025
 20
39.7753724564
 11
115.6633427025
 21
39.2753724564
  0
LINE
  5
479
100
AcDbEntity
  8
0
100
AcDbLine
 62
7
  6
CONTINUOUS
 10
115.7454071057
 20
39.7753724564
 11
115.7454071057
 21
39.2753724564
  0
LINE
  5
47A
100
AcDbEntity
  8
0
100
AcDbLine
 62
7
  6
CONTINUOUS
 10
118.201968148
 20
39.7753724564
 11
118.201968148
 21
39.2753724564
  0
LWPOLYLINE
  5
47B
100
AcDbEntity
  8
BEZUGSACHSEN
100
AcDbPolyline
 62
7
  6
CONTINUOUS
 90
23
 70
0
 10
113.1462383622
 20
56.4436975022
 10
112.3365740921
 20
57.2806121461
 10
111.4123304238
 20
58.0983133885
 10
110.4298918373
 20
58.8378872243
 10
109.3949344923
 20
59.4972042553
 10
108.3137293849
 20
60.0738206411
 10
107.1926552408
 20
60.5655539278
 10
106.038179744
 20
60.9705085392
 10
104.8568442881
 20
61.2871029908
 10
103.655300545
 20
61.5140757221
 10
102.4402455132
 20
61.6505156149
 10
101.2184531001
 20
61.6958670876
 10
99.9966875036
 20
61.6499456331
 10
98.7817087697
 20
61.5129384419
 10
97.5802943906
 20
61.2854066832
 10
96.3991436988
 20
60.9682685839
 10
95.2449134311
 20
60.5627941362
 10
94.1241484073
 20
60.0705747248
 10
93.0433125968
 20
59.4935128082
 10
92.0087855171
 20
58.8338029689
 10
91.0268219062
 20
58.0938906852
 10
90.1030765341
 20
57.2758961868
 10
89.2983281487
 20
56.4436979503
  0
LINE
  5
47C
100
AcDbEntity
  8
0
100
AcDbLine
 62
7
  6
CONTINUOUS
 10
121.0507905656
 20
39.7753724564
 11
121.0507905656
 21
39.2753724564
  0
LINE
  5
47D
100
AcDbEntity
  8
0
100
AcDbLine
 62
7
  6
CONTINUOUS
 10
122.3107905656
 20
39.7753724564
 11
122.3107905656
 21
39.2753724564
  0
LINE
  5
47E
100
AcDbEntity
  8
RUNDUNGEN
100
AcDbLine
 62
7
  6
CONTINUOUS
 10
129.3122099064
 20
41.7753724564
 11
129.3122099064
 21
49.7753724564
  0
ARC
  5
47F
100
AcDbEntity
  8
BEZUGSACHSEN
100
AcDbCircle
 62
7
  6
CONTINUOUS
 10
91.4098351073
 20
154.8802945703
 40
39.0
100
AcDbArc
 50
14.1847958619
 51
17.9346747215
  0
ARC
  5
480
100
AcDbEntity
  8
RUNDUNGEN
100
AcDbCircle
 62
7
  6
CONTINUOUS
 10
91.4098351073
 20
154.8802945703
 40
39.0
100
AcDbArc
 50
14.1847958619
 51
74.1828637372
  0
ARC
  5
481
100
AcDbEntity
  8
BEZUGSACHSEN
100
AcDbCircle
 62
7
  6
CONTINUOUS
 10
80.2222837936
 20
135.8802945703
 40
6.0
100
AcDbArc
 50
0.0
 51
53.1872189461
  0
ARC
  5
482
100
AcDbEntity
  8
0
100
AcDbCircle
 62
7
  6
CONTINUOUS
 10
92.5272041417
 20
158.4411053811
 40
5.0
100
AcDbArc
 50
209.5984257403
 51
233.0507250063
  0
ARC
  5
483
100
AcDbEntity
  8
BEZUGSACHSEN
100
AcDbCircle
 62
7
  6
CONTINUOUS
 10
85.0158908716
 20
142.28509901
 40
2.0
100
AcDbArc
 50
205.0007153886
 51
233.1878494892
  0
ARC
  5
484
100
AcDbEntity
  8
BEZUGSACHSEN
100
AcDbCircle
 62
7
  6
CONTINUOUS
 10
76.1323576808
 20
163.7020989993
 40
3.0
100
AcDbArc
 50
200.4475643066
 51
205.0000001523
  0
ARC
  5
485
100
AcDbEntity
  8
BEZUGSACHSEN
100
AcDbCircle
 62
7
  6
CONTINUOUS
 10
76.1323576808
 20
163.7020989993
 40
3.0
100
AcDbArc
 50
165.8152040092
 51
170.340833753
  0
ARC
  5
486
100
AcDbEntity
  8
RUNDUNGEN
100
AcDbCircle
 62
7
  6
CONTINUOUS
 10
76.1323576808
 20
163.7020989993
 40
3.0
100
AcDbArc
 50
165.8152041381
 51
205.0
  0
ARC
  5
487
100
AcDbEntity
  8
RUNDUNGEN
100
AcDbCircle
 62
7
  6
CONTINUOUS
 10
111.03473248
 20
154.8802945703
 40
39.0
100
AcDbArc
 50
105.8171362628
 51
165.8152041381
  0
ARC
  5
488
100
AcDbEntity
  8
BEZUGSACHSEN
100
AcDbCircle
 62
7
  6
CONTINUOUS
 10
122.2222837936
 20
135.8802945703
 40
6.0
100
AcDbArc
 50
126.8127810539
 51
180.0
  0
ARC
  5
489
100
AcDbEntity
  8
0
100
AcDbCircle
 62
7
  6
CONTINUOUS
 10
122.2222837936
 20
135.8802945703
 40
6.0
100
AcDbArc
 50
126.8127810539
 51
180.0
  0
ARC
  5
48A
100
AcDbEntity
  8
0
100
AcDbCircle
 62
7
  6
CONTINUOUS
 10
109.9173634455
 20
158.4411053811
 40
5.0
100
AcDbArc
 50
306.94909505
 51
330.4016634563
  0
ARC
  5
48B
100
AcDbEntity
  8
BEZUGSACHSEN
100
AcDbCircle
 62
7
  6
CONTINUOUS
 10
117.4286753892
 20
142.2850961655
 40
2.0
100
AcDbArc
 50
306.8122297624
 51
334.9993745266
  0
ARC
  5
48C
100
AcDbEntity
  8
RUNDUNGEN
100
AcDbCircle
 62
7
  6
CONTINUOUS
 10
101.2222837936
 20
163.3802945703
 40
15.0
100
AcDbArc
 50
330.4015625761
 51
209.5984671562
  0
ARC
  5
48D
100
AcDbEntity
  8
BEZUGSACHSEN
100
AcDbCircle
 62
7
  6
CONTINUOUS
 10
126.3122099064
 20
163.7020989993
 40
3.0
100
AcDbArc
 50
334.9999998711
 51
9.6324205413
  0
ARC
  5
48E
100
AcDbEntity
  8
RUNDUNGEN
100
AcDbCircle
 62
7
  6
CONTINUOUS
 10
126.3122099064
 20
163.7020989993
 40
3.0
100
AcDbArc
 50
335.0
 51
14.1847958619
  0
ARC
  5
48F
100
AcDbEntity
  8
RUNDUNGEN
100
AcDbCircle
 62
7
  6
CONTINUOUS
 10
101.2222837936
 20
189.5172091381
 40
3.0
100
AcDbArc
 50
74.1828637372
 51
105.8171362628
  0
ARC
  5
490
100
AcDbEntity
  8
0
100
AcDbCircle
 62
7
  6
CONTINUOUS
 10
120.951968148
 20
172.4964730827
 40
1.49
100
AcDbArc
 50
24.2221809446
 51
215.7778190554
  0
ARC
  5
491
100
AcDbEntity
  8
0
100
AcDbCircle
 62
7
  6
CONTINUOUS
 10
119.691968148
 20
174.6788571002
 40
1.49
100
AcDbArc
 50
24.2221809446
 51
215.7778190554
  0
ARC
  5
492
100
AcDbEntity
  8
0
100
AcDbCircle
 62
7
  6
CONTINUOUS
 10
120.951968148
 20
172.4964730827
 40
1.05
100
AcDbArc
 50
132.1837511226
 51
218.2132107017
  0
ARC
  5
493
100
AcDbEntity
  8
0
100
AcDbCircle
 62
7
  6
CONTINUOUS
 10
120.951968148
 20
172.4964730827
 40
1.05
100
AcDbArc
 50
21.7867892983
 51
107.8162488774
  0
ARC
  5
494
100
AcDbEntity
  8
0
100
AcDbCircle
 62
7
  6
CONTINUOUS
 10
119.691968148
 20
174.6788571002
 40
1.05
100
AcDbArc
 50
32.8938283409
 51
218.2132107017
  0
ARC
  5
495
100
AcDbEntity
  8
BEZUGSACHSEN
100
AcDbCircle
 62
7
  6
CONTINUOUS
 10
168.2943313953
 20
135.8802945703
 40
6.0
100
AcDbArc
 50
0.0
 51
9.3297833329
  0
ARC
  5
496
100
AcDbEntity
  8
BEZUGSACHSEN
100
AcDbCircle
 62
7
  6
CONTINUOUS
 10
175.3738362829
 20
146.5999482627
 40
2.0
100
AcDbArc
 50
117.0
 51
183.7069628101
  0
ARC
  5
497
100
AcDbEntity
  8
BEZUGSACHSEN
100
AcDbCircle
 62
7
  6
CONTINUOUS
 10
176.7943313953
 20
156.8634996932
 40
6.5
100
AcDbArc
 50
297.0010388227
 51
360.0
  0
ARC
  5
498
100
AcDbEntity
  8
0
100
AcDbCircle
 62
7
  6
CONTINUOUS
 10
176.7943313953
 20
156.8634996932
 40
6.5
100
AcDbArc
 50
312.7113405997
 51
319.2029836558
  0
ARC
  5
499
100
AcDbEntity
  8
BEZUGSACHSEN
100
AcDbCircle
 62
7
  6
CONTINUOUS
 10
185.2943313953
 20
190.5172091381
 40
2.0
100
AcDbArc
 50
90.0
 51
180.0
  0
ARC
  5
49A
100
AcDbEntity
  8
0
100
AcDbCircle
 62
7
  6
CONTINUOUS
 10
201.7943313953
 20
156.8634996932
 40
6.5
100
AcDbArc
 50
220.7970163442
 51
227.2886594003
  0
ARC
  5
49B
100
AcDbEntity
  8
RUNDUNGEN
100
AcDbCircle
 62
7
  6
CONTINUOUS
 10
201.7943313953
 20
156.8634996932
 40
6.5
100
AcDbArc
 50
180.0
 51
242.9989611773
  0
ARC
  5
49C
100
AcDbEntity
  8
RUNDUNGEN
100
AcDbCircle
 62
7
  6
CONTINUOUS
 10
203.2148265078
 20
146.5999482627
 40
2.0
100
AcDbArc
 50
356.2930371899
 51
63.0
  0
ARC
  5
49D
100
AcDbEntity
  8
0
100
AcDbCircle
 62
7
  6
CONTINUOUS
 10
210.2943313953
 20
135.8802945703
 40
6.0
100
AcDbArc
 50
170.6702166671
 51
180.0
  0
ARC
  5
49E
100
AcDbEntity
  8
RUNDUNGEN
100
AcDbCircle
 62
7
  6
CONTINUOUS
 10
193.2943313953
 20
190.5172091381
 40
2.0
100
AcDbArc
 50
0.0
 51
90.0
  0
ARC
  5
49F
100
AcDbEntity
  8
RUNDUNGEN
100
AcDbCircle
 62
7
  6
CONTINUOUS
 10
78.0639923041
 20
25.0330515564
 40
15.0895984398
100
AcDbArc
 50
41.8923840838
 51
42.9475461846
  0
ARC
  5
4A0
100
AcDbEntity
  8
RUNDUNGEN
100
AcDbCircle
 62
7
  6
CONTINUOUS
 10
78.8616040186
 20
25.7753724564
 40
14.0
100
AcDbArc
 50
87.6973771975
 51
90.0
  0
ARC
  5
4A1
100
AcDbEntity
  8
RUNDUNGEN
100
AcDbCircle
 62
7
  6
CONTINUOUS
 10
78.8616040186
 20
25.7753724564
 40
14.0
100
AcDbArc
 50
42.9478946915
 51
74.4776465991
  0
ARC
  5
4A2
100
AcDbEntity
  8
RUNDUNGEN
100
AcDbCircle
 62
7
  6
CONTINUOUS
 10
75.1323576808
 20
41.7753724564
 40
2.0
100
AcDbArc
 50
180.0
 51
270.0
  0
ARC
  5
4A3
100
AcDbEntity
  8
BEZUGSACHSEN
100
AcDbCircle
 62
7
  6
CONTINUOUS
 10
78.0639923041
 20
66.5176933564
 40
15.0895984398
100
AcDbArc
 50
317.0524538154
 51
318.1076159162
  0
ARC
  5
4A4
100
AcDbEntity
  8
BEZUGSACHSEN
100
AcDbCircle
 62
7
  6
CONTINUOUS
 10
78.8616040186
 20
65.7753724564
 40
14.0
100
AcDbArc
 50
270.0
 51
317.0521053085
  0
ARC
  5
4A5
100
AcDbEntity
  8
BEZUGSACHSEN
100
AcDbCircle
 62
7
  6
CONTINUOUS
 10
75.1323576808
 20
49.7753724564
 40
2.0
100
AcDbArc
 50
90.0
 51
180.0
  0
ARC
  5
4A6
100
AcDbEntity
  8
RUNDUNGEN
100
AcDbCircle
 62
7
  6
CONTINUOUS
 10
124.3804590924
 20
25.0331577279
 40
15.089441053
100
AcDbArc
 50
137.052448314
 51
138.107593494
  0
ARC
  5
4A7
100
AcDbEntity
  8
RUNDUNGEN
100
AcDbCircle
 62
7
  6
CONTINUOUS
 10
123.5829635686
 20
25.7753724564
 40
14.0
100
AcDbArc
 50
105.3243663813
 51
137.0520875947
  0
ARC
  5
4A8
100
AcDbEntity
  8
RUNDUNGEN
100
AcDbCircle
 62
7
  6
CONTINUOUS
 10
123.5829635686
 20
25.7753724564
 40
14.0
100
AcDbArc
 50
90.0
 51
95.1829038765
  0
ARC
  5
4A9
100
AcDbEntity
  8
RUNDUNGEN
100
AcDbCircle
 62
7
  6
CONTINUOUS
 10
127.3122099064
 20
41.7753724564
 40
2.0
100
AcDbArc
 50
270.0
 51
360.0
  0
ARC
  5
4AA
100
AcDbEntity
  8
0
100
AcDbCircle
 62
7
  6
CONTINUOUS
 10
101.2222837936
 20
45.7753724564
 40
16.3330522223
100
AcDbArc
 50
269.0407467778
 51
282.1775099462
  0
ARC
  5
4AB
100
AcDbEntity
  8
0
100
AcDbCircle
 62
7
  6
CONTINUOUS
 10
101.2222837936
 20
45.7753724564
 40
16.2418406478
100
AcDbArc
 50
289.4716525664
 51
291.5314090952
  0
ARC
  5
4AC
100
AcDbEntity
  8
0
100
AcDbCircle
 62
7
  6
CONTINUOUS
 10
101.2222837936
 20
45.7753724564
 40
16.1375988118
100
AcDbArc
 50
291.6775056745
 51
296.3552927091
  0
ARC
  5
4AD
100
AcDbEntity
  8
0
100
AcDbCircle
 62
7
  6
CONTINUOUS
 10
101.2222837936
 20
45.7753724564
 40
16.1375988118
100
AcDbArc
 50
286.3361676237
 51
289.6025608176
  0
ARC
  5
4AE
100
AcDbEntity
  8
0
100
AcDbCircle
 62
7
  6
CONTINUOUS
 10
101.2222837936
 20
45.7753724564
 40
12.25
100
AcDbArc
 50
212.0472053846
 51
327.9527833212
  0
ARC
  5
4AF
100
AcDbEntity
  8
0
100
AcDbCircle
 62
7
  6
CONTINUOUS
 10
101.2222837936
 20
45.7753724564
 40
12.25
100
AcDbArc
 50
29.3278420857
 51
150.6721203593
  0
ARC
  5
4B0
100
AcDbEntity
  8
RUNDUNGEN
100
AcDbCircle
 62
7
  6
CONTINUOUS
 10
101.2222837936
 20
45.7753724564
 40
12.0
100
AcDbArc
 50
212.8490530022
 51
327.1791232298
  0
ARC
  5
4B1
100
AcDbEntity
  8
RUNDUNGEN
100
AcDbCircle
 62
7
  6
CONTINUOUS
 10
101.2222837936
 20
45.7753724564
 40
12.0
100
AcDbArc
 50
30.0364492837
 51
149.9635507148
  0
ARC
  5
4B2
100
AcDbEntity
  8
BEZUGSACHSEN
100
AcDbCircle
 62
7
  6
CONTINUOUS
 10
127.3122099064
 20
49.7753724564
 40
2.0
100
AcDbArc
 50
0.0
 51
90.0
  0
ARC
  5
4B3
100
AcDbEntity
  8
BEZUGSACHSEN
100
AcDbCircle
 62
7
  6
CONTINUOUS
 10
124.3804590924
 20
66.5175871848
 40
15.089441053
100
AcDbArc
 50
221.892406506
 51
222.947551686
  0
ARC
  5
4B4
100
AcDbEntity
  8
BEZUGSACHSEN
100
AcDbCircle
 62
7
  6
CONTINUOUS
 10
123.5829635686
 20
65.7753724564
 40
14.0
100
AcDbArc
 50
222.9479124053
 51
270.0
  0
SPLINE
  5
4B5
100
AcDbEntity
  8
0
100
AcDbSpline
 62
7
  6
CONTINUOUS
 70
0
 71
3
 72
9
 73
5
 74
0
 42
0.0000001
 43
0.0000001
 44
0.0000000001
 40
0.0
 40
0.0
 40
0.0
 40
0.0
 40
0.4970925622
 40
1.0
 40
1.0
 40
1.0
 40
1.0
 10
110.4199937093
 20
152.0874288244
 30
0.0
 10
110.2094114339
 20
151.8664421959
 30
0.0
 10
109.7318992758
 20
151.4703980919
 30
0.0
 10
109.1812763501
 20
151.1889718992
 30
0.0
 10
108.8954786733
 20
151.071957286
 30
0.0
  0
SPLINE
  5
4B6
100
AcDbEntity
  8
0
100
AcDbSpline
 62
7
  6
CONTINUOUS
 70
0
 71
3
 72
9
 73
5
 74
0
 42
0.0000001
 43
0.0000001
 44
0.0000000001
 40
0.0
 40
0.0
 40
0.0
 40
0.0
 40
0.5029084761
 40
1.0
 40
1.0
 40
1.0
 40
1.0
 10
93.5490889139
 20
151.071957286
 30
0.0
 10
93.2632909152
 20
151.188972031
 30
0.0
 10
92.7126685916
 20
151.4703981163
 30
0.0
 10
92.2351566834
 20
151.8664415411
 30
0.0
 10
92.0245749448
 20
152.0874274048
 30
0.0
  0
SPLINE
  5
4B7
100
AcDbEntity
  8
0
100
AcDbSpline
 62
7
  6
CONTINUOUS
 70
0
 71
3
 72
10
 73
6
 74
0
 42
0.0000001
 43
0.0000001
 44
0.0000000001
 40
0.0
 40
0.0
 40
0.0
 40
0.0
 40
0.55328927
 40
0.7925589983
 40
1.0
 40
1.0
 40
1.0
 40
1.0
 10
90.39155826
 20
153.6957779197
 30
0.0
 10
90.2317775146
 20
153.8347928266
 30
0.0
 10
90.0036422749
 20
154.0348194777
 30
0.0
 10
89.7162507337
 20
154.2875633922
 30
0.0
 10
89.5851212481
 20
154.3975359476
 30
0.0
 10
89.5216633013
 20
154.4452669169
 30
0.0
  0
SPLINE
  5
4B8
100
AcDbEntity
  8
0
100
AcDbSpline
 62
7
  6
CONTINUOUS
 70
0
 71
3
 72
10
 73
6
 74
0
 42
0.0000001
 43
0.0000001
 44
0.0000000001
 40
0.0
 40
0.0
 40
0.0
 40
0.0
 40
0.2198994947
 40
0.462366079
 40
1.0
 40
1.0
 40
1.0
 40
1.0
 10
112.0530136699
 20
153.6957819336
 30
0.0
 10
111.9262292596
 20
153.5854787499
 30
0.0
 10
111.6663478333
 20
153.3458790296
 30
0.0
 10
111.1195079897
 20
152.8120060434
 30
0.0
 10
110.703435295
 20
152.3848816272
 30
0.0
 10
110.4199937084
 20
152.0874358879
 30
0.0
  0
SPLINE
  5
4B9
100
AcDbEntity
  8
0
100
AcDbSpline
 62
7
  6
CONTINUOUS
 70
0
 71
3
 72
10
 73
6
 74
0
 42
0.0000001
 43
0.0000001
 44
0.0000000001
 40
0.0
 40
0.0
 40
0.0
 40
0.0
 40
0.5376339904
 40
0.7801006226
 40
1.0
 40
1.0
 40
1.0
 40
1.0
 10
92.0245749457
 20
152.0874341162
 30
0.0
 10
91.7411336644
 20
152.3848792638
 30
0.0
 10
91.3250625241
 20
152.8120039038
 30
0.0
 10
90.7782239599
 20
153.345876374
 30
0.0
 10
90.5183426383
 20
153.5854752669
 30
0.0
 10
90.39155826
 20
153.6957779197
 30
0.0
  0
SPLINE
  5
4BA
100
AcDbEntity
  8
0
100
AcDbSpline
 62
7
  6
CONTINUOUS
 70
0
 71
3
 72
10
 73
6
 74
0
 42
0.0000001
 43
0.0000001
 44
0.0000000001
 40
0.0
 40
0.0
 40
0.0
 40
0.0
 40
0.2074424594
 40
0.4467126423
 40
1.0
 40
1.0
 40
1.0
 40
1.0
 10
112.9228919872
 20
154.4452576568
 30
0.0
 10
112.8594346214
 20
154.3975274366
 30
0.0
 10
112.7283079083
 20
154.2875553105
 30
0.0
 10
112.4409218997
 20
154.0348159129
 30
0.0
 10
112.2127906753
 20
153.8347940404
 30
0.0
 10
112.0530136699
 20
153.6957819336
 30
0.0
  0
LINE
  5
4BB
100
AcDbEntity
  8
0
100
AcDbLine
 62
7
  6
CONTINUOUS
 10
203.8412465412
 20
141.3590180367
 11
203.9413927808
 21
142.4015711039
  0
LINE
  5
4BC
100
AcDbEntity
  8
0
100
AcDbLine
 62
7
  6
CONTINUOUS
 10
204.9331579257
 20
141.2100818842
 11
205.052881317
 21
142.5505072564
  0
LINE
  5
4BD
100
AcDbEntity
  8
0
100
AcDbLine
 62
7
  6
CONTINUOUS
 10
203.0013559781
 20
141.2100818842
 11
203.1335439205
 21
142.5505072564
  0
LINE
  5
4BE
100
AcDbEntity
  8
0
100
AcDbLine
 62
7
  6
CONTINUOUS
 10
204.3066833051
 20
141.3590180367
 11
204.4007147098
 21
142.4015711039
  0
LINE
  5
4BF
100
AcDbEntity
  8
0
100
AcDbLine
 62
7
  6
CONTINUOUS
 10
204.9175431363
 20
142.4015711039
 11
204.8236932024
 21
141.3590180367
  0
LINE
  5
4C0
100
AcDbEntity
  8
0
100
AcDbLine
 62
7
  6
CONTINUOUS
 10
205.0730230759
 20
144.8078600442
 11
205.1090188109
 21
145.219231553
  0
LINE
  5
4C1
100
AcDbEntity
  8
0
100
AcDbLine
 62
7
  6
CONTINUOUS
 10
205.1090188109
 20
145.219231553
 11
205.1231121032
 21
145.3802945703
  0
LINE
  5
4C2
100
AcDbEntity
  8
0
100
AcDbLine
 62
7
  6
CONTINUOUS
 10
203.6963733191
 20
142.5505072564
 11
203.5652742929
 21
141.2100818842
  0
ELLIPSE
  5
4C3
100
AcDbEntity
  8
0
100
AcDbEllipse
 62
7
  6
CONTINUOUS
 10
101.2222837936
 20
155.9374472673
 30
0.0
 11
12.25
 21
-0.0
 31
0.0
 40
0.5095254495
 41
-2.2477011046
 42
-0.893891549
  0
ELLIPSE
  5
4C4
100
AcDbEntity
  8
0
100
AcDbEllipse
 62
7
  6
CONTINUOUS
 10
189.2943313953
 20
144.1519323776
 30
0.0
 11
0.0
 21
29.459216235
 31
0.0
 40
0.5437883212
 41
-1.7474099684
 42
-1.7303161208
  0
ELLIPSE
  5
4C5
100
AcDbEntity
  8
0
100
AcDbEllipse
 62
7
  6
CONTINUOUS
 10
189.2943313953
 20
153.577112133
 30
0.0
 11
-0.0
 21
34.8259303431
 31
0.0
 40
0.4817023708
 41
-1.9338278801
 42
-1.9246941012
  0
ELLIPSE
  5
4C6
100
AcDbEntity
  8
0
100
AcDbEllipse
 62
7
  6
CONTINUOUS
 10
189.2943313953
 20
182.0245321526
 30
0.0
 11
-0.0
 21
79.8188001507
 31
0.0
 40
0.2286238849
 41
-2.1140647519
 42
-2.1075382765
  0
ELLIPSE
  5
4C7
100
AcDbEntity
  8
0
100
AcDbEllipse
 62
7
  6
CONTINUOUS
 10
189.2943313953
 20
152.4854240098
 30
0.0
 11
0.0
 21
69.2614923229
 31
0.0
 40
0.2286240073
 41
-1.7495949507
 42
-1.7452250321
  0
ELLIPSE
  5
4C8
100
AcDbEntity
  8
0
100
AcDbEllipse
 62
7
  6
CONTINUOUS
 10
189.2943313953
 20
140.1264605963
 30
0.0
 11
15.8327976273
 21
0.0
 31
0.0
 40
0.8191159012
 41
-0.1234719931
 42
-0.0888229378
  0
ELLIPSE
  5
4C9
100
AcDbEntity
  8
0
100
AcDbEllipse
 62
7
  6
CONTINUOUS
 10
189.2943313953
 20
138.8549154733
 30
0.0
 11
15.7576807083
 21
0.0
 31
0.0
 40
0.2724178592
 41
-0.1107918554
 42
-0.0759428808
  0
ELLIPSE
  5
4CA
100
AcDbEntity
  8
0
100
AcDbEllipse
 62
7
  6
CONTINUOUS
 10
189.2943313953
 20
151.1740405419
 30
0.0
 11
-0.0
 21
42.0401325302
 31
0.0
 40
0.3908971725
 41
-1.9024198188
 42
-1.8614814129
  0
ELLIPSE
  5
4CB
100
AcDbEntity
  8
0
100
AcDbEllipse
 62
7
  6
CONTINUOUS
 10
189.2943313953
 20
163.1157535488
 30
0.0
 11
0.0
 21
36.530473756
 31
0.0
 40
0.4817025833
 41
-2.1442972866
 42
-2.1154407028
  0
ELLIPSE
  5
4CC
100
AcDbEntity
  8
0
100
AcDbEllipse
 62
7
  6
CONTINUOUS
 10
189.2943313953
 20
150.9119420051
 30
0.0
 11
16.7638847307
 21
0.0
 31
0.0
 40
0.9106778712
 41
-0.4560274175
 42
-0.4344080105
  0
ELLIPSE
  5
4CD
100
AcDbEntity
  8
0
100
AcDbEllipse
 62
7
  6
CONTINUOUS
 10
189.2943313953
 20
146.1569329722
 30
0.0
 11
16.3963430984
 21
-0.0
 31
0.0
 40
0.2724177574
 41
-0.3832522293
 42
-0.3475493764
  0
ELLIPSE
  5
4CE
100
AcDbEntity
  8
0
100
AcDbEllipse
 62
7
  6
CONTINUOUS
 10
189.2943313953
 20
137.8117699186
 30
0.0
 11
15.6664432105
 21
0.0
 31
0.0
 40
0.2724177574
 41
0.3127743453
 42
0.3496798616
  0
ELLIPSE
  5
4CF
100
AcDbEntity
  8
0
100
AcDbEllipse
 62
7
  6
CONTINUOUS
 10
189.2943313953
 20
135.1743772569
 30
0.0
 11
15.3913756381
 21
-0.0
 31
0.0
 40
0.9106778712
 41
0.2968164946
 42
0.319117579
  0
ELLIPSE
  5
4D0
100
AcDbEntity
  8
0
100
AcDbEllipse
 62
7
  6
CONTINUOUS
 10
189.2943313953
 20
132.7305353364
 30
0.0
 11
0.0
 21
31.1006145962
 31
0.0
 40
0.4817027576
 41
-1.3490110814
 42
-1.3194537356
  0
ELLIPSE
  5
4D1
100
AcDbEntity
  8
0
100
AcDbEllipse
 62
7
  6
CONTINUOUS
 10
189.2943313953
 20
221.6515080585
 30
0.0
 11
-0.0
 21
187.963250178
 31
0.0
 40
0.0855948241
 41
-2.0174228498
 42
-2.0121581874
  0
ELLIPSE
  5
4D2
100
AcDbEntity
  8
0
100
AcDbEllipse
 62
7
  6
CONTINUOUS
 10
189.2943313953
 20
444.8760247052
 30
0.0
 11
-0.0
 21
347.5242750004
 31
0.0
 40
0.085594865
 41
-2.6267481145
 42
-2.6215498323
  0
ELLIPSE
  5
4D3
100
AcDbEntity
  8
0
100
AcDbEllipse
 62
7
  6
CONTINUOUS
 10
189.2943313953
 20
139.6307062636
 30
0.0
 11
15.8269076698
 21
0.0
 31
0.0
 40
0.2269950976
 41
-0.3554892548
 42
-0.3116116312
  0
ELLIPSE
  5
4D4
100
AcDbEntity
  8
0
100
AcDbEllipse
 62
7
  6
CONTINUOUS
 10
189.2943313953
 20
143.1803622898
 30
0.0
 11
16.0992959148
 21
0.0
 31
0.0
 40
0.8191163723
 41
-0.3604555531
 42
-0.324482734
  0
ELLIPSE
  5
4D5
100
AcDbEntity
  8
0
100
AcDbEllipse
 62
7
  6
CONTINUOUS
 10
189.2943313953
 20
147.0860368016
 30
0.0
 11
0.0
 21
22.4439629474
 31
0.0
 40
0.729144963
 41
-1.9405055068
 42
-1.91924119
  0
ELLIPSE
  5
4D6
100
AcDbEntity
  8
0
100
AcDbEllipse
 62
7
  6
CONTINUOUS
 10
189.2943313953
 20
160.8800150447
 30
0.0
 11
0.0
 21
48.174624435
 31
0.0
 40
0.3566120044
 41
-2.0324216951
 42
-2.0186563192
  0
ELLIPSE
  5
4D7
100
AcDbEntity
  8
0
100
AcDbEllipse
 62
7
  6
CONTINUOUS
 10
189.2943313953
 20
182.7074746302
 30
0.0
 11
0.0
 21
80.0628463699
 31
0.0
 40
0.2286240073
 41
-2.1331656926
 42
-2.1265826582
  0
ELLIPSE
  5
4D8
100
AcDbEntity
  8
0
100
AcDbEllipse
 62
7
  6
CONTINUOUS
 10
189.2943313953
 20
275.6363172517
 30
0.0
 11
0.0
 21
188.7932491561
 31
0.0
 40
0.1179743671
 41
-2.3688135257
 42
-2.3631797651
  0
ELLIPSE
  5
4D9
100
AcDbEntity
  8
0
100
AcDbEllipse
 62
7
  6
CONTINUOUS
 10
189.2943313953
 20
209.614631706
 30
0.0
 11
0.0
 21
149.4661913166
 31
0.0
 40
0.1179744183
 41
-2.0360963298
 42
-2.0305291219
  0
ELLIPSE
  5
4DA
100
AcDbEntity
  8
0
100
AcDbEllipse
 62
7
  6
CONTINUOUS
 10
189.2943313953
 20
154.7051717518
 30
0.0
 11
-0.0
 21
70.0548950808
 31
0.0
 40
0.2286237625
 41
-1.7343971945
 42
-1.7279362962
  0
ELLIPSE
  5
4DB
100
AcDbEntity
  8
0
100
AcDbEllipse
 62
7
  6
CONTINUOUS
 10
189.2943313953
 20
144.9320557422
 30
0.0
 11
-0.0
 21
44.3747404334
 31
0.0
 40
0.3566120706
 41
-1.597617927
 42
-1.5841898025
  0
ELLIPSE
  5
4DC
100
AcDbEntity
  8
0
100
AcDbEllipse
 62
7
  6
CONTINUOUS
 10
189.2943313953
 20
141.9493035122
 30
0.0
 11
-0.0
 21
21.8320033889
 31
0.0
 40
0.7291450493
 41
-1.4611761449
 42
-1.4405619617
  0
ELLIPSE
  5
4DD
100
AcDbEntity
  8
0
100
AcDbEllipse
 62
7
  6
CONTINUOUS
 10
189.2943313953
 20
142.4617994681
 30
0.0
 11
16.0365906309
 21
0.0
 31
0.0
 40
0.8191163002
 41
0.1777602093
 42
0.2124341945
  0
ELLIPSE
  5
4DE
100
AcDbEntity
  8
0
100
AcDbEllipse
 62
7
  6
CONTINUOUS
 10
189.2943313953
 20
144.2743812503
 30
0.0
 11
16.2330964963
 21
-0.0
 31
0.0
 40
0.2269950777
 41
0.2627188481
 42
0.3048244934
  0
ELLIPSE
  5
4DF
100
AcDbEntity
  8
0
100
AcDbEllipse
 62
7
  6
CONTINUOUS
 10
189.2943313953
 20
162.8298687115
 30
0.0
 11
0.0
 21
118.1806604278
 31
0.0
 40
0.1179745469
 41
-1.7611840823
 42
-1.7547708411
  0
ELLIPSE
  5
4E0
100
AcDbEntity
  8
0
100
AcDbEllipse
 62
7
  6
CONTINUOUS
 10
189.2943313953
 20
133.2047794193
 30
0.0
 11
0.0
 21
60.3203563094
 31
0.0
 40
0.2286235152
 41
-1.4575942824
 42
-1.4501360774
  0
ELLIPSE
  5
4E1
100
AcDbEntity
  8
0
100
AcDbEllipse
 62
7
  6
CONTINUOUS
 10
189.2943313953
 20
130.5336231159
 30
0.0
 11
-0.0
 21
39.5771295022
 31
0.0
 40
0.3566123762
 41
-1.3442585769
 42
-1.3287829226
  0
ELLIPSE
  5
4E2
100
AcDbEntity
  8
0
100
AcDbEllipse
 62
7
  6
CONTINUOUS
 10
189.2943313953
 20
132.6508026937
 30
0.0
 11
0.0
 21
20.0407935861
 31
0.0
 40
0.7291448748
 41
-1.2496883825
 42
-1.2260977305
  0
ELLIPSE
  5
4E3
100
AcDbEntity
  8
0
100
AcDbEllipse
 62
7
  6
CONTINUOUS
 10
189.2943313953
 20
134.6179416693
 30
0.0
 11
14.8514713355
 21
0.0
 31
0.0
 40
0.8191164901
 41
0.3273317592
 42
0.3663889164
  0
ELLIPSE
  5
4E4
100
AcDbEntity
  8
0
100
AcDbEllipse
 62
7
  6
CONTINUOUS
 10
189.2943313953
 20
137.2693577481
 30
0.0
 11
15.1185462002
 21
0.0
 31
0.0
 40
0.2269950976
 41
0.3296533057
 42
0.3759038466
  0
ELLIPSE
  5
4E5
100
AcDbEntity
  8
0
100
AcDbEllipse
 62
7
  6
CONTINUOUS
 10
189.2943313953
 20
146.6312043311
 30
0.0
 11
15.9374401766
 21
0.0
 31
0.0
 40
0.2269950777
 41
-0.3973123234
 42
-0.3530623863
  0
ELLIPSE
  5
4E6
100
AcDbEntity
  8
0
100
AcDbEllipse
 62
7
  6
CONTINUOUS
 10
189.2943313953
 20
150.9652949747
 30
0.0
 11
16.2780210013
 21
0.0
 31
0.0
 40
0.819116418
 41
-0.4819938653
 42
-0.4445335673
  0
ELLIPSE
  5
4E7
100
AcDbEntity
  8
0
100
AcDbEllipse
 62
7
  6
CONTINUOUS
 10
189.2943313953
 20
156.2193486569
 30
0.0
 11
0.0
 21
22.8485946001
 31
0.0
 40
0.7291449612
 41
-2.1176645943
 42
-2.0949258933
  0
ELLIPSE
  5
4E8
100
AcDbEntity
  8
0
100
AcDbEllipse
 62
7
  6
CONTINUOUS
 10
189.2943313953
 20
174.5878147569
 30
0.0
 11
-0.0
 21
50.0737810239
 31
0.0
 40
0.3566124424
 41
-2.2344604571
 42
-2.2194449295
  0
ELLIPSE
  5
4E9
100
AcDbEntity
  8
0
100
AcDbEllipse
 62
7
  6
CONTINUOUS
 10
189.2943313953
 20
202.5279363928
 30
0.0
 11
0.0
 21
85.096562893
 31
0.0
 40
0.2286232704
 41
-2.3406986465
 42
-2.3334112795
  0
ELLIPSE
  5
4EA
100
AcDbEntity
  8
0
100
AcDbEllipse
 62
7
  6
CONTINUOUS
 10
189.2943313953
 20
316.1103815232
 30
0.0
 11
-0.0
 21
209.4848330204
 31
0.0
 40
0.1179745981
 41
-2.5472344628
 42
-2.5409158051
  0
ELLIPSE
  5
4EB
100
AcDbEntity
  8
0
100
AcDbEllipse
 62
7
  6
CONTINUOUS
 10
189.2943313953
 20
143.3255385201
 30
0.0
 11
16.1486985072
 21
-0.0
 31
0.0
 40
0.2724177574
 41
0.2671086367
 42
0.3023862708
  0
ELLIPSE
  5
4EC
100
AcDbEntity
  8
0
100
AcDbEllipse
 62
7
  6
CONTINUOUS
 10
189.2943313953
 20
141.3830271747
 30
0.0
 11
15.4325218361
 21
-0.0
 31
0.0
 40
0.9106776527
 41
0.2009924777
 42
0.2077717512
  0
ELLIPSE
  5
4ED
100
AcDbEntity
  8
0
100
AcDbEllipse
 62
7
  6
CONTINUOUS
 10
189.2943313953
 20
141.0029981425
 30
0.0
 11
0.0
 21
31.5537447698
 31
0.0
 40
0.4817024943
 41
-1.4980882938
 42
-1.4696595265
  0
ELLIPSE
  5
4EE
100
AcDbEntity
  8
0
100
AcDbEllipse
 62
7
  6
CONTINUOUS
 10
189.2943313953
 20
265.2977985224
 30
0.0
 11
0.0
 21
215.0611316255
 31
0.0
 40
0.0855946772
 41
-2.1790654324
 42
-2.1740109595
  0
ELLIPSE
  5
4EF
100
AcDbEntity
  8
0
100
AcDbEllipse
 62
7
  6
CONTINUOUS
 10
189.2943313953
 20
389.2444355904
 30
0.0
 11
0.0
 21
303.6584560258
 31
0.0
 40
0.0855946364
 41
-2.5309375254
 42
-2.5258239648
  0
ELLIPSE
  5
4F0
100
AcDbEntity
  8
0
100
AcDbEllipse
 62
7
  6
CONTINUOUS
 10
189.2943313953
 20
154.4648012077
 30
0.0
 11
0.0
 21
33.9593618464
 31
0.0
 40
0.4817026686
 41
-2.0247854946
 42
-1.9957074313
  0
ELLIPSE
  5
4F1
100
AcDbEntity
  8
0
100
AcDbEllipse
 62
7
  6
CONTINUOUS
 10
189.2943313953
 20
144.6304565096
 30
0.0
 11
15.715737592
 21
0.0
 31
0.0
 40
0.9106776527
 41
5.9135579238
 42
5.9219207585
  0
ELLIPSE
  5
4F2
100
AcDbEntity
  8
0
100
AcDbEllipse
 62
7
  6
CONTINUOUS
 10
189.2943313953
 20
152.3203132515
 30
0.0
 11
0.0
 21
41.0375161606
 31
0.0
 40
0.3908969767
 41
4.3425500671
 42
4.3732621156
  0
ELLIPSE
  5
4F3
100
AcDbEntity
  8
0
100
AcDbEllipse
 62
7
  6
CONTINUOUS
 10
189.2943313953
 20
141.4194444056
 30
0.0
 11
15.9360222821
 21
-0.0
 31
0.0
 40
0.9106776527
 41
0.1920023807
 42
0.2129559266
  0
ELLIPSE
  5
4F4
100
AcDbEntity
  8
0
100
AcDbEllipse
 62
7
  6
CONTINUOUS
 10
189.2943313953
 20
141.1922411191
 30
0.0
 11
0.0
 21
32.6127408639
 31
0.0
 40
0.4817024943
 41
-1.5062691846
 42
-1.4787833073
  0
ELLIPSE
  5
4F5
100
AcDbEntity
  8
0
100
AcDbEllipse
 62
7
  6
CONTINUOUS
 10
189.2943313953
 20
271.291347291
 30
0.0
 11
0.0
 21
223.4460440752
 31
0.0
 40
0.0855946772
 41
-2.185635665
 42
-2.1807482326
  0
ELLIPSE
  5
4F6
100
AcDbEntity
  8
0
100
AcDbEllipse
 62
7
  6
CONTINUOUS
 10
189.2943313953
 20
395.2379900811
 30
0.0
 11
0.0
 21
312.0433745231
 31
0.0
 40
0.0855946364
 41
-2.5260587767
 42
-2.5211162316
  0
ELLIPSE
  5
4F7
100
AcDbEntity
  8
0
100
AcDbEllipse
 62
7
  6
CONTINUOUS
 10
189.2943313953
 20
154.6540440473
 30
0.0
 11
0.0
 21
35.0183575452
 31
0.0
 40
0.4817026686
 41
-2.0160599541
 42
-1.9879690677
  0
ELLIPSE
  5
4F8
100
AcDbEntity
  8
0
100
AcDbEllipse
 62
7
  6
CONTINUOUS
 10
189.2943313953
 20
144.6668737405
 30
0.0
 11
16.2192380381
 21
0.0
 31
0.0
 40
0.9106776527
 41
-0.3737586488
 42
-0.3521859975
  0
ELLIPSE
  5
4F9
100
AcDbEntity
  8
0
100
AcDbEllipse
 62
7
  6
CONTINUOUS
 10
189.2943313953
 20
140.6431643707
 30
0.0
 11
15.9140878017
 21
-0.0
 31
0.0
 40
0.2724177574
 41
-0.3577781741
 42
-0.3213413332
  0
ELLIPSE
  5
4FA
100
AcDbEntity
  8
0
100
AcDbEllipse
 62
7
  6
CONTINUOUS
 10
189.2943313953
 20
165.9848800501
 30
0.0
 11
-0.0
 21
123.4772578488
 31
0.0
 40
0.1179745469
 41
-1.7789701715
 42
-1.7728101433
  0
ELLIPSE
  5
4FB
100
AcDbEntity
  8
0
100
AcDbEllipse
 62
7
  6
CONTINUOUS
 10
189.2943313953
 20
134.0448886661
 30
0.0
 11
0.0
 21
62.670966835
 31
0.0
 40
0.2286235152
 41
-1.4753328757
 42
-1.4681683138
  0
ELLIPSE
  5
4FC
100
AcDbEntity
  8
0
100
AcDbEllipse
 62
7
  6
CONTINUOUS
 10
189.2943313953
 20
130.8789137021
 30
0.0
 11
0.0
 21
41.0263045002
 31
0.0
 40
0.3566123762
 41
-1.3610057997
 42
-1.3461351496
  0
ELLIPSE
  5
4FD
100
AcDbEntity
  8
0
100
AcDbEllipse
 62
7
  6
CONTINUOUS
 10
189.2943313953
 20
132.7333969612
 30
0.0
 11
-0.0
 21
20.7340852154
 31
0.0
 40
0.7291448748
 41
-1.2649701148
 42
-1.2422889105
  0
ELLIPSE
  5
4FE
100
AcDbEntity
  8
0
100
AcDbEllipse
 62
7
  6
CONTINUOUS
 10
189.2943313953
 20
134.647404122
 30
0.0
 11
15.3546684191
 21
-0.0
 31
0.0
 40
0.8191164901
 41
0.3137612604
 42
0.3513477603
  0
ELLIPSE
  5
4FF
100
AcDbEntity
  8
0
100
AcDbEllipse
 62
7
  6
CONTINUOUS
 10
189.2943313953
 20
137.2716203623
 30
0.0
 11
15.6205550858
 21
-0.0
 31
0.0
 40
0.2269950976
 41
0.3180063027
 42
0.3625687118
  0
ELLIPSE
  5
500
100
AcDbEntity
  8
0
100
AcDbEllipse
 62
7
  6
CONTINUOUS
 10
189.2943313953
 20
150.3006800532
 30
0.0
 11
0.0
 21
45.6539154952
 31
0.0
 40
0.3566120044
 41
-1.8080199882
 42
-1.7946161754
  0
ELLIPSE
  5
501
100
AcDbEntity
  8
0
100
AcDbEllipse
 62
7
  6
CONTINUOUS
 10
189.2943313953
 20
152.6076908674
 30
0.0
 11
0.0
 21
42.353278325
 31
0.0
 40
0.3908969767
 41
-1.9358731796
 42
-1.8947735227
  0
ELLIPSE
  5
502
100
AcDbEntity
  8
0
100
AcDbEllipse
 62
7
  6
CONTINUOUS
 10
189.2943313953
 20
146.633466945
 30
0.0
 11
16.4394490622
 21
-0.0
 31
0.0
 40
0.2269950777
 41
-0.385186288
 42
-0.3424761087
  0
ELLIPSE
  5
503
100
AcDbEntity
  8
0
100
AcDbEllipse
 62
7
  6
CONTINUOUS
 10
189.2943313953
 20
150.9947574223
 30
0.0
 11
16.7812180846
 21
0.0
 31
0.0
 40
0.819116418
 41
-0.4687712149
 42
-0.4326578707
  0
ELLIPSE
  5
504
100
AcDbEntity
  8
0
100
AcDbEllipse
 62
7
  6
CONTINUOUS
 10
189.2943313953
 20
156.3019429048
 30
0.0
 11
0.0
 21
23.5418861461
 31
0.0
 40
0.7291449612
 41
-2.1039004105
 42
-2.0820027946
  0
ELLIPSE
  5
505
100
AcDbEntity
  8
0
100
AcDbEllipse
 62
7
  6
CONTINUOUS
 10
189.2943313953
 20
174.9331052148
 30
0.0
 11
-0.0
 21
51.5229557376
 31
0.0
 40
0.3566124424
 41
-2.22104298
 42
-2.2065946609
  0
ELLIPSE
  5
506
100
AcDbEntity
  8
0
100
AcDbEllipse
 62
7
  6
CONTINUOUS
 10
189.2943313953
 20
203.3680474383
 30
0.0
 11
0.0
 21
87.4471762565
 31
0.0
 40
0.2286232704
 41
-2.3280960576
 42
-2.3210880912
  0
ELLIPSE
  5
507
100
AcDbEntity
  8
0
100
AcDbEllipse
 62
7
  6
CONTINUOUS
 10
189.2943313953
 20
319.265390122
 30
0.0
 11
0.0
 21
214.7814273255
 31
0.0
 40
0.1179745981
 41
-2.5370570251
 42
-2.5309836188
  0
ELLIPSE
  5
508
100
AcDbEntity
  8
0
100
AcDbEllipse
 62
7
  6
CONTINUOUS
 10
95.6553511124
 20
45.7753724564
 30
0.0
 11
18.6914425834
 21
-0.0
 31
0.0
 40
0.9546179174
 41
-1.0676790427
 42
-1.0542705843
  0
ELLIPSE
  5
509
100
AcDbEntity
  8
0
100
AcDbEllipse
 62
7
  6
CONTINUOUS
 10
88.145686473
 20
45.7753724564
 30
0.0
 11
21.9528285307
 21
-0.0
 31
0.0
 40
0.8032307524
 41
-1.1110635317
 42
-1.1054963238
  0
ELLIPSE
  5
50A
100
AcDbEntity
  8
0
100
AcDbEllipse
 62
7
  6
CONTINUOUS
 10
95.0932746495
 20
45.7753724564
 30
0.0
 11
17.1488732644
 21
-0.0
 31
0.0
 40
0.933951371
 41
-1.4136563574
 42
-1.4071954591
  0
ELLIPSE
  5
50B
100
AcDbEntity
  8
0
100
AcDbEllipse
 62
7
  6
CONTINUOUS
 10
97.3399970588
 20
45.7753724564
 30
0.0
 11
16.2938364063
 21
-0.0
 31
0.0
 40
0.971199641
 41
-1.5574028511
 42
-1.5439747266
  0
ELLIPSE
  5
50C
100
AcDbEntity
  8
0
100
AcDbEllipse
 62
7
  6
CONTINUOUS
 10
99.312230995
 20
45.7753724564
 30
0.0
 11
16.0328794
 21
-0.0
 31
0.0
 40
0.9928782467
 41
-1.7010306919
 42
-1.6804165087
  0
ELLIPSE
  5
50D
100
AcDbEntity
  8
0
100
AcDbEllipse
 62
7
  6
CONTINUOUS
 10
100.0730473389
 20
45.7753724564
 30
0.0
 11
16.0777169863
 21
-0.0
 31
0.0
 40
0.9974420277
 41
-1.7832305213
 42
-1.7485565361
  0
ELLIPSE
  5
50E
100
AcDbEntity
  8
0
100
AcDbEllipse
 62
7
  6
CONTINUOUS
 10
100.8999026791
 20
45.7753724564
 30
0.0
 11
16.2362973439
 21
-0.0
 31
0.0
 40
0.9998028585
 41
-1.8756208202
 42
-1.8335151749
  0
ELLIPSE
  5
50F
100
AcDbEntity
  8
0
100
AcDbEllipse
 62
7
  6
CONTINUOUS
 10
101.5487629661
 20
45.7753724564
 30
0.0
 11
16.4426905985
 21
-0.0
 31
0.0
 40
0.9998028585
 41
-1.9559826148
 42
-1.9132724355
  0
ELLIPSE
  5
510
100
AcDbEntity
  8
0
100
AcDbEllipse
 62
7
  6
CONTINUOUS
 10
102.4248829491
 20
45.7753724564
 30
0.0
 11
16.8242540736
 21
-0.0
 31
0.0
 40
0.9974420269
 41
-2.0395675417
 42
-2.0034541975
  0
ELLIPSE
  5
511
100
AcDbEntity
  8
0
100
AcDbEllipse
 62
7
  6
CONTINUOUS
 10
103.2819319494
 20
45.7753724564
 30
0.0
 11
17.2885726385
 21
0.0
 31
0.0
 40
0.992878245
 41
-2.1039004105
 42
-2.0820027946
  0
ELLIPSE
  5
512
100
AcDbEntity
  8
0
100
AcDbEllipse
 62
7
  6
CONTINUOUS
 10
105.729958332
 20
45.7753724564
 30
0.0
 11
18.918588129
 21
0.0
 31
0.0
 40
0.9711996985
 41
-2.22104298
 42
-2.2065946609
  0
ELLIPSE
  5
513
100
AcDbEntity
  8
0
100
AcDbEllipse
 62
7
  6
CONTINUOUS
 10
108.8729203734
 20
45.7753724564
 30
0.0
 11
21.4063232216
 21
0.0
 31
0.0
 40
0.9339511142
 41
-2.3280960576
 42
-2.3210880912
  0
ELLIPSE
  5
514
100
AcDbEntity
  8
0
100
AcDbEllipse
 62
7
  6
CONTINUOUS
 10
120.0132238205
 20
45.7753724564
 30
0.0
 11
31.5460268392
 21
0.0
 31
0.0
 40
0.8032311869
 41
-2.5370570251
 42
-2.5309836188
  0
ENDSEC
  0
SECTION
  2
OBJECTS
  0
DICTIONARY
  5
C
100
AcDbDictionary
280
0
281
1
  3
ACAD_GROUP
350
D
  3
ACAD_MLINESTYLE
350
17
  3
ACAD_LAYOUT
350
1A
  3
ACAD_PLOTSETTINGS
350
19
  3
ACAD_PLOTSTYLENAME
350
E
  0
DICTIONARY
  5
D
102
{ACAD_REACTORS
330
C
102
}
100
AcDbDictionary
280
0
281
1
  0
ACDBDICTIONARYWDFLT
  5
E
102
{ACAD_REACTORS
330
C
102
}
100
AcDbDictionary
281
1
  3
Normal
350
F
100
AcDbDictionaryWithDefault
340
F
  0
DICTIONARY
  5
17
102
{ACAD_REACTORS
330
C
102
}
100
AcDbDictionary
280
0
281
1
  3
Standard
350
18
  0
DICTIONARY
  5
19
102
{ACAD_REACTORS
330
C
102
}
100
AcDbDictionary
281
1
  0
DICTIONARY
  5
1A
102
{ACAD_REACTORS
330
C
102
}
100
AcDbDictionary
281
1
  3
Model
350
515
  3
Layout1
350
516
  0
ACDBPLACEHOLDER
  5
F
102
{ACAD_REACTORS
330
E
102
}
  0
MLINESTYLE
  5
18
102
{ACAD_REACTORS
330
17
102
}
100
AcDbMlineStyle
  2
STANDARD
 70
0
  3

 62
256
 51
90.0
 52
90.0
 71
2
 49
0.5
 62
256
  6
BYLAYER
 49
-0.5
 62
256
  6
BYLAYER
  0
LAYOUT
  5
515
102
{ACAD_REACTORS
330
1A
102
}
100
AcDbPlotSettings
  1

  2
none_device
  4
ISO_A4_(297.00_x_210.00_MM)
  6

 40
0.0
 41
0.0
 42
0.0
 43
0.0
 44
297.0
 45
210.0
 46
0.0
 47
0.0
 48
0.0
 49
0.0
140
0.0
141
0.0
142
1.0
143
1.0
 70
1024
 72
1
 73
0
 74
0
  7

 75
0
147
1.0
148
0.0
149
0.0
100
AcDbLayout
  1
Model
 70
0
 71
0
 10
0.0
 20
0.0
 11
297.0
 21
210.0
 12
0.0
 22
0.0
 32
0.0
 14
0.0
 24
0.0
 34
0.0
 15
0.0
 25
0.0
 35
0.0
146
0.0
 13
0.0
 23
0.0
 33
0.0
 16
1.0
 26
0.0
 36
0.0
 17
0.0
 27
1.0
 37
0.0
 76
0
330
209
345
0
346
0
  0
LAYOUT
  5
516
102
{ACAD_REACTORS
330
1A
102
}
100
AcDbPlotSettings
  1

  2
none_device
  4
ISO_A4_(297.00_x_210.00_MM)
  6

 40
0.0
 41
0.0
 42
0.0
 43
0.0
 44
297.0
 45
210.0
 46
0.0
 47
0.0
 48
0.0
 49
0.0
140
0.0
141
0.0
142
1.0
143
1.0
 70
0
 72
1
 73
0
 74
0
  7

 75
0
147
1.0
148
0.0
149
0.0
100
AcDbLayout
  1
Layout1
 70
0
 71
1
 10
0.0
 20
0.0
 11
297.0
 21
210.0
 12
0.0
 22
0.0
 32
0.0
 14
0.0
 24
0.0
 34
0.0
 15
0.0
 25
0.0
 35
0.0
146
0.0
 13
0.0
 23
0.0
 33
0.0
 16
1.0
 26
0.0
 36
0.0
 17
0.0
 27
1.0
 37
0.0
 76
0
330
20A
345
0
346
0
  0
ENDSEC
  0
EOF
