999
DXF file: C:\Aktuell-Internet\CAD-Daten\2vmks4.dxf
999
Pro/ENGINEER 2001400 by Parametric Technology Corporation
0
SECTION
2
HEADER
9
$ACADVER
1
AC1014
9
$EXTMAX
10
420.0000000000
20
297.0000000000
9
$EXTMIN
10
0.0000000000
20
0.0000000000
9
$LIMMIN
10
0.0000000000
20
0.0000000000
9
$LIMMAX
10
420.0000000000
20
297.0000000000
9
$VIEWCTR
10
210.0000000000
20
148.5000000000
9
$VIEWSIZE
40
297.0000000000
9
$CLAYER
8
0
9
$LTSCALE
40
23.1000000000
9
$CELTYPE
6
BYLAYER
9
$DIMSCALE
40
1
9
$DIMASZ
40
3.5000000000
9
$DIMEXO
40
2.6250000000
9
$DIMDLI
40
15.9600000000
9
$DIMEXE
40
7.5600000000
9
$DIMCEN
40
3.7800000000
9
$DIMLFAC
40
1.0000000000
9
$DIMTXT
40
3.5000000000
9
$DIMTOL
70
1
9
$DIMTFAC
40
0.6000000000
9
$DIMTP
40
0.0050000000
9
$DIMTM
40
0.0050000000
9
$HANDSEED
5
346
0
ENDSEC
0
SECTION
2
CLASSES
0
ENDSEC
0
SECTION
2
TABLES
0
TABLE
2
VPORT
5
8
100
AcDbSymbolTable
70
2
0
VPORT
5
1F4
100
AcDbSymbolTableRecord
100
AcDbViewportTableRecord
2
*ACTIVE
70
0
10
0.0
20
0.0
11
1.0
21
1.0
12
210.0000000000
22
148.5000000000
13
0.0
23
0.0
14
1.0
24
1.0
15
0.0
25
0.0
16
0.0
26
0.0
36
1.0
17
0.0
27
0.0
37
0.0
40
297.0000000000
41
1.4141414141
42
50.0
43
0.0
44
0.0
50
0.0
51
0.0
71
0
72
100
73
1
74
1
75
0
76
0
77
0
78
0
0
ENDTAB
0
TABLE
2
LTYPE
5
5
100
AcDbSymbolTable
70
6
0
LTYPE
5
14
100
AcDbSymbolTableRecord
100
AcDbLinetypeTableRecord
2
BYBLOCK
70
0
3

72
65
73
0
40
0.0
0
LTYPE
5
15
100
AcDbSymbolTableRecord
100
AcDbLinetypeTableRecord
2
BYLAYER
70
0
3

72
65
73
0
40
0.0
0
LTYPE
5
16
100
AcDbSymbolTableRecord
100
AcDbLinetypeTableRecord
2
CONTINUOUS
70
64
3
Solid line
72
65
73
0
40
0
0
LTYPE
5
1F5
100
AcDbSymbolTableRecord
100
AcDbLinetypeTableRecord
2
CENTER
70
64
3
____ _ ____ _ ____ _ ____ _ ____ _ ____ _ ____
72
65
73
4
40
0.6
49
0.375
74
0
49
-0.075
74
0
49
0.075
74
0
49
-0.075
74
0
0
LTYPE
5
1F6
100
AcDbSymbolTableRecord
100
AcDbLinetypeTableRecord
2
HIDDEN
70
64
3
- - - - - - - - - - - - - - - - - - - -
72
65
73
2
40
0.2
49
0.1
74
0
49
-0.1
74
0
0
LTYPE
5
1F7
100
AcDbSymbolTableRecord
100
AcDbLinetypeTableRecord
2
PHANTOM
70
64
3
_____ _ _ _____ _ _ _____ _ _ _____
72
65
73
6
40
0.8
49
0.45
74
0
49
-0.05
74
0
49
0.1
74
0
49
-0.05
74
0
49
0.1
74
0
49
-0.05
74
0
0
LTYPE
5
1F8
100
AcDbSymbolTableRecord
100
AcDbLinetypeTableRecord
2
DOT
70
64
3
. . . . . . . . . . . . . . . . . . . .
72
65
73
2
40
0.2
49
0.1
74
0
49
-0.1
74
0
0
LTYPE
5
1F9
100
AcDbSymbolTableRecord
100
AcDbLinetypeTableRecord
2
DASHED
70
64
3
- - - - - - - - - - - - - - - - - - - -
72
65
73
2
40
0.2
49
0.1
74
0
49
-0.1
74
0
0
ENDTAB
0
TABLE
2
LAYER
5
2
100
AcDbSymbolTable
70
36
0
LAYER
5
10
100
AcDbSymbolTableRecord
100
AcDbLayerTableRecord
2
0
70
0
62
7
6
CONTINUOUS
0
LAYER
5
1FA
100
AcDbSymbolTableRecord
100
AcDbLayerTableRecord
2
DEFAULT_1
70
0
62
7
6
CENTER
0
LAYER
5
1FB
100
AcDbSymbolTableRecord
100
AcDbLayerTableRecord
2
DEFAULT_2
70
0
62
8
6
HIDDEN
0
LAYER
5
1FC
100
AcDbSymbolTableRecord
100
AcDbLayerTableRecord
2
DEFAULT_3
70
0
62
7
6
PHANTOM
0
ENDTAB
0
TABLE
2
STYLE
5
3
100
AcDbSymbolTable
70
1
0
STYLE
5
11
100
AcDbSymbolTableRecord
100
AcDbTextStyleTableRecord
2
STANDARD
70
0
40
0.0
41
1.0
50
0.0
71
0
42
0.0
3
txt
4

0
ENDTAB
0
TABLE
2
VIEW
5
6
100
AcDbSymbolTable
70
0
0
ENDTAB
0
TABLE
2
UCS
5
7
100
AcDbSymbolTable
70
0
0
ENDTAB
0
TABLE
2
APPID
5
9
100
AcDbSymbolTable
70
1
0
APPID
5
1FD
100
AcDbSymbolTableRecord
100
AcDbRegAppTableRecord
2
ACAD
70
0
0
ENDTAB
0
TABLE
2
DIMSTYLE
5
A
100
AcDbSymbolTable
70
1
0
DIMSTYLE
105
1FE
100
AcDbSymbolTableRecord
100
AcDbDimStyleTableRecord
2
STANDARD
70
0
3

4

5

6

7

40
1.0
41
0.18
42
0.0625
43
0.38
44
0.18
45
0.0
46
0.0
47
0.0050000000
48
0.0050000000
140
3.5000000000
141
0.09
142
0.0
143
25.4
144
1.0000000000
145
0.0
146
0.6000000000
147
0.09
71
1
72
0
73
1
74
1
75
0
76
0
77
0
78
0
170
0
171
2
172
0
173
0
174
0
175
0
176
0
177
0
178
0
270
2
271
3
272
4
273
2
274
2
340
11
275
0
280
0
281
0
282
0
283
1
284
0
285
0
286
0
287
3
288
0
0
ENDTAB
0
TABLE
2
BLOCK_RECORD
5
1
100
AcDbSymbolTable
70
0
0
BLOCK_RECORD
5
1B
100
AcDbSymbolTableRecord
100
AcDbBlockTableRecord
2
*MODEL_SPACE
0
BLOCK_RECORD
5
1C
100
AcDbSymbolTableRecord
100
AcDbBlockTableRecord
2
*PAPER_SPACE
0
ENDTAB
0
ENDSEC
0
SECTION
2
BLOCKS
0
BLOCK
5
1E
100
AcDbEntity
8
0
100
AcDbBlockBegin
2
*MODEL_SPACE
70
0
10
0.0
20
0.0
30
0.0
3
*MODEL_SPACE
1

0
ENDBLK
5
1F
100
AcDbEntity
8
0
100
AcDbBlockEnd
0
BLOCK
5
20
100
AcDbEntity
8
0
100
AcDbBlockBegin
2
*PAPER_SPACE
70
0
10
0.0
20
0.0
30
0.0
3
*PAPER_SPACE
1

0
ENDBLK
5
21
100
AcDbEntity
8
0
100
AcDbBlockEnd
0
ENDSEC
0
SECTION
2
ENTITIES
0
LINE
5
1FF
100
AcDbEntity
8
0
100
AcDbLine
62
7
6
CONTINUOUS
10
0.0000000000
20
0.0000000000
11
0.0000000000
21
297.0000000000
0
LINE
5
200
100
AcDbEntity
8
0
100
AcDbLine
62
7
6
CONTINUOUS
10
0.0000000000
20
0.0000000000
11
420.0000000000
21
0.0000000000
0
LINE
5
201
100
AcDbEntity
8
0
100
AcDbLine
62
7
6
CONTINUOUS
10
0.0000000000
20
297.0000000000
11
420.0000000000
21
297.0000000000
0
LINE
5
202
100
AcDbEntity
8
0
100
AcDbLine
62
7
6
CONTINUOUS
10
420.0000000000
20
0.0000000000
11
420.0000000000
21
297.0000000000
0
LINE
5
203
100
AcDbEntity
8
0
100
AcDbLine
62
7
6
CONTINUOUS
10
199.2142857143
20
121.7395323247
11
190.7786303647
21
120.4034557734
0
LINE
5
204
100
AcDbEntity
8
0
100
AcDbLine
62
7
6
CONTINUOUS
10
165.6499410639
20
120.4034557734
11
164.3059988985
21
120.6163153011
0
LINE
5
205
100
AcDbEntity
8
0
100
AcDbLine
62
7
6
CONTINUOUS
10
167.2142857143
20
182.2803391793
11
170.6783873294
21
184.2803391793
0
LINE
5
206
100
AcDbEntity
8
0
100
AcDbLine
62
7
6
CONTINUOUS
10
161.5142857143
20
120.9803391793
11
163.2142857143
21
120.9803391793
0
LINE
5
207
100
AcDbEntity
8
0
100
AcDbLine
62
7
6
CONTINUOUS
10
161.5142857143
20
121.0323270207
11
163.2142857143
21
121.0323270207
0
LINE
5
208
100
AcDbEntity
8
0
100
AcDbLine
62
7
6
CONTINUOUS
10
158.7774992776
20
121.6200851415
11
160.2142857143
21
121.6200851415
0
LINE
5
209
100
AcDbEntity
8
0
100
AcDbLine
62
7
6
CONTINUOUS
10
161.5142857143
20
124.8059194736
11
163.2142857143
21
124.8059194736
0
LINE
5
20A
100
AcDbEntity
8
0
100
AcDbLine
62
7
6
CONTINUOUS
10
171.2142857143
20
125.2803391793
11
185.2142857143
21
125.2803391793
0
LINE
5
20B
100
AcDbEntity
8
0
100
AcDbLine
62
7
6
CONTINUOUS
10
169.8621536011
20
182.8326603148
11
168.0614043675
21
181.0969874217
0
LINE
5
20C
100
AcDbEntity
8
0
100
AcDbLine
62
7
6
CONTINUOUS
10
161.5142857143
20
126.5067467265
11
163.2142857143
21
126.5067467265
0
LINE
5
20D
100
AcDbEntity
8
DEFAULT_1
100
AcDbLine
62
2
6
CENTER
10
158.3384077898
20
130.2803391793
11
199.0461704243
21
130.2803391793
0
LINE
5
20E
100
AcDbEntity
8
0
100
AcDbLine
62
7
6
CONTINUOUS
10
161.5142857143
20
134.0539316321
11
163.2142857143
21
134.0539316321
0
LINE
5
20F
100
AcDbEntity
8
0
100
AcDbLine
62
7
6
CONTINUOUS
10
171.2142857143
20
135.2803391793
11
185.2142857143
21
135.2803391793
0
LINE
5
210
100
AcDbEntity
8
0
100
AcDbLine
62
7
6
CONTINUOUS
10
161.5142857143
20
135.7547588851
11
163.2142857143
21
135.7547588851
0
LINE
5
211
100
AcDbEntity
8
0
100
AcDbLine
62
7
6
CONTINUOUS
10
160.2142857143
20
121.6200851415
11
160.2142857143
21
138.9405932172
0
LINE
5
212
100
AcDbEntity
8
0
100
AcDbLine
62
7
6
CONTINUOUS
10
158.7774992776
20
138.9405932172
11
160.2142857143
21
138.9405932172
0
LINE
5
213
100
AcDbEntity
8
0
100
AcDbLine
62
7
6
CONTINUOUS
10
163.2142857143
20
120.9803391793
11
163.2142857143
21
158.2803391793
0
LINE
5
214
100
AcDbEntity
8
0
100
AcDbLine
62
7
6
CONTINUOUS
10
190.2951367789
20
144.2703424670
11
188.1142857143
21
143.7172130041
0
LINE
5
215
100
AcDbEntity
8
0
100
AcDbLine
62
7
6
CONTINUOUS
10
188.1142857143
20
143.4801575119
11
190.6142857143
21
144.1123055099
0
LINE
5
216
100
AcDbEntity
8
0
100
AcDbLine
62
7
6
CONTINUOUS
10
161.5142857143
20
139.5283513379
11
163.2142857143
21
139.5283513379
0
LINE
5
217
100
AcDbEntity
8
0
100
AcDbLine
62
7
6
CONTINUOUS
10
161.5142857143
20
139.5803391793
11
163.2142857143
21
139.5803391793
0
LINE
5
218
100
AcDbEntity
8
0
100
AcDbLine
62
7
6
CONTINUOUS
10
198.0296842335
20
139.6627865685
11
199.2142857143
21
139.6330700929
0
LINE
5
219
100
AcDbEntity
8
0
100
AcDbLine
62
7
6
CONTINUOUS
10
167.2142857143
20
182.2803391793
11
167.2142857143
21
181.1803391793
0
LINE
5
21A
100
AcDbEntity
8
0
100
AcDbLine
62
7
6
CONTINUOUS
10
167.2142857143
20
176.3803391793
11
167.2142857143
21
171.2418205761
0
LINE
5
21B
100
AcDbEntity
8
0
100
AcDbLine
62
7
6
CONTINUOUS
10
188.6462005445
20
145.6136569416
11
190.6142857143
21
146.1667863481
0
LINE
5
21C
100
AcDbEntity
8
0
100
AcDbLine
62
7
6
CONTINUOUS
10
190.3483282619
20
146.3248234182
11
188.1142857143
21
145.7321846877
0
LINE
5
21D
100
AcDbEntity
8
0
100
AcDbLine
62
7
6
CONTINUOUS
10
170.6783873294
20
184.2803391793
11
170.6783873294
21
183.9915112099
0
LINE
5
21E
100
AcDbEntity
8
0
100
AcDbLine
62
7
6
CONTINUOUS
10
190.0823708096
20
149.6040912110
11
189.9227963605
21
149.5645816609
0
LINE
5
21F
100
AcDbEntity
8
0
100
AcDbLine
62
7
6
CONTINUOUS
10
189.0185410747
20
149.7226189571
11
188.8589666256
21
149.6831094070
0
LINE
5
220
100
AcDbEntity
8
0
100
AcDbLine
62
7
6
CONTINUOUS
10
189.9227963605
20
149.3275261687
11
190.1355622926
21
149.3670357188
0
LINE
5
221
100
AcDbEntity
8
0
100
AcDbLine
62
7
6
CONTINUOUS
10
188.9121581086
20
149.4460539148
11
189.1249240407
21
149.4855634649
0
LINE
5
222
100
AcDbEntity
8
0
100
AcDbLine
62
7
6
CONTINUOUS
10
188.1142857143
20
145.3766014494
11
190.6142857143
21
145.3766014494
0
LINE
5
223
100
AcDbEntity
8
0
100
AcDbLine
62
7
6
CONTINUOUS
10
190.6142857143
20
145.6136569416
11
188.6462005445
21
145.6136569416
0
LINE
5
224
100
AcDbEntity
8
0
100
AcDbLine
62
7
6
CONTINUOUS
10
188.6462005445
20
147.0359898948
11
190.6142857143
21
147.0359898948
0
LINE
5
225
100
AcDbEntity
8
0
100
AcDbLine
62
7
6
CONTINUOUS
10
190.6142857143
20
147.2730453870
11
188.1142857143
21
147.2730453870
0
LINE
5
226
100
AcDbEntity
8
0
100
AcDbLine
62
7
6
CONTINUOUS
10
171.2142857143
20
158.2803391793
11
171.2142857143
21
135.2803391793
0
LINE
5
227
100
AcDbEntity
8
0
100
AcDbLine
62
7
6
CONTINUOUS
10
171.2142857143
20
125.2803391793
11
171.2142857143
21
122.1654019478
0
LINE
5
228
100
AcDbEntity
8
0
100
AcDbLine
62
7
6
CONTINUOUS
10
172.9227830922
20
178.7803391793
11
172.9227830922
21
177.7803391793
0
LINE
5
229
100
AcDbEntity
8
0
100
AcDbLine
62
7
6
CONTINUOUS
10
186.9822529189
20
181.1623924048
11
187.5527888033
21
182.1848834107
0
LINE
5
22A
100
AcDbEntity
8
0
100
AcDbLine
62
7
6
CONTINUOUS
10
188.6993920275
20
150.6708409259
11
188.5398175785
21
150.6313313757
0
LINE
5
22B
100
AcDbEntity
8
0
100
AcDbLine
62
7
6
CONTINUOUS
10
188.1142857143
20
147.5891195273
11
190.6142857143
21
147.5891195273
0
LINE
5
22C
100
AcDbEntity
8
0
100
AcDbLine
62
7
6
CONTINUOUS
10
190.6142857143
20
147.8261750195
11
189.7632219114
21
147.8261750195
0
LINE
5
22D
100
AcDbEntity
8
0
100
AcDbLine
62
7
6
CONTINUOUS
10
189.3376899728
20
147.8261750195
11
188.1142857143
21
147.8261750195
0
LINE
5
22E
100
AcDbEntity
8
0
100
AcDbLine
62
7
6
CONTINUOUS
10
188.6993920275
20
149.4460539148
11
188.9121581086
21
149.4460539148
0
LINE
5
22F
100
AcDbEntity
8
0
100
AcDbLine
62
7
6
CONTINUOUS
10
188.8589666256
20
149.6831094070
11
188.7525836595
21
149.6831094070
0
LINE
5
230
100
AcDbEntity
8
0
100
AcDbLine
62
7
6
CONTINUOUS
10
190.6142857143
20
144.4283794807
11
188.1142857143
21
145.0605274222
0
LINE
5
231
100
AcDbEntity
8
0
100
AcDbLine
62
7
6
CONTINUOUS
10
188.1142857143
20
144.8234719300
11
190.2951367789
21
144.2703424670
0
LINE
5
232
100
AcDbEntity
8
0
100
AcDbLine
62
7
6
CONTINUOUS
10
174.3413023681
20
182.8326603148
11
174.3413023681
21
184.2803391793
0
LINE
5
233
100
AcDbEntity
8
0
100
AcDbLine
62
7
6
CONTINUOUS
10
175.8142857143
20
173.6803391793
11
175.8142857143
21
183.6484378986
0
LINE
5
234
100
AcDbEntity
8
0
100
AcDbLine
62
7
6
CONTINUOUS
10
189.8164133945
20
150.5523131798
11
189.9759878435
21
150.5523131798
0
LINE
5
235
100
AcDbEntity
8
0
100
AcDbLine
62
7
6
CONTINUOUS
10
190.0291793266
20
150.7893686720
11
189.7632219114
21
150.7893686720
0
LINE
5
236
100
AcDbEntity
8
0
100
AcDbLine
62
7
6
CONTINUOUS
10
188.4866260954
20
149.4855634649
11
188.6993920275
21
149.4460539148
0
LINE
5
237
100
AcDbEntity
8
0
100
AcDbLine
62
7
6
CONTINUOUS
10
188.1142857143
20
146.9174621487
11
190.3483282619
21
146.3248234182
0
LINE
5
238
100
AcDbEntity
8
0
100
AcDbLine
62
7
6
CONTINUOUS
10
190.6142857143
20
146.4828604884
11
188.6462005445
21
147.0359898948
0
LINE
5
239
100
AcDbEntity
8
DEFAULT_1
100
AcDbLine
62
2
6
CENTER
10
178.2142857143
20
117.2803391793
11
178.2142857143
21
188.4511712114
0
LINE
5
23A
100
AcDbEntity
8
0
100
AcDbLine
62
7
6
CONTINUOUS
10
189.5504559049
20
153.0018867499
11
189.8696048775
21
153.0018867499
0
LINE
5
23B
100
AcDbEntity
8
0
100
AcDbLine
62
7
6
CONTINUOUS
10
188.5398175785
20
153.9501087186
11
189.5504559049
21
153.9501087186
0
LINE
5
23C
100
AcDbEntity
8
0
100
AcDbLine
62
7
6
CONTINUOUS
10
189.8696048775
20
153.9501087186
11
190.6142857143
21
153.9501087186
0
LINE
5
23D
100
AcDbEntity
8
0
100
AcDbLine
62
7
6
CONTINUOUS
10
190.6142857143
20
154.1871642108
11
189.8696048775
21
154.1871642108
0
LINE
5
23E
100
AcDbEntity
8
0
100
AcDbLine
62
7
6
CONTINUOUS
10
189.5504559049
20
154.1871642108
11
188.1142857143
21
154.1871642108
0
LINE
5
23F
100
AcDbEntity
8
0
100
AcDbLine
62
7
6
CONTINUOUS
10
189.8696048775
20
154.5822560950
11
189.5504559049
21
154.5822560950
0
LINE
5
240
100
AcDbEntity
8
0
100
AcDbLine
62
7
6
CONTINUOUS
10
188.7525836595
20
149.6831094070
11
188.5930090615
21
149.7226189571
0
LINE
5
241
100
AcDbEntity
8
0
100
AcDbLine
62
7
6
CONTINUOUS
10
180.6142857143
20
183.6484378986
11
180.6142857143
21
173.6803391793
0
LINE
5
242
100
AcDbEntity
8
0
100
AcDbLine
62
7
6
CONTINUOUS
10
190.2419452959
20
150.7103500239
11
190.0291793266
21
150.7893686720
0
LINE
5
243
100
AcDbEntity
8
0
100
AcDbLine
62
7
6
CONTINUOUS
10
189.9759878435
20
150.5523131798
11
190.1355622926
21
150.4732945317
0
LINE
5
244
100
AcDbEntity
8
0
100
AcDbLine
62
7
6
CONTINUOUS
10
189.1249240407
20
148.3002860039
11
188.1142857143
21
149.0114524805
0
LINE
5
245
100
AcDbEntity
8
0
100
AcDbLine
62
7
6
CONTINUOUS
10
188.1142857143
20
148.6953783402
11
189.3376899728
21
147.8261750195
0
LINE
5
246
100
AcDbEntity
8
0
100
AcDbLine
62
7
6
CONTINUOUS
10
189.7632219114
20
147.8261750195
11
189.3908814558
21
148.1027396097
0
LINE
5
247
100
AcDbEntity
8
0
100
AcDbLine
62
7
6
CONTINUOUS
10
188.2738601633
20
149.6436003090
11
188.4866260954
21
149.4855634649
0
LINE
5
248
100
AcDbEntity
8
0
100
AcDbLine
62
7
6
CONTINUOUS
10
182.0872690605
20
184.2803391793
11
182.0872690605
21
182.8326603148
0
LINE
5
249
100
AcDbEntity
8
0
100
AcDbLine
62
7
6
CONTINUOUS
10
183.5057883364
20
178.7803391793
11
183.5057883364
21
177.7803391793
0
LINE
5
24A
100
AcDbEntity
8
0
100
AcDbLine
62
7
6
CONTINUOUS
10
188.5398175785
20
150.6313313757
11
188.3270516464
21
150.5128036296
0
LINE
5
24B
100
AcDbEntity
8
0
100
AcDbLine
62
7
6
CONTINUOUS
10
189.6568388709
20
150.4732945317
11
189.8164133945
21
150.5523131798
0
LINE
5
24C
100
AcDbEntity
8
0
100
AcDbLine
62
7
6
CONTINUOUS
10
188.5930090615
20
150.3942758836
11
188.6993920275
21
150.4337854337
0
LINE
5
24D
100
AcDbEntity
8
0
100
AcDbLine
62
7
6
CONTINUOUS
10
189.7632219114
20
150.7893686720
11
189.5504559049
21
150.7103500239
0
LINE
5
24E
100
AcDbEntity
8
0
100
AcDbLine
62
7
6
CONTINUOUS
10
188.1142857143
20
153.9501087186
11
189.5504559049
21
153.0018867499
0
LINE
5
24F
100
AcDbEntity
8
0
100
AcDbLine
62
7
6
CONTINUOUS
10
190.4547112466
20
150.5523131798
11
190.2419452959
21
150.7103500239
0
LINE
5
250
100
AcDbEntity
8
0
100
AcDbLine
62
7
6
CONTINUOUS
10
188.5930090615
20
149.7226189571
11
188.4866260954
21
149.8411467032
0
LINE
5
251
100
AcDbEntity
8
0
100
AcDbLine
62
7
6
CONTINUOUS
10
167.9463291435
20
181.1623228381
11
167.3757826253
21
182.1848834107
0
LINE
5
252
100
AcDbEntity
8
0
100
AcDbLine
62
7
6
CONTINUOUS
10
184.2501840991
20
183.9915112099
11
184.2501840991
21
184.2803391793
0
LINE
5
253
100
AcDbEntity
8
0
100
AcDbLine
62
7
6
CONTINUOUS
10
185.2142857143
20
158.2803391793
11
185.2142857143
21
135.2803391793
0
LINE
5
254
100
AcDbEntity
8
0
100
AcDbLine
62
7
6
CONTINUOUS
10
185.2142857143
20
125.2803391793
11
185.2142857143
21
122.1654019413
0
LINE
5
255
100
AcDbEntity
8
0
100
AcDbLine
62
7
6
CONTINUOUS
10
188.3270516464
20
150.5128036296
11
188.1674771973
21
150.3547667856
0
LINE
5
256
100
AcDbEntity
8
0
100
AcDbLine
62
7
6
CONTINUOUS
10
188.4866260954
20
150.3152576876
11
188.5930090615
21
150.3942758836
0
LINE
5
257
100
AcDbEntity
8
0
100
AcDbLine
62
7
6
CONTINUOUS
10
189.5504559049
20
150.7103500239
11
189.3376899728
21
150.5523131798
0
LINE
5
258
100
AcDbEntity
8
0
100
AcDbLine
62
7
6
CONTINUOUS
10
189.1249240407
20
149.4855634649
11
189.3376899728
21
149.6436003090
0
LINE
5
259
100
AcDbEntity
8
0
100
AcDbLine
62
7
6
CONTINUOUS
10
190.2419452959
20
149.7226189571
11
190.0823708096
21
149.6040912110
0
LINE
5
25A
100
AcDbEntity
8
0
100
AcDbLine
62
7
6
CONTINUOUS
10
189.3908814558
20
148.1027396097
11
190.6142857143
21
148.6953783402
0
LINE
5
25B
100
AcDbEntity
8
0
100
AcDbLine
62
7
6
CONTINUOUS
10
190.6142857143
20
149.0114524805
11
189.1249240407
21
148.3002860039
0
LINE
5
25C
100
AcDbEntity
8
0
100
AcDbLine
62
7
6
CONTINUOUS
10
190.1355622926
20
149.3670357188
11
190.4015197636
21
149.4855634649
0
LINE
5
25D
100
AcDbEntity
8
0
100
AcDbLine
62
7
6
CONTINUOUS
10
189.5504559049
20
153.2784508879
11
188.5398175785
21
153.9501087186
0
LINE
5
25E
100
AcDbEntity
8
0
100
AcDbLine
62
7
6
CONTINUOUS
10
190.1355622926
20
150.4732945317
11
190.2419452959
21
150.3547667856
0
LINE
5
25F
100
AcDbEntity
8
0
100
AcDbLine
62
7
6
CONTINUOUS
10
188.1674771973
20
149.8016371531
11
188.2738601633
21
149.6436003090
0
LINE
5
260
100
AcDbEntity
8
0
100
AcDbLine
62
7
6
CONTINUOUS
10
188.4866260954
20
149.8411467032
11
188.4334346124
21
149.9596744493
0
LINE
5
261
100
AcDbEntity
8
0
100
AcDbLine
62
7
6
CONTINUOUS
10
187.7142857143
20
173.2051507359
11
187.7142857143
21
176.3803391793
0
LINE
5
262
100
AcDbEntity
8
0
100
AcDbLine
62
7
6
CONTINUOUS
10
187.7142857143
20
181.1803391793
11
187.7142857143
21
182.2803391793
0
LINE
5
263
100
AcDbEntity
8
0
100
AcDbLine
62
7
6
CONTINUOUS
10
188.1142857143
20
154.1871642108
11
188.1142857143
21
153.9501087186
0
LINE
5
264
100
AcDbEntity
8
0
100
AcDbLine
62
7
6
CONTINUOUS
10
188.1142857143
20
150.1572203914
11
188.1142857143
21
149.9596744493
0
LINE
5
265
100
AcDbEntity
8
0
100
AcDbLine
62
7
6
CONTINUOUS
10
188.1142857143
20
149.0114524805
11
188.1142857143
21
148.6953783402
0
LINE
5
266
100
AcDbEntity
8
0
100
AcDbLine
62
7
6
CONTINUOUS
10
188.1142857143
20
147.8261750195
11
188.1142857143
21
147.5891195273
0
LINE
5
267
100
AcDbEntity
8
0
100
AcDbLine
62
7
6
CONTINUOUS
10
188.1142857143
20
147.2730453870
11
188.1142857143
21
146.9174621487
0
LINE
5
268
100
AcDbEntity
8
0
100
AcDbLine
62
7
6
CONTINUOUS
10
188.1142857143
20
145.7321846877
11
188.1142857143
21
145.3766014494
0
LINE
5
269
100
AcDbEntity
8
0
100
AcDbLine
62
7
6
CONTINUOUS
10
188.1142857143
20
145.0605274222
11
188.1142857143
21
144.8234719300
0
LINE
5
26A
100
AcDbEntity
8
0
100
AcDbLine
62
7
6
CONTINUOUS
10
188.1142857143
20
143.7172130041
11
188.1142857143
21
143.4801575119
0
LINE
5
26B
100
AcDbEntity
8
0
100
AcDbLine
62
7
6
CONTINUOUS
10
188.4334346124
20
149.9596744493
11
188.4334346124
21
150.1967299415
0
LINE
5
26C
100
AcDbEntity
8
0
100
AcDbLine
62
7
6
CONTINUOUS
10
188.6993920275
20
150.4337854337
11
188.6993920275
21
150.6708409259
0
LINE
5
26D
100
AcDbEntity
8
0
100
AcDbLine
62
7
6
CONTINUOUS
10
189.1781155237
20
150.1967299415
11
189.1781155237
21
149.9596744493
0
LINE
5
26E
100
AcDbEntity
8
0
100
AcDbLine
62
7
6
CONTINUOUS
10
188.1674771973
20
150.3547667856
11
188.1142857143
21
150.1572203914
0
LINE
5
26F
100
AcDbEntity
8
0
100
AcDbLine
62
7
6
CONTINUOUS
10
189.2313070067
20
150.3942758836
11
189.1781155237
21
150.1967299415
0
LINE
5
270
100
AcDbEntity
8
0
100
AcDbLine
62
7
6
CONTINUOUS
10
188.4334346124
20
150.1967299415
11
188.4866260954
21
150.3152576876
0
LINE
5
271
100
AcDbEntity
8
0
100
AcDbLine
62
7
6
CONTINUOUS
10
189.1781155237
20
149.9596744493
11
189.1249240407
21
149.8411467032
0
LINE
5
272
100
AcDbEntity
8
0
100
AcDbLine
62
7
6
CONTINUOUS
10
189.3376899728
20
150.5523131798
11
189.2313070067
21
150.3942758836
0
LINE
5
273
100
AcDbEntity
8
0
100
AcDbLine
62
7
6
CONTINUOUS
10
189.3376899728
20
149.6436003090
11
189.4440729388
21
149.8016371531
0
LINE
5
274
100
AcDbEntity
8
0
100
AcDbLine
62
7
6
CONTINUOUS
10
190.4015197636
20
149.4855634649
11
190.5610942266
21
149.6831094070
0
LINE
5
275
100
AcDbEntity
8
0
100
AcDbLine
62
7
6
CONTINUOUS
10
189.5504559049
20
150.3547667856
11
189.6568388709
21
150.4732945317
0
LINE
5
276
100
AcDbEntity
8
0
100
AcDbLine
62
7
6
CONTINUOUS
10
189.1249240407
20
149.8411467032
11
189.0185410747
21
149.7226189571
0
LINE
5
277
100
AcDbEntity
8
0
100
AcDbLine
62
7
6
CONTINUOUS
10
190.5610942266
20
150.3942758836
11
190.4547112466
21
150.5523131798
0
LINE
5
278
100
AcDbEntity
8
0
100
AcDbLine
62
7
6
CONTINUOUS
10
188.1142857143
20
149.9596744493
11
188.1674771973
21
149.8016371531
0
LINE
5
279
100
AcDbEntity
8
0
100
AcDbLine
62
7
6
CONTINUOUS
10
190.2419452959
20
150.3547667856
11
190.2951367789
21
150.1967299415
0
LINE
5
27A
100
AcDbEntity
8
0
100
AcDbLine
62
7
6
CONTINUOUS
10
189.4972644218
20
149.9596744493
11
189.4972644218
21
150.1967299415
0
LINE
5
27B
100
AcDbEntity
8
0
100
AcDbLine
62
7
6
CONTINUOUS
10
189.5504559049
20
154.5822560950
11
189.5504559049
21
154.1871642108
0
LINE
5
27C
100
AcDbEntity
8
0
100
AcDbLine
62
7
6
CONTINUOUS
10
189.5504559049
20
153.9501087186
11
189.5504559049
21
153.2784508879
0
LINE
5
27D
100
AcDbEntity
8
0
100
AcDbLine
62
7
6
CONTINUOUS
10
189.8696048775
20
153.0018867499
11
189.8696048775
21
153.9501087186
0
LINE
5
27E
100
AcDbEntity
8
0
100
AcDbLine
62
7
6
CONTINUOUS
10
189.8696048775
20
154.1871642108
11
189.8696048775
21
154.5822560950
0
LINE
5
27F
100
AcDbEntity
8
0
100
AcDbLine
62
7
6
CONTINUOUS
10
189.9227963605
20
149.5645816609
11
189.9227963605
21
149.3275261687
0
LINE
5
280
100
AcDbEntity
8
0
100
AcDbLine
62
7
6
CONTINUOUS
10
190.2951367789
20
150.1967299415
11
190.2951367789
21
149.8806558012
0
LINE
5
281
100
AcDbEntity
8
0
100
AcDbLine
62
7
6
CONTINUOUS
10
190.6142857143
20
144.1123055099
11
190.6142857143
21
144.4283794807
0
LINE
5
282
100
AcDbEntity
8
0
100
AcDbLine
62
7
6
CONTINUOUS
10
190.6142857143
20
145.3766014494
11
190.6142857143
21
145.6136569416
0
LINE
5
283
100
AcDbEntity
8
0
100
AcDbLine
62
7
6
CONTINUOUS
10
190.6142857143
20
146.1667863481
11
190.6142857143
21
146.4828604884
0
LINE
5
284
100
AcDbEntity
8
0
100
AcDbLine
62
7
6
CONTINUOUS
10
190.6142857143
20
147.0359898948
11
190.6142857143
21
147.2730453870
0
LINE
5
285
100
AcDbEntity
8
0
100
AcDbLine
62
7
6
CONTINUOUS
10
190.6142857143
20
147.5891195273
11
190.6142857143
21
147.8261750195
0
LINE
5
286
100
AcDbEntity
8
0
100
AcDbLine
62
7
6
CONTINUOUS
10
190.6142857143
20
148.6953783402
11
190.6142857143
21
149.0114524805
0
LINE
5
287
100
AcDbEntity
8
0
100
AcDbLine
62
7
6
CONTINUOUS
10
190.6142857143
20
149.8806558012
11
190.6142857143
21
150.1967299415
0
LINE
5
288
100
AcDbEntity
8
0
100
AcDbLine
62
7
6
CONTINUOUS
10
190.6142857143
20
153.9501087186
11
190.6142857143
21
154.1871642108
0
LINE
5
289
100
AcDbEntity
8
0
100
AcDbLine
62
7
6
CONTINUOUS
10
190.5610942266
20
149.6831094070
11
190.6142857143
21
149.8806558012
0
LINE
5
28A
100
AcDbEntity
8
0
100
AcDbLine
62
7
6
CONTINUOUS
10
189.4972644218
20
150.1967299415
11
189.5504559049
21
150.3547667856
0
LINE
5
28B
100
AcDbEntity
8
0
100
AcDbLine
62
7
6
CONTINUOUS
10
189.4440729388
20
149.8016371531
11
189.4972644218
21
149.9596744493
0
LINE
5
28C
100
AcDbEntity
8
0
100
AcDbLine
62
7
6
CONTINUOUS
10
190.2951367789
20
149.8806558012
11
190.2419452959
21
149.7226189571
0
LINE
5
28D
100
AcDbEntity
8
0
100
AcDbLine
62
7
6
CONTINUOUS
10
190.6142857143
20
150.1967299415
11
190.5610942266
21
150.3942758836
0
LINE
5
28E
100
AcDbEntity
8
0
100
AcDbLine
62
7
6
CONTINUOUS
10
193.0532779008
20
130.2803391793
11
193.0532779008
21
137.0017134896
0
LINE
5
28F
100
AcDbEntity
8
0
100
AcDbLine
62
7
6
CONTINUOUS
10
193.2142857143
20
144.6130413573
11
193.2142857143
21
158.2803391793
0
LINE
5
290
100
AcDbEntity
8
0
100
AcDbLine
62
7
6
CONTINUOUS
10
197.8680179715
20
128.1867480452
11
197.8680179715
21
137.8322356138
0
LINE
5
291
100
AcDbEntity
8
0
100
AcDbLine
62
7
6
CONTINUOUS
10
199.2142857143
20
121.7395323247
11
199.2142857143
21
124.2803391793
0
LINE
5
292
100
AcDbEntity
8
0
100
AcDbLine
62
7
6
CONTINUOUS
10
199.2142857143
20
136.2803391793
11
199.2142857143
21
139.6330700929
0
LINE
5
293
100
AcDbEntity
8
0
100
AcDbLine
62
7
6
CONTINUOUS
10
175.8142857143
20
176.3803391793
11
180.6142857143
21
176.3803391793
0
LINE
5
294
100
AcDbEntity
8
0
100
AcDbLine
62
7
6
CONTINUOUS
10
199.2142857143
20
139.6330700929
11
198.0344091344
21
138.4827914615
0
LINE
5
295
100
AcDbEntity
8
DEFAULT_1
100
AcDbLine
62
2
6
CENTER
10
188.0664178274
20
178.7803391793
11
166.8621536011
21
178.7803391793
0
LINE
5
296
100
AcDbEntity
8
0
100
AcDbLine
62
7
6
CONTINUOUS
10
183.6934098050
20
180.2803391793
11
185.4967544408
21
180.2804296908
0
LINE
5
297
100
AcDbEntity
8
0
100
AcDbLine
62
7
6
CONTINUOUS
10
169.4317312466
20
180.2803391793
11
172.7351616236
21
180.2803391793
0
LINE
5
298
100
AcDbEntity
8
0
100
AcDbLine
62
7
6
CONTINUOUS
10
175.8142857143
20
181.1803391793
11
180.6142857143
21
181.1803391793
0
LINE
5
299
100
AcDbEntity
8
0
100
AcDbLine
62
7
6
CONTINUOUS
10
185.0664178274
20
182.8326603148
11
186.8670961112
21
181.0970558076
0
LINE
5
29A
100
AcDbEntity
8
0
100
AcDbLine
62
7
6
CONTINUOUS
10
170.6783873294
20
184.2803391793
11
174.3413023681
21
184.2803391793
0
LINE
5
29B
100
AcDbEntity
8
0
100
AcDbLine
62
7
6
CONTINUOUS
10
182.0872690605
20
184.2803391793
11
184.2501840991
21
184.2803391793
0
LINE
5
29C
100
AcDbEntity
8
0
100
AcDbLine
62
7
6
CONTINUOUS
10
184.2501840991
20
184.2803391793
11
187.7142857143
21
182.2803391793
0
LINE
5
29D
100
AcDbEntity
8
0
100
AcDbLine
62
7
6
CONTINUOUS
10
287.8591030652
20
124.8059194736
11
294.3951569206
21
121.0323270207
0
LINE
5
29E
100
AcDbEntity
8
0
100
AcDbLine
62
7
6
CONTINUOUS
10
288.8771299929
20
180.2803391793
11
291.6584348703
21
182.8326603148
0
LINE
5
29F
100
AcDbEntity
8
DEFAULT_1
100
AcDbLine
62
2
6
CENTER
10
295.3771299929
20
130.2803391793
11
284.6665098406
21
130.2803391793
0
LINE
5
2A0
100
AcDbEntity
8
DEFAULT_1
100
AcDbLine
62
2
6
CENTER
10
295.3771299929
20
130.2803391793
11
305.6354251582
21
130.2803391793
0
LINE
5
2A1
100
AcDbEntity
8
0
100
AcDbLine
62
7
6
CONTINUOUS
10
285.3771299929
20
130.2803391793
11
285.3771299929
21
137.0847036770
0
LINE
5
2A2
100
AcDbEntity
8
0
100
AcDbLine
62
7
6
CONTINUOUS
10
299.5938490065
20
143.4801575119
11
299.6771299929
21
143.4801575119
0
LINE
5
2A3
100
AcDbEntity
8
0
100
AcDbLine
62
7
6
CONTINUOUS
10
296.3591030652
20
139.5283513379
11
302.8951569206
21
135.7547588851
0
LINE
5
2A4
100
AcDbEntity
8
0
100
AcDbLine
62
7
6
CONTINUOUS
10
286.8771299929
20
134.0539316321
11
286.8771299929
21
126.5067467265
0
LINE
5
2A5
100
AcDbEntity
8
0
100
AcDbLine
62
7
6
CONTINUOUS
10
288.8771299929
20
180.2803391793
11
288.8771299929
21
179.4052998376
0
LINE
5
2A6
100
AcDbEntity
8
0
100
AcDbLine
62
7
6
CONTINUOUS
10
288.8771299929
20
178.1553785210
11
288.8771299929
21
167.5909590696
0
LINE
5
2A7
100
AcDbEntity
8
0
100
AcDbLine
62
7
6
CONTINUOUS
10
299.5378997749
20
143.7172130041
11
299.6771299929
21
143.7172130041
0
LINE
5
2A8
100
AcDbEntity
8
0
100
AcDbLine
62
7
6
CONTINUOUS
10
299.4403849323
20
144.2703424670
11
299.6771299929
21
144.2703424670
0
LINE
5
2A9
100
AcDbEntity
8
0
100
AcDbLine
62
7
6
CONTINUOUS
10
299.3876529748
20
144.8234719300
11
299.6771299929
21
144.8234719300
0
LINE
5
2AA
100
AcDbEntity
8
0
100
AcDbLine
62
7
6
CONTINUOUS
10
299.3787546161
20
145.0605274222
11
299.6771299929
21
145.0605274222
0
LINE
5
2AB
100
AcDbEntity
8
0
100
AcDbLine
62
7
6
CONTINUOUS
10
299.3771299929
20
145.3766014494
11
299.6771299929
21
145.3766014494
0
LINE
5
2AC
100
AcDbEntity
8
0
100
AcDbLine
62
7
6
CONTINUOUS
10
299.3771299929
20
145.7321846877
11
299.6771299929
21
145.7321846877
0
LINE
5
2AD
100
AcDbEntity
8
0
100
AcDbLine
62
7
6
CONTINUOUS
10
299.3771299929
20
146.3248234182
11
299.6771299929
21
146.3248234182
0
LINE
5
2AE
100
AcDbEntity
8
0
100
AcDbLine
62
7
6
CONTINUOUS
10
299.3771299929
20
146.9174621487
11
299.6771299929
21
146.9174621487
0
LINE
5
2AF
100
AcDbEntity
8
0
100
AcDbLine
62
7
6
CONTINUOUS
10
299.3771299929
20
147.2730453870
11
299.6771299929
21
147.2730453870
0
LINE
5
2B0
100
AcDbEntity
8
0
100
AcDbLine
62
7
6
CONTINUOUS
10
299.3771299929
20
147.5891195273
11
299.6771299929
21
147.5891195273
0
LINE
5
2B1
100
AcDbEntity
8
0
100
AcDbLine
62
7
6
CONTINUOUS
10
299.3771299929
20
147.8261750195
11
299.6771299929
21
147.8261750195
0
LINE
5
2B2
100
AcDbEntity
8
0
100
AcDbLine
62
7
6
CONTINUOUS
10
293.3771299929
20
138.9405932172
11
293.3771299929
21
121.6200851415
0
LINE
5
2B3
100
AcDbEntity
8
0
100
AcDbLine
62
7
6
CONTINUOUS
10
291.3769944287
20
158.5770808810
11
291.3770111369
21
145.1830255202
0
LINE
5
2B4
100
AcDbEntity
8
0
100
AcDbLine
62
7
6
CONTINUOUS
10
299.3771299929
20
148.6953783402
11
299.6771299929
21
148.6953783402
0
LINE
5
2B5
100
AcDbEntity
8
0
100
AcDbLine
62
7
6
CONTINUOUS
10
299.3771299929
20
149.0114524805
11
299.6771299929
21
149.0114524805
0
LINE
5
2B6
100
AcDbEntity
8
0
100
AcDbLine
62
7
6
CONTINUOUS
10
299.3771299929
20
149.3275261687
11
299.6771299929
21
149.3275261687
0
LINE
5
2B7
100
AcDbEntity
8
0
100
AcDbLine
62
7
6
CONTINUOUS
10
299.3771299929
20
149.4460539148
11
299.6771299929
21
149.4460539148
0
LINE
5
2B8
100
AcDbEntity
8
0
100
AcDbLine
62
7
6
CONTINUOUS
10
299.3771299929
20
149.4855634649
11
299.6771299929
21
149.4855634649
0
LINE
5
2B9
100
AcDbEntity
8
0
100
AcDbLine
62
7
6
CONTINUOUS
10
299.3771299929
20
149.6436003090
11
299.6771299929
21
149.6436003090
0
LINE
5
2BA
100
AcDbEntity
8
0
100
AcDbLine
62
7
6
CONTINUOUS
10
299.3771299929
20
149.8016371531
11
299.6771299929
21
149.8016371531
0
LINE
5
2BB
100
AcDbEntity
8
0
100
AcDbLine
62
7
6
CONTINUOUS
10
299.3771299929
20
149.9596744493
11
299.6771299929
21
149.9596744493
0
LINE
5
2BC
100
AcDbEntity
8
0
100
AcDbLine
62
7
6
CONTINUOUS
10
299.3771299929
20
150.1572203914
11
299.6771299929
21
150.1572203914
0
LINE
5
2BD
100
AcDbEntity
8
DEFAULT_1
100
AcDbLine
62
2
6
CENTER
10
295.3771299929
20
178.7803391793
11
295.3771299929
21
175.7802391793
0
LINE
5
2BE
100
AcDbEntity
8
DEFAULT_1
100
AcDbLine
62
2
6
CENTER
10
295.3771299929
20
130.2803391793
11
295.3771299929
21
119.4227164673
0
LINE
5
2BF
100
AcDbEntity
8
DEFAULT_1
100
AcDbLine
62
2
6
CENTER
10
295.3771299929
20
178.7803391793
11
295.3771299929
21
181.7804391793
0
LINE
5
2C0
100
AcDbEntity
8
DEFAULT_1
100
AcDbLine
62
2
6
CENTER
10
295.3771299929
20
130.2803391793
11
295.3771299929
21
175.7802391793
0
LINE
5
2C1
100
AcDbEntity
8
DEFAULT_1
100
AcDbLine
62
2
6
CENTER
10
295.3771299929
20
181.7804391793
11
295.3771299929
21
185.5424413802
0
LINE
5
2C2
100
AcDbEntity
8
0
100
AcDbLine
62
7
6
CONTINUOUS
10
299.3771299929
20
150.3547667856
11
299.6771299929
21
150.3547667856
0
LINE
5
2C3
100
AcDbEntity
8
0
100
AcDbLine
62
7
6
CONTINUOUS
10
299.3771299929
20
150.5128036296
11
299.6771299929
21
150.5128036296
0
LINE
5
2C4
100
AcDbEntity
8
0
100
AcDbLine
62
7
6
CONTINUOUS
10
299.3771299929
20
150.6313313757
11
299.6771299929
21
150.6313313757
0
LINE
5
2C5
100
AcDbEntity
8
0
100
AcDbLine
62
7
6
CONTINUOUS
10
299.3771299929
20
150.6708409259
11
299.6771299929
21
150.6708409259
0
LINE
5
2C6
100
AcDbEntity
8
0
100
AcDbLine
62
7
6
CONTINUOUS
10
299.3717772904
20
150.7103500239
11
299.6771299929
21
150.7103500239
0
LINE
5
2C7
100
AcDbEntity
8
0
100
AcDbLine
62
7
6
CONTINUOUS
10
299.3771299929
20
150.7893686720
11
299.6771299929
21
150.7893686720
0
LINE
5
2C8
100
AcDbEntity
8
0
100
AcDbLine
62
7
6
CONTINUOUS
10
297.3771299929
20
121.6200851415
11
297.3771299929
21
138.9405932172
0
LINE
5
2C9
100
AcDbEntity
8
0
100
AcDbLine
62
7
6
CONTINUOUS
10
299.3717772904
20
153.0018867499
11
299.6771299929
21
153.0018867499
0
LINE
5
2CA
100
AcDbEntity
8
0
100
AcDbLine
62
7
6
CONTINUOUS
10
299.3771299929
20
153.9501087186
11
299.6771299929
21
153.9501087186
0
LINE
5
2CB
100
AcDbEntity
8
0
100
AcDbLine
62
7
6
CONTINUOUS
10
299.3771299929
20
154.1871642108
11
299.6771299929
21
154.1871642108
0
LINE
5
2CC
100
AcDbEntity
8
0
100
AcDbLine
62
7
6
CONTINUOUS
10
299.3717772904
20
154.5822560950
11
299.6771299929
21
154.5822560950
0
LINE
5
2CD
100
AcDbEntity
8
0
100
AcDbLine
62
7
6
CONTINUOUS
10
299.3771299929
20
158.5770808810
11
299.3771299929
21
145.2085166062
0
LINE
5
2CE
100
AcDbEntity
8
0
100
AcDbLine
62
7
6
CONTINUOUS
10
299.6771299929
20
154.5822560950
11
299.6771299929
21
153.0018867499
0
LINE
5
2CF
100
AcDbEntity
8
0
100
AcDbLine
62
7
6
CONTINUOUS
10
299.6771299929
20
150.7893686720
11
299.6771299929
21
149.3275261687
0
LINE
5
2D0
100
AcDbEntity
8
0
100
AcDbLine
62
7
6
CONTINUOUS
10
299.6771299929
20
149.0114524805
11
299.6771299929
21
147.5891195273
0
LINE
5
2D1
100
AcDbEntity
8
0
100
AcDbLine
62
7
6
CONTINUOUS
10
299.6771299929
20
147.2730453870
11
299.6771299929
21
145.3766014494
0
LINE
5
2D2
100
AcDbEntity
8
0
100
AcDbLine
62
7
6
CONTINUOUS
10
299.6771299929
20
145.0605274222
11
299.6771299929
21
143.4801575119
0
LINE
5
2D3
100
AcDbEntity
8
0
100
AcDbLine
62
7
6
CONTINUOUS
10
301.8771299929
20
180.2803391793
11
301.8771299929
21
179.4052998376
0
LINE
5
2D4
100
AcDbEntity
8
0
100
AcDbLine
62
7
6
CONTINUOUS
10
301.8771299929
20
178.1553785210
11
301.8771299929
21
167.5909590696
0
LINE
5
2D5
100
AcDbEntity
8
0
100
AcDbLine
62
7
6
CONTINUOUS
10
303.8771299929
20
126.5067467265
11
303.8771299929
21
134.0539316321
0
LINE
5
2D6
100
AcDbEntity
8
0
100
AcDbLine
62
7
6
CONTINUOUS
10
305.3771299929
20
137.0847036770
11
305.3771299929
21
130.2803391793
0
LINE
5
2D7
100
AcDbEntity
8
0
100
AcDbLine
62
7
6
CONTINUOUS
10
294.3951569206
20
139.5283513379
11
287.8591030652
21
135.7547588851
0
LINE
5
2D8
100
AcDbEntity
8
DEFAULT_1
100
AcDbLine
62
2
6
CENTER
10
295.3771299929
20
178.7803391793
11
292.3770299929
21
178.7803391793
0
LINE
5
2D9
100
AcDbEntity
8
DEFAULT_1
100
AcDbLine
62
2
6
CENTER
10
295.3771299929
20
178.7803391793
11
298.3772299929
21
178.7803391793
0
LINE
5
2DA
100
AcDbEntity
8
0
100
AcDbLine
62
7
6
CONTINUOUS
10
299.0958251155
20
182.8326603148
11
301.8771299929
21
180.2803391793
0
LINE
5
2DB
100
AcDbEntity
8
0
100
AcDbLine
62
7
6
CONTINUOUS
10
296.3591030652
20
121.0323270207
11
302.8951569206
21
124.8059194736
0
LINE
5
2DC
100
AcDbEntity
8
0
100
AcDbLine
62
7
6
CONTINUOUS
10
290.1683703415
20
181.1623228381
11
294.2280197621
21
182.1848834107
0
LINE
5
2DD
100
AcDbEntity
8
0
100
AcDbLine
62
7
6
CONTINUOUS
10
300.5858896443
20
181.1623228381
11
296.5262402237
21
182.1848834107
0
ARC
5
2DE
100
AcDbEntity
8
0
100
AcDbCircle
62
7
6
CONTINUOUS
10
161.5142857143
20
130.2803391793
40
9.3000000000
100
AcDbArc
50
90.0000000000
51
270.0000000000
0
ARC
5
2DF
100
AcDbEntity
8
0
100
AcDbCircle
62
7
6
CONTINUOUS
10
178.2142857143
20
191.2803391793
40
8.0000000000
100
AcDbArc
50
241.0449756281
51
252.5423968763
0
ARC
5
2E0
100
AcDbEntity
8
0
100
AcDbCircle
62
7
6
CONTINUOUS
10
178.2142857143
20
191.2803391793
40
8.0000000000
100
AcDbArc
50
287.4576031237
51
298.9550243719
0
ARC
5
2E1
100
AcDbEntity
8
0
100
AcDbCircle
62
7
6
CONTINUOUS
10
189.2142857143
20
130.2803391793
40
10.0000000000
100
AcDbArc
50
253.0272407271
51
279.0000000000
0
ARC
5
2E2
100
AcDbEntity
8
0
100
AcDbCircle
62
7
6
CONTINUOUS
10
167.2142857143
20
130.2803391793
40
10.0000000000
100
AcDbArc
50
261.0000000000
51
286.9727592762
0
ARC
5
2E3
100
AcDbEntity
8
0
100
AcDbCircle
62
7
6
CONTINUOUS
10
178.2142857143
20
158.2803391793
40
7.0000000000
100
AcDbArc
50
0.0000000000
51
180.0000000000
0
ARC
5
2E4
100
AcDbEntity
8
0
100
AcDbCircle
62
7
6
CONTINUOUS
10
178.2142857143
20
158.2803391793
40
15.0000000000
100
AcDbArc
50
0.0000000000
51
40.4590830808
0
ARC
5
2E5
100
AcDbEntity
8
0
100
AcDbCircle
62
7
6
CONTINUOUS
10
178.2142857143
20
158.2803391793
40
15.0000000000
100
AcDbArc
50
145.6988472432
51
180.0000000000
0
ARC
5
2E6
100
AcDbEntity
8
0
100
AcDbCircle
62
7
6
CONTINUOUS
10
178.2142857143
20
173.6803391793
40
2.4000000000
100
AcDbArc
50
180.0000000000
51
360.0000000000
0
ARC
5
2E7
100
AcDbEntity
8
0
100
AcDbCircle
62
7
6
CONTINUOUS
10
159.2142857143
20
171.2418205761
40
8.0000000000
100
AcDbArc
50
325.6988472432
51
360.0000000000
0
ARC
5
2E8
100
AcDbEntity
8
0
100
AcDbCircle
62
7
6
CONTINUOUS
10
195.7142857143
20
173.2051507359
40
8.0000000000
100
AcDbArc
50
180.0000000000
51
220.4590830808
0
CIRCLE
5
2E9
100
AcDbEntity
8
0
100
AcDbCircle
62
7
6
CONTINUOUS
10
170.5142857143
20
178.7803391793
40
1.2500000000
0
ARC
5
2EA
100
AcDbEntity
8
0
100
AcDbCircle
62
7
6
CONTINUOUS
10
295.3771299929
20
130.2803391793
40
10.0000000000
100
AcDbArc
50
180.0000000000
51
360.0000000000
0
ARC
5
2EB
100
AcDbEntity
8
0
100
AcDbCircle
62
7
6
CONTINUOUS
10
295.3771299929
20
130.2803391793
40
9.3000000000
100
AcDbArc
50
83.9389262492
51
96.0610737508
0
ARC
5
2EC
100
AcDbEntity
8
0
100
AcDbCircle
62
7
6
CONTINUOUS
10
295.3771299929
20
130.2803391793
40
9.3000000000
100
AcDbArc
50
23.9389262492
51
36.0610737508
0
ARC
5
2ED
100
AcDbEntity
8
0
100
AcDbCircle
62
7
6
CONTINUOUS
10
295.3771299929
20
130.2803391793
40
9.3000000000
100
AcDbArc
50
143.9389262492
51
156.0610737508
0
ARC
5
2EE
100
AcDbEntity
8
0
100
AcDbCircle
62
7
6
CONTINUOUS
10
295.3771299929
20
130.2803391793
40
9.3000000000
100
AcDbArc
50
203.9389262492
51
216.0610737508
0
ARC
5
2EF
100
AcDbEntity
8
0
100
AcDbCircle
62
7
6
CONTINUOUS
10
295.3771299929
20
130.2803391793
40
9.3000000000
100
AcDbArc
50
323.9389262492
51
336.0610737508
0
ARC
5
2F0
100
AcDbEntity
8
0
100
AcDbCircle
62
7
6
CONTINUOUS
10
295.3771299929
20
130.2803391793
40
9.3000000000
100
AcDbArc
50
263.9389262492
51
276.0610737508
0
ARC
5
2F1
100
AcDbEntity
8
0
100
AcDbCircle
62
7
6
CONTINUOUS
10
300.3771299929
20
167.5909590696
40
1.5000000000
100
AcDbArc
50
328.9972808661
51
360.0000000000
0
ARC
5
2F2
100
AcDbEntity
8
0
100
AcDbCircle
62
7
6
CONTINUOUS
10
315.3771299929
20
158.5770808810
40
16.0000000000
100
AcDbArc
50
148.9972808661
51
180.0000000000
0
CIRCLE
5
2F3
100
AcDbEntity
8
0
100
AcDbCircle
62
7
6
CONTINUOUS
10
295.3771299929
20
178.7803391793
40
2.4000000000
0
ARC
5
2F4
100
AcDbEntity
8
0
100
AcDbCircle
62
7
6
CONTINUOUS
10
290.3771299929
20
167.5909590696
40
1.5000000000
100
AcDbArc
50
180.0000000000
51
211.0027191339
0
ARC
5
2F5
100
AcDbEntity
8
0
100
AcDbCircle
62
7
6
CONTINUOUS
10
295.3771299929
20
178.7803391793
40
5.5000000000
100
AcDbArc
50
47.4583182636
51
132.5416817364
0
ARC
5
2F6
100
AcDbEntity
8
0
100
AcDbCircle
62
7
6
CONTINUOUS
10
275.3771299929
20
158.5770808810
40
16.0000000000
100
AcDbArc
50
0.0000000000
51
31.0027191339
0
ARC
5
2F7
100
AcDbEntity
8
0
100
AcDbCircle
62
7
6
CONTINUOUS
10
295.3771299929
20
130.2803391793
40
9.2086915466
100
AcDbArc
50
142.6252134104
51
157.3747865896
0
ARC
5
2F8
100
AcDbEntity
8
0
100
AcDbCircle
62
7
6
CONTINUOUS
10
295.3771299929
20
130.2803391793
40
9.2086915466
100
AcDbArc
50
202.6252134104
51
217.3747865896
0
ARC
5
2F9
100
AcDbEntity
8
0
100
AcDbCircle
62
7
6
CONTINUOUS
10
295.3771299929
20
130.2803391793
40
9.2086915466
100
AcDbArc
50
322.6252134104
51
337.3747865896
0
ARC
5
2FA
100
AcDbEntity
8
0
100
AcDbCircle
62
7
6
CONTINUOUS
10
295.3771299929
20
130.2803391793
40
9.2086915466
100
AcDbArc
50
22.6252134104
51
37.3747865896
0
SPLINE
5
2FB
100
AcDbEntity
8
0
100
AcDbSpline
62
7
6
CONTINUOUS
70
0
71
3
72
13
73
9
74
7
42
0.0000001000
43
0.0000001000
44
0.0000000001
40
0.0000000000
40
0.0000000000
40
0.0000000000
40
0.0000000000
40
0.0489898617
40
0.1527019179
40
0.3109893377
40
0.5141963930
40
0.7489803024
40
1.0000000000
40
1.0000000000
40
1.0000000000
40
1.0000000000
10
187.7142857143
20
181.1803391793
30
0.0000000000
10
187.6740891214
20
181.1803391793
30
0.0000000000
10
187.5912096851
20
181.0483281379
30
0.0000000000
10
187.5332273856
20
180.8193502004
30
0.0000000000
10
187.4634386846
20
180.4340359502
30
0.0000000000
10
187.4162066152
20
179.9504248621
30
0.0000000000
10
187.3838772556
20
179.3846704511
30
0.0000000000
10
187.3769877110
20
178.9863029490
30
0.0000000000
10
187.3769877110
20
178.7803391793
30
0.0000000000
11
187.7142857143
21
181.1803391793
31
0.0000000000
11
187.6265104021
21
181.0976506716
31
0.0000000000
11
187.5448981967
21
180.8557574105
31
0.0000000000
11
187.4750848271
21
180.4724345191
31
0.0000000000
11
187.4217521161
21
179.9750866053
31
0.0000000000
11
187.3883539887
21
179.3981259367
31
0.0000000000
11
187.3769877110
21
178.7803391793
31
0.0000000000
0
SPLINE
5
2FC
100
AcDbEntity
8
0
100
AcDbSpline
62
7
6
CONTINUOUS
70
0
71
3
72
13
73
9
74
7
42
0.0000001000
43
0.0000001000
44
0.0000000001
40
0.0000000000
40
0.0000000000
40
0.0000000000
40
0.0000000000
40
0.0489898617
40
0.1527019179
40
0.3109893377
40
0.5141963930
40
0.7489803024
40
1.0000000000
40
1.0000000000
40
1.0000000000
40
1.0000000000
10
167.2142857143
20
176.3803391793
30
0.0000000000
10
167.2544823072
20
176.3803391793
30
0.0000000000
10
167.3373617434
20
176.5123502207
30
0.0000000000
10
167.3953440430
20
176.7413281582
30
0.0000000000
10
167.4651327440
20
177.1266424084
30
0.0000000000
10
167.5123648133
20
177.6102534965
30
0.0000000000
10
167.5446941729
20
178.1760079075
30
0.0000000000
10
167.5515837176
20
178.5743754096
30
0.0000000000
10
167.5515837176
20
178.7803391793
30
0.0000000000
11
167.2142857143
21
176.3803391793
31
0.0000000000
11
167.3020610265
21
176.4630276871
31
0.0000000000
11
167.3836732318
21
176.7049209482
31
0.0000000000
11
167.4534866014
21
177.0882438395
31
0.0000000000
11
167.5068193125
21
177.5855917533
31
0.0000000000
11
167.5402174399
21
178.1625524219
31
0.0000000000
11
167.5515837176
21
178.7803391793
31
0.0000000000
0
SPLINE
5
2FD
100
AcDbEntity
8
0
100
AcDbSpline
62
7
6
CONTINUOUS
70
0
71
3
72
14
73
10
74
8
42
0.0000001000
43
0.0000001000
44
0.0000000001
40
0.0000000000
40
0.0000000000
40
0.0000000000
40
0.0000000000
40
0.2140466858
40
0.4180678799
40
0.6024059848
40
0.7582284070
40
0.8781923371
40
0.9577012856
40
1.0000000000
40
1.0000000000
40
1.0000000000
40
1.0000000000
10
198.2639790723
20
130.2803391793
30
0.0000000000
10
198.2639790723
20
129.8383862019
30
0.0000000000
10
198.2790385745
20
128.9750341590
30
0.0000000000
10
198.3450670231
20
127.7329719508
30
0.0000000000
10
198.4537791972
20
126.6132404698
30
0.0000000000
10
198.5902593023
20
125.6755343934
30
0.0000000000
10
198.7689878941
20
124.9538350577
30
0.0000000000
10
198.9245067431
20
124.4979999552
30
0.0000000000
10
199.1269494274
20
124.2803391793
30
0.0000000000
10
199.2142857143
20
124.2803391793
30
0.0000000000
11
198.2639790723
21
130.2803391793
31
0.0000000000
11
198.2874640103
21
128.9546882578
31
0.0000000000
11
198.3568882845
21
127.6928380826
31
0.0000000000
11
198.4691500964
21
126.5565335792
31
0.0000000000
11
198.6190695992
21
125.6030445135
31
0.0000000000
11
198.7994537886
21
124.8821843273
31
0.0000000000
11
199.0013134806
21
124.4329546137
31
0.0000000000
11
199.2142857143
21
124.2803391793
31
0.0000000000
0
SPLINE
5
2FE
100
AcDbEntity
8
0
100
AcDbSpline
62
7
6
CONTINUOUS
70
0
71
3
72
14
73
10
74
8
42
0.0000001000
43
0.0000001000
44
0.0000000001
40
0.0000000000
40
0.0000000000
40
0.0000000000
40
0.0000000000
40
0.0422984256
40
0.1218071388
40
0.2417713136
40
0.3975944785
40
0.5819333473
40
0.7859545765
40
1.0000000000
40
1.0000000000
40
1.0000000000
40
1.0000000000
10
199.2142857143
20
136.2803391793
30
0.0000000000
10
199.1269500224
20
136.2803391793
30
0.0000000000
10
198.9245076691
20
136.0626802661
30
0.0000000000
10
198.7689885257
20
135.6068454503
30
0.0000000000
10
198.5902593289
20
134.8851447816
30
0.0000000000
10
198.4537787926
20
133.9474350422
30
0.0000000000
10
198.3450665548
20
132.8277003687
30
0.0000000000
10
198.2790384452
20
131.5856390749
30
0.0000000000
10
198.2639790723
20
130.7222895570
30
0.0000000000
10
198.2639790723
20
130.2803391793
30
0.0000000000
11
199.2142857143
21
136.2803391793
31
0.0000000000
11
199.0013145569
21
136.1277253076
31
0.0000000000
11
198.7994548238
21
135.6784972025
31
0.0000000000
11
198.6190699479
21
134.9576356139
31
0.0000000000
11
198.4691497462
21
134.0041419865
31
0.0000000000
11
198.3568877135
21
132.8678327330
31
0.0000000000
11
198.2874637306
21
131.6059823054
31
0.0000000000
11
198.2639790723
21
130.2803391793
31
0.0000000000
0
SPLINE
5
2FF
100
AcDbEntity
8
0
100
AcDbSpline
62
7
6
CONTINUOUS
70
0
71
3
72
13
73
9
74
7
42
0.0000001000
43
0.0000001000
44
0.0000000001
40
0.0000000000
40
0.0000000000
40
0.0000000000
40
0.0000000000
40
0.2510211212
40
0.4858046890
40
0.6890107074
40
0.8472975293
40
0.9510097707
40
1.0000000000
40
1.0000000000
40
1.0000000000
40
1.0000000000
10
187.3769877110
20
178.7803391793
30
0.0000000000
10
187.3769877110
20
178.5743742452
30
0.0000000000
10
187.3838773105
20
178.1760058666
30
0.0000000000
10
187.4162067855
20
177.6102514231
30
0.0000000000
10
187.4634388127
20
177.1266419887
30
0.0000000000
10
187.5332272028
20
176.7413288533
30
0.0000000000
10
187.5912094398
20
176.5123511535
30
0.0000000000
10
187.6740888205
20
176.3803391793
30
0.0000000000
10
187.7142857143
20
176.3803391793
30
0.0000000000
11
187.3769877110
21
178.7803391793
31
0.0000000000
11
187.3883541194
21
178.1625489306
31
0.0000000000
11
187.4217523285
21
177.5855891193
31
0.0000000000
11
187.4750848382
21
177.0882437601
31
0.0000000000
11
187.5448978673
21
176.7049223097
31
0.0000000000
11
187.6265099602
21
176.4630285345
31
0.0000000000
11
187.7142857143
21
176.3803391793
31
0.0000000000
0
SPLINE
5
300
100
AcDbEntity
8
0
100
AcDbSpline
62
7
6
CONTINUOUS
70
0
71
3
72
13
73
9
74
7
42
0.0000001000
43
0.0000001000
44
0.0000000001
40
0.0000000000
40
0.0000000000
40
0.0000000000
40
0.0000000000
40
0.2510211212
40
0.4858046890
40
0.6890107074
40
0.8472975293
40
0.9510097707
40
1.0000000000
40
1.0000000000
40
1.0000000000
40
1.0000000000
10
167.5515837176
20
178.7803391793
30
0.0000000000
10
167.5515837176
20
178.9863041134
30
0.0000000000
10
167.5446941180
20
179.3846724920
30
0.0000000000
10
167.5123646431
20
179.9504269355
30
0.0000000000
10
167.4651326159
20
180.4340363699
30
0.0000000000
10
167.3953442258
20
180.8193495054
30
0.0000000000
10
167.3373619888
20
181.0483272051
30
0.0000000000
10
167.2544826081
20
181.1803391793
30
0.0000000000
10
167.2142857143
20
181.1803391793
30
0.0000000000
11
167.5515837176
21
178.7803391793
31
0.0000000000
11
167.5402173092
21
179.3981294281
31
0.0000000000
11
167.5068191000
21
179.9750892393
31
0.0000000000
11
167.4534865903
21
180.4724345985
31
0.0000000000
11
167.3836735613
21
180.8557560489
31
0.0000000000
11
167.3020614684
21
181.0976498242
31
0.0000000000
11
167.2142857143
21
181.1803391793
31
0.0000000000
0
SPLINE
5
301
100
AcDbEntity
8
0
100
AcDbSpline
62
7
6
CONTINUOUS
70
0
71
3
72
14
73
10
74
8
42
0.0000001000
43
0.0000001000
44
0.0000000001
40
0.0000000000
40
0.0000000000
40
0.0000000000
40
0.0000000000
40
0.1438080862
40
0.2864064665
40
0.4282633452
40
0.5699782303
40
0.7121756831
40
0.8553970635
40
1.0000000000
40
1.0000000000
40
1.0000000000
40
1.0000000000
10
198.0296842335
20
139.6627865685
30
0.0000000000
10
197.6637629276
20
139.6719659353
30
0.0000000000
10
196.9344123907
20
139.7705449522
30
0.0000000000
10
195.9045040389
20
140.1528498226
30
0.0000000000
10
194.9876679930
20
140.7492517038
30
0.0000000000
10
194.2253057913
20
141.5318987377
30
0.0000000000
10
193.6517863337
20
142.4661018976
30
0.0000000000
10
193.2947429470
20
143.5097746029
30
0.0000000000
10
193.2142857143
20
144.2449817924
30
0.0000000000
10
193.2142857143
20
144.6130413573
30
0.0000000000
11
198.0296842335
21
139.6627865685
31
0.0000000000
11
196.9415643121
21
139.8105668190
31
0.0000000000
11
195.9208430285
21
140.1897374473
31
0.0000000000
11
195.0129652751
21
140.7805858493
31
0.0000000000
11
194.2578484487
21
141.5556952946
31
0.0000000000
11
193.6894632418
21
142.4808562889
31
0.0000000000
11
193.3351407116
21
143.5154965247
31
0.0000000000
11
193.2142857143
21
144.6130413573
31
0.0000000000
0
SPLINE
5
302
100
AcDbEntity
8
0
100
AcDbSpline
62
7
6
CONTINUOUS
70
0
71
3
72
12
73
8
74
6
42
0.0000001000
43
0.0000001000
44
0.0000000001
40
0.0000000000
40
0.0000000000
40
0.0000000000
40
0.0000000000
40
0.2004082302
40
0.4006402411
40
0.6006446070
40
0.8004183625
40
1.0000000000
40
1.0000000000
40
1.0000000000
40
1.0000000000
10
164.3059898363
20
120.6163171665
30
0.0000000000
10
164.2303106651
20
120.6283036722
30
0.0000000000
10
164.0805812286
20
120.6637288158
30
0.0000000000
10
163.8668018819
20
120.7498482052
30
0.0000000000
10
163.6685125380
20
120.8669378950
30
0.0000000000
10
163.4902387657
20
121.0123096891
30
0.0000000000
10
163.3873712398
20
121.1258928451
30
0.0000000000
10
163.3405210625
20
121.1862397733
30
0.0000000000
11
164.3059898363
21
120.6163171665
31
0.0000000000
11
164.0823006780
21
120.6692537317
31
0.0000000000
11
163.8692692466
21
120.7550665887
31
0.0000000000
11
163.6717419361
21
120.8717256303
31
0.0000000000
11
163.4941646714
21
121.0165406715
31
0.0000000000
11
163.3405210625
21
121.1862397733
31
0.0000000000
0
SPLINE
5
303
100
AcDbEntity
8
0
100
AcDbSpline
62
7
6
CONTINUOUS
70
0
71
3
72
8
73
4
74
2
42
0.0000001000
43
0.0000001000
44
0.0000000001
40
0.0000000000
40
0.0000000000
40
0.0000000000
40
0.0000000000
40
1.0000000000
40
1.0000000000
40
1.0000000000
40
1.0000000000
10
163.3405210625
20
121.1862397733
30
0.0000000000
10
163.2937005271
20
121.2465485204
30
0.0000000000
10
163.2514330673
20
121.3104354063
30
0.0000000000
10
163.2142857142
20
121.3770341388
30
0.0000000000
11
163.3405210625
21
121.1862397733
31
0.0000000000
11
163.2142857142
21
121.3770341388
31
0.0000000000
0
SPLINE
5
304
100
AcDbEntity
8
0
100
AcDbSpline
62
7
6
CONTINUOUS
70
0
71
3
72
14
73
10
74
8
42
0.0000001000
43
0.0000001000
44
0.0000000001
40
0.0000000000
40
0.0000000000
40
0.0000000000
40
0.0000000000
40
0.1427129256
40
0.2855429717
40
0.4283362332
40
0.5710990103
40
0.7139134396
40
0.8569274509
40
1.0000000000
40
1.0000000000
40
1.0000000000
40
1.0000000000
10
171.2142855593
20
122.1653991737
30
0.0000000000
10
171.2142618246
20
122.0734157797
30
0.0000000000
10
171.1971594062
20
121.8889254697
30
0.0000000000
10
171.1212142550
20
121.6219522670
30
0.0000000000
10
170.9979193023
20
121.3731631948
30
0.0000000000
10
170.8316579746
20
121.1508457832
30
0.0000000000
10
170.6279536815
20
120.9620071356
30
0.0000000000
10
170.3935607351
20
120.8127574667
30
0.0000000000
10
170.2216634914
20
120.7428251467
30
0.0000000000
10
170.1334649039
20
120.7159058257
30
0.0000000000
11
171.2142855593
21
122.1653991737
31
0.0000000000
11
171.1887920180
21
121.8906291111
31
0.0000000000
11
171.1133146396
21
121.6249663354
31
0.0000000000
11
170.9907477965
21
121.3775564893
31
0.0000000000
11
170.8254573330
21
121.1564665094
31
0.0000000000
11
170.6229672860
21
120.9687042993
31
0.0000000000
11
170.3897063413
21
120.8201799442
31
0.0000000000
11
170.1334649039
21
120.7159058257
31
0.0000000000
0
SPLINE
5
305
100
AcDbEntity
8
0
100
AcDbSpline
62
7
6
CONTINUOUS
70
0
71
3
72
14
73
10
74
8
42
0.0000001000
43
0.0000001000
44
0.0000000001
40
0.0000000000
40
0.0000000000
40
0.0000000000
40
0.0000000000
40
0.1432790507
40
0.2865880851
40
0.4296296008
40
0.5724193539
40
0.7150191492
40
0.8575427990
40
1.0000000000
40
1.0000000000
40
1.0000000000
40
1.0000000000
10
186.2951065246
20
120.7159058215
30
0.0000000000
10
186.2067806317
20
120.7428639974
30
0.0000000000
10
186.0345881064
20
120.8129425246
30
0.0000000000
10
185.7998586857
20
120.9625543397
30
0.0000000000
10
185.5960374036
20
121.1517975552
30
0.0000000000
10
185.4299626964
20
121.3743042961
30
0.0000000000
10
185.3070158362
20
121.6229189788
30
0.0000000000
10
185.2313473555
20
121.8894549344
30
0.0000000000
10
185.2143095692
20
122.0735805955
30
0.0000000000
10
185.2142858686
20
122.1653991717
30
0.0000000000
11
186.2951065246
21
120.7159058215
31
0.0000000000
11
186.0385088714
21
120.8203639652
31
0.0000000000
11
185.8048334702
21
120.9692995018
31
0.0000000000
11
185.6021683746
21
121.1575186209
31
0.0000000000
11
185.4370559719
21
121.3788067152
31
0.0000000000
11
185.3148638876
21
121.6259846506
31
0.0000000000
11
185.2396882310
21
121.8911172302
31
0.0000000000
11
185.2142858686
21
122.1653991717
31
0.0000000000
0
SPLINE
5
306
100
AcDbEntity
8
0
100
AcDbSpline
62
7
6
CONTINUOUS
70
0
71
3
72
14
73
10
74
8
42
0.0000001000
43
0.0000001000
44
0.0000000001
40
0.0000000000
40
0.0000000000
40
0.0000000000
40
0.0000000000
40
0.0422977648
40
0.1218054565
40
0.2417689306
40
0.3975918347
40
0.5819309317
40
0.7859528054
40
1.0000000000
40
1.0000000000
40
1.0000000000
40
1.0000000000
10
171.2142857143
20
135.2803391793
30
0.0000000000
10
171.1415071053
20
135.2803391793
30
0.0000000000
10
170.9728064034
20
135.0989610100
30
0.0000000000
10
170.8432070609
20
134.7191021371
30
0.0000000000
10
170.6942658577
20
134.1176887850
30
0.0000000000
10
170.5805314618
20
133.3362652084
30
0.0000000000
10
170.4899372325
20
132.4031519895
30
0.0000000000
10
170.4349131642
20
131.3680963361
30
0.0000000000
10
170.4223635127
20
130.6486342219
30
0.0000000000
10
170.4223635127
20
130.2803391793
30
0.0000000000
11
171.2142857143
21
135.2803391793
31
0.0000000000
11
171.0368118015
21
135.1531639316
31
0.0000000000
11
170.8685960569
21
134.7788126270
31
0.0000000000
11
170.7182749843
21
134.1780984268
31
0.0000000000
11
170.5933407868
21
133.3835218457
31
0.0000000000
11
170.4997883278
21
132.4365963239
31
0.0000000000
11
170.4419343905
21
131.3850509637
31
0.0000000000
11
170.4223635127
21
130.2803391793
31
0.0000000000
0
SPLINE
5
307
100
AcDbEntity
8
0
100
AcDbSpline
62
7
6
CONTINUOUS
70
0
71
3
72
14
73
10
74
8
42
0.0000001000
43
0.0000001000
44
0.0000000001
40
0.0000000000
40
0.0000000000
40
0.0000000000
40
0.0000000000
40
0.0422977648
40
0.1218054565
40
0.2417689306
40
0.3975918347
40
0.5819309317
40
0.7859528054
40
1.0000000000
40
1.0000000000
40
1.0000000000
40
1.0000000000
10
185.2142857143
20
135.2803391793
30
0.0000000000
10
185.2870643233
20
135.2803391793
30
0.0000000000
10
185.4557650252
20
135.0989610100
30
0.0000000000
10
185.5853643677
20
134.7191021371
30
0.0000000000
10
185.7343055709
20
134.1176887850
30
0.0000000000
10
185.8480399668
20
133.3362652084
30
0.0000000000
10
185.9386341961
20
132.4031519895
30
0.0000000000
10
185.9936582643
20
131.3680963361
30
0.0000000000
10
186.0062079159
20
130.6486342219
30
0.0000000000
10
186.0062079159
20
130.2803391793
30
0.0000000000
11
185.2142857143
21
135.2803391793
31
0.0000000000
11
185.3917596271
21
135.1531639316
31
0.0000000000
11
185.5599753717
21
134.7788126270
31
0.0000000000
11
185.7102964443
21
134.1780984268
31
0.0000000000
11
185.8352306418
21
133.3835218457
31
0.0000000000
11
185.9287831007
21
132.4365963239
31
0.0000000000
11
185.9866370380
21
131.3850509637
31
0.0000000000
11
186.0062079159
21
130.2803391793
31
0.0000000000
0
SPLINE
5
308
100
AcDbEntity
8
0
100
AcDbSpline
62
7
6
CONTINUOUS
70
0
71
3
72
15
73
11
74
9
42
0.0000001000
43
0.0000001000
44
0.0000000001
40
0.0000000000
40
0.0000000000
40
0.0000000000
40
0.0000000000
40
0.1127438538
40
0.2294935812
40
0.3499669922
40
0.4731563956
40
0.5979351421
40
0.7259967537
40
0.8592180098
40
1.0000000000
40
1.0000000000
40
1.0000000000
40
1.0000000000
10
182.0872690605
20
182.8326603148
30
0.0000000000
10
182.0872690605
20
182.7170586958
30
0.0000000000
10
182.1176541916
20
182.4809460569
30
0.0000000000
10
182.2419732337
20
182.1421448977
30
0.0000000000
10
182.4224643581
20
181.8185555482
30
0.0000000000
10
182.6389819576
20
181.5085294591
30
0.0000000000
10
182.8789148135
20
181.2065441397
30
0.0000000000
10
183.1362215820
20
180.9056762824
30
0.0000000000
10
183.4098920361
20
180.5973504392
30
0.0000000000
10
183.5974164043
20
180.3881460406
30
0.0000000000
10
183.6934098050
20
180.2803391793
30
0.0000000000
11
182.0872690605
21
182.8326603148
31
0.0000000000
11
182.1294659040
21
182.4884321416
31
0.0000000000
11
182.2490141105
21
182.1497870537
31
0.0000000000
11
182.4262785055
21
181.8243522135
31
0.0000000000
11
182.6411331088
21
181.5122146690
31
0.0000000000
11
182.8785703680
21
181.2106438733
31
0.0000000000
11
183.1336721851
21
180.9104800255
31
0.0000000000
11
183.4049870022
21
180.6033651191
31
0.0000000000
11
183.6934098050
21
180.2803391793
31
0.0000000000
0
SPLINE
5
309
100
AcDbEntity
8
0
100
AcDbSpline
62
7
6
CONTINUOUS
70
0
71
3
72
12
73
8
74
6
42
0.0000001000
43
0.0000001000
44
0.0000000001
40
0.0000000000
40
0.0000000000
40
0.0000000000
40
0.0000000000
40
0.2091363701
40
0.4138018072
40
0.6144925041
40
0.8098430916
40
1.0000000000
40
1.0000000000
40
1.0000000000
40
1.0000000000
10
186.8670961112
20
181.0970558076
30
0.0000000000
10
186.8160717335
20
180.9918920808
30
0.0000000000
10
186.6867264655
20
180.7964435803
30
0.0000000000
10
186.4302817135
20
180.5634286430
30
0.0000000000
10
186.1347611243
20
180.3982993371
30
0.0000000000
10
185.8194243273
20
180.3016407815
30
0.0000000000
10
185.6033810836
20
180.2803805593
30
0.0000000000
10
185.4971004996
20
180.2803805593
30
0.0000000000
11
186.8670961112
21
181.0970558076
31
0.0000000000
11
186.6742570975
21
180.8041749722
31
0.0000000000
11
186.4209112629
21
180.5727001367
31
0.0000000000
11
186.1274578784
21
180.4080183237
31
0.0000000000
11
185.8144054280
21
180.3116478770
31
0.0000000000
11
185.4971004996
21
180.2803805593
31
0.0000000000
0
SPLINE
5
30A
100
AcDbEntity
8
0
100
AcDbSpline
62
7
6
CONTINUOUS
70
0
71
3
72
15
73
11
74
9
42
0.0000001000
43
0.0000001000
44
0.0000000001
40
0.0000000000
40
0.0000000000
40
0.0000000000
40
0.0000000000
40
0.1423795105
40
0.2777822271
40
0.4077244510
40
0.5332862815
40
0.6555578771
40
0.7739380564
40
0.8885315897
40
1.0000000000
40
1.0000000000
40
1.0000000000
40
1.0000000000
10
172.7351616236
20
180.2803391793
30
0.0000000000
10
172.8322457664
20
180.3893710153
30
0.0000000000
10
173.0223677020
20
180.6014562762
30
0.0000000000
10
173.2998425389
20
180.9141738280
30
0.0000000000
10
173.5601083606
20
181.2190611098
30
0.0000000000
10
173.8004766579
20
181.5230067900
30
0.0000000000
10
174.0144823949
20
181.8320205636
30
0.0000000000
10
174.1907970340
20
182.1518644574
30
0.0000000000
10
174.3117311590
20
182.4857892401
30
0.0000000000
10
174.3413023681
20
182.7183647506
30
0.0000000000
10
174.3413023681
20
182.8326603148
30
0.0000000000
11
172.7351616236
21
180.2803391793
31
0.0000000000
11
173.0268594422
21
180.6070375584
31
0.0000000000
11
173.3025398669
21
180.9192578288
31
0.0000000000
11
173.5610734944
21
181.2241044587
31
0.0000000000
11
173.7992686506
21
181.5281502852
31
0.0000000000
11
174.0112860080
21
181.8388166267
31
0.0000000000
11
174.1839413283
21
182.1594314075
31
0.0000000000
11
174.3000319302
21
182.4922663738
31
0.0000000000
11
174.3413023681
21
182.8326603148
31
0.0000000000
0
SPLINE
5
30B
100
AcDbEntity
8
0
100
AcDbSpline
62
7
6
CONTINUOUS
70
0
71
3
72
12
73
8
74
6
42
0.0000001000
43
0.0000001000
44
0.0000000001
40
0.0000000000
40
0.0000000000
40
0.0000000000
40
0.0000000000
40
0.1904042422
40
0.3857269683
40
0.5863369111
40
0.7909461953
40
1.0000000000
40
1.0000000000
40
1.0000000000
40
1.0000000000
10
169.4317312466
20
180.2803391793
30
0.0000000000
10
169.3252906274
20
180.2803391793
30
0.0000000000
10
169.1090662121
20
180.3014979938
30
0.0000000000
10
168.7936033520
20
180.3982755375
30
0.0000000000
10
168.4981196579
20
180.5634103256
30
0.0000000000
10
168.2417330242
20
180.7964138525
30
0.0000000000
10
168.1124160073
20
180.9918422050
30
0.0000000000
10
168.0614043675
20
181.0969874217
30
0.0000000000
11
169.4317312466
21
180.2803391793
31
0.0000000000
11
169.1139418453
21
180.3115857015
31
0.0000000000
11
168.8008799280
21
180.4079946143
31
0.0000000000
11
168.5075009341
21
180.5726730919
31
0.0000000000
11
168.2541911663
21
180.8041519967
31
0.0000000000
11
168.0614043675
21
181.0969874217
31
0.0000000000
0
SPLINE
5
30C
100
AcDbEntity
8
0
100
AcDbSpline
62
7
6
CONTINUOUS
70
0
71
3
72
24
73
20
74
18
42
0.0000001000
43
0.0000001000
44
0.0000000001
40
0.0000000000
40
0.0000000000
40
0.0000000000
40
0.0000000000
40
0.0371826559
40
0.0746614877
40
0.1121250944
40
0.1493216326
40
0.1863230321
40
0.2242820810
40
0.2647557000
40
0.3093884392
40
0.3593659877
40
0.4149918118
40
0.4761556082
40
0.5431134491
40
0.6166688305
40
0.6978925625
40
0.7878574969
40
0.8879327996
40
1.0000000000
40
1.0000000000
40
1.0000000000
40
1.0000000000
10
152.4318851506
20
130.2803391793
30
0.0000000000
10
152.4318851506
20
130.4226557879
30
0.0000000000
10
152.4386043384
20
130.7084679761
30
0.0000000000
10
152.4689347138
20
131.1367071201
30
0.0000000000
10
152.5195190958
20
131.5630916332
30
0.0000000000
10
152.5898634664
20
131.9848066146
30
0.0000000000
10
152.6803036099
20
132.4046123141
30
0.0000000000
10
152.7937516500
20
132.8317976111
30
0.0000000000
10
152.9371313070
20
133.2806932278
30
0.0000000000
10
153.1208013334
20
133.7642967283
30
0.0000000000
10
153.3568920489
20
134.2890437876
30
0.0000000000
10
153.6572867686
20
134.8528383601
30
0.0000000000
10
154.0332598977
20
135.4480298712
30
0.0000000000
10
154.4975207702
20
136.0658842343
30
0.0000000000
10
155.0663669468
20
136.6973778781
30
0.0000000000
10
155.7595507474
20
137.3298987346
30
0.0000000000
10
156.5994899349
20
137.9440982455
30
0.0000000000
10
157.6104761425
20
138.5112510339
30
0.0000000000
10
158.3684989264
20
138.8113422034
30
0.0000000000
10
158.7774992776
20
138.9405932172
30
0.0000000000
11
152.4318851506
21
130.2803391793
31
0.0000000000
11
152.4419202813
21
130.7071710548
31
0.0000000000
11
152.4723235161
21
131.1364464194
31
0.0000000000
11
152.5230025225
21
131.5636265846
31
0.0000000000
11
152.5932756233
21
131.9849150669
31
0.0000000000
11
152.6827536603
21
132.4002546445
31
0.0000000000
11
152.7946288975
21
132.8215170552
31
0.0000000000
11
152.9360313709
21
133.2642212849
31
0.0000000000
11
153.1179935321
21
133.7433259813
31
0.0000000000
11
153.3534516840
21
134.2666642952
31
0.0000000000
11
153.6537986140
21
134.8303658327
31
0.0000000000
11
154.0288753357
21
135.4241346131
31
0.0000000000
11
154.4907377743
21
136.0387916046
31
0.0000000000
11
155.0560231030
21
136.6663272817
31
0.0000000000
11
155.7449715216
21
137.2949677329
31
0.0000000000
11
156.5788339819
21
137.9047287416
31
0.0000000000
11
157.5810497006
21
138.4668924504
31
0.0000000000
11
158.7774992776
21
138.9405932172
31
0.0000000000
0
SPLINE
5
30D
100
AcDbEntity
8
0
100
AcDbSpline
62
7
6
CONTINUOUS
70
0
71
3
72
11
73
7
74
5
42
0.0000001000
43
0.0000001000
44
0.0000000001
40
0.0000000000
40
0.0000000000
40
0.0000000000
40
0.0000000000
40
0.2206062656
40
0.4661828837
40
0.7285429460
40
1.0000000000
40
1.0000000000
40
1.0000000000
40
1.0000000000
10
158.7774992776
20
138.9405932172
30
0.0000000000
10
158.9611872913
20
139.0373407379
30
0.0000000000
10
159.3672197010
20
139.2084681595
30
0.0000000000
10
160.0299137743
20
139.3901225353
30
0.0000000000
10
160.7560717738
20
139.5030034794
30
0.0000000000
10
161.2588222356
20
139.5283513379
30
0.0000000000
10
161.5142857143
20
139.5283513379
30
0.0000000000
11
158.7774992776
21
138.9405932172
31
0.0000000000
11
159.3495053774
21
139.1870102300
31
0.0000000000
11
160.0172689096
21
139.3735294680
31
0.0000000000
11
160.7488993658
21
139.4891335088
31
0.0000000000
11
161.5142857143
21
139.5283513379
31
0.0000000000
0
SPLINE
5
30E
100
AcDbEntity
8
0
100
AcDbSpline
62
7
6
CONTINUOUS
70
0
71
3
72
9
73
5
74
3
42
0.0000001000
43
0.0000001000
44
0.0000000001
40
0.0000000000
40
0.0000000000
40
0.0000000000
40
0.0000000000
40
0.4534943658
40
1.0000000000
40
1.0000000000
40
1.0000000000
40
1.0000000000
10
186.9822955406
20
181.1624719197
30
0.0000000000
10
186.9722704156
20
181.1445044145
30
0.0000000000
10
186.9366506245
20
181.1121416598
30
0.0000000000
10
186.8916212658
20
181.1007040887
30
0.0000000000
10
186.8670961112
20
181.0970558076
30
0.0000000000
11
186.9822955406
21
181.1624719197
31
0.0000000000
11
186.9380285217
21
181.1194551741
31
0.0000000000
11
186.8670961112
21
181.0970558076
31
0.0000000000
0
SPLINE
5
30F
100
AcDbEntity
8
0
100
AcDbSpline
62
7
6
CONTINUOUS
70
0
71
3
72
11
73
7
74
5
42
0.0000001000
43
0.0000001000
44
0.0000000001
40
0.0000000000
40
0.0000000000
40
0.0000000000
40
0.0000000000
40
0.1434477377
40
0.3498524389
40
0.6335409780
40
1.0000000000
40
1.0000000000
40
1.0000000000
40
1.0000000000
10
184.2501840991
20
183.9915112099
30
0.0000000000
10
184.2501840991
20
183.9226165250
30
0.0000000000
10
184.3002686546
20
183.7567278606
30
0.0000000000
10
184.4591448699
20
183.4967820159
30
0.0000000000
10
184.7206483510
20
183.1775932109
30
0.0000000000
10
184.9396969849
20
182.9548016587
30
0.0000000000
10
185.0664178274
20
182.8326603148
30
0.0000000000
11
184.2501840991
21
183.9915112099
31
0.0000000000
11
184.2975854309
21
183.7903361313
31
0.0000000000
11
184.4445035838
21
183.5317659991
31
0.0000000000
11
184.6992932758
21
183.2121463906
31
0.0000000000
11
185.0664178274
21
182.8326603148
31
0.0000000000
0
SPLINE
5
310
100
AcDbEntity
8
0
100
AcDbSpline
62
7
6
CONTINUOUS
70
0
71
3
72
11
73
7
74
5
42
0.0000001000
43
0.0000001000
44
0.0000000001
40
0.0000000000
40
0.0000000000
40
0.0000000000
40
0.0000000000
40
0.1434477377
40
0.3498524389
40
0.6335409780
40
1.0000000000
40
1.0000000000
40
1.0000000000
40
1.0000000000
10
170.6783873294
20
183.9915112099
30
0.0000000000
10
170.6783873294
20
183.9226165250
30
0.0000000000
10
170.6283027739
20
183.7567278606
30
0.0000000000
10
170.4694265586
20
183.4967820159
30
0.0000000000
10
170.2079230776
20
183.1775932109
30
0.0000000000
10
169.9888744436
20
182.9548016587
30
0.0000000000
10
169.8621536011
20
182.8326603148
30
0.0000000000
11
170.6783873294
21
183.9915112099
31
0.0000000000
11
170.6309859977
21
183.7903361313
31
0.0000000000
11
170.4840678447
21
183.5317659991
31
0.0000000000
11
170.2292781528
21
183.2121463906
31
0.0000000000
11
169.8621536011
21
182.8326603148
31
0.0000000000
0
SPLINE
5
311
100
AcDbEntity
8
0
100
AcDbSpline
62
7
6
CONTINUOUS
70
0
71
3
72
9
73
5
74
3
42
0.0000001000
43
0.0000001000
44
0.0000000001
40
0.0000000000
40
0.0000000000
40
0.0000000000
40
0.0000000000
40
0.5470895147
40
1.0000000000
40
1.0000000000
40
1.0000000000
40
1.0000000000
10
168.0614043675
20
181.0969874217
30
0.0000000000
10
168.0368793731
20
181.1006359368
30
0.0000000000
10
167.9918845614
20
181.1120447466
30
0.0000000000
10
167.9563306254
20
181.1443977071
30
0.0000000000
10
167.9463291435
20
181.1623228381
30
0.0000000000
11
168.0614043675
21
181.0969874217
31
0.0000000000
11
167.9904727133
21
181.1193879469
31
0.0000000000
11
167.9463291435
21
181.1623228381
31
0.0000000000
0
SPLINE
5
312
100
AcDbEntity
8
0
100
AcDbSpline
62
7
6
CONTINUOUS
70
0
71
3
72
9
73
5
74
3
42
0.0000001000
43
0.0000001000
44
0.0000000001
40
0.0000000000
40
0.0000000000
40
0.0000000000
40
0.0000000000
40
0.5077692094
40
1.0000000000
40
1.0000000000
40
1.0000000000
40
1.0000000000
10
161.5142857143
20
135.7547588851
30
0.0000000000
10
161.2931609934
20
135.7547588851
30
0.0000000000
10
160.8574650448
20
135.7738048414
30
0.0000000000
10
160.4251241258
20
135.8315712753
30
0.0000000000
10
160.2142857143
20
135.8702561531
30
0.0000000000
11
161.5142857143
21
135.7547588851
31
0.0000000000
11
160.8515600445
21
135.7840840695
31
0.0000000000
11
160.2142857143
21
135.8702561531
31
0.0000000000
0
SPLINE
5
313
100
AcDbEntity
8
0
100
AcDbSpline
62
7
6
CONTINUOUS
70
0
71
3
72
9
73
5
74
3
42
0.0000001000
43
0.0000001000
44
0.0000000001
40
0.0000000000
40
0.0000000000
40
0.0000000000
40
0.0000000000
40
0.4992086126
40
1.0000000000
40
1.0000000000
40
1.0000000000
40
1.0000000000
10
160.2142857143
20
133.8229370961
30
0.0000000000
10
160.4213484605
20
133.8989213247
30
0.0000000000
10
160.8503292094
20
134.0149186811
30
0.0000000000
10
161.2930221606
20
134.0539316321
30
0.0000000000
10
161.5142857143
20
134.0539316321
30
0.0000000000
11
160.2142857143
21
133.8229370961
31
0.0000000000
11
160.8530674370
21
133.9955498584
31
0.0000000000
11
161.5142857143
21
134.0539316321
31
0.0000000000
0
SPLINE
5
314
100
AcDbEntity
8
0
100
AcDbSpline
62
7
6
CONTINUOUS
70
0
71
3
72
9
73
5
74
3
42
0.0000001000
43
0.0000001000
44
0.0000000001
40
0.0000000000
40
0.0000000000
40
0.0000000000
40
0.0000000000
40
0.5007913874
40
1.0000000000
40
1.0000000000
40
1.0000000000
40
1.0000000000
10
161.5142857143
20
126.5067467265
30
0.0000000000
10
161.2930221606
20
126.5067467265
30
0.0000000000
10
160.8503292094
20
126.5457596775
30
0.0000000000
10
160.4213484605
20
126.6617570339
30
0.0000000000
10
160.2142857143
20
126.7377412625
30
0.0000000000
11
161.5142857143
21
126.5067467265
31
0.0000000000
11
160.8530674370
21
126.5651285003
31
0.0000000000
11
160.2142857143
21
126.7377412625
31
0.0000000000
0
SPLINE
5
315
100
AcDbEntity
8
0
100
AcDbSpline
62
7
6
CONTINUOUS
70
0
71
3
72
9
73
5
74
3
42
0.0000001000
43
0.0000001000
44
0.0000000001
40
0.0000000000
40
0.0000000000
40
0.0000000000
40
0.0000000000
40
0.4922307906
40
1.0000000000
40
1.0000000000
40
1.0000000000
40
1.0000000000
10
160.2142857143
20
124.6904222055
30
0.0000000000
10
160.4251241258
20
124.7291070833
30
0.0000000000
10
160.8574650448
20
124.7868735172
30
0.0000000000
10
161.2931609934
20
124.8059194736
30
0.0000000000
10
161.5142857143
20
124.8059194736
30
0.0000000000
11
160.2142857143
21
124.6904222055
31
0.0000000000
11
160.8515600445
21
124.7765942891
31
0.0000000000
11
161.5142857143
21
124.8059194736
31
0.0000000000
0
SPLINE
5
316
100
AcDbEntity
8
0
100
AcDbSpline
62
7
6
CONTINUOUS
70
0
71
3
72
10
73
6
74
4
42
0.0000001000
43
0.0000001000
44
0.0000000001
40
0.0000000000
40
0.0000000000
40
0.0000000000
40
0.0000000000
40
0.3598339613
40
0.6932542283
40
1.0000000000
40
1.0000000000
40
1.0000000000
40
1.0000000000
10
194.2391825368
20
126.4363511124
30
0.0000000000
10
194.6909803445
20
126.6100110830
30
0.0000000000
10
195.5554866467
20
126.9607309825
30
0.0000000000
10
196.7737783859
20
127.5323061909
30
0.0000000000
10
197.5240050329
20
127.9589218352
30
0.0000000000
10
197.8680179715
20
128.1867480452
30
0.0000000000
11
194.2391825368
21
126.4363511124
31
0.0000000000
11
195.5830583958
21
126.9863593625
31
0.0000000000
11
196.7982238285
21
127.5640220649
31
0.0000000000
11
197.8680179715
21
128.1867480452
31
0.0000000000
0
SPLINE
5
317
100
AcDbEntity
8
0
100
AcDbSpline
62
7
6
CONTINUOUS
70
0
71
3
72
14
73
10
74
8
42
0.0000001000
43
0.0000001000
44
0.0000000001
40
0.0000000000
40
0.0000000000
40
0.0000000000
40
0.0000000000
40
0.2140486343
40
0.4180704438
40
0.6024086460
40
0.7582306941
40
0.8781939021
40
0.9577018843
40
1.0000000000
40
1.0000000000
40
1.0000000000
40
1.0000000000
10
186.0062079159
20
130.2803391793
30
0.0000000000
10
186.0062079159
20
129.9120416662
30
0.0000000000
10
185.9936581421
20
129.1925771946
30
0.0000000000
10
185.9386337582
20
128.1575207557
30
0.0000000000
10
185.8480396074
20
127.2244106671
30
0.0000000000
10
185.7343056415
20
126.4429906080
30
0.0000000000
10
185.5853650286
20
125.8415784629
30
0.0000000000
10
185.4557659687
20
125.4617192413
30
0.0000000000
10
185.2870649258
20
125.2803391793
30
0.0000000000
10
185.2142857143
20
125.2803391793
30
0.0000000000
11
186.0062079159
21
130.2803391793
31
0.0000000000
11
185.9866367722
21
129.1756199871
31
0.0000000000
11
185.9287825676
21
128.1240749924
31
0.0000000000
11
185.8352303401
21
127.1771541064
31
0.0000000000
11
185.7102968332
21
126.3825819044
31
0.0000000000
11
185.5599764272
21
125.7818689649
31
0.0000000000
11
185.3917607169
21
125.4075160092
31
0.0000000000
11
185.2142857143
21
125.2803391793
31
0.0000000000
0
SPLINE
5
318
100
AcDbEntity
8
0
100
AcDbSpline
62
7
6
CONTINUOUS
70
0
71
3
72
10
73
6
74
4
42
0.0000001000
43
0.0000001000
44
0.0000000001
40
0.0000000000
40
0.0000000000
40
0.0000000000
40
0.0000000000
40
0.3215935119
40
0.6551171077
40
1.0000000000
40
1.0000000000
40
1.0000000000
40
1.0000000000
10
172.9227830922
20
178.7803391793
30
0.0000000000
10
172.9227830922
20
178.9427280211
30
0.0000000000
10
172.9086153509
20
179.2736959752
30
0.0000000000
10
172.8448408330
20
179.7751164749
30
0.0000000000
10
172.7756791371
20
180.1109693307
30
0.0000000000
10
172.7351616236
20
180.2803391793
30
0.0000000000
11
172.9227830922
21
178.7803391793
31
0.0000000000
11
172.9022194719
21
179.2670715091
31
0.0000000000
11
172.8393060971
21
179.7683779899
31
0.0000000000
11
172.7351616236
21
180.2803391793
31
0.0000000000
0
SPLINE
5
319
100
AcDbEntity
8
0
100
AcDbSpline
62
7
6
CONTINUOUS
70
0
71
3
72
11
73
7
74
5
42
0.0000001000
43
0.0000001000
44
0.0000000001
40
0.0000000000
40
0.0000000000
40
0.0000000000
40
0.0000000000
40
0.2714570540
40
0.5338171163
40
0.7793937344
40
1.0000000000
40
1.0000000000
40
1.0000000000
40
1.0000000000
10
161.5142857143
20
121.0323270207
30
0.0000000000
10
161.2588222356
20
121.0323270207
30
0.0000000000
10
160.7560717738
20
121.0576748792
30
0.0000000000
10
160.0299137743
20
121.1705558233
30
0.0000000000
10
159.3672197010
20
121.3522101991
30
0.0000000000
10
158.9611872913
20
121.5233376207
30
0.0000000000
10
158.7774992776
20
121.6200851415
30
0.0000000000
11
161.5142857143
21
121.0323270207
31
0.0000000000
11
160.7488993658
21
121.0715448498
31
0.0000000000
11
160.0172689096
21
121.1871488906
31
0.0000000000
11
159.3495053774
21
121.3736681286
31
0.0000000000
11
158.7774992776
21
121.6200851415
31
0.0000000000
0
SPLINE
5
31A
100
AcDbEntity
8
0
100
AcDbSpline
62
7
6
CONTINUOUS
70
0
71
3
72
24
73
20
74
18
42
0.0000001000
43
0.0000001000
44
0.0000000001
40
0.0000000000
40
0.0000000000
40
0.0000000000
40
0.0000000000
40
0.1119693190
40
0.2119665204
40
0.3018700640
40
0.3830440501
40
0.4565593994
40
0.5234878840
40
0.5846338605
40
0.6402500877
40
0.6902155156
40
0.7348236579
40
0.7752672701
40
0.8132147998
40
0.8502465329
40
0.8875302196
40
0.9251231886
40
0.9627294111
40
1.0000000000
40
1.0000000000
40
1.0000000000
40
1.0000000000
10
158.7774992776
20
121.6200851415
30
0.0000000000
10
158.3688559270
20
121.7492233370
30
0.0000000000
10
157.6114483637
20
122.0490167018
30
0.0000000000
10
156.6011615090
20
122.6155466527
30
0.0000000000
10
155.7616497447
20
123.2290965267
30
0.0000000000
10
155.0686853529
20
123.8609956647
30
0.0000000000
10
154.4999000603
20
124.4919283062
30
0.0000000000
10
154.0355730347
20
125.1093143777
30
0.0000000000
10
153.6594409793
20
125.7041481127
30
0.0000000000
10
153.3588470310
20
126.2676650486
30
0.0000000000
10
153.1225702337
20
126.7921339547
30
0.0000000000
10
152.9387412592
20
127.2754036636
30
0.0000000000
10
152.7951914265
20
127.7239789964
30
0.0000000000
10
152.6815077673
20
128.1510574422
30
0.0000000000
10
152.5907445024
20
128.5712089897
30
0.0000000000
10
152.5200369076
20
128.9938225305
30
0.0000000000
10
152.4691457629
20
129.4214980307
30
0.0000000000
10
152.4386396694
20
129.8510491100
30
0.0000000000
10
152.4318851506
20
130.1376859279
30
0.0000000000
10
152.4318851506
20
130.2803391793
30
0.0000000000
11
158.7774992776
21
121.6200851415
31
0.0000000000
11
157.5820646986
21
122.0932983291
31
0.0000000000
11
156.5805331818
21
122.6548499525
31
0.0000000000
11
155.7470798448
21
123.2639771263
31
0.0000000000
11
155.0583444613
21
123.8920042994
31
0.0000000000
11
154.4931226938
21
124.5189791108
31
0.0000000000
11
154.0311967488
21
125.1331671854
31
0.0000000000
11
153.6559546531
21
125.7265898524
31
0.0000000000
11
153.3553890421
21
126.2900503310
31
0.0000000000
11
153.1197297349
21
126.8131458029
31
0.0000000000
11
152.9376204086
21
127.2918927210
31
0.0000000000
11
152.7960789221
21
127.7341910436
31
0.0000000000
11
152.6839944602
21
128.1552612117
31
0.0000000000
11
152.5942080076
21
128.5708908161
31
0.0000000000
11
152.5235628562
21
128.9931319351
31
0.0000000000
11
152.4725570152
21
129.4217693610
31
0.0000000000
11
152.4419678126
21
129.8524982146
31
0.0000000000
11
152.4318851506
21
130.2803391793
31
0.0000000000
0
SPLINE
5
31B
100
AcDbEntity
8
0
100
AcDbSpline
62
7
6
CONTINUOUS
70
0
71
3
72
17
73
13
74
11
42
0.0000001000
43
0.0000001000
44
0.0000000001
40
0.0000000000
40
0.0000000000
40
0.0000000000
40
0.0000000000
40
0.1382992782
40
0.2604227854
40
0.3683818654
40
0.4654008201
40
0.5555068826
40
0.6428847653
40
0.7311194820
40
0.8206431723
40
0.9113528916
40
1.0000000000
40
1.0000000000
40
1.0000000000
40
1.0000000000
10
175.8142857143
20
175.2156814378
30
0.0000000000
10
175.6378275540
20
175.2769491330
30
0.0000000000
10
175.3099407653
20
175.4055149486
30
0.0000000000
10
174.8616961211
20
175.6224387842
30
0.0000000000
10
174.4784734530
20
175.8429845628
30
0.0000000000
10
174.1471541658
20
176.0650418846
30
0.0000000000
10
173.8537815042
20
176.2922301123
30
0.0000000000
10
173.5868032473
20
176.5326223942
30
0.0000000000
10
173.3424640635
20
176.7952260416
30
0.0000000000
10
173.1277743078
20
177.0888579402
30
0.0000000000
10
172.9662383906
20
177.4172261063
30
0.0000000000
10
172.9227830922
20
177.6606092591
30
0.0000000000
10
172.9227830922
20
177.7803391793
30
0.0000000000
11
175.8142857143
21
175.2156814378
31
0.0000000000
11
175.2926785083
21
175.4204907101
31
0.0000000000
11
174.8473922998
21
175.6363144269
31
0.0000000000
11
174.4684296825
21
175.8548118820
31
0.0000000000
11
174.1421114255
21
176.0740222849
31
0.0000000000
11
173.8537935576
21
176.2980128439
31
0.0000000000
11
173.5912804424
21
176.5355757334
31
0.0000000000
11
173.3489898049
21
176.7984729204
31
0.0000000000
11
173.1375678439
21
177.0932308119
31
0.0000000000
11
172.9814453885
21
177.4259721109
31
0.0000000000
11
172.9227830922
21
177.7803391793
31
0.0000000000
0
SPLINE
5
31C
100
AcDbEntity
8
0
100
AcDbSpline
62
7
6
CONTINUOUS
70
0
71
3
72
18
73
14
74
12
42
0.0000001000
43
0.0000001000
44
0.0000000001
40
0.0000000000
40
0.0000000000
40
0.0000000000
40
0.0000000000
40
0.0254391157
40
0.0604338717
40
0.1104744081
40
0.1768902104
40
0.2595560744
40
0.3564634216
40
0.4659251853
40
0.5861873629
40
0.7162057949
40
0.8545010162
40
1.0000000000
40
1.0000000000
40
1.0000000000
40
1.0000000000
10
199.2142857143
20
121.7395323247
30
0.0000000000
10
199.1575705971
20
121.7305495326
30
0.0000000000
10
199.0139965552
20
121.7740859612
30
0.0000000000
10
198.8529543555
20
121.9721573897
30
0.0000000000
10
198.6968798849
20
122.2765437486
30
0.0000000000
10
198.5482698249
20
122.7021865806
30
0.0000000000
10
198.4076571590
20
123.2394990323
30
0.0000000000
10
198.2788423154
20
123.8794253333
30
0.0000000000
10
198.1637979710
20
124.6078166513
30
0.0000000000
10
198.0638789917
20
125.4138013272
30
0.0000000000
10
197.9800591032
20
126.2869882001
30
0.0000000000
10
197.9131626603
20
127.2187402214
30
0.0000000000
10
197.8811593827
20
127.8585855776
30
0.0000000000
10
197.8680179715
20
128.1867480452
30
0.0000000000
11
199.2142857143
21
121.7395323247
31
0.0000000000
11
199.0465282579
21
121.7786870360
31
0.0000000000
11
198.8810394789
21
121.9483049869
31
0.0000000000
11
198.7198659645
21
122.2463806344
31
0.0000000000
11
198.5655668501
21
122.6688322369
31
0.0000000000
11
198.4205909015
21
123.2095222563
31
0.0000000000
11
198.2886903450
21
123.8523578694
31
0.0000000000
11
198.1714858678
21
124.5842760752
31
0.0000000000
11
198.0701739746
21
125.3923299297
31
0.0000000000
11
197.9852499607
21
126.2686713690
31
0.0000000000
11
197.9176219890
21
127.2027210343
31
0.0000000000
11
197.8680179715
21
128.1867480452
31
0.0000000000
0
SPLINE
5
31D
100
AcDbEntity
8
0
100
AcDbSpline
62
7
6
CONTINUOUS
70
0
71
3
72
19
73
15
74
13
42
0.0000001000
43
0.0000001000
44
0.0000000001
40
0.0000000000
40
0.0000000000
40
0.0000000000
40
0.0000000000
40
0.1391468303
40
0.2648850082
40
0.3784195579
40
0.4806693168
40
0.5724910141
40
0.6546596848
40
0.7279318554
40
0.7931107980
40
0.8511411736
40
0.9032996059
40
0.9508401092
40
1.0000000000
40
1.0000000000
40
1.0000000000
40
1.0000000000
10
193.0532779008
20
130.2803391782
30
0.0000000000
10
193.0532779008
20
130.0727739182
30
0.0000000000
10
193.0551980268
20
129.6776407432
30
0.0000000000
10
193.0652417945
20
129.1132186928
30
0.0000000000
10
193.0850193690
20
128.6040964041
30
0.0000000000
10
193.1179630396
20
128.1463040982
30
0.0000000000
10
193.1675888767
20
127.7370064197
30
0.0000000000
10
193.2374444204
20
127.3744243739
30
0.0000000000
10
193.3312987859
20
127.0582369990
30
0.0000000000
10
193.4536259853
20
126.7904217251
30
0.0000000000
10
193.6094677700
20
126.5771921494
30
0.0000000000
10
193.8024329339
20
126.4336480592
30
0.0000000000
10
194.0248628844
20
126.3808614246
30
0.0000000000
10
194.1707331351
20
126.4100408450
30
0.0000000000
10
194.2391825368
20
126.4363511124
30
0.0000000000
11
193.0532779008
21
130.2803391782
31
0.0000000000
11
193.0567054117
21
129.6576528314
31
0.0000000000
11
193.0676383988
21
129.0950683152
31
0.0000000000
11
193.0886111035
21
128.5874230607
31
0.0000000000
11
193.1229882919
21
128.1311384946
31
0.0000000000
11
193.1743078059
21
127.7234446426
31
0.0000000000
11
193.2461646431
21
127.3628210553
31
0.0000000000
11
193.3423877946
21
127.0493571234
31
0.0000000000
11
193.4672507126
21
126.7857518258
31
0.0000000000
11
193.6249159587
21
126.5793991579
31
0.0000000000
11
193.8154729338
21
126.4446022993
31
0.0000000000
11
194.0227760086
21
126.3967762286
31
0.0000000000
11
194.2391825368
21
126.4363511124
31
0.0000000000
0
SPLINE
5
31E
100
AcDbEntity
8
0
100
AcDbSpline
62
7
6
CONTINUOUS
70
0
71
3
72
17
73
13
74
11
42
0.0000001000
43
0.0000001000
44
0.0000000001
40
0.0000000000
40
0.0000000000
40
0.0000000000
40
0.0000000000
40
0.0891620151
40
0.1805150773
40
0.2706356372
40
0.3593334194
40
0.4469248598
40
0.5370122996
40
0.6336552967
40
0.7408666156
40
0.8620996271
40
1.0000000000
40
1.0000000000
40
1.0000000000
40
1.0000000000
10
183.5057883364
20
177.7803391793
30
0.0000000000
10
183.5057883364
20
177.6599147007
30
0.0000000000
10
183.4617766767
20
177.4149600871
30
0.0000000000
10
183.2984359441
20
177.0848056394
30
0.0000000000
10
183.0816878270
20
176.7898271580
30
0.0000000000
10
182.8355746217
20
176.5265270342
30
0.0000000000
10
182.5674305325
20
176.2861084714
30
0.0000000000
10
182.2738298129
20
176.0596234973
30
0.0000000000
10
181.9434588925
20
175.8389372748
30
0.0000000000
10
181.5623720928
20
175.6201569927
30
0.0000000000
10
181.1165070753
20
175.4046622917
30
0.0000000000
10
180.7902336008
20
175.2767719618
30
0.0000000000
10
180.6142857143
20
175.2156814378
30
0.0000000000
11
183.5057883364
21
177.7803391793
31
0.0000000000
11
183.4464682646
21
177.4239691126
31
0.0000000000
11
183.2885537387
21
177.0891931009
31
0.0000000000
11
183.0750255979
21
176.7929742349
31
0.0000000000
11
182.8308565137
21
176.5292615671
31
0.0000000000
11
182.5671949524
21
176.2916832659
31
0.0000000000
11
182.2785141053
21
176.0682884075
31
0.0000000000
11
181.9531228350
21
175.8504359711
31
0.0000000000
11
181.5765548079
21
175.6338581709
31
0.0000000000
11
181.1344084500
21
175.4198375982
31
0.0000000000
11
180.6142857143
21
175.2156814378
31
0.0000000000
0
SPLINE
5
31F
100
AcDbEntity
8
0
100
AcDbSpline
62
7
6
CONTINUOUS
70
0
71
3
72
10
73
6
74
4
42
0.0000001000
43
0.0000001000
44
0.0000000001
40
0.0000000000
40
0.0000000000
40
0.0000000000
40
0.0000000000
40
0.3448828923
40
0.6784064881
40
1.0000000000
40
1.0000000000
40
1.0000000000
40
1.0000000000
10
183.6934098050
20
180.2803391793
30
0.0000000000
10
183.6528922914
20
180.1109693307
30
0.0000000000
10
183.5837305955
20
179.7751164749
30
0.0000000000
10
183.5199560776
20
179.2736959752
30
0.0000000000
10
183.5057883364
20
178.9427280211
30
0.0000000000
10
183.5057883364
20
178.7803391793
30
0.0000000000
11
183.6934098050
21
180.2803391793
31
0.0000000000
11
183.5892653314
21
179.7683779899
31
0.0000000000
11
183.5263519567
21
179.2670715091
31
0.0000000000
11
183.5057883364
21
178.7803391793
31
0.0000000000
0
SPLINE
5
320
100
AcDbEntity
8
0
100
AcDbSpline
62
7
6
CONTINUOUS
70
0
71
3
72
10
73
6
74
4
42
0.0000001000
43
0.0000001000
44
0.0000000001
40
0.0000000000
40
0.0000000000
40
0.0000000000
40
0.0000000000
40
0.2641908399
40
0.5648886452
40
1.0000000000
40
1.0000000000
40
1.0000000000
40
1.0000000000
10
167.2142857143
20
182.2803391793
30
0.0000000000
10
167.2302129520
20
182.2895347743
30
0.0000000000
10
167.2732883273
20
182.2984926235
30
0.0000000000
10
167.3334401772
20
182.2543804580
30
0.0000000000
10
167.3610241831
20
182.2113341919
30
0.0000000000
10
167.3757826253
20
182.1848834107
30
0.0000000000
11
167.2142857143
21
182.2803391793
31
0.0000000000
11
167.2685148665
21
182.2905039156
31
0.0000000000
11
167.3225699278
21
182.2585414573
31
0.0000000000
11
167.3757826253
21
182.1848834107
31
0.0000000000
0
SPLINE
5
321
100
AcDbEntity
8
0
100
AcDbSpline
62
7
6
CONTINUOUS
70
0
71
3
72
10
73
6
74
4
42
0.0000001000
43
0.0000001000
44
0.0000000001
40
0.0000000000
40
0.0000000000
40
0.0000000000
40
0.0000000000
40
0.2641908399
40
0.5648886452
40
1.0000000000
40
1.0000000000
40
1.0000000000
40
1.0000000000
10
187.7142857143
20
182.2803391793
30
0.0000000000
10
187.6983584766
20
182.2895347743
30
0.0000000000
10
187.6552831012
20
182.2984926235
30
0.0000000000
10
187.5951312514
20
182.2543804580
30
0.0000000000
10
187.5675472455
20
182.2113341919
30
0.0000000000
10
187.5527888033
20
182.1848834107
30
0.0000000000
11
187.7142857143
21
182.2803391793
31
0.0000000000
11
187.6600565621
21
182.2905039156
31
0.0000000000
11
187.6060015008
21
182.2585414573
31
0.0000000000
11
187.5527888033
21
182.1848834107
31
0.0000000000
0
SPLINE
5
322
100
AcDbEntity
8
0
100
AcDbSpline
62
7
6
CONTINUOUS
70
0
71
3
72
10
73
6
74
4
42
0.0000001000
43
0.0000001000
44
0.0000000001
40
0.0000000000
40
0.0000000000
40
0.0000000000
40
0.0000000000
40
0.2025572085
40
0.5483172305
40
1.0000000000
40
1.0000000000
40
1.0000000000
40
1.0000000000
10
198.0344091344
20
138.4827914615
30
0.0000000000
10
198.0016667124
20
138.4508704038
30
0.0000000000
10
197.9546107825
20
138.3301980763
30
0.0000000000
10
197.9032236493
20
138.1132601681
30
0.0000000000
10
197.8791037359
20
137.9335994533
30
0.0000000000
10
197.8680179715
20
137.8322356138
30
0.0000000000
11
198.0344091344
21
138.4827914615
31
0.0000000000
11
197.9694767264
21
138.3619487393
31
0.0000000000
11
197.9118360383
21
138.1349858016
31
0.0000000000
11
197.8680179715
21
137.8322356138
31
0.0000000000
0
SPLINE
5
323
100
AcDbEntity
8
0
100
AcDbSpline
62
7
6
CONTINUOUS
70
0
71
3
72
16
73
12
74
10
42
0.0000001000
43
0.0000001000
44
0.0000000001
40
0.0000000000
40
0.0000000000
40
0.0000000000
40
0.0000000000
40
0.0803888176
40
0.1665324239
40
0.2570955204
40
0.3531434813
40
0.4569931039
40
0.5711409558
40
0.6980523331
40
0.8401845938
40
1.0000000000
40
1.0000000000
40
1.0000000000
40
1.0000000000
10
197.8680179715
20
137.8322356138
30
0.0000000000
10
197.7723663169
20
137.8547400664
30
0.0000000000
10
197.5736051172
20
137.8987884649
30
0.0000000000
10
197.2653543521
20
137.9600603486
30
0.0000000000
10
196.9371406012
20
138.0187547543
30
0.0000000000
10
196.5866019256
20
138.0752407738
30
0.0000000000
10
196.2066845709
20
138.1303169683
30
0.0000000000
10
195.7885743830
20
138.1845647961
30
0.0000000000
10
195.3232353382
20
138.2381194842
30
0.0000000000
10
194.8016421903
20
138.2906622713
30
0.0000000000
10
194.4339144919
20
138.3224689974
30
0.0000000000
10
194.2391825368
20
138.3380029752
30
0.0000000000
11
197.8680179715
21
137.8322356138
31
0.0000000000
11
197.5802623201
21
137.8962503767
31
0.0000000000
11
197.2704702815
21
137.9580356534
31
0.0000000000
11
196.9435865497
21
138.0166637693
31
0.0000000000
11
196.5958826913
21
138.0728424020
31
0.0000000000
11
196.2190201419
21
138.1276157129
31
0.0000000000
11
195.8039309035
21
138.1816102269
31
0.0000000000
11
195.3416080529
21
138.2349600156
31
0.0000000000
11
194.8230407924
21
138.2873464215
31
0.0000000000
11
194.2391825368
21
138.3380029752
31
0.0000000000
0
SPLINE
5
324
100
AcDbEntity
8
0
100
AcDbSpline
62
7
6
CONTINUOUS
70
0
71
3
72
14
73
10
74
8
42
0.0000001000
43
0.0000001000
44
0.0000000001
40
0.0000000000
40
0.0000000000
40
0.0000000000
40
0.0000000000
40
0.1154074469
40
0.2404408176
40
0.3657025789
40
0.4859707678
40
0.6209568812
40
0.7942918750
40
1.0000000000
40
1.0000000000
40
1.0000000000
40
1.0000000000
10
194.2391825368
20
138.3380029752
30
0.0000000000
10
194.1559812488
20
138.3446400315
30
0.0000000000
10
193.9817497653
20
138.3492772154
30
0.0000000000
10
193.7177233715
20
138.3266467469
30
0.0000000000
10
193.4555381995
20
138.2589357441
30
0.0000000000
10
193.2241527976
20
138.0904253018
30
0.0000000000
10
193.0989073933
20
137.7951036528
30
0.0000000000
10
193.0589005812
20
137.4247663530
30
0.0000000000
10
193.0532779008
20
137.1504868198
30
0.0000000000
10
193.0532779008
20
137.0017134896
30
0.0000000000
11
194.2391825368
21
138.3380029752
31
0.0000000000
11
193.9888725608
21
138.3445953626
31
0.0000000000
11
193.7187901122
21
138.3191131108
31
0.0000000000
11
193.4583602959
21
138.2414002485
31
0.0000000000
11
193.2510010616
21
138.0829912796
31
0.0000000000
11
193.1227844868
21
137.8196721936
31
0.0000000000
11
193.0664135792
21
137.4478401397
31
0.0000000000
11
193.0532779008
21
137.0017134896
31
0.0000000000
0
SPLINE
5
325
100
AcDbEntity
8
0
100
AcDbSpline
62
7
6
CONTINUOUS
70
0
71
3
72
14
73
10
74
8
42
0.0000001000
43
0.0000001000
44
0.0000000001
40
0.0000000000
40
0.0000000000
40
0.0000000000
40
0.0000000000
40
0.2140486343
40
0.4180704438
40
0.6024086460
40
0.7582306941
40
0.8781939021
40
0.9577018843
40
1.0000000000
40
1.0000000000
40
1.0000000000
40
1.0000000000
10
170.4223635127
20
130.2803391793
30
0.0000000000
10
170.4223635127
20
129.9120416662
30
0.0000000000
10
170.4349132864
20
129.1925771946
30
0.0000000000
10
170.4899376703
20
128.1575207557
30
0.0000000000
10
170.5805318212
20
127.2244106671
30
0.0000000000
10
170.6942657871
20
126.4429906080
30
0.0000000000
10
170.8432063999
20
125.8415784629
30
0.0000000000
10
170.9728054599
20
125.4617192413
30
0.0000000000
10
171.1415065028
20
125.2803391793
30
0.0000000000
10
171.2142857143
20
125.2803391793
30
0.0000000000
11
170.4223635127
21
130.2803391793
31
0.0000000000
11
170.4419346563
21
129.1756199871
31
0.0000000000
11
170.4997888610
21
128.1240749924
31
0.0000000000
11
170.5933410885
21
127.1771541064
31
0.0000000000
11
170.7182745954
21
126.3825819044
31
0.0000000000
11
170.8685950014
21
125.7818689649
31
0.0000000000
11
171.0368107117
21
125.4075160092
31
0.0000000000
11
171.2142857143
21
125.2803391793
31
0.0000000000
0
SPLINE
5
326
100
AcDbEntity
8
0
100
AcDbSpline
62
7
6
CONTINUOUS
70
0
71
3
72
9
73
5
74
3
42
0.0000001000
43
0.0000001000
44
0.0000000001
40
0.0000000000
40
0.0000000000
40
0.0000000000
40
0.0000000000
40
0.4783091714
40
1.0000000000
40
1.0000000000
40
1.0000000000
40
1.0000000000
10
288.8771299929
20
179.4052998376
30
0.0000000000
10
288.8771299929
20
179.3056468762
30
0.0000000000
10
288.8831487167
20
179.0973585920
30
0.0000000000
10
288.8865052869
20
178.8890301258
30
0.0000000000
10
288.8865052869
20
178.7803388459
30
0.0000000000
11
288.8771299929
21
179.4052998376
31
0.0000000000
11
288.8822785679
21
179.1063852901
31
0.0000000000
11
288.8865052869
21
178.7803388459
31
0.0000000000
0
SPLINE
5
327
100
AcDbEntity
8
0
100
AcDbSpline
62
7
6
CONTINUOUS
70
0
71
3
72
14
73
10
74
8
42
0.0000001000
43
0.0000001000
44
0.0000000001
40
0.0000000000
40
0.0000000000
40
0.0000000000
40
0.0000000000
40
0.0616322756
40
0.2154469482
40
0.3773763176
40
0.5446250773
40
0.7179342784
40
0.8978922438
40
1.0000000000
40
1.0000000000
40
1.0000000000
40
1.0000000000
10
286.4359629407
20
138.5181327098
30
0.0000000000
10
286.3985055851
20
138.5066067809
30
0.0000000000
10
286.2690992399
20
138.4611834177
30
0.0000000000
10
286.0546930068
20
138.3509885819
30
0.0000000000
10
285.8136798302
20
138.1578875812
30
0.0000000000
10
285.6100961209
20
137.9091746720
30
0.0000000000
10
285.4594274851
20
137.6120123990
30
0.0000000000
10
285.3887962728
20
137.3291899823
30
0.0000000000
10
285.3771626147
20
137.1494779235
30
0.0000000000
10
285.3771566211
20
137.0844818896
30
0.0000000000
11
286.4359629407
21
138.5181327098
31
0.0000000000
11
286.3250406584
21
138.4791874308
31
0.0000000000
11
286.0644848458
21
138.3452806683
31
0.0000000000
11
285.8238097581
21
138.1524339793
31
0.0000000000
11
285.6220540041
21
137.9059372776
31
0.0000000000
11
285.4727753584
21
137.6115419858
31
0.0000000000
11
285.3897940287
21
137.2789960662
31
0.0000000000
11
285.3771566211
21
137.0844818896
31
0.0000000000
0
SPLINE
5
328
100
AcDbEntity
8
0
100
AcDbSpline
62
7
6
CONTINUOUS
70
0
71
3
72
21
73
17
74
15
42
0.0000001000
43
0.0000001000
44
0.0000000001
40
0.0000000000
40
0.0000000000
40
0.0000000000
40
0.0000000000
40
0.0474552031
40
0.1054440219
40
0.1651362720
40
0.2267123510
40
0.2903810954
40
0.3563939878
40
0.4250578128
40
0.4967483988
40
0.5719603103
40
0.6512597584
40
0.7356819264
40
0.8244948036
40
0.9135032062
40
1.0000000000
40
1.0000000000
40
1.0000000000
40
1.0000000000
10
291.3290190226
20
144.3883003872
30
0.0000000000
10
291.3200482897
20
144.3122566440
30
0.0000000000
10
291.2973451058
20
144.1436165604
30
0.0000000000
10
291.2521946301
20
143.8809598483
30
0.0000000000
10
291.1916475046
20
143.5980638101
30
0.0000000000
10
291.1170370097
20
143.3090646299
30
0.0000000000
10
291.0270609961
20
143.0137868991
30
0.0000000000
10
290.9201892520
20
142.7120239663
30
0.0000000000
10
290.7945945400
20
142.4035250198
30
0.0000000000
10
290.6480422149
20
142.0879504224
30
0.0000000000
10
290.4777890939
20
141.7649484798
30
0.0000000000
10
290.2801578227
20
141.4337350489
30
0.0000000000
10
290.0519842294
20
141.0958940412
30
0.0000000000
10
289.7946316692
20
140.7597081291
30
0.0000000000
10
289.5150730558
20
140.4373201634
30
0.0000000000
10
289.3168430362
20
140.2348339185
30
0.0000000000
10
289.2162786623
20
140.1380706389
30
0.0000000000
11
291.3290190226
21
144.3883003872
31
0.0000000000
11
291.2983721774
21
144.1606509959
31
0.0000000000
11
291.2508214901
21
143.8840232051
31
0.0000000000
11
291.1903542422
21
143.6014912884
31
0.0000000000
11
291.1158527356
21
143.3129044351
31
0.0000000000
11
291.0260265399
21
143.0181084436
31
0.0000000000
11
290.9193597064
21
142.7169145022
31
0.0000000000
11
290.7940432218
21
142.4090900452
31
0.0000000000
11
290.6478887797
21
142.0943647839
31
0.0000000000
11
290.4781388494
21
141.7723126506
31
0.0000000000
11
290.2814607515
21
141.4426957971
31
0.0000000000
11
290.0527499628
21
141.1040652762
31
0.0000000000
11
289.7914386175
21
140.7627206733
31
0.0000000000
11
289.5091744825
21
140.4372344213
31
0.0000000000
11
289.2162786623
21
140.1380706389
31
0.0000000000
0
SPLINE
5
329
100
AcDbEntity
8
0
100
AcDbSpline
62
7
6
CONTINUOUS
70
0
71
3
72
29
73
25
74
23
42
0.0000001000
43
0.0000001000
44
0.0000000001
40
0.0000000000
40
0.0000000000
40
0.0000000000
40
0.0000000000
40
0.0282546289
40
0.0647154649
40
0.1034897472
40
0.1443270268
40
0.1867925602
40
0.2303696133
40
0.2745396562
40
0.3191946717
40
0.3644296082
40
0.4102964307
40
0.4568471450
40
0.5041337383
40
0.5522081659
40
0.6011223503
40
0.6509281832
40
0.7016777682
40
0.7534232715
40
0.8062167571
40
0.8601102861
40
0.9151559157
40
0.9714056985
40
1.0000000000
40
1.0000000000
40
1.0000000000
40
1.0000000000
10
291.3290190920
20
144.3883008619
30
0.0000000000
10
291.3201872216
20
144.3134336090
30
0.0000000000
10
291.2971846120
20
144.1422801802
30
0.0000000000
10
291.2502932953
20
143.8701023693
30
0.0000000000
10
291.1846184742
20
143.5673650672
30
0.0000000000
10
291.1011263966
20
143.2524279391
30
0.0000000000
10
290.9988604152
20
142.9295937577
30
0.0000000000
10
290.8777399389
20
142.6038348105
30
0.0000000000
10
290.7381250208
20
142.2791878409
30
0.0000000000
10
290.5802557081
20
141.9580729128
30
0.0000000000
10
290.4038919283
20
141.6415322964
30
0.0000000000
10
290.2085946919
20
141.3303135518
30
0.0000000000
10
289.9939778680
20
141.0253615087
30
0.0000000000
10
289.7596677035
20
140.7277230548
30
0.0000000000
10
289.5053144119
20
140.4385544694
30
0.0000000000
10
289.2306051820
20
140.1591280787
30
0.0000000000
10
288.9352782826
20
139.8908377144
30
0.0000000000
10
288.6191389332
20
139.6352036518
30
0.0000000000
10
288.2820774831
20
139.3938767978
30
0.0000000000
10
287.9240889816
20
139.1686413043
30
0.0000000000
10
287.5452976955
20
138.9614159938
30
0.0000000000
10
287.1459703377
20
138.7742497891
30
0.0000000000
10
286.7984121230
20
138.6375757829
30
0.0000000000
10
286.5838965666
20
138.5650229625
30
0.0000000000
10
286.5112239536
20
138.5417601874
30
0.0000000000
11
291.3290190920
21
144.3883008619
31
0.0000000000
11
291.2988967340
21
144.1641646400
31
0.0000000000
11
291.2493499873
21
143.8765723072
31
0.0000000000
11
291.1835550698
21
143.5732812038
31
0.0000000000
11
291.0997960766
21
143.2573375018
31
0.0000000000
11
290.9971539311
21
142.9333160504
31
0.0000000000
11
290.8756014694
21
142.6063953830
31
0.0000000000
11
290.7359320317
21
142.2816216999
31
0.0000000000
11
290.5782430250
21
141.9608736039
31
0.0000000000
11
290.4020253126
21
141.6445952435
31
0.0000000000
11
290.2068912976
21
141.3336366975
31
0.0000000000
11
289.9924555777
21
141.0289420886
31
0.0000000000
11
289.7583452510
21
140.7315575901
31
0.0000000000
11
289.5042114710
21
140.4426386751
31
0.0000000000
11
289.2297424422
21
140.1634567280
31
0.0000000000
11
288.9346779796
21
139.8954049043
31
0.0000000000
11
288.6188242029
21
139.6400018843
31
0.0000000000
11
288.2820721893
21
139.3988967529
31
0.0000000000
11
287.9244188404
21
139.1738721880
31
0.0000000000
11
287.5459879894
21
138.9668445026
31
0.0000000000
11
287.1470539587
21
138.7798620860
31
0.0000000000
11
286.7280669549
21
138.6151012780
31
0.0000000000
11
286.5112239536
21
138.5417601874
31
0.0000000000
0
SPLINE
5
32A
100
AcDbEntity
8
0
100
AcDbSpline
62
7
6
CONTINUOUS
70
0
71
3
72
8
73
4
74
2
42
0.0000001000
43
0.0000001000
44
0.0000000001
40
0.0000000000
40
0.0000000000
40
0.0000000000
40
0.0000000000
40
1.0000000000
40
1.0000000000
40
1.0000000000
40
1.0000000000
10
286.5112239536
20
138.5417601874
30
0.0000000000
10
286.4861807224
20
138.5337437554
30
0.0000000000
10
286.4610928162
20
138.5258685313
30
0.0000000000
10
286.4359621266
20
138.5181351101
30
0.0000000000
11
286.5112239536
21
138.5417601874
31
0.0000000000
11
286.4359621266
21
138.5181351101
31
0.0000000000
0
SPLINE
5
32B
100
AcDbEntity
8
0
100
AcDbSpline
62
7
6
CONTINUOUS
70
0
71
3
72
9
73
5
74
3
42
0.0000001000
43
0.0000001000
44
0.0000000001
40
0.0000000000
40
0.0000000000
40
0.0000000000
40
0.0000000000
40
0.4782936889
40
1.0000000000
40
1.0000000000
40
1.0000000000
40
1.0000000000
10
301.8771299929
20
178.1553785210
30
0.0000000000
10
301.8771299929
20
178.2550281504
30
0.0000000000
10
301.8711114241
20
178.4633162146
30
0.0000000000
10
301.8677546989
20
178.6716444563
30
0.0000000000
10
301.8677546989
20
178.7803388459
30
0.0000000000
11
301.8771299929
21
178.1553785210
31
0.0000000000
11
301.8719816422
21
178.4542830748
31
0.0000000000
11
301.8677546989
21
178.7803388459
31
0.0000000000
0
SPLINE
5
32C
100
AcDbEntity
8
0
100
AcDbSpline
62
7
6
CONTINUOUS
70
0
71
3
72
43
73
39
74
37
42
0.0000001000
43
0.0000001000
44
0.0000000001
40
0.0000000000
40
0.0000000000
40
0.0000000000
40
0.0000000000
40
0.0223698093
40
0.0553646182
40
0.0881991408
40
0.1208624275
40
0.1533435288
40
0.1856314951
40
0.2177153764
40
0.2495842231
40
0.2812270852
40
0.3126330127
40
0.3437910555
40
0.3746902634
40
0.4053196862
40
0.4356683734
40
0.4657253746
40
0.4954797391
40
0.5249205162
40
0.5540367553
40
0.5828175052
40
0.6112518146
40
0.6393287323
40
0.6670373067
40
0.6943665865
40
0.7213056199
40
0.7478434553
40
0.7739691406
40
0.7996716719
40
0.8249317216
40
0.8497125397
40
0.8739751881
40
0.8976807295
40
0.9207902261
40
0.9432646757
40
0.9650485788
40
0.9860475730
40
1.0000000000
40
1.0000000000
40
1.0000000000
40
1.0000000000
10
305.3771313093
20
137.0844818922
30
0.0000000000
10
305.3771313011
20
137.0987123622
30
0.0000000000
10
305.3766301204
20
137.1339324789
30
0.0000000000
10
305.3738560919
20
137.1899837183
30
0.0000000000
10
305.3681406196
20
137.2523918853
30
0.0000000000
10
305.3598739245
20
137.3141836285
30
0.0000000000
10
305.3491147258
20
137.3752371595
30
0.0000000000
10
305.3359287453
20
137.4354353640
30
0.0000000000
10
305.3203883294
20
137.4946662721
30
0.0000000000
10
305.3025720399
20
137.5528234361
30
0.0000000000
10
305.2825642225
20
137.6098062893
30
0.0000000000
10
305.2604545552
20
137.6655204616
30
0.0000000000
10
305.2363375796
20
137.7198780597
30
0.0000000000
10
305.2103122196
20
137.7727979064
30
0.0000000000
10
305.1824812890
20
137.8242057408
30
0.0000000000
10
305.1529509942
20
137.8740343785
30
0.0000000000
10
305.1218304316
20
137.9222238318
30
0.0000000000
10
305.0892310871
20
137.9687213901
30
0.0000000000
10
305.0552663378
20
138.0134816616
30
0.0000000000
10
305.0200509601
20
138.0564665765
30
0.0000000000
10
304.9837006480
20
138.0976453533
30
0.0000000000
10
304.9463315422
20
138.1369944297
30
0.0000000000
10
304.9080597755
20
138.1744973591
30
0.0000000000
10
304.8690010341
20
138.2101446749
30
0.0000000000
10
304.8292701392
20
138.2439337239
30
0.0000000000
10
304.7889806499
20
138.2758684713
30
0.0000000000
10
304.7482444895
20
138.3059592795
30
0.0000000000
10
304.7071716241
20
138.3342226439
30
0.0000000000
10
304.6658742019
20
138.3606780744
30
0.0000000000
10
304.6244762793
20
138.3853429409
30
0.0000000000
10
304.5831160899
20
138.4082340017
30
0.0000000000
10
304.5419420916
20
138.4293719618
30
0.0000000000
10
304.5011029565
20
138.4487872325
30
0.0000000000
10
304.4607456648
20
138.4665201010
30
0.0000000000
10
304.4210245583
20
138.4826161799
30
0.0000000000
10
304.3821244957
20
138.4971185869
30
0.0000000000
10
304.3479741663
20
138.5088020365
30
0.0000000000
10
304.3267823699
20
138.5155297105
30
0.0000000000
10
304.3182995541
20
138.5181400741
30
0.0000000000
11
305.3771313093
21
137.0844818922
31
0.0000000000
11
305.3765238457
21
137.1271676109
31
0.0000000000
11
305.3734115221
21
137.1900545763
31
0.0000000000
11
305.3676970766
21
137.2524515119
31
0.0000000000
11
305.3594318391
21
137.3142323800
31
0.0000000000
11
305.3486744953
21
137.3752753937
31
0.0000000000
11
305.3354907344
21
137.4354634737
31
0.0000000000
11
305.3199528680
21
137.4946846721
31
0.0000000000
11
305.3021394213
21
137.5528325632
31
0.0000000000
11
305.2821347023
21
137.6098065980
31
0.0000000000
11
305.2600283503
21
137.6655124215
31
0.0000000000
11
305.2359148677
21
137.7198621519
31
0.0000000000
11
305.2098931385
21
137.7727746204
31
0.0000000000
11
305.1820659370
21
137.8241755713
31
0.0000000000
11
305.1525394297
21
137.8739978222
31
0.0000000000
11
305.1214226742
21
137.9221813843
31
0.0000000000
11
305.0888271182
21
137.9686735429
31
0.0000000000
11
305.0548661013
21
138.0134288992
31
0.0000000000
11
305.0196543641
21
138.0564093740
31
0.0000000000
11
304.9833075659
21
138.0975841733
31
0.0000000000
11
304.9459418149
21
138.1369297204
31
0.0000000000
11
304.9076732127
21
138.1744295520
31
0.0000000000
11
304.8686174168
21
138.2100741825
31
0.0000000000
11
304.8288892214
21
138.2438609385
31
0.0000000000
11
304.7886021613
21
138.2757937631
31
0.0000000000
11
304.7478681376
21
138.3058829955
31
0.0000000000
11
304.7067970695
21
138.3341451256
31
0.0000000000
11
304.6654966557
21
138.3606024750
31
0.0000000000
11
304.6240857780
21
138.3852750625
31
0.0000000000
11
304.5827107709
21
138.4081743265
31
0.0000000000
11
304.5415212787
21
138.4293202433
31
0.0000000000
11
304.5006659668
21
138.4487432069
31
0.0000000000
11
304.4602917772
21
138.4664835026
31
0.0000000000
11
304.4205433655
21
138.4825906485
31
0.0000000000
11
304.3815920426
21
138.4971121682
31
0.0000000000
11
304.3436771865
21
138.5100835333
31
0.0000000000
11
304.3182995541
21
138.5181400741
31
0.0000000000
0
SPLINE
5
32D
100
AcDbEntity
8
0
100
AcDbSpline
62
7
6
CONTINUOUS
70
0
71
3
72
21
73
17
74
15
42
0.0000001000
43
0.0000001000
44
0.0000000001
40
0.0000000000
40
0.0000000000
40
0.0000000000
40
0.0000000000
40
0.0462956214
40
0.1043550329
40
0.1641199495
40
0.2257709882
40
0.2895172398
40
0.3556104932
40
0.4243579062
40
0.4961357648
40
0.5714392356
40
0.6508352190
40
0.7353601584
40
0.8242811521
40
0.9133979092
40
1.0000000000
40
1.0000000000
40
1.0000000000
40
1.0000000000
10
299.4259329483
20
144.3824556240
30
0.0000000000
10
299.4347360899
20
144.3083676016
30
0.0000000000
10
299.4572473156
20
144.1416826622
30
0.0000000000
10
299.5020653557
20
143.8809598483
30
0.0000000000
10
299.5626124812
20
143.5980638101
30
0.0000000000
10
299.6372229761
20
143.3090646299
30
0.0000000000
10
299.7271989897
20
143.0137868991
30
0.0000000000
10
299.8340707338
20
142.7120239663
30
0.0000000000
10
299.9596654458
20
142.4035250198
30
0.0000000000
10
300.1062177709
20
142.0879504224
30
0.0000000000
10
300.2764708919
20
141.7649484798
30
0.0000000000
10
300.4741021631
20
141.4337350489
30
0.0000000000
10
300.7022757564
20
141.0958940412
30
0.0000000000
10
300.9596283166
20
140.7597081291
30
0.0000000000
10
301.2391869300
20
140.4373201634
30
0.0000000000
10
301.4374169497
20
140.2348339185
30
0.0000000000
10
301.5379813235
20
140.1380706389
30
0.0000000000
11
299.4259329483
21
144.3824556240
31
0.0000000000
11
299.4558878084
21
144.1606509959
31
0.0000000000
11
299.5034384957
21
143.8840232051
31
0.0000000000
11
299.5639057437
21
143.6014912884
31
0.0000000000
11
299.6384072502
21
143.3129044351
31
0.0000000000
11
299.7282334459
21
143.0181084436
31
0.0000000000
11
299.8349002794
21
142.7169145022
31
0.0000000000
11
299.9602167640
21
142.4090900452
31
0.0000000000
11
300.1063712061
21
142.0943647839
31
0.0000000000
11
300.2761211364
21
141.7723126506
31
0.0000000000
11
300.4727992343
21
141.4426957971
31
0.0000000000
11
300.7015100230
21
141.1040652762
31
0.0000000000
11
300.9628213683
21
140.7627206733
31
0.0000000000
11
301.2450855033
21
140.4372344213
31
0.0000000000
11
301.5379813235
21
140.1380706389
31
0.0000000000
0
SPLINE
5
32E
100
AcDbEntity
8
0
100
AcDbSpline
62
7
6
CONTINUOUS
70
0
71
3
72
8
73
4
74
2
42
0.0000001000
43
0.0000001000
44
0.0000000001
40
0.0000000000
40
0.0000000000
40
0.0000000000
40
0.0000000000
40
1.0000000000
40
1.0000000000
40
1.0000000000
40
1.0000000000
10
304.3182978817
20
138.5181351829
30
0.0000000000
10
304.2965390747
20
138.5248309753
30
0.0000000000
10
304.2748123647
20
138.5316330586
30
0.0000000000
10
304.2531189797
20
138.5385410486
30
0.0000000000
11
304.3182978817
21
138.5181351829
31
0.0000000000
11
304.2531189797
21
138.5385410486
31
0.0000000000
0
SPLINE
5
32F
100
AcDbEntity
8
0
100
AcDbSpline
62
7
6
CONTINUOUS
70
0
71
3
72
29
73
25
74
23
42
0.0000001000
43
0.0000001000
44
0.0000000001
40
0.0000000000
40
0.0000000000
40
0.0000000000
40
0.0000000000
40
0.0289359972
40
0.0859163645
40
0.1417417762
40
0.1964507153
40
0.2500816687
40
0.3026731261
40
0.3542635793
40
0.4048916462
40
0.4545958102
40
0.5034143859
40
0.5513857225
40
0.5985482046
40
0.6449402496
40
0.6906002885
40
0.7355666836
40
0.7799529304
40
0.8235925938
40
0.8660603510
40
0.9069537114
40
0.9459776538
40
0.9829754901
40
1.0000000000
40
1.0000000000
40
1.0000000000
40
1.0000000000
10
304.2531189797
20
138.5385410486
30
0.0000000000
10
304.1794991707
20
138.5619843657
30
0.0000000000
10
303.9620478198
20
138.6352134977
30
0.0000000000
10
303.6095844826
20
138.7735459370
30
0.0000000000
10
303.2044356661
20
138.9635576074
30
0.0000000000
10
302.8199649640
20
139.1744827620
30
0.0000000000
10
302.4566079368
20
139.4041967749
30
0.0000000000
10
302.1146394750
20
139.6506781502
30
0.0000000000
10
301.7941841359
20
139.9120171407
30
0.0000000000
10
301.4952391174
20
140.1864180301
30
0.0000000000
10
301.2176924150
20
140.4722002992
30
0.0000000000
10
300.9613402177
20
140.7677979494
30
0.0000000000
10
300.7259022220
20
141.0717580905
30
0.0000000000
10
300.5110357201
20
141.3827385777
30
0.0000000000
10
300.3163487781
20
141.6995042888
30
0.0000000000
10
300.1414122101
20
142.0209224845
30
0.0000000000
10
299.9856835656
20
142.3461385227
30
0.0000000000
10
299.8488557199
20
142.6739038826
30
0.0000000000
10
299.7309594871
20
143.0018571299
30
0.0000000000
10
299.6320770645
20
143.3262877858
30
0.0000000000
10
299.5518034221
20
143.6431054991
30
0.0000000000
10
299.4890328145
20
143.9489416238
30
0.0000000000
10
299.4497091189
20
144.1942742193
30
0.0000000000
10
299.4312954675
20
144.3373237193
30
0.0000000000
10
299.4259328122
20
144.3824560936
30
0.0000000000
11
304.2531189797
21
138.5385410486
31
0.0000000000
11
304.0334589459
21
138.6125151228
31
0.0000000000
11
303.6086717352
21
138.7792307664
31
0.0000000000
11
303.2038954694
21
138.9690683172
31
0.0000000000
11
302.8197646982
21
139.1798065207
31
0.0000000000
11
302.4567227041
21
139.4093213090
31
0.0000000000
11
302.1150437728
21
139.6555938147
31
0.0000000000
11
301.7948543224
21
139.9167158327
31
0.0000000000
11
301.4961520583
21
140.1908937580
31
0.0000000000
11
301.2188261189
21
140.4764485829
31
0.0000000000
11
300.9626741997
21
140.7718151672
31
0.0000000000
11
300.7274170759
21
141.0755416731
31
0.0000000000
11
300.5127130674
21
141.3862868615
31
0.0000000000
11
300.3181711909
21
141.7028164297
31
0.0000000000
11
300.1433630929
21
142.0239984666
31
0.0000000000
11
299.9878339252
21
142.3487978291
31
0.0000000000
11
299.8508937131
21
142.6768322724
31
0.0000000000
11
299.7326623550
21
143.0057175872
31
0.0000000000
11
299.6335055554
21
143.3310482782
31
0.0000000000
11
299.5530677438
21
143.6485137055
31
0.0000000000
11
299.4902339788
21
143.9546581678
31
0.0000000000
11
299.4433398769
21
144.2472235754
31
0.0000000000
11
299.4259328122
21
144.3824560936
31
0.0000000000
0
SPLINE
5
330
100
AcDbEntity
8
0
100
AcDbSpline
62
7
6
CONTINUOUS
70
0
71
3
72
8
73
4
74
2
42
0.0000001000
43
0.0000001000
44
0.0000000001
40
0.0000000000
40
0.0000000000
40
0.0000000000
40
0.0000000000
40
1.0000000000
40
1.0000000000
40
1.0000000000
40
1.0000000000
10
299.3770204332
20
145.2085166440
30
0.0000000000
10
299.3770204450
20
145.1991958761
30
0.0000000000
10
299.3770390810
20
145.1898750127
30
0.0000000000
10
299.3770763396
20
145.1805541413
30
0.0000000000
11
299.3770204332
21
145.2085166440
31
0.0000000000
11
299.3770763396
21
145.1805541413
31
0.0000000000
0
SPLINE
5
331
100
AcDbEntity
8
0
100
AcDbSpline
62
7
6
CONTINUOUS
70
0
71
3
72
11
73
7
74
5
42
0.0000001000
43
0.0000001000
44
0.0000000001
40
0.0000000000
40
0.0000000000
40
0.0000000000
40
0.0000000000
40
0.2807734821
40
0.6055260266
40
0.9383782228
40
1.0000000000
40
1.0000000000
40
1.0000000000
40
1.0000000000
10
299.3770763396
20
145.1805541413
30
0.0000000000
10
299.3773756269
20
145.1056822290
30
0.0000000000
10
299.3806125199
20
144.9442096996
30
0.0000000000
10
299.3942836868
20
144.6943004733
30
0.0000000000
10
299.4119493853
20
144.5032798421
30
0.0000000000
10
299.4239940060
20
144.3987739340
30
0.0000000000
10
299.4259329483
20
144.3824556240
30
0.0000000000
11
299.3770763396
21
145.1805541413
31
0.0000000000
11
299.3815782176
21
144.9559822254
31
0.0000000000
11
299.3957683477
21
144.6965744269
31
0.0000000000
11
299.4202884449
21
144.4314306194
31
0.0000000000
11
299.4259329483
21
144.3824556240
31
0.0000000000
0
SPLINE
5
332
100
AcDbEntity
8
0
100
AcDbSpline
62
7
6
CONTINUOUS
70
0
71
3
72
9
73
5
74
3
42
0.0000001000
43
0.0000001000
44
0.0000000001
40
0.0000000000
40
0.0000000000
40
0.0000000000
40
0.0000000000
40
0.5216908286
40
1.0000000000
40
1.0000000000
40
1.0000000000
40
1.0000000000
10
301.8677546989
20
178.7803388459
30
0.0000000000
10
301.8677546989
20
178.8890301258
30
0.0000000000
10
301.8711112691
20
179.0973585920
30
0.0000000000
10
301.8771299929
20
179.3056468762
30
0.0000000000
10
301.8771299929
20
179.4052998376
30
0.0000000000
11
301.8677546989
21
178.7803388459
31
0.0000000000
11
301.8719814179
21
179.1063852901
31
0.0000000000
11
301.8771299929
21
179.4052998376
31
0.0000000000
0
SPLINE
5
333
100
AcDbEntity
8
0
100
AcDbSpline
62
7
6
CONTINUOUS
70
0
71
3
72
8
73
4
74
2
42
0.0000001000
43
0.0000001000
44
0.0000000001
40
0.0000000000
40
0.0000000000
40
0.0000000000
40
0.0000000000
40
1.0000000000
40
1.0000000000
40
1.0000000000
40
1.0000000000
10
291.3772395526
20
145.2085166440
30
0.0000000000
10
291.3772395408
20
145.1991958761
30
0.0000000000
10
291.3772209048
20
145.1898750127
30
0.0000000000
10
291.3771836462
20
145.1805541413
30
0.0000000000
11
291.3772395526
21
145.2085166440
31
0.0000000000
11
291.3771836462
21
145.1805541413
31
0.0000000000
0
SPLINE
5
334
100
AcDbEntity
8
0
100
AcDbSpline
62
7
6
CONTINUOUS
70
0
71
3
72
11
73
7
74
5
42
0.0000001000
43
0.0000001000
44
0.0000000001
40
0.0000000000
40
0.0000000000
40
0.0000000000
40
0.0000000000
40
0.2828543569
40
0.6100137148
40
0.9453327528
40
1.0000000000
40
1.0000000000
40
1.0000000000
40
1.0000000000
10
291.3771836462
20
145.1805541413
30
0.0000000000
10
291.3768843589
20
145.1056822290
30
0.0000000000
10
291.3736474659
20
144.9442096996
30
0.0000000000
10
291.3599762990
20
144.6943004733
30
0.0000000000
10
291.3424912964
20
144.5052337211
30
0.0000000000
10
291.3307144103
20
144.4026719693
30
0.0000000000
10
291.3290190226
20
144.3883003872
30
0.0000000000
11
291.3771836462
21
145.1805541413
31
0.0000000000
11
291.3726817682
21
144.9559822254
31
0.0000000000
11
291.3584916381
21
144.6965744269
31
0.0000000000
11
291.3339715409
21
144.4314306194
31
0.0000000000
11
291.3290190226
21
144.3883003872
31
0.0000000000
0
SPLINE
5
335
100
AcDbEntity
8
0
100
AcDbSpline
62
7
6
CONTINUOUS
70
0
71
3
72
9
73
5
74
3
42
0.0000001000
43
0.0000001000
44
0.0000000001
40
0.0000000000
40
0.0000000000
40
0.0000000000
40
0.0000000000
40
0.5217063111
40
1.0000000000
40
1.0000000000
40
1.0000000000
40
1.0000000000
10
288.8865052869
20
178.7803388459
30
0.0000000000
10
288.8865052869
20
178.6716444563
30
0.0000000000
10
288.8831485617
20
178.4633162146
30
0.0000000000
10
288.8771299929
20
178.2550281504
30
0.0000000000
10
288.8771299929
20
178.1553785210
30
0.0000000000
11
288.8865052869
21
178.7803388459
31
0.0000000000
11
288.8822783436
21
178.4542830748
31
0.0000000000
11
288.8771299929
21
178.1553785210
31
0.0000000000
0
SPLINE
5
336
100
AcDbEntity
8
0
100
AcDbSpline
62
7
6
CONTINUOUS
70
0
71
3
72
9
73
5
74
3
42
0.0000001000
43
0.0000001000
44
0.0000000001
40
0.0000000000
40
0.0000000000
40
0.0000000000
40
0.0000000000
40
0.4808387326
40
1.0000000000
40
1.0000000000
40
1.0000000000
40
1.0000000000
10
300.9872154331
20
181.0969874217
30
0.0000000000
10
300.9221210913
20
181.1012988082
30
0.0000000000
10
300.7871554648
20
181.1172377798
30
0.0000000000
10
300.6541925144
20
181.1451184407
30
0.0000000000
10
300.5858896443
20
181.1623228381
30
0.0000000000
11
300.9872154331
21
181.0969874217
31
0.0000000000
11
300.7927907202
21
181.1193879469
31
0.0000000000
11
300.5858896443
21
181.1623228381
31
0.0000000000
0
SPLINE
5
337
100
AcDbEntity
8
0
100
AcDbSpline
62
7
6
CONTINUOUS
70
0
71
3
72
14
73
10
74
8
42
0.0000001000
43
0.0000001000
44
0.0000000001
40
0.0000000000
40
0.0000000000
40
0.0000000000
40
0.0000000000
40
0.1807430945
40
0.3475746751
40
0.5012199200
40
0.6426384449
40
0.7723568994
40
0.8911242864
40
1.0000000000
40
1.0000000000
40
1.0000000000
40
1.0000000000
10
304.4248713001
20
130.0667853886
30
0.0000000000
10
304.4059334338
20
129.9708531638
30
0.0000000000
10
304.3651750731
20
129.7871937754
30
0.0000000000
10
304.2938693589
20
129.5254739308
30
0.0000000000
10
304.2169354432
20
129.2876254568
30
0.0000000000
10
304.1360470972
20
129.0724313070
30
0.0000000000
10
304.0525233440
20
128.8786396389
30
0.0000000000
10
303.9673446317
20
128.7049944699
30
0.0000000000
10
303.9073536403
20
128.5973508008
30
0.0000000000
10
303.8771299929
20
128.5467932900
30
0.0000000000
11
304.4248713001
21
130.0667853886
31
0.0000000000
11
304.3611940909
21
129.7804291001
31
0.0000000000
11
304.2898832649
21
129.5192160000
31
0.0000000000
11
304.2129898627
21
129.2819967903
31
0.0000000000
11
304.1320641572
21
129.0672103354
31
0.0000000000
11
304.0485428518
21
128.8739493591
31
0.0000000000
11
303.9634268713
21
128.7009964859
31
0.0000000000
11
303.8771299929
21
128.5467932900
31
0.0000000000
0
SPLINE
5
338
100
AcDbEntity
8
0
100
AcDbSpline
62
7
6
CONTINUOUS
70
0
71
3
72
9
73
5
74
3
42
0.0000001000
43
0.0000001000
44
0.0000000001
40
0.0000000000
40
0.0000000000
40
0.0000000000
40
0.0000000000
40
0.4994572262
40
1.0000000000
40
1.0000000000
40
1.0000000000
40
1.0000000000
10
304.4089952076
20
130.4870659514
30
0.0000000000
10
304.4107832230
20
130.4795074305
30
0.0000000000
10
304.4143295342
20
130.4643659915
30
0.0000000000
10
304.4178088979
20
130.4492090292
30
0.0000000000
10
304.4195337774
20
130.4416185381
30
0.0000000000
11
304.4089952076
21
130.4870659514
31
0.0000000000
11
304.4143089840
21
130.4643785559
31
0.0000000000
11
304.4195337774
21
130.4416185381
31
0.0000000000
0
SPLINE
5
339
100
AcDbEntity
8
0
100
AcDbSpline
62
7
6
CONTINUOUS
70
0
71
3
72
10
73
6
74
4
42
0.0000001000
43
0.0000001000
44
0.0000000001
40
0.0000000000
40
0.0000000000
40
0.0000000000
40
0.0000000000
40
0.3334240227
40
0.6668076096
40
1.0000000000
40
1.0000000000
40
1.0000000000
40
1.0000000000
10
295.3771299929
20
182.2803391793
30
0.0000000000
10
295.2488866950
20
182.2907450058
30
0.0000000000
10
294.9910480868
20
182.2975398129
30
0.0000000000
10
294.6057938955
20
182.2655260554
30
0.0000000000
10
294.3527007493
20
182.2162885515
30
0.0000000000
10
294.2280197621
20
182.1848834107
30
0.0000000000
11
295.3771299929
21
182.2803391793
31
0.0000000000
11
294.9912695254
21
182.2905039156
31
0.0000000000
11
294.6066477788
21
182.2585414573
31
0.0000000000
11
294.2280197621
21
182.1848834107
31
0.0000000000
0
SPLINE
5
33A
100
AcDbEntity
8
0
100
AcDbSpline
62
7
6
CONTINUOUS
70
0
71
3
72
13
73
9
74
7
42
0.0000001000
43
0.0000001000
44
0.0000000001
40
0.0000000000
40
0.0000000000
40
0.0000000000
40
0.0000000000
40
0.1995881419
40
0.3852471898
40
0.5576390562
40
0.7173911449
40
0.8649517881
40
1.0000000000
40
1.0000000000
40
1.0000000000
40
1.0000000000
10
286.3452647783
20
130.4870659514
30
0.0000000000
10
286.3670744470
20
130.5793084942
30
0.0000000000
10
286.4120043378
20
130.7567085999
30
0.0000000000
10
286.4871417474
20
131.0107403922
30
0.0000000000
10
286.5684024749
20
131.2429546864
30
0.0000000000
10
286.6572817109
20
131.4529748743
30
0.0000000000
10
286.7559077913
20
131.6387546537
30
0.0000000000
10
286.8342314445
20
131.7487782484
30
0.0000000000
10
286.8771299929
20
131.7964548281
30
0.0000000000
11
286.3452647783
21
130.4870659514
31
0.0000000000
11
286.4155020569
21
130.7626124263
31
0.0000000000
11
286.4910657679
21
131.0161018759
31
0.0000000000
11
286.5729223206
21
131.2476702808
31
0.0000000000
11
286.6626692247
21
131.4568310584
31
0.0000000000
11
286.7628727528
21
131.6416473398
31
0.0000000000
11
286.8771299929
21
131.7964548281
31
0.0000000000
0
SPLINE
5
33B
100
AcDbEntity
8
0
100
AcDbSpline
62
7
6
CONTINUOUS
70
0
71
3
72
13
73
9
74
7
42
0.0000001000
43
0.0000001000
44
0.0000000001
40
0.0000000000
40
0.0000000000
40
0.0000000000
40
0.0000000000
40
0.1995881419
40
0.3852471898
40
0.5576390562
40
0.7173911449
40
0.8649517881
40
1.0000000000
40
1.0000000000
40
1.0000000000
40
1.0000000000
10
304.4089952076
20
130.4870659514
30
0.0000000000
10
304.3871855388
20
130.5793084942
30
0.0000000000
10
304.3422556480
20
130.7567085999
30
0.0000000000
10
304.2671182384
20
131.0107403922
30
0.0000000000
10
304.1858575109
20
131.2429546864
30
0.0000000000
10
304.0969782749
20
131.4529748743
30
0.0000000000
10
303.9983521945
20
131.6387546537
30
0.0000000000
10
303.9200285413
20
131.7487782484
30
0.0000000000
10
303.8771299929
20
131.7964548281
30
0.0000000000
11
304.4089952076
21
130.4870659514
31
0.0000000000
11
304.3387579289
21
130.7626124263
31
0.0000000000
11
304.2631942179
21
131.0161018759
31
0.0000000000
11
304.1813376652
21
131.2476702808
31
0.0000000000
11
304.0915907611
21
131.4568310584
31
0.0000000000
11
303.9913872330
21
131.6416473398
31
0.0000000000
11
303.8771299929
21
131.7964548281
31
0.0000000000
0
SPLINE
5
33C
100
AcDbEntity
8
0
100
AcDbSpline
62
7
6
CONTINUOUS
70
0
71
3
72
10
73
6
74
4
42
0.0000001000
43
0.0000001000
44
0.0000000001
40
0.0000000000
40
0.0000000000
40
0.0000000000
40
0.0000000000
40
0.3333236387
40
0.6666633312
40
1.0000000000
40
1.0000000000
40
1.0000000000
40
1.0000000000
10
304.4195337774
20
130.4416185381
30
0.0000000000
10
304.4288209706
20
130.4007378245
30
0.0000000000
10
304.4417068491
20
130.3175573212
30
0.0000000000
10
304.4435030165
20
130.1914309568
30
0.0000000000
10
304.4329908694
20
130.1079156051
30
0.0000000000
10
304.4248713001
20
130.0667853886
30
0.0000000000
11
304.4195337774
21
130.4416185381
31
0.0000000000
11
304.4387845697
21
130.3173335054
31
0.0000000000
11
304.4405755930
21
130.1915731053
31
0.0000000000
11
304.4248713001
21
130.0667853886
31
0.0000000000
0
SPLINE
5
33D
100
AcDbEntity
8
0
100
AcDbSpline
62
7
6
CONTINUOUS
70
0
71
3
72
14
73
10
74
8
42
0.0000001000
43
0.0000001000
44
0.0000000001
40
0.0000000000
40
0.0000000000
40
0.0000000000
40
0.0000000000
40
0.1113992790
40
0.2339021137
40
0.3687538605
40
0.5168951698
40
0.6759438576
40
0.8396339104
40
1.0000000000
40
1.0000000000
40
1.0000000000
40
1.0000000000
10
286.8771299929
20
128.5467932900
30
0.0000000000
10
286.8462058008
20
128.5985226581
30
0.0000000000
10
286.7846404825
20
128.7091715103
30
0.0000000000
10
286.6970873932
20
128.8885238792
30
0.0000000000
10
286.6108879042
20
129.0903557811
30
0.0000000000
10
286.5278116717
20
129.3147108033
30
0.0000000000
10
286.4509104165
20
129.5576798836
30
0.0000000000
10
286.3837357563
20
129.8103551479
30
0.0000000000
10
286.3461914960
20
129.9816685758
30
0.0000000000
10
286.3293886830
20
130.0667854109
30
0.0000000000
11
286.8771299929
21
128.5467932900
31
0.0000000000
11
286.7889308253
21
128.7046254967
31
0.0000000000
11
286.7014685489
21
128.8831805065
31
0.0000000000
11
286.6152963542
21
129.0843708732
31
0.0000000000
11
286.5316207053
21
129.3097782825
31
0.0000000000
11
286.4535704098
21
129.5558363459
31
0.0000000000
11
286.3851910642
21
129.8125591623
31
0.0000000000
11
286.3293886830
21
130.0667854109
31
0.0000000000
0
SPLINE
5
33E
100
AcDbEntity
8
0
100
AcDbSpline
62
7
6
CONTINUOUS
70
0
71
3
72
9
73
5
74
3
42
0.0000001000
43
0.0000001000
44
0.0000000001
40
0.0000000000
40
0.0000000000
40
0.0000000000
40
0.0000000000
40
0.5005427738
40
1.0000000000
40
1.0000000000
40
1.0000000000
40
1.0000000000
10
286.3347262084
20
130.4416185381
30
0.0000000000
10
286.3364510879
20
130.4492090292
30
0.0000000000
10
286.3399304516
20
130.4643659915
30
0.0000000000
10
286.3434767628
20
130.4795074305
30
0.0000000000
10
286.3452647783
20
130.4870659514
30
0.0000000000
11
286.3347262084
21
130.4416185381
31
0.0000000000
11
286.3399510019
21
130.4643785559
31
0.0000000000
11
286.3452647783
21
130.4870659514
31
0.0000000000
0
SPLINE
5
33F
100
AcDbEntity
8
0
100
AcDbSpline
62
7
6
CONTINUOUS
70
0
71
3
72
10
73
6
74
4
42
0.0000001000
43
0.0000001000
44
0.0000000001
40
0.0000000000
40
0.0000000000
40
0.0000000000
40
0.0000000000
40
0.3334240227
40
0.6668076096
40
1.0000000000
40
1.0000000000
40
1.0000000000
40
1.0000000000
10
295.3771299929
20
182.2803391793
30
0.0000000000
10
295.5053732909
20
182.2907450058
30
0.0000000000
10
295.7632118990
20
182.2975398129
30
0.0000000000
10
296.1484660904
20
182.2655260554
30
0.0000000000
10
296.4015592365
20
182.2162885515
30
0.0000000000
10
296.5262402237
20
182.1848834107
30
0.0000000000
11
295.3771299929
21
182.2803391793
31
0.0000000000
11
295.7629904604
21
182.2905039156
31
0.0000000000
11
296.1476122070
21
182.2585414573
31
0.0000000000
11
296.5262402237
21
182.1848834107
31
0.0000000000
0
SPLINE
5
340
100
AcDbEntity
8
0
100
AcDbSpline
62
7
6
CONTINUOUS
70
0
71
3
72
10
73
6
74
4
42
0.0000001000
43
0.0000001000
44
0.0000000001
40
0.0000000000
40
0.0000000000
40
0.0000000000
40
0.0000000000
40
0.3333366292
40
0.6666763415
40
1.0000000000
40
1.0000000000
40
1.0000000000
40
1.0000000000
10
286.3293886830
20
130.0667854109
30
0.0000000000
10
286.3212691151
20
130.1079156201
30
0.0000000000
10
286.3107569692
20
130.1914309643
30
0.0000000000
10
286.3125531367
20
130.3175573213
30
0.0000000000
10
286.3254390152
20
130.4007378245
30
0.0000000000
10
286.3347262084
20
130.4416185381
30
0.0000000000
11
286.3293886830
21
130.0667854109
31
0.0000000000
11
286.3136843928
21
130.1915731053
31
0.0000000000
11
286.3154754161
21
130.3173335054
31
0.0000000000
11
286.3347262084
21
130.4416185381
31
0.0000000000
0
SPLINE
5
341
100
AcDbEntity
8
0
100
AcDbSpline
62
7
6
CONTINUOUS
70
0
71
3
72
9
73
5
74
3
42
0.0000001000
43
0.0000001000
44
0.0000000001
40
0.0000000000
40
0.0000000000
40
0.0000000000
40
0.0000000000
40
0.4808387326
40
1.0000000000
40
1.0000000000
40
1.0000000000
40
1.0000000000
10
289.7670445527
20
181.0969874217
30
0.0000000000
10
289.8321388945
20
181.1012988082
30
0.0000000000
10
289.9671045210
20
181.1172377798
30
0.0000000000
10
290.1000674714
20
181.1451184407
30
0.0000000000
10
290.1683703415
20
181.1623228381
30
0.0000000000
11
289.7670445527
21
181.0969874217
31
0.0000000000
11
289.9614692656
21
181.1193879469
31
0.0000000000
11
290.1683703415
21
181.1623228381
31
0.0000000000
0
ENDSEC
0
SECTION
2
OBJECTS
0
DICTIONARY
5
342
100
AcDbDictionary
3
ACAD_GROUP
350
343
3
ACAD_MLINESTYLE
350
344
0
DICTIONARY
5
343
102
{ACAD_REACTORS
330
342
102
}
100
AcDbDictionary
0
DICTIONARY
5
344
102
{ACAD_REACTORS
330
342
102
}
100
AcDbDictionary
3
STANDARD
350
345
0
MLINESTYLE
5
345
102
{ACAD_REACTORS
330
344
102
}
100
AcDbMlineStyle
2
STANDARD
70
0
3

62
256
51
90.0
52
90.0
71
2
49
0.5
62
256
6
BYLAYER
49
-0.5
62
256
6
BYLAYER
0
ENDSEC
0
EOF
