999
DXF file: C:\Aktuell-Internet\CAD-Daten-NEU\2vmh-4.dxf
999
Pro/ENGINEER 2001400 by Parametric Technology Corporation
0
SECTION
2
HEADER
9
$ACADVER
1
AC1014
9
$EXTMAX
10
420.0000000000
20
297.0000000000
9
$EXTMIN
10
0.0000000000
20
0.0000000000
9
$LIMMIN
10
0.0000000000
20
0.0000000000
9
$LIMMAX
10
420.0000000000
20
297.0000000000
9
$VIEWCTR
10
210.0000000000
20
148.5000000000
9
$VIEWSIZE
40
297.0000000000
9
$CLAYER
8
0
9
$LTSCALE
40
23.1000000000
9
$CELTYPE
6
BYLAYER
9
$DIMSCALE
40
1
9
$DIMASZ
40
3.5000000000
9
$DIMEXO
40
2.6250000000
9
$DIMDLI
40
15.9600000000
9
$DIMEXE
40
7.5600000000
9
$DIMCEN
40
3.7800000000
9
$DIMLFAC
40
1.0000000000
9
$DIMTXT
40
3.5000000000
9
$DIMTOL
70
1
9
$DIMTFAC
40
0.6000000000
9
$DIMTP
40
0.0050000000
9
$DIMTM
40
0.0050000000
9
$HANDSEED
5
2D7
0
ENDSEC
0
SECTION
2
CLASSES
0
ENDSEC
0
SECTION
2
TABLES
0
TABLE
2
VPORT
5
8
100
AcDbSymbolTable
70
2
0
VPORT
5
1F4
100
AcDbSymbolTableRecord
100
AcDbViewportTableRecord
2
*ACTIVE
70
0
10
0.0
20
0.0
11
1.0
21
1.0
12
210.0000000000
22
148.5000000000
13
0.0
23
0.0
14
1.0
24
1.0
15
0.0
25
0.0
16
0.0
26
0.0
36
1.0
17
0.0
27
0.0
37
0.0
40
297.0000000000
41
1.4141414141
42
50.0
43
0.0
44
0.0
50
0.0
51
0.0
71
0
72
100
73
1
74
1
75
0
76
0
77
0
78
0
0
ENDTAB
0
TABLE
2
LTYPE
5
5
100
AcDbSymbolTable
70
6
0
LTYPE
5
14
100
AcDbSymbolTableRecord
100
AcDbLinetypeTableRecord
2
BYBLOCK
70
0
3

72
65
73
0
40
0.0
0
LTYPE
5
15
100
AcDbSymbolTableRecord
100
AcDbLinetypeTableRecord
2
BYLAYER
70
0
3

72
65
73
0
40
0.0
0
LTYPE
5
16
100
AcDbSymbolTableRecord
100
AcDbLinetypeTableRecord
2
CONTINUOUS
70
64
3
Solid line
72
65
73
0
40
0
0
LTYPE
5
1F5
100
AcDbSymbolTableRecord
100
AcDbLinetypeTableRecord
2
CENTER
70
64
3
____ _ ____ _ ____ _ ____ _ ____ _ ____ _ ____
72
65
73
4
40
0.6
49
0.375
74
0
49
-0.075
74
0
49
0.075
74
0
49
-0.075
74
0
0
LTYPE
5
1F6
100
AcDbSymbolTableRecord
100
AcDbLinetypeTableRecord
2
HIDDEN
70
64
3
- - - - - - - - - - - - - - - - - - - -
72
65
73
2
40
0.2
49
0.1
74
0
49
-0.1
74
0
0
LTYPE
5
1F7
100
AcDbSymbolTableRecord
100
AcDbLinetypeTableRecord
2
PHANTOM
70
64
3
_____ _ _ _____ _ _ _____ _ _ _____
72
65
73
6
40
0.8
49
0.45
74
0
49
-0.05
74
0
49
0.1
74
0
49
-0.05
74
0
49
0.1
74
0
49
-0.05
74
0
0
LTYPE
5
1F8
100
AcDbSymbolTableRecord
100
AcDbLinetypeTableRecord
2
DOT
70
64
3
. . . . . . . . . . . . . . . . . . . .
72
65
73
2
40
0.2
49
0.1
74
0
49
-0.1
74
0
0
LTYPE
5
1F9
100
AcDbSymbolTableRecord
100
AcDbLinetypeTableRecord
2
DASHED
70
64
3
- - - - - - - - - - - - - - - - - - - -
72
65
73
2
40
0.2
49
0.1
74
0
49
-0.1
74
0
0
ENDTAB
0
TABLE
2
LAYER
5
2
100
AcDbSymbolTable
70
36
0
LAYER
5
10
100
AcDbSymbolTableRecord
100
AcDbLayerTableRecord
2
0
70
0
62
7
6
CONTINUOUS
0
LAYER
5
1FA
100
AcDbSymbolTableRecord
100
AcDbLayerTableRecord
2
DEFAULT_1
70
0
62
7
6
CENTER
0
LAYER
5
1FB
100
AcDbSymbolTableRecord
100
AcDbLayerTableRecord
2
DEFAULT_2
70
0
62
8
6
HIDDEN
0
LAYER
5
1FC
100
AcDbSymbolTableRecord
100
AcDbLayerTableRecord
2
DEFAULT_3
70
0
62
7
6
PHANTOM
0
ENDTAB
0
TABLE
2
STYLE
5
3
100
AcDbSymbolTable
70
1
0
STYLE
5
11
100
AcDbSymbolTableRecord
100
AcDbTextStyleTableRecord
2
STANDARD
70
0
40
0.0
41
1.0
50
0.0
71
0
42
0.0
3
txt
4

0
STYLE
5
1FD
100
AcDbSymbolTableRecord
100
AcDbTextStyleTableRecord
2
TEXTSTYLE_0
70
0
40
0.0
41
0.80
50
0.0
71
0
42
0.2
3
txt
4

0
ENDTAB
0
TABLE
2
VIEW
5
6
100
AcDbSymbolTable
70
0
0
ENDTAB
0
TABLE
2
UCS
5
7
100
AcDbSymbolTable
70
0
0
ENDTAB
0
TABLE
2
APPID
5
9
100
AcDbSymbolTable
70
1
0
APPID
5
1FE
100
AcDbSymbolTableRecord
100
AcDbRegAppTableRecord
2
ACAD
70
0
0
ENDTAB
0
TABLE
2
DIMSTYLE
5
A
100
AcDbSymbolTable
70
1
0
DIMSTYLE
105
1FF
100
AcDbSymbolTableRecord
100
AcDbDimStyleTableRecord
2
STANDARD
70
0
3

4

5

6

7

40
1.0
41
0.18
42
0.0625
43
0.38
44
0.18
45
0.0
46
0.0
47
0.0050000000
48
0.0050000000
140
3.5000000000
141
0.09
142
0.0
143
25.4
144
1.0000000000
145
0.0
146
0.6000000000
147
0.09
71
1
72
0
73
1
74
1
75
0
76
0
77
0
78
0
170
0
171
2
172
0
173
0
174
0
175
0
176
0
177
0
178
0
270
2
271
3
272
4
273
2
274
2
340
11
275
0
280
0
281
0
282
0
283
1
284
0
285
0
286
0
287
3
288
0
0
ENDTAB
0
TABLE
2
BLOCK_RECORD
5
1
100
AcDbSymbolTable
70
0
0
BLOCK_RECORD
5
1B
100
AcDbSymbolTableRecord
100
AcDbBlockTableRecord
2
*MODEL_SPACE
0
BLOCK_RECORD
5
1C
100
AcDbSymbolTableRecord
100
AcDbBlockTableRecord
2
*PAPER_SPACE
0
ENDTAB
0
ENDSEC
0
SECTION
2
BLOCKS
0
BLOCK
5
1E
100
AcDbEntity
8
0
100
AcDbBlockBegin
2
*MODEL_SPACE
70
0
10
0.0
20
0.0
30
0.0
3
*MODEL_SPACE
1

0
ENDBLK
5
1F
100
AcDbEntity
8
0
100
AcDbBlockEnd
0
BLOCK
5
20
100
AcDbEntity
8
0
100
AcDbBlockBegin
2
*PAPER_SPACE
70
0
10
0.0
20
0.0
30
0.0
3
*PAPER_SPACE
1

0
ENDBLK
5
21
100
AcDbEntity
8
0
100
AcDbBlockEnd
0
ENDSEC
0
SECTION
2
ENTITIES
0
TEXT
5
200
100
AcDbEntity
8
0
100
AcDbText
62
2
6
CONTINUOUS
10
109.7723450804
20
116.3875439146
7
TEXTSTYLE_0
40
3.5000000000
1
RUD
72
5
11
118.4390114165
21
116.3875439146
100
AcDbText
0
TEXT
5
201
100
AcDbEntity
8
0
100
AcDbText
62
2
6
CONTINUOUS
10
127.4849022252
20
123.3497454810
7
TEXTSTYLE_0
40
3.5000000000
1
VMH 4/VIP
50
90.0000000000
72
5
11
127.4849022252
21
148.0997454810
100
AcDbText
0
TEXT
5
202
100
AcDbEntity
8
0
100
AcDbText
62
2
6
CONTINUOUS
10
293.2007684626
20
154.6285188214
7
TEXTSTYLE_0
40
3.5000000000
1
RUD
50
90.0000000000
72
5
11
293.2007684626
21
163.2951854881
100
AcDbText
0
TEXT
5
203
100
AcDbEntity
8
0
100
AcDbText
62
2
6
CONTINUOUS
10
300.3274185696
20
131.2652818452
7
TEXTSTYLE_0
40
3.5000000000
1
VMH    4/VIP
50
90.0000000000
72
5
11
300.3274185696
21
164.2652818452
100
AcDbText
0
LINE
5
204
100
AcDbEntity
8
0
100
AcDbLine
62
7
6
CONTINUOUS
10
0.0000000000
20
0.0000000000
11
0.0000000000
21
297.0000000000
0
LINE
5
205
100
AcDbEntity
8
0
100
AcDbLine
62
7
6
CONTINUOUS
10
0.0000000000
20
0.0000000000
11
420.0000000000
21
0.0000000000
0
LINE
5
206
100
AcDbEntity
8
0
100
AcDbLine
62
7
6
CONTINUOUS
10
0.0000000000
20
297.0000000000
11
420.0000000000
21
297.0000000000
0
LINE
5
207
100
AcDbEntity
8
0
100
AcDbLine
62
7
6
CONTINUOUS
10
420.0000000000
20
0.0000000000
11
420.0000000000
21
297.0000000000
0
LINE
5
208
100
AcDbEntity
8
0
100
AcDbLine
62
7
6
CONTINUOUS
10
91.9888478426
20
173.6691963068
11
93.6818615029
21
175.1935926536
0
LINE
5
209
100
AcDbEntity
8
0
100
AcDbLine
62
7
6
CONTINUOUS
10
88.2761116618
20
141.0406149753
11
89.9915887731
21
173.7738682193
0
LINE
5
20A
100
AcDbEntity
8
0
100
AcDbLine
62
7
6
CONTINUOUS
10
87.4524656568
20
139.6293276003
11
87.8949190514
21
144.6865930419
0
LINE
5
20B
100
AcDbEntity
8
0
100
AcDbLine
62
7
6
CONTINUOUS
10
97.4744982856
20
130.4314148667
11
93.0394713290
21
139.1356453638
0
LINE
5
20C
100
AcDbEntity
8
0
100
AcDbLine
62
7
6
CONTINUOUS
10
93.4484332231
20
153.7514379366
11
92.7699445682
21
140.8051031722
0
LINE
5
20D
100
AcDbEntity
8
0
100
AcDbLine
62
7
6
CONTINUOUS
10
94.2482280571
20
156.2129533305
11
101.9747679616
21
168.1107814209
0
LINE
5
20E
100
AcDbEntity
8
0
100
AcDbLine
62
7
6
CONTINUOUS
10
87.4524656568
20
139.6293276003
11
93.4471202585
21
138.0230647408
0
LINE
5
20F
100
AcDbEntity
8
0
100
AcDbLine
62
7
6
CONTINUOUS
10
88.2943665987
20
144.4354871479
11
88.4479413487
21
144.3193207165
0
LINE
5
210
100
AcDbEntity
8
0
100
AcDbLine
62
7
6
CONTINUOUS
10
97.6120798379
20
178.9125436115
11
97.6120798379
21
186.6062961135
0
LINE
5
211
100
AcDbEntity
8
0
100
AcDbLine
62
7
6
CONTINUOUS
10
88.2761116618
20
141.0406149753
11
92.7699445682
21
140.8051031722
0
LINE
5
212
100
AcDbEntity
8
0
100
AcDbLine
62
7
6
CONTINUOUS
10
106.3620798379
20
176.8562961135
11
106.3620798379
21
186.1060504981
0
LINE
5
213
100
AcDbEntity
8
0
100
AcDbLine
62
7
6
CONTINUOUS
10
117.1120798379
20
171.1062961135
11
115.2874696074
21
167.9459784903
0
LINE
5
214
100
AcDbEntity
8
DEFAULT_1
100
AcDbLine
62
2
6
CENTER
10
108.6120798379
20
190.6062961135
11
108.6120798379
21
108.6062961135
0
LINE
5
215
100
AcDbEntity
8
0
100
AcDbLine
62
7
6
CONTINUOUS
10
110.8620798379
20
186.1062961135
11
110.8620798379
21
176.8562961135
0
LINE
5
216
100
AcDbEntity
8
0
100
AcDbLine
62
7
6
CONTINUOUS
10
110.9306741175
20
152.7896508867
11
118.1876353769
21
144.1411412346
0
LINE
5
217
100
AcDbEntity
8
0
100
AcDbLine
62
7
6
CONTINUOUS
10
105.8923821196
20
164.3848460780
11
103.6405977088
21
172.7886199067
0
LINE
5
218
100
AcDbEntity
8
0
100
AcDbLine
62
7
6
CONTINUOUS
10
117.1120798379
20
186.6060197398
11
117.1120798379
21
171.1062961135
0
LINE
5
219
100
AcDbEntity
8
0
100
AcDbLine
62
7
6
CONTINUOUS
10
106.0922635027
20
164.0008775134
11
117.9562169915
21
149.8619683208
0
LINE
5
21A
100
AcDbEntity
8
0
100
AcDbLine
62
7
6
CONTINUOUS
10
99.2257317730
20
163.8776369098
11
103.6310029665
21
162.6972480511
0
LINE
5
21B
100
AcDbEntity
8
0
100
AcDbLine
62
7
6
CONTINUOUS
10
117.0582503287
20
163.6012511196
11
128.0826425864
21
152.5768588620
0
LINE
5
21C
100
AcDbEntity
8
0
100
AcDbLine
62
7
6
CONTINUOUS
10
91.9888478426
20
173.6691963068
11
89.9915887731
21
173.7738682193
0
LINE
5
21D
100
AcDbEntity
8
0
100
AcDbLine
62
7
6
CONTINUOUS
10
106.3620798379
20
179.7062961135
11
110.8620798379
21
179.7062961135
0
LINE
5
21E
100
AcDbEntity
8
DEFAULT_1
100
AcDbLine
62
2
6
CENTER
10
96.8358840844
20
182.1062961135
11
117.5552960442
21
182.1062961135
0
LINE
5
21F
100
AcDbEntity
8
0
100
AcDbLine
62
7
6
CONTINUOUS
10
106.3620798379
20
184.5062961135
11
110.8620798379
21
184.5062961135
0
LINE
5
220
100
AcDbEntity
8
0
100
AcDbLine
62
7
6
CONTINUOUS
10
98.6120798379
20
187.6062961135
11
104.8620798379
21
187.6062961135
0
LINE
5
221
100
AcDbEntity
8
0
100
AcDbLine
62
7
6
CONTINUOUS
10
112.3620798379
20
187.6062961135
11
116.1120798379
21
187.6062961135
0
LINE
5
222
100
AcDbEntity
8
0
100
AcDbLine
62
7
6
CONTINUOUS
10
293.8538935937
20
111.6062961135
11
296.9003663921
21
111.6062961135
0
LINE
5
223
100
AcDbEntity
8
0
100
AcDbLine
62
7
6
CONTINUOUS
10
289.2010036070
20
183.9035053397
11
291.6584348703
21
186.1586172490
0
POLYLINE
5
224
100
AcDbEntity
8
0
100
AcDb2dPolyline
62
7
6
CONTINUOUS
66
1
70
0
0
VERTEX
5
225
100
AcDbEntity
8
0
100
AcDbVertex
62
7
6
CONTINUOUS
100
AcDb2dVertex
10
286.8771299929
20
173.6691963068
0
VERTEX
5
226
100
AcDbEntity
8
0
100
AcDbVertex
62
7
6
CONTINUOUS
100
AcDb2dVertex
10
286.9027994671
20
173.6857647808
0
VERTEX
5
227
100
AcDbEntity
8
0
100
AcDbVertex
62
7
6
CONTINUOUS
100
AcDb2dVertex
10
286.9750169603
20
173.7015417066
0
VERTEX
5
228
100
AcDbEntity
8
0
100
AcDbVertex
62
7
6
CONTINUOUS
100
AcDb2dVertex
10
287.0955204499
20
173.7167056006
0
VERTEX
5
229
100
AcDbEntity
8
0
100
AcDbVertex
62
7
6
CONTINUOUS
100
AcDb2dVertex
10
287.2590960042
20
173.7307209133
0
VERTEX
5
22A
100
AcDbEntity
8
0
100
AcDbVertex
62
7
6
CONTINUOUS
100
AcDb2dVertex
10
287.4632366542
20
173.7431937667
0
VERTEX
5
22B
100
AcDbEntity
8
0
100
AcDbVertex
62
7
6
CONTINUOUS
100
AcDb2dVertex
10
287.7015594883
20
173.7538776628
0
VERTEX
5
22C
100
AcDbEntity
8
0
100
AcDbVertex
62
7
6
CONTINUOUS
100
AcDb2dVertex
10
287.9693545897
20
173.7624385459
0
VERTEX
5
22D
100
AcDbEntity
8
0
100
AcDbVertex
62
7
6
CONTINUOUS
100
AcDb2dVertex
10
288.2590960042
20
173.7687452112
0
VERTEX
5
22E
100
AcDbEntity
8
0
100
AcDbVertex
62
7
6
CONTINUOUS
100
AcDb2dVertex
10
288.5605508144
20
173.7725247828
0
SEQEND
5
22F
100
AcDbEntity
8
0
0
LINE
5
230
100
AcDbEntity
8
0
100
AcDbLine
62
7
6
CONTINUOUS
10
288.7431553967
20
179.3742453059
11
287.1450791853
21
176.6062961135
0
LINE
5
231
100
AcDbEntity
8
0
100
AcDbLine
62
7
6
CONTINUOUS
10
286.8771299929
20
176.1421944983
11
286.5111097307
21
175.5082288076
0
LINE
5
232
100
AcDbEntity
8
0
100
AcDbLine
62
7
6
CONTINUOUS
10
300.2987028682
20
172.5757649632
11
301.4984503365
21
173.7738682193
0
POLYLINE
5
233
100
AcDbEntity
8
0
100
AcDb2dPolyline
62
7
6
CONTINUOUS
66
1
70
0
0
VERTEX
5
234
100
AcDbEntity
8
0
100
AcDbVertex
62
7
6
CONTINUOUS
100
AcDb2dVertex
10
300.2987028682
20
172.5757649632
0
VERTEX
5
235
100
AcDbEntity
8
0
100
AcDbVertex
62
7
6
CONTINUOUS
100
AcDb2dVertex
10
299.9513565229
20
172.1791328042
0
VERTEX
5
236
100
AcDbEntity
8
0
100
AcDbVertex
62
7
6
CONTINUOUS
100
AcDb2dVertex
10
299.6630283778
20
171.7484731690
0
VERTEX
5
237
100
AcDbEntity
8
0
100
AcDbVertex
62
7
6
CONTINUOUS
100
AcDb2dVertex
10
299.4320164205
20
171.2796826680
0
VERTEX
5
238
100
AcDbEntity
8
0
100
AcDbVertex
62
7
6
CONTINUOUS
100
AcDb2dVertex
10
299.2634266878
20
170.7850714699
0
VERTEX
5
239
100
AcDbEntity
8
0
100
AcDbVertex
62
7
6
CONTINUOUS
100
AcDb2dVertex
10
299.1623652159
20
170.2769497436
0
VERTEX
5
23A
100
AcDbEntity
8
0
100
AcDbVertex
62
7
6
CONTINUOUS
100
AcDb2dVertex
10
299.1271299929
20
169.7512140995
0
SEQEND
5
23B
100
AcDbEntity
8
0
0
LINE
5
23C
100
AcDbEntity
8
0
100
AcDbLine
62
7
6
CONTINUOUS
10
286.3771299929
20
164.7379486111
11
286.3771299929
21
175.0082199021
0
LINE
5
23D
100
AcDbEntity
8
0
100
AcDbLine
62
7
6
CONTINUOUS
10
286.4771299929
20
168.6070088569
11
286.4771299929
21
173.6055833701
0
LINE
5
23E
100
AcDbEntity
8
0
100
AcDbLine
62
7
6
CONTINUOUS
10
286.8771299929
20
156.7319244840
11
286.8771299929
21
176.6060881883
0
LINE
5
23F
100
AcDbEntity
8
0
100
AcDbLine
62
7
6
CONTINUOUS
10
291.3429116732
20
114.0208770188
11
291.3428946315
21
114.0210605634
0
LINE
5
240
100
AcDbEntity
8
0
100
AcDbLine
62
7
6
CONTINUOUS
10
288.8771299929
20
173.7738682193
11
288.8771299929
21
176.6060496387
0
LINE
5
241
100
AcDbEntity
8
0
100
AcDbLine
62
7
6
CONTINUOUS
10
288.8771299929
20
179.8742453059
11
288.8771299929
21
183.1667196787
0
LINE
5
242
100
AcDbEntity
8
0
100
AcDbLine
62
7
6
CONTINUOUS
10
289.3771299929
20
119.6582961000
11
289.3771299929
21
145.3702667597
0
LINE
5
243
100
AcDbEntity
8
0
100
AcDbLine
62
7
6
CONTINUOUS
10
286.9943577646
20
156.2129533305
11
286.8771299929
21
156.7319244840
0
LINE
5
244
100
AcDbEntity
8
0
100
AcDbLine
62
7
6
CONTINUOUS
10
287.5412327646
20
153.7514379366
11
289.8454225806
21
143.2324344900
0
POLYLINE
5
245
100
AcDbEntity
8
0
100
AcDb2dPolyline
62
7
6
CONTINUOUS
66
1
70
0
0
VERTEX
5
246
100
AcDbEntity
8
0
100
AcDbVertex
62
7
6
CONTINUOUS
100
AcDb2dVertex
10
291.6271299929
20
169.7512140995
0
VERTEX
5
247
100
AcDbEntity
8
0
100
AcDbVertex
62
7
6
CONTINUOUS
100
AcDb2dVertex
10
291.6666435981
20
169.2130052753
0
VERTEX
5
248
100
AcDbEntity
8
0
100
AcDbVertex
62
7
6
CONTINUOUS
100
AcDb2dVertex
10
291.7790313419
20
168.6961649039
0
VERTEX
5
249
100
AcDbEntity
8
0
100
AcDbVertex
62
7
6
CONTINUOUS
100
AcDb2dVertex
10
291.9665383154
20
168.1957836583
0
VERTEX
5
24A
100
AcDbEntity
8
0
100
AcDbVertex
62
7
6
CONTINUOUS
100
AcDb2dVertex
10
292.2224292448
20
167.7265895195
0
VERTEX
5
24B
100
AcDbEntity
8
0
100
AcDbVertex
62
7
6
CONTINUOUS
100
AcDb2dVertex
10
292.5435080208
20
167.2992316520
0
VERTEX
5
24C
100
AcDbEntity
8
0
100
AcDbVertex
62
7
6
CONTINUOUS
100
AcDb2dVertex
10
292.9214022406
20
166.9210371776
0
VERTEX
5
24D
100
AcDbEntity
8
0
100
AcDbVertex
62
7
6
CONTINUOUS
100
AcDb2dVertex
10
293.3500409262
20
166.6013246811
0
VERTEX
5
24E
100
AcDbEntity
8
0
100
AcDbVertex
62
7
6
CONTINUOUS
100
AcDb2dVertex
10
293.8193236942
20
166.3447689383
0
VERTEX
5
24F
100
AcDbEntity
8
0
100
AcDbVertex
62
7
6
CONTINUOUS
100
AcDb2dVertex
10
294.3207965322
20
166.1586030177
0
VERTEX
5
250
100
AcDbEntity
8
0
100
AcDbVertex
62
7
6
CONTINUOUS
100
AcDb2dVertex
10
294.8434493494
20
166.0444706270
0
VERTEX
5
251
100
AcDbEntity
8
0
100
AcDbVertex
62
7
6
CONTINUOUS
100
AcDb2dVertex
10
295.3771299929
20
166.0069333381
0
VERTEX
5
252
100
AcDbEntity
8
0
100
AcDbVertex
62
7
6
CONTINUOUS
100
AcDb2dVertex
10
295.9108106364
20
166.0444706270
0
VERTEX
5
253
100
AcDbEntity
8
0
100
AcDbVertex
62
7
6
CONTINUOUS
100
AcDb2dVertex
10
296.4334634536
20
166.1586030177
0
VERTEX
5
254
100
AcDbEntity
8
0
100
AcDbVertex
62
7
6
CONTINUOUS
100
AcDb2dVertex
10
296.9349362917
20
166.3447689383
0
VERTEX
5
255
100
AcDbEntity
8
0
100
AcDbVertex
62
7
6
CONTINUOUS
100
AcDb2dVertex
10
297.4042190596
20
166.6013246811
0
VERTEX
5
256
100
AcDbEntity
8
0
100
AcDbVertex
62
7
6
CONTINUOUS
100
AcDb2dVertex
10
297.8328577452
20
166.9210371776
0
VERTEX
5
257
100
AcDbEntity
8
0
100
AcDbVertex
62
7
6
CONTINUOUS
100
AcDb2dVertex
10
298.2107519650
20
167.2992316520
0
VERTEX
5
258
100
AcDbEntity
8
0
100
AcDbVertex
62
7
6
CONTINUOUS
100
AcDb2dVertex
10
298.5318307410
20
167.7265895195
0
VERTEX
5
259
100
AcDbEntity
8
0
100
AcDbVertex
62
7
6
CONTINUOUS
100
AcDb2dVertex
10
298.7877216704
20
168.1957836583
0
VERTEX
5
25A
100
AcDbEntity
8
0
100
AcDbVertex
62
7
6
CONTINUOUS
100
AcDb2dVertex
10
298.9752286440
20
168.6961649039
0
VERTEX
5
25B
100
AcDbEntity
8
0
100
AcDbVertex
62
7
6
CONTINUOUS
100
AcDb2dVertex
10
299.0876163877
20
169.2130052753
0
VERTEX
5
25C
100
AcDbEntity
8
0
100
AcDbVertex
62
7
6
CONTINUOUS
100
AcDb2dVertex
10
299.1271299929
20
169.7512140995
0
SEQEND
5
25D
100
AcDbEntity
8
0
0
POLYLINE
5
25E
100
AcDbEntity
8
0
100
AcDb2dPolyline
62
7
6
CONTINUOUS
66
1
70
0
0
VERTEX
5
25F
100
AcDbEntity
8
0
100
AcDbVertex
62
7
6
CONTINUOUS
100
AcDb2dVertex
10
291.6271299929
20
169.7512140995
0
VERTEX
5
260
100
AcDbEntity
8
0
100
AcDbVertex
62
7
6
CONTINUOUS
100
AcDb2dVertex
10
291.5918947699
20
170.2769497436
0
VERTEX
5
261
100
AcDbEntity
8
0
100
AcDbVertex
62
7
6
CONTINUOUS
100
AcDb2dVertex
10
291.4908332981
20
170.7850714699
0
VERTEX
5
262
100
AcDbEntity
8
0
100
AcDbVertex
62
7
6
CONTINUOUS
100
AcDb2dVertex
10
291.3222435653
20
171.2796826680
0
VERTEX
5
263
100
AcDbEntity
8
0
100
AcDbVertex
62
7
6
CONTINUOUS
100
AcDb2dVertex
10
291.0912316080
20
171.7484731690
0
VERTEX
5
264
100
AcDbEntity
8
0
100
AcDbVertex
62
7
6
CONTINUOUS
100
AcDb2dVertex
10
290.8029034629
20
172.1791328042
0
VERTEX
5
265
100
AcDbEntity
8
0
100
AcDbVertex
62
7
6
CONTINUOUS
100
AcDb2dVertex
10
290.4555571177
20
172.5757649632
0
SEQEND
5
266
100
AcDbEntity
8
0
0
LINE
5
267
100
AcDbEntity
8
0
100
AcDbLine
62
7
6
CONTINUOUS
10
292.1271299929
20
177.3730220429
11
292.1271299929
21
167.9013274460
0
LINE
5
268
100
AcDbEntity
8
0
100
AcDbLine
62
7
6
CONTINUOUS
10
293.8977723767
20
144.9973867548
11
293.8988689122
21
144.9973869434
0
LINE
5
269
100
AcDbEntity
8
0
100
AcDbLine
62
7
6
CONTINUOUS
10
293.9021910575
20
144.9973869813
11
296.8520689283
21
144.9973869813
0
LINE
5
26A
100
AcDbEntity
8
0
100
AcDbLine
62
7
6
CONTINUOUS
10
297.3771299929
20
146.0337626491
11
293.3771299929
21
146.0337626491
0
LINE
5
26B
100
AcDbEntity
8
0
100
AcDbLine
62
7
6
CONTINUOUS
10
296.8564876091
20
144.9973867548
11
296.8554089994
21
144.9973869475
0
LINE
5
26C
100
AcDbEntity
8
0
100
AcDbLine
62
7
6
CONTINUOUS
10
286.4112041465
20
164.4791296411
11
286.8771299929
21
162.7402707097
0
LINE
5
26D
100
AcDbEntity
8
0
100
AcDbLine
62
7
6
CONTINUOUS
10
293.3771299929
20
144.9724217908
11
293.3771299929
21
146.0337626491
0
LINE
5
26E
100
AcDbEntity
8
DEFAULT_1
100
AcDbLine
62
2
6
CENTER
10
295.3771299929
20
182.1062961135
11
295.3771299929
21
110.5712111029
0
LINE
5
26F
100
AcDbEntity
8
DEFAULT_1
100
AcDbLine
62
2
6
CENTER
10
295.3771299929
20
182.1062961135
11
295.3771299929
21
188.7337409999
0
LINE
5
270
100
AcDbEntity
8
0
100
AcDbLine
62
7
6
CONTINUOUS
10
300.0296496245
20
144.1204200711
11
300.0313195159
21
144.1193414470
0
LINE
5
271
100
AcDbEntity
8
0
100
AcDbLine
62
7
6
CONTINUOUS
10
297.3771299929
20
144.9724897558
11
297.3771299929
21
146.0337626491
0
LINE
5
272
100
AcDbEntity
8
0
100
AcDbLine
62
7
6
CONTINUOUS
10
290.7245947702
20
144.1204100888
11
290.7229406591
21
144.1193415704
0
LINE
5
273
100
AcDbEntity
8
0
100
AcDbLine
62
7
6
CONTINUOUS
10
298.6271299929
20
177.3730220429
11
298.6271299929
21
167.9013274460
0
LINE
5
274
100
AcDbEntity
8
0
100
AcDbLine
62
7
6
CONTINUOUS
10
304.3430558192
20
164.4791295660
11
303.8771299929
21
162.7402707097
0
LINE
5
275
100
AcDbEntity
8
0
100
AcDbLine
62
7
6
CONTINUOUS
10
301.3771299929
20
119.6582961000
11
301.3771299929
21
145.3702667597
0
LINE
5
276
100
AcDbEntity
8
0
100
AcDbLine
62
7
6
CONTINUOUS
10
301.8771299929
20
173.7738682193
11
301.8771299929
21
176.6060496387
0
LINE
5
277
100
AcDbEntity
8
0
100
AcDbLine
62
7
6
CONTINUOUS
10
301.8771299929
20
179.8742453059
11
301.8771299929
21
183.1667196787
0
LINE
5
278
100
AcDbEntity
8
0
100
AcDbLine
62
7
6
CONTINUOUS
10
299.4113483127
20
114.0208770188
11
299.4113662461
21
114.0210701722
0
LINE
5
279
100
AcDbEntity
8
0
100
AcDbLine
62
7
6
CONTINUOUS
10
303.2130272212
20
153.7514379366
11
300.9088342371
21
143.2324200269
0
LINE
5
27A
100
AcDbEntity
8
0
100
AcDbLine
62
7
6
CONTINUOUS
10
303.7599022212
20
156.2129533305
11
303.8771299929
21
156.7319244840
0
LINE
5
27B
100
AcDbEntity
8
0
100
AcDbLine
62
7
6
CONTINUOUS
10
303.8771299929
20
156.7319244840
11
303.8771299929
21
176.6060881883
0
LINE
5
27C
100
AcDbEntity
8
0
100
AcDbLine
62
7
6
CONTINUOUS
10
304.2771299929
20
168.6070088569
11
304.2771299929
21
173.6055833701
0
LINE
5
27D
100
AcDbEntity
8
0
100
AcDbLine
62
7
6
CONTINUOUS
10
304.3771299929
20
164.7379486111
11
304.3771299929
21
175.0082199021
0
LINE
5
27E
100
AcDbEntity
8
0
100
AcDbLine
62
7
6
CONTINUOUS
10
289.2558096493
20
173.7738682193
11
290.4555571177
21
172.5757649632
0
LINE
5
27F
100
AcDbEntity
8
0
100
AcDbLine
62
7
6
CONTINUOUS
10
304.2771299929
20
168.6062961135
11
303.8771299929
21
168.6062961135
0
LINE
5
280
100
AcDbEntity
8
0
100
AcDbLine
62
7
6
CONTINUOUS
10
286.8771299929
20
168.6062961135
11
286.4771299929
21
168.6062961135
0
LINE
5
281
100
AcDbEntity
8
0
100
AcDbLine
62
7
6
CONTINUOUS
10
299.0426671585
20
169.0062961135
11
298.6271299929
21
169.0062961135
0
LINE
5
282
100
AcDbEntity
8
0
100
AcDbLine
62
7
6
CONTINUOUS
10
292.1271299929
20
169.0062961135
11
291.7115928273
21
169.0062961135
0
LINE
5
283
100
AcDbEntity
8
0
100
AcDbLine
62
7
6
CONTINUOUS
10
302.0111045891
20
179.3742453059
11
303.6091808005
21
176.6062961135
0
LINE
5
284
100
AcDbEntity
8
0
100
AcDbLine
62
7
6
CONTINUOUS
10
303.8771299929
20
176.1421944983
11
304.2431502551
21
175.5082288076
0
LINE
5
285
100
AcDbEntity
8
0
100
AcDbLine
62
7
6
CONTINUOUS
10
300.9300993254
20
173.2062961135
11
298.6271299929
21
173.2062961135
0
LINE
5
286
100
AcDbEntity
8
0
100
AcDbLine
62
7
6
CONTINUOUS
10
292.1271299929
20
173.2062961135
11
289.8241606604
21
173.2062961135
0
LINE
5
287
100
AcDbEntity
8
0
100
AcDbLine
62
7
6
CONTINUOUS
10
304.2771299929
20
173.6062961135
11
303.8771299929
21
173.6062961135
0
LINE
5
288
100
AcDbEntity
8
0
100
AcDbLine
62
7
6
CONTINUOUS
10
286.8771299929
20
173.6062961135
11
286.4771299929
21
173.6062961135
0
LINE
5
289
100
AcDbEntity
8
0
100
AcDbLine
62
7
6
CONTINUOUS
10
288.5605508144
20
173.7725247828
11
289.2558096493
21
173.7738682193
0
POLYLINE
5
28A
100
AcDbEntity
8
0
100
AcDb2dPolyline
62
7
6
CONTINUOUS
66
1
70
0
0
VERTEX
5
28B
100
AcDbEntity
8
0
100
AcDbVertex
62
7
6
CONTINUOUS
100
AcDb2dVertex
10
303.8771299929
20
173.6691963068
0
VERTEX
5
28C
100
AcDbEntity
8
0
100
AcDbVertex
62
7
6
CONTINUOUS
100
AcDb2dVertex
10
303.8514605188
20
173.6857647808
0
VERTEX
5
28D
100
AcDbEntity
8
0
100
AcDbVertex
62
7
6
CONTINUOUS
100
AcDb2dVertex
10
303.7792430255
20
173.7015417066
0
VERTEX
5
28E
100
AcDbEntity
8
0
100
AcDbVertex
62
7
6
CONTINUOUS
100
AcDb2dVertex
10
303.6587395359
20
173.7167056006
0
VERTEX
5
28F
100
AcDbEntity
8
0
100
AcDbVertex
62
7
6
CONTINUOUS
100
AcDb2dVertex
10
303.4951639817
20
173.7307209133
0
VERTEX
5
290
100
AcDbEntity
8
0
100
AcDbVertex
62
7
6
CONTINUOUS
100
AcDb2dVertex
10
303.2910233316
20
173.7431937667
0
VERTEX
5
291
100
AcDbEntity
8
0
100
AcDbVertex
62
7
6
CONTINUOUS
100
AcDb2dVertex
10
303.0527004975
20
173.7538776628
0
VERTEX
5
292
100
AcDbEntity
8
0
100
AcDbVertex
62
7
6
CONTINUOUS
100
AcDb2dVertex
10
302.7849053961
20
173.7624385459
0
VERTEX
5
293
100
AcDbEntity
8
0
100
AcDbVertex
62
7
6
CONTINUOUS
100
AcDb2dVertex
10
302.4951639817
20
173.7687452112
0
VERTEX
5
294
100
AcDbEntity
8
0
100
AcDbVertex
62
7
6
CONTINUOUS
100
AcDb2dVertex
10
302.1937091714
20
173.7725247828
0
VERTEX
5
295
100
AcDbEntity
8
0
100
AcDbVertex
62
7
6
CONTINUOUS
100
AcDb2dVertex
10
301.4984503365
20
173.7738682193
0
SEQEND
5
296
100
AcDbEntity
8
0
0
LINE
5
297
100
AcDbEntity
8
0
100
AcDbLine
62
7
6
CONTINUOUS
10
286.8771299929
20
176.6062961135
11
288.8771299929
21
176.6062961135
0
LINE
5
298
100
AcDbEntity
8
0
100
AcDbLine
62
7
6
CONTINUOUS
10
301.8771299929
20
176.6062961135
11
303.8771299929
21
176.6062961135
0
LINE
5
299
100
AcDbEntity
8
0
100
AcDbLine
62
7
6
CONTINUOUS
10
301.5532563788
20
183.9035053397
11
299.0958251155
21
186.1586172490
0
LINE
5
29A
100
AcDbEntity
8
DEFAULT_1
100
AcDbLine
62
2
6
CENTER
10
295.3771299929
20
182.1062961135
11
288.0530471967
21
182.1062961135
0
LINE
5
29B
100
AcDbEntity
8
DEFAULT_1
100
AcDbLine
62
2
6
CENTER
10
295.3771299929
20
182.1062961135
11
302.2007452605
21
182.1062961135
0
CIRCLE
5
29C
100
AcDbEntity
8
0
100
AcDbCircle
62
7
6
CONTINUOUS
10
97.3620798379
20
171.1062961135
40
2.5000000000
0
ARC
5
29D
100
AcDbEntity
8
0
100
AcDbCircle
62
7
6
CONTINUOUS
10
97.3620798379
20
171.1062961135
40
5.5000000000
100
AcDbArc
50
327.0000000000
51
132.0000000000
0
ARC
5
29E
100
AcDbEntity
8
0
100
AcDbCircle
62
7
6
CONTINUOUS
10
98.4415808969
20
153.4897581554
40
5.0000000000
100
AcDbArc
50
147.0000000000
51
177.0000000000
0
CIRCLE
5
29F
100
AcDbEntity
8
0
100
AcDbCircle
62
7
6
CONTINUOUS
10
97.3620798379
20
171.1062961135
40
2.1000000000
0
ARC
5
2A0
100
AcDbEntity
8
0
100
AcDbCircle
62
7
6
CONTINUOUS
10
98.6120798379
20
186.6062961135
40
1.0000000000
100
AcDbArc
50
90.0000000000
51
180.0000000000
0
ARC
5
2A1
100
AcDbEntity
8
0
100
AcDbCircle
62
7
6
CONTINUOUS
10
108.6120798379
20
136.1062961135
40
26.5000000000
100
AcDbArc
50
337.9340578006
51
359.4460772514
0
ARC
5
2A2
100
AcDbEntity
8
0
100
AcDbCircle
62
7
6
CONTINUOUS
10
120.5937842346
20
167.1367850256
40
5.0000000000
100
AcDbArc
50
150.0000000000
51
225.0000000000
0
ARC
5
2A3
100
AcDbEntity
8
0
100
AcDbCircle
62
7
6
CONTINUOUS
10
116.1120798379
20
186.6062961135
40
1.0000000000
100
AcDbArc
50
0.0000000000
51
90.0000000000
0
ARC
5
2A4
100
AcDbEntity
8
0
100
AcDbCircle
62
7
6
CONTINUOUS
10
104.8620798379
20
186.1062961135
40
1.5000000000
100
AcDbArc
50
0.0000000000
51
90.0000000000
0
ARC
5
2A5
100
AcDbEntity
8
0
100
AcDbCircle
62
7
6
CONTINUOUS
10
112.3620798379
20
186.1062961135
40
1.5000000000
100
AcDbArc
50
90.0000000000
51
180.0000000000
0
ARC
5
2A6
100
AcDbEntity
8
0
100
AcDbCircle
62
7
6
CONTINUOUS
10
102.5957267861
20
158.8335447460
40
4.0000000000
100
AcDbArc
50
22.9174167565
51
75.0000000000
0
ARC
5
2A7
100
AcDbEntity
8
0
100
AcDbCircle
62
7
6
CONTINUOUS
10
115.2467589961
20
147.6459412268
40
3.5002769476
100
AcDbArc
50
342.8138378160
51
39.2792442268
0
ARC
5
2A8
100
AcDbEntity
8
0
100
AcDbCircle
62
7
6
CONTINUOUS
10
99.1120798379
20
178.9125436115
40
1.5000000000
100
AcDbArc
50
180.0000000000
51
257.3643749070
0
ARC
5
2A9
100
AcDbEntity
8
0
100
AcDbCircle
62
7
6
CONTINUOUS
10
106.8583079458
20
164.6436651231
40
1.0000000000
100
AcDbArc
50
195.0000000000
51
220.0000000000
0
ARC
5
2AA
100
AcDbEntity
8
0
100
AcDbCircle
62
7
6
CONTINUOUS
10
123.9477236453
20
162.9459784903
40
10.0000000000
100
AcDbArc
50
150.0000000000
51
210.5495076465
0
CIRCLE
5
2AB
100
AcDbEntity
8
0
100
AcDbCircle
62
7
6
CONTINUOUS
10
100.9120798379
20
182.1062961135
40
1.2500000000
0
ARC
5
2AC
100
AcDbEntity
8
0
100
AcDbCircle
62
7
6
CONTINUOUS
10
79.6743734662
20
132.3257878677
40
15.0000000000
100
AcDbArc
50
27.0000000000
51
34.6262646744
0
ARC
5
2AD
100
AcDbEntity
8
0
100
AcDbCircle
62
7
6
CONTINUOUS
10
133.9120074111
20
172.0732791773
40
30.0000000000
100
AcDbArc
50
202.9174167566
51
220.0000000000
0
ARC
5
2AE
100
AcDbEntity
8
0
100
AcDbCircle
62
7
6
CONTINUOUS
10
108.6120798379
20
176.8562961135
40
2.2500000000
100
AcDbArc
50
180.0000000000
51
360.0000000000
0
ARC
5
2AF
100
AcDbEntity
8
0
100
AcDbCircle
62
7
6
CONTINUOUS
10
86.6120798379
20
141.4973869813
40
3.5000000000
100
AcDbArc
50
58.1625439124
51
217.2629075546
0
ARC
5
2B0
100
AcDbEntity
8
0
100
AcDbCircle
62
7
6
CONTINUOUS
10
93.6120798379
20
180.9138187365
40
4.0000000000
100
AcDbArc
50
290.9248323941
51
360.0000000000
0
ARC
5
2B1
100
AcDbEntity
8
0
100
AcDbCircle
62
7
6
CONTINUOUS
10
67.9092377182
20
127.2687645376
40
20.0000000000
100
AcDbArc
50
10.9229849895
51
37.2629075546
0
ARC
5
2B2
100
AcDbEntity
8
0
100
AcDbCircle
62
7
6
CONTINUOUS
10
97.3620798379
20
171.1062961135
40
6.5000000000
100
AcDbArc
50
110.9248324276
51
156.4609456763
0
ARC
5
2B3
100
AcDbEntity
8
0
100
AcDbCircle
62
7
6
CONTINUOUS
10
111.1120798379
20
135.6062961135
40
24.0000000000
100
AcDbArc
50
190.9229849895
51
336.7980764746
0
ARC
5
2B4
100
AcDbEntity
8
0
100
AcDbCircle
62
7
6
CONTINUOUS
10
97.3620798379
20
171.1062961135
40
6.5000000000
100
AcDbArc
50
15.0000000000
51
77.3643749070
0
ARC
5
2B5
100
AcDbEntity
8
0
100
AcDbCircle
62
7
6
CONTINUOUS
10
111.1120798379
20
135.6062961135
40
24.0000000000
100
AcDbArc
50
0.5820585774
51
45.0000000003
0
ARC
5
2B6
100
AcDbEntity
8
0
100
AcDbCircle
62
7
6
CONTINUOUS
10
108.6120798379
20
136.1062961135
40
12.5000000000
100
AcDbArc
50
207.0000000000
51
40.0000000000
0
ARC
5
2B7
100
AcDbEntity
8
DEFAULT_2
100
AcDbCircle
62
8
6
HIDDEN
10
295.3771299929
20
115.6062961135
40
8.0000000000
100
AcDbArc
50
53.1301023542
51
126.8698976458
0
ARC
5
2B8
100
AcDbEntity
8
0
100
AcDbCircle
62
7
6
CONTINUOUS
10
283.3771299929
20
113.2817407932
40
8.0000000000
100
AcDbArc
50
5.3037276313
51
35.0968012276
0
ARC
5
2B9
100
AcDbEntity
8
0
100
AcDbCircle
62
7
6
CONTINUOUS
10
292.3771299929
20
119.6062961135
40
3.0000000000
100
AcDbArc
50
180.0000000000
51
215.0968012276
0
CIRCLE
5
2BA
100
AcDbEntity
8
0
100
AcDbCircle
62
7
6
CONTINUOUS
10
295.3771299929
20
182.1062961135
40
2.4000000000
0
ARC
5
2BB
100
AcDbEntity
8
0
100
AcDbCircle
62
7
6
CONTINUOUS
10
307.3771299929
20
113.2817407932
40
8.0000000000
100
AcDbArc
50
144.9031987724
51
174.6962723687
0
ARC
5
2BC
100
AcDbEntity
8
0
100
AcDbCircle
62
7
6
CONTINUOUS
10
298.3771299929
20
119.6062961135
40
3.0000000000
100
AcDbArc
50
324.9031987724
51
360.0000000000
0
ARC
5
2BD
100
AcDbEntity
8
0
100
AcDbCircle
62
7
6
CONTINUOUS
10
287.3771299929
20
164.7379486111
40
1.0000000000
100
AcDbArc
50
180.0000000000
51
194.9999952956
0
ARC
5
2BE
100
AcDbEntity
8
0
100
AcDbCircle
62
7
6
CONTINUOUS
10
287.3771327338
20
175.0082246495
40
1.0000000000
100
AcDbArc
50
150.0003140830
51
180.0002697870
0
ARC
5
2BF
100
AcDbEntity
8
0
100
AcDbCircle
62
7
6
CONTINUOUS
10
289.8771299929
20
183.1667196787
40
1.0000000000
100
AcDbArc
50
132.5416817364
51
180.0000000000
0
ARC
5
2C0
100
AcDbEntity
8
0
100
AcDbCircle
62
7
6
CONTINUOUS
10
302.8771299929
20
179.8742453059
40
1.0000000000
100
AcDbArc
50
180.0000000000
51
210.0000000000
0
ARC
5
2C1
100
AcDbEntity
8
0
100
AcDbCircle
62
7
6
CONTINUOUS
10
287.8772125495
20
179.8742231850
40
0.9999587217
100
AcDbArc
50
329.9987324576
51
0.0012675424
0
ARC
5
2C2
100
AcDbEntity
8
0
100
AcDbCircle
62
7
6
CONTINUOUS
10
303.3771299929
20
164.7379486111
40
1.0000000000
100
AcDbArc
50
345.0000047044
51
360.0000000000
0
ARC
5
2C3
100
AcDbEntity
8
0
100
AcDbCircle
62
7
6
CONTINUOUS
10
303.3771299929
20
175.0082199021
40
1.0000000000
100
AcDbArc
50
0.0000000000
51
30.0005891801
0
ARC
5
2C4
100
AcDbEntity
8
0
100
AcDbCircle
62
7
6
CONTINUOUS
10
295.3771299929
20
182.1062961135
40
5.5000000000
100
AcDbArc
50
47.4583182636
51
132.5416817364
0
ARC
5
2C5
100
AcDbEntity
8
0
100
AcDbCircle
62
7
6
CONTINUOUS
10
300.8771299929
20
183.1667196787
40
1.0000000000
100
AcDbArc
50
0.0000000000
51
47.4583182636
0
SPLINE
5
2C6
100
AcDbEntity
8
0
100
AcDbSpline
62
7
6
CONTINUOUS
70
0
71
3
72
9
73
5
74
3
42
0.0000001000
43
0.0000001000
44
0.0000000001
40
0.0000000000
40
0.0000000000
40
0.0000000000
40
0.0000000000
40
0.5018558393
40
1.0000000000
40
1.0000000000
40
1.0000000000
40
1.0000000000
10
87.8949190514
20
144.6865930419
30
0.0000000000
10
87.9651612587
20
144.6504369949
30
0.0000000000
10
88.1021031287
20
144.5723581380
30
0.0000000000
10
88.2318265393
20
144.4827945545
30
0.0000000000
10
88.2943665987
20
144.4354871479
30
0.0000000000
11
87.8949190514
21
144.6865930419
31
0.0000000000
11
88.1007933769
21
144.5691757994
31
0.0000000000
11
88.2943665987
21
144.4354871479
31
0.0000000000
0
SPLINE
5
2C7
100
AcDbEntity
8
0
100
AcDbSpline
62
7
6
CONTINUOUS
70
0
71
3
72
10
73
6
74
4
42
0.0000001000
43
0.0000001000
44
0.0000000001
40
0.0000000000
40
0.0000000000
40
0.0000000000
40
0.0000000000
40
0.3108037705
40
0.6498896718
40
1.0000000000
40
1.0000000000
40
1.0000000000
40
1.0000000000
10
286.9943577646
20
156.2129533305
30
0.0000000000
10
287.0519165157
20
155.9581388694
30
0.0000000000
10
287.1715336118
20
155.4251558168
30
0.0000000000
10
287.3537822861
20
154.6046393005
30
0.0000000000
10
287.4782653920
20
154.0388942931
30
0.0000000000
10
287.5412327646
20
153.7514379366
30
0.0000000000
11
286.9943577646
21
156.2129533305
31
0.0000000000
11
287.1660592038
21
155.4482904046
31
0.0000000000
11
287.3515015026
21
154.6136249639
31
0.0000000000
11
287.5412327646
21
153.7514379366
31
0.0000000000
0
SPLINE
5
2C8
100
AcDbEntity
8
0
100
AcDbSpline
62
7
6
CONTINUOUS
70
0
71
3
72
10
73
6
74
4
42
0.0000001000
43
0.0000001000
44
0.0000000001
40
0.0000000000
40
0.0000000000
40
0.0000000000
40
0.0000000000
40
0.3501103282
40
0.6891962295
40
1.0000000000
40
1.0000000000
40
1.0000000000
40
1.0000000000
10
303.2130272212
20
153.7514379366
30
0.0000000000
10
303.2759945938
20
154.0388942931
30
0.0000000000
10
303.4004776997
20
154.6046393005
30
0.0000000000
10
303.5827263740
20
155.4251558168
30
0.0000000000
10
303.7023434701
20
155.9581388694
30
0.0000000000
10
303.7599022212
20
156.2129533305
30
0.0000000000
11
303.2130272212
21
153.7514379366
31
0.0000000000
11
303.4027584832
21
154.6136249639
31
0.0000000000
11
303.5882007820
21
155.4482904046
31
0.0000000000
11
303.7599022212
21
156.2129533305
31
0.0000000000
0
SPLINE
5
2C9
100
AcDbEntity
8
0
100
AcDbSpline
62
7
6
CONTINUOUS
70
0
71
3
72
9
73
5
74
3
42
0.0000001000
43
0.0000001000
44
0.0000000001
40
0.0000000000
40
0.0000000000
40
0.0000000000
40
0.0000000000
40
0.7198412751
40
1.0000000000
40
1.0000000000
40
1.0000000000
40
1.0000000000
10
301.3588807006
20
139.6293276003
30
0.0000000000
10
301.3675295567
20
139.7336358481
30
0.0000000000
10
301.3753712928
20
139.8789249276
30
0.0000000000
10
301.3771254347
20
140.0243516084
30
0.0000000000
10
301.3771301464
20
140.0650936646
30
0.0000000000
11
301.3588807006
21
139.6293276003
31
0.0000000000
11
301.3756647497
21
139.9428773016
31
0.0000000000
11
301.3771301464
21
140.0650936646
31
0.0000000000
0
SPLINE
5
2CA
100
AcDbEntity
8
0
100
AcDbSpline
62
7
6
CONTINUOUS
70
0
71
3
72
20
73
16
74
14
42
0.0000001000
43
0.0000001000
44
0.0000000001
40
0.0000000000
40
0.0000000000
40
0.0000000000
40
0.0000000000
40
0.0184496290
40
0.0381910824
40
0.0604864544
40
0.0898552670
40
0.1344851376
40
0.2049218899
40
0.3015721055
40
0.4124573598
40
0.5319414444
40
0.6590243675
40
0.7929485027
40
0.9334677445
40
1.0000000000
40
1.0000000000
40
1.0000000000
40
1.0000000000
10
291.3428904464
20
114.0211059217
30
0.0000000000
10
291.3450724732
20
113.9975962259
30
0.0000000000
10
291.3498255596
20
113.9489524379
30
0.0000000000
10
291.3584044879
20
113.8720193473
30
0.0000000000
10
291.3703412796
20
113.7814137568
30
0.0000000000
10
291.3901627474
20
113.6597592552
30
0.0000000000
10
291.4291015734
20
113.4789447045
30
0.0000000000
10
291.5085290534
20
113.2193820980
30
0.0000000000
10
291.6553307738
20
112.8939155361
30
0.0000000000
10
291.8866832192
20
112.5427499666
30
0.0000000000
10
292.2033702608
20
112.2090919028
30
0.0000000000
10
292.6015856005
20
111.9235250659
30
0.0000000000
10
293.0738402738
20
111.7118110702
30
0.0000000000
10
293.5037165455
20
111.6198988024
30
0.0000000000
10
293.7695163328
20
111.6063606932
30
0.0000000000
10
293.8548858011
20
111.6063617177
30
0.0000000000
11
291.3428904464
21
114.0211059217
31
0.0000000000
11
291.3498196609
21
113.9506137715
31
0.0000000000
11
291.3582771559
21
113.8752956945
31
0.0000000000
11
291.3695309241
21
113.7904422646
31
0.0000000000
11
291.3877644347
21
113.6791735037
31
0.0000000000
11
291.4239715736
21
113.5116996115
31
0.0000000000
11
291.5032366243
21
113.2531564920
31
0.0000000000
11
291.6558852340
21
112.9149498408
31
0.0000000000
11
291.8901269492
21
112.5594774410
31
0.0000000000
11
292.2059384230
21
112.2267756976
31
0.0000000000
11
292.6024427555
21
111.9424732708
31
0.0000000000
11
293.0716107041
21
111.7321310057
31
0.0000000000
11
293.5991884189
21
111.6194261158
31
0.0000000000
11
293.8548858011
21
111.6063617177
31
0.0000000000
0
SPLINE
5
2CB
100
AcDbEntity
8
0
100
AcDbSpline
62
7
6
CONTINUOUS
70
0
71
3
72
12
73
8
74
6
42
0.0000001000
43
0.0000001000
44
0.0000000001
40
0.0000000000
40
0.0000000000
40
0.0000000000
40
0.0000000000
40
0.2006520750
40
0.4559935175
40
0.7164234219
40
0.9828511952
40
1.0000000000
40
1.0000000000
40
1.0000000000
40
1.0000000000
10
290.7229539595
20
144.1193209475
30
0.0000000000
10
290.5566386937
20
144.0120876726
30
0.0000000000
10
290.2021190684
20
143.7297493729
30
0.0000000000
10
289.7617235459
20
143.1690392199
30
0.0000000000
10
289.4556373015
20
142.4526180025
30
0.0000000000
10
289.3792501124
20
141.9163664783
30
0.0000000000
10
289.3771083768
20
141.6365155248
30
0.0000000000
10
289.3771156770
20
141.6195927581
30
0.0000000000
11
290.7229539595
21
144.1193209475
31
0.0000000000
11
290.2590081841
21
143.7491772512
31
0.0000000000
11
289.7930916240
21
143.1561768529
31
0.0000000000
11
289.4902832322
21
142.4491210285
31
0.0000000000
11
289.3775051976
21
141.6703613742
31
0.0000000000
11
289.3771156770
21
141.6195927581
31
0.0000000000
0
SPLINE
5
2CC
100
AcDbEntity
8
0
100
AcDbSpline
62
7
6
CONTINUOUS
70
0
71
3
72
11
73
7
74
5
42
0.0000001000
43
0.0000001000
44
0.0000000001
40
0.0000000000
40
0.0000000000
40
0.0000000000
40
0.0000000000
40
0.1009636814
40
0.4384903513
40
0.7533550141
40
1.0000000000
40
1.0000000000
40
1.0000000000
40
1.0000000000
10
293.8989000503
20
144.9974131745
30
0.0000000000
10
293.7865801351
20
144.9974148944
30
0.0000000000
10
293.2987725380
20
144.9859473157
30
0.0000000000
10
292.4641316431
20
144.8762537583
30
0.0000000000
10
291.5088302580
20
144.5647615905
30
0.0000000000
10
290.9553298769
20
144.2688059705
30
0.0000000000
10
290.7246027734
20
144.1203976463
30
0.0000000000
11
293.8989000503
21
144.9974131745
31
0.0000000000
11
293.5620481800
21
144.9893570313
31
0.0000000000
11
292.4469375570
21
144.8378775469
31
0.0000000000
11
291.4499092906
21
144.5092390465
31
0.0000000000
11
290.7246027734
21
144.1203976463
31
0.0000000000
0
SPLINE
5
2CD
100
AcDbEntity
8
0
100
AcDbSpline
62
7
6
CONTINUOUS
70
0
71
3
72
8
73
4
74
2
42
0.0000001000
43
0.0000001000
44
0.0000000001
40
0.0000000000
40
0.0000000000
40
0.0000000000
40
0.0000000000
40
1.0000000000
40
1.0000000000
40
1.0000000000
40
1.0000000000
10
289.3771295182
20
139.4729484832
30
0.0000000000
10
289.3771579593
20
139.5255653292
30
0.0000000000
10
289.3838471198
20
139.5782136371
30
0.0000000000
10
289.3953792852
20
139.6293276003
30
0.0000000000
11
289.3771295182
21
139.4729484832
31
0.0000000000
11
289.3953792852
21
139.6293276003
31
0.0000000000
0
SPLINE
5
2CE
100
AcDbEntity
8
0
100
AcDbSpline
62
7
6
CONTINUOUS
70
0
71
3
72
20
73
16
74
14
42
0.0000001000
43
0.0000001000
44
0.0000000001
40
0.0000000000
40
0.0000000000
40
0.0000000000
40
0.0000000000
40
0.0561221988
40
0.1905096390
40
0.3190184007
40
0.4413727378
40
0.5568402813
40
0.6646298947
40
0.7629966034
40
0.8439994902
40
0.8988295468
40
0.9339524104
40
0.9591574476
40
0.9805641513
40
1.0000000000
40
1.0000000000
40
1.0000000000
40
1.0000000000
10
296.8993744861
20
111.6063535475
30
0.0000000000
10
296.9713839506
20
111.6063496025
30
0.0000000000
10
297.2158947493
20
111.6168514101
30
0.0000000000
10
297.6195849600
20
111.6944307457
30
0.0000000000
10
298.0783130735
20
111.8839649957
30
0.0000000000
10
298.4715953585
20
112.1442753701
30
0.0000000000
10
298.7916453382
20
112.4529869708
30
0.0000000000
10
299.0359601450
20
112.7866221126
30
0.0000000000
10
299.2044023928
20
113.1148576541
30
0.0000000000
10
299.3038947049
20
113.3984227650
30
0.0000000000
10
299.3550745400
20
113.6113928638
30
0.0000000000
10
299.3803706614
20
113.7566477495
30
0.0000000000
10
299.3944857280
20
113.8603157193
30
0.0000000000
10
299.4039745543
20
113.9443198175
30
0.0000000000
10
299.4090715638
20
113.9963460431
30
0.0000000000
10
299.4113704381
20
114.0211155398
30
0.0000000000
11
296.8993744861
21
111.6063535475
31
0.0000000000
11
297.1151464299
21
111.6156461982
31
0.0000000000
11
297.6218932138
21
111.7129516301
31
0.0000000000
11
298.0779289235
21
111.9013842163
31
0.0000000000
11
298.4697018655
21
112.1606662811
31
0.0000000000
11
298.7888174774
21
112.4684514561
31
0.0000000000
11
299.0333654048
21
112.8023538742
31
0.0000000000
11
299.2058614561
21
113.1383594595
31
0.0000000000
11
299.3089537924
21
113.4318020016
31
0.0000000000
11
299.3583103665
21
113.6364644328
31
0.0000000000
11
299.3815887763
21
113.7693006741
31
0.0000000000
11
299.3947460488
21
113.8651813565
31
0.0000000000
11
299.4040459822
21
113.9468483918
31
0.0000000000
11
299.4113704381
21
114.0211155398
31
0.0000000000
0
SPLINE
5
2CF
100
AcDbEntity
8
0
100
AcDbSpline
62
7
6
CONTINUOUS
70
0
71
3
72
12
73
8
74
6
42
0.0000001000
43
0.0000001000
44
0.0000000001
40
0.0000000000
40
0.0000000000
40
0.0000000000
40
0.0000000000
40
0.0170612837
40
0.2834514819
40
0.5439156736
40
0.7993344120
40
1.0000000000
40
1.0000000000
40
1.0000000000
40
1.0000000000
10
301.3771443548
20
141.6196003334
30
0.0000000000
10
301.3771515715
20
141.6364366682
30
0.0000000000
10
301.3750215573
20
141.9161630573
30
0.0000000000
10
301.2987023043
20
142.4523290320
30
0.0000000000
10
300.9926645821
20
143.1688509117
30
0.0000000000
10
300.5522197596
20
143.7296845698
30
0.0000000000
10
300.1976321590
20
144.0120806722
30
0.0000000000
10
300.0313062199
20
144.1193208308
30
0.0000000000
11
301.3771443548
21
141.6196003334
31
0.0000000000
11
301.3767587778
21
141.6701096642
31
0.0000000000
11
301.2640760641
21
142.4487685375
31
0.0000000000
11
300.9613044932
21
143.1559477128
31
0.0000000000
11
300.4952794039
21
143.7491502110
31
0.0000000000
11
300.0313062199
21
144.1193208308
31
0.0000000000
0
SPLINE
5
2D0
100
AcDbEntity
8
0
100
AcDbSpline
62
7
6
CONTINUOUS
70
0
71
3
72
11
73
7
74
5
42
0.0000001000
43
0.0000001000
44
0.0000000001
40
0.0000000000
40
0.0000000000
40
0.0000000000
40
0.0000000000
40
0.2417775650
40
0.5584946134
40
0.8972442691
40
1.0000000000
40
1.0000000000
40
1.0000000000
40
1.0000000000
10
300.0296422392
20
144.1204085895
30
0.0000000000
10
299.8034755504
20
144.2658859414
30
0.0000000000
10
299.2535463482
20
144.5610664822
30
0.0000000000
10
298.3007732311
20
144.8742129072
30
0.0000000000
10
297.4608495881
20
144.9856630699
30
0.0000000000
10
296.9696909868
20
144.9974145180
30
0.0000000000
10
296.8553778249
20
144.9974128657
30
0.0000000000
11
300.0296422392
21
144.1204085895
31
0.0000000000
11
299.3192535637
21
144.5026688628
31
0.0000000000
11
298.3171503622
21
144.8356070341
31
0.0000000000
11
297.1982023376
21
144.9890657328
31
0.0000000000
11
296.8553778249
21
144.9974128657
31
0.0000000000
0
SPLINE
5
2D1
100
AcDbEntity
8
0
100
AcDbSpline
62
7
6
CONTINUOUS
70
0
71
3
72
8
73
4
74
2
42
0.0000001000
43
0.0000001000
44
0.0000000001
40
0.0000000000
40
0.0000000000
40
0.0000000000
40
0.0000000000
40
1.0000000000
40
1.0000000000
40
1.0000000000
40
1.0000000000
10
301.3771304676
20
139.4729484832
30
0.0000000000
10
301.3771020266
20
139.5255653292
30
0.0000000000
10
301.3704128660
20
139.5782136371
30
0.0000000000
10
301.3588807006
20
139.6293276003
30
0.0000000000
11
301.3771304676
21
139.4729484832
31
0.0000000000
11
301.3588807006
21
139.6293276003
31
0.0000000000
0
SPLINE
5
2D2
100
AcDbEntity
8
0
100
AcDbSpline
62
7
6
CONTINUOUS
70
0
71
3
72
9
73
5
74
3
42
0.0000001000
43
0.0000001000
44
0.0000000001
40
0.0000000000
40
0.0000000000
40
0.0000000000
40
0.0000000000
40
0.7198412751
40
1.0000000000
40
1.0000000000
40
1.0000000000
40
1.0000000000
10
289.3953792852
20
139.6293276003
30
0.0000000000
10
289.3867304291
20
139.7336358481
30
0.0000000000
10
289.3788886930
20
139.8789249276
30
0.0000000000
10
289.3771345512
20
140.0243516084
30
0.0000000000
10
289.3771298394
20
140.0650936646
30
0.0000000000
11
289.3953792852
21
139.6293276003
31
0.0000000000
11
289.3785952361
21
139.9428773016
31
0.0000000000
11
289.3771298394
21
140.0650936646
31
0.0000000000
0
ENDSEC
0
SECTION
2
OBJECTS
0
DICTIONARY
5
2D3
100
AcDbDictionary
3
ACAD_GROUP
350
2D4
3
ACAD_MLINESTYLE
350
2D5
0
DICTIONARY
5
2D4
102
{ACAD_REACTORS
330
2D3
102
}
100
AcDbDictionary
0
DICTIONARY
5
2D5
102
{ACAD_REACTORS
330
2D3
102
}
100
AcDbDictionary
3
STANDARD
350
2D6
0
MLINESTYLE
5
2D6
102
{ACAD_REACTORS
330
2D5
102
}
100
AcDbMlineStyle
2
STANDARD
70
0
3

62
256
51
90.0
52
90.0
71
2
49
0.5
62
256
6
BYLAYER
49
-0.5
62
256
6
BYLAYER
0
ENDSEC
0
EOF
