999
DXF file: RoRo-LP_7983031_M33403-DXF.dxf
999
Pro/ENGINEER 2010140 by Parametric Technology Corporation
  0
SECTION
  2
HEADER
  9
$ACADVER
  1
AC1015
  9
$DWGCODEPAGE
  3
ANSI_1252
  9
$EXTMAX
 10
420.0
 20
297.0
 30
0.0
  9
$EXTMIN
 10
0.0
 20
0.0
 30
0.0
  9
$LIMMIN
 10
0.0
 20
0.0
  9
$LIMMAX
 10
420.0
 20
297.0
  9
$VIEWCTR
 10
210.0
 20
148.5
  9
$VIEWSIZE
 40
297.0
  9
$CLAYER
  8
0
  9
$LTSCALE
 40
23.1
  9
$CELTYPE
  6
BYLAYER
  9
$DIMSCALE
 40
1.0
  9
$DIMASZ
 40
3.5
  9
$DIMEXO
 40
2.625
  9
$DIMDLI
 40
15.96
  9
$DIMEXE
 40
7.56
  9
$DIMCEN
 40
3.78
  9
$DIMLFAC
 40
1.0
  9
$DIMBLK
  1
_FILLED
  9
$DIMTXT
 40
3.5
  9
$DIMTOL
 70
1
  9
$DIMLIM
 70
0
  9
$DIMTFAC
 40
1.0
  9
$DIMTP
 40
0.005
  9
$DIMTM
 40
0.005
  9
$PDMODE
 70
3
  9
$PDSIZE
 40
0.3125
  9
$HANDSEED
  5
43F
  9
$TILEMODE
 70
1
  9
$MEASUREMENT
 70
1
  9
$INSUNITS
 70
4
  0
ENDSEC
  0
SECTION
  2
CLASSES
  0
CLASS
  1
ACDBDICTIONARYWDFLT
  2
AcDbDictionaryWithDefault
  3
AutoCAD 2000
 90
0
280
0
281
0
  0
CLASS
  1
ACDBPLACEHOLDER
  2
AcDbPlaceHolder
  3
AutoCAD 2000
 90
0
280
0
281
0
  0
CLASS
  1
LAYOUT
  2
AcDbLayout
  3
AutoCAD 2000
 90
0
280
0
281
0
  0
ENDSEC
  0
SECTION
  2
TABLES
  0
TABLE
  2
VPORT
  5
8
100
AcDbSymbolTable
 70
2
  0
VPORT
  5
1F4
100
AcDbSymbolTableRecord
100
AcDbViewportTableRecord
  2
*ACTIVE
 70
0
 10
0.0
 20
0.0
 11
1.0
 21
1.0
 12
210.0
 22
148.5
 13
0.0
 23
0.0
 14
1.0
 24
1.0
 15
0.0
 25
0.0
 16
0.0
 26
0.0
 36
1.0
 17
0.0
 27
0.0
 37
0.0
 40
297.0
 41
1.4141414141
 42
50.0
 43
0.0
 44
0.0
 50
0.0
 51
0.0
 71
0
 72
100
 73
1
 74
1
 75
0
 76
0
 77
0
 78
0
  0
ENDTAB
  0
TABLE
  2
LTYPE
  5
5
100
AcDbSymbolTable
 70
6
  0
LTYPE
  5
14
100
AcDbSymbolTableRecord
100
AcDbLinetypeTableRecord
  2
BYBLOCK
 70
0
  3

 72
65
 73
0
 40
0.0
  0
LTYPE
  5
15
100
AcDbSymbolTableRecord
100
AcDbLinetypeTableRecord
  2
BYLAYER
 70
0
  3

 72
65
 73
0
 40
0.0
  0
LTYPE
  5
16
100
AcDbSymbolTableRecord
100
AcDbLinetypeTableRecord
  2
CONTINUOUS
 70
64
  3
Solid line
 72
65
 73
0
 40
0.0
  0
LTYPE
  5
1F5
100
AcDbSymbolTableRecord
100
AcDbLinetypeTableRecord
  2
CENTER
 70
64
  3
____ _ ____ _ ____ _ ____ _ ____ _ ____ _ ____
 72
65
 73
4
 40
0.6
 49
0.375
 74
0
 49
-0.075
 74
0
 49
0.075
 74
0
 49
-0.075
 74
0
  0
LTYPE
  5
1F6
100
AcDbSymbolTableRecord
100
AcDbLinetypeTableRecord
  2
HIDDEN
 70
64
  3
- - - - - - - - - - - - - - - - - - - -
 72
65
 73
2
 40
0.2
 49
0.1
 74
0
 49
-0.1
 74
0
  0
LTYPE
  5
1F7
100
AcDbSymbolTableRecord
100
AcDbLinetypeTableRecord
  2
PHANTOM
 70
64
  3
_____ _ _ _____ _ _ _____ _ _ _____
 72
65
 73
6
 40
0.8
 49
0.45
 74
0
 49
-0.05
 74
0
 49
0.1
 74
0
 49
-0.05
 74
0
 49
0.1
 74
0
 49
-0.05
 74
0
  0
LTYPE
  5
1F8
100
AcDbSymbolTableRecord
100
AcDbLinetypeTableRecord
  2
DOT
 70
64
  3
. . . . . . . . . . . . . . . . . . . .
 72
65
 73
2
 40
0.2
 49
0.1
 74
0
 49
-0.1
 74
0
  0
LTYPE
  5
1F9
100
AcDbSymbolTableRecord
100
AcDbLinetypeTableRecord
  2
DASHED
 70
64
  3
- - - - - - - - - - - - - - - - - - - -
 72
65
 73
2
 40
0.2
 49
0.1
 74
0
 49
-0.1
 74
0
  0
ENDTAB
  0
TABLE
  2
LAYER
  5
2
100
AcDbSymbolTable
 70
36
  0
LAYER
  5
10
100
AcDbSymbolTableRecord
100
AcDbLayerTableRecord
  2
0
 70
0
 62
7
  6
CONTINUOUS
370
-3
390
F
  0
LAYER
  5
1FA
100
AcDbSymbolTableRecord
100
AcDbLayerTableRecord
  2
DEFAULT_1
 70
0
 62
7
  6
CENTER
370
-3
390
F
  0
LAYER
  5
1FB
100
AcDbSymbolTableRecord
100
AcDbLayerTableRecord
  2
DEFAULT_2
 70
0
 62
8
  6
HIDDEN
370
-3
390
F
  0
LAYER
  5
1FC
100
AcDbSymbolTableRecord
100
AcDbLayerTableRecord
  2
DEFAULT_3
 70
0
 62
7
  6
PHANTOM
370
-3
390
F
  0
LAYER
  5
1FD
100
AcDbSymbolTableRecord
100
AcDbLayerTableRecord
  2
AUSFORMSCHRAEGEN
 70
0
 62
7
  6
CONTINUOUS
370
-3
390
F
  0
LAYER
  5
1FE
100
AcDbSymbolTableRecord
100
AcDbLayerTableRecord
  2
BEZUGSACHSEN
 70
0
 62
7
  6
CONTINUOUS
370
-3
390
F
  0
LAYER
  5
1FF
100
AcDbSymbolTableRecord
100
AcDbLayerTableRecord
  2
BEZUGSEBENEN
 70
0
 62
7
  6
CONTINUOUS
370
-3
390
F
  0
LAYER
  5
200
100
AcDbSymbolTableRecord
100
AcDbLayerTableRecord
  2
BG_STARTBEZUEGE
 70
0
 62
7
  6
CONTINUOUS
370
-3
390
F
  0
LAYER
  5
201
100
AcDbSymbolTableRecord
100
AcDbLayerTableRecord
  2
FASEN
 70
0
 62
7
  6
CONTINUOUS
370
-3
390
F
  0
LAYER
  5
202
100
AcDbSymbolTableRecord
100
AcDbLayerTableRecord
  2
FLAECHEN
 70
0
 62
7
  6
CONTINUOUS
370
-3
390
F
  0
LAYER
  5
203
100
AcDbSymbolTableRecord
100
AcDbLayerTableRecord
  2
FLAECHENVERBUND
 70
0
 62
7
  6
CONTINUOUS
370
-3
390
F
  0
LAYER
  5
204
100
AcDbSymbolTableRecord
100
AcDbLayerTableRecord
  2
HILFEN
 70
0
 62
7
  6
CONTINUOUS
370
-3
390
F
  0
LAYER
  5
205
100
AcDbSymbolTableRecord
100
AcDbLayerTableRecord
  2
KONSTRUKTIONSELEMENTE
 70
0
 62
7
  6
CONTINUOUS
370
-3
390
F
  0
LAYER
  5
206
100
AcDbSymbolTableRecord
100
AcDbLayerTableRecord
  2
KURVEN
 70
0
 62
7
  6
CONTINUOUS
370
-3
390
F
  0
LAYER
  5
207
100
AcDbSymbolTableRecord
100
AcDbLayerTableRecord
  2
PLATZIERUNG
 70
0
 62
7
  6
CONTINUOUS
370
-3
390
F
  0
LAYER
  5
208
100
AcDbSymbolTableRecord
100
AcDbLayerTableRecord
  2
RUNDUNGEN
 70
0
 62
7
  6
CONTINUOUS
370
-3
390
F
  0
LAYER
  5
209
100
AcDbSymbolTableRecord
100
AcDbLayerTableRecord
  2
TEIL_STARTBEZUEGE
 70
0
 62
7
  6
CONTINUOUS
370
-3
390
F
  0
LAYER
  5
20A
100
AcDbSymbolTableRecord
100
AcDbLayerTableRecord
  2
ZEICHNUNGSBEMASSUNGEN
 70
0
 62
7
  6
CONTINUOUS
370
-3
390
F
  0
ENDTAB
  0
TABLE
  2
STYLE
  5
3
100
AcDbSymbolTable
 70
1
  0
STYLE
  5
11
100
AcDbSymbolTableRecord
100
AcDbTextStyleTableRecord
  2
STANDARD
 70
0
 40
0.0
 41
0.7
 50
0.0
 71
0
 42
0.2
  3
txt
  4

  0
STYLE
  5
20B
100
AcDbSymbolTableRecord
100
AcDbTextStyleTableRecord
  2
TEXTSTYLE_1
 70
0
 40
0.0
 41
0.8
 50
0.0
 71
0
 42
0.2
  3
gdt
  4

  0
ENDTAB
  0
TABLE
  2
VIEW
  5
6
100
AcDbSymbolTable
 70
0
  0
ENDTAB
  0
TABLE
  2
UCS
  5
7
100
AcDbSymbolTable
 70
0
  0
ENDTAB
  0
TABLE
  2
APPID
  5
9
100
AcDbSymbolTable
 70
1
  0
APPID
  5
20C
100
AcDbSymbolTableRecord
100
AcDbRegAppTableRecord
  2
ACAD
 70
0
  0
ENDTAB
  0
TABLE
  2
BLOCK_RECORD
  5
1
100
AcDbSymbolTable
 70
0
  0
BLOCK_RECORD
  5
20D
100
AcDbSymbolTableRecord
100
AcDbBlockTableRecord
  2
*Model_Space
  0
BLOCK_RECORD
  5
20E
100
AcDbSymbolTableRecord
100
AcDbBlockTableRecord
  2
*Paper_Space
  0
ENDTAB
  0
TABLE
  2
DIMSTYLE
  5
A
100
AcDbSymbolTable
 70
1
100
AcDbDimStyleTable
 71
0
  0
DIMSTYLE
105
20F
100
AcDbSymbolTableRecord
100
AcDbDimStyleTableRecord
  2
STANDARD
 70
0
  3

  4

 40
1.0
 41
3.5
 42
0.0625
 43
0.38
 44
0.18
 45
0.0
 46
0.0
 47
0.005
 48
0.005
140
3.5
141
0.09
142
0.0
143
25.4
144
1.0
145
0.0
146
1.0
147
0.09
 71
1.0
 72
0.0
 73
0
 74
0
 75
0
 76
0
 77
1
 78
8
170
0
171
2
172
0
173
0
174
0
175
0
176
0
177
0
178
5
270
2
271
3
272
3
273
2
274
2
275
0
280
0
281
0
282
0
283
1
284
8
285
0
286
0
287
3
288
0
340
11
  0
ENDTAB
  0
ENDSEC
  0
SECTION
  2
BLOCKS
  0
BLOCK
  5
20
100
AcDbEntity
  8
0
100
AcDbBlockBegin
  2
*Model_Space
 70
0
 10
0.0
 20
0.0
 30
0.0
  3
*Model_Space
  1

  0
ENDBLK
  5
21
100
AcDbEntity
  8
0
100
AcDbBlockEnd
  0
BLOCK
  5
1C
100
AcDbEntity
  8
0
100
AcDbBlockBegin
  2
*Paper_Space
 70
0
 10
0.0
 20
0.0
 30
0.0
  3
*Paper_Space
  1

  0
ENDBLK
  5
1D
100
AcDbEntity
  8
0
100
AcDbBlockEnd
  0
ENDSEC
  0
SECTION
  2
ENTITIES
  0
MTEXT
  5
210
100
AcDbEntity
  8
0
100
AcDbMText
 62
5
  6
CONTINUOUS
  7
STANDARD
 71
1
 72
1
 10
297.2442091781
 20
206.5783639991
 30
0.0
 11
-0.0
 21
-1.0
 31
0.0
 44
0.9
  1
RUD
 40
7.0
 41
18.6666666667
  0
MTEXT
  5
211
100
AcDbEntity
  8
0
100
AcDbMText
 62
5
  6
CONTINUOUS
  7
STANDARD
 71
1
 72
1
 10
102.0808509693
 20
86.0621285306
 30
0.0
 11
1.0
 21
0.0
 31
0.0
 44
0.9
  1
RUD
 40
7.0
 41
18.6666666667
  0
LINE
  5
212
100
AcDbEntity
  8
0
100
AcDbLine
 62
7
  6
CONTINUOUS
 10
0.0
 20
0.0
 11
0.0
 21
297.0
  0
LINE
  5
213
100
AcDbEntity
  8
0
100
AcDbLine
 62
7
  6
CONTINUOUS
 10
0.0
 20
0.0
 11
420.0
 21
0.0
  0
LINE
  5
214
100
AcDbEntity
  8
0
100
AcDbLine
 62
7
  6
CONTINUOUS
 10
0.0
 20
297.0
 11
420.0
 21
297.0
  0
LINE
  5
215
100
AcDbEntity
  8
0
100
AcDbLine
 62
7
  6
CONTINUOUS
 10
420.0
 20
0.0
 11
420.0
 21
297.0
  0
LINE
  5
216
100
AcDbEntity
  8
0
100
AcDbLine
 62
7
  6
CONTINUOUS
 10
91.3177155401
 20
135.4679850613
 11
166.3177155401
 21
135.4679850613
  0
LINE
  5
217
100
AcDbEntity
  8
0
100
AcDbLine
 62
7
  6
CONTINUOUS
 10
168.8177155401
 20
136.9679850613
 11
166.3177155401
 21
136.9679850613
  0
LINE
  5
218
100
AcDbEntity
  8
0
100
AcDbLine
 62
7
  6
CONTINUOUS
 10
91.3177155401
 20
136.9679850613
 11
88.8177155401
 21
136.9679850613
  0
LINE
  5
219
100
AcDbEntity
  8
0
100
AcDbLine
 62
7
  6
CONTINUOUS
 10
91.3177155401
 20
139.7106257484
 11
166.3177155401
 21
139.7106257484
  0
LINE
  5
21A
100
AcDbEntity
  8
0
100
AcDbLine
 62
7
  6
CONTINUOUS
 10
63.8177155401
 20
219.9679850613
 11
63.8177155401
 21
161.9679850613
  0
LINE
  5
21B
100
AcDbEntity
  8
0
100
AcDbLine
 62
7
  6
CONTINUOUS
 10
107.2738950088
 20
268.7231484708
 11
106.7964848368
 21
268.3563520594
  0
LINE
  5
21C
100
AcDbEntity
  8
0
100
AcDbLine
 62
7
  6
CONTINUOUS
 10
107.2993490633
 20
267.9237916682
 11
107.7767592354
 21
268.2905880796
  0
LINE
  5
21D
100
AcDbEntity
  8
0
100
AcDbLine
 62
7
  6
CONTINUOUS
 10
101.1633515855
 20
268.1319596026
 11
98.1512352581
 21
266.3495019649
  0
LINE
  5
21E
100
AcDbEntity
  8
0
100
AcDbLine
 62
7
  6
CONTINUOUS
 10
99.2835106007
 20
266.1542406364
 11
101.6681025735
 21
267.5653528621
  0
LINE
  5
21F
100
AcDbEntity
  8
0
100
AcDbLine
 62
7
  6
CONTINUOUS
 10
102.805841568
 20
265.6427252892
 11
100.4212495952
 21
264.2316130635
  0
LINE
  5
220
100
AcDbEntity
  8
0
100
AcDbLine
 62
7
  6
CONTINUOUS
 10
100.876345108
 20
263.462562178
 11
103.0099274467
 21
264.7251363026
  0
LINE
  5
221
100
AcDbEntity
  8
0
100
AcDbLine
 62
7
  6
CONTINUOUS
 10
108.3461188189
 20
269.1829816613
 11
107.2738950088
 21
268.7231484708
  0
LINE
  5
222
100
AcDbEntity
  8
0
100
AcDbLine
 62
7
  6
CONTINUOUS
 10
107.7767592354
 20
268.2905880796
 11
108.3128715239
 21
268.5205048393
  0
LINE
  5
223
100
AcDbEntity
  8
0
100
AcDbLine
 62
7
  6
CONTINUOUS
 10
120.4483337429
 20
272.6097518557
 11
119.8930428455
 21
272.3771338737
  0
LINE
  5
224
100
AcDbEntity
  8
0
100
AcDbLine
 62
7
  6
CONTINUOUS
 10
120.2686712364
 20
271.8304312603
 11
120.8239637848
 21
272.0630494862
  0
LINE
  5
225
100
AcDbEntity
  8
0
100
AcDbLine
 62
7
  6
CONTINUOUS
 10
101.8667251922
 20
268.375129867
 11
101.1633515855
 21
268.1319596026
  0
LINE
  5
226
100
AcDbEntity
  8
0
100
AcDbLine
 62
7
  6
CONTINUOUS
 10
124.2351398452
 20
148.4679850613
 11
133.4002912351
 21
148.4679850613
  0
LINE
  5
227
100
AcDbEntity
  8
0
100
AcDbLine
 62
7
  6
CONTINUOUS
 10
106.7964848368
 20
268.3563520594
 11
106.5871311924
 21
268.1045141923
  0
LINE
  5
228
100
AcDbEntity
  8
0
100
AcDbLine
 62
7
  6
CONTINUOUS
 10
103.1065068568
 20
265.9937076415
 11
102.805841568
 21
265.6427252892
  0
LINE
  5
229
100
AcDbEntity
  8
0
100
AcDbLine
 62
7
  6
CONTINUOUS
 10
116.0650186387
 20
270.3591097244
 11
116.5451342044
 21
270.8046386567
  0
LINE
  5
22A
100
AcDbEntity
  8
0
100
AcDbLine
 62
7
  6
CONTINUOUS
 10
110.1991318467
 20
265.6021889946
 11
109.7217224621
 21
265.2353928642
  0
LINE
  5
22B
100
AcDbEntity
  8
0
100
AcDbLine
 62
7
  6
CONTINUOUS
 10
110.2245867092
 20
264.8028324251
 11
110.7019968761
 21
265.1696288485
  0
LINE
  5
22C
100
AcDbEntity
  8
0
100
AcDbLine
 62
7
  6
CONTINUOUS
 10
119.8930428455
 20
272.3771338737
 11
119.6262836566
 21
272.1871568182
  0
LINE
  5
22D
100
AcDbEntity
  8
0
100
AcDbLine
 62
7
  6
CONTINUOUS
 10
115.7218205342
 20
271.0358901154
 11
115.3414464796
 21
270.7733947706
  0
LINE
  5
22E
100
AcDbEntity
  8
0
100
AcDbLine
 62
7
  6
CONTINUOUS
 10
101.7161505335
 20
260.3252693101
 11
102.4691796153
 21
260.7708837195
  0
LINE
  5
22F
100
AcDbEntity
  8
0
100
AcDbLine
 62
7
  6
CONTINUOUS
 10
105.60680067
 20
262.6276103546
 11
106.4853348382
 21
263.1474939739
  0
LINE
  5
230
100
AcDbEntity
  8
0
100
AcDbLine
 62
7
  6
CONTINUOUS
 10
137.6027740107
 20
273.6081594668
 11
138.0873464802
 21
273.8210530595
  0
LINE
  5
231
100
AcDbEntity
  8
0
100
AcDbLine
 62
7
  6
CONTINUOUS
 10
109.7217224621
 20
265.2353928642
 11
109.1856101736
 21
265.0054761045
  0
LINE
  5
232
100
AcDbEntity
  8
0
100
AcDbLine
 62
7
  6
CONTINUOUS
 10
109.1523628991
 20
264.3429992345
 11
110.2245867092
 21
264.8028324251
  0
LINE
  5
233
100
AcDbEntity
  8
0
100
AcDbLine
 62
7
  6
CONTINUOUS
 10
122.47889989
 20
268.8448880159
 11
121.9236090002
 21
268.6122699824
  0
LINE
  5
234
100
AcDbEntity
  8
0
100
AcDbLine
 62
7
  6
CONTINUOUS
 10
122.2992390497
 20
268.0655675613
 11
122.8545299452
 21
268.2981855562
  0
LINE
  5
235
100
AcDbEntity
  8
0
100
AcDbLine
 62
7
  6
CONTINUOUS
 10
138.0800728556
 20
274.5798443468
 11
137.2815267919
 21
274.2738306428
  0
LINE
  5
236
100
AcDbEntity
  8
0
100
AcDbLine
 62
7
  6
CONTINUOUS
 10
144.5972477608
 20
271.9819440097
 11
145.1056561369
 21
272.1291006715
  0
LINE
  5
237
100
AcDbEntity
  8
0
100
AcDbLine
 62
7
  6
CONTINUOUS
 10
103.6112582039
 20
265.4271011134
 11
103.9615789678
 21
265.9805276107
  0
LINE
  5
238
100
AcDbEntity
  8
0
100
AcDbLine
 62
7
  6
CONTINUOUS
 10
110.7019968761
 20
265.1696288485
 11
110.9113505153
 21
265.4214667275
  0
LINE
  5
239
100
AcDbEntity
  8
0
100
AcDbLine
 62
7
  6
CONTINUOUS
 10
122.8545299452
 20
268.2981855562
 11
123.1212891322
 21
268.4881626245
  0
LINE
  5
23A
100
AcDbEntity
  8
0
100
AcDbLine
 62
7
  6
CONTINUOUS
 10
137.2815267919
 20
274.2738306428
 11
136.7697334473
 21
273.9145095887
  0
LINE
  5
23B
100
AcDbEntity
  8
0
100
AcDbLine
 62
7
  6
CONTINUOUS
 10
144.3665565043
 20
272.6841544014
 11
143.8118619416
 21
272.395436564
  0
LINE
  5
23C
100
AcDbEntity
  8
0
100
AcDbLine
 62
7
  6
CONTINUOUS
 10
139.0529550634
 20
268.6424474229
 11
138.5683825938
 21
268.4295538302
  0
LINE
  5
23D
100
AcDbEntity
  8
0
100
AcDbLine
 62
7
  6
CONTINUOUS
 10
138.5756562018
 20
267.6707624531
 11
139.3742022726
 21
267.9767761956
  0
LINE
  5
23E
100
AcDbEntity
  8
0
100
AcDbLine
 62
7
  6
CONTINUOUS
 10
151.1801953656
 20
270.1743638592
 11
150.5922812741
 21
269.9612885939
  0
LINE
  5
23F
100
AcDbEntity
  8
0
100
AcDbLine
 62
7
  6
CONTINUOUS
 10
145.3801688218
 20
266.8683961828
 11
144.8717604457
 21
266.721239521
  0
LINE
  5
240
100
AcDbEntity
  8
BEZUGSACHSEN
100
AcDbLine
 62
7
  6
CONTINUOUS
 10
165.3177155401
 20
159.6450633133
 11
133.4002912351
 21
159.6450633133
  0
LINE
  5
241
100
AcDbEntity
  8
BEZUGSACHSEN
100
AcDbLine
 62
7
  6
CONTINUOUS
 10
124.2351398452
 20
159.6450633133
 11
92.3177155401
 21
159.6450633133
  0
LINE
  5
242
100
AcDbEntity
  8
0
100
AcDbLine
 62
7
  6
CONTINUOUS
 10
88.8177155401
 20
169.9679850613
 11
88.8177155401
 21
219.9679850613
  0
LINE
  5
243
100
AcDbEntity
  8
0
100
AcDbLine
 62
7
  6
CONTINUOUS
 10
106.5871311924
 20
268.1045141923
 11
106.4364788976
 21
267.7157963447
  0
LINE
  5
244
100
AcDbEntity
  8
0
100
AcDbLine
 62
7
  6
CONTINUOUS
 10
107.1486975353
 20
267.5350741495
 11
107.2993490633
 21
267.9237916682
  0
LINE
  5
245
100
AcDbEntity
  8
0
100
AcDbLine
 62
7
  6
CONTINUOUS
 10
115.9213019505
 20
271.4019568355
 11
115.7218205342
 21
271.0358901154
  0
LINE
  5
246
100
AcDbEntity
  8
0
100
AcDbLine
 62
7
  6
CONTINUOUS
 10
119.6262836566
 20
272.1871568182
 11
119.3812986383
 21
271.8498438778
  0
LINE
  5
247
100
AcDbEntity
  8
0
100
AcDbLine
 62
7
  6
CONTINUOUS
 10
120.0236878691
 20
271.4931185638
 11
120.2686712364
 21
271.8304312603
  0
LINE
  5
248
100
AcDbEntity
  8
0
100
AcDbLine
 62
7
  6
CONTINUOUS
 10
122.7238849083
 20
269.1822009564
 11
122.47889989
 21
268.8448880159
  0
LINE
  5
249
100
AcDbEntity
  8
0
100
AcDbLine
 62
7
  6
CONTINUOUS
 10
123.1212891322
 20
268.4881626245
 11
123.3662724957
 21
268.8254753468
  0
LINE
  5
24A
100
AcDbEntity
  8
0
100
AcDbLine
 62
7
  6
CONTINUOUS
 10
133.6789641158
 20
275.2885858146
 11
132.7160612435
 21
274.3266294973
  0
LINE
  5
24B
100
AcDbEntity
  8
0
100
AcDbLine
 62
7
  6
CONTINUOUS
 10
132.611762069
 20
273.1397136465
 11
133.5746649779
 21
274.1016703794
  0
LINE
  5
24C
100
AcDbEntity
  8
0
100
AcDbLine
 62
7
  6
CONTINUOUS
 10
139.3742022726
 20
267.9767761956
 11
139.8859956268
 21
268.336097301
  0
LINE
  5
24D
100
AcDbEntity
  8
0
100
AcDbLine
 62
7
  6
CONTINUOUS
 10
150.4033332212
 20
268.895320891
 11
151.3163040975
 21
269.4478707049
  0
LINE
  5
24E
100
AcDbEntity
  8
0
100
AcDbLine
 62
7
  6
CONTINUOUS
 10
145.6108600621
 20
266.1661857414
 11
146.165554641
 21
266.4549036284
  0
LINE
  5
24F
100
AcDbEntity
  8
0
100
AcDbLine
 62
7
  6
CONTINUOUS
 10
156.6648235556
 20
265.6227948543
 11
157.6426698143
 21
266.0501678837
  0
LINE
  5
250
100
AcDbEntity
  8
0
100
AcDbLine
 62
7
  6
CONTINUOUS
 10
151.5544050427
 20
263.549246961
 11
152.1423191567
 21
263.7623222733
  0
LINE
  5
251
100
AcDbEntity
  8
0
100
AcDbLine
 62
7
  6
CONTINUOUS
 10
91.3177155401
 20
135.4679850613
 11
91.3177155401
 21
177.4679850613
  0
LINE
  5
252
100
AcDbEntity
  8
RUNDUNGEN
100
AcDbLine
 62
7
  6
CONTINUOUS
 10
91.3177155401
 20
156.4512998349
 11
91.3177155401
 21
177.4679850613
  0
LINE
  5
253
100
AcDbEntity
  8
0
100
AcDbLine
 62
7
  6
CONTINUOUS
 10
103.2058181662
 20
266.3985961439
 11
103.1065068568
 21
265.9937076415
  0
LINE
  5
254
100
AcDbEntity
  8
0
100
AcDbLine
 62
7
  6
CONTINUOUS
 10
116.5451342044
 20
270.8046386567
 11
116.8037791594
 21
271.4970407634
  0
LINE
  5
255
100
AcDbEntity
  8
0
100
AcDbLine
 62
7
  6
CONTINUOUS
 10
110.3497841415
 20
265.9909068422
 11
110.1991318467
 21
265.6021889946
  0
LINE
  5
256
100
AcDbEntity
  8
0
100
AcDbLine
 62
7
  6
CONTINUOUS
 10
110.9113505153
 20
265.4214667275
 11
111.062002033
 21
265.8101842702
  0
LINE
  5
257
100
AcDbEntity
  8
0
100
AcDbLine
 62
7
  6
CONTINUOUS
 10
119.3812986383
 20
271.8498438778
 11
119.1580894416
 21
271.3651952964
  0
LINE
  5
258
100
AcDbEntity
  8
0
100
AcDbLine
 62
7
  6
CONTINUOUS
 10
119.8004770213
 20
271.0084697384
 11
120.0236878691
 21
271.4931185638
  0
LINE
  5
259
100
AcDbEntity
  8
0
100
AcDbLine
 62
7
  6
CONTINUOUS
 10
136.8659399641
 20
272.8362095982
 11
137.6027740107
 21
273.6081594668
  0
LINE
  5
25A
100
AcDbEntity
  8
0
100
AcDbLine
 62
7
  6
CONTINUOUS
 10
139.7897890528
 20
269.4143969838
 11
139.0529550634
 21
268.6424474229
  0
LINE
  5
25B
100
AcDbEntity
  8
0
100
AcDbLine
 62
7
  6
CONTINUOUS
 10
143.8118619416
 20
272.395436564
 11
143.3494942507
 21
271.9198353088
  0
LINE
  5
25C
100
AcDbEntity
  8
0
100
AcDbLine
 62
7
  6
CONTINUOUS
 10
143.76508145
 20
271.3138644911
 11
144.5972477608
 21
271.9819440097
  0
LINE
  5
25D
100
AcDbEntity
  8
0
100
AcDbLine
 62
7
  6
CONTINUOUS
 10
146.2123318627
 20
267.5364764413
 11
145.3801688218
 21
266.8683961828
  0
LINE
  5
25E
100
AcDbEntity
  8
0
100
AcDbLine
 62
7
  6
CONTINUOUS
 10
150.5922812741
 20
269.9612885939
 11
150.0712523036
 21
269.550789815
  0
LINE
  5
25F
100
AcDbEntity
  8
0
100
AcDbLine
 62
7
  6
CONTINUOUS
 10
152.3312700822
 20
264.8282882477
 11
151.4182963334
 21
264.2757401623
  0
LINE
  5
260
100
AcDbEntity
  8
0
100
AcDbLine
 62
7
  6
CONTINUOUS
 10
156.9926471378
 20
266.6545497973
 11
156.4220482299
 21
266.3163201873
  0
LINE
  5
261
100
AcDbEntity
  8
0
100
AcDbLine
 62
7
  6
CONTINUOUS
 10
158.0397966883
 20
261.3371042512
 11
157.0619533924
 21
260.9097296531
  0
LINE
  5
262
100
AcDbEntity
  8
0
100
AcDbLine
 62
7
  6
CONTINUOUS
 10
103.9615789678
 20
265.9805276107
 11
104.0346965002
 21
266.7160354058
  0
LINE
  5
263
100
AcDbEntity
  8
0
100
AcDbLine
 62
7
  6
CONTINUOUS
 10
106.4364788976
 20
267.7157963447
 11
106.344529486
 21
267.1901991744
  0
LINE
  5
264
100
AcDbEntity
  8
0
100
AcDbLine
 62
7
  6
CONTINUOUS
 10
107.0567481238
 20
267.0094769792
 11
107.1486975353
 21
267.5350741495
  0
LINE
  5
265
100
AcDbEntity
  8
0
100
AcDbLine
 62
7
  6
CONTINUOUS
 10
110.4417335119
 20
266.5165041085
 11
110.3497841415
 21
265.9909068422
  0
LINE
  5
266
100
AcDbEntity
  8
0
100
AcDbLine
 62
7
  6
CONTINUOUS
 10
111.062002033
 20
265.8101842702
 11
111.1539521909
 21
266.3357818174
  0
LINE
  5
267
100
AcDbEntity
  8
0
100
AcDbLine
 62
7
  6
CONTINUOUS
 10
122.9470957408
 20
269.666849885
 11
122.7238849083
 21
269.1822009564
  0
LINE
  5
268
100
AcDbEntity
  8
0
100
AcDbLine
 62
7
  6
CONTINUOUS
 10
123.3662724957
 20
268.8254753468
 11
123.5894833358
 21
269.3101242238
  0
LINE
  5
269
100
AcDbEntity
  8
0
100
AcDbLine
 62
7
  6
CONTINUOUS
 10
136.7697334473
 20
273.9145095887
 11
136.3740939461
 21
273.3821077031
  0
LINE
  5
26A
100
AcDbEntity
  8
0
100
AcDbLine
 62
7
  6
CONTINUOUS
 10
139.8859956268
 20
268.336097301
 11
140.281635147
 21
268.8684992892
  0
LINE
  5
26B
100
AcDbEntity
  8
0
100
AcDbLine
 62
7
  6
CONTINUOUS
 10
150.0712523036
 20
269.550789815
 11
149.7461925107
 21
269.2113167129
  0
LINE
  5
26C
100
AcDbEntity
  8
0
100
AcDbLine
 62
7
  6
CONTINUOUS
 10
146.165554641
 20
266.4549036284
 11
146.6279223643
 21
266.9305049828
  0
LINE
  5
26D
100
AcDbEntity
  8
0
100
AcDbLine
 62
7
  6
CONTINUOUS
 10
156.4220482299
 20
266.3163201873
 11
156.0550768412
 21
266.0226590181
  0
LINE
  5
26E
100
AcDbEntity
  8
0
100
AcDbLine
 62
7
  6
CONTINUOUS
 10
152.1423191567
 20
263.7623222733
 11
152.6633481725
 21
264.1728211461
  0
LINE
  5
26F
100
AcDbEntity
  8
0
100
AcDbLine
 62
7
  6
CONTINUOUS
 10
157.7119760689
 20
260.3053477395
 11
158.2825694515
 21
260.6435810975
  0
LINE
  5
270
100
AcDbEntity
  8
0
100
AcDbLine
 62
7
  6
CONTINUOUS
 10
165.3177155401
 20
178.4679850613
 11
92.3177155401
 21
178.4679850613
  0
LINE
  5
271
100
AcDbEntity
  8
0
100
AcDbLine
 62
7
  6
CONTINUOUS
 10
164.8177155401
 20
180.4679850613
 11
161.2407012139
 21
180.4679850613
  0
LINE
  5
272
100
AcDbEntity
  8
0
100
AcDbLine
 62
7
  6
CONTINUOUS
 10
92.8177155401
 20
180.4679850613
 11
96.3947298664
 21
180.4679850613
  0
LINE
  5
273
100
AcDbEntity
  8
0
100
AcDbLine
 62
7
  6
CONTINUOUS
 10
119.1580894416
 20
271.3651952964
 11
119.0791444481
 21
270.9018669342
  0
LINE
  5
274
100
AcDbEntity
  8
0
100
AcDbLine
 62
7
  6
CONTINUOUS
 10
136.3740939461
 20
273.3821077031
 11
136.1490565258
 21
272.9694782786
  0
LINE
  5
275
100
AcDbEntity
  8
0
100
AcDbLine
 62
7
  6
CONTINUOUS
 10
143.3494942507
 20
271.9198353088
 11
143.0720225027
 21
271.5404736276
  0
LINE
  5
276
100
AcDbEntity
  8
0
100
AcDbLine
 62
7
  6
CONTINUOUS
 10
146.6279223643
 20
266.9305049828
 11
146.9053939826
 21
267.3098662674
  0
LINE
  5
277
100
AcDbEntity
  8
0
100
AcDbLine
 62
7
  6
CONTINUOUS
 10
152.6633481725
 20
264.1728211461
 11
152.9884077846
 21
264.5122938723
  0
LINE
  5
278
100
AcDbEntity
  8
0
100
AcDbLine
 62
7
  6
CONTINUOUS
 10
156.0550768412
 20
266.0226590181
 11
155.5247538954
 21
265.4799116582
  0
LINE
  5
279
100
AcDbEntity
  8
0
100
AcDbLine
 62
7
  6
CONTINUOUS
 10
158.2825694515
 20
260.6435810975
 11
158.6495461939
 21
260.937238257
  0
LINE
  5
27A
100
AcDbEntity
  8
0
100
AcDbLine
 62
7
  6
CONTINUOUS
 10
178.3977155401
 20
185.2409587177
 11
183.3977155401
 21
185.2409587177
  0
LINE
  5
27B
100
AcDbEntity
  8
0
100
AcDbLine
 62
7
  6
CONTINUOUS
 10
185.1977155401
 20
186.2009587177
 11
184.2377155401
 21
186.2009587177
  0
LINE
  5
27C
100
AcDbEntity
  8
0
100
AcDbLine
 62
7
  6
CONTINUOUS
 10
183.3977155401
 20
186.2009587177
 11
177.3977155401
 21
186.2009587177
  0
LINE
  5
27D
100
AcDbEntity
  8
0
100
AcDbLine
 62
7
  6
CONTINUOUS
 10
180.277421389
 20
188.3009587177
 11
185.1977155401
 21
188.3009587177
  0
LINE
  5
27E
100
AcDbEntity
  8
0
100
AcDbLine
 62
7
  6
CONTINUOUS
 10
185.1977155401
 20
189.2609587177
 11
180.277421389
 21
189.2609587177
  0
LINE
  5
27F
100
AcDbEntity
  8
0
100
AcDbLine
 62
7
  6
CONTINUOUS
 10
106.344529486
 20
267.1901991744
 11
106.3866079549
 21
266.7220811117
  0
LINE
  5
280
100
AcDbEntity
  8
0
100
AcDbLine
 62
7
  6
CONTINUOUS
 10
115.9398891227
 20
271.8715944761
 11
115.9213019505
 21
271.4019568355
  0
LINE
  5
281
100
AcDbEntity
  8
0
100
AcDbLine
 62
7
  6
CONTINUOUS
 10
116.8037791594
 20
271.4970407634
 11
116.8223663315
 21
271.966678404
  0
LINE
  5
282
100
AcDbEntity
  8
0
100
AcDbLine
 62
7
  6
CONTINUOUS
 10
119.0791444481
 20
270.9018669342
 11
119.0219752762
 21
270.291202931
  0
LINE
  5
283
100
AcDbEntity
  8
0
100
AcDbLine
 62
7
  6
CONTINUOUS
 10
119.7433078494
 20
270.3978057352
 11
119.8004770213
 21
271.0084697384
  0
LINE
  5
284
100
AcDbEntity
  8
0
100
AcDbLine
 62
7
  6
CONTINUOUS
 10
123.5894833358
 20
269.3101242238
 11
123.7255974859
 21
270.3841166924
  0
LINE
  5
285
100
AcDbEntity
  8
0
100
AcDbLine
 62
7
  6
CONTINUOUS
 10
136.559236713
 20
271.9842988096
 11
136.8659399641
 21
272.8362095982
  0
LINE
  5
286
100
AcDbEntity
  8
0
100
AcDbLine
 62
7
  6
CONTINUOUS
 10
136.1490565258
 20
272.9694782786
 11
135.8695741499
 21
272.2639949514
  0
LINE
  5
287
100
AcDbEntity
  8
0
100
AcDbLine
 62
7
  6
CONTINUOUS
 10
143.3487544444
 20
270.5098186424
 11
143.76508145
 21
271.3138644911
  0
LINE
  5
288
100
AcDbEntity
  8
0
100
AcDbLine
 62
7
  6
CONTINUOUS
 10
140.281635147
 20
268.8684992892
 11
140.506672491
 21
269.2811283035
  0
LINE
  5
289
100
AcDbEntity
  8
0
100
AcDbLine
 62
7
  6
CONTINUOUS
 10
143.0720225027
 20
271.5404736276
 11
142.7019785112
 21
270.8779899919
  0
LINE
  5
28A
100
AcDbEntity
  8
0
100
AcDbLine
 62
7
  6
CONTINUOUS
 10
149.8846427407
 20
268.1531759851
 11
150.4033332212
 21
268.895320891
  0
LINE
  5
28B
100
AcDbEntity
  8
0
100
AcDbLine
 62
7
  6
CONTINUOUS
 10
149.7461925107
 20
269.2113167129
 11
149.2920486611
 21
268.6033944204
  0
LINE
  5
28C
100
AcDbEntity
  8
0
100
AcDbLine
 62
7
  6
CONTINUOUS
 10
152.9884077846
 20
264.5122938723
 11
153.4425547327
 21
265.1202149062
  0
LINE
  5
28D
100
AcDbEntity
  8
0
100
AcDbLine
 62
7
  6
CONTINUOUS
 10
156.0528261126
 20
264.9555033096
 11
156.6648235556
 21
265.6227948543
  0
LINE
  5
28E
100
AcDbEntity
  8
0
100
AcDbLine
 62
7
  6
CONTINUOUS
 10
158.6517914545
 20
262.0043978009
 11
158.0397966883
 21
261.3371042512
  0
LINE
  5
28F
100
AcDbEntity
  8
0
100
AcDbLine
 62
7
  6
CONTINUOUS
 10
158.6495461939
 20
260.937238257
 11
159.1798664628
 21
261.4799876217
  0
LINE
  5
290
100
AcDbEntity
  8
0
100
AcDbLine
 62
7
  6
CONTINUOUS
 10
180.277421389
 20
193.0804511307
 11
185.1977155401
 21
193.0804511307
  0
LINE
  5
291
100
AcDbEntity
  8
0
100
AcDbLine
 62
7
  6
CONTINUOUS
 10
185.1977155401
 20
194.0404511307
 11
180.277421389
 21
194.0404511307
  0
LINE
  5
292
100
AcDbEntity
  8
0
100
AcDbLine
 62
7
  6
CONTINUOUS
 10
103.1037751371
 20
266.8573905841
 11
103.2058181662
 21
266.3985961439
  0
LINE
  5
293
100
AcDbEntity
  8
0
100
AcDbLine
 62
7
  6
CONTINUOUS
 10
106.3866079549
 20
266.7220811117
 11
106.4873881568
 21
266.117083233
  0
LINE
  5
294
100
AcDbEntity
  8
0
100
AcDbLine
 62
7
  6
CONTINUOUS
 10
123.0042649127
 20
270.2775138882
 11
122.9470957408
 21
269.666849885
  0
LINE
  5
295
100
AcDbEntity
  8
0
100
AcDbLine
 62
7
  6
CONTINUOUS
 10
140.096492342
 20
270.2663079775
 11
139.7897890528
 21
269.4143969838
  0
LINE
  5
296
100
AcDbEntity
  8
0
100
AcDbLine
 62
7
  6
CONTINUOUS
 10
140.506672491
 20
269.2811283035
 11
140.7861549051
 21
269.9866118357
  0
LINE
  5
297
100
AcDbEntity
  8
0
100
AcDbLine
 62
7
  6
CONTINUOUS
 10
149.2920486611
 20
268.6033944204
 11
148.711156056
 21
267.395377881
  0
LINE
  5
298
100
AcDbEntity
  8
0
100
AcDbLine
 62
7
  6
CONTINUOUS
 10
149.4328373811
 20
267.2136075655
 11
149.8846427407
 21
268.1531759851
  0
LINE
  5
299
100
AcDbEntity
  8
0
100
AcDbLine
 62
7
  6
CONTINUOUS
 10
146.6286621057
 20
268.3405214509
 11
146.2123318627
 21
267.5364764413
  0
LINE
  5
29A
100
AcDbEntity
  8
0
100
AcDbLine
 62
7
  6
CONTINUOUS
 10
146.9053939826
 20
267.3098662674
 11
147.2754348664
 21
267.9723511388
  0
LINE
  5
29B
100
AcDbEntity
  8
0
100
AcDbLine
 62
7
  6
CONTINUOUS
 10
155.5247538954
 20
265.4799116582
 11
154.78968342
 21
264.3590139937
  0
LINE
  5
29C
100
AcDbEntity
  8
0
100
AcDbLine
 62
7
  6
CONTINUOUS
 10
155.4811046317
 20
264.0836940149
 11
156.0528261126
 21
264.9555033096
  0
LINE
  5
29D
100
AcDbEntity
  8
0
100
AcDbLine
 62
7
  6
CONTINUOUS
 10
152.849957645
 20
265.5704347881
 11
152.3312700822
 21
264.8282882477
  0
LINE
  5
29E
100
AcDbEntity
  8
0
100
AcDbLine
 62
7
  6
CONTINUOUS
 10
177.2183366776
 20
200.2804511307
 11
181.3177155401
 21
200.2804511307
  0
LINE
  5
29F
100
AcDbEntity
  8
0
100
AcDbLine
 62
7
  6
CONTINUOUS
 10
182.2777155401
 20
200.2804511307
 11
183.2683366776
 21
200.2804511307
  0
LINE
  5
2A0
100
AcDbEntity
  8
0
100
AcDbLine
 62
7
  6
CONTINUOUS
 10
185.1977155401
 20
201.2404511307
 11
184.1083366776
 21
201.2404511307
  0
LINE
  5
2A1
100
AcDbEntity
  8
0
100
AcDbLine
 62
7
  6
CONTINUOUS
 10
183.2683366776
 20
201.2404511307
 11
177.2183366776
 21
201.2404511307
  0
LINE
  5
2A2
100
AcDbEntity
  8
0
100
AcDbLine
 62
7
  6
CONTINUOUS
 10
177.9977155401
 20
203.1408953797
 11
184.5977155401
 21
203.1408953797
  0
LINE
  5
2A3
100
AcDbEntity
  8
0
100
AcDbLine
 62
7
  6
CONTINUOUS
 10
104.0346965002
 20
266.7160354058
 11
103.9326534711
 21
267.1748298459
  0
LINE
  5
2A4
100
AcDbEntity
  8
0
100
AcDbLine
 62
7
  6
CONTINUOUS
 10
107.1575283257
 20
266.4044791004
 11
107.0567481238
 21
267.0094769792
  0
LINE
  5
2A5
100
AcDbEntity
  8
0
100
AcDbLine
 62
7
  6
CONTINUOUS
 10
110.3409533101
 20
267.1215019872
 11
110.4417335119
 21
266.5165041085
  0
LINE
  5
2A6
100
AcDbEntity
  8
0
100
AcDbLine
 62
7
  6
CONTINUOUS
 10
111.1539521909
 20
266.3357818174
 11
111.0110930955
 21
267.4088976902
  0
LINE
  5
2A7
100
AcDbEntity
  8
0
100
AcDbLine
 62
7
  6
CONTINUOUS
 10
124.2351398452
 20
159.6450633133
 11
124.2351398452
 21
148.4679850613
  0
LINE
  5
2A8
100
AcDbEntity
  8
BEZUGSACHSEN
100
AcDbLine
 62
2
  6
CENTER
 10
128.8177155401
 20
287.9679850613
 11
128.8177155401
 21
133.9679850613
  0
LINE
  5
2A9
100
AcDbEntity
  8
0
100
AcDbLine
 62
7
  6
CONTINUOUS
 10
132.7160612435
 20
274.3266294973
 11
132.611762069
 21
273.1397136465
  0
LINE
  5
2AA
100
AcDbEntity
  8
0
100
AcDbLine
 62
7
  6
CONTINUOUS
 10
133.5746649779
 20
274.1016703794
 11
133.0662066074
 21
268.3154568013
  0
LINE
  5
2AB
100
AcDbEntity
  8
0
100
AcDbLine
 62
7
  6
CONTINUOUS
 10
133.937847734
 20
268.2388621128
 11
134.5506052425
 21
275.211991126
  0
LINE
  5
2AC
100
AcDbEntity
  8
0
100
AcDbLine
 62
7
  6
CONTINUOUS
 10
135.8695741499
 20
272.2639949514
 11
135.6245862737
 21
270.9461477984
  0
LINE
  5
2AD
100
AcDbEntity
  8
0
100
AcDbLine
 62
7
  6
CONTINUOUS
 10
136.3686905871
 20
270.9593065795
 11
136.559236713
 21
271.9842988096
  0
LINE
  5
2AE
100
AcDbEntity
  8
0
100
AcDbLine
 62
7
  6
CONTINUOUS
 10
140.2870384679
 20
271.2913002077
 11
140.096492342
 21
270.2663079775
  0
LINE
  5
2AF
100
AcDbEntity
  8
0
100
AcDbLine
 62
7
  6
CONTINUOUS
 10
140.7861549051
 20
269.9866118357
 11
141.0311427813
 21
271.3044589888
  0
LINE
  5
2B0
100
AcDbEntity
  8
0
100
AcDbLine
 62
7
  6
CONTINUOUS
 10
142.7019785112
 20
270.8779899919
 11
142.2854028316
 21
269.6039394114
  0
LINE
  5
2B1
100
AcDbEntity
  8
0
100
AcDbLine
 62
7
  6
CONTINUOUS
 10
143.0247511381
 20
269.5188904132
 11
143.3487544444
 21
270.5098186424
  0
LINE
  5
2B2
100
AcDbEntity
  8
0
100
AcDbLine
 62
7
  6
CONTINUOUS
 10
146.952665412
 20
269.3314496801
 11
146.6286621057
 21
268.3405214509
  0
LINE
  5
2B3
100
AcDbEntity
  8
0
100
AcDbLine
 62
7
  6
CONTINUOUS
 10
147.2754348664
 20
267.9723511388
 11
147.692010546
 21
269.2464017192
  0
LINE
  5
2B4
100
AcDbEntity
  8
0
100
AcDbLine
 62
7
  6
CONTINUOUS
 10
153.3017630045
 20
266.5100032077
 11
152.849957645
 21
265.5704347881
  0
LINE
  5
2B5
100
AcDbEntity
  8
0
100
AcDbLine
 62
7
  6
CONTINUOUS
 10
153.4425547327
 20
265.1202149062
 11
154.0234473379
 21
266.3282314457
  0
LINE
  5
2B6
100
AcDbEntity
  8
0
100
AcDbLine
 62
7
  6
CONTINUOUS
 10
159.2235129354
 20
262.8762070955
 11
158.6517914545
 21
262.0043978009
  0
LINE
  5
2B7
100
AcDbEntity
  8
0
100
AcDbLine
 62
7
  6
CONTINUOUS
 10
159.1798664628
 20
261.4799876217
 11
159.9149369383
 21
262.6008852863
  0
LINE
  5
2B8
100
AcDbEntity
  8
0
100
AcDbLine
 62
7
  6
CONTINUOUS
 10
183.6977155401
 20
205.0908953797
 11
181.8977155401
 21
205.0908953797
  0
LINE
  5
2B9
100
AcDbEntity
  8
0
100
AcDbLine
 62
7
  6
CONTINUOUS
 10
180.6977155401
 20
205.0908953797
 11
178.8977155401
 21
205.0908953797
  0
LINE
  5
2BA
100
AcDbEntity
  8
0
100
AcDbLine
 62
7
  6
CONTINUOUS
 10
179.1677155401
 20
205.5408953797
 11
180.4277155401
 21
205.5408953797
  0
LINE
  5
2BB
100
AcDbEntity
  8
0
100
AcDbLine
 62
7
  6
CONTINUOUS
 10
182.1677155401
 20
205.5408953797
 11
183.4277155401
 21
205.5408953797
  0
LINE
  5
2BC
100
AcDbEntity
  8
0
100
AcDbLine
 62
7
  6
CONTINUOUS
 10
182.2277155401
 20
205.9158953797
 11
182.0477155401
 21
205.9158953797
  0
LINE
  5
2BD
100
AcDbEntity
  8
0
100
AcDbLine
 62
7
  6
CONTINUOUS
 10
181.5977155401
 20
205.9158953797
 11
180.9977155401
 21
205.9158953797
  0
LINE
  5
2BE
100
AcDbEntity
  8
0
100
AcDbLine
 62
7
  6
CONTINUOUS
 10
180.5477155401
 20
205.9158953797
 11
180.3677155401
 21
205.9158953797
  0
LINE
  5
2BF
100
AcDbEntity
  8
0
100
AcDbLine
 62
7
  6
CONTINUOUS
 10
180.3677155401
 20
206.3658953797
 11
180.5477155401
 21
206.3658953797
  0
LINE
  5
2C0
100
AcDbEntity
  8
0
100
AcDbLine
 62
7
  6
CONTINUOUS
 10
180.9977155401
 20
206.3658953797
 11
181.5977155401
 21
206.3658953797
  0
LINE
  5
2C1
100
AcDbEntity
  8
0
100
AcDbLine
 62
7
  6
CONTINUOUS
 10
182.0477155401
 20
206.3658953797
 11
182.2277155401
 21
206.3658953797
  0
LINE
  5
2C2
100
AcDbEntity
  8
0
100
AcDbLine
 62
7
  6
CONTINUOUS
 10
183.4277155401
 20
206.7408953797
 11
182.1677155401
 21
206.7408953797
  0
LINE
  5
2C3
100
AcDbEntity
  8
0
100
AcDbLine
 62
7
  6
CONTINUOUS
 10
180.4277155401
 20
206.7408953797
 11
179.1677155401
 21
206.7408953797
  0
LINE
  5
2C4
100
AcDbEntity
  8
0
100
AcDbLine
 62
7
  6
CONTINUOUS
 10
178.8977155401
 20
207.1908953797
 11
180.6977155401
 21
207.1908953797
  0
LINE
  5
2C5
100
AcDbEntity
  8
0
100
AcDbLine
 62
7
  6
CONTINUOUS
 10
181.8977155401
 20
207.1908953797
 11
183.6977155401
 21
207.1908953797
  0
LINE
  5
2C6
100
AcDbEntity
  8
0
100
AcDbLine
 62
7
  6
CONTINUOUS
 10
184.5977155401
 20
209.1408953797
 11
177.9977155401
 21
209.1408953797
  0
LINE
  5
2C7
100
AcDbEntity
  8
0
100
AcDbLine
 62
7
  6
CONTINUOUS
 10
111.0219985911
 20
272.6461644175
 11
112.929088046
 21
265.9109576789
  0
LINE
  5
2C8
100
AcDbEntity
  8
0
100
AcDbLine
 62
7
  6
CONTINUOUS
 10
113.7709888883
 20
266.1493438608
 11
112.9188850772
 21
269.1586915952
  0
LINE
  5
2C9
100
AcDbEntity
  8
0
100
AcDbLine
 62
7
  6
CONTINUOUS
 10
112.675426878
 20
270.0185051189
 11
112.0667812661
 21
272.1680393296
  0
LINE
  5
2CA
100
AcDbEntity
  8
0
100
AcDbLine
 62
7
  6
CONTINUOUS
 10
119.0219752762
 20
270.291202931
 11
119.1090719891
 21
269.7018591847
  0
LINE
  5
2CB
100
AcDbEntity
  8
0
100
AcDbLine
 62
7
  6
CONTINUOUS
 10
119.8304045623
 20
269.8084619889
 11
119.7433078494
 21
270.3978057352
  0
LINE
  5
2CC
100
AcDbEntity
  8
0
100
AcDbLine
 62
7
  6
CONTINUOUS
 10
135.6245862737
 20
270.9461477984
 11
135.6318598603
 21
270.1873563059
  0
LINE
  5
2CD
100
AcDbEntity
  8
0
100
AcDbLine
 62
7
  6
CONTINUOUS
 10
133.4002912351
 20
148.4679850613
 11
133.4002912351
 21
159.6450633133
  0
LINE
  5
2CE
100
AcDbEntity
  8
0
100
AcDbLine
 62
7
  6
CONTINUOUS
 10
136.3487432985
 20
270.0540876256
 11
136.3686905871
 21
270.9593065795
  0
LINE
  5
2CF
100
AcDbEntity
  8
0
100
AcDbLine
 62
7
  6
CONTINUOUS
 10
142.2854028316
 20
269.6039394114
 11
142.1925848922
 21
268.8508110929
  0
LINE
  5
2D0
100
AcDbEntity
  8
0
100
AcDbLine
 62
7
  6
CONTINUOUS
 10
142.8856438395
 20
268.6242019564
 11
143.0247511381
 21
269.5188904132
  0
LINE
  5
2D1
100
AcDbEntity
  8
0
100
AcDbLine
 62
7
  6
CONTINUOUS
 10
148.711156056
 20
267.395377881
 11
148.5198635872
 21
266.6610593861
  0
LINE
  5
2D2
100
AcDbEntity
  8
0
100
AcDbLine
 62
7
  6
CONTINUOUS
 10
149.1770042977
 20
266.3450635642
 11
149.4328373811
 21
267.2136075655
  0
LINE
  5
2D3
100
AcDbEntity
  8
0
100
AcDbLine
 62
7
  6
CONTINUOUS
 10
154.78968342
 20
264.3590139937
 11
154.5032612786
 21
263.6563193296
  0
LINE
  5
2D4
100
AcDbEntity
  8
0
100
AcDbLine
 62
7
  6
CONTINUOUS
 10
155.1130079931
 20
263.2564551658
 11
155.4811046317
 21
264.0836940149
  0
LINE
  5
2D5
100
AcDbEntity
  8
0
100
AcDbLine
 62
7
  6
CONTINUOUS
 10
159.5916122508
 20
263.7034439397
 11
159.2235129354
 21
262.8762070955
  0
LINE
  5
2D6
100
AcDbEntity
  8
0
100
AcDbLine
 62
7
  6
CONTINUOUS
 10
98.1512352581
 20
266.3495019649
 11
101.7161505335
 21
260.3252693101
  0
LINE
  5
2D7
100
AcDbEntity
  8
0
100
AcDbLine
 62
7
  6
CONTINUOUS
 10
102.4691796153
 20
260.7708837195
 11
100.876345108
 21
263.462562178
  0
LINE
  5
2D8
100
AcDbEntity
  8
0
100
AcDbLine
 62
7
  6
CONTINUOUS
 10
100.4212495952
 20
264.2316130635
 11
99.2835106007
 21
266.1542406364
  0
LINE
  5
2D9
100
AcDbEntity
  8
0
100
AcDbLine
 62
7
  6
CONTINUOUS
 10
102.8762271682
 20
267.2419163859
 11
103.1037751371
 21
266.8573905841
  0
LINE
  5
2DA
100
AcDbEntity
  8
0
100
AcDbLine
 62
7
  6
CONTINUOUS
 10
106.4873881568
 20
266.117083233
 11
106.7221967047
 21
265.5695644346
  0
LINE
  5
2DB
100
AcDbEntity
  8
0
100
AcDbLine
 62
7
  6
CONTINUOUS
 10
107.3923368737
 20
265.8569603021
 11
107.1575283257
 21
266.4044791004
  0
LINE
  5
2DC
100
AcDbEntity
  8
0
100
AcDbLine
 62
7
  6
CONTINUOUS
 10
110.1061447621
 20
267.6690207855
 11
110.3409533101
 21
267.1215019872
  0
LINE
  5
2DD
100
AcDbEntity
  8
0
100
AcDbLine
 62
7
  6
CONTINUOUS
 10
111.0110930955
 20
267.4088976902
 11
110.7762845476
 21
267.9564164885
  0
LINE
  5
2DE
100
AcDbEntity
  8
0
100
AcDbLine
 62
7
  6
CONTINUOUS
 10
115.8181599094
 20
272.3015016394
 11
115.9398891227
 21
271.8715944761
  0
LINE
  5
2DF
100
AcDbEntity
  8
0
100
AcDbLine
 62
7
  6
CONTINUOUS
 10
116.8223663315
 20
271.966678404
 11
116.6600607517
 21
272.5398878213
  0
LINE
  5
2E0
100
AcDbEntity
  8
0
100
AcDbLine
 62
7
  6
CONTINUOUS
 10
122.9171681998
 20
270.8668576345
 11
123.0042649127
 21
270.2775138882
  0
LINE
  5
2E1
100
AcDbEntity
  8
0
100
AcDbLine
 62
7
  6
CONTINUOUS
 10
123.7255974859
 20
270.3841166924
 11
123.6385007731
 21
270.9734604387
  0
LINE
  5
2E2
100
AcDbEntity
  8
0
100
AcDbLine
 62
7
  6
CONTINUOUS
 10
141.0311427813
 20
271.3044589888
 11
141.0238691566
 21
272.0632502761
  0
LINE
  5
2E3
100
AcDbEntity
  8
0
100
AcDbLine
 62
7
  6
CONTINUOUS
 10
142.1925848922
 20
268.8508110929
 11
142.1923393909
 21
268.3808053239
  0
LINE
  5
2E4
100
AcDbEntity
  8
0
100
AcDbLine
 62
7
  6
CONTINUOUS
 10
140.3069857183
 20
272.1965189564
 11
140.2870384679
 21
271.2913002077
  0
LINE
  5
2E5
100
AcDbEntity
  8
0
100
AcDbLine
 62
7
  6
CONTINUOUS
 10
147.692010546
 20
269.2464017192
 11
147.7848315931
 21
269.9995288021
  0
LINE
  5
2E6
100
AcDbEntity
  8
0
100
AcDbLine
 62
7
  6
CONTINUOUS
 10
148.5198635872
 20
266.6610593861
 11
148.4576614625
 21
266.1951877526
  0
LINE
  5
2E7
100
AcDbEntity
  8
0
100
AcDbLine
 62
7
  6
CONTINUOUS
 10
147.0917694732
 20
270.226138976
 11
146.952665412
 21
269.3314496801
  0
LINE
  5
2E8
100
AcDbEntity
  8
0
100
AcDbLine
 62
7
  6
CONTINUOUS
 10
154.0234473379
 20
266.3282314457
 11
154.2147367081
 21
267.062551199
  0
LINE
  5
2E9
100
AcDbEntity
  8
0
100
AcDbLine
 62
7
  6
CONTINUOUS
 10
154.5032612786
 20
263.6563193296
 11
154.380185455
 21
263.2027150402
  0
LINE
  5
2EA
100
AcDbEntity
  8
0
100
AcDbLine
 62
7
  6
CONTINUOUS
 10
153.5575990057
 20
267.3785455745
 11
153.3017630045
 21
266.5100032077
  0
LINE
  5
2EB
100
AcDbEntity
  8
0
100
AcDbLine
 62
7
  6
CONTINUOUS
 10
159.9149369383
 20
262.6008852863
 11
160.2013617565
 21
263.3035779455
  0
LINE
  5
2EC
100
AcDbEntity
  8
TEIL_STARTBEZUEGE
100
AcDbLine
 62
2
  6
CENTER
 10
60.8177155401
 20
219.9679850613
 11
196.8177155401
 21
219.9679850613
  0
LINE
  5
2ED
100
AcDbEntity
  8
0
100
AcDbLine
 62
7
  6
CONTINUOUS
 10
103.9326534711
 20
267.1748298459
 11
103.62925625
 21
267.6875307954
  0
LINE
  5
2EE
100
AcDbEntity
  8
0
100
AcDbLine
 62
7
  6
CONTINUOUS
 10
148.4576614625
 20
266.1951877526
 11
148.4623414055
 21
265.531893958
  0
LINE
  5
2EF
100
AcDbEntity
  8
0
100
AcDbLine
 62
7
  6
CONTINUOUS
 10
147.7848315931
 20
269.9995288021
 11
147.7850772241
 21
270.4695349677
  0
LINE
  5
2F0
100
AcDbEntity
  8
0
100
AcDbLine
 62
7
  6
CONTINUOUS
 10
154.380185455
 20
263.2027150402
 11
154.2973883274
 21
262.5445910834
  0
LINE
  5
2F1
100
AcDbEntity
  8
0
100
AcDbLine
 62
7
  6
CONTINUOUS
 10
154.2147367081
 20
267.062551199
 11
154.2769390136
 21
267.5284232085
  0
LINE
  5
2F2
100
AcDbEntity
  8
0
100
AcDbLine
 62
7
  6
CONTINUOUS
 10
160.2013617565
 20
263.3035779455
 11
160.3244322265
 21
263.7571862446
  0
LINE
  5
2F3
100
AcDbEntity
  8
0
100
AcDbLine
 62
7
  6
CONTINUOUS
 10
106.7221967047
 20
265.5695644346
 11
107.4011677051
 21
264.7263651571
  0
LINE
  5
2F4
100
AcDbEntity
  8
0
100
AcDbLine
 62
7
  6
CONTINUOUS
 10
107.7611736032
 20
265.3669209676
 11
107.3923368737
 21
265.8569603021
  0
LINE
  5
2F5
100
AcDbEntity
  8
0
100
AcDbLine
 62
7
  6
CONTINUOUS
 10
109.7373080326
 20
268.15906012
 11
110.1061447621
 21
267.6690207855
  0
LINE
  5
2F6
100
AcDbEntity
  8
0
100
AcDbLine
 62
7
  6
CONTINUOUS
 10
110.7762845476
 20
267.9564164885
 11
110.407447818
 21
268.446455823
  0
LINE
  5
2F7
100
AcDbEntity
  8
0
100
AcDbLine
 62
7
  6
CONTINUOUS
 10
119.1090719891
 20
269.7018591847
 11
119.5500245579
 21
268.7131490571
  0
LINE
  5
2F8
100
AcDbEntity
  8
0
100
AcDbLine
 62
7
  6
CONTINUOUS
 10
120.0617670989
 20
269.2404389122
 11
119.8304045623
 21
269.8084619889
  0
LINE
  5
2F9
100
AcDbEntity
  8
0
100
AcDbLine
 62
7
  6
CONTINUOUS
 10
122.6858056632
 20
271.4348807112
 11
122.9171681998
 21
270.8668576345
  0
LINE
  5
2FA
100
AcDbEntity
  8
0
100
AcDbLine
 62
7
  6
CONTINUOUS
 10
123.6385007731
 20
270.9734604387
 11
123.4071365855
 21
271.5414832714
  0
LINE
  5
2FB
100
AcDbEntity
  8
0
100
AcDbLine
 62
7
  6
CONTINUOUS
 10
135.6318598603
 20
270.1873563059
 11
135.6935719536
 21
269.7214205516
  0
LINE
  5
2FC
100
AcDbEntity
  8
0
100
AcDbLine
 62
7
  6
CONTINUOUS
 10
141.0238691566
 20
272.0632502761
 11
140.9621571396
 21
272.5291864407
  0
LINE
  5
2FD
100
AcDbEntity
  8
0
100
AcDbLine
 62
7
  6
CONTINUOUS
 10
154.2769390136
 20
267.5284232085
 11
154.2722590254
 21
268.1917169092
  0
LINE
  5
2FE
100
AcDbEntity
  8
0
100
AcDbLine
 62
7
  6
CONTINUOUS
 10
155.1107599985
 20
262.1892975397
 11
155.1130079931
 21
263.2564551658
  0
LINE
  5
2FF
100
AcDbEntity
  8
0
100
AcDbLine
 62
7
  6
CONTINUOUS
 10
160.3244322265
 20
263.7571862446
 11
160.4072348792
 21
264.4153064534
  0
LINE
  5
300
100
AcDbEntity
  8
0
100
AcDbLine
 62
7
  6
CONTINUOUS
 10
103.0099274467
 20
264.7251363026
 11
105.60680067
 21
262.6276103546
  0
LINE
  5
301
100
AcDbEntity
  8
0
100
AcDbLine
 62
7
  6
CONTINUOUS
 10
102.5231746845
 20
267.5521728313
 11
102.8762271682
 21
267.2419163859
  0
LINE
  5
302
100
AcDbEntity
  8
0
100
AcDbLine
 62
7
  6
CONTINUOUS
 10
103.62925625
 20
267.6875307954
 11
103.2762037663
 21
267.9977872407
  0
LINE
  5
303
100
AcDbEntity
  8
0
100
AcDbLine
 62
7
  6
CONTINUOUS
 10
110.407447818
 20
268.446455823
 11
110.0973139718
 21
268.7996158347
  0
LINE
  5
304
100
AcDbEntity
  8
0
100
AcDbLine
 62
7
  6
CONTINUOUS
 10
118.2611264464
 20
267.4207367549
 11
116.0650186387
 21
270.3591097244
  0
LINE
  5
305
100
AcDbEntity
  8
0
100
AcDbLine
 62
7
  6
CONTINUOUS
 10
115.3042705295
 20
269.8341190347
 11
117.2789093323
 21
267.1426196943
  0
LINE
  5
306
100
AcDbEntity
  8
0
100
AcDbLine
 62
7
  6
CONTINUOUS
 10
115.5561145379
 20
272.6916775225
 11
115.8181599094
 21
272.3015016394
  0
LINE
  5
307
100
AcDbEntity
  8
0
100
AcDbLine
 62
7
  6
CONTINUOUS
 10
116.6600607517
 20
272.5398878213
 11
116.3980153803
 21
272.9300637044
  0
LINE
  5
308
100
AcDbEntity
  8
0
100
AcDbLine
 62
7
  6
CONTINUOUS
 10
123.4071365855
 20
271.5414832714
 11
123.1975482195
 21
271.9621704631
  0
LINE
  5
309
100
AcDbEntity
  8
0
100
AcDbLine
 62
7
  6
CONTINUOUS
 10
135.6935719536
 20
269.7214205516
 11
135.8714444346
 21
269.082402643
  0
LINE
  5
30A
100
AcDbEntity
  8
0
100
AcDbLine
 62
7
  6
CONTINUOUS
 10
142.1923393909
 20
268.3808053239
 11
142.2844175564
 21
267.7239170752
  0
LINE
  5
30B
100
AcDbEntity
  8
0
100
AcDbLine
 62
7
  6
CONTINUOUS
 10
147.7850772241
 20
270.4695349677
 11
147.6929990262
 21
271.1264231173
  0
LINE
  5
30C
100
AcDbEntity
  8
0
100
AcDbLine
 62
7
  6
CONTINUOUS
 10
159.5938632082
 20
264.7705999971
 11
159.5916122508
 21
263.7034439397
  0
LINE
  5
30D
100
AcDbEntity
  8
0
100
AcDbLine
 62
7
  6
CONTINUOUS
 10
107.4011677051
 20
264.7263651571
 11
107.8453298358
 21
264.4306843696
  0
LINE
  5
30E
100
AcDbEntity
  8
0
100
AcDbLine
 62
7
  6
CONTINUOUS
 10
106.4853348382
 20
263.1474939739
 11
103.6112582039
 21
265.4271011134
  0
LINE
  5
30F
100
AcDbEntity
  8
0
100
AcDbLine
 62
7
  6
CONTINUOUS
 10
119.5500245579
 20
268.7131490571
 11
119.9038787858
 21
268.313782277
  0
LINE
  5
310
100
AcDbEntity
  8
0
100
AcDbLine
 62
7
  6
CONTINUOUS
 10
120.4156229854
 20
268.8410723245
 11
120.0617670989
 21
269.2404389122
  0
LINE
  5
311
100
AcDbEntity
  8
0
100
AcDbLine
 62
7
  6
CONTINUOUS
 10
136.7589267483
 20
269.068907444
 11
136.3487432985
 21
270.0540876256
  0
LINE
  5
312
100
AcDbEntity
  8
0
100
AcDbLine
 62
7
  6
CONTINUOUS
 10
140.9621571396
 20
272.5291864407
 11
140.7842846395
 21
273.1682042467
  0
LINE
  5
313
100
AcDbEntity
  8
0
100
AcDbLine
 62
7
  6
CONTINUOUS
 10
143.1623757488
 20
267.593546872
 11
142.8856438395
 21
268.6242019564
  0
LINE
  5
314
100
AcDbEntity
  8
0
100
AcDbLine
 62
7
  6
CONTINUOUS
 10
146.8150408338
 20
271.2567933205
 11
147.0917694732
 21
270.226138976
  0
LINE
  5
315
100
AcDbEntity
  8
0
100
AcDbLine
 62
7
  6
CONTINUOUS
 10
149.3154514744
 20
265.2869241888
 11
149.1770042977
 21
266.3450635642
  0
LINE
  5
316
100
AcDbEntity
  8
0
100
AcDbLine
 62
7
  6
CONTINUOUS
 10
153.4191489565
 20
268.4366866784
 11
153.5575990057
 21
267.3785455745
  0
LINE
  5
317
100
AcDbEntity
  8
0
100
AcDbLine
 62
7
  6
CONTINUOUS
 10
166.3177155401
 20
135.4679850613
 11
166.3177155401
 21
177.4679850613
  0
LINE
  5
318
100
AcDbEntity
  8
RUNDUNGEN
100
AcDbLine
 62
7
  6
CONTINUOUS
 10
166.3177155401
 20
156.4512998349
 11
166.3177155401
 21
177.4679850613
  0
LINE
  5
319
100
AcDbEntity
  8
0
100
AcDbLine
 62
7
  6
CONTINUOUS
 10
168.8177155401
 20
219.9679850613
 11
168.8177155401
 21
169.9679850613
  0
LINE
  5
31A
100
AcDbEntity
  8
0
100
AcDbLine
 62
7
  6
CONTINUOUS
 10
181.3177155401
 20
197.8804511307
 11
177.3977155401
 21
195.6172380754
  0
LINE
  5
31B
100
AcDbEntity
  8
0
100
AcDbLine
 62
7
  6
CONTINUOUS
 10
177.3977155401
 20
194.5087255586
 11
181.3177155401
 21
196.7719386138
  0
LINE
  5
31C
100
AcDbEntity
  8
0
100
AcDbLine
 62
7
  6
CONTINUOUS
 10
108.2053357544
 20
265.0712401322
 11
107.7611736032
 21
265.3669209676
  0
LINE
  5
31D
100
AcDbEntity
  8
0
100
AcDbLine
 62
7
  6
CONTINUOUS
 10
109.2931459225
 20
268.4547408595
 11
109.7373080326
 21
268.15906012
  0
LINE
  5
31E
100
AcDbEntity
  8
0
100
AcDbLine
 62
7
  6
CONTINUOUS
 10
110.0973139718
 20
268.7996158347
 11
109.6531510948
 21
269.0952962453
  0
LINE
  5
31F
100
AcDbEntity
  8
0
100
AcDbLine
 62
7
  6
CONTINUOUS
 10
122.331949792
 20
271.8342471957
 11
122.6858056632
 21
271.4348807112
  0
LINE
  5
320
100
AcDbEntity
  8
0
100
AcDbLine
 62
7
  6
CONTINUOUS
 10
123.1975482195
 20
271.9621704631
 11
122.8436923482
 21
272.3615369476
  0
LINE
  5
321
100
AcDbEntity
  8
0
100
AcDbLine
 62
7
  6
CONTINUOUS
 10
135.8714444346
 20
269.082402643
 11
136.2199125189
 21
268.5631588772
  0
LINE
  5
322
100
AcDbEntity
  8
0
100
AcDbLine
 62
7
  6
CONTINUOUS
 10
142.2844175564
 20
267.7239170752
 11
142.5613949832
 21
267.1632678094
  0
LINE
  5
323
100
AcDbEntity
  8
0
100
AcDbLine
 62
7
  6
CONTINUOUS
 10
139.8968023258
 20
273.1816994457
 11
140.3069857183
 21
272.1965189564
  0
LINE
  5
324
100
AcDbEntity
  8
0
100
AcDbLine
 62
7
  6
CONTINUOUS
 10
148.4623414055
 20
265.531893958
 11
148.6629937375
 21
264.9396248167
  0
LINE
  5
325
100
AcDbEntity
  8
0
100
AcDbLine
 62
7
  6
CONTINUOUS
 10
154.2973883274
 20
262.5445910834
 11
154.4182133939
 21
261.9310396206
  0
LINE
  5
326
100
AcDbEntity
  8
0
100
AcDbLine
 62
7
  6
CONTINUOUS
 10
157.1011039616
 20
260.1716340053
 11
157.7119760689
 21
260.3053477395
  0
LINE
  5
327
100
AcDbEntity
  8
0
100
AcDbLine
 62
7
  6
CONTINUOUS
 10
107.8453298358
 20
264.4306843696
 11
108.2307906066
 21
264.2718835867
  0
LINE
  5
328
100
AcDbEntity
  8
0
100
AcDbLine
 62
7
  6
CONTINUOUS
 10
108.5907957481
 20
264.9124390443
 11
108.2053357544
 21
265.0712401322
  0
LINE
  5
329
100
AcDbEntity
  8
0
100
AcDbLine
 62
7
  6
CONTINUOUS
 10
108.9076851619
 20
268.6135416185
 11
109.2931459225
 21
268.4547408595
  0
LINE
  5
32A
100
AcDbEntity
  8
0
100
AcDbLine
 62
7
  6
CONTINUOUS
 10
103.2762037663
 20
267.9977872407
 11
102.5962922169
 21
268.2876806264
  0
LINE
  5
32B
100
AcDbEntity
  8
0
100
AcDbLine
 62
7
  6
CONTINUOUS
 10
119.9038787858
 20
268.313782277
 11
120.2359604903
 21
268.0617516517
  0
LINE
  5
32C
100
AcDbEntity
  8
0
100
AcDbLine
 62
7
  6
CONTINUOUS
 10
120.747703035
 20
268.589041481
 11
120.4156229854
 21
268.8410723245
  0
LINE
  5
32D
100
AcDbEntity
  8
0
100
AcDbLine
 62
7
  6
CONTINUOUS
 10
121.9998680913
 20
272.0862777952
 11
122.331949792
 21
271.8342471957
  0
LINE
  5
32E
100
AcDbEntity
  8
0
100
AcDbLine
 62
7
  6
CONTINUOUS
 10
122.8436923482
 20
272.3615369476
 11
122.5116122986
 21
272.6135677911
  0
LINE
  5
32F
100
AcDbEntity
  8
0
100
AcDbLine
 62
7
  6
CONTINUOUS
 10
116.3980153803
 20
272.9300637044
 11
115.8147594929
 21
273.3840796293
  0
LINE
  5
330
100
AcDbEntity
  8
0
100
AcDbLine
 62
7
  6
CONTINUOUS
 10
143.4856393785
 20
267.1744588314
 11
143.1623757488
 21
267.593546872
  0
LINE
  5
331
100
AcDbEntity
  8
0
100
AcDbLine
 62
7
  6
CONTINUOUS
 10
140.7842846395
 20
273.1682042467
 11
140.4358165456
 21
273.6874479612
  0
LINE
  5
332
100
AcDbEntity
  8
0
100
AcDbLine
 62
7
  6
CONTINUOUS
 10
148.6629937375
 20
264.9396248167
 11
149.1265035627
 21
264.2209567797
  0
LINE
  5
333
100
AcDbEntity
  8
0
100
AcDbLine
 62
7
  6
CONTINUOUS
 10
149.5806474518
 20
264.8288791544
 11
149.3154514744
 21
265.2869241888
  0
LINE
  5
334
100
AcDbEntity
  8
0
100
AcDbLine
 62
7
  6
CONTINUOUS
 10
147.6929990262
 20
271.1264231173
 11
147.4160215831
 21
271.6870723335
  0
LINE
  5
335
100
AcDbEntity
  8
0
100
AcDbLine
 62
7
  6
CONTINUOUS
 10
154.4182133939
 20
261.9310396206
 11
154.7829365951
 21
261.1575428693
  0
LINE
  5
336
100
AcDbEntity
  8
0
100
AcDbLine
 62
7
  6
CONTINUOUS
 10
155.3132567997
 20
261.7002921359
 11
155.1107599985
 21
262.1892975397
  0
LINE
  5
337
100
AcDbEntity
  8
0
100
AcDbLine
 62
7
  6
CONTINUOUS
 10
154.2722590254
 20
268.1917169092
 11
154.0716066707
 21
268.7839860035
  0
LINE
  5
338
100
AcDbEntity
  8
0
100
AcDbLine
 62
7
  6
CONTINUOUS
 10
160.4072348792
 20
264.4153064534
 11
160.2864097842
 21
265.0288578726
  0
LINE
  5
339
100
AcDbEntity
  8
0
100
AcDbLine
 62
7
  6
CONTINUOUS
 10
177.2183366776
 20
201.2404511307
 11
177.2183366776
 21
200.2804511307
  0
LINE
  5
33A
100
AcDbEntity
  8
0
100
AcDbLine
 62
7
  6
CONTINUOUS
 10
177.3977155401
 20
208.5408953797
 11
177.3977155401
 21
203.7408953797
  0
LINE
  5
33B
100
AcDbEntity
  8
0
100
AcDbLine
 62
7
  6
CONTINUOUS
 10
177.3977155401
 20
195.6172380754
 11
177.3977155401
 21
194.5087255586
  0
LINE
  5
33C
100
AcDbEntity
  8
0
100
AcDbLine
 62
7
  6
CONTINUOUS
 10
177.3977155401
 20
186.2009587177
 11
177.3977155401
 21
182.7643191502
  0
LINE
  5
33D
100
AcDbEntity
  8
0
100
AcDbLine
 62
7
  6
CONTINUOUS
 10
178.3977155401
 20
182.7019551721
 11
178.3977155401
 21
185.2409587177
  0
LINE
  5
33E
100
AcDbEntity
  8
0
100
AcDbLine
 62
7
  6
CONTINUOUS
 10
178.5977155401
 20
205.3908953797
 11
178.5977155401
 21
206.8908953797
  0
LINE
  5
33F
100
AcDbEntity
  8
0
100
AcDbLine
 62
7
  6
CONTINUOUS
 10
179.0477155401
 20
206.6208953797
 11
179.0477155401
 21
205.6608953797
  0
LINE
  5
340
100
AcDbEntity
  8
0
100
AcDbLine
 62
7
  6
CONTINUOUS
 10
180.2477155401
 20
206.0358953797
 11
180.2477155401
 21
206.2458953797
  0
LINE
  5
341
100
AcDbEntity
  8
0
100
AcDbLine
 62
7
  6
CONTINUOUS
 10
180.5477155401
 20
205.6608953797
 11
180.5477155401
 21
205.9158953797
  0
LINE
  5
342
100
AcDbEntity
  8
0
100
AcDbLine
 62
7
  6
CONTINUOUS
 10
180.5477155401
 20
206.3658953797
 11
180.5477155401
 21
206.6208953797
  0
LINE
  5
343
100
AcDbEntity
  8
0
100
AcDbLine
 62
7
  6
CONTINUOUS
 10
180.9977155401
 20
206.8908953797
 11
180.9977155401
 21
206.3658953797
  0
LINE
  5
344
100
AcDbEntity
  8
0
100
AcDbLine
 62
7
  6
CONTINUOUS
 10
180.9977155401
 20
205.9158953797
 11
180.9977155401
 21
205.3908953797
  0
LINE
  5
345
100
AcDbEntity
  8
0
100
AcDbLine
 62
7
  6
CONTINUOUS
 10
181.3177155401
 20
200.2804511307
 11
181.3177155401
 21
197.8804511307
  0
LINE
  5
346
100
AcDbEntity
  8
0
100
AcDbLine
 62
7
  6
CONTINUOUS
 10
181.5977155401
 20
205.3908953797
 11
181.5977155401
 21
205.9158953797
  0
LINE
  5
347
100
AcDbEntity
  8
0
100
AcDbLine
 62
7
  6
CONTINUOUS
 10
181.5977155401
 20
206.3658953797
 11
181.5977155401
 21
206.8908953797
  0
LINE
  5
348
100
AcDbEntity
  8
0
100
AcDbLine
 62
7
  6
CONTINUOUS
 10
182.0477155401
 20
206.6208953797
 11
182.0477155401
 21
206.3658953797
  0
LINE
  5
349
100
AcDbEntity
  8
0
100
AcDbLine
 62
7
  6
CONTINUOUS
 10
182.0477155401
 20
205.9158953797
 11
182.0477155401
 21
205.6608953797
  0
LINE
  5
34A
100
AcDbEntity
  8
0
100
AcDbLine
 62
7
  6
CONTINUOUS
 10
182.2777155401
 20
197.4804511307
 11
182.2777155401
 21
200.2804511307
  0
LINE
  5
34B
100
AcDbEntity
  8
0
100
AcDbLine
 62
7
  6
CONTINUOUS
 10
182.3477155401
 20
206.2458953797
 11
182.3477155401
 21
206.0358953797
  0
LINE
  5
34C
100
AcDbEntity
  8
0
100
AcDbLine
 62
7
  6
CONTINUOUS
 10
144.7789393702
 20
265.9681123513
 11
145.6108600621
 21
266.1661857414
  0
LINE
  5
34D
100
AcDbEntity
  8
0
100
AcDbLine
 62
7
  6
CONTINUOUS
 10
157.6035192165
 20
266.7882634878
 11
156.9926471378
 21
266.6545497973
  0
LINE
  5
34E
100
AcDbEntity
  8
0
100
AcDbLine
 62
7
  6
CONTINUOUS
 10
151.4182963334
 20
264.2757401623
 11
150.8949258648
 21
264.196888957
  0
LINE
  5
34F
100
AcDbEntity
  8
0
100
AcDbLine
 62
7
  6
CONTINUOUS
 10
150.703636455
 20
263.4625691214
 11
151.5544050427
 21
263.549246961
  0
LINE
  5
350
100
AcDbEntity
  8
0
100
AcDbLine
 62
7
  6
CONTINUOUS
 10
157.0619533924
 20
260.9097296531
 11
156.532755811
 21
260.9005601475
  0
LINE
  5
351
100
AcDbEntity
  8
0
100
AcDbLine
 62
7
  6
CONTINUOUS
 10
156.2463309427
 20
260.197867412
 11
157.1011039616
 21
260.1716340053
  0
LINE
  5
352
100
AcDbEntity
  8
0
100
AcDbLine
 62
7
  6
CONTINUOUS
 10
108.2307906066
 20
264.2718835867
 11
108.557548489
 21
264.2499621385
  0
LINE
  5
353
100
AcDbEntity
  8
0
100
AcDbLine
 62
7
  6
CONTINUOUS
 10
102.1204663666
 20
267.6599849192
 11
102.5231746845
 21
267.5521728313
  0
LINE
  5
354
100
AcDbEntity
  8
0
100
AcDbLine
 62
7
  6
CONTINUOUS
 10
120.2359604903
 20
268.0617516517
 11
120.5462680222
 21
267.9570569243
  0
LINE
  5
355
100
AcDbEntity
  8
0
100
AcDbLine
 62
7
  6
CONTINUOUS
 10
109.6531510948
 20
269.0952962453
 11
109.2676911011
 21
269.2540973332
  0
LINE
  5
356
100
AcDbEntity
  8
0
100
AcDbLine
 62
7
  6
CONTINUOUS
 10
115.1943276555
 20
272.8988198182
 11
115.5561145379
 21
272.6916775225
  0
LINE
  5
357
100
AcDbEntity
  8
0
100
AcDbLine
 62
7
  6
CONTINUOUS
 10
136.2199125189
 20
268.5631588772
 11
136.8551333247
 21
267.990607774
  0
LINE
  5
358
100
AcDbEntity
  8
0
100
AcDbLine
 62
7
  6
CONTINUOUS
 10
137.1346157173
 20
268.6960911909
 11
136.7589267483
 21
269.068907444
  0
LINE
  5
359
100
AcDbEntity
  8
0
100
AcDbLine
 62
7
  6
CONTINUOUS
 10
139.5211133568
 20
273.5545156988
 11
139.8968023258
 21
273.1816994457
  0
LINE
  5
35A
100
AcDbEntity
  8
0
100
AcDbLine
 62
7
  6
CONTINUOUS
 10
142.5613949832
 20
267.1632678094
 11
143.1155953586
 21
266.5119751089
  0
LINE
  5
35B
100
AcDbEntity
  8
0
100
AcDbLine
 62
7
  6
CONTINUOUS
 10
146.4917772041
 20
271.6758813611
 11
146.8150408338
 21
271.2567933205
  0
LINE
  5
35C
100
AcDbEntity
  8
0
100
AcDbLine
 62
7
  6
CONTINUOUS
 10
154.0716066707
 20
268.7839860035
 11
153.6080998367
 21
269.5026525588
  0
LINE
  5
35D
100
AcDbEntity
  8
0
100
AcDbLine
 62
7
  6
CONTINUOUS
 10
153.153952979
 20
268.8947317128
 11
153.4191489565
 21
268.4366866784
  0
LINE
  5
35E
100
AcDbEntity
  8
0
100
AcDbLine
 62
7
  6
CONTINUOUS
 10
160.2864097842
 20
265.0288578726
 11
159.9216837703
 21
265.8023564216
  0
LINE
  5
35F
100
AcDbEntity
  8
0
100
AcDbLine
 62
7
  6
CONTINUOUS
 10
159.3913636158
 20
265.2596072313
 11
159.5938632082
 21
264.7705999971
  0
LINE
  5
360
100
AcDbEntity
  8
0
100
AcDbLine
 62
7
  6
CONTINUOUS
 10
183.2683366776
 20
200.2804511307
 11
183.2683366776
 21
201.2404511307
  0
LINE
  5
361
100
AcDbEntity
  8
0
100
AcDbLine
 62
7
  6
CONTINUOUS
 10
183.3977155401
 20
185.2409587177
 11
183.3977155401
 21
186.2009587177
  0
LINE
  5
362
100
AcDbEntity
  8
0
100
AcDbLine
 62
7
  6
CONTINUOUS
 10
183.5477155401
 20
205.6608953797
 11
183.5477155401
 21
206.6208953797
  0
LINE
  5
363
100
AcDbEntity
  8
0
100
AcDbLine
 62
7
  6
CONTINUOUS
 10
183.9977155401
 20
206.8908953797
 11
183.9977155401
 21
205.3908953797
  0
LINE
  5
364
100
AcDbEntity
  8
0
100
AcDbLine
 62
7
  6
CONTINUOUS
 10
184.1083366776
 20
201.2404511307
 11
184.1083366776
 21
197.4804511307
  0
LINE
  5
365
100
AcDbEntity
  8
0
100
AcDbLine
 62
7
  6
CONTINUOUS
 10
184.2377155401
 20
186.2009587177
 11
184.2377155401
 21
182.7019551721
  0
LINE
  5
366
100
AcDbEntity
  8
0
100
AcDbLine
 62
7
  6
CONTINUOUS
 10
185.1977155401
 20
182.6725172022
 11
185.1977155401
 21
186.2009587177
  0
LINE
  5
367
100
AcDbEntity
  8
0
100
AcDbLine
 62
7
  6
CONTINUOUS
 10
185.1977155401
 20
188.3009587177
 11
185.1977155401
 21
189.2609587177
  0
LINE
  5
368
100
AcDbEntity
  8
0
100
AcDbLine
 62
7
  6
CONTINUOUS
 10
185.1977155401
 20
193.0804511307
 11
185.1977155401
 21
194.0404511307
  0
LINE
  5
369
100
AcDbEntity
  8
0
100
AcDbLine
 62
7
  6
CONTINUOUS
 10
185.1977155401
 20
197.4804511307
 11
185.1977155401
 21
201.2404511307
  0
LINE
  5
36A
100
AcDbEntity
  8
0
100
AcDbLine
 62
7
  6
CONTINUOUS
 10
185.1977155401
 20
203.7408953797
 11
185.1977155401
 21
208.5408953797
  0
LINE
  5
36B
100
AcDbEntity
  8
0
100
AcDbLine
 62
7
  6
CONTINUOUS
 10
112.929088046
 20
265.9109576789
 11
113.7709888883
 21
266.1493438608
  0
LINE
  5
36C
100
AcDbEntity
  8
0
100
AcDbLine
 62
7
  6
CONTINUOUS
 10
117.2789093323
 20
267.1426196943
 11
118.2611264464
 21
267.4207367549
  0
LINE
  5
36D
100
AcDbEntity
  8
0
100
AcDbLine
 62
7
  6
CONTINUOUS
 10
145.1984740115
 20
272.8822287917
 11
144.3665565043
 21
272.6841544014
  0
LINE
  5
36E
100
AcDbEntity
  8
0
100
AcDbLine
 62
7
  6
CONTINUOUS
 10
108.557548489
 20
264.2499621385
 11
109.1523628991
 21
264.3429992345
  0
LINE
  5
36F
100
AcDbEntity
  8
0
100
AcDbLine
 62
7
  6
CONTINUOUS
 10
109.1856101736
 20
265.0054761045
 11
108.5907957481
 21
264.9124390443
  0
LINE
  5
370
100
AcDbEntity
  8
0
100
AcDbLine
 62
7
  6
CONTINUOUS
 10
151.3163040975
 20
269.4478707049
 11
151.8396745661
 21
269.5267219102
  0
LINE
  5
371
100
AcDbEntity
  8
0
100
AcDbLine
 62
7
  6
CONTINUOUS
 10
121.1451072627
 20
267.8950031234
 11
122.2992390497
 21
268.0655675613
  0
LINE
  5
372
100
AcDbEntity
  8
0
100
AcDbLine
 62
7
  6
CONTINUOUS
 10
121.9236090002
 20
268.6122699824
 11
121.3465439322
 21
268.5269878854
  0
LINE
  5
373
100
AcDbEntity
  8
0
100
AcDbLine
 62
7
  6
CONTINUOUS
 10
152.0309669445
 20
270.261040217
 11
151.1801953656
 21
270.1743638592
  0
LINE
  5
374
100
AcDbEntity
  8
0
100
AcDbLine
 62
7
  6
CONTINUOUS
 10
138.5683825938
 20
268.4295538302
 11
137.8242782804
 21
268.4163950491
  0
LINE
  5
375
100
AcDbEntity
  8
0
100
AcDbLine
 62
7
  6
CONTINUOUS
 10
157.6426698143
 20
266.0501678837
 11
158.1718646045
 21
266.0593392197
  0
LINE
  5
376
100
AcDbEntity
  8
0
100
AcDbLine
 62
7
  6
CONTINUOUS
 10
137.6881738857
 20
267.6842576393
 11
138.5756562018
 21
267.6707624531
  0
LINE
  5
377
100
AcDbEntity
  8
0
100
AcDbLine
 62
7
  6
CONTINUOUS
 10
158.4582894227
 20
266.7620318789
 11
157.6035192165
 21
266.7882634878
  0
LINE
  5
378
100
AcDbEntity
  8
0
100
AcDbLine
 62
7
  6
CONTINUOUS
 10
109.2676911011
 20
269.2540973332
 11
108.9409332239
 21
269.2760187694
  0
LINE
  5
379
100
AcDbEntity
  8
0
100
AcDbLine
 62
7
  6
CONTINUOUS
 10
133.0662066074
 20
268.3154568013
 11
133.937847734
 21
268.2388621128
  0
LINE
  5
37A
100
AcDbEntity
  8
0
100
AcDbLine
 62
7
  6
CONTINUOUS
 10
120.5462680222
 20
267.9570569243
 11
121.1451072627
 21
267.8950031234
  0
LINE
  5
37B
100
AcDbEntity
  8
0
100
AcDbLine
 62
7
  6
CONTINUOUS
 10
121.3465439322
 20
268.5269878854
 11
120.747703035
 21
268.589041481
  0
LINE
  5
37C
100
AcDbEntity
  8
0
100
AcDbLine
 62
7
  6
CONTINUOUS
 10
144.8717604457
 20
266.721239521
 11
144.1324121392
 21
266.8062885193
  0
LINE
  5
37D
100
AcDbEntity
  8
0
100
AcDbLine
 62
7
  6
CONTINUOUS
 10
102.5962922169
 20
268.2876806264
 11
101.8667251922
 21
268.375129867
  0
LINE
  5
37E
100
AcDbEntity
  8
0
100
AcDbLine
 62
7
  6
CONTINUOUS
 10
143.9009811737
 20
266.0984825421
 11
144.7789393702
 21
265.9681123513
  0
LINE
  5
37F
100
AcDbEntity
  8
0
100
AcDbLine
 62
7
  6
CONTINUOUS
 10
150.8949258648
 20
264.196888957
 11
150.1732445396
 21
264.3786592725
  0
LINE
  5
380
100
AcDbEntity
  8
0
100
AcDbLine
 62
7
  6
CONTINUOUS
 10
149.8505263804
 20
263.7075388788
 11
150.703636455
 21
263.4625691214
  0
LINE
  5
381
100
AcDbEntity
  8
0
100
AcDbLine
 62
7
  6
CONTINUOUS
 10
122.5116122986
 20
272.6135677911
 11
122.2013047685
 21
272.7182625056
  0
LINE
  5
382
100
AcDbEntity
  8
0
100
AcDbLine
 62
7
  6
CONTINUOUS
 10
136.8551333247
 20
267.990607774
 11
137.6881738857
 21
267.6842576393
  0
LINE
  5
383
100
AcDbEntity
  8
0
100
AcDbLine
 62
7
  6
CONTINUOUS
 10
115.8147594929
 20
273.3840796293
 11
115.1317620945
 21
273.6550619667
  0
LINE
  5
384
100
AcDbEntity
  8
0
100
AcDbLine
 62
7
  6
CONTINUOUS
 10
156.532755811
 20
260.9005601475
 11
155.8413318081
 21
261.1758819567
  0
LINE
  5
385
100
AcDbEntity
  8
0
100
AcDbLine
 62
7
  6
CONTINUOUS
 10
137.8242782804
 20
268.4163950491
 11
137.1346157173
 21
268.6960911909
  0
LINE
  5
386
100
AcDbEntity
  8
0
100
AcDbLine
 62
7
  6
CONTINUOUS
 10
155.4329592645
 20
260.5531609448
 11
156.2463309427
 21
260.197867412
  0
LINE
  5
387
100
AcDbEntity
  8
0
100
AcDbLine
 62
7
  6
CONTINUOUS
 10
143.1155953586
 20
266.5119751089
 11
143.9009811737
 21
266.0984825421
  0
LINE
  5
388
100
AcDbEntity
  8
0
100
AcDbLine
 62
7
  6
CONTINUOUS
 10
144.1324121392
 20
266.8062885193
 11
143.4856393785
 21
267.1744588314
  0
LINE
  5
389
100
AcDbEntity
  8
0
100
AcDbLine
 62
7
  6
CONTINUOUS
 10
149.1265035627
 20
264.2209567797
 11
149.8505263804
 21
263.7075388788
  0
LINE
  5
38A
100
AcDbEntity
  8
0
100
AcDbLine
 62
7
  6
CONTINUOUS
 10
150.1732445396
 20
264.3786592725
 11
149.5806474518
 21
264.8288791544
  0
LINE
  5
38B
100
AcDbEntity
  8
0
100
AcDbLine
 62
7
  6
CONTINUOUS
 10
140.4358165456
 20
273.6874479612
 11
139.8005957327
 21
274.2599990259
  0
LINE
  5
38C
100
AcDbEntity
  8
0
100
AcDbLine
 62
7
  6
CONTINUOUS
 10
154.7829365951
 20
261.1575428693
 11
155.4329592645
 21
260.5531609448
  0
LINE
  5
38D
100
AcDbEntity
  8
0
100
AcDbLine
 62
7
  6
CONTINUOUS
 10
155.8413318081
 20
261.1758819567
 11
155.3132567997
 21
261.7002921359
  0
LINE
  5
38E
100
AcDbEntity
  8
0
100
AcDbLine
 62
7
  6
CONTINUOUS
 10
147.4160215831
 20
271.6870723335
 11
146.8618180231
 21
272.3383660342
  0
LINE
  5
38F
100
AcDbEntity
  8
0
100
AcDbLine
 62
7
  6
CONTINUOUS
 10
193.8177155401
 20
219.9679850613
 11
193.8177155401
 21
161.9679850613
  0
LINE
  5
390
100
AcDbEntity
  8
0
100
AcDbLine
 62
7
  6
CONTINUOUS
 10
112.9188850772
 20
269.1586915952
 11
115.3042705295
 21
269.8341190347
  0
LINE
  5
391
100
AcDbEntity
  8
0
100
AcDbLine
 62
7
  6
CONTINUOUS
 10
115.3414464796
 20
270.7733947706
 11
112.675426878
 21
270.0185051189
  0
LINE
  5
392
100
AcDbEntity
  8
0
100
AcDbLine
 62
7
  6
CONTINUOUS
 10
112.0667812661
 20
272.1680393296
 11
114.7328008678
 21
272.9229289813
  0
LINE
  5
393
100
AcDbEntity
  8
0
100
AcDbLine
 62
7
  6
CONTINUOUS
 10
114.3896027633
 20
273.5997093723
 11
111.0219985911
 21
272.6461644175
  0
LINE
  5
394
100
AcDbEntity
  8
0
100
AcDbLine
 62
7
  6
CONTINUOUS
 10
101.6681025735
 20
267.5653528621
 11
102.1204663666
 21
267.6599849192
  0
LINE
  5
395
100
AcDbEntity
  8
0
100
AcDbLine
 62
7
  6
CONTINUOUS
 10
108.3128715239
 20
268.5205048393
 11
108.9076851619
 21
268.6135416185
  0
LINE
  5
396
100
AcDbEntity
  8
0
100
AcDbLine
 62
7
  6
CONTINUOUS
 10
108.9409332239
 20
269.2760187694
 11
108.3461188189
 21
269.1829816613
  0
LINE
  5
397
100
AcDbEntity
  8
0
100
AcDbLine
 62
7
  6
CONTINUOUS
 10
120.8239637848
 20
272.0630494862
 11
121.4010288528
 21
272.1483315832
  0
LINE
  5
398
100
AcDbEntity
  8
0
100
AcDbLine
 62
7
  6
CONTINUOUS
 10
121.6024655299
 20
272.7803162936
 11
120.4483337429
 21
272.6097518557
  0
LINE
  5
399
100
AcDbEntity
  8
0
100
AcDbLine
 62
7
  6
CONTINUOUS
 10
115.1317620945
 20
273.6550619667
 11
114.3896027633
 21
273.5997093723
  0
LINE
  5
39A
100
AcDbEntity
  8
0
100
AcDbLine
 62
7
  6
CONTINUOUS
 10
138.0873464802
 20
273.8210530595
 11
138.8314507936
 21
273.8342118406
  0
LINE
  5
39B
100
AcDbEntity
  8
0
100
AcDbLine
 62
7
  6
CONTINUOUS
 10
138.9675551693
 20
274.5663491478
 11
138.0800728556
 21
274.5798443468
  0
LINE
  5
39C
100
AcDbEntity
  8
0
100
AcDbLine
 62
7
  6
CONTINUOUS
 10
114.7328008678
 20
272.9229289813
 11
115.1943276555
 21
272.8988198182
  0
LINE
  5
39D
100
AcDbEntity
  8
0
100
AcDbLine
 62
7
  6
CONTINUOUS
 10
134.5506052425
 20
275.211991126
 11
133.6789641158
 21
275.2885858146
  0
LINE
  5
39E
100
AcDbEntity
  8
0
100
AcDbLine
 62
7
  6
CONTINUOUS
 10
121.4010288528
 20
272.1483315832
 11
121.9998680913
 21
272.0862777952
  0
LINE
  5
39F
100
AcDbEntity
  8
0
100
AcDbLine
 62
7
  6
CONTINUOUS
 10
122.2013047685
 20
272.7182625056
 11
121.6024655299
 21
272.7803162936
  0
LINE
  5
3A0
100
AcDbEntity
  8
0
100
AcDbLine
 62
7
  6
CONTINUOUS
 10
145.1056561369
 20
272.1291006715
 11
145.8450012708
 21
272.0440527105
  0
LINE
  5
3A1
100
AcDbEntity
  8
0
100
AcDbLine
 62
7
  6
CONTINUOUS
 10
146.0764322039
 20
272.7518585885
 11
145.1984740115
 21
272.8822287917
  0
LINE
  5
3A2
100
AcDbEntity
  8
0
100
AcDbLine
 62
7
  6
CONTINUOUS
 10
151.8396745661
 20
269.5267219102
 11
152.5613588994
 21
269.3449501482
  0
LINE
  5
3A3
100
AcDbEntity
  8
0
100
AcDbLine
 62
7
  6
CONTINUOUS
 10
152.8840770134
 20
270.0160704478
 11
152.0309669445
 21
270.261040217
  0
LINE
  5
3A4
100
AcDbEntity
  8
0
100
AcDbLine
 62
7
  6
CONTINUOUS
 10
139.8005957327
 20
274.2599990259
 11
138.9675551693
 21
274.5663491478
  0
LINE
  5
3A5
100
AcDbEntity
  8
0
100
AcDbLine
 62
7
  6
CONTINUOUS
 10
158.1718646045
 20
266.0593392197
 11
158.8632886074
 21
265.7840174105
  0
LINE
  5
3A6
100
AcDbEntity
  8
0
100
AcDbLine
 62
7
  6
CONTINUOUS
 10
138.8314507936
 20
273.8342118406
 11
139.5211133568
 21
273.5545156988
  0
LINE
  5
3A7
100
AcDbEntity
  8
0
100
AcDbLine
 62
7
  6
CONTINUOUS
 10
159.2716610938
 20
266.4067383352
 11
158.4582894227
 21
266.7620318789
  0
LINE
  5
3A8
100
AcDbEntity
  8
0
100
AcDbLine
 62
7
  6
CONTINUOUS
 10
146.8618180231
 20
272.3383660342
 11
146.0764322039
 21
272.7518585885
  0
LINE
  5
3A9
100
AcDbEntity
  8
0
100
AcDbLine
 62
7
  6
CONTINUOUS
 10
145.8450012708
 20
272.0440527105
 11
146.4917772041
 21
271.6758813611
  0
LINE
  5
3AA
100
AcDbEntity
  8
0
100
AcDbLine
 62
7
  6
CONTINUOUS
 10
153.6080998367
 20
269.5026525588
 11
152.8840770134
 21
270.0160704478
  0
LINE
  5
3AB
100
AcDbEntity
  8
0
100
AcDbLine
 62
7
  6
CONTINUOUS
 10
152.5613588994
 20
269.3449501482
 11
153.153952979
 21
268.8947317128
  0
LINE
  5
3AC
100
AcDbEntity
  8
0
100
AcDbLine
 62
7
  6
CONTINUOUS
 10
159.9216837703
 20
265.8023564216
 11
159.2716610938
 21
266.4067383352
  0
LINE
  5
3AD
100
AcDbEntity
  8
0
100
AcDbLine
 62
7
  6
CONTINUOUS
 10
158.8632886074
 20
265.7840174105
 11
159.3913636158
 21
265.2596072313
  0
LINE
  5
3AE
100
AcDbEntity
  8
RUNDUNGEN
100
AcDbLine
 62
7
  6
CONTINUOUS
 10
331.3080341257
 20
135.4679850613
 11
329.4127843252
 21
135.4679850613
  0
LINE
  5
3AF
100
AcDbEntity
  8
RUNDUNGEN
100
AcDbLine
 62
7
  6
CONTINUOUS
 10
295.4048591452
 20
135.4679850613
 11
293.5096093446
 21
135.4679850613
  0
LINE
  5
3B0
100
AcDbEntity
  8
0
100
AcDbLine
 62
7
  6
CONTINUOUS
 10
280.666181048
 20
135.4679850613
 11
293.5096093446
 21
135.4679850613
  0
LINE
  5
3B1
100
AcDbEntity
  8
0
100
AcDbLine
 62
7
  6
CONTINUOUS
 10
331.3080341257
 20
135.4679850613
 11
344.1514624223
 21
135.4679850613
  0
LINE
  5
3B2
100
AcDbEntity
  8
0
100
AcDbLine
 62
7
  6
CONTINUOUS
 10
321.4088217352
 20
136.9679850613
 11
303.4088217352
 21
136.9679850613
  0
LINE
  5
3B3
100
AcDbEntity
  8
AUSFORMSCHRAEGEN
100
AcDbLine
 62
7
  6
CONTINUOUS
 10
321.4088217352
 20
136.9679850613
 11
303.4088217352
 21
136.9679850613
  0
LINE
  5
3B4
100
AcDbEntity
  8
0
100
AcDbLine
 62
7
  6
CONTINUOUS
 10
287.6730954442
 20
180.0643181622
 11
300.9088217352
 21
177.9679850613
  0
LINE
  5
3B5
100
AcDbEntity
  8
0
100
AcDbLine
 62
7
  6
CONTINUOUS
 10
283.9678194594
 20
191.4679850613
 11
287.6730954442
 21
180.0643181622
  0
LINE
  5
3B6
100
AcDbEntity
  8
0
100
AcDbLine
 62
7
  6
CONTINUOUS
 10
284.9088217352
 20
156.4512998349
 11
284.9088217352
 21
139.7106257484
  0
LINE
  5
3B7
100
AcDbEntity
  8
RUNDUNGEN
100
AcDbLine
 62
7
  6
CONTINUOUS
 10
284.9088217352
 20
156.4512998349
 11
284.9088217352
 21
159.6450633133
  0
LINE
  5
3B8
100
AcDbEntity
  8
0
100
AcDbLine
 62
7
  6
CONTINUOUS
 10
323.9088217352
 20
179.9562961615
 11
324.4088217352
 21
179.9562961615
  0
LINE
  5
3B9
100
AcDbEntity
  8
0
100
AcDbLine
 62
7
  6
CONTINUOUS
 10
339.9088217352
 20
139.7106257484
 11
344.1514624223
 21
135.4679850613
  0
LINE
  5
3BA
100
AcDbEntity
  8
0
100
AcDbLine
 62
7
  6
CONTINUOUS
 10
281.9088217352
 20
204.4679850613
 11
283.9678194594
 21
191.4679850613
  0
LINE
  5
3BB
100
AcDbEntity
  8
0
100
AcDbLine
 62
7
  6
CONTINUOUS
 10
323.9088217352
 20
186.2009587177
 11
324.4088217352
 21
186.2009587177
  0
LINE
  5
3BC
100
AcDbEntity
  8
0
100
AcDbLine
 62
7
  6
CONTINUOUS
 10
323.9088217352
 20
188.3009587177
 11
324.4088217352
 21
188.3009587177
  0
LINE
  5
3BD
100
AcDbEntity
  8
0
100
AcDbLine
 62
7
  6
CONTINUOUS
 10
300.9088217352
 20
225.5696228431
 11
281.9088217352
 21
204.4679850613
  0
LINE
  5
3BE
100
AcDbEntity
  8
0
100
AcDbLine
 62
7
  6
CONTINUOUS
 10
323.9088217352
 20
194.0404511307
 11
324.4088217352
 21
194.0404511307
  0
LINE
  5
3BF
100
AcDbEntity
  8
0
100
AcDbLine
 62
7
  6
CONTINUOUS
 10
323.9088217352
 20
194.5087255586
 11
324.4088217352
 21
194.5087255586
  0
LINE
  5
3C0
100
AcDbEntity
  8
RUNDUNGEN
100
AcDbLine
 62
7
  6
CONTINUOUS
 10
300.9088217352
 20
282.4679837351
 11
300.9088217352
 21
139.4679850613
  0
LINE
  5
3C1
100
AcDbEntity
  8
0
100
AcDbLine
 62
7
  6
CONTINUOUS
 10
323.9088217352
 20
195.6172380754
 11
324.4088217352
 21
195.6172380754
  0
LINE
  5
3C2
100
AcDbEntity
  8
0
100
AcDbLine
 62
7
  6
CONTINUOUS
 10
323.9088217352
 20
197.8804511307
 11
324.4088217352
 21
197.8804511307
  0
LINE
  5
3C3
100
AcDbEntity
  8
0
100
AcDbLine
 62
7
  6
CONTINUOUS
 10
323.9088217352
 20
200.2804511307
 11
324.4088217352
 21
200.2804511307
  0
LINE
  5
3C4
100
AcDbEntity
  8
0
100
AcDbLine
 62
7
  6
CONTINUOUS
 10
323.9088217352
 20
201.2404511307
 11
324.4088217352
 21
201.2404511307
  0
LINE
  5
3C5
100
AcDbEntity
  8
0
100
AcDbLine
 62
7
  6
CONTINUOUS
 10
323.9088217352
 20
203.1408953797
 11
324.4088217352
 21
203.1408953797
  0
LINE
  5
3C6
100
AcDbEntity
  8
RUNDUNGEN
100
AcDbLine
 62
7
  6
CONTINUOUS
 10
323.9088217352
 20
152.4074401138
 11
329.4127843252
 21
135.4679850613
  0
LINE
  5
3C7
100
AcDbEntity
  8
BEZUGSACHSEN
100
AcDbLine
 62
2
  6
CENTER
 10
312.4088217352
 20
287.9679850613
 11
312.4088217352
 21
133.9679850613
  0
LINE
  5
3C8
100
AcDbEntity
  8
0
100
AcDbLine
 62
7
  6
CONTINUOUS
 10
323.9088217352
 20
209.1408953797
 11
324.4088217352
 21
209.1408953797
  0
LINE
  5
3C9
100
AcDbEntity
  8
0
100
AcDbLine
 62
7
  6
CONTINUOUS
 10
323.9088217352
 20
282.4679837351
 11
323.9088217352
 21
139.4679850613
  0
LINE
  5
3CA
100
AcDbEntity
  8
RUNDUNGEN
100
AcDbLine
 62
7
  6
CONTINUOUS
 10
295.4048591452
 20
135.4679850613
 11
300.9088217352
 21
152.4074401138
  0
LINE
  5
3CB
100
AcDbEntity
  8
0
100
AcDbLine
 62
7
  6
CONTINUOUS
 10
324.4088217352
 20
209.1408953797
 11
324.4088217352
 21
203.1408953797
  0
LINE
  5
3CC
100
AcDbEntity
  8
0
100
AcDbLine
 62
7
  6
CONTINUOUS
 10
324.4088217352
 20
201.2404511307
 11
324.4088217352
 21
194.5087255586
  0
LINE
  5
3CD
100
AcDbEntity
  8
0
100
AcDbLine
 62
7
  6
CONTINUOUS
 10
324.4088217352
 20
194.0404511307
 11
324.4088217352
 21
188.3009587177
  0
LINE
  5
3CE
100
AcDbEntity
  8
0
100
AcDbLine
 62
7
  6
CONTINUOUS
 10
324.4088217352
 20
186.2009587177
 11
324.4088217352
 21
179.9564834418
  0
LINE
  5
3CF
100
AcDbEntity
  8
0
100
AcDbLine
 62
7
  6
CONTINUOUS
 10
339.9088217352
 20
139.7106257484
 11
339.9088217352
 21
159.6450633133
  0
LINE
  5
3D0
100
AcDbEntity
  8
0
100
AcDbLine
 62
7
  6
CONTINUOUS
 10
284.9088217352
 20
139.7106257484
 11
280.666181048
 21
135.4679850613
  0
LINE
  5
3D1
100
AcDbEntity
  8
AUSFORMSCHRAEGEN
100
AcDbLine
 62
7
  6
CONTINUOUS
 10
321.4088217352
 20
284.9679850613
 11
303.4088217352
 21
284.9679850613
  0
LINE
  5
3D2
100
AcDbEntity
  8
0
100
AcDbLine
 62
7
  6
CONTINUOUS
 10
63.8177155401
 20
54.5962409726
 11
63.8177155401
 21
72.5962409726
  0
LINE
  5
3D3
100
AcDbEntity
  8
AUSFORMSCHRAEGEN
100
AcDbLine
 62
7
  6
CONTINUOUS
 10
63.8177155401
 20
54.5962409726
 11
63.8177155401
 21
72.5962409726
  0
LINE
  5
3D4
100
AcDbEntity
  8
0
100
AcDbLine
 62
7
  6
CONTINUOUS
 10
70.1677155401
 20
75.0962409726
 11
72.5006221973
 21
94.0962409726
  0
LINE
  5
3D5
100
AcDbEntity
  8
0
100
AcDbLine
 62
7
  6
CONTINUOUS
 10
82.4677155401
 20
75.0962409726
 11
80.134808883
 21
94.0962409726
  0
LINE
  5
3D6
100
AcDbEntity
  8
0
100
AcDbLine
 62
7
  6
CONTINUOUS
 10
91.3177155401
 20
31.8536002854
 11
91.3177155401
 21
52.0962409726
  0
LINE
  5
3D7
100
AcDbEntity
  8
0
100
AcDbLine
 62
7
  6
CONTINUOUS
 10
91.3177155401
 20
75.0962409726
 11
91.3177155401
 21
95.3388816597
  0
LINE
  5
3D8
100
AcDbEntity
  8
RUNDUNGEN
100
AcDbLine
 62
7
  6
CONTINUOUS
 10
91.3177136304
 20
46.5548004669
 11
91.3174520155
 21
46.3370373596
  0
LINE
  5
3D9
100
AcDbEntity
  8
0
100
AcDbLine
 62
7
  6
CONTINUOUS
 10
91.3177155401
 20
31.8536002854
 11
166.3177155401
 21
31.8536002854
  0
LINE
  5
3DA
100
AcDbEntity
  8
BEZUGSACHSEN
100
AcDbLine
 62
7
  6
CONTINUOUS
 10
165.3177155401
 20
36.0962409726
 11
133.4002912351
 21
36.0962409726
  0
LINE
  5
3DB
100
AcDbEntity
  8
BEZUGSACHSEN
100
AcDbLine
 62
7
  6
CONTINUOUS
 10
124.2351398452
 20
36.0962409726
 11
92.3177155401
 21
36.0962409726
  0
LINE
  5
3DC
100
AcDbEntity
  8
0
100
AcDbLine
 62
7
  6
CONTINUOUS
 10
91.3177155401
 20
36.0962409726
 11
92.3177155401
 21
36.0962409726
  0
LINE
  5
3DD
100
AcDbEntity
  8
0
100
AcDbLine
 62
7
  6
CONTINUOUS
 10
124.2351398452
 20
36.0962409726
 11
133.4002912351
 21
36.0962409726
  0
LINE
  5
3DE
100
AcDbEntity
  8
0
100
AcDbLine
 62
7
  6
CONTINUOUS
 10
165.3177155401
 20
36.0962409726
 11
166.3177155401
 21
36.0962409726
  0
LINE
  5
3DF
100
AcDbEntity
  8
0
100
AcDbLine
 62
7
  6
CONTINUOUS
 10
185.1977155401
 20
51.5962409726
 11
177.2183366776
 21
51.5962409726
  0
LINE
  5
3E0
100
AcDbEntity
  8
0
100
AcDbLine
 62
7
  6
CONTINUOUS
 10
191.3177155401
 20
52.0962409726
 11
66.3177155401
 21
52.0962409726
  0
LINE
  5
3E1
100
AcDbEntity
  8
TEIL_STARTBEZUEGE
100
AcDbLine
 62
2
  6
CENTER
 10
128.8177155401
 20
98.3388816597
 11
128.8177155401
 21
28.8536002854
  0
LINE
  5
3E2
100
AcDbEntity
  8
BG_STARTBEZUEGE
100
AcDbLine
 62
2
  6
CENTER
 10
60.8177155401
 20
63.5962409726
 11
196.8177155401
 21
63.5962409726
  0
LINE
  5
3E3
100
AcDbEntity
  8
RUNDUNGEN
100
AcDbLine
 62
7
  6
CONTINUOUS
 10
191.3177155401
 20
75.0962409726
 11
66.3177155401
 21
75.0962409726
  0
LINE
  5
3E4
100
AcDbEntity
  8
BEZUGSACHSEN
100
AcDbLine
 62
7
  6
CONTINUOUS
 10
165.3177155401
 20
91.0962409726
 11
158.4002912351
 21
91.0962409726
  0
LINE
  5
3E5
100
AcDbEntity
  8
BEZUGSACHSEN
100
AcDbLine
 62
7
  6
CONTINUOUS
 10
149.2351398452
 20
91.0962409726
 11
108.4002912351
 21
91.0962409726
  0
LINE
  5
3E6
100
AcDbEntity
  8
BEZUGSACHSEN
100
AcDbLine
 62
7
  6
CONTINUOUS
 10
99.2351398452
 20
91.0962409726
 11
92.3177155401
 21
91.0962409726
  0
LINE
  5
3E7
100
AcDbEntity
  8
RUNDUNGEN
100
AcDbLine
 62
7
  6
CONTINUOUS
 10
91.3177155401
 20
91.0962409726
 11
92.3177155401
 21
91.0962409726
  0
LINE
  5
3E8
100
AcDbEntity
  8
0
100
AcDbLine
 62
7
  6
CONTINUOUS
 10
99.2351398452
 20
91.0962409726
 11
108.4002912351
 21
91.0962409726
  0
LINE
  5
3E9
100
AcDbEntity
  8
0
100
AcDbLine
 62
7
  6
CONTINUOUS
 10
149.2351398452
 20
91.0962409726
 11
158.4002912351
 21
91.0962409726
  0
LINE
  5
3EA
100
AcDbEntity
  8
RUNDUNGEN
100
AcDbLine
 62
7
  6
CONTINUOUS
 10
165.3177155401
 20
91.0962409726
 11
166.3177155401
 21
91.0962409726
  0
LINE
  5
3EB
100
AcDbEntity
  8
0
100
AcDbLine
 62
7
  6
CONTINUOUS
 10
80.134808883
 20
94.0962409726
 11
72.5006221973
 21
94.0962409726
  0
LINE
  5
3EC
100
AcDbEntity
  8
0
100
AcDbLine
 62
7
  6
CONTINUOUS
 10
177.5006221973
 20
94.0962409726
 11
185.134808883
 21
94.0962409726
  0
LINE
  5
3ED
100
AcDbEntity
  8
0
100
AcDbLine
 62
7
  6
CONTINUOUS
 10
91.3177155401
 20
95.3388816597
 11
166.3177155401
 21
95.3388816597
  0
LINE
  5
3EE
100
AcDbEntity
  8
0
100
AcDbLine
 62
7
  6
CONTINUOUS
 10
166.3177155401
 20
52.0962409726
 11
166.3177155401
 21
31.8536002854
  0
LINE
  5
3EF
100
AcDbEntity
  8
RUNDUNGEN
100
AcDbLine
 62
7
  6
CONTINUOUS
 10
166.3177155401
 20
36.0962409726
 11
166.3177155401
 21
52.0962409726
  0
LINE
  5
3F0
100
AcDbEntity
  8
RUNDUNGEN
100
AcDbLine
 62
7
  6
CONTINUOUS
 10
166.3177155401
 20
75.0962409726
 11
166.3177155401
 21
91.0962409726
  0
LINE
  5
3F1
100
AcDbEntity
  8
0
100
AcDbLine
 62
7
  6
CONTINUOUS
 10
166.3177155401
 20
75.0962409726
 11
166.3177155401
 21
95.3388816597
  0
LINE
  5
3F2
100
AcDbEntity
  8
0
100
AcDbLine
 62
7
  6
CONTINUOUS
 10
177.2183366776
 20
52.0962409726
 11
177.2183366776
 21
51.5962409726
  0
LINE
  5
3F3
100
AcDbEntity
  8
0
100
AcDbLine
 62
7
  6
CONTINUOUS
 10
177.3977155401
 20
52.0962409726
 11
177.3977155401
 21
51.5962409726
  0
LINE
  5
3F4
100
AcDbEntity
  8
0
100
AcDbLine
 62
7
  6
CONTINUOUS
 10
175.1677155401
 20
75.0962409726
 11
177.5006221973
 21
94.0962409726
  0
LINE
  5
3F5
100
AcDbEntity
  8
0
100
AcDbLine
 62
7
  6
CONTINUOUS
 10
185.1977155401
 20
52.0962409726
 11
185.1977155401
 21
51.5962409726
  0
LINE
  5
3F6
100
AcDbEntity
  8
0
100
AcDbLine
 62
7
  6
CONTINUOUS
 10
187.4677155401
 20
75.0962409726
 11
185.134808883
 21
94.0962409726
  0
LINE
  5
3F7
100
AcDbEntity
  8
0
100
AcDbLine
 62
7
  6
CONTINUOUS
 10
193.8177155401
 20
54.5962409726
 11
193.8177155401
 21
72.5962409726
  0
ARC
  5
3F8
100
AcDbEntity
  8
RUNDUNGEN
100
AcDbCircle
 62
7
  6
CONTINUOUS
 10
88.8177155401
 20
161.9679850613
 40
25.0
100
AcDbArc
 50
180.0
 51
266.5988520461
  0
ARC
  5
3F9
100
AcDbEntity
  8
0
100
AcDbCircle
 62
7
  6
CONTINUOUS
 10
88.8177155401
 20
161.9679850613
 40
25.0
100
AcDbArc
 50
180.0
 51
270.0
  0
ARC
  5
3FA
100
AcDbEntity
  8
0
100
AcDbCircle
 62
7
  6
CONTINUOUS
 10
98.8177155401
 20
169.9679850613
 40
10.0
100
AcDbArc
 50
180.0
 51
221.4092470836
  0
ARC
  5
3FB
100
AcDbEntity
  8
0
100
AcDbCircle
 62
7
  6
CONTINUOUS
 10
92.8177155401
 20
176.4679850613
 40
4.0
100
AcDbArc
 50
90.0
 51
180.0
  0
ARC
  5
3FC
100
AcDbEntity
  8
0
100
AcDbCircle
 62
7
  6
CONTINUOUS
 10
96.3947298664
 20
183.9679850613
 40
3.5
100
AcDbArc
 50
270.0
 51
41.8103148958
  0
ARC
  5
3FD
100
AcDbEntity
  8
RUNDUNGEN
100
AcDbCircle
 62
7
  6
CONTINUOUS
 10
92.3177155401
 20
177.4679850613
 40
1.0
100
AcDbArc
 50
90.0
 51
180.0
  0
ARC
  5
3FE
100
AcDbEntity
  8
RUNDUNGEN
100
AcDbCircle
 62
7
  6
CONTINUOUS
 10
128.8177155401
 20
219.9679850613
 40
65.0
100
AcDbArc
 50
177.2394112294
 51
180.0
  0
ARC
  5
3FF
100
AcDbEntity
  8
0
100
AcDbCircle
 62
7
  6
CONTINUOUS
 10
128.8177155401
 20
219.9679850613
 40
65.0
100
AcDbArc
 50
0.0
 51
180.0
  0
ARC
  5
400
100
AcDbEntity
  8
0
100
AcDbCircle
 62
7
  6
CONTINUOUS
 10
128.8177155401
 20
219.9679850613
 40
40.0
100
AcDbArc
 50
0.0
 51
180.0
  0
ARC
  5
401
100
AcDbEntity
  8
RUNDUNGEN
100
AcDbCircle
 62
7
  6
CONTINUOUS
 10
128.8177155401
 20
219.9679850613
 40
40.0
100
AcDbArc
 50
0.0
 51
180.0
  0
ARC
  5
402
100
AcDbEntity
  8
0
100
AcDbCircle
 62
7
  6
CONTINUOUS
 10
128.8177155401
 20
212.9679850613
 40
40.0
100
AcDbArc
 50
180.0
 51
221.8103148958
  0
ARC
  5
403
100
AcDbEntity
  8
0
100
AcDbCircle
 62
7
  6
CONTINUOUS
 10
128.8177155401
 20
212.9679850613
 40
40.0
100
AcDbArc
 50
318.1896851042
 51
360.0
  0
ARC
  5
404
100
AcDbEntity
  8
0
100
AcDbCircle
 62
7
  6
CONTINUOUS
 10
168.8177155401
 20
161.9679850613
 40
25.0
100
AcDbArc
 50
270.0
 51
360.0
  0
ARC
  5
405
100
AcDbEntity
  8
0
100
AcDbCircle
 62
7
  6
CONTINUOUS
 10
158.8177155401
 20
169.9679850613
 40
10.0
100
AcDbArc
 50
318.5907101055
 51
360.0
  0
ARC
  5
406
100
AcDbEntity
  8
0
100
AcDbCircle
 62
7
  6
CONTINUOUS
 10
181.3177155401
 20
184.1562961615
 40
4.2
100
AcDbArc
 50
202.7468512744
 51
335.6593532714
  0
ARC
  5
407
100
AcDbEntity
  8
0
100
AcDbCircle
 62
7
  6
CONTINUOUS
 10
164.8177155401
 20
176.4679850613
 40
4.0
100
AcDbArc
 50
0.0
 51
90.0
  0
ARC
  5
408
100
AcDbEntity
  8
0
100
AcDbCircle
 62
7
  6
CONTINUOUS
 10
181.3177155401
 20
184.7083449648
 40
3.6
100
AcDbArc
 50
217.4448067919
 51
322.5551932081
  0
ARC
  5
409
100
AcDbEntity
  8
0
100
AcDbCircle
 62
7
  6
CONTINUOUS
 10
161.2407012139
 20
183.9679850613
 40
3.5
100
AcDbArc
 50
138.1896851042
 51
270.0
  0
ARC
  5
40A
100
AcDbEntity
  8
RUNDUNGEN
100
AcDbCircle
 62
7
  6
CONTINUOUS
 10
165.3177155401
 20
177.4679850613
 40
1.0
100
AcDbArc
 50
0.0
 51
90.0
  0
ARC
  5
40B
100
AcDbEntity
  8
0
100
AcDbCircle
 62
7
  6
CONTINUOUS
 10
177.9977155401
 20
182.7643191502
 40
0.6
100
AcDbArc
 50
180.0
 51
202.7468512744
  0
ARC
  5
40C
100
AcDbEntity
  8
0
100
AcDbCircle
 62
7
  6
CONTINUOUS
 10
184.5977155401
 20
182.6725172022
 40
0.6
100
AcDbArc
 50
335.6593532714
 51
360.0
  0
ARC
  5
40D
100
AcDbEntity
  8
0
100
AcDbCircle
 62
7
  6
CONTINUOUS
 10
183.9377155401
 20
182.7019551721
 40
0.3
100
AcDbArc
 50
322.5551932081
 51
360.0
  0
ARC
  5
40E
100
AcDbEntity
  8
0
100
AcDbCircle
 62
7
  6
CONTINUOUS
 10
178.6977155401
 20
182.7019551721
 40
0.3
100
AcDbArc
 50
180.0
 51
217.4448067919
  0
ARC
  5
40F
100
AcDbEntity
  8
0
100
AcDbCircle
 62
7
  6
CONTINUOUS
 10
180.277421389
 20
191.1707049242
 40
2.8697462065
100
AcDbArc
 50
90.0
 51
270.0
  0
ARC
  5
410
100
AcDbEntity
  8
0
100
AcDbCircle
 62
7
  6
CONTINUOUS
 10
183.1930261089
 20
197.4804511307
 40
2.0046894313
100
AcDbArc
 50
200.6971045951
 51
360.0
  0
ARC
  5
411
100
AcDbEntity
  8
0
100
AcDbCircle
 62
7
  6
CONTINUOUS
 10
180.277421389
 20
191.1707049242
 40
1.9097462065
100
AcDbArc
 50
90.0
 51
270.0
  0
ARC
  5
412
100
AcDbEntity
  8
0
100
AcDbCircle
 62
7
  6
CONTINUOUS
 10
183.1930261089
 20
197.4804511307
 40
0.9153105687
100
AcDbArc
 50
180.0
 51
360.0
  0
ARC
  5
413
100
AcDbEntity
  8
0
100
AcDbCircle
 62
7
  6
CONTINUOUS
 10
177.9977155401
 20
208.5408953797
 40
0.6
100
AcDbArc
 50
90.0
 51
180.0
  0
ARC
  5
414
100
AcDbEntity
  8
0
100
AcDbCircle
 62
7
  6
CONTINUOUS
 10
177.9977155401
 20
203.7408953797
 40
0.6
100
AcDbArc
 50
180.0
 51
270.0
  0
ARC
  5
415
100
AcDbEntity
  8
0
100
AcDbCircle
 62
7
  6
CONTINUOUS
 10
184.5977155401
 20
203.7408953797
 40
0.6
100
AcDbArc
 50
270.0
 51
360.0
  0
ARC
  5
416
100
AcDbEntity
  8
0
100
AcDbCircle
 62
7
  6
CONTINUOUS
 10
184.5977155401
 20
208.5408953797
 40
0.6
100
AcDbArc
 50
0.0
 51
90.0
  0
ARC
  5
417
100
AcDbEntity
  8
0
100
AcDbCircle
 62
7
  6
CONTINUOUS
 10
183.6977155401
 20
205.3908953797
 40
0.3
100
AcDbArc
 50
270.0
 51
360.0
  0
ARC
  5
418
100
AcDbEntity
  8
0
100
AcDbCircle
 62
7
  6
CONTINUOUS
 10
181.8977155401
 20
205.3908953797
 40
0.3
100
AcDbArc
 50
180.0
 51
270.0
  0
ARC
  5
419
100
AcDbEntity
  8
0
100
AcDbCircle
 62
7
  6
CONTINUOUS
 10
180.6977155401
 20
205.3908953797
 40
0.3
100
AcDbArc
 50
270.0
 51
360.0
  0
ARC
  5
41A
100
AcDbEntity
  8
0
100
AcDbCircle
 62
7
  6
CONTINUOUS
 10
178.8977155401
 20
205.3908953797
 40
0.3
100
AcDbArc
 50
180.0
 51
270.0
  0
ARC
  5
41B
100
AcDbEntity
  8
0
100
AcDbCircle
 62
7
  6
CONTINUOUS
 10
178.8977155401
 20
206.8908953797
 40
0.3
100
AcDbArc
 50
90.0
 51
180.0
  0
ARC
  5
41C
100
AcDbEntity
  8
0
100
AcDbCircle
 62
7
  6
CONTINUOUS
 10
180.6977155401
 20
206.8908953797
 40
0.3
100
AcDbArc
 50
0.0
 51
90.0
  0
ARC
  5
41D
100
AcDbEntity
  8
0
100
AcDbCircle
 62
7
  6
CONTINUOUS
 10
181.8977155401
 20
206.8908953797
 40
0.3
100
AcDbArc
 50
90.0
 51
180.0
  0
ARC
  5
41E
100
AcDbEntity
  8
0
100
AcDbCircle
 62
7
  6
CONTINUOUS
 10
183.6977155401
 20
206.8908953797
 40
0.3
100
AcDbArc
 50
0.0
 51
90.0
  0
ARC
  5
41F
100
AcDbEntity
  8
0
100
AcDbCircle
 62
7
  6
CONTINUOUS
 10
179.1677155401
 20
206.6208953797
 40
0.12
100
AcDbArc
 50
90.0
 51
180.0
  0
ARC
  5
420
100
AcDbEntity
  8
0
100
AcDbCircle
 62
7
  6
CONTINUOUS
 10
179.1677155401
 20
205.6608953797
 40
0.12
100
AcDbArc
 50
180.0
 51
270.0
  0
ARC
  5
421
100
AcDbEntity
  8
0
100
AcDbCircle
 62
7
  6
CONTINUOUS
 10
180.4277155401
 20
205.6608953797
 40
0.12
100
AcDbArc
 50
270.0
 51
360.0
  0
ARC
  5
422
100
AcDbEntity
  8
0
100
AcDbCircle
 62
7
  6
CONTINUOUS
 10
180.3677155401
 20
206.0358953797
 40
0.12
100
AcDbArc
 50
180.0
 51
270.0
  0
ARC
  5
423
100
AcDbEntity
  8
0
100
AcDbCircle
 62
7
  6
CONTINUOUS
 10
180.3677155401
 20
206.2458953797
 40
0.12
100
AcDbArc
 50
90.0
 51
180.0
  0
ARC
  5
424
100
AcDbEntity
  8
0
100
AcDbCircle
 62
7
  6
CONTINUOUS
 10
180.4277155401
 20
206.6208953797
 40
0.12
100
AcDbArc
 50
0.0
 51
90.0
  0
ARC
  5
425
100
AcDbEntity
  8
0
100
AcDbCircle
 62
7
  6
CONTINUOUS
 10
182.1677155401
 20
206.6208953797
 40
0.12
100
AcDbArc
 50
90.0
 51
180.0
  0
ARC
  5
426
100
AcDbEntity
  8
0
100
AcDbCircle
 62
7
  6
CONTINUOUS
 10
182.2277155401
 20
206.2458953797
 40
0.12
100
AcDbArc
 50
0.0
 51
90.0
  0
ARC
  5
427
100
AcDbEntity
  8
0
100
AcDbCircle
 62
7
  6
CONTINUOUS
 10
182.2277155401
 20
206.0358953797
 40
0.12
100
AcDbArc
 50
270.0
 51
360.0
  0
ARC
  5
428
100
AcDbEntity
  8
0
100
AcDbCircle
 62
7
  6
CONTINUOUS
 10
182.1677155401
 20
205.6608953797
 40
0.12
100
AcDbArc
 50
180.0
 51
270.0
  0
ARC
  5
429
100
AcDbEntity
  8
0
100
AcDbCircle
 62
7
  6
CONTINUOUS
 10
183.4277155401
 20
205.6608953797
 40
0.12
100
AcDbArc
 50
270.0
 51
360.0
  0
ARC
  5
42A
100
AcDbEntity
  8
0
100
AcDbCircle
 62
7
  6
CONTINUOUS
 10
183.4277155401
 20
206.6208953797
 40
0.12
100
AcDbArc
 50
0.0
 51
90.0
  0
ARC
  5
42B
100
AcDbEntity
  8
RUNDUNGEN
100
AcDbCircle
 62
7
  6
CONTINUOUS
 10
312.4088217352
 20
148.9679850613
 40
29.5
100
AcDbArc
 50
21.2190697926
 51
67.0483251287
  0
ARC
  5
42C
100
AcDbEntity
  8
RUNDUNGEN
100
AcDbCircle
 62
7
  6
CONTINUOUS
 10
312.4088217352
 20
148.9679850613
 40
29.5
100
AcDbArc
 50
112.9516748713
 51
158.7809302074
  0
ARC
  5
42D
100
AcDbEntity
  8
0
100
AcDbCircle
 62
7
  6
CONTINUOUS
 10
312.4088217352
 20
148.9679850613
 40
29.5
100
AcDbArc
 50
112.9569875711
 51
158.7809302074
  0
ARC
  5
42E
100
AcDbEntity
  8
0
100
AcDbCircle
 62
7
  6
CONTINUOUS
 10
312.4088217352
 20
148.9679850613
 40
29.5
100
AcDbArc
 50
21.2190697926
 51
67.0430124289
  0
ARC
  5
42F
100
AcDbEntity
  8
RUNDUNGEN
100
AcDbCircle
 62
7
  6
CONTINUOUS
 10
303.4088217352
 20
139.4679850613
 40
2.5
100
AcDbArc
 50
180.0
 51
270.0
  0
ARC
  5
430
100
AcDbEntity
  8
0
100
AcDbCircle
 62
7
  6
CONTINUOUS
 10
321.4088217352
 20
282.4679850613
 40
2.5
100
AcDbArc
 50
0.0
 51
90.0
  0
ARC
  5
431
100
AcDbEntity
  8
RUNDUNGEN
100
AcDbCircle
 62
7
  6
CONTINUOUS
 10
303.4088217352
 20
282.4679850613
 40
2.5
100
AcDbArc
 50
90.0
 51
180.0000000006
  0
ARC
  5
432
100
AcDbEntity
  8
0
100
AcDbCircle
 62
7
  6
CONTINUOUS
 10
321.4088217352
 20
139.4679850613
 40
2.5
100
AcDbArc
 50
270.0
 51
360.0
  0
ARC
  5
433
100
AcDbEntity
  8
BEZUGSACHSEN
100
AcDbCircle
 62
7
  6
CONTINUOUS
 10
103.8177155401
 20
101.0962409726
 40
11.0
100
AcDbArc
 50
245.3800226713
 51
294.6199773287
  0
ARC
  5
434
100
AcDbEntity
  8
BEZUGSACHSEN
100
AcDbCircle
 62
7
  6
CONTINUOUS
 10
153.8177155401
 20
101.0962409726
 40
11.0
100
AcDbArc
 50
245.3800226713
 51
294.6199773287
  0
ARC
  5
435
100
AcDbEntity
  8
BEZUGSACHSEN
100
AcDbCircle
 62
7
  6
CONTINUOUS
 10
128.8177155401
 20
26.0962409726
 40
11.0
100
AcDbArc
 50
65.3800226713
 51
114.6199773287
  0
ARC
  5
436
100
AcDbEntity
  8
RUNDUNGEN
100
AcDbCircle
 62
7
  6
CONTINUOUS
 10
191.3177155401
 20
72.5962409726
 40
2.5
100
AcDbArc
 50
0.0
 51
90.0
  0
ARC
  5
437
100
AcDbEntity
  8
RUNDUNGEN
100
AcDbCircle
 62
7
  6
CONTINUOUS
 10
66.3177155401
 20
72.5962409726
 40
2.5
100
AcDbArc
 50
90.0
 51
180.0
  0
ARC
  5
438
100
AcDbEntity
  8
0
100
AcDbCircle
 62
7
  6
CONTINUOUS
 10
191.3177155401
 20
54.5962409726
 40
2.5
100
AcDbArc
 50
270.0
 51
360.0
  0
ARC
  5
439
100
AcDbEntity
  8
0
100
AcDbCircle
 62
7
  6
CONTINUOUS
 10
66.3177155401
 20
54.5962409726
 40
2.5
100
AcDbArc
 50
180.0
 51
270.0
  0
SPLINE
  5
43A
100
AcDbEntity
  8
BEZUGSACHSEN
100
AcDbSpline
 62
7
  6
CONTINUOUS
 70
0
 71
3
 72
15
 73
11
 74
0
 42
0.0000001
 43
0.0000001
 44
0.0000000001
 40
0.0
 40
0.0
 40
0.0
 40
0.0
 40
0.1227948428
 40
0.2468048856
 40
0.3726599749
 40
0.4999994793
 40
0.6273397086
 40
0.7531953732
 40
0.8772055024
 40
1.0
 40
1.0
 40
1.0
 40
1.0
 10
124.2351398452
 20
159.6450633133
 30
0.0
 10
124.5144633472
 20
159.9747469514
 30
0.0
 10
125.1312406625
 20
160.5935988551
 30
0.0
 10
126.2261517871
 20
161.3320414886
 30
0.0
 10
127.4752496757
 20
161.8165173223
 30
0.0
 10
128.8177124643
 20
161.9861857734
 30
0.0
 10
130.1601775908
 20
161.8165184415
 30
0.0
 10
131.4092803219
 20
161.3320412302
 30
0.0
 10
132.5041920584
 20
160.5935974288
 30
0.0
 10
133.1209685183
 20
159.9747460245
 30
0.0
 10
133.4002912351
 20
159.6450633133
 30
0.0
  0
SPLINE
  5
43B
100
AcDbEntity
  8
0
100
AcDbSpline
 62
7
  6
CONTINUOUS
 70
0
 71
3
 72
19
 73
15
 74
0
 42
0.0000001
 43
0.0000001
 44
0.0000000001
 40
0.0
 40
0.0
 40
0.0
 40
0.0
 40
0.1250357828
 40
0.2500699929
 40
0.3751014889
 40
0.500126424
 40
0.625137114
 40
0.6876587044
 40
0.7501800164
 40
0.8127007874
 40
0.8752042874
 40
0.9065019955
 40
0.937843416
 40
1.0
 40
1.0
 40
1.0
 40
1.0
 10
91.3177155401
 20
156.4512998349
 30
0.0
 10
91.3177155401
 20
156.5988553433
 30
0.0
 10
91.322201197
 20
156.8939930946
 30
0.0
 10
91.3449397756
 20
157.3361771749
 30
0.0
 10
91.3871313856
 20
157.776997455
 30
0.0
 10
91.4537924551
 20
158.2148207503
 30
0.0
 10
91.5361073712
 20
158.5749565105
 30
0.0
 10
91.625009785
 20
158.8565084354
 30
0.0
 10
91.7062973456
 20
159.0626628518
 30
0.0
 10
91.8065983081
 20
159.2603523396
 30
0.0
 10
91.9120195917
 20
159.4130446256
 30
0.0
 10
92.0157099994
 20
159.5189538417
 30
0.0
 10
92.1329569413
 20
159.6082151232
 30
0.0
 10
92.244364167
 20
159.6450633133
 30
0.0
 10
92.3177155401
 20
159.6450633133
 30
0.0
  0
SPLINE
  5
43C
100
AcDbEntity
  8
0
100
AcDbSpline
 62
7
  6
CONTINUOUS
 70
0
 71
3
 72
19
 73
15
 74
0
 42
0.0000001
 43
0.0000001
 44
0.0000000001
 40
0.0
 40
0.0
 40
0.0
 40
0.0
 40
0.0621580317
 40
0.0934947397
 40
0.1247902852
 40
0.1872956395
 40
0.249817194
 40
0.3123388848
 40
0.3748606198
 40
0.4998717409
 40
0.6248971461
 40
0.7499291067
 40
0.8749637686
 40
1.0
 40
1.0
 40
1.0
 40
1.0
 10
165.3177155401
 20
159.6450633133
 30
0.0
 10
165.3910685975
 20
159.6450633133
 30
0.0
 10
165.5024710346
 20
159.6082128759
 30
0.0
 10
165.6197141893
 20
159.5189578848
 30
0.0
 10
165.7234012824
 20
159.4130537897
 30
0.0
 10
165.8288283863
 20
159.2603648994
 30
0.0
 10
165.929129545
 20
159.0626712974
 30
0.0
 10
166.0104187491
 20
158.8565160819
 30
0.0
 10
166.0993218173
 20
158.5749632215
 30
0.0
 10
166.1816376419
 20
158.2148265544
 30
0.0
 10
166.2482991875
 20
157.777001827
 30
0.0
 10
166.2904911279
 20
157.3361800839
 30
0.0
 10
166.3132298536
 20
156.893994541
 30
0.0
 10
166.3177155401
 20
156.5988558242
 30
0.0
 10
166.3177155401
 20
156.4512998349
 30
0.0
  0
ENDSEC
  0
SECTION
  2
OBJECTS
  0
DICTIONARY
  5
C
100
AcDbDictionary
280
0
281
1
  3
ACAD_GROUP
350
D
  3
ACAD_MLINESTYLE
350
17
  3
ACAD_LAYOUT
350
1A
  3
ACAD_PLOTSETTINGS
350
19
  3
ACAD_PLOTSTYLENAME
350
E
  0
DICTIONARY
  5
D
102
{ACAD_REACTORS
330
C
102
}
100
AcDbDictionary
280
0
281
1
  0
ACDBDICTIONARYWDFLT
  5
E
102
{ACAD_REACTORS
330
C
102
}
100
AcDbDictionary
281
1
  3
Normal
350
F
100
AcDbDictionaryWithDefault
340
F
  0
DICTIONARY
  5
17
102
{ACAD_REACTORS
330
C
102
}
100
AcDbDictionary
280
0
281
1
  3
Standard
350
18
  0
DICTIONARY
  5
19
102
{ACAD_REACTORS
330
C
102
}
100
AcDbDictionary
281
1
  0
DICTIONARY
  5
1A
102
{ACAD_REACTORS
330
C
102
}
100
AcDbDictionary
281
1
  3
Model
350
43D
  3
Layout1
350
43E
  0
ACDBPLACEHOLDER
  5
F
102
{ACAD_REACTORS
330
E
102
}
  0
MLINESTYLE
  5
18
102
{ACAD_REACTORS
330
17
102
}
100
AcDbMlineStyle
  2
STANDARD
 70
0
  3

 62
256
 51
90.0
 52
90.0
 71
2
 49
0.5
 62
256
  6
BYLAYER
 49
-0.5
 62
256
  6
BYLAYER
  0
LAYOUT
  5
43D
102
{ACAD_REACTORS
330
1A
102
}
100
AcDbPlotSettings
  1

  2
none_device
  4
ISO_A3_(420.00_x_297.00_MM)
  6

 40
0.0
 41
0.0
 42
0.0
 43
0.0
 44
420.0
 45
297.0
 46
0.0
 47
0.0
 48
0.0
 49
0.0
140
0.0
141
0.0
142
1.0
143
1.0
 70
1024
 72
1
 73
0
 74
0
  7

 75
0
147
1.0
148
0.0
149
0.0
100
AcDbLayout
  1
Model
 70
0
 71
0
 10
0.0
 20
0.0
 11
420.0
 21
297.0
 12
0.0
 22
0.0
 32
0.0
 14
0.0
 24
0.0
 34
0.0
 15
0.0
 25
0.0
 35
0.0
146
0.0
 13
0.0
 23
0.0
 33
0.0
 16
1.0
 26
0.0
 36
0.0
 17
0.0
 27
1.0
 37
0.0
 76
0
330
20D
345
0
346
0
  0
LAYOUT
  5
43E
102
{ACAD_REACTORS
330
1A
102
}
100
AcDbPlotSettings
  1

  2
none_device
  4
ISO_A3_(420.00_x_297.00_MM)
  6

 40
0.0
 41
0.0
 42
0.0
 43
0.0
 44
420.0
 45
297.0
 46
0.0
 47
0.0
 48
0.0
 49
0.0
140
0.0
141
0.0
142
1.0
143
1.0
 70
0
 72
1
 73
0
 74
0
  7

 75
0
147
1.0
148
0.0
149
0.0
100
AcDbLayout
  1
Layout1
 70
0
 71
1
 10
0.0
 20
0.0
 11
420.0
 21
297.0
 12
0.0
 22
0.0
 32
0.0
 14
0.0
 24
0.0
 34
0.0
 15
0.0
 25
0.0
 35
0.0
146
0.0
 13
0.0
 23
0.0
 33
0.0
 16
1.0
 26
0.0
 36
0.0
 17
0.0
 27
1.0
 37
0.0
 76
0
330
20E
345
0
346
0
  0
ENDSEC
  0
EOF
