999
DXF file: 001-m31849-p6.dxf
999
Pro/ENGINEER 2011490 by Parametric Technology Corporation
  0
SECTION
  2
HEADER
  9
$ACADVER
  1
AC1015
  9
$DWGCODEPAGE
  3
ANSI_1252
  9
$EXTMAX
 10
420.0
 20
297.0
 30
0.0
  9
$EXTMIN
 10
0.0
 20
0.0
 30
0.0
  9
$LIMMIN
 10
0.0
 20
0.0
  9
$LIMMAX
 10
420.0
 20
297.0
  9
$VIEWCTR
 10
210.0
 20
148.5
  9
$VIEWSIZE
 40
297.0
  9
$CLAYER
  8
0
  9
$LTSCALE
 40
23.1
  9
$CELTYPE
  6
BYLAYER
  9
$DIMSCALE
 40
1.0
  9
$DIMASZ
 40
3.5
  9
$DIMEXO
 40
2.625
  9
$DIMDLI
 40
15.96
  9
$DIMEXE
 40
7.56
  9
$DIMCEN
 40
3.78
  9
$DIMLFAC
 40
1.0
  9
$DIMBLK
  1
_FILLED
  9
$DIMTXT
 40
3.5
  9
$DIMTOL
 70
1
  9
$DIMLIM
 70
0
  9
$DIMTFAC
 40
1.0
  9
$DIMTP
 40
0.005
  9
$DIMTM
 40
0.005
  9
$PDMODE
 70
3
  9
$PDSIZE
 40
0.3125
  9
$HANDSEED
  5
555
  9
$TILEMODE
 70
1
  9
$MEASUREMENT
 70
1
  9
$INSUNITS
 70
4
  0
ENDSEC
  0
SECTION
  2
CLASSES
  0
CLASS
  1
ACDBDICTIONARYWDFLT
  2
AcDbDictionaryWithDefault
  3
AutoCAD 2000
 90
0
280
0
281
0
  0
CLASS
  1
ACDBPLACEHOLDER
  2
AcDbPlaceHolder
  3
AutoCAD 2000
 90
0
280
0
281
0
  0
CLASS
  1
LAYOUT
  2
AcDbLayout
  3
AutoCAD 2000
 90
0
280
0
281
0
  0
ENDSEC
  0
SECTION
  2
TABLES
  0
TABLE
  2
VPORT
  5
8
100
AcDbSymbolTable
 70
2
  0
VPORT
  5
1F4
100
AcDbSymbolTableRecord
100
AcDbViewportTableRecord
  2
*ACTIVE
 70
0
 10
0.0
 20
0.0
 11
1.0
 21
1.0
 12
210.0
 22
148.5
 13
0.0
 23
0.0
 14
1.0
 24
1.0
 15
0.0
 25
0.0
 16
0.0
 26
0.0
 36
1.0
 17
0.0
 27
0.0
 37
0.0
 40
297.0
 41
1.4141414141
 42
50.0
 43
0.0
 44
0.0
 50
0.0
 51
0.0
 71
0
 72
100
 73
1
 74
1
 75
0
 76
0
 77
0
 78
0
  0
ENDTAB
  0
TABLE
  2
LTYPE
  5
5
100
AcDbSymbolTable
 70
6
  0
LTYPE
  5
14
100
AcDbSymbolTableRecord
100
AcDbLinetypeTableRecord
  2
BYBLOCK
 70
0
  3

 72
65
 73
0
 40
0.0
  0
LTYPE
  5
15
100
AcDbSymbolTableRecord
100
AcDbLinetypeTableRecord
  2
BYLAYER
 70
0
  3

 72
65
 73
0
 40
0.0
  0
LTYPE
  5
16
100
AcDbSymbolTableRecord
100
AcDbLinetypeTableRecord
  2
CONTINUOUS
 70
64
  3
Solid line
 72
65
 73
0
 40
0.0
  0
LTYPE
  5
1F5
100
AcDbSymbolTableRecord
100
AcDbLinetypeTableRecord
  2
CENTER
 70
64
  3
____ _ ____ _ ____ _ ____ _ ____ _ ____ _ ____
 72
65
 73
4
 40
0.6
 49
0.375
 74
0
 49
-0.075
 74
0
 49
0.075
 74
0
 49
-0.075
 74
0
  0
LTYPE
  5
1F6
100
AcDbSymbolTableRecord
100
AcDbLinetypeTableRecord
  2
HIDDEN
 70
64
  3
- - - - - - - - - - - - - - - - - - - -
 72
65
 73
2
 40
0.2
 49
0.1
 74
0
 49
-0.1
 74
0
  0
LTYPE
  5
1F7
100
AcDbSymbolTableRecord
100
AcDbLinetypeTableRecord
  2
PHANTOM
 70
64
  3
_____ _ _ _____ _ _ _____ _ _ _____
 72
65
 73
6
 40
0.8
 49
0.45
 74
0
 49
-0.05
 74
0
 49
0.1
 74
0
 49
-0.05
 74
0
 49
0.1
 74
0
 49
-0.05
 74
0
  0
LTYPE
  5
1F8
100
AcDbSymbolTableRecord
100
AcDbLinetypeTableRecord
  2
DOT
 70
64
  3
. . . . . . . . . . . . . . . . . . . .
 72
65
 73
2
 40
0.2
 49
0.1
 74
0
 49
-0.1
 74
0
  0
LTYPE
  5
1F9
100
AcDbSymbolTableRecord
100
AcDbLinetypeTableRecord
  2
DASHED
 70
64
  3
- - - - - - - - - - - - - - - - - - - -
 72
65
 73
2
 40
0.2
 49
0.1
 74
0
 49
-0.1
 74
0
  0
ENDTAB
  0
TABLE
  2
LAYER
  5
2
100
AcDbSymbolTable
 70
36
  0
LAYER
  5
10
100
AcDbSymbolTableRecord
100
AcDbLayerTableRecord
  2
0
 70
0
 62
7
  6
CONTINUOUS
370
-3
390
F
  0
LAYER
  5
1FA
100
AcDbSymbolTableRecord
100
AcDbLayerTableRecord
  2
DEFAULT_1
 70
0
 62
7
  6
CENTER
370
-3
390
F
  0
LAYER
  5
1FB
100
AcDbSymbolTableRecord
100
AcDbLayerTableRecord
  2
DEFAULT_2
 70
0
 62
8
  6
HIDDEN
370
-3
390
F
  0
LAYER
  5
1FC
100
AcDbSymbolTableRecord
100
AcDbLayerTableRecord
  2
DEFAULT_3
 70
0
 62
7
  6
PHANTOM
370
-3
390
F
  0
LAYER
  5
1FD
100
AcDbSymbolTableRecord
100
AcDbLayerTableRecord
  2
AUSFORMSCHRAEGEN
 70
0
 62
7
  6
CONTINUOUS
370
-3
390
F
  0
LAYER
  5
1FE
100
AcDbSymbolTableRecord
100
AcDbLayerTableRecord
  2
BEZUGSACHSEN
 70
0
 62
7
  6
CONTINUOUS
370
-3
390
F
  0
LAYER
  5
1FF
100
AcDbSymbolTableRecord
100
AcDbLayerTableRecord
  2
BEZUGSEBENEN
 70
0
 62
7
  6
CONTINUOUS
370
-3
390
F
  0
LAYER
  5
200
100
AcDbSymbolTableRecord
100
AcDbLayerTableRecord
  2
BG_STARTBEZUEGE
 70
0
 62
7
  6
CONTINUOUS
370
-3
390
F
  0
LAYER
  5
201
100
AcDbSymbolTableRecord
100
AcDbLayerTableRecord
  2
FASEN
 70
0
 62
7
  6
CONTINUOUS
370
-3
390
F
  0
LAYER
  5
202
100
AcDbSymbolTableRecord
100
AcDbLayerTableRecord
  2
HILFEN
 70
0
 62
7
  6
CONTINUOUS
370
-3
390
F
  0
LAYER
  5
203
100
AcDbSymbolTableRecord
100
AcDbLayerTableRecord
  2
KONSTRUKTIONSELEMENTE
 70
0
 62
7
  6
CONTINUOUS
370
-3
390
F
  0
LAYER
  5
204
100
AcDbSymbolTableRecord
100
AcDbLayerTableRecord
  2
KURVEN
 70
0
 62
7
  6
CONTINUOUS
370
-3
390
F
  0
LAYER
  5
205
100
AcDbSymbolTableRecord
100
AcDbLayerTableRecord
  2
PLATZIERUNG
 70
0
 62
7
  6
CONTINUOUS
370
-3
390
F
  0
LAYER
  5
206
100
AcDbSymbolTableRecord
100
AcDbLayerTableRecord
  2
RUNDUNGEN
 70
0
 62
7
  6
CONTINUOUS
370
-3
390
F
  0
LAYER
  5
207
100
AcDbSymbolTableRecord
100
AcDbLayerTableRecord
  2
TEIL_STARTBEZUEGE
 70
0
 62
7
  6
CONTINUOUS
370
-3
390
F
  0
LAYER
  5
208
100
AcDbSymbolTableRecord
100
AcDbLayerTableRecord
  2
T_STARTBEZUEGE
 70
0
 62
7
  6
CONTINUOUS
370
-3
390
F
  0
LAYER
  5
209
100
AcDbSymbolTableRecord
100
AcDbLayerTableRecord
  2
ZEICHNUNGSBEMASSUNGEN
 70
0
 62
7
  6
CONTINUOUS
370
-3
390
F
  0
ENDTAB
  0
TABLE
  2
STYLE
  5
3
100
AcDbSymbolTable
 70
1
  0
STYLE
  5
11
100
AcDbSymbolTableRecord
100
AcDbTextStyleTableRecord
  2
STANDARD
 70
0
 40
0.0
 41
0.7
 50
0.0
 71
0
 42
0.2
  3
txt
  4

  0
STYLE
  5
20A
100
AcDbSymbolTableRecord
100
AcDbTextStyleTableRecord
  2
TEXTSTYLE_1
 70
0
 40
0.0
 41
0.8
 50
0.0
 71
0
 42
0.2
  3
gdt
  4

  0
ENDTAB
  0
TABLE
  2
VIEW
  5
6
100
AcDbSymbolTable
 70
0
  0
ENDTAB
  0
TABLE
  2
UCS
  5
7
100
AcDbSymbolTable
 70
0
  0
ENDTAB
  0
TABLE
  2
APPID
  5
9
100
AcDbSymbolTable
 70
1
  0
APPID
  5
20B
100
AcDbSymbolTableRecord
100
AcDbRegAppTableRecord
  2
ACAD
 70
0
  0
ENDTAB
  0
TABLE
  2
BLOCK_RECORD
  5
1
100
AcDbSymbolTable
 70
0
  0
BLOCK_RECORD
  5
20C
100
AcDbSymbolTableRecord
100
AcDbBlockTableRecord
  2
*Model_Space
  0
BLOCK_RECORD
  5
20D
100
AcDbSymbolTableRecord
100
AcDbBlockTableRecord
  2
*Paper_Space
  0
ENDTAB
  0
TABLE
  2
DIMSTYLE
  5
A
100
AcDbSymbolTable
 70
1
100
AcDbDimStyleTable
 71
0
  0
DIMSTYLE
105
20E
100
AcDbSymbolTableRecord
100
AcDbDimStyleTableRecord
  2
STANDARD
 70
0
  3

  4

 40
1.0
 41
3.5
 42
0.0625
 43
0.38
 44
0.18
 45
0.0
 46
0.0
 47
0.005
 48
0.005
140
3.5
141
0.09
142
0.0
143
25.4
144
1.0
145
0.0
146
1.0
147
0.09
 71
1.0
 72
0.0
 73
0
 74
0
 75
0
 76
0
 77
1
 78
8
170
0
171
2
172
0
173
0
174
0
175
0
176
0
177
0
178
5
270
2
271
3
272
3
273
2
274
2
275
0
280
0
281
0
282
0
283
1
284
8
285
0
286
0
287
3
288
0
340
11
  0
ENDTAB
  0
ENDSEC
  0
SECTION
  2
BLOCKS
  0
BLOCK
  5
20
100
AcDbEntity
  8
0
100
AcDbBlockBegin
  2
*Model_Space
 70
0
 10
0.0
 20
0.0
 30
0.0
  3
*Model_Space
  1

  0
ENDBLK
  5
21
100
AcDbEntity
  8
0
100
AcDbBlockEnd
  0
BLOCK
  5
1C
100
AcDbEntity
  8
0
100
AcDbBlockBegin
  2
*Paper_Space
 70
0
 10
0.0
 20
0.0
 30
0.0
  3
*Paper_Space
  1

  0
ENDBLK
  5
1D
100
AcDbEntity
  8
0
100
AcDbBlockEnd
  0
ENDSEC
  0
SECTION
  2
ENTITIES
  0
MTEXT
  5
20F
100
AcDbEntity
  8
0
100
AcDbMText
 62
5
  6
CONTINUOUS
  7
STANDARD
 71
1
 72
1
 10
105.1848591549
 20
165.904209347
 30
0.0
 11
1.0
 21
0.0
 31
0.0
 44
0.9
  1
LPW-U 8000 daN\PRUD
 40
3.5
 41
39.9166666667
  0
MTEXT
  5
210
100
AcDbEntity
  8
0
100
AcDbMText
 62
5
  6
CONTINUOUS
  7
STANDARD
 71
1
 72
1
 10
97.4958359848
 20
99.2716760097
 30
0.0
 11
1.0
 21
0.0
 31
0.0
 44
0.9
  1
LPW-U 8000 daN\PRUD
 40
5.0
 41
57.0238095238
  0
MTEXT
  5
211
100
AcDbEntity
  8
0
100
AcDbMText
 62
5
  6
CONTINUOUS
  7
STANDARD
 71
1
 72
1
 10
215.9451984082
 20
172.9288398371
 30
0.0
 11
0.0
 21
1.0
 31
0.0
 44
0.9
  1
LPW-U 8000 daN\PRUD
 40
5.0
 41
57.0238095238
  0
LINE
  5
212
100
AcDbEntity
  8
0
100
AcDbLine
 62
7
  6
CONTINUOUS
 10
0.0
 20
0.0
 11
0.0
 21
297.0
  0
LINE
  5
213
100
AcDbEntity
  8
0
100
AcDbLine
 62
7
  6
CONTINUOUS
 10
0.0
 20
0.0
 11
420.0
 21
0.0
  0
LINE
  5
214
100
AcDbEntity
  8
0
100
AcDbLine
 62
7
  6
CONTINUOUS
 10
0.0
 20
297.0
 11
420.0
 21
297.0
  0
LINE
  5
215
100
AcDbEntity
  8
0
100
AcDbLine
 62
7
  6
CONTINUOUS
 10
420.0
 20
0.0
 11
420.0
 21
297.0
  0
LINE
  5
216
100
AcDbEntity
  8
RUNDUNGEN
100
AcDbLine
 62
7
  6
CONTINUOUS
 10
102.201326472
 20
144.2659934679
 11
147.5863425506
 21
144.2659934679
  0
LINE
  5
217
100
AcDbEntity
  8
BEZUGSACHSEN
100
AcDbLine
 62
7
  6
CONTINUOUS
 10
86.3938338113
 20
146.0159934679
 11
102.0044303379
 21
146.0159934679
  0
LINE
  5
218
100
AcDbEntity
  8
BEZUGSACHSEN
100
AcDbLine
 62
7
  6
CONTINUOUS
 10
147.7832386846
 20
146.0159934679
 11
163.3938352113
 21
146.0159934679
  0
LINE
  5
219
100
AcDbEntity
  8
RUNDUNGEN
100
AcDbLine
 62
7
  6
CONTINUOUS
 10
121.8122257345
 20
244.9030240707
 11
96.7471508101
 21
234.5207300951
  0
LINE
  5
21A
100
AcDbEntity
  8
0
100
AcDbLine
 62
7
  6
CONTINUOUS
 10
147.8938345113
 20
146.5659934679
 11
101.8938345113
 21
146.5659934679
  0
LINE
  5
21B
100
AcDbEntity
  8
RUNDUNGEN
100
AcDbLine
 62
7
  6
CONTINUOUS
 10
81.3938338113
 20
202.0159934679
 11
81.3938338113
 21
154.2659934679
  0
LINE
  5
21C
100
AcDbEntity
  8
BEZUGSACHSEN
100
AcDbLine
 62
7
  6
CONTINUOUS
 10
81.3938338113
 20
151.0159934679
 11
81.3938338113
 21
154.2659934679
  0
LINE
  5
21D
100
AcDbEntity
  8
RUNDUNGEN
100
AcDbLine
 62
7
  6
CONTINUOUS
 10
92.389097884
 20
230.1626771691
 11
82.0068039084
 21
205.0976022447
  0
LINE
  5
21E
100
AcDbEntity
  8
0
100
AcDbLine
 62
7
  6
CONTINUOUS
 10
103.8938345113
 20
154.2659934679
 11
145.8938345113
 21
154.2659934679
  0
LINE
  5
21F
100
AcDbEntity
  8
0
100
AcDbLine
 62
7
  6
CONTINUOUS
 10
160.7283082563
 20
161.3680982639
 11
162.3388346163
 21
161.3680982639
  0
LINE
  5
220
100
AcDbEntity
  8
0
100
AcDbLine
 62
7
  6
CONTINUOUS
 10
162.2888346163
 20
162.5780982639
 11
160.7819924683
 21
162.5780982639
  0
LINE
  5
221
100
AcDbEntity
  8
0
100
AcDbLine
 62
7
  6
CONTINUOUS
 10
159.5204134863
 20
165.0991509979
 11
162.9427820013
 21
165.0991509979
  0
LINE
  5
222
100
AcDbEntity
  8
0
100
AcDbLine
 62
7
  6
CONTINUOUS
 10
164.5533083613
 20
166.3070457679
 11
163.5467293863
 21
166.3070457679
  0
LINE
  5
223
100
AcDbEntity
  8
0
100
AcDbLine
 62
7
  6
CONTINUOUS
 10
162.9427820013
 20
166.3070457679
 11
158.5138345113
 21
166.3070457679
  0
LINE
  5
224
100
AcDbEntity
  8
0
100
AcDbLine
 62
7
  6
CONTINUOUS
 10
160.9296240513
 20
167.5149405379
 11
164.5533083613
 21
167.5149405379
  0
LINE
  5
225
100
AcDbEntity
  8
KONSTRUKTIONSELEMENTE
100
AcDbLine
 62
7
  6
CONTINUOUS
 10
108.8938345113
 20
168.7033581858
 11
118.8938345113
 21
168.7033581858
  0
LINE
  5
226
100
AcDbEntity
  8
KONSTRUKTIONSELEMENTE
100
AcDbLine
 62
7
  6
CONTINUOUS
 10
130.8938345113
 20
168.7033581858
 11
140.8938345113
 21
168.7033581858
  0
LINE
  5
227
100
AcDbEntity
  8
0
100
AcDbLine
 62
7
  6
CONTINUOUS
 10
164.5533083613
 20
168.7228353079
 11
160.9296240513
 21
168.7228353079
  0
LINE
  5
228
100
AcDbEntity
  8
RUNDUNGEN
100
AcDbLine
 62
7
  6
CONTINUOUS
 10
99.3938338113
 20
170.515993495
 11
99.3938338113
 21
175.4090814227
  0
LINE
  5
229
100
AcDbEntity
  8
RUNDUNGEN
100
AcDbLine
 62
7
  6
CONTINUOUS
 10
99.3938338113
 20
196.0013221288
 11
99.3938338113
 21
202.0159934275
  0
LINE
  5
22A
100
AcDbEntity
  8
0
100
AcDbLine
 62
7
  6
CONTINUOUS
 10
101.8938345113
 20
146.5659934679
 11
101.8938345113
 21
173.2659934679
  0
LINE
  5
22B
100
AcDbEntity
  8
KONSTRUKTIONSELEMENTE
100
AcDbLine
 62
7
  6
CONTINUOUS
 10
108.4438345113
 20
170.260566231
 11
112.4438345113
 21
170.260566231
  0
LINE
  5
22C
100
AcDbEntity
  8
KONSTRUKTIONSELEMENTE
100
AcDbLine
 62
7
  6
CONTINUOUS
 10
114.8438345113
 20
170.260566231
 11
118.8438345113
 21
170.260566231
  0
LINE
  5
22D
100
AcDbEntity
  8
KONSTRUKTIONSELEMENTE
100
AcDbLine
 62
7
  6
CONTINUOUS
 10
139.1472387996
 20
170.7731618658
 11
139.4025579181
 21
170.7731618658
  0
LINE
  5
22E
100
AcDbEntity
  8
KONSTRUKTIONSELEMENTE
100
AcDbLine
 62
7
  6
CONTINUOUS
 10
137.4451112237
 20
170.8342049053
 11
137.7004303422
 21
170.8342049053
  0
LINE
  5
22F
100
AcDbEntity
  8
0
100
AcDbLine
 62
7
  6
CONTINUOUS
 10
160.9296240513
 20
171.1386248479
 11
164.5533083613
 21
171.1386248479
  0
LINE
  5
230
100
AcDbEntity
  8
KONSTRUKTIONSELEMENTE
100
AcDbLine
 62
7
  6
CONTINUOUS
 10
108.4438345113
 20
171.5236398275
 11
112.4438345113
 21
171.5236398275
  0
LINE
  5
231
100
AcDbEntity
  8
KONSTRUKTIONSELEMENTE
100
AcDbLine
 62
7
  6
CONTINUOUS
 10
114.8438345113
 20
171.5236398275
 11
118.8438345113
 21
171.5236398275
  0
LINE
  5
232
100
AcDbEntity
  8
KONSTRUKTIONSELEMENTE
100
AcDbLine
 62
7
  6
CONTINUOUS
 10
108.8693663755
 20
171.8841413878
 11
110.1459622064
 21
171.8841413878
  0
LINE
  5
233
100
AcDbEntity
  8
KONSTRUKTIONSELEMENTE
100
AcDbLine
 62
7
  6
CONTINUOUS
 10
110.6566004434
 20
171.8841413878
 11
112.4438345113
 21
171.8841413878
  0
LINE
  5
234
100
AcDbEntity
  8
KONSTRUKTIONSELEMENTE
100
AcDbLine
 62
7
  6
CONTINUOUS
 10
114.8438345113
 20
171.8841413878
 11
118.3331962147
 21
171.8841413878
  0
LINE
  5
235
100
AcDbEntity
  8
KONSTRUKTIONSELEMENTE
100
AcDbLine
 62
7
  6
CONTINUOUS
 10
139.1472387996
 20
171.9997637527
 11
139.4025579181
 21
171.9997637527
  0
LINE
  5
236
100
AcDbEntity
  8
KONSTRUKTIONSELEMENTE
100
AcDbLine
 62
7
  6
CONTINUOUS
 10
109.3800046125
 20
172.025603996
 11
109.6353239694
 21
172.025603996
  0
LINE
  5
237
100
AcDbEntity
  8
KONSTRUKTIONSELEMENTE
100
AcDbLine
 62
7
  6
CONTINUOUS
 10
137.4451112237
 20
172.0565985794
 11
137.7004303422
 21
172.0565985794
  0
LINE
  5
238
100
AcDbEntity
  8
KONSTRUKTIONSELEMENTE
100
AcDbLine
 62
7
  6
CONTINUOUS
 10
139.1472387996
 20
172.2782900369
 11
139.4025579181
 21
172.2782900369
  0
LINE
  5
239
100
AcDbEntity
  8
KONSTRUKTIONSELEMENTE
100
AcDbLine
 62
7
  6
CONTINUOUS
 10
137.4451112237
 20
172.3323269403
 11
137.6153239694
 21
172.3323269403
  0
LINE
  5
23A
100
AcDbEntity
  8
0
100
AcDbLine
 62
7
  6
CONTINUOUS
 10
164.5533083613
 20
172.3465196179
 11
160.9296240513
 21
172.3465196179
  0
LINE
  5
23B
100
AcDbEntity
  8
KONSTRUKTIONSELEMENTE
100
AcDbLine
 62
7
  6
CONTINUOUS
 10
137.4451112237
 20
172.349565892
 11
137.6153239694
 21
172.349565892
  0
LINE
  5
23C
100
AcDbEntity
  8
KONSTRUKTIONSELEMENTE
100
AcDbLine
 62
7
  6
CONTINUOUS
 10
139.1472387996
 20
172.3938158713
 11
139.4025579181
 21
172.3938158713
  0
LINE
  5
23D
100
AcDbEntity
  8
KONSTRUKTIONSELEMENTE
100
AcDbLine
 62
7
  6
CONTINUOUS
 10
114.8438345113
 20
172.6076297655
 11
118.3331962147
 21
172.6076297655
  0
LINE
  5
23E
100
AcDbEntity
  8
KONSTRUKTIONSELEMENTE
100
AcDbLine
 62
7
  6
CONTINUOUS
 10
109.3800046125
 20
173.1711188605
 11
109.6353239694
 21
173.1711188605
  0
LINE
  5
23F
100
AcDbEntity
  8
KONSTRUKTIONSELEMENTE
100
AcDbLine
 62
7
  6
CONTINUOUS
 10
106.8938345113
 20
175.2659934679
 11
106.8938345113
 21
170.0901144134
  0
LINE
  5
240
100
AcDbEntity
  8
KONSTRUKTIONSELEMENTE
100
AcDbLine
 62
7
  6
CONTINUOUS
 10
139.9279975414
 20
175.765993461
 11
139.9131962147
 21
175.7658713518
  0
LINE
  5
241
100
AcDbEntity
  8
KONSTRUKTIONSELEMENTE
100
AcDbLine
 62
7
  6
CONTINUOUS
 10
118.3331962147
 20
173.3909255564
 11
118.8438345113
 21
173.3909255564
  0
LINE
  5
242
100
AcDbEntity
  8
KONSTRUKTIONSELEMENTE
100
AcDbLine
 62
7
  6
CONTINUOUS
 10
109.3800046125
 20
173.4334975075
 11
109.7204303422
 21
173.4334975075
  0
LINE
  5
243
100
AcDbEntity
  8
KONSTRUKTIONSELEMENTE
100
AcDbLine
 62
7
  6
CONTINUOUS
 10
137.4451112237
 20
173.4757720095
 11
137.6153239694
 21
173.4757720095
  0
LINE
  5
244
100
AcDbEntity
  8
KONSTRUKTIONSELEMENTE
100
AcDbLine
 62
7
  6
CONTINUOUS
 10
139.1472387996
 20
173.5174335462
 11
139.4025579181
 21
173.5174335462
  0
LINE
  5
245
100
AcDbEntity
  8
KONSTRUKTIONSELEMENTE
100
AcDbLine
 62
7
  6
CONTINUOUS
 10
137.4451112237
 20
173.6796092867
 11
137.7004303422
 21
173.6796092867
  0
LINE
  5
246
100
AcDbEntity
  8
KONSTRUKTIONSELEMENTE
100
AcDbLine
 62
7
  6
CONTINUOUS
 10
114.8438345113
 20
173.718901273
 11
118.8438345113
 21
173.718901273
  0
LINE
  5
247
100
AcDbEntity
  8
KONSTRUKTIONSELEMENTE
100
AcDbLine
 62
7
  6
CONTINUOUS
 10
139.1472387996
 20
173.7190494808
 11
139.4025579181
 21
173.7190494808
  0
LINE
  5
248
100
AcDbEntity
  8
KONSTRUKTIONSELEMENTE
100
AcDbLine
 62
7
  6
CONTINUOUS
 10
108.4438345113
 20
173.7964793453
 11
111.0821324267
 21
173.7964793453
  0
LINE
  5
249
100
AcDbEntity
  8
KONSTRUKTIONSELEMENTE
100
AcDbLine
 62
7
  6
CONTINUOUS
 10
115.2693663755
 20
173.9464845556
 11
116.5459622064
 21
173.9464845556
  0
LINE
  5
24A
100
AcDbEntity
  8
KONSTRUKTIONSELEMENTE
100
AcDbLine
 62
7
  6
CONTINUOUS
 10
117.0566004434
 20
173.9464845556
 11
118.8438345113
 21
173.9464845556
  0
LINE
  5
24B
100
AcDbEntity
  8
KONSTRUKTIONSELEMENTE
100
AcDbLine
 62
7
  6
CONTINUOUS
 10
108.4438345113
 20
174.0189509086
 11
111.0821324267
 21
174.0189509086
  0
LINE
  5
24C
100
AcDbEntity
  8
KONSTRUKTIONSELEMENTE
100
AcDbLine
 62
7
  6
CONTINUOUS
 10
138.0408558335
 20
174.0190862377
 11
138.806813189
 21
174.0190862377
  0
LINE
  5
24D
100
AcDbEntity
  8
KONSTRUKTIONSELEMENTE
100
AcDbLine
 62
7
  6
CONTINUOUS
 10
138.1259622064
 20
174.1929937198
 11
138.7217068162
 21
174.1929937198
  0
LINE
  5
24E
100
AcDbEntity
  8
KONSTRUKTIONSELEMENTE
100
AcDbLine
 62
7
  6
CONTINUOUS
 10
130.7038345113
 20
174.5209780396
 11
134.7038345113
 21
174.5209780396
  0
LINE
  5
24F
100
AcDbEntity
  8
KONSTRUKTIONSELEMENTE
100
AcDbLine
 62
7
  6
CONTINUOUS
 10
115.7800046125
 20
174.7366697155
 11
116.0353239694
 21
174.7366697155
  0
LINE
  5
250
100
AcDbEntity
  8
KONSTRUKTIONSELEMENTE
100
AcDbLine
 62
7
  6
CONTINUOUS
 10
108.4438345113
 20
174.7632397877
 11
111.0821324267
 21
174.7632397877
  0
LINE
  5
251
100
AcDbEntity
  8
KONSTRUKTIONSELEMENTE
100
AcDbLine
 62
7
  6
CONTINUOUS
 10
106.8938345113
 20
174.7659934679
 11
108.4438345113
 21
174.7659934679
  0
LINE
  5
252
100
AcDbEntity
  8
KONSTRUKTIONSELEMENTE
100
AcDbLine
 62
7
  6
CONTINUOUS
 10
112.4438345113
 20
174.7659934679
 11
114.8438345113
 21
174.7659934679
  0
LINE
  5
253
100
AcDbEntity
  8
KONSTRUKTIONSELEMENTE
100
AcDbLine
 62
7
  6
CONTINUOUS
 10
118.8438345113
 20
174.7659934679
 11
120.8938345113
 21
174.7659934679
  0
LINE
  5
254
100
AcDbEntity
  8
KONSTRUKTIONSELEMENTE
100
AcDbLine
 62
7
  6
CONTINUOUS
 10
128.8938345113
 20
174.7659934679
 11
130.7038345113
 21
174.7659934679
  0
LINE
  5
255
100
AcDbEntity
  8
KONSTRUKTIONSELEMENTE
100
AcDbLine
 62
7
  6
CONTINUOUS
 10
134.7038345113
 20
174.7659934679
 11
136.4238345113
 21
174.7659934679
  0
LINE
  5
256
100
AcDbEntity
  8
KONSTRUKTIONSELEMENTE
100
AcDbLine
 62
7
  6
CONTINUOUS
 10
140.4238345113
 20
174.7659934679
 11
142.8938345113
 21
174.7659934679
  0
LINE
  5
257
100
AcDbEntity
  8
KONSTRUKTIONSELEMENTE
100
AcDbLine
 62
7
  6
CONTINUOUS
 10
115.7800046125
 20
174.8905265363
 11
116.1204303422
 21
174.8905265363
  0
LINE
  5
258
100
AcDbEntity
  8
KONSTRUKTIONSELEMENTE
100
AcDbLine
 62
7
  6
CONTINUOUS
 10
108.4438345113
 20
174.9148808824
 11
111.0821324267
 21
174.9148808824
  0
LINE
  5
259
100
AcDbEntity
  8
KONSTRUKTIONSELEMENTE
100
AcDbLine
 62
7
  6
CONTINUOUS
 10
138.1259622064
 20
174.9389605088
 11
138.7217068162
 21
174.9389605088
  0
LINE
  5
25A
100
AcDbEntity
  8
KONSTRUKTIONSELEMENTE
100
AcDbLine
 62
7
  6
CONTINUOUS
 10
138.0408558335
 20
175.053476495
 11
138.806813189
 21
175.053476495
  0
LINE
  5
25B
100
AcDbEntity
  8
KONSTRUKTIONSELEMENTE
100
AcDbLine
 62
7
  6
CONTINUOUS
 10
108.4438345113
 20
175.0966927281
 11
112.4438345113
 21
175.0966927281
  0
LINE
  5
25C
100
AcDbEntity
  8
KONSTRUKTIONSELEMENTE
100
AcDbLine
 62
7
  6
CONTINUOUS
 10
108.9544727483
 20
175.2181009972
 11
111.9331962147
 21
175.2181009972
  0
LINE
  5
25D
100
AcDbEntity
  8
KONSTRUKTIONSELEMENTE
100
AcDbLine
 62
7
  6
CONTINUOUS
 10
138.0408558335
 20
175.2181735305
 11
138.806813189
 21
175.2181735305
  0
LINE
  5
25E
100
AcDbEntity
  8
KONSTRUKTIONSELEMENTE
100
AcDbLine
 62
7
  6
CONTINUOUS
 10
103.8938345113
 20
175.2659934679
 11
106.8938345113
 21
175.2659934679
  0
LINE
  5
25F
100
AcDbEntity
  8
KONSTRUKTIONSELEMENTE
100
AcDbLine
 62
7
  6
CONTINUOUS
 10
120.8938345113
 20
175.2659934679
 11
128.8938345113
 21
175.2659934679
  0
LINE
  5
260
100
AcDbEntity
  8
KONSTRUKTIONSELEMENTE
100
AcDbLine
 62
7
  6
CONTINUOUS
 10
142.8938345113
 20
175.2659934679
 11
145.8938345113
 21
175.2659934679
  0
LINE
  5
261
100
AcDbEntity
  8
KONSTRUKTIONSELEMENTE
100
AcDbLine
 62
7
  6
CONTINUOUS
 10
138.1259622064
 20
175.3097325875
 11
138.7217068162
 21
175.3097325875
  0
LINE
  5
262
100
AcDbEntity
  8
KONSTRUKTIONSELEMENTE
100
AcDbLine
 62
7
  6
CONTINUOUS
 10
130.7038345113
 20
175.5325023492
 11
134.7038345113
 21
175.5325023492
  0
LINE
  5
263
100
AcDbEntity
  8
KONSTRUKTIONSELEMENTE
100
AcDbLine
 62
7
  6
CONTINUOUS
 10
130.7038345113
 20
175.600810083
 11
134.1931962147
 21
175.600810083
  0
LINE
  5
264
100
AcDbEntity
  8
KONSTRUKTIONSELEMENTE
100
AcDbLine
 62
7
  6
CONTINUOUS
 10
109.805536715
 20
175.621383008
 11
111.0821324267
 21
175.621383008
  0
LINE
  5
265
100
AcDbEntity
  8
KONSTRUKTIONSELEMENTE
100
AcDbLine
 62
7
  6
CONTINUOUS
 10
138.1259622064
 20
175.6490778682
 11
138.7217068162
 21
175.6490778682
  0
LINE
  5
266
100
AcDbEntity
  8
KONSTRUKTIONSELEMENTE
100
AcDbLine
 62
7
  6
CONTINUOUS
 10
109.805536715
 20
175.6737515861
 11
111.0821324267
 21
175.6737515861
  0
LINE
  5
267
100
AcDbEntity
  8
KONSTRUKTIONSELEMENTE
100
AcDbLine
 62
7
  6
CONTINUOUS
 10
138.0408558335
 20
175.6886129717
 11
138.806813189
 21
175.6886129717
  0
LINE
  5
268
100
AcDbEntity
  8
KONSTRUKTIONSELEMENTE
100
AcDbLine
 62
7
  6
CONTINUOUS
 10
138.0408558335
 20
175.7349043432
 11
138.806813189
 21
175.7349043432
  0
LINE
  5
269
100
AcDbEntity
  8
KONSTRUKTIONSELEMENTE
100
AcDbLine
 62
7
  6
CONTINUOUS
 10
138.1259622064
 20
175.7532847672
 11
138.7217068162
 21
175.7532847672
  0
LINE
  5
26A
100
AcDbEntity
  8
KONSTRUKTIONSELEMENTE
100
AcDbLine
 62
7
  6
CONTINUOUS
 10
132.065536715
 20
175.7600226111
 11
133.3421324267
 21
175.7600226111
  0
LINE
  5
26B
100
AcDbEntity
  8
KONSTRUKTIONSELEMENTE
100
AcDbLine
 62
7
  6
CONTINUOUS
 10
134.1931962147
 20
175.7653981108
 11
134.7038345113
 21
175.7653981108
  0
LINE
  5
26C
100
AcDbEntity
  8
KONSTRUKTIONSELEMENTE
100
AcDbLine
 62
7
  6
CONTINUOUS
 10
136.7642600026
 20
175.7659934679
 11
136.9196717305
 21
175.7659934679
  0
LINE
  5
26D
100
AcDbEntity
  8
0
100
AcDbLine
 62
7
  6
CONTINUOUS
 10
158.5138345113
 20
177.3794144929
 11
161.0369924753
 21
177.3794144929
  0
LINE
  5
26E
100
AcDbEntity
  8
0
100
AcDbLine
 62
7
  6
CONTINUOUS
 10
162.0435714503
 20
177.3794144929
 11
162.9427820013
 21
177.3794144929
  0
LINE
  5
26F
100
AcDbEntity
  8
BEZUGSACHSEN
100
AcDbLine
 62
7
  6
CONTINUOUS
 10
147.3938352113
 20
177.5159934679
 11
140.4181453448
 21
177.5159934679
  0
LINE
  5
270
100
AcDbEntity
  8
RUNDUNGEN
100
AcDbLine
 62
7
  6
CONTINUOUS
 10
102.3938338113
 20
177.5159934679
 11
109.3695236778
 21
177.5159934679
  0
LINE
  5
271
100
AcDbEntity
  8
KONSTRUKTIONSELEMENTE
100
AcDbLine
 62
7
  6
CONTINUOUS
 10
136.9196714215
 20
175.765993461
 11
136.9344727483
 21
175.7658713518
  0
LINE
  5
272
100
AcDbEntity
  8
KONSTRUKTIONSELEMENTE
100
AcDbLine
 62
7
  6
CONTINUOUS
 10
108.4438345113
 20
175.5076775979
 11
108.4438345113
 21
170.260566231
  0
LINE
  5
273
100
AcDbEntity
  8
KONSTRUKTIONSELEMENTE
100
AcDbLine
 62
7
  6
CONTINUOUS
 10
108.8693663755
 20
172.8916295942
 11
108.8693663755
 21
171.8841413878
  0
LINE
  5
274
100
AcDbEntity
  8
KONSTRUKTIONSELEMENTE
100
AcDbLine
 62
7
  6
CONTINUOUS
 10
108.9544727483
 20
175.5076775979
 11
108.9544727483
 21
175.2181009972
  0
LINE
  5
275
100
AcDbEntity
  8
KONSTRUKTIONSELEMENTE
100
AcDbLine
 62
7
  6
CONTINUOUS
 10
108.9544727483
 20
173.0335597355
 11
108.9544727483
 21
171.8791006216
  0
LINE
  5
276
100
AcDbEntity
  8
KONSTRUKTIONSELEMENTE
100
AcDbLine
 62
7
  6
CONTINUOUS
 10
109.0395791211
 20
175.5571469634
 11
109.0395791211
 21
175.2181009972
  0
LINE
  5
277
100
AcDbEntity
  8
KONSTRUKTIONSELEMENTE
100
AcDbLine
 62
7
  6
CONTINUOUS
 10
109.124685494
 20
173.1257455643
 11
109.124685494
 21
171.9772963318
  0
LINE
  5
278
100
AcDbEntity
  8
KONSTRUKTIONSELEMENTE
100
AcDbLine
 62
7
  6
CONTINUOUS
 10
109.2097918668
 20
175.5907546574
 11
109.2097918668
 21
175.2181009972
  0
LINE
  5
279
100
AcDbEntity
  8
KONSTRUKTIONSELEMENTE
100
AcDbLine
 62
7
  6
CONTINUOUS
 10
109.3800046125
 20
173.1711188605
 11
109.3800046125
 21
172.025603996
  0
LINE
  5
27A
100
AcDbEntity
  8
KONSTRUKTIONSELEMENTE
100
AcDbLine
 62
7
  6
CONTINUOUS
 10
109.4651112237
 20
175.6115038169
 11
109.4651112237
 21
175.2181009972
  0
LINE
  5
27B
100
AcDbEntity
  8
KONSTRUKTIONSELEMENTE
100
AcDbLine
 62
7
  6
CONTINUOUS
 10
109.6353239694
 20
173.1711188605
 11
109.6353239694
 21
172.025603996
  0
LINE
  5
27C
100
AcDbEntity
  8
KONSTRUKTIONSELEMENTE
100
AcDbLine
 62
7
  6
CONTINUOUS
 10
109.805536715
 20
175.621383008
 11
109.805536715
 21
175.2181009972
  0
LINE
  5
27D
100
AcDbEntity
  8
KONSTRUKTIONSELEMENTE
100
AcDbLine
 62
7
  6
CONTINUOUS
 10
109.8906430879
 20
173.1257455643
 11
109.8906430879
 21
171.9772963318
  0
LINE
  5
27E
100
AcDbEntity
  8
KONSTRUKTIONSELEMENTE
100
AcDbLine
 62
7
  6
CONTINUOUS
 10
110.0608558335
 20
173.0335597355
 11
110.0608558335
 21
171.8791006216
  0
LINE
  5
27F
100
AcDbEntity
  8
KONSTRUKTIONSELEMENTE
100
AcDbLine
 62
7
  6
CONTINUOUS
 10
110.1459622064
 20
172.8916295942
 11
110.1459622064
 21
171.8841413878
  0
LINE
  5
280
100
AcDbEntity
  8
KONSTRUKTIONSELEMENTE
100
AcDbLine
 62
7
  6
CONTINUOUS
 10
110.6566004434
 20
172.7945317049
 11
110.6566004434
 21
171.8841413878
  0
LINE
  5
281
100
AcDbEntity
  8
KONSTRUKTIONSELEMENTE
100
AcDbLine
 62
7
  6
CONTINUOUS
 10
111.0821324267
 20
175.621383008
 11
111.0821324267
 21
175.2181009972
  0
LINE
  5
282
100
AcDbEntity
  8
KONSTRUKTIONSELEMENTE
100
AcDbLine
 62
7
  6
CONTINUOUS
 10
111.0821324267
 20
174.7632397877
 11
111.0821324267
 21
174.0189509086
  0
LINE
  5
283
100
AcDbEntity
  8
KONSTRUKTIONSELEMENTE
100
AcDbLine
 62
7
  6
CONTINUOUS
 10
111.0821324267
 20
173.7964793453
 11
111.0821324267
 21
173.204146894
  0
LINE
  5
284
100
AcDbEntity
  8
KONSTRUKTIONSELEMENTE
100
AcDbLine
 62
7
  6
CONTINUOUS
 10
111.4225579181
 20
175.6115038169
 11
111.4225579181
 21
175.2181009972
  0
LINE
  5
285
100
AcDbEntity
  8
KONSTRUKTIONSELEMENTE
100
AcDbLine
 62
7
  6
CONTINUOUS
 10
111.4225579181
 20
174.7366697155
 11
111.4225579181
 21
174.0545579768
  0
LINE
  5
286
100
AcDbEntity
  8
KONSTRUKTIONSELEMENTE
100
AcDbLine
 62
7
  6
CONTINUOUS
 10
111.5076642909
 20
173.8346208553
 11
111.5076642909
 21
173.2909640278
  0
LINE
  5
287
100
AcDbEntity
  8
KONSTRUKTIONSELEMENTE
100
AcDbLine
 62
7
  6
CONTINUOUS
 10
111.6778770366
 20
175.5907546574
 11
111.6778770366
 21
175.2181009972
  0
LINE
  5
288
100
AcDbEntity
  8
KONSTRUKTIONSELEMENTE
100
AcDbLine
 62
7
  6
CONTINUOUS
 10
111.6778770366
 20
174.6824055992
 11
111.6778770366
 21
174.1245319346
  0
LINE
  5
289
100
AcDbEntity
  8
KONSTRUKTIONSELEMENTE
100
AcDbLine
 62
7
  6
CONTINUOUS
 10
111.8480898418
 20
175.5571469634
 11
111.8480898418
 21
175.2181009972
  0
LINE
  5
28A
100
AcDbEntity
  8
KONSTRUKTIONSELEMENTE
100
AcDbLine
 62
7
  6
CONTINUOUS
 10
111.8480898418
 20
174.5981763791
 11
111.8480898418
 21
174.226423634
  0
LINE
  5
28B
100
AcDbEntity
  8
KONSTRUKTIONSELEMENTE
100
AcDbLine
 62
7
  6
CONTINUOUS
 10
111.8480898418
 20
173.9096210675
 11
111.8480898418
 21
173.3589657552
  0
LINE
  5
28C
100
AcDbEntity
  8
KONSTRUKTIONSELEMENTE
100
AcDbLine
 62
7
  6
CONTINUOUS
 10
111.9331962147
 20
175.5076775979
 11
111.9331962147
 21
175.2181009972
  0
LINE
  5
28D
100
AcDbEntity
  8
KONSTRUKTIONSELEMENTE
100
AcDbLine
 62
7
  6
CONTINUOUS
 10
111.9331962147
 20
174.4805159371
 11
111.9331962147
 21
174.3566368857
  0
LINE
  5
28E
100
AcDbEntity
  8
0
100
AcDbLine
 62
7
  6
CONTINUOUS
 10
164.5533083613
 20
178.3859934679
 11
163.5467293863
 21
178.3859934679
  0
LINE
  5
28F
100
AcDbEntity
  8
0
100
AcDbLine
 62
7
  6
CONTINUOUS
 10
162.9427820013
 20
178.3859934679
 11
158.5138345113
 21
178.3859934679
  0
LINE
  5
290
100
AcDbEntity
  8
KONSTRUKTIONSELEMENTE
100
AcDbLine
 62
7
  6
CONTINUOUS
 10
112.188515363
 20
174.0545579768
 11
112.188515363
 21
173.4258276894
  0
LINE
  5
291
100
AcDbEntity
  8
KONSTRUKTIONSELEMENTE
100
AcDbLine
 62
7
  6
CONTINUOUS
 10
112.358728131
 20
174.1928660594
 11
112.358728131
 21
173.4590183828
  0
LINE
  5
292
100
AcDbEntity
  8
KONSTRUKTIONSELEMENTE
100
AcDbLine
 62
7
  6
CONTINUOUS
 10
112.4438345113
 20
175.5076775979
 11
112.4438345113
 21
172.025603996
  0
LINE
  5
293
100
AcDbEntity
  8
KONSTRUKTIONSELEMENTE
100
AcDbLine
 62
7
  6
CONTINUOUS
 10
112.4438345113
 20
171.8841413878
 11
112.4438345113
 21
170.2606527403
  0
LINE
  5
294
100
AcDbEntity
  8
KONSTRUKTIONSELEMENTE
100
AcDbLine
 62
7
  6
CONTINUOUS
 10
114.8438345113
 20
175.7199639885
 11
114.8438345113
 21
172.6076297655
  0
LINE
  5
295
100
AcDbEntity
  8
KONSTRUKTIONSELEMENTE
100
AcDbLine
 62
7
  6
CONTINUOUS
 10
114.8438345113
 20
171.8841413878
 11
114.8438345113
 21
170.260566231
  0
LINE
  5
296
100
AcDbEntity
  8
KONSTRUKTIONSELEMENTE
100
AcDbLine
 62
7
  6
CONTINUOUS
 10
115.2693663755
 20
174.5693382116
 11
115.2693663755
 21
173.9464845556
  0
LINE
  5
297
100
AcDbEntity
  8
KONSTRUKTIONSELEMENTE
100
AcDbLine
 62
7
  6
CONTINUOUS
 10
115.3544727483
 20
174.654708408
 11
115.3544727483
 21
173.9464845556
  0
LINE
  5
298
100
AcDbEntity
  8
KONSTRUKTIONSELEMENTE
100
AcDbLine
 62
7
  6
CONTINUOUS
 10
115.524685494
 20
174.7097254274
 11
115.524685494
 21
173.9464845556
  0
LINE
  5
299
100
AcDbEntity
  8
KONSTRUKTIONSELEMENTE
100
AcDbLine
 62
7
  6
CONTINUOUS
 10
115.7800046125
 20
174.7366697155
 11
115.7800046125
 21
173.9464845556
  0
LINE
  5
29A
100
AcDbEntity
  8
KONSTRUKTIONSELEMENTE
100
AcDbLine
 62
7
  6
CONTINUOUS
 10
116.0353239694
 20
174.7366697155
 11
116.0353239694
 21
173.9464845556
  0
LINE
  5
29B
100
AcDbEntity
  8
KONSTRUKTIONSELEMENTE
100
AcDbLine
 62
7
  6
CONTINUOUS
 10
116.2906430879
 20
174.7097254274
 11
116.2906430879
 21
173.9464845556
  0
LINE
  5
29C
100
AcDbEntity
  8
KONSTRUKTIONSELEMENTE
100
AcDbLine
 62
7
  6
CONTINUOUS
 10
116.4608558335
 20
174.654708408
 11
116.4608558335
 21
173.9464845556
  0
LINE
  5
29D
100
AcDbEntity
  8
KONSTRUKTIONSELEMENTE
100
AcDbLine
 62
7
  6
CONTINUOUS
 10
116.5459622064
 20
174.5693382116
 11
116.5459622064
 21
173.9464845556
  0
LINE
  5
29E
100
AcDbEntity
  8
KONSTRUKTIONSELEMENTE
100
AcDbLine
 62
7
  6
CONTINUOUS
 10
117.0566004434
 20
174.5401164992
 11
117.0566004434
 21
173.9464845556
  0
LINE
  5
29F
100
AcDbEntity
  8
KONSTRUKTIONSELEMENTE
100
AcDbLine
 62
7
  6
CONTINUOUS
 10
118.3331962147
 20
173.3909255564
 11
118.3331962147
 21
171.8841413878
  0
LINE
  5
2A0
100
AcDbEntity
  8
KONSTRUKTIONSELEMENTE
100
AcDbLine
 62
7
  6
CONTINUOUS
 10
118.8438345113
 20
175.6658437083
 11
118.8438345113
 21
174.2106082508
  0
LINE
  5
2A1
100
AcDbEntity
  8
KONSTRUKTIONSELEMENTE
100
AcDbLine
 62
7
  6
CONTINUOUS
 10
118.8438345113
 20
173.9464845556
 11
118.8438345113
 21
170.2610405862
  0
LINE
  5
2A2
100
AcDbEntity
  8
KONSTRUKTIONSELEMENTE
100
AcDbLine
 62
7
  6
CONTINUOUS
 10
120.8938345113
 20
175.2659934679
 11
120.8938345113
 21
170.0901144134
  0
LINE
  5
2A3
100
AcDbEntity
  8
KONSTRUKTIONSELEMENTE
100
AcDbLine
 62
4
  6
CONTINUOUS
 10
124.8938345113
 20
175.2659934679
 11
124.8938345113
 21
168.7033585847
  0
LINE
  5
2A4
100
AcDbEntity
  8
T_STARTBEZUEGE
100
AcDbLine
 62
7
  6
CENTER
 10
124.8938345113
 20
143.0159934679
 11
124.8938345113
 21
248.5159941679
  0
LINE
  5
2A5
100
AcDbEntity
  8
KONSTRUKTIONSELEMENTE
100
AcDbLine
 62
7
  6
CONTINUOUS
 10
128.8938345113
 20
175.2659934679
 11
128.8938345113
 21
170.0901144134
  0
LINE
  5
2A6
100
AcDbEntity
  8
KONSTRUKTIONSELEMENTE
100
AcDbLine
 62
7
  6
CONTINUOUS
 10
130.7038345113
 20
175.6871138867
 11
130.7038345113
 21
174.5209780396
  0
LINE
  5
2A7
100
AcDbEntity
  8
KONSTRUKTIONSELEMENTE
100
AcDbLine
 62
7
  6
CONTINUOUS
 10
130.7889408841
 20
175.7188282868
 11
130.7889408841
 21
175.600810083
  0
LINE
  5
2A8
100
AcDbEntity
  8
KONSTRUKTIONSELEMENTE
100
AcDbLine
 62
7
  6
CONTINUOUS
 10
130.9591536298
 20
175.7383454583
 11
130.9591536298
 21
175.600810083
  0
LINE
  5
2A9
100
AcDbEntity
  8
KONSTRUKTIONSELEMENTE
100
AcDbLine
 62
7
  6
CONTINUOUS
 10
131.2995791211
 20
175.7526743524
 11
131.2995791211
 21
175.600810083
  0
LINE
  5
2AA
100
AcDbEntity
  8
KONSTRUKTIONSELEMENTE
100
AcDbLine
 62
7
  6
CONTINUOUS
 10
131.6400046125
 20
175.7578965944
 11
131.6400046125
 21
175.600810083
  0
LINE
  5
2AB
100
AcDbEntity
  8
KONSTRUKTIONSELEMENTE
100
AcDbLine
 62
7
  6
CONTINUOUS
 10
132.065536715
 20
175.7600226111
 11
132.065536715
 21
175.600810083
  0
LINE
  5
2AC
100
AcDbEntity
  8
KONSTRUKTIONSELEMENTE
100
AcDbLine
 62
7
  6
CONTINUOUS
 10
133.3421324267
 20
175.7600226111
 11
133.3421324267
 21
175.600810083
  0
LINE
  5
2AD
100
AcDbEntity
  8
KONSTRUKTIONSELEMENTE
100
AcDbLine
 62
7
  6
CONTINUOUS
 10
133.7676642909
 20
175.7578965944
 11
133.7676642909
 21
175.600810083
  0
LINE
  5
2AE
100
AcDbEntity
  8
KONSTRUKTIONSELEMENTE
100
AcDbLine
 62
7
  6
CONTINUOUS
 10
134.1080898418
 20
175.7526743524
 11
134.1080898418
 21
175.600810083
  0
LINE
  5
2AF
100
AcDbEntity
  8
KONSTRUKTIONSELEMENTE
100
AcDbLine
 62
7
  6
CONTINUOUS
 10
134.1931962147
 20
175.7653981108
 11
134.1931962147
 21
175.600810083
  0
LINE
  5
2B0
100
AcDbEntity
  8
KONSTRUKTIONSELEMENTE
100
AcDbLine
 62
7
  6
CONTINUOUS
 10
134.7038345113
 20
175.7653981108
 11
134.7038345113
 21
174.5209780396
  0
LINE
  5
2B1
100
AcDbEntity
  8
KONSTRUKTIONSELEMENTE
100
AcDbLine
 62
7
  6
CONTINUOUS
 10
136.4238345113
 20
175.7632380363
 11
136.4238345113
 21
173.5377878904
  0
LINE
  5
2B2
100
AcDbEntity
  8
KONSTRUKTIONSELEMENTE
100
AcDbLine
 62
7
  6
CONTINUOUS
 10
136.4238345113
 20
173.0337357928
 11
136.4238345113
 21
171.6764584029
  0
LINE
  5
2B3
100
AcDbEntity
  8
KONSTRUKTIONSELEMENTE
100
AcDbLine
 62
7
  6
CONTINUOUS
 10
136.5089408841
 20
175.7654289817
 11
136.5089408841
 21
175.5799255124
  0
LINE
  5
2B4
100
AcDbEntity
  8
KONSTRUKTIONSELEMENTE
100
AcDbLine
 62
7
  6
CONTINUOUS
 10
136.5089408841
 20
175.4234690258
 11
136.5089408841
 21
174.7633394028
  0
LINE
  5
2B5
100
AcDbEntity
  8
KONSTRUKTIONSELEMENTE
100
AcDbLine
 62
7
  6
CONTINUOUS
 10
136.5089408841
 20
174.4194777857
 11
136.5089408841
 21
173.3490469487
  0
LINE
  5
2B6
100
AcDbEntity
  8
KONSTRUKTIONSELEMENTE
100
AcDbLine
 62
7
  6
CONTINUOUS
 10
136.5089408841
 20
172.5944401648
 11
136.5089408841
 21
171.4104374169
  0
LINE
  5
2B7
100
AcDbEntity
  8
KONSTRUKTIONSELEMENTE
100
AcDbLine
 62
7
  6
CONTINUOUS
 10
136.7642600026
 20
175.7583708473
 11
136.7642600026
 21
175.6309681372
  0
LINE
  5
2B8
100
AcDbEntity
  8
KONSTRUKTIONSELEMENTE
100
AcDbLine
 62
7
  6
CONTINUOUS
 10
136.7642600026
 20
175.343938716
 11
136.7642600026
 21
174.8906193203
  0
LINE
  5
2B9
100
AcDbEntity
  8
KONSTRUKTIONSELEMENTE
100
AcDbLine
 62
7
  6
CONTINUOUS
 10
136.7642600026
 20
174.2597019731
 11
136.7642600026
 21
173.4757720095
  0
LINE
  5
2BA
100
AcDbEntity
  8
KONSTRUKTIONSELEMENTE
100
AcDbLine
 62
7
  6
CONTINUOUS
 10
136.7642600026
 20
172.3323269403
 11
136.7642600026
 21
171.1299314758
  0
LINE
  5
2BB
100
AcDbEntity
  8
KONSTRUKTIONSELEMENTE
100
AcDbLine
 62
7
  6
CONTINUOUS
 10
136.8493663755
 20
173.0337357928
 11
136.8493663755
 21
172.8435145418
  0
LINE
  5
2BC
100
AcDbEntity
  8
KONSTRUKTIONSELEMENTE
100
AcDbLine
 62
7
  6
CONTINUOUS
 10
136.9344727483
 20
175.5687244195
 11
136.9344727483
 21
175.4383553948
  0
LINE
  5
2BD
100
AcDbEntity
  8
KONSTRUKTIONSELEMENTE
100
AcDbLine
 62
7
  6
CONTINUOUS
 10
136.9344727483
 20
174.7367708939
 11
136.9344727483
 21
174.4502491245
  0
LINE
  5
2BE
100
AcDbEntity
  8
KONSTRUKTIONSELEMENTE
100
AcDbLine
 62
7
  6
CONTINUOUS
 10
136.9344727483
 20
173.2161859471
 11
136.9344727483
 21
172.6452807706
  0
LINE
  5
2BF
100
AcDbEntity
  8
KONSTRUKTIONSELEMENTE
100
AcDbLine
 62
7
  6
CONTINUOUS
 10
137.0195791211
 20
175.7502563972
 11
137.0195791211
 21
175.6576399901
  0
LINE
  5
2C0
100
AcDbEntity
  8
KONSTRUKTIONSELEMENTE
100
AcDbLine
 62
7
  6
CONTINUOUS
 10
137.0195791211
 20
175.2921131962
 11
137.0195791211
 21
174.9625855332
  0
LINE
  5
2C1
100
AcDbEntity
  8
KONSTRUKTIONSELEMENTE
100
AcDbLine
 62
7
  6
CONTINUOUS
 10
137.0195791211
 20
174.1590319859
 11
137.0195791211
 21
173.5994098739
  0
LINE
  5
2C2
100
AcDbEntity
  8
KONSTRUKTIONSELEMENTE
100
AcDbLine
 62
7
  6
CONTINUOUS
 10
137.0195791211
 20
172.1685633065
 11
137.0195791211
 21
170.9543728627
  0
LINE
  5
2C3
100
AcDbEntity
  8
KONSTRUKTIONSELEMENTE
100
AcDbLine
 62
7
  6
CONTINUOUS
 10
137.104685494
 20
175.6013337349
 11
137.104685494
 21
175.3926790751
  0
LINE
  5
2C4
100
AcDbEntity
  8
KONSTRUKTIONSELEMENTE
100
AcDbLine
 62
7
  6
CONTINUOUS
 10
137.104685494
 20
174.8153598812
 11
137.104685494
 21
174.3567569701
  0
LINE
  5
2C5
100
AcDbEntity
  8
KONSTRUKTIONSELEMENTE
100
AcDbLine
 62
7
  6
CONTINUOUS
 10
137.1897918668
 20
173.3910872822
 11
137.1897918668
 21
172.4387723791
  0
LINE
  5
2C6
100
AcDbEntity
  8
KONSTRUKTIONSELEMENTE
100
AcDbLine
 62
7
  6
CONTINUOUS
 10
137.3600046125
 20
175.743228452
 11
137.3600046125
 21
175.6737809129
  0
LINE
  5
2C7
100
AcDbEntity
  8
KONSTRUKTIONSELEMENTE
100
AcDbLine
 62
7
  6
CONTINUOUS
 10
137.3600046125
 20
175.255837627
 11
137.3600046125
 21
175.0087503865
  0
LINE
  5
2C8
100
AcDbEntity
  8
KONSTRUKTIONSELEMENTE
100
AcDbLine
 62
7
  6
CONTINUOUS
 10
137.3600046125
 20
174.0898831848
 11
137.3600046125
 21
173.6637015118
  0
LINE
  5
2C9
100
AcDbEntity
  8
KONSTRUKTIONSELEMENTE
100
AcDbLine
 62
7
  6
CONTINUOUS
 10
137.4451112237
 20
173.4757720095
 11
137.4451112237
 21
172.349565892
  0
LINE
  5
2CA
100
AcDbEntity
  8
KONSTRUKTIONSELEMENTE
100
AcDbLine
 62
7
  6
CONTINUOUS
 10
137.4451112237
 20
172.0565985794
 11
137.4451112237
 21
170.8342049053
  0
LINE
  5
2CB
100
AcDbEntity
  8
KONSTRUKTIONSELEMENTE
100
AcDbLine
 62
7
  6
CONTINUOUS
 10
137.6153239694
 20
175.6401873194
 11
137.6153239694
 21
175.3270075105
  0
LINE
  5
2CC
100
AcDbEntity
  8
KONSTRUKTIONSELEMENTE
100
AcDbLine
 62
7
  6
CONTINUOUS
 10
137.6153239694
 20
175.7392284783
 11
137.6153239694
 21
175.6813603627
  0
LINE
  5
2CD
100
AcDbEntity
  8
KONSTRUKTIONSELEMENTE
100
AcDbLine
 62
7
  6
CONTINUOUS
 10
137.6153239694
 20
175.2371795519
 11
137.6153239694
 21
175.0312927598
  0
LINE
  5
2CE
100
AcDbEntity
  8
KONSTRUKTIONSELEMENTE
100
AcDbLine
 62
7
  6
CONTINUOUS
 10
137.6153239694
 20
174.914972147
 11
137.6153239694
 21
174.2265495733
  0
LINE
  5
2CF
100
AcDbEntity
  8
KONSTRUKTIONSELEMENTE
100
AcDbLine
 62
7
  6
CONTINUOUS
 10
137.6153239694
 20
174.0546918377
 11
137.6153239694
 21
173.6796092867
  0
LINE
  5
2D0
100
AcDbEntity
  8
KONSTRUKTIONSELEMENTE
100
AcDbLine
 62
7
  6
CONTINUOUS
 10
137.6153239694
 20
173.4757720095
 11
137.6153239694
 21
172.349565892
  0
LINE
  5
2D1
100
AcDbEntity
  8
KONSTRUKTIONSELEMENTE
100
AcDbLine
 62
7
  6
CONTINUOUS
 10
137.7004303422
 20
172.0565985794
 11
137.7004303422
 21
170.8342049053
  0
LINE
  5
2D2
100
AcDbEntity
  8
KONSTRUKTIONSELEMENTE
100
AcDbLine
 62
7
  6
CONTINUOUS
 10
137.8706430879
 20
173.3910872822
 11
137.8706430879
 21
172.4387723791
  0
LINE
  5
2D3
100
AcDbEntity
  8
KONSTRUKTIONSELEMENTE
100
AcDbLine
 62
7
  6
CONTINUOUS
 10
138.0408558335
 20
175.7349043432
 11
138.0408558335
 21
175.6886129717
  0
LINE
  5
2D4
100
AcDbEntity
  8
KONSTRUKTIONSELEMENTE
100
AcDbLine
 62
7
  6
CONTINUOUS
 10
138.0408558335
 20
175.2181735305
 11
138.0408558335
 21
175.053476495
  0
LINE
  5
2D5
100
AcDbEntity
  8
KONSTRUKTIONSELEMENTE
100
AcDbLine
 62
7
  6
CONTINUOUS
 10
138.0408558335
 20
174.0190862377
 11
138.0408558335
 21
173.5994098739
  0
LINE
  5
2D6
100
AcDbEntity
  8
KONSTRUKTIONSELEMENTE
100
AcDbLine
 62
7
  6
CONTINUOUS
 10
138.0408558335
 20
172.1685633065
 11
138.0408558335
 21
170.9543728627
  0
LINE
  5
2D7
100
AcDbEntity
  8
KONSTRUKTIONSELEMENTE
100
AcDbLine
 62
7
  6
CONTINUOUS
 10
138.1259622064
 20
175.6490778682
 11
138.1259622064
 21
175.3097325875
  0
LINE
  5
2D8
100
AcDbEntity
  8
KONSTRUKTIONSELEMENTE
100
AcDbLine
 62
7
  6
CONTINUOUS
 10
138.1259622064
 20
174.9389605088
 11
138.1259622064
 21
174.1929937198
  0
LINE
  5
2D9
100
AcDbEntity
  8
KONSTRUKTIONSELEMENTE
100
AcDbLine
 62
7
  6
CONTINUOUS
 10
138.1259622064
 20
173.2161859471
 11
138.1259622064
 21
172.6452807706
  0
LINE
  5
2DA
100
AcDbEntity
  8
KONSTRUKTIONSELEMENTE
100
AcDbLine
 62
7
  6
CONTINUOUS
 10
138.2110685792
 20
173.0337357928
 11
138.2110685792
 21
172.8435145418
  0
LINE
  5
2DB
100
AcDbEntity
  8
KONSTRUKTIONSELEMENTE
100
AcDbLine
 62
7
  6
CONTINUOUS
 10
138.296174952
 20
172.3323269403
 11
138.296174952
 21
171.1299314758
  0
LINE
  5
2DC
100
AcDbEntity
  8
KONSTRUKTIONSELEMENTE
100
AcDbLine
 62
7
  6
CONTINUOUS
 10
138.3812813249
 20
172.4387723791
 11
138.3812813249
 21
171.2439171736
  0
LINE
  5
2DD
100
AcDbEntity
  8
KONSTRUKTIONSELEMENTE
100
AcDbLine
 62
7
  6
CONTINUOUS
 10
138.4663876977
 20
172.3323269403
 11
138.4663876977
 21
171.1299314758
  0
LINE
  5
2DE
100
AcDbEntity
  8
KONSTRUKTIONSELEMENTE
100
AcDbLine
 62
7
  6
CONTINUOUS
 10
138.5514940705
 20
173.0337357928
 11
138.5514940705
 21
172.8435145418
  0
LINE
  5
2DF
100
AcDbEntity
  8
KONSTRUKTIONSELEMENTE
100
AcDbLine
 62
7
  6
CONTINUOUS
 10
138.6366004434
 20
173.2161859471
 11
138.6366004434
 21
172.6452807706
  0
LINE
  5
2E0
100
AcDbEntity
  8
KONSTRUKTIONSELEMENTE
100
AcDbLine
 62
7
  6
CONTINUOUS
 10
138.7217068162
 20
175.6490778682
 11
138.7217068162
 21
175.3097325875
  0
LINE
  5
2E1
100
AcDbEntity
  8
KONSTRUKTIONSELEMENTE
100
AcDbLine
 62
7
  6
CONTINUOUS
 10
138.7217068162
 20
174.9389605088
 11
138.7217068162
 21
174.1929937198
  0
LINE
  5
2E2
100
AcDbEntity
  8
KONSTRUKTIONSELEMENTE
100
AcDbLine
 62
7
  6
CONTINUOUS
 10
138.7217068162
 20
172.1128633073
 11
138.7217068162
 21
170.8946062502
  0
LINE
  5
2E3
100
AcDbEntity
  8
KONSTRUKTIONSELEMENTE
100
AcDbLine
 62
7
  6
CONTINUOUS
 10
138.806813189
 20
175.7349043432
 11
138.806813189
 21
175.6886129717
  0
LINE
  5
2E4
100
AcDbEntity
  8
KONSTRUKTIONSELEMENTE
100
AcDbLine
 62
7
  6
CONTINUOUS
 10
138.806813189
 20
175.2181735305
 11
138.806813189
 21
175.053476495
  0
LINE
  5
2E5
100
AcDbEntity
  8
KONSTRUKTIONSELEMENTE
100
AcDbLine
 62
7
  6
CONTINUOUS
 10
138.806813189
 20
174.0190862377
 11
138.806813189
 21
173.6557259957
  0
LINE
  5
2E6
100
AcDbEntity
  8
KONSTRUKTIONSELEMENTE
100
AcDbLine
 62
7
  6
CONTINUOUS
 10
138.806813189
 20
173.3910872822
 11
138.806813189
 21
172.4387723791
  0
LINE
  5
2E7
100
AcDbEntity
  8
KONSTRUKTIONSELEMENTE
100
AcDbLine
 62
7
  6
CONTINUOUS
 10
139.1472387996
 20
173.5174335462
 11
139.1472387996
 21
172.3938158713
  0
LINE
  5
2E8
100
AcDbEntity
  8
KONSTRUKTIONSELEMENTE
100
AcDbLine
 62
7
  6
CONTINUOUS
 10
139.1472387996
 20
171.9997637527
 11
139.1472387996
 21
170.7731618658
  0
LINE
  5
2E9
100
AcDbEntity
  8
KONSTRUKTIONSELEMENTE
100
AcDbLine
 62
7
  6
CONTINUOUS
 10
139.2323451724
 20
175.7392284783
 11
139.2323451724
 21
175.6813603627
  0
LINE
  5
2EA
100
AcDbEntity
  8
KONSTRUKTIONSELEMENTE
100
AcDbLine
 62
7
  6
CONTINUOUS
 10
139.2323451724
 20
175.6401873194
 11
139.2323451724
 21
175.3270075105
  0
LINE
  5
2EB
100
AcDbEntity
  8
KONSTRUKTIONSELEMENTE
100
AcDbLine
 62
7
  6
CONTINUOUS
 10
139.2323451724
 20
175.2371795519
 11
139.2323451724
 21
175.0312927598
  0
LINE
  5
2EC
100
AcDbEntity
  8
KONSTRUKTIONSELEMENTE
100
AcDbLine
 62
7
  6
CONTINUOUS
 10
139.2323451724
 20
174.914972147
 11
139.2323451724
 21
174.2265495733
  0
LINE
  5
2ED
100
AcDbEntity
  8
KONSTRUKTIONSELEMENTE
100
AcDbLine
 62
7
  6
CONTINUOUS
 10
139.2323451724
 20
174.0546918377
 11
139.2323451724
 21
173.7190494808
  0
LINE
  5
2EE
100
AcDbEntity
  8
KONSTRUKTIONSELEMENTE
100
AcDbLine
 62
7
  6
CONTINUOUS
 10
139.4025579181
 20
173.5174335462
 11
139.4025579181
 21
172.3938158713
  0
LINE
  5
2EF
100
AcDbEntity
  8
KONSTRUKTIONSELEMENTE
100
AcDbLine
 62
7
  6
CONTINUOUS
 10
139.4025579181
 20
171.9997637527
 11
139.4025579181
 21
170.7731618658
  0
LINE
  5
2F0
100
AcDbEntity
  8
KONSTRUKTIONSELEMENTE
100
AcDbLine
 62
7
  6
CONTINUOUS
 10
139.4876642909
 20
175.743228452
 11
139.4876642909
 21
175.6737809129
  0
LINE
  5
2F1
100
AcDbEntity
  8
KONSTRUKTIONSELEMENTE
100
AcDbLine
 62
7
  6
CONTINUOUS
 10
139.4876642909
 20
175.255837627
 11
139.4876642909
 21
175.0087503865
  0
LINE
  5
2F2
100
AcDbEntity
  8
KONSTRUKTIONSELEMENTE
100
AcDbLine
 62
7
  6
CONTINUOUS
 10
139.4876642909
 20
174.0898831848
 11
139.4876642909
 21
173.7033169704
  0
LINE
  5
2F3
100
AcDbEntity
  8
KONSTRUKTIONSELEMENTE
100
AcDbLine
 62
7
  6
CONTINUOUS
 10
139.742983469
 20
175.6013337349
 11
139.742983469
 21
175.3926790751
  0
LINE
  5
2F4
100
AcDbEntity
  8
KONSTRUKTIONSELEMENTE
100
AcDbLine
 62
7
  6
CONTINUOUS
 10
139.742983469
 20
174.8153598812
 11
139.742983469
 21
174.3567569701
  0
LINE
  5
2F5
100
AcDbEntity
  8
KONSTRUKTIONSELEMENTE
100
AcDbLine
 62
7
  6
CONTINUOUS
 10
139.742983469
 20
173.3910872822
 11
139.742983469
 21
172.4387723791
  0
LINE
  5
2F6
100
AcDbEntity
  8
KONSTRUKTIONSELEMENTE
100
AcDbLine
 62
7
  6
CONTINUOUS
 10
139.8280898418
 20
175.7502563972
 11
139.8280898418
 21
175.6576399901
  0
LINE
  5
2F7
100
AcDbEntity
  8
KONSTRUKTIONSELEMENTE
100
AcDbLine
 62
7
  6
CONTINUOUS
 10
139.8280898418
 20
175.2921131962
 11
139.8280898418
 21
174.9625855332
  0
LINE
  5
2F8
100
AcDbEntity
  8
KONSTRUKTIONSELEMENTE
100
AcDbLine
 62
7
  6
CONTINUOUS
 10
139.8280898418
 20
174.1590319859
 11
139.8280898418
 21
173.6397302467
  0
LINE
  5
2F9
100
AcDbEntity
  8
KONSTRUKTIONSELEMENTE
100
AcDbLine
 62
7
  6
CONTINUOUS
 10
139.8280898418
 20
172.1128633073
 11
139.8280898418
 21
170.8946062502
  0
LINE
  5
2FA
100
AcDbEntity
  8
KONSTRUKTIONSELEMENTE
100
AcDbLine
 62
7
  6
CONTINUOUS
 10
139.9131962147
 20
175.5687244195
 11
139.9131962147
 21
175.4383553948
  0
LINE
  5
2FB
100
AcDbEntity
  8
KONSTRUKTIONSELEMENTE
100
AcDbLine
 62
7
  6
CONTINUOUS
 10
139.9131962147
 20
174.7367708939
 11
139.9131962147
 21
174.4502491245
  0
LINE
  5
2FC
100
AcDbEntity
  8
KONSTRUKTIONSELEMENTE
100
AcDbLine
 62
7
  6
CONTINUOUS
 10
139.9131962147
 20
173.2161859471
 11
139.9131962147
 21
172.6452807706
  0
LINE
  5
2FD
100
AcDbEntity
  8
KONSTRUKTIONSELEMENTE
100
AcDbLine
 62
7
  6
CONTINUOUS
 10
139.9983025875
 20
173.0337357928
 11
139.9983025875
 21
172.8435145418
  0
LINE
  5
2FE
100
AcDbEntity
  8
KONSTRUKTIONSELEMENTE
100
AcDbLine
 62
7
  6
CONTINUOUS
 10
140.0834089901
 20
175.7583708473
 11
140.0834089901
 21
175.6309681372
  0
LINE
  5
2FF
100
AcDbEntity
  8
KONSTRUKTIONSELEMENTE
100
AcDbLine
 62
7
  6
CONTINUOUS
 10
140.0834089901
 20
175.343938716
 11
140.0834089901
 21
174.8906193203
  0
LINE
  5
300
100
AcDbEntity
  8
KONSTRUKTIONSELEMENTE
100
AcDbLine
 62
7
  6
CONTINUOUS
 10
140.0834089901
 20
174.2597019731
 11
140.0834089901
 21
173.5174335462
  0
LINE
  5
301
100
AcDbEntity
  8
KONSTRUKTIONSELEMENTE
100
AcDbLine
 62
7
  6
CONTINUOUS
 10
140.0834089901
 20
172.2782900369
 11
140.0834089901
 21
171.0720289221
  0
LINE
  5
302
100
AcDbEntity
  8
KONSTRUKTIONSELEMENTE
100
AcDbLine
 62
7
  6
CONTINUOUS
 10
140.338728131
 20
175.7654289817
 11
140.338728131
 21
175.5799255124
  0
LINE
  5
303
100
AcDbEntity
  8
KONSTRUKTIONSELEMENTE
100
AcDbLine
 62
7
  6
CONTINUOUS
 10
140.338728131
 20
175.4234690258
 11
140.338728131
 21
174.7633394028
  0
LINE
  5
304
100
AcDbEntity
  8
KONSTRUKTIONSELEMENTE
100
AcDbLine
 62
7
  6
CONTINUOUS
 10
140.338728131
 20
174.4194777857
 11
140.338728131
 21
173.3490469487
  0
LINE
  5
305
100
AcDbEntity
  8
KONSTRUKTIONSELEMENTE
100
AcDbLine
 62
7
  6
CONTINUOUS
 10
140.338728131
 20
172.5430781549
 11
140.338728131
 21
171.3555172955
  0
LINE
  5
306
100
AcDbEntity
  8
KONSTRUKTIONSELEMENTE
100
AcDbLine
 62
7
  6
CONTINUOUS
 10
140.4238345113
 20
175.7632380363
 11
140.4238345113
 21
173.5377878904
  0
LINE
  5
307
100
AcDbEntity
  8
KONSTRUKTIONSELEMENTE
100
AcDbLine
 62
7
  6
CONTINUOUS
 10
140.4238345113
 20
173.0800678987
 11
140.4238345113
 21
171.6243804917
  0
LINE
  5
308
100
AcDbEntity
  8
KONSTRUKTIONSELEMENTE
100
AcDbLine
 62
7
  6
CONTINUOUS
 10
142.8938345113
 20
175.2659934679
 11
142.8938345113
 21
170.0901144134
  0
LINE
  5
309
100
AcDbEntity
  8
0
100
AcDbLine
 62
7
  6
CONTINUOUS
 10
147.8938345113
 20
173.2659934679
 11
147.8938345113
 21
146.5659934679
  0
LINE
  5
30A
100
AcDbEntity
  8
BEZUGSACHSEN
100
AcDbLine
 62
7
  6
CONTINUOUS
 10
150.3938352113
 20
170.515993495
 11
150.3938352113
 21
175.4090814227
  0
LINE
  5
30B
100
AcDbEntity
  8
BEZUGSACHSEN
100
AcDbLine
 62
7
  6
CONTINUOUS
 10
150.3938352113
 20
196.0013221288
 11
150.3938352113
 21
202.0159934275
  0
LINE
  5
30C
100
AcDbEntity
  8
0
100
AcDbLine
 62
7
  6
CONTINUOUS
 10
158.5138345113
 20
178.3859934679
 11
158.5138345113
 21
177.3794144929
  0
LINE
  5
30D
100
AcDbEntity
  8
0
100
AcDbLine
 62
7
  6
CONTINUOUS
 10
158.5138345113
 20
174.3140800822
 11
158.5138345113
 21
173.1517827979
  0
LINE
  5
30E
100
AcDbEntity
  8
0
100
AcDbLine
 62
7
  6
CONTINUOUS
 10
158.5138345113
 20
166.3070457679
 11
158.5138345113
 21
163.5825720089
  0
LINE
  5
30F
100
AcDbEntity
  8
0
100
AcDbLine
 62
7
  6
CONTINUOUS
 10
159.5204134863
 20
163.8396772459
 11
159.5204134863
 21
165.0991509979
  0
LINE
  5
310
100
AcDbEntity
  8
0
100
AcDbLine
 62
7
  6
CONTINUOUS
 10
161.0369924753
 20
177.3794144929
 11
161.0369924753
 21
176.3519746541
  0
LINE
  5
311
100
AcDbEntity
  8
0
100
AcDbLine
 62
7
  6
CONTINUOUS
 10
160.5337029878
 20
175.4802516909
 11
158.5138345113
 21
174.3140800822
  0
LINE
  5
312
100
AcDbEntity
  8
0
100
AcDbLine
 62
7
  6
CONTINUOUS
 10
158.5138345113
 20
173.1517827979
 11
161.1558366871
 21
174.6771434653
  0
LINE
  5
313
100
AcDbEntity
  8
0
100
AcDbLine
 62
7
  6
CONTINUOUS
 10
162.0435714503
 20
175.7152039209
 11
162.0435714503
 21
177.3794144929
  0
LINE
  5
314
100
AcDbEntity
  8
0
100
AcDbLine
 62
7
  6
CONTINUOUS
 10
162.9427820013
 20
165.0991509979
 11
162.9427820013
 21
166.3070457679
  0
LINE
  5
315
100
AcDbEntity
  8
0
100
AcDbLine
 62
7
  6
CONTINUOUS
 10
162.9427820013
 20
177.3794144929
 11
162.9427820013
 21
178.3859934679
  0
LINE
  5
316
100
AcDbEntity
  8
0
100
AcDbLine
 62
7
  6
CONTINUOUS
 10
163.5467293863
 20
178.3859934679
 11
163.5467293863
 21
175.7152039209
  0
LINE
  5
317
100
AcDbEntity
  8
0
100
AcDbLine
 62
7
  6
CONTINUOUS
 10
163.5467293863
 20
166.3070457679
 11
163.5467293863
 21
163.8396718663
  0
LINE
  5
318
100
AcDbEntity
  8
0
100
AcDbLine
 62
7
  6
CONTINUOUS
 10
164.5533083613
 20
163.5825720089
 11
164.5533083613
 21
166.3070457679
  0
LINE
  5
319
100
AcDbEntity
  8
0
100
AcDbLine
 62
7
  6
CONTINUOUS
 10
164.5533083613
 20
167.5149405379
 11
164.5533083613
 21
168.7228353079
  0
LINE
  5
31A
100
AcDbEntity
  8
0
100
AcDbLine
 62
7
  6
CONTINUOUS
 10
164.5533083613
 20
171.1386248479
 11
164.5533083613
 21
172.3465196179
  0
LINE
  5
31B
100
AcDbEntity
  8
0
100
AcDbLine
 62
7
  6
CONTINUOUS
 10
164.5533083613
 20
175.3125723309
 11
164.5533083613
 21
178.3859934679
  0
LINE
  5
31C
100
AcDbEntity
  8
BEZUGSACHSEN
100
AcDbLine
 62
7
  6
CONTINUOUS
 10
168.3938352113
 20
202.0159934679
 11
168.3938352113
 21
151.0159934679
  0
LINE
  5
31D
100
AcDbEntity
  8
BEZUGSACHSEN
100
AcDbLine
 62
7
  6
CONTINUOUS
 10
157.3985711386
 20
230.1626771691
 11
167.7808651142
 21
205.0976022447
  0
LINE
  5
31E
100
AcDbEntity
  8
BEZUGSACHSEN
100
AcDbLine
 62
7
  6
CONTINUOUS
 10
127.9754432881
 20
244.9030240707
 11
153.0405182125
 21
234.5207300951
  0
LINE
  5
31F
100
AcDbEntity
  8
BEZUGSACHSEN
100
AcDbLine
 62
7
  6
CONTINUOUS
 10
81.3938338113
 20
96.5493161158
 11
81.3938338113
 21
90.0493161158
  0
LINE
  5
320
100
AcDbEntity
  8
0
100
AcDbLine
 62
7
  6
CONTINUOUS
 10
101.8938345113
 20
73.6569173367
 11
101.8938345113
 21
85.0493161158
  0
LINE
  5
321
100
AcDbEntity
  8
0
100
AcDbLine
 62
7
  6
CONTINUOUS
 10
101.8938345113
 20
101.5493161158
 11
101.8938345113
 21
112.0106634231
  0
LINE
  5
322
100
AcDbEntity
  8
KONSTRUKTIONSELEMENTE
100
AcDbLine
 62
7
  6
CONTINUOUS
 10
101.8938345113
 20
112.0106634231
 11
101.8938345113
 21
112.941714895
  0
LINE
  5
323
100
AcDbEntity
  8
0
100
AcDbLine
 62
7
  6
CONTINUOUS
 10
103.8938345113
 20
71.9753572662
 11
145.8938345113
 21
71.9753572662
  0
LINE
  5
324
100
AcDbEntity
  8
KONSTRUKTIONSELEMENTE
100
AcDbLine
 62
7
  6
CONTINUOUS
 10
106.8938345113
 20
107.1050104592
 11
106.8938345113
 21
101.5493161158
  0
LINE
  5
325
100
AcDbEntity
  8
KONSTRUKTIONSELEMENTE
100
AcDbLine
 62
7
  6
CONTINUOUS
 10
106.8938345113
 20
85.0493161158
 11
106.8938345113
 21
79.4936217725
  0
LINE
  5
326
100
AcDbEntity
  8
KONSTRUKTIONSELEMENTE
100
AcDbLine
 62
7
  6
CONTINUOUS
 10
108.4438345113
 20
84.8098713551
 11
108.4438345113
 21
84.3098711167
  0
LINE
  5
327
100
AcDbEntity
  8
KONSTRUKTIONSELEMENTE
100
AcDbLine
 62
7
  6
CONTINUOUS
 10
108.4438345113
 20
82.4765378629
 11
108.4438345113
 21
80.4765378629
  0
LINE
  5
328
100
AcDbEntity
  8
KONSTRUKTIONSELEMENTE
100
AcDbLine
 62
7
  6
CONTINUOUS
 10
108.8693663755
 20
82.5598711167
 11
108.8693663755
 21
80.9765378629
  0
LINE
  5
329
100
AcDbEntity
  8
KONSTRUKTIONSELEMENTE
100
AcDbLine
 62
7
  6
CONTINUOUS
 10
109.9757494607
 20
83.4765378629
 11
110.316174952
 21
83.2265378629
  0
LINE
  5
32A
100
AcDbEntity
  8
KONSTRUKTIONSELEMENTE
100
AcDbLine
 62
7
  6
CONTINUOUS
 10
109.8906430879
 20
82.9765378629
 11
110.0608558335
 21
82.8098711167
  0
LINE
  5
32B
100
AcDbEntity
  8
KONSTRUKTIONSELEMENTE
100
AcDbLine
 62
7
  6
CONTINUOUS
 10
110.316174952
 20
83.2265378629
 11
110.4863876977
 21
82.893204609
  0
LINE
  5
32C
100
AcDbEntity
  8
KONSTRUKTIONSELEMENTE
100
AcDbLine
 62
7
  6
CONTINUOUS
 10
110.0608558335
 20
82.8098711167
 11
110.1459622064
 21
82.5598711167
  0
LINE
  5
32D
100
AcDbEntity
  8
KONSTRUKTIONSELEMENTE
100
AcDbLine
 62
7
  6
CONTINUOUS
 10
110.1459622064
 20
82.5598711167
 11
110.1459622064
 21
80.9765378629
  0
LINE
  5
32E
100
AcDbEntity
  8
KONSTRUKTIONSELEMENTE
100
AcDbLine
 62
7
  6
CONTINUOUS
 10
110.6566004434
 20
82.3932044898
 11
110.6566004434
 21
80.9765378629
  0
LINE
  5
32F
100
AcDbEntity
  8
KONSTRUKTIONSELEMENTE
100
AcDbLine
 62
7
  6
CONTINUOUS
 10
108.5289408841
 20
82.893204609
 11
108.4438345113
 21
82.4765378629
  0
LINE
  5
330
100
AcDbEntity
  8
KONSTRUKTIONSELEMENTE
100
AcDbLine
 62
7
  6
CONTINUOUS
 10
108.8938345113
 20
78.0493161158
 11
118.8938345113
 21
78.0493161158
  0
LINE
  5
331
100
AcDbEntity
  8
KONSTRUKTIONSELEMENTE
100
AcDbLine
 62
7
  6
CONTINUOUS
 10
130.8938345113
 20
78.0493161158
 11
140.8938345113
 21
78.0493161158
  0
LINE
  5
332
100
AcDbEntity
  8
KONSTRUKTIONSELEMENTE
100
AcDbLine
 62
7
  6
CONTINUOUS
 10
108.8938345113
 20
78.4124113539
 11
118.8938345113
 21
78.4124113539
  0
LINE
  5
333
100
AcDbEntity
  8
KONSTRUKTIONSELEMENTE
100
AcDbLine
 62
7
  6
CONTINUOUS
 10
130.8938345113
 20
78.4124113539
 11
140.8938345113
 21
78.4124113539
  0
LINE
  5
334
100
AcDbEntity
  8
KONSTRUKTIONSELEMENTE
100
AcDbLine
 62
7
  6
CONTINUOUS
 10
108.4438345113
 20
80.4765378629
 11
112.4438345113
 21
80.4765378629
  0
LINE
  5
335
100
AcDbEntity
  8
KONSTRUKTIONSELEMENTE
100
AcDbLine
 62
7
  6
CONTINUOUS
 10
114.8438345113
 20
80.4765378629
 11
118.8438345113
 21
80.4765378629
  0
LINE
  5
336
100
AcDbEntity
  8
KONSTRUKTIONSELEMENTE
100
AcDbLine
 62
7
  6
CONTINUOUS
 10
109.6353239694
 20
83.0598711167
 11
109.8906430879
 21
82.9765378629
  0
LINE
  5
337
100
AcDbEntity
  8
KONSTRUKTIONSELEMENTE
100
AcDbLine
 62
7
  6
CONTINUOUS
 10
109.7204303422
 20
83.5598711167
 11
109.9757494607
 21
83.4765378629
  0
LINE
  5
338
100
AcDbEntity
  8
KONSTRUKTIONSELEMENTE
100
AcDbLine
 62
7
  6
CONTINUOUS
 10
112.4438345113
 20
83.643204609
 11
112.4438345113
 21
83.0598711167
  0
LINE
  5
339
100
AcDbEntity
  8
KONSTRUKTIONSELEMENTE
100
AcDbLine
 62
7
  6
CONTINUOUS
 10
112.4438345113
 20
80.9765378629
 11
112.4438345113
 21
80.4765378629
  0
LINE
  5
33A
100
AcDbEntity
  8
KONSTRUKTIONSELEMENTE
100
AcDbLine
 62
7
  6
CONTINUOUS
 10
114.8438345113
 20
85.0493161158
 11
114.8438345113
 21
84.143204609
  0
LINE
  5
33B
100
AcDbEntity
  8
KONSTRUKTIONSELEMENTE
100
AcDbLine
 62
7
  6
CONTINUOUS
 10
114.8438345113
 20
80.9765378629
 11
114.8438345113
 21
80.4765378629
  0
LINE
  5
33C
100
AcDbEntity
  8
KONSTRUKTIONSELEMENTE
100
AcDbLine
 62
7
  6
CONTINUOUS
 10
115.2693663755
 20
85.0493161158
 11
115.2693663755
 21
84.6432043706
  0
LINE
  5
33D
100
AcDbEntity
  8
KONSTRUKTIONSELEMENTE
100
AcDbLine
 62
7
  6
CONTINUOUS
 10
108.9544727483
 20
82.8098711167
 11
108.8693663755
 21
82.5598711167
  0
LINE
  5
33E
100
AcDbEntity
  8
KONSTRUKTIONSELEMENTE
100
AcDbLine
 62
7
  6
CONTINUOUS
 10
139.2323451724
 20
84.8935194952
 11
138.806813189
 21
84.8101862413
  0
LINE
  5
33F
100
AcDbEntity
  8
KONSTRUKTIONSELEMENTE
100
AcDbLine
 62
7
  6
CONTINUOUS
 10
108.8693663755
 20
80.9765378629
 11
110.1459622064
 21
80.9765378629
  0
LINE
  5
340
100
AcDbEntity
  8
KONSTRUKTIONSELEMENTE
100
AcDbLine
 62
7
  6
CONTINUOUS
 10
110.6566004434
 20
80.9765378629
 11
112.4438345113
 21
80.9765378629
  0
LINE
  5
341
100
AcDbEntity
  8
KONSTRUKTIONSELEMENTE
100
AcDbLine
 62
7
  6
CONTINUOUS
 10
114.8438345113
 20
80.9765378629
 11
118.3331962147
 21
80.9765378629
  0
LINE
  5
342
100
AcDbEntity
  8
KONSTRUKTIONSELEMENTE
100
AcDbLine
 62
7
  6
CONTINUOUS
 10
139.1472387996
 20
81.1435194952
 11
139.4025579181
 21
81.1435194952
  0
LINE
  5
343
100
AcDbEntity
  8
KONSTRUKTIONSELEMENTE
100
AcDbLine
 62
7
  6
CONTINUOUS
 10
137.4451112237
 20
81.226852831
 11
137.7004303422
 21
81.226852831
  0
LINE
  5
344
100
AcDbEntity
  8
KONSTRUKTIONSELEMENTE
100
AcDbLine
 62
7
  6
CONTINUOUS
 10
139.1472387996
 20
81.5601861519
 11
139.4025579181
 21
81.5601861519
  0
LINE
  5
345
100
AcDbEntity
  8
KONSTRUKTIONSELEMENTE
100
AcDbLine
 62
7
  6
CONTINUOUS
 10
137.4451112237
 20
81.6435194952
 11
137.6153239694
 21
81.6435194952
  0
LINE
  5
346
100
AcDbEntity
  8
KONSTRUKTIONSELEMENTE
100
AcDbLine
 62
7
  6
CONTINUOUS
 10
109.3800046125
 20
83.0598711167
 11
109.6353239694
 21
83.0598711167
  0
LINE
  5
347
100
AcDbEntity
  8
KONSTRUKTIONSELEMENTE
100
AcDbLine
 62
7
  6
CONTINUOUS
 10
118.3331962147
 20
83.4765378629
 11
118.8438345113
 21
83.4765378629
  0
LINE
  5
348
100
AcDbEntity
  8
KONSTRUKTIONSELEMENTE
100
AcDbLine
 62
7
  6
CONTINUOUS
 10
109.3800046125
 20
83.5598711167
 11
109.7204303422
 21
83.5598711167
  0
LINE
  5
349
100
AcDbEntity
  8
KONSTRUKTIONSELEMENTE
100
AcDbLine
 62
7
  6
CONTINUOUS
 10
137.4451112237
 20
83.6435194952
 11
137.6153239694
 21
83.6435194952
  0
LINE
  5
34A
100
AcDbEntity
  8
KONSTRUKTIONSELEMENTE
100
AcDbLine
 62
7
  6
CONTINUOUS
 10
139.1472387996
 20
83.726852749
 11
139.4025579181
 21
83.726852749
  0
LINE
  5
34B
100
AcDbEntity
  8
KONSTRUKTIONSELEMENTE
100
AcDbLine
 62
7
  6
CONTINUOUS
 10
116.5459622064
 20
85.0493161158
 11
116.5459622064
 21
84.6432043706
  0
LINE
  5
34C
100
AcDbEntity
  8
KONSTRUKTIONSELEMENTE
100
AcDbLine
 62
7
  6
CONTINUOUS
 10
117.0566004434
 20
85.0493161158
 11
117.0566004434
 21
84.6432043706
  0
LINE
  5
34D
100
AcDbEntity
  8
KONSTRUKTIONSELEMENTE
100
AcDbLine
 62
7
  6
CONTINUOUS
 10
118.3331962147
 20
83.4765378629
 11
118.3331962147
 21
80.9765378629
  0
LINE
  5
34E
100
AcDbEntity
  8
KONSTRUKTIONSELEMENTE
100
AcDbLine
 62
7
  6
CONTINUOUS
 10
118.8438345113
 20
84.6432043706
 11
118.8438345113
 21
84.143204609
  0
LINE
  5
34F
100
AcDbEntity
  8
KONSTRUKTIONSELEMENTE
100
AcDbLine
 62
7
  6
CONTINUOUS
 10
118.8438345113
 20
83.4765378629
 11
118.8438345113
 21
80.4765378629
  0
LINE
  5
350
100
AcDbEntity
  8
KONSTRUKTIONSELEMENTE
100
AcDbLine
 62
7
  6
CONTINUOUS
 10
112.2682319618
 20
85.0493161158
 11
112.188515363
 21
84.8932043706
  0
LINE
  5
351
100
AcDbEntity
  8
KONSTRUKTIONSELEMENTE
100
AcDbLine
 62
7
  6
CONTINUOUS
 10
108.7842600026
 20
83.2265378629
 11
108.5289408841
 21
82.893204609
  0
LINE
  5
352
100
AcDbEntity
  8
KONSTRUKTIONSELEMENTE
100
AcDbLine
 62
7
  6
CONTINUOUS
 10
111.5076642909
 20
84.393204609
 11
111.0821324267
 21
84.3098711167
  0
LINE
  5
353
100
AcDbEntity
  8
KONSTRUKTIONSELEMENTE
100
AcDbLine
 62
7
  6
CONTINUOUS
 10
137.4451112237
 20
84.0601862413
 11
137.7004303422
 21
84.0601862413
  0
LINE
  5
354
100
AcDbEntity
  8
KONSTRUKTIONSELEMENTE
100
AcDbLine
 62
7
  6
CONTINUOUS
 10
114.8438345113
 20
84.143204609
 11
118.8438345113
 21
84.143204609
  0
LINE
  5
355
100
AcDbEntity
  8
KONSTRUKTIONSELEMENTE
100
AcDbLine
 62
7
  6
CONTINUOUS
 10
139.1472387996
 20
84.1435194952
 11
139.4025579181
 21
84.1435194952
  0
LINE
  5
356
100
AcDbEntity
  8
KONSTRUKTIONSELEMENTE
100
AcDbLine
 62
7
  6
CONTINUOUS
 10
108.4438345113
 20
84.3098711167
 11
111.0821324267
 21
84.3098711167
  0
LINE
  5
357
100
AcDbEntity
  8
0
100
AcDbLine
 62
7
  6
CONTINUOUS
 10
164.5533083613
 20
84.5493161158
 11
158.5138345113
 21
84.5493161158
  0
LINE
  5
358
100
AcDbEntity
  8
KONSTRUKTIONSELEMENTE
100
AcDbLine
 62
7
  6
CONTINUOUS
 10
115.2693663755
 20
84.6432043706
 11
116.5459622064
 21
84.6432043706
  0
LINE
  5
359
100
AcDbEntity
  8
KONSTRUKTIONSELEMENTE
100
AcDbLine
 62
7
  6
CONTINUOUS
 10
117.0566004434
 20
84.6432043706
 11
118.8438345113
 21
84.6432043706
  0
LINE
  5
35A
100
AcDbEntity
  8
KONSTRUKTIONSELEMENTE
100
AcDbLine
 62
7
  6
CONTINUOUS
 10
108.4438345113
 20
84.8098713551
 11
111.0821324267
 21
84.8098713551
  0
LINE
  5
35B
100
AcDbEntity
  8
KONSTRUKTIONSELEMENTE
100
AcDbLine
 62
7
  6
CONTINUOUS
 10
138.0408558335
 20
84.8101862413
 11
138.806813189
 21
84.8101862413
  0
LINE
  5
35C
100
AcDbEntity
  8
RUNDUNGEN
100
AcDbLine
 62
7
  6
CONTINUOUS
 10
123.7256428963
 20
85.0493161158
 11
86.3938338113
 21
85.0493161158
  0
LINE
  5
35D
100
AcDbEntity
  8
BEZUGSACHSEN
100
AcDbLine
 62
7
  6
CONTINUOUS
 10
123.7256428963
 20
85.0493161158
 11
163.3938352113
 21
85.0493161158
  0
LINE
  5
35E
100
AcDbEntity
  8
KONSTRUKTIONSELEMENTE
100
AcDbLine
 62
7
  6
CONTINUOUS
 10
137.0195791211
 20
81.3935194952
 11
137.4451112237
 21
81.226852831
  0
LINE
  5
35F
100
AcDbEntity
  8
KONSTRUKTIONSELEMENTE
100
AcDbLine
 62
7
  6
CONTINUOUS
 10
138.7217068162
 20
81.3101861668
 11
139.1472387996
 21
81.1435194952
  0
LINE
  5
360
100
AcDbEntity
  8
KONSTRUKTIONSELEMENTE
100
AcDbLine
 62
7
  6
CONTINUOUS
 10
120.8938345113
 20
107.1050104592
 11
120.8938345113
 21
101.5493161158
  0
LINE
  5
361
100
AcDbEntity
  8
KONSTRUKTIONSELEMENTE
100
AcDbLine
 62
7
  6
CONTINUOUS
 10
120.8938345113
 20
85.0493161158
 11
120.8938345113
 21
79.4936217725
  0
LINE
  5
362
100
AcDbEntity
  8
KONSTRUKTIONSELEMENTE
100
AcDbLine
 62
7
  6
CONTINUOUS
 10
109.124685494
 20
82.9765378629
 11
108.9544727483
 21
82.8098711167
  0
LINE
  5
363
100
AcDbEntity
  8
KONSTRUKTIONSELEMENTE
100
AcDbLine
 62
7
  6
CONTINUOUS
 10
112.188515363
 20
84.8932043706
 11
111.8480898418
 21
84.5598713551
  0
LINE
  5
364
100
AcDbEntity
  8
KONSTRUKTIONSELEMENTE
100
AcDbLine
 62
7
  6
CONTINUOUS
 10
138.3812813249
 20
101.6435194952
 11
138.1259622064
 21
101.560185526
  0
LINE
  5
365
100
AcDbEntity
  8
KONSTRUKTIONSELEMENTE
100
AcDbLine
 62
7
  6
CONTINUOUS
 10
140.4238345113
 20
101.810185526
 11
140.168515363
 21
101.7268534643
  0
LINE
  5
366
100
AcDbEntity
  8
KONSTRUKTIONSELEMENTE
100
AcDbLine
 62
7
  6
CONTINUOUS
 10
111.4225579181
 20
84.8932043706
 11
111.0821324267
 21
84.8098713551
  0
LINE
  5
367
100
AcDbEntity
  8
KONSTRUKTIONSELEMENTE
100
AcDbLine
 62
7
  6
CONTINUOUS
 10
137.6153239694
 20
84.8935194952
 11
138.0408558335
 21
84.8101862413
  0
LINE
  5
368
100
AcDbEntity
  8
KONSTRUKTIONSELEMENTE
100
AcDbLine
 62
7
  6
CONTINUOUS
 10
137.3600046125
 20
84.976852749
 11
137.6153239694
 21
84.8935194952
  0
LINE
  5
369
100
AcDbEntity
  8
KONSTRUKTIONSELEMENTE
100
AcDbLine
 62
7
  6
CONTINUOUS
 10
139.4025579181
 20
84.1435194952
 11
139.8280898418
 21
83.976852749
  0
LINE
  5
36A
100
AcDbEntity
  8
KONSTRUKTIONSELEMENTE
100
AcDbLine
 62
7
  6
CONTINUOUS
 10
137.1897918668
 20
81.8101861817
 11
137.4451112237
 21
81.6435194952
  0
LINE
  5
36B
100
AcDbEntity
  8
BEZUGSACHSEN
100
AcDbLine
 62
7
  6
CENTER
 10
124.8938345113
 20
109.5500050851
 11
124.8938345113
 21
67.7427067677
  0
LINE
  5
36C
100
AcDbEntity
  8
KONSTRUKTIONSELEMENTE
100
AcDbLine
 62
4
  6
CONTINUOUS
 10
124.8938345113
 20
108.5493161158
 11
124.8938345113
 21
101.5496473774
  0
LINE
  5
36D
100
AcDbEntity
  8
KONSTRUKTIONSELEMENTE
100
AcDbLine
 62
4
  6
CONTINUOUS
 10
124.8938345113
 20
85.0489849914
 11
124.8938345113
 21
78.0493162184
  0
LINE
  5
36E
100
AcDbEntity
  8
KONSTRUKTIONSELEMENTE
100
AcDbLine
 62
7
  6
CONTINUOUS
 10
109.124685494
 20
83.4765378629
 11
108.7842600026
 21
83.2265378629
  0
LINE
  5
36F
100
AcDbEntity
  8
KONSTRUKTIONSELEMENTE
100
AcDbLine
 62
7
  6
CONTINUOUS
 10
111.6617073411
 20
85.0493161158
 11
111.4225579181
 21
84.8932043706
  0
LINE
  5
370
100
AcDbEntity
  8
KONSTRUKTIONSELEMENTE
100
AcDbLine
 62
7
  6
CONTINUOUS
 10
139.8280898418
 20
105.310185526
 11
136.4238345113
 21
103.2268534643
  0
LINE
  5
371
100
AcDbEntity
  8
KONSTRUKTIONSELEMENTE
100
AcDbLine
 62
7
  6
CONTINUOUS
 10
140.4238345113
 20
105.060185526
 11
136.9344727483
 21
102.9768534643
  0
LINE
  5
372
100
AcDbEntity
  8
BG_STARTBEZUEGE
100
AcDbLine
 62
2
  6
CENTER
 10
78.3938338113
 20
93.2993161158
 11
171.3938352113
 21
93.2993161158
  0
LINE
  5
373
100
AcDbEntity
  8
TEIL_STARTBEZUEGE
100
AcDbLine
 62
7
  6
CENTER
 10
98.8938345113
 20
93.2993161158
 11
150.8938345113
 21
93.2993161158
  0
LINE
  5
374
100
AcDbEntity
  8
KONSTRUKTIONSELEMENTE
100
AcDbLine
 62
7
  6
CONTINUOUS
 10
137.7004303422
 20
84.0601862413
 11
138.0408558335
 21
83.8935194952
  0
LINE
  5
375
100
AcDbEntity
  8
KONSTRUKTIONSELEMENTE
100
AcDbLine
 62
7
  6
CONTINUOUS
 10
137.2119944195
 20
85.0493161158
 11
137.3600046125
 21
84.976852749
  0
LINE
  5
376
100
AcDbEntity
  8
KONSTRUKTIONSELEMENTE
100
AcDbLine
 62
7
  6
CONTINUOUS
 10
137.6153239694
 20
83.6435194952
 11
137.8706430879
 21
83.476852749
  0
LINE
  5
377
100
AcDbEntity
  8
KONSTRUKTIONSELEMENTE
100
AcDbLine
 62
7
  6
CONTINUOUS
 10
138.806813189
 20
81.8101861817
 11
139.1472387996
 21
81.5601861519
  0
LINE
  5
378
100
AcDbEntity
  8
KONSTRUKTIONSELEMENTE
100
AcDbLine
 62
7
  6
CONTINUOUS
 10
136.7642600026
 20
81.6435194952
 11
137.0195791211
 21
81.3935194952
  0
LINE
  5
379
100
AcDbEntity
  8
KONSTRUKTIONSELEMENTE
100
AcDbLine
 62
7
  6
CONTINUOUS
 10
138.1259622064
 20
101.560185526
 11
138.1148614911
 21
101.5493161158
  0
LINE
  5
37A
100
AcDbEntity
  8
KONSTRUKTIONSELEMENTE
100
AcDbLine
 62
7
  6
CONTINUOUS
 10
111.8480898418
 20
84.5598713551
 11
111.5076642909
 21
84.393204609
  0
LINE
  5
37B
100
AcDbEntity
  8
KONSTRUKTIONSELEMENTE
100
AcDbLine
 62
7
  6
CONTINUOUS
 10
139.4025579181
 20
83.726852749
 11
139.742983469
 21
83.476852749
  0
LINE
  5
37C
100
AcDbEntity
  8
KONSTRUKTIONSELEMENTE
100
AcDbLine
 62
7
  6
CONTINUOUS
 10
138.0408558335
 20
83.8935194952
 11
138.296174952
 21
83.6435194952
  0
LINE
  5
37D
100
AcDbEntity
  8
KONSTRUKTIONSELEMENTE
100
AcDbLine
 62
7
  6
CONTINUOUS
 10
136.9344727483
 20
82.1435194952
 11
137.1897918668
 21
81.8101861817
  0
LINE
  5
37E
100
AcDbEntity
  8
KONSTRUKTIONSELEMENTE
100
AcDbLine
 62
7
  6
CONTINUOUS
 10
128.8938345113
 20
107.1050104592
 11
128.8938345113
 21
101.5493161158
  0
LINE
  5
37F
100
AcDbEntity
  8
KONSTRUKTIONSELEMENTE
100
AcDbLine
 62
7
  6
CONTINUOUS
 10
128.8938345113
 20
85.0493161158
 11
128.8938345113
 21
79.4936217725
  0
LINE
  5
380
100
AcDbEntity
  8
KONSTRUKTIONSELEMENTE
100
AcDbLine
 62
7
  6
CONTINUOUS
 10
112.4438345113
 20
83.643204609
 11
110.4863876977
 21
82.893204609
  0
LINE
  5
381
100
AcDbEntity
  8
KONSTRUKTIONSELEMENTE
100
AcDbLine
 62
7
  6
CONTINUOUS
 10
112.4438345113
 20
83.0598711167
 11
110.6566004434
 21
82.3932044898
  0
LINE
  5
382
100
AcDbEntity
  8
KONSTRUKTIONSELEMENTE
100
AcDbLine
 62
7
  6
CONTINUOUS
 10
109.3800046125
 20
83.5598711167
 11
109.124685494
 21
83.4765378629
  0
LINE
  5
383
100
AcDbEntity
  8
KONSTRUKTIONSELEMENTE
100
AcDbLine
 62
7
  6
CONTINUOUS
 10
109.3800046125
 20
83.0598711167
 11
109.124685494
 21
82.9765378629
  0
LINE
  5
384
100
AcDbEntity
  8
KONSTRUKTIONSELEMENTE
100
AcDbLine
 62
7
  6
CONTINUOUS
 10
140.168515363
 20
101.7268534643
 11
139.742983469
 21
101.6435194952
  0
LINE
  5
385
100
AcDbEntity
  8
KONSTRUKTIONSELEMENTE
100
AcDbLine
 62
7
  6
CONTINUOUS
 10
139.8280898418
 20
83.976852749
 11
140.0834089901
 21
83.726852749
  0
LINE
  5
386
100
AcDbEntity
  8
KONSTRUKTIONSELEMENTE
100
AcDbLine
 62
7
  6
CONTINUOUS
 10
138.4663876977
 20
81.6435194952
 11
138.7217068162
 21
81.3101861668
  0
LINE
  5
387
100
AcDbEntity
  8
KONSTRUKTIONSELEMENTE
100
AcDbLine
 62
7
  6
CONTINUOUS
 10
137.8706430879
 20
83.476852749
 11
138.1259622064
 21
83.1435194952
  0
LINE
  5
388
100
AcDbEntity
  8
KONSTRUKTIONSELEMENTE
100
AcDbLine
 62
7
  6
CONTINUOUS
 10
136.5089408841
 20
82.0601861817
 11
136.7642600026
 21
81.6435194952
  0
LINE
  5
389
100
AcDbEntity
  8
KONSTRUKTIONSELEMENTE
100
AcDbLine
 62
7
  6
CONTINUOUS
 10
138.3812813249
 20
81.8101861817
 11
138.4663876977
 21
81.6435194952
  0
LINE
  5
38A
100
AcDbEntity
  8
BEZUGSACHSEN
100
AcDbLine
 62
7
  6
CONTINUOUS
 10
86.3938338113
 20
101.5493161158
 11
163.3938352113
 21
101.5493161158
  0
LINE
  5
38B
100
AcDbEntity
  8
KONSTRUKTIONSELEMENTE
100
AcDbLine
 62
7
  6
CONTINUOUS
 10
138.3812813249
 20
101.6435194952
 11
139.742983469
 21
101.6435194952
  0
LINE
  5
38C
100
AcDbEntity
  8
KONSTRUKTIONSELEMENTE
100
AcDbLine
 62
7
  6
CONTINUOUS
 10
136.4238345113
 20
102.4768534643
 11
140.4238345113
 21
102.4768534643
  0
LINE
  5
38D
100
AcDbEntity
  8
KONSTRUKTIONSELEMENTE
100
AcDbLine
 62
7
  6
CONTINUOUS
 10
136.9344727483
 20
102.9768534643
 11
140.4238345113
 21
102.9768534643
  0
LINE
  5
38E
100
AcDbEntity
  8
KONSTRUKTIONSELEMENTE
100
AcDbLine
 62
7
  6
CONTINUOUS
 10
140.0834089901
 20
83.726852749
 11
140.338728131
 21
83.3101862413
  0
LINE
  5
38F
100
AcDbEntity
  8
KONSTRUKTIONSELEMENTE
100
AcDbLine
 62
7
  6
CONTINUOUS
 10
138.6366004434
 20
82.1435194952
 11
138.806813189
 21
81.8101861817
  0
LINE
  5
390
100
AcDbEntity
  8
KONSTRUKTIONSELEMENTE
100
AcDbLine
 62
7
  6
CONTINUOUS
 10
138.296174952
 20
83.6435194952
 11
138.3812813249
 21
83.476852749
  0
LINE
  5
391
100
AcDbEntity
  8
KONSTRUKTIONSELEMENTE
100
AcDbLine
 62
7
  6
CONTINUOUS
 10
139.742983469
 20
83.476852749
 11
139.9131962147
 21
83.1435194952
  0
LINE
  5
392
100
AcDbEntity
  8
KONSTRUKTIONSELEMENTE
100
AcDbLine
 62
7
  6
CONTINUOUS
 10
136.8493663755
 20
82.4768528682
 11
136.9344727483
 21
82.1435194952
  0
LINE
  5
393
100
AcDbEntity
  8
KONSTRUKTIONSELEMENTE
100
AcDbLine
 62
7
  6
CONTINUOUS
 10
136.4238345113
 20
82.4768528682
 11
136.5089408841
 21
82.0601861817
  0
LINE
  5
394
100
AcDbEntity
  8
KONSTRUKTIONSELEMENTE
100
AcDbLine
 62
7
  6
CONTINUOUS
 10
136.4238345113
 20
105.810185526
 11
136.4238345113
 21
105.310185526
  0
LINE
  5
395
100
AcDbEntity
  8
KONSTRUKTIONSELEMENTE
100
AcDbLine
 62
7
  6
CONTINUOUS
 10
136.4238345113
 20
103.2268534643
 11
136.4238345113
 21
102.4768534643
  0
LINE
  5
396
100
AcDbEntity
  8
KONSTRUKTIONSELEMENTE
100
AcDbLine
 62
7
  6
CONTINUOUS
 10
136.4238345113
 20
82.8101861221
 11
136.4238345113
 21
82.4768528682
  0
LINE
  5
397
100
AcDbEntity
  8
KONSTRUKTIONSELEMENTE
100
AcDbLine
 62
7
  6
CONTINUOUS
 10
136.8493663755
 20
82.8101861221
 11
136.8493663755
 21
82.4768528682
  0
LINE
  5
398
100
AcDbEntity
  8
KONSTRUKTIONSELEMENTE
100
AcDbLine
 62
7
  6
CONTINUOUS
 10
138.2110685792
 20
82.8101861221
 11
138.2110685792
 21
82.4768528682
  0
LINE
  5
399
100
AcDbEntity
  8
KONSTRUKTIONSELEMENTE
100
AcDbLine
 62
7
  6
CONTINUOUS
 10
137.4451112237
 20
84.0601862413
 11
137.0195791211
 21
83.8935194952
  0
LINE
  5
39A
100
AcDbEntity
  8
KONSTRUKTIONSELEMENTE
100
AcDbLine
 62
7
  6
CONTINUOUS
 10
139.4876642909
 20
84.976852749
 11
139.2323451724
 21
84.8935194952
  0
LINE
  5
39B
100
AcDbEntity
  8
KONSTRUKTIONSELEMENTE
100
AcDbLine
 62
7
  6
CONTINUOUS
 10
136.4238345113
 20
105.310185526
 11
139.8280898418
 21
105.310185526
  0
LINE
  5
39C
100
AcDbEntity
  8
KONSTRUKTIONSELEMENTE
100
AcDbLine
 62
7
  6
CONTINUOUS
 10
136.4238345113
 20
105.810185526
 11
140.4238345113
 21
105.810185526
  0
LINE
  5
39D
100
AcDbEntity
  8
KONSTRUKTIONSELEMENTE
100
AcDbLine
 62
7
  6
CONTINUOUS
 10
138.1259622064
 20
83.1435194952
 11
138.2110685792
 21
82.8101861221
  0
LINE
  5
39E
100
AcDbEntity
  8
KONSTRUKTIONSELEMENTE
100
AcDbLine
 62
7
  6
CONTINUOUS
 10
138.5514940705
 20
82.4768528682
 11
138.6366004434
 21
82.1435194952
  0
LINE
  5
39F
100
AcDbEntity
  8
KONSTRUKTIONSELEMENTE
100
AcDbLine
 62
7
  6
CONTINUOUS
 10
139.9131962147
 20
83.1435194952
 11
139.9983025875
 21
82.8101861221
  0
LINE
  5
3A0
100
AcDbEntity
  8
KONSTRUKTIONSELEMENTE
100
AcDbLine
 62
7
  6
CONTINUOUS
 10
140.338728131
 20
83.3101862413
 11
140.4238345113
 21
82.8935194952
  0
LINE
  5
3A1
100
AcDbEntity
  8
KONSTRUKTIONSELEMENTE
100
AcDbLine
 62
7
  6
CONTINUOUS
 10
138.5514940705
 20
82.8101861221
 11
138.5514940705
 21
82.4768528682
  0
LINE
  5
3A2
100
AcDbEntity
  8
KONSTRUKTIONSELEMENTE
100
AcDbLine
 62
7
  6
CONTINUOUS
 10
139.9983025875
 20
82.8101861221
 11
139.9983025875
 21
82.4768528682
  0
LINE
  5
3A3
100
AcDbEntity
  8
KONSTRUKTIONSELEMENTE
100
AcDbLine
 62
7
  6
CONTINUOUS
 10
140.4238345113
 20
105.810185526
 11
140.4238345113
 21
105.060185526
  0
LINE
  5
3A4
100
AcDbEntity
  8
KONSTRUKTIONSELEMENTE
100
AcDbLine
 62
7
  6
CONTINUOUS
 10
140.4238345113
 20
102.9768534643
 11
140.4238345113
 21
102.4768534643
  0
LINE
  5
3A5
100
AcDbEntity
  8
KONSTRUKTIONSELEMENTE
100
AcDbLine
 62
7
  6
CONTINUOUS
 10
140.4238345113
 20
101.810185526
 11
140.4238345113
 21
101.5493161158
  0
LINE
  5
3A6
100
AcDbEntity
  8
KONSTRUKTIONSELEMENTE
100
AcDbLine
 62
7
  6
CONTINUOUS
 10
140.4238345113
 20
82.8935194952
 11
140.4238345113
 21
82.3935194952
  0
LINE
  5
3A7
100
AcDbEntity
  8
KONSTRUKTIONSELEMENTE
100
AcDbLine
 62
7
  6
CONTINUOUS
 10
136.5089408841
 20
83.226852749
 11
136.4238345113
 21
82.8101861221
  0
LINE
  5
3A8
100
AcDbEntity
  8
KONSTRUKTIONSELEMENTE
100
AcDbLine
 62
7
  6
CONTINUOUS
 10
136.9344727483
 20
83.1435194952
 11
136.8493663755
 21
82.8101861221
  0
LINE
  5
3A9
100
AcDbEntity
  8
KONSTRUKTIONSELEMENTE
100
AcDbLine
 62
7
  6
CONTINUOUS
 10
138.2110685792
 20
82.4768528682
 11
138.1259622064
 21
82.1435194952
  0
LINE
  5
3AA
100
AcDbEntity
  8
KONSTRUKTIONSELEMENTE
100
AcDbLine
 62
7
  6
CONTINUOUS
 10
138.6366004434
 20
83.1435194952
 11
138.5514940705
 21
82.8101861221
  0
LINE
  5
3AB
100
AcDbEntity
  8
KONSTRUKTIONSELEMENTE
100
AcDbLine
 62
7
  6
CONTINUOUS
 10
138.4663876977
 20
83.6435194952
 11
138.3812813249
 21
83.476852749
  0
LINE
  5
3AC
100
AcDbEntity
  8
KONSTRUKTIONSELEMENTE
100
AcDbLine
 62
7
  6
CONTINUOUS
 10
136.7642600026
 20
83.6435194952
 11
136.5089408841
 21
83.226852749
  0
LINE
  5
3AD
100
AcDbEntity
  8
KONSTRUKTIONSELEMENTE
100
AcDbLine
 62
7
  6
CONTINUOUS
 10
137.1897918668
 20
83.476852749
 11
136.9344727483
 21
83.1435194952
  0
LINE
  5
3AE
100
AcDbEntity
  8
KONSTRUKTIONSELEMENTE
100
AcDbLine
 62
7
  6
CONTINUOUS
 10
137.0195791211
 20
83.8935194952
 11
136.7642600026
 21
83.6435194952
  0
LINE
  5
3AF
100
AcDbEntity
  8
KONSTRUKTIONSELEMENTE
100
AcDbLine
 62
7
  6
CONTINUOUS
 10
139.1472387996
 20
83.726852749
 11
138.806813189
 21
83.476852749
  0
LINE
  5
3B0
100
AcDbEntity
  8
KONSTRUKTIONSELEMENTE
100
AcDbLine
 62
7
  6
CONTINUOUS
 10
137.4451112237
 20
83.6435194952
 11
137.1897918668
 21
83.476852749
  0
LINE
  5
3B1
100
AcDbEntity
  8
KONSTRUKTIONSELEMENTE
100
AcDbLine
 62
7
  6
CONTINUOUS
 10
139.6356745098
 20
85.0493161158
 11
139.4876642909
 21
84.976852749
  0
LINE
  5
3B2
100
AcDbEntity
  8
KONSTRUKTIONSELEMENTE
100
AcDbLine
 62
7
  6
CONTINUOUS
 10
138.0408558335
 20
81.3935194952
 11
137.7004303422
 21
81.226852831
  0
LINE
  5
3B3
100
AcDbEntity
  8
KONSTRUKTIONSELEMENTE
100
AcDbLine
 62
7
  6
CONTINUOUS
 10
139.1472387996
 20
84.1435194952
 11
138.7217068162
 21
83.976852749
  0
LINE
  5
3B4
100
AcDbEntity
  8
KONSTRUKTIONSELEMENTE
100
AcDbLine
 62
7
  6
CONTINUOUS
 10
108.8938345113
 20
108.1862208778
 11
118.8938345113
 21
108.1862208778
  0
LINE
  5
3B5
100
AcDbEntity
  8
KONSTRUKTIONSELEMENTE
100
AcDbLine
 62
7
  6
CONTINUOUS
 10
130.8938345113
 20
108.1862208778
 11
140.8938345113
 21
108.1862208778
  0
LINE
  5
3B6
100
AcDbEntity
  8
KONSTRUKTIONSELEMENTE
100
AcDbLine
 62
7
  6
CONTINUOUS
 10
108.8938345113
 20
108.5493161158
 11
118.8938345113
 21
108.5493161158
  0
LINE
  5
3B7
100
AcDbEntity
  8
KONSTRUKTIONSELEMENTE
100
AcDbLine
 62
7
  6
CONTINUOUS
 10
130.8938345113
 20
108.5493161158
 11
140.8938345113
 21
108.5493161158
  0
LINE
  5
3B8
100
AcDbEntity
  8
KONSTRUKTIONSELEMENTE
100
AcDbLine
 62
7
  6
CONTINUOUS
 10
142.8938345113
 20
107.1050104592
 11
142.8938345113
 21
101.5493161158
  0
LINE
  5
3B9
100
AcDbEntity
  8
KONSTRUKTIONSELEMENTE
100
AcDbLine
 62
7
  6
CONTINUOUS
 10
142.8938345113
 20
85.0493161158
 11
142.8938345113
 21
79.4936217725
  0
LINE
  5
3BA
100
AcDbEntity
  8
KONSTRUKTIONSELEMENTE
100
AcDbLine
 62
7
  6
CONTINUOUS
 10
140.4238345113
 20
82.3935194952
 11
140.338728131
 21
81.9768528086
  0
LINE
  5
3BB
100
AcDbEntity
  8
KONSTRUKTIONSELEMENTE
100
AcDbLine
 62
7
  6
CONTINUOUS
 10
139.9983025875
 20
82.4768528682
 11
139.9131962147
 21
82.1435194952
  0
LINE
  5
3BC
100
AcDbEntity
  8
KONSTRUKTIONSELEMENTE
100
AcDbLine
 62
7
  6
CONTINUOUS
 10
138.806813189
 20
83.476852749
 11
138.6366004434
 21
83.1435194952
  0
LINE
  5
3BD
100
AcDbEntity
  8
KONSTRUKTIONSELEMENTE
100
AcDbLine
 62
7
  6
CONTINUOUS
 10
138.3812813249
 20
81.8101861817
 11
138.296174952
 21
81.6435194952
  0
LINE
  5
3BE
100
AcDbEntity
  8
KONSTRUKTIONSELEMENTE
100
AcDbLine
 62
7
  6
CONTINUOUS
 10
139.9131962147
 20
82.1435194952
 11
139.742983469
 21
81.8101861817
  0
LINE
  5
3BF
100
AcDbEntity
  8
KONSTRUKTIONSELEMENTE
100
AcDbLine
 62
7
  6
CONTINUOUS
 10
140.338728131
 20
81.9768528086
 11
140.0834089901
 21
81.5601861519
  0
LINE
  5
3C0
100
AcDbEntity
  8
KONSTRUKTIONSELEMENTE
100
AcDbLine
 62
7
  6
CONTINUOUS
 10
138.7217068162
 20
83.976852749
 11
138.4663876977
 21
83.6435194952
  0
LINE
  5
3C1
100
AcDbEntity
  8
KONSTRUKTIONSELEMENTE
100
AcDbLine
 62
7
  6
CONTINUOUS
 10
138.1259622064
 20
82.1435194952
 11
137.8706430879
 21
81.8101861817
  0
LINE
  5
3C2
100
AcDbEntity
  8
KONSTRUKTIONSELEMENTE
100
AcDbLine
 62
7
  6
CONTINUOUS
 10
138.296174952
 20
81.6435194952
 11
138.0408558335
 21
81.3935194952
  0
LINE
  5
3C3
100
AcDbEntity
  8
KONSTRUKTIONSELEMENTE
100
AcDbLine
 62
7
  6
CONTINUOUS
 10
140.0834089901
 20
81.5601861519
 11
139.8280898418
 21
81.3101861668
  0
LINE
  5
3C4
100
AcDbEntity
  8
KONSTRUKTIONSELEMENTE
100
AcDbLine
 62
7
  6
CONTINUOUS
 10
139.742983469
 20
81.8101861817
 11
139.4025579181
 21
81.5601861519
  0
LINE
  5
3C5
100
AcDbEntity
  8
KONSTRUKTIONSELEMENTE
100
AcDbLine
 62
7
  6
CONTINUOUS
 10
137.8706430879
 20
81.8101861817
 11
137.6153239694
 21
81.6435194952
  0
LINE
  5
3C6
100
AcDbEntity
  8
KONSTRUKTIONSELEMENTE
100
AcDbLine
 62
7
  6
CONTINUOUS
 10
139.8280898418
 20
81.3101861668
 11
139.4025579181
 21
81.1435194952
  0
LINE
  5
3C7
100
AcDbEntity
  8
KONSTRUKTIONSELEMENTE
100
AcDbLine
 62
7
  6
CONTINUOUS
 10
147.8938345113
 20
112.941714895
 11
147.8938345113
 21
112.0106634231
  0
LINE
  5
3C8
100
AcDbEntity
  8
0
100
AcDbLine
 62
7
  6
CONTINUOUS
 10
147.8938345113
 20
112.0106634231
 11
147.8938345113
 21
101.5493161158
  0
LINE
  5
3C9
100
AcDbEntity
  8
0
100
AcDbLine
 62
7
  6
CONTINUOUS
 10
147.8938345113
 20
85.0493161158
 11
147.8938345113
 21
73.6569173367
  0
LINE
  5
3CA
100
AcDbEntity
  8
KONSTRUKTIONSELEMENTE
100
AcDbLine
 62
7
  6
CONTINUOUS
 10
103.8938345113
 20
114.6232749655
 11
145.8938345113
 21
114.6232749655
  0
LINE
  5
3CB
100
AcDbEntity
  8
0
100
AcDbLine
 62
7
  6
CONTINUOUS
 10
158.5138345113
 20
85.0493161158
 11
158.5138345113
 21
84.5493161158
  0
LINE
  5
3CC
100
AcDbEntity
  8
0
100
AcDbLine
 62
7
  6
CONTINUOUS
 10
162.9427820013
 20
85.0493161158
 11
162.9427820013
 21
84.5493161158
  0
LINE
  5
3CD
100
AcDbEntity
  8
0
100
AcDbLine
 62
7
  6
CONTINUOUS
 10
163.5467293863
 20
85.0516543254
 11
163.5467293863
 21
84.5493161158
  0
LINE
  5
3CE
100
AcDbEntity
  8
0
100
AcDbLine
 62
7
  6
CONTINUOUS
 10
164.5533083613
 20
85.1856115592
 11
164.5533083613
 21
84.5493161158
  0
LINE
  5
3CF
100
AcDbEntity
  8
BEZUGSACHSEN
100
AcDbLine
 62
7
  6
CONTINUOUS
 10
168.3938352113
 20
90.0493161158
 11
168.3938352113
 21
96.5493161158
  0
LINE
  5
3D0
100
AcDbEntity
  8
RUNDUNGEN
100
AcDbLine
 62
7
  6
CONTINUOUS
 10
235.1994844741
 20
144.2659934679
 11
232.6994844741
 21
144.2659934679
  0
LINE
  5
3D1
100
AcDbEntity
  8
RUNDUNGEN
100
AcDbLine
 62
7
  6
CONTINUOUS
 10
210.895265846
 20
144.2659934679
 11
208.395265846
 21
144.2659934679
  0
LINE
  5
3D2
100
AcDbEntity
  8
RUNDUNGEN
100
AcDbLine
 62
7
  6
CONTINUOUS
 10
236.5850365297
 20
146.5659934679
 11
235.6050365297
 21
146.5659934679
  0
LINE
  5
3D3
100
AcDbEntity
  8
RUNDUNGEN
100
AcDbLine
 62
7
  6
CONTINUOUS
 10
207.0097137904
 20
146.5659934679
 11
207.9897137904
 21
146.5659934679
  0
LINE
  5
3D4
100
AcDbEntity
  8
KONSTRUKTIONSELEMENTE
100
AcDbLine
 62
7
  6
CONTINUOUS
 10
207.0097137904
 20
146.5659934679
 11
200.4734163105
 21
154.2659934679
  0
LINE
  5
3D5
100
AcDbEntity
  8
RUNDUNGEN
100
AcDbLine
 62
7
  6
CONTINUOUS
 10
208.395265846
 20
144.2659934679
 11
207.9897137904
 21
146.5659934679
  0
LINE
  5
3D6
100
AcDbEntity
  8
0
100
AcDbLine
 62
7
  6
CONTINUOUS
 10
230.0473751601
 20
174.3140800822
 11
230.5473751601
 21
174.3140800822
  0
LINE
  5
3D7
100
AcDbEntity
  8
0
100
AcDbLine
 62
7
  6
CONTINUOUS
 10
230.0473751601
 20
177.3794144929
 11
230.5473751601
 21
177.3794144929
  0
LINE
  5
3D8
100
AcDbEntity
  8
0
100
AcDbLine
 62
7
  6
CONTINUOUS
 10
230.0473751601
 20
178.3859934679
 11
230.5473751601
 21
178.3859934679
  0
LINE
  5
3D9
100
AcDbEntity
  8
KONSTRUKTIONSELEMENTE
100
AcDbLine
 62
7
  6
CONTINUOUS
 10
209.2865057499
 20
171.7510770136
 11
209.2865057499
 21
171.1171251777
  0
LINE
  5
3DA
100
AcDbEntity
  8
KONSTRUKTIONSELEMENTE
100
AcDbLine
 62
7
  6
CONTINUOUS
 10
209.7865057499
 20
172.0982399896
 11
209.7865057499
 21
171.4899971077
  0
LINE
  5
3DB
100
AcDbEntity
  8
KONSTRUKTIONSELEMENTE
100
AcDbLine
 62
7
  6
CONTINUOUS
 10
201.1164123468
 20
157.9126051989
 11
200.4734163105
 21
154.2659934679
  0
LINE
  5
3DC
100
AcDbEntity
  8
KONSTRUKTIONSELEMENTE
100
AcDbLine
 62
7
  6
CONTINUOUS
 10
211.8698378116
 20
173.3367564887
 11
211.8698378116
 21
172.7708532463
  0
LINE
  5
3DD
100
AcDbEntity
  8
KONSTRUKTIONSELEMENTE
100
AcDbLine
 62
7
  6
CONTINUOUS
 10
212.6198378116
 20
173.7088021183
 11
212.6198378116
 21
173.1347482568
  0
LINE
  5
3DE
100
AcDbEntity
  8
KONSTRUKTIONSELEMENTE
100
AcDbLine
 62
7
  6
CONTINUOUS
 10
213.2865057499
 20
174.009729231
 11
213.2865057499
 21
173.4582111053
  0
LINE
  5
3DF
100
AcDbEntity
  8
KONSTRUKTIONSELEMENTE
100
AcDbLine
 62
7
  6
CONTINUOUS
 10
213.3698378116
 20
174.0454427585
 11
213.3698378116
 21
173.4986432673
  0
LINE
  5
3E0
100
AcDbEntity
  8
KONSTRUKTIONSELEMENTE
100
AcDbLine
 62
7
  6
CONTINUOUS
 10
213.4531717807
 20
174.0807422668
 11
213.4531717807
 21
173.5352222195
  0
LINE
  5
3E1
100
AcDbEntity
  8
KONSTRUKTIONSELEMENTE
100
AcDbLine
 62
7
  6
CONTINUOUS
 10
213.5365057499
 20
174.1156291468
 11
213.5365057499
 21
173.5675059711
  0
LINE
  5
3E2
100
AcDbEntity
  8
BEZUGSACHSEN
100
AcDbLine
 62
7
  6
CONTINUOUS
 10
213.5473751601
 20
240.5159941679
 11
213.5473751601
 21
154.2659934679
  0
LINE
  5
3E3
100
AcDbEntity
  8
T_STARTBEZUEGE
100
AcDbLine
 62
7
  6
CENTER
 10
221.7973751601
 20
143.0159934679
 11
221.7973751601
 21
248.5159941679
  0
LINE
  5
3E4
100
AcDbEntity
  8
RUNDUNGEN
100
AcDbLine
 62
7
  6
CONTINUOUS
 10
210.895265846
 20
144.2659934679
 11
212.9341053829
 21
155.8288270669
  0
LINE
  5
3E5
100
AcDbEntity
  8
RUNDUNGEN
100
AcDbLine
 62
7
  6
CONTINUOUS
 10
230.6606449372
 20
155.8288270669
 11
232.6994844741
 21
144.2659934679
  0
LINE
  5
3E6
100
AcDbEntity
  8
BEZUGSACHSEN
100
AcDbLine
 62
7
  6
CONTINUOUS
 10
230.0473751601
 20
240.5159941679
 11
230.0473751601
 21
240.2836264082
  0
LINE
  5
3E7
100
AcDbEntity
  8
RUNDUNGEN
100
AcDbLine
 62
7
  6
CONTINUOUS
 10
230.0473751601
 20
240.2836264082
 11
230.0473751601
 21
154.2659934679
  0
LINE
  5
3E8
100
AcDbEntity
  8
KONSTRUKTIONSELEMENTE
100
AcDbLine
 62
7
  6
CONTINUOUS
 10
230.2034869053
 20
174.0545579768
 11
230.2034869053
 21
173.5090388274
  0
LINE
  5
3E9
100
AcDbEntity
  8
KONSTRUKTIONSELEMENTE
100
AcDbLine
 62
7
  6
CONTINUOUS
 10
230.2868199208
 20
174.0189509086
 11
230.2868199208
 21
173.4686062027
  0
LINE
  5
3EA
100
AcDbEntity
  8
0
100
AcDbLine
 62
7
  6
CONTINUOUS
 10
230.5473751601
 20
178.3859934679
 11
230.5473751601
 21
173.9048870008
  0
LINE
  5
3EB
100
AcDbEntity
  8
KONSTRUKTIONSELEMENTE
100
AcDbLine
 62
7
  6
CONTINUOUS
 10
230.7868201592
 20
173.7964793453
 11
230.7868201592
 21
173.2388720049
  0
LINE
  5
3EC
100
AcDbEntity
  8
KONSTRUKTIONSELEMENTE
100
AcDbLine
 62
7
  6
CONTINUOUS
 10
230.9534866669
 20
173.718901273
 11
230.9534866669
 21
173.1451439326
  0
LINE
  5
3ED
100
AcDbEntity
  8
KONSTRUKTIONSELEMENTE
100
AcDbLine
 62
7
  6
CONTINUOUS
 10
231.0365050346
 20
173.6796092867
 11
231.0365050346
 21
173.1048639729
  0
LINE
  5
3EE
100
AcDbEntity
  8
KONSTRUKTIONSELEMENTE
100
AcDbLine
 62
7
  6
CONTINUOUS
 10
231.2031717807
 20
173.5994098739
 11
231.2031717807
 21
173.0239983764
  0
LINE
  5
3EF
100
AcDbEntity
  8
KONSTRUKTIONSELEMENTE
100
AcDbLine
 62
7
  6
CONTINUOUS
 10
231.4534866669
 20
173.4756137287
 11
231.4534866669
 21
172.9025472589
  0
LINE
  5
3F0
100
AcDbEntity
  8
KONSTRUKTIONSELEMENTE
100
AcDbLine
 62
7
  6
CONTINUOUS
 10
231.5368201592
 20
173.4334975075
 11
231.5368201592
 21
172.8621144029
  0
LINE
  5
3F1
100
AcDbEntity
  8
KONSTRUKTIONSELEMENTE
100
AcDbLine
 62
7
  6
CONTINUOUS
 10
231.620153413
 20
173.3909255564
 11
231.620153413
 21
172.8216816625
  0
LINE
  5
3F2
100
AcDbEntity
  8
KONSTRUKTIONSELEMENTE
100
AcDbLine
 62
7
  6
CONTINUOUS
 10
231.870153413
 20
173.2604436643
 11
231.870153413
 21
172.6857850262
  0
LINE
  5
3F3
100
AcDbEntity
  8
KONSTRUKTIONSELEMENTE
100
AcDbLine
 62
7
  6
CONTINUOUS
 10
232.2034866669
 20
173.0798937362
 11
232.2034866669
 21
172.5014022862
  0
LINE
  5
3F4
100
AcDbEntity
  8
KONSTRUKTIONSELEMENTE
100
AcDbLine
 62
7
  6
CONTINUOUS
 10
232.620153413
 20
172.8433310297
 11
232.620153413
 21
172.2424440987
  0
LINE
  5
3F5
100
AcDbEntity
  8
KONSTRUKTIONSELEMENTE
100
AcDbLine
 62
7
  6
CONTINUOUS
 10
234.620153413
 20
171.5236398275
 11
234.620153413
 21
170.8963294795
  0
LINE
  5
3F6
100
AcDbEntity
  8
0
100
AcDbLine
 62
7
  6
CONTINUOUS
 10
242.4783379733
 20
157.9126051989
 11
243.1213340097
 21
154.2659934679
  0
LINE
  5
3F7
100
AcDbEntity
  8
RUNDUNGEN
100
AcDbLine
 62
7
  6
CONTINUOUS
 10
235.6050365297
 20
146.5659934679
 11
235.1994844741
 21
144.2659934679
  0
LINE
  5
3F8
100
AcDbEntity
  8
0
100
AcDbLine
 62
7
  6
CONTINUOUS
 10
236.5850365297
 20
146.5659934679
 11
243.1213340097
 21
154.2659934679
  0
LINE
  5
3F9
100
AcDbEntity
  8
AUSFORMSCHRAEGEN
100
AcDbLine
 62
7
  6
CONTINUOUS
 10
218.5473751601
 20
245.5159941679
 11
225.0473751601
 21
245.5159941679
  0
ARC
  5
3FA
100
AcDbEntity
  8
RUNDUNGEN
100
AcDbCircle
 62
7
  6
CONTINUOUS
 10
107.3938338113
 20
170.5159934679
 40
8.0
100
AcDbArc
 50
179.9999998059
 51
226.5674406962
  0
ARC
  5
3FB
100
AcDbEntity
  8
BEZUGSACHSEN
100
AcDbCircle
 62
7
  6
CONTINUOUS
 10
86.3938338113
 20
151.0159934679
 40
5.0
100
AcDbArc
 50
180.0
 51
270.0
  0
ARC
  5
3FC
100
AcDbEntity
  8
BEZUGSACHSEN
100
AcDbCircle
 62
7
  6
CONTINUOUS
 10
109.3695236778
 20
180.5159934679
 40
3.0
100
AcDbArc
 50
270.0
 51
62.2236809966
  0
ARC
  5
3FD
100
AcDbEntity
  8
RUNDUNGEN
100
AcDbCircle
 62
7
  6
CONTINUOUS
 10
109.3695236778
 20
180.5159934679
 40
3.0
100
AcDbArc
 50
270.0
 51
62.2236809966
  0
ARC
  5
3FE
100
AcDbEntity
  8
RUNDUNGEN
100
AcDbCircle
 62
7
  6
CONTINUOUS
 10
102.3938338113
 20
174.5159934679
 40
3.0
100
AcDbArc
 50
90.0
 51
180.0
  0
ARC
  5
3FF
100
AcDbEntity
  8
0
100
AcDbCircle
 62
7
  6
CONTINUOUS
 10
103.8938345113
 20
173.2659934679
 40
2.0
100
AcDbArc
 50
90.0
 51
180.0
  0
ARC
  5
400
100
AcDbEntity
  8
RUNDUNGEN
100
AcDbCircle
 62
7
  6
CONTINUOUS
 10
120.6938338113
 20
202.0159934679
 40
21.3
100
AcDbArc
 50
180.0
 51
242.2236809966
  0
ARC
  5
401
100
AcDbEntity
  8
BEZUGSACHSEN
100
AcDbCircle
 62
7
  6
CONTINUOUS
 10
89.4464656113
 20
202.0159934679
 40
8.0526318
100
AcDbArc
 50
157.5
 51
180.0
  0
ARC
  5
402
100
AcDbEntity
  8
RUNDUNGEN
100
AcDbCircle
 62
7
  6
CONTINUOUS
 10
89.4464656113
 20
202.0159934679
 40
8.0526318
100
AcDbArc
 50
157.5
 51
180.0
  0
ARC
  5
403
100
AcDbEntity
  8
RUNDUNGEN
100
AcDbCircle
 62
7
  6
CONTINUOUS
 10
99.8287595869
 20
227.0810683923
 40
8.0526318
100
AcDbArc
 50
112.5
 51
157.5
  0
ARC
  5
404
100
AcDbEntity
  8
BEZUGSACHSEN
100
AcDbCircle
 62
7
  6
CONTINUOUS
 10
142.3938352113
 20
170.5159934679
 40
8.0
100
AcDbArc
 50
313.4325593038
 51
0.0000001941
  0
ARC
  5
405
100
AcDbEntity
  8
BEZUGSACHSEN
100
AcDbCircle
 62
7
  6
CONTINUOUS
 10
163.3938352113
 20
151.0159934679
 40
5.0
100
AcDbArc
 50
270.0
 51
360.0
  0
ARC
  5
406
100
AcDbEntity
  8
BEZUGSACHSEN
100
AcDbCircle
 62
7
  6
CONTINUOUS
 10
140.4181453448
 20
180.5159934679
 40
3.0
100
AcDbArc
 50
117.7763190034
 51
270.0
  0
ARC
  5
407
100
AcDbEntity
  8
BEZUGSACHSEN
100
AcDbCircle
 62
7
  6
CONTINUOUS
 10
147.3938352113
 20
174.5159934679
 40
3.0
100
AcDbArc
 50
0.0
 51
90.0
  0
ARC
  5
408
100
AcDbEntity
  8
0
100
AcDbCircle
 62
7
  6
CONTINUOUS
 10
160.9296240513
 20
169.9307300779
 40
2.41578954
100
AcDbArc
 50
90.0
 51
270.0
  0
ARC
  5
409
100
AcDbEntity
  8
0
100
AcDbCircle
 62
7
  6
CONTINUOUS
 10
160.7283082563
 20
163.5825720089
 40
2.214473745
100
AcDbArc
 50
180.0
 51
270.0
  0
ARC
  5
40A
100
AcDbEntity
  8
0
100
AcDbCircle
 62
7
  6
CONTINUOUS
 10
162.3388346163
 20
163.5825720089
 40
2.214473745
100
AcDbArc
 50
270.0
 51
360.0
  0
ARC
  5
40B
100
AcDbEntity
  8
0
100
AcDbCircle
 62
7
  6
CONTINUOUS
 10
145.8938345113
 20
173.2659934679
 40
2.0
100
AcDbArc
 50
0.0
 51
90.0
  0
ARC
  5
40C
100
AcDbEntity
  8
0
100
AcDbCircle
 62
7
  6
CONTINUOUS
 10
162.7951504183
 20
175.3125723309
 40
1.758157943
100
AcDbArc
 50
201.1872687082
 51
360.0
  0
ARC
  5
40D
100
AcDbEntity
  8
0
100
AcDbCircle
 62
7
  6
CONTINUOUS
 10
162.2851504043
 20
163.8396718663
 40
1.261578982
100
AcDbArc
 50
270.1673221427
 51
360.0
  0
ARC
  5
40E
100
AcDbEntity
  8
0
100
AcDbCircle
 62
7
  6
CONTINUOUS
 10
160.7819924683
 20
163.8396772459
 40
1.261578982
100
AcDbArc
 50
180.0
 51
270.0
  0
ARC
  5
40F
100
AcDbEntity
  8
0
100
AcDbCircle
 62
7
  6
CONTINUOUS
 10
160.9296240513
 20
169.9307300779
 40
1.20789477
100
AcDbArc
 50
90.0
 51
270.0
  0
ARC
  5
410
100
AcDbEntity
  8
0
100
AcDbCircle
 62
7
  6
CONTINUOUS
 10
160.0304135003
 20
176.3519746541
 40
1.006578975
100
AcDbArc
 50
300.0
 51
360.0
  0
ARC
  5
411
100
AcDbEntity
  8
0
100
AcDbCircle
 62
7
  6
CONTINUOUS
 10
162.7951504183
 20
175.7152039209
 40
0.751578968
100
AcDbArc
 50
180.0
 51
360.0
  0
ARC
  5
412
100
AcDbEntity
  8
BEZUGSACHSEN
100
AcDbCircle
 62
7
  6
CONTINUOUS
 10
124.8938345113
 20
202.0159934679
 40
25.5000007
100
AcDbArc
 50
359.9999999093
 51
180.0000000907
  0
ARC
  5
413
100
AcDbEntity
  8
BEZUGSACHSEN
100
AcDbCircle
 62
7
  6
CONTINUOUS
 10
129.0938352113
 20
202.0159934679
 40
21.3
100
AcDbArc
 50
297.7763190034
 51
360.0
  0
ARC
  5
414
100
AcDbEntity
  8
BEZUGSACHSEN
100
AcDbCircle
 62
7
  6
CONTINUOUS
 10
160.3412034113
 20
202.0159934679
 40
8.0526318
100
AcDbArc
 50
0.0
 51
22.5
  0
ARC
  5
415
100
AcDbEntity
  8
BEZUGSACHSEN
100
AcDbCircle
 62
7
  6
CONTINUOUS
 10
149.9589094357
 20
227.0810683923
 40
8.0526318
100
AcDbArc
 50
22.5
 51
67.5
  0
ARC
  5
416
100
AcDbEntity
  8
BEZUGSACHSEN
100
AcDbCircle
 62
7
  6
CONTINUOUS
 10
124.8938345113
 20
237.4633623679
 40
8.0526318
100
AcDbArc
 50
67.5
 51
112.5
  0
ARC
  5
417
100
AcDbEntity
  8
RUNDUNGEN
100
AcDbCircle
 62
7
  6
CONTINUOUS
 10
86.3938338113
 20
90.0493161158
 40
5.0
100
AcDbArc
 50
180.0
 51
270.0
  0
ARC
  5
418
100
AcDbEntity
  8
BEZUGSACHSEN
100
AcDbCircle
 62
7
  6
CONTINUOUS
 10
86.3938338113
 20
96.5493161158
 40
5.0
100
AcDbArc
 50
90.0
 51
180.0
  0
ARC
  5
419
100
AcDbEntity
  8
BEZUGSACHSEN
100
AcDbCircle
 62
7
  6
CONTINUOUS
 10
163.3938352113
 20
90.0493161158
 40
5.0
100
AcDbArc
 50
270.0
 51
360.0
  0
ARC
  5
41A
100
AcDbEntity
  8
BEZUGSACHSEN
100
AcDbCircle
 62
7
  6
CONTINUOUS
 10
163.3938352113
 20
96.5493161158
 40
5.0
100
AcDbArc
 50
0.0
 51
90.0
  0
ARC
  5
41B
100
AcDbEntity
  8
KONSTRUKTIONSELEMENTE
100
AcDbCircle
 62
7
  6
CONTINUOUS
 10
108.0390561418
 20
106.7384234542
 40
1.1454097423
100
AcDbArc
 50
160.2482123079
 51
170.1321255562
  0
ARC
  5
41C
100
AcDbEntity
  8
KONSTRUKTIONSELEMENTE
100
AcDbCircle
 62
7
  6
CONTINUOUS
 10
119.7486128808
 20
106.7384234542
 40
1.1454097423
100
AcDbArc
 50
9.8678744438
 51
19.7517876921
  0
ARC
  5
41D
100
AcDbEntity
  8
KONSTRUKTIONSELEMENTE
100
AcDbCircle
 62
7
  6
CONTINUOUS
 10
108.0390561418
 20
79.8602087775
 40
1.1454097423
100
AcDbArc
 50
189.8678744438
 51
199.7517876921
  0
ARC
  5
41E
100
AcDbEntity
  8
KONSTRUKTIONSELEMENTE
100
AcDbCircle
 62
7
  6
CONTINUOUS
 10
119.7486128808
 20
79.8602087775
 40
1.1454097423
100
AcDbArc
 50
340.2482123079
 51
350.1321255562
  0
ARC
  5
41F
100
AcDbEntity
  8
KONSTRUKTIONSELEMENTE
100
AcDbCircle
 62
7
  6
CONTINUOUS
 10
130.0390561418
 20
79.8602087775
 40
1.1454097423
100
AcDbArc
 50
189.8678744438
 51
199.7517876921
  0
ARC
  5
420
100
AcDbEntity
  8
KONSTRUKTIONSELEMENTE
100
AcDbCircle
 62
7
  6
CONTINUOUS
 10
141.7486128808
 20
79.8602087775
 40
1.1454097423
100
AcDbArc
 50
340.2482123079
 51
350.1321255562
  0
ARC
  5
421
100
AcDbEntity
  8
KONSTRUKTIONSELEMENTE
100
AcDbCircle
 62
7
  6
CONTINUOUS
 10
141.7486128808
 20
106.7384234542
 40
1.1454097423
100
AcDbArc
 50
9.8678744438
 51
19.751787692
  0
ARC
  5
422
100
AcDbEntity
  8
KONSTRUKTIONSELEMENTE
100
AcDbCircle
 62
7
  6
CONTINUOUS
 10
130.0390561418
 20
106.7384234542
 40
1.1454097423
100
AcDbArc
 50
160.2482123079
 51
170.1321255562
  0
ARC
  5
423
100
AcDbEntity
  8
KONSTRUKTIONSELEMENTE
100
AcDbCircle
 62
7
  6
CONTINUOUS
 10
212.6262590058
 20
149.6885347313
 40
2.0
100
AcDbArc
 50
237.5163354934
 51
26.524556918
  0
ARC
  5
424
100
AcDbEntity
  8
KONSTRUKTIONSELEMENTE
100
AcDbCircle
 62
7
  6
CONTINUOUS
 10
212.6262590058
 20
149.6885347313
 40
1.5
100
AcDbArc
 50
229.3744502423
 51
26.524556918
  0
ARC
  5
425
100
AcDbEntity
  8
BEZUGSACHSEN
100
AcDbCircle
 62
7
  6
CONTINUOUS
 10
218.5473751601
 20
240.5159941679
 40
5.0
100
AcDbArc
 50
90.0
 51
180.0
  0
ARC
  5
426
100
AcDbEntity
  8
KONSTRUKTIONSELEMENTE
100
AcDbCircle
 62
7
  6
CONTINUOUS
 10
221.7973751601
 20
154.2659934679
 40
21.5
100
AcDbArc
 50
115.2685917911
 51
125.5843533797
  0
ARC
  5
427
100
AcDbEntity
  8
KONSTRUKTIONSELEMENTE
100
AcDbCircle
 62
7
  6
CONTINUOUS
 10
221.7973751601
 20
154.2659934679
 40
21.5
100
AcDbArc
 50
112.5643692786
 51
113.3192709081
  0
ARC
  5
428
100
AcDbEntity
  8
KONSTRUKTIONSELEMENTE
100
AcDbCircle
 62
7
  6
CONTINUOUS
 10
221.7973751601
 20
154.2659934679
 40
21.5
100
AcDbArc
 50
53.3869087963
 51
63.3126679549
  0
ARC
  5
429
100
AcDbEntity
  8
KONSTRUKTIONSELEMENTE
100
AcDbCircle
 62
7
  6
CONTINUOUS
 10
221.7973751601
 20
154.2659934679
 40
21.5
100
AcDbArc
 50
63.3136071496
 51
67.4356296634
  0
ARC
  5
42A
100
AcDbEntity
  8
0
100
AcDbCircle
 62
7
  6
CONTINUOUS
 10
221.7973751601
 20
154.2659934679
 40
21.0
100
AcDbArc
 50
113.1383499008
 51
170.0
  0
ARC
  5
42B
100
AcDbEntity
  8
0
100
AcDbCircle
 62
7
  6
CONTINUOUS
 10
221.7973751601
 20
154.2659934679
 40
21.0
100
AcDbArc
 50
10.0
 51
66.8616500992
  0
ARC
  5
42C
100
AcDbEntity
  8
RUNDUNGEN
100
AcDbCircle
 62
7
  6
CONTINUOUS
 10
221.7973751601
 20
154.2659934679
 40
9.0
100
AcDbArc
 50
156.5914408331
 51
170.0
  0
ARC
  5
42D
100
AcDbEntity
  8
RUNDUNGEN
100
AcDbCircle
 62
7
  6
CONTINUOUS
 10
221.7973751601
 20
154.2659934679
 40
9.0
100
AcDbArc
 50
10.0
 51
23.4085591601
  0
ARC
  5
42E
100
AcDbEntity
  8
KONSTRUKTIONSELEMENTE
100
AcDbCircle
 62
7
  6
CONTINUOUS
 10
221.7973751601
 20
154.2659934679
 40
8.75
100
AcDbArc
 50
160.6644039669
 51
206.524556918
  0
ARC
  5
42F
100
AcDbEntity
  8
KONSTRUKTIONSELEMENTE
100
AcDbCircle
 62
7
  6
CONTINUOUS
 10
221.7973751601
 20
154.2659934679
 40
8.75
100
AcDbArc
 50
333.475443082
 51
19.3355960331
  0
ARC
  5
430
100
AcDbEntity
  8
BEZUGSACHSEN
100
AcDbCircle
 62
7
  6
CONTINUOUS
 10
221.7973751601
 20
154.2659934679
 40
8.25
100
AcDbArc
 50
180.0
 51
360.0
  0
ARC
  5
431
100
AcDbEntity
  8
KONSTRUKTIONSELEMENTE
100
AcDbCircle
 62
7
  6
CONTINUOUS
 10
230.9684913143
 20
149.6885347313
 40
2.0
100
AcDbArc
 50
153.475443082
 51
302.4836645066
  0
ARC
  5
432
100
AcDbEntity
  8
KONSTRUKTIONSELEMENTE
100
AcDbCircle
 62
7
  6
CONTINUOUS
 10
230.9684913143
 20
149.6885347313
 40
1.5
100
AcDbArc
 50
153.475443082
 51
310.6255497577
  0
ARC
  5
433
100
AcDbEntity
  8
BEZUGSACHSEN
100
AcDbCircle
 62
7
  6
CONTINUOUS
 10
225.0473751601
 20
240.5159941679
 40
5.0
100
AcDbArc
 50
0.0
 51
90.0
  0
SPLINE
  5
434
100
AcDbEntity
  8
KONSTRUKTIONSELEMENTE
100
AcDbSpline
 62
7
  6
CONTINUOUS
 70
0
 71
3
 72
9
 73
5
 74
0
 42
0.0000001
 43
0.0000001
 44
0.0000000001
 40
0.0
 40
0.0
 40
0.0
 40
0.0
 40
0.747136011
 40
1.0
 40
1.0
 40
1.0
 40
1.0
 10
142.8938345113
 20
170.0901144134
 30
0.0
 10
142.8938345113
 20
170.0471702563
 30
0.0
 10
142.8895176302
 20
169.9895769502
 30
0.0
 10
142.8798517342
 20
169.9329112651
 30
0.0
 10
142.8770768996
 20
169.9186443972
 30
0.0
  0
SPLINE
  5
435
100
AcDbEntity
  8
KONSTRUKTIONSELEMENTE
100
AcDbSpline
 62
7
  6
CONTINUOUS
 70
0
 71
3
 72
13
 73
9
 74
0
 42
0.0000001
 43
0.0000001
 44
0.0000000001
 40
0.0
 40
0.0
 40
0.0
 40
0.0
 40
0.0999592583
 40
0.2069560358
 40
0.3223363349
 40
0.4461853178
 40
0.7145582321
 40
1.0
 40
1.0
 40
1.0
 40
1.0
 10
142.8770768996
 20
169.9186443972
 30
0.0
 10
142.8612145897
 20
169.8370880125
 30
0.0
 10
142.8055171417
 20
169.6721138842
 30
0.0
 10
142.6622296111
 20
169.4434040675
 30
0.0
 10
142.4625935855
 20
169.2337187647
 30
0.0
 10
142.1212123046
 20
168.982760199
 30
0.0
 10
141.5935008515
 20
168.762618657
 30
0.0
 10
141.1310894271
 20
168.7033581858
 30
0.0
 10
140.8938345113
 20
168.7033581858
 30
0.0
  0
SPLINE
  5
436
100
AcDbEntity
  8
KONSTRUKTIONSELEMENTE
100
AcDbSpline
 62
7
  6
CONTINUOUS
 70
0
 71
3
 72
9
 73
5
 74
0
 42
0.0000001
 43
0.0000001
 44
0.0000000001
 40
0.0
 40
0.0
 40
0.0
 40
0.0
 40
0.747136011
 40
1.0
 40
1.0
 40
1.0
 40
1.0
 10
120.8938345113
 20
170.0901144134
 30
0.0
 10
120.8938345113
 20
170.0471702563
 30
0.0
 10
120.8895176302
 20
169.9895769502
 30
0.0
 10
120.8798517342
 20
169.9329112651
 30
0.0
 10
120.8770768996
 20
169.9186443972
 30
0.0
  0
SPLINE
  5
437
100
AcDbEntity
  8
KONSTRUKTIONSELEMENTE
100
AcDbSpline
 62
7
  6
CONTINUOUS
 70
0
 71
3
 72
13
 73
9
 74
0
 42
0.0000001
 43
0.0000001
 44
0.0000000001
 40
0.0
 40
0.0
 40
0.0
 40
0.0
 40
0.0999592583
 40
0.2069560358
 40
0.3223363349
 40
0.4461853178
 40
0.7145582321
 40
1.0
 40
1.0
 40
1.0
 40
1.0
 10
120.8770768996
 20
169.9186443972
 30
0.0
 10
120.8612145897
 20
169.8370880125
 30
0.0
 10
120.8055171417
 20
169.6721138842
 30
0.0
 10
120.6622296111
 20
169.4434040675
 30
0.0
 10
120.4625935855
 20
169.2337187647
 30
0.0
 10
120.1212123046
 20
168.982760199
 30
0.0
 10
119.5935008515
 20
168.762618657
 30
0.0
 10
119.1310894271
 20
168.7033581858
 30
0.0
 10
118.8938345113
 20
168.7033581858
 30
0.0
  0
SPLINE
  5
438
100
AcDbEntity
  8
KONSTRUKTIONSELEMENTE
100
AcDbSpline
 62
7
  6
CONTINUOUS
 70
0
 71
3
 72
13
 73
9
 74
0
 42
0.0000001
 43
0.0000001
 44
0.0000000001
 40
0.0
 40
0.0
 40
0.0
 40
0.0
 40
0.2905487368
 40
0.5605952504
 40
0.6834951575
 40
0.7968669954
 40
0.901571874
 40
1.0
 40
1.0
 40
1.0
 40
1.0
 10
108.8938345113
 20
168.7033581858
 30
0.0
 10
108.63583991
 20
168.7033581858
 30
0.0
 10
108.135406681
 20
168.7729634959
 30
0.0
 10
107.5736446202
 20
169.0314145424
 30
0.0
 10
107.2282847225
 20
169.3231717135
 30
0.0
 10
107.0396773483
 20
169.5632041548
 30
0.0
 10
106.9216759196
 20
169.8214854641
 30
0.0
 10
106.8938345113
 20
170.0027145321
 30
0.0
 10
106.8938345113
 20
170.0901144134
 30
0.0
  0
SPLINE
  5
439
100
AcDbEntity
  8
KONSTRUKTIONSELEMENTE
100
AcDbSpline
 62
7
  6
CONTINUOUS
 70
0
 71
3
 72
13
 73
9
 74
0
 42
0.0000001
 43
0.0000001
 44
0.0000000001
 40
0.0
 40
0.0
 40
0.0
 40
0.0
 40
0.2905487368
 40
0.5605952504
 40
0.6834951575
 40
0.7968669954
 40
0.901571874
 40
1.0
 40
1.0
 40
1.0
 40
1.0
 10
130.8938345113
 20
168.7033581858
 30
0.0
 10
130.63583991
 20
168.7033581858
 30
0.0
 10
130.135406681
 20
168.7729634959
 30
0.0
 10
129.5736446202
 20
169.0314145424
 30
0.0
 10
129.2282847225
 20
169.3231717135
 30
0.0
 10
129.0396773483
 20
169.5632041548
 30
0.0
 10
128.9216759196
 20
169.8214854641
 30
0.0
 10
128.8938345113
 20
170.0027145321
 30
0.0
 10
128.8938345113
 20
170.0901144134
 30
0.0
  0
SPLINE
  5
43A
100
AcDbEntity
  8
KONSTRUKTIONSELEMENTE
100
AcDbSpline
 62
7
  6
CONTINUOUS
 70
0
 71
3
 72
14
 73
10
 74
0
 42
0.0000001
 43
0.0000001
 44
0.0000000001
 40
0.0
 40
0.0
 40
0.0
 40
0.0
 40
0.1079435489
 40
0.2175065199
 40
0.3316239259
 40
0.4525145509
 40
0.5809587231
 40
0.7163646043
 40
1.0
 40
1.0
 40
1.0
 40
1.0
 10
142.8938345113
 20
79.4936217725
 30
0.0
 10
142.8938345113
 20
79.3955270388
 30
0.0
 10
142.8678896327
 20
79.1968610887
 30
0.0
 10
142.7511128908
 20
78.9155707279
 30
0.0
 10
142.5619856047
 20
78.6623455926
 30
0.0
 10
142.3096035468
 20
78.445755302
 30
0.0
 10
142.0041763402
 20
78.2716567326
 30
0.0
 10
141.5357616495
 20
78.099417344
 30
0.0
 10
141.1515908933
 20
78.0493161158
 30
0.0
 10
140.8938345113
 20
78.0493161158
 30
0.0
  0
SPLINE
  5
43B
100
AcDbEntity
  8
KONSTRUKTIONSELEMENTE
100
AcDbSpline
 62
7
  6
CONTINUOUS
 70
0
 71
3
 72
11
 73
7
 74
0
 42
0.0000001
 43
0.0000001
 44
0.0000000001
 40
0.0
 40
0.0
 40
0.0
 40
0.0
 40
0.2779967333
 40
0.5413625494
 40
0.7813959911
 40
1.0
 40
1.0
 40
1.0
 40
1.0
 10
108.8938345113
 20
108.1862208778
 30
0.0
 10
108.6777602694
 20
108.1862208778
 30
0.0
 10
108.2552971993
 20
108.1398196809
 30
0.0
 10
107.6778462179
 20
107.9316991085
 30
0.0
 10
107.2168475004
 20
107.595532016
 30
0.0
 10
107.0184561118
 20
107.2854247752
 30
0.0
 10
106.9610360417
 20
107.1255101907
 30
0.0
  0
SPLINE
  5
43C
100
AcDbEntity
  8
KONSTRUKTIONSELEMENTE
100
AcDbSpline
 62
7
  6
CONTINUOUS
 70
0
 71
3
 72
14
 73
10
 74
0
 42
0.0000001
 43
0.0000001
 44
0.0000000001
 40
0.0
 40
0.0
 40
0.0
 40
0.0
 40
0.1079435489
 40
0.2175065199
 40
0.3316239259
 40
0.4525145509
 40
0.5809587231
 40
0.7163646043
 40
1.0
 40
1.0
 40
1.0
 40
1.0
 10
106.8938345113
 20
107.1050104592
 30
0.0
 10
106.8938345113
 20
107.2031051929
 30
0.0
 10
106.9197793898
 20
107.401771143
 30
0.0
 10
107.0365561317
 20
107.6830615038
 30
0.0
 10
107.2256834178
 20
107.9362866391
 30
0.0
 10
107.4780654757
 20
108.1528769297
 30
0.0
 10
107.7834926824
 20
108.3269754991
 30
0.0
 10
108.2519073731
 20
108.4992148877
 30
0.0
 10
108.6360781292
 20
108.5493161158
 30
0.0
 10
108.8938345113
 20
108.5493161158
 30
0.0
  0
SPLINE
  5
43D
100
AcDbEntity
  8
KONSTRUKTIONSELEMENTE
100
AcDbSpline
 62
7
  6
CONTINUOUS
 70
0
 71
3
 72
14
 73
10
 74
0
 42
0.0000001
 43
0.0000001
 44
0.0000000001
 40
0.0
 40
0.0
 40
0.0
 40
0.0
 40
0.2836353957
 40
0.4190412769
 40
0.5474854491
 40
0.6683760741
 40
0.7824934801
 40
0.8920564511
 40
1.0
 40
1.0
 40
1.0
 40
1.0
 10
118.8938345113
 20
108.5493161158
 30
0.0
 10
119.1515908933
 20
108.5493161158
 30
0.0
 10
119.5357616495
 20
108.4992148877
 30
0.0
 10
120.0041763402
 20
108.3269754991
 30
0.0
 10
120.3096035468
 20
108.1528769297
 30
0.0
 10
120.5619856047
 20
107.9362866391
 30
0.0
 10
120.7511128908
 20
107.6830615038
 30
0.0
 10
120.8678896327
 20
107.401771143
 30
0.0
 10
120.8938345113
 20
107.2031051929
 30
0.0
 10
120.8938345113
 20
107.1050104592
 30
0.0
  0
SPLINE
  5
43E
100
AcDbEntity
  8
KONSTRUKTIONSELEMENTE
100
AcDbSpline
 62
7
  6
CONTINUOUS
 70
0
 71
3
 72
11
 73
7
 74
0
 42
0.0000001
 43
0.0000001
 44
0.0000000001
 40
0.0
 40
0.0
 40
0.0
 40
0.0
 40
0.2186040089
 40
0.4586374506
 40
0.7220032667
 40
1.0
 40
1.0
 40
1.0
 40
1.0
 10
120.8266329809
 20
107.1255101907
 30
0.0
 10
120.7692129107
 20
107.2854247752
 30
0.0
 10
120.5708215222
 20
107.595532016
 30
0.0
 10
120.1098228046
 20
107.9316991085
 30
0.0
 10
119.5323718233
 20
108.1398196809
 30
0.0
 10
119.1099087531
 20
108.1862208778
 30
0.0
 10
118.8938345113
 20
108.1862208778
 30
0.0
  0
SPLINE
  5
43F
100
AcDbEntity
  8
KONSTRUKTIONSELEMENTE
100
AcDbSpline
 62
7
  6
CONTINUOUS
 70
0
 71
3
 72
14
 73
10
 74
0
 42
0.0000001
 43
0.0000001
 44
0.0000000001
 40
0.0
 40
0.0
 40
0.0
 40
0.0
 40
0.2836353957
 40
0.4190412769
 40
0.5474854491
 40
0.6683760741
 40
0.7824934801
 40
0.8920564511
 40
1.0
 40
1.0
 40
1.0
 40
1.0
 10
108.8938345113
 20
78.0493161158
 30
0.0
 10
108.6360781292
 20
78.0493161158
 30
0.0
 10
108.2519073731
 20
78.099417344
 30
0.0
 10
107.7834926824
 20
78.2716567326
 30
0.0
 10
107.4780654757
 20
78.445755302
 30
0.0
 10
107.2256834178
 20
78.6623455926
 30
0.0
 10
107.0365561317
 20
78.9155707279
 30
0.0
 10
106.9197793898
 20
79.1968610887
 30
0.0
 10
106.8938345113
 20
79.3955270388
 30
0.0
 10
106.8938345113
 20
79.4936217725
 30
0.0
  0
SPLINE
  5
440
100
AcDbEntity
  8
KONSTRUKTIONSELEMENTE
100
AcDbSpline
 62
7
  6
CONTINUOUS
 70
0
 71
3
 72
11
 73
7
 74
0
 42
0.0000001
 43
0.0000001
 44
0.0000000001
 40
0.0
 40
0.0
 40
0.0
 40
0.0
 40
0.2186040089
 40
0.4586374506
 40
0.7220032667
 40
1.0
 40
1.0
 40
1.0
 40
1.0
 10
106.9610360417
 20
79.473122041
 30
0.0
 10
107.0184561118
 20
79.3132074565
 30
0.0
 10
107.2168475004
 20
79.0031002157
 30
0.0
 10
107.6778462179
 20
78.6669331232
 30
0.0
 10
108.2552971993
 20
78.4588125508
 30
0.0
 10
108.6777602694
 20
78.4124113539
 30
0.0
 10
108.8938345113
 20
78.4124113539
 30
0.0
  0
SPLINE
  5
441
100
AcDbEntity
  8
KONSTRUKTIONSELEMENTE
100
AcDbSpline
 62
7
  6
CONTINUOUS
 70
0
 71
3
 72
11
 73
7
 74
0
 42
0.0000001
 43
0.0000001
 44
0.0000000001
 40
0.0
 40
0.0
 40
0.0
 40
0.0
 40
0.2779967333
 40
0.5413625494
 40
0.7813959911
 40
1.0
 40
1.0
 40
1.0
 40
1.0
 10
118.8938345113
 20
78.4124113539
 30
0.0
 10
119.1099087531
 20
78.4124113539
 30
0.0
 10
119.5323718233
 20
78.4588125508
 30
0.0
 10
120.1098228046
 20
78.6669331232
 30
0.0
 10
120.5708215222
 20
79.0031002157
 30
0.0
 10
120.7692129107
 20
79.3132074565
 30
0.0
 10
120.8266329809
 20
79.473122041
 30
0.0
  0
SPLINE
  5
442
100
AcDbEntity
  8
KONSTRUKTIONSELEMENTE
100
AcDbSpline
 62
7
  6
CONTINUOUS
 70
0
 71
3
 72
14
 73
10
 74
0
 42
0.0000001
 43
0.0000001
 44
0.0000000001
 40
0.0
 40
0.0
 40
0.0
 40
0.0
 40
0.1079435489
 40
0.2175065199
 40
0.3316239259
 40
0.4525145509
 40
0.5809587231
 40
0.7163646043
 40
1.0
 40
1.0
 40
1.0
 40
1.0
 10
120.8938345113
 20
79.4936217725
 30
0.0
 10
120.8938345113
 20
79.3955270388
 30
0.0
 10
120.8678896327
 20
79.1968610887
 30
0.0
 10
120.7511128908
 20
78.9155707279
 30
0.0
 10
120.5619856047
 20
78.6623455926
 30
0.0
 10
120.3096035468
 20
78.445755302
 30
0.0
 10
120.0041763402
 20
78.2716567326
 30
0.0
 10
119.5357616495
 20
78.099417344
 30
0.0
 10
119.1515908933
 20
78.0493161158
 30
0.0
 10
118.8938345113
 20
78.0493161158
 30
0.0
  0
SPLINE
  5
443
100
AcDbEntity
  8
KONSTRUKTIONSELEMENTE
100
AcDbSpline
 62
7
  6
CONTINUOUS
 70
0
 71
3
 72
14
 73
10
 74
0
 42
0.0000001
 43
0.0000001
 44
0.0000000001
 40
0.0
 40
0.0
 40
0.0
 40
0.0
 40
0.2836353957
 40
0.4190412769
 40
0.5474854491
 40
0.6683760741
 40
0.7824934801
 40
0.8920564511
 40
1.0
 40
1.0
 40
1.0
 40
1.0
 10
130.8938345113
 20
78.0493161158
 30
0.0
 10
130.6360781292
 20
78.0493161158
 30
0.0
 10
130.2519073731
 20
78.099417344
 30
0.0
 10
129.7834926824
 20
78.2716567326
 30
0.0
 10
129.4780654757
 20
78.445755302
 30
0.0
 10
129.2256834178
 20
78.6623455926
 30
0.0
 10
129.0365561317
 20
78.9155707279
 30
0.0
 10
128.9197793898
 20
79.1968610887
 30
0.0
 10
128.8938345113
 20
79.3955270388
 30
0.0
 10
128.8938345113
 20
79.4936217725
 30
0.0
  0
SPLINE
  5
444
100
AcDbEntity
  8
KONSTRUKTIONSELEMENTE
100
AcDbSpline
 62
7
  6
CONTINUOUS
 70
0
 71
3
 72
11
 73
7
 74
0
 42
0.0000001
 43
0.0000001
 44
0.0000000001
 40
0.0
 40
0.0
 40
0.0
 40
0.0
 40
0.2186040089
 40
0.4586374506
 40
0.7220032667
 40
1.0
 40
1.0
 40
1.0
 40
1.0
 10
128.9610360417
 20
79.473122041
 30
0.0
 10
129.0184561118
 20
79.3132074565
 30
0.0
 10
129.2168475004
 20
79.0031002157
 30
0.0
 10
129.6778462179
 20
78.6669331232
 30
0.0
 10
130.2552971993
 20
78.4588125508
 30
0.0
 10
130.6777602694
 20
78.4124113539
 30
0.0
 10
130.8938345113
 20
78.4124113539
 30
0.0
  0
SPLINE
  5
445
100
AcDbEntity
  8
KONSTRUKTIONSELEMENTE
100
AcDbSpline
 62
7
  6
CONTINUOUS
 70
0
 71
3
 72
11
 73
7
 74
0
 42
0.0000001
 43
0.0000001
 44
0.0000000001
 40
0.0
 40
0.0
 40
0.0
 40
0.0
 40
0.2779967333
 40
0.5413625494
 40
0.7813959911
 40
1.0
 40
1.0
 40
1.0
 40
1.0
 10
140.8938345113
 20
78.4124113539
 30
0.0
 10
141.1099087531
 20
78.4124113539
 30
0.0
 10
141.5323718233
 20
78.4588125508
 30
0.0
 10
142.1098228046
 20
78.6669331232
 30
0.0
 10
142.5708215222
 20
79.0031002157
 30
0.0
 10
142.7692129107
 20
79.3132074565
 30
0.0
 10
142.8266329809
 20
79.473122041
 30
0.0
  0
SPLINE
  5
446
100
AcDbEntity
  8
KONSTRUKTIONSELEMENTE
100
AcDbSpline
 62
7
  6
CONTINUOUS
 70
0
 71
3
 72
14
 73
10
 74
0
 42
0.0000001
 43
0.0000001
 44
0.0000000001
 40
0.0
 40
0.0
 40
0.0
 40
0.0
 40
0.2836353957
 40
0.4190412769
 40
0.5474854491
 40
0.6683760741
 40
0.7824934801
 40
0.8920564511
 40
1.0
 40
1.0
 40
1.0
 40
1.0
 10
140.8938345113
 20
108.5493161158
 30
0.0
 10
141.1515908933
 20
108.5493161158
 30
0.0
 10
141.5357616495
 20
108.4992148877
 30
0.0
 10
142.0041763402
 20
108.3269754991
 30
0.0
 10
142.3096035468
 20
108.1528769297
 30
0.0
 10
142.5619856047
 20
107.9362866391
 30
0.0
 10
142.7511128908
 20
107.6830615038
 30
0.0
 10
142.8678896327
 20
107.401771143
 30
0.0
 10
142.8938345113
 20
107.2031051929
 30
0.0
 10
142.8938345113
 20
107.1050104592
 30
0.0
  0
SPLINE
  5
447
100
AcDbEntity
  8
KONSTRUKTIONSELEMENTE
100
AcDbSpline
 62
7
  6
CONTINUOUS
 70
0
 71
3
 72
11
 73
7
 74
0
 42
0.0000001
 43
0.0000001
 44
0.0000000001
 40
0.0
 40
0.0
 40
0.0
 40
0.0
 40
0.2186040089
 40
0.4586374506
 40
0.7220032667
 40
1.0
 40
1.0
 40
1.0
 40
1.0
 10
142.8266329809
 20
107.1255101907
 30
0.0
 10
142.7692129107
 20
107.2854247752
 30
0.0
 10
142.5708215222
 20
107.595532016
 30
0.0
 10
142.1098228046
 20
107.9316991085
 30
0.0
 10
141.5323718233
 20
108.1398196809
 30
0.0
 10
141.1099087531
 20
108.1862208778
 30
0.0
 10
140.8938345113
 20
108.1862208778
 30
0.0
  0
SPLINE
  5
448
100
AcDbEntity
  8
KONSTRUKTIONSELEMENTE
100
AcDbSpline
 62
7
  6
CONTINUOUS
 70
0
 71
3
 72
11
 73
7
 74
0
 42
0.0000001
 43
0.0000001
 44
0.0000000001
 40
0.0
 40
0.0
 40
0.0
 40
0.0
 40
0.2779967333
 40
0.5413625494
 40
0.7813959911
 40
1.0
 40
1.0
 40
1.0
 40
1.0
 10
130.8938345113
 20
108.1862208778
 30
0.0
 10
130.6777602694
 20
108.1862208778
 30
0.0
 10
130.2552971993
 20
108.1398196809
 30
0.0
 10
129.6778462179
 20
107.9316991085
 30
0.0
 10
129.2168475004
 20
107.595532016
 30
0.0
 10
129.0184561118
 20
107.2854247752
 30
0.0
 10
128.9610360417
 20
107.1255101907
 30
0.0
  0
SPLINE
  5
449
100
AcDbEntity
  8
KONSTRUKTIONSELEMENTE
100
AcDbSpline
 62
7
  6
CONTINUOUS
 70
0
 71
3
 72
14
 73
10
 74
0
 42
0.0000001
 43
0.0000001
 44
0.0000000001
 40
0.0
 40
0.0
 40
0.0
 40
0.0
 40
0.1079435489
 40
0.2175065199
 40
0.3316239259
 40
0.4525145509
 40
0.5809587231
 40
0.7163646043
 40
1.0
 40
1.0
 40
1.0
 40
1.0
 10
128.8938345113
 20
107.1050104592
 30
0.0
 10
128.8938345113
 20
107.2031051929
 30
0.0
 10
128.9197793898
 20
107.401771143
 30
0.0
 10
129.0365561317
 20
107.6830615038
 30
0.0
 10
129.2256834178
 20
107.9362866391
 30
0.0
 10
129.4780654757
 20
108.1528769297
 30
0.0
 10
129.7834926824
 20
108.3269754991
 30
0.0
 10
130.2519073731
 20
108.4992148877
 30
0.0
 10
130.6360781292
 20
108.5493161158
 30
0.0
 10
130.8938345113
 20
108.5493161158
 30
0.0
  0
ELLIPSE
  5
44A
100
AcDbEntity
  8
RUNDUNGEN
100
AcDbEllipse
 62
7
  6
CONTINUOUS
 10
143.8938345113
 20
148.6944321596
 30
0.0
 11
0.0
 21
11.5175409663
 31
0.0
 40
0.3472963553
 41
-1.9654572006
 42
-1.7566644258
  0
ELLIPSE
  5
44B
100
AcDbEntity
  8
RUNDUNGEN
100
AcDbEllipse
 62
7
  6
CONTINUOUS
 10
105.8938345113
 20
148.6944321596
 30
0.0
 11
-0.0
 21
11.5175409663
 31
0.0
 40
0.3472963553
 41
-4.5265208814
 42
-4.3177281066
  0
ELLIPSE
  5
44C
100
AcDbEntity
  8
KONSTRUKTIONSELEMENTE
100
AcDbEllipse
 62
7
  6
CONTINUOUS
 10
137.6456007789
 20
154.2659934679
 30
0.0
 11
56.1134753227
 21
0.0
 31
0.0
 40
0.3831521729
 41
2.0365781396
 42
2.0760222913
  0
ELLIPSE
  5
44D
100
AcDbEntity
  8
KONSTRUKTIONSELEMENTE
100
AcDbEllipse
 62
7
  6
CONTINUOUS
 10
105.1726279969
 20
154.2659934679
 30
0.0
 11
0.0
 21
21.5
 31
0.0
 40
0.5106383587
 41
-0.5052259645
 42
-0.4875936366
  0
ELLIPSE
  5
44E
100
AcDbEntity
  8
KONSTRUKTIONSELEMENTE
100
AcDbEllipse
 62
7
  6
CONTINUOUS
 10
96.6000530086
 20
154.2659934679
 30
0.0
 11
29.2765922546
 21
-0.0
 31
0.0
 40
0.7343750875
 41
1.0832026902
 42
1.096319189
  0
ELLIPSE
  5
44F
100
AcDbEntity
  8
KONSTRUKTIONSELEMENTE
100
AcDbEllipse
 62
7
  6
CONTINUOUS
 10
79.8804037423
 20
154.2659934679
 30
0.0
 11
65.8723953937
 21
-0.0
 31
0.0
 40
0.3263886165
 41
1.096319189
 42
1.1006716477
  0
ELLIPSE
  5
450
100
AcDbEntity
  8
KONSTRUKTIONSELEMENTE
100
AcDbEllipse
 62
7
  6
CONTINUOUS
 10
139.2200312124
 20
154.2659934679
 30
0.0
 11
65.8723953937
 21
0.0
 31
0.0
 40
0.3263886165
 41
2.0409210059
 42
2.0452734646
  0
ELLIPSE
  5
451
100
AcDbEntity
  8
KONSTRUKTIONSELEMENTE
100
AcDbEllipse
 62
7
  6
CONTINUOUS
 10
122.5003819461
 20
154.2659934679
 30
0.0
 11
29.2765922546
 21
0.0
 31
0.0
 40
0.7343750875
 41
2.0452734646
 42
2.0583899634
  0
ELLIPSE
  5
452
100
AcDbEntity
  8
KONSTRUKTIONSELEMENTE
100
AcDbEllipse
 62
7
  6
CONTINUOUS
 10
116.4995804353
 20
154.2659934679
 30
0.0
 11
0.0
 21
21.5
 31
0.0
 40
0.7659575381
 41
0.4875936366
 42
0.5052259645
  0
ELLIPSE
  5
453
100
AcDbEntity
  8
KONSTRUKTIONSELEMENTE
100
AcDbEllipse
 62
7
  6
CONTINUOUS
 10
110.6544438523
 20
154.2659934679
 30
0.0
 11
-0.0
 21
21.5
 31
0.0
 40
0.2042552558
 41
0.5052259645
 42
0.5275119077
  0
ELLIPSE
  5
454
100
AcDbEntity
  8
KONSTRUKTIONSELEMENTE
100
AcDbEllipse
 62
7
  6
CONTINUOUS
 10
113.8879497808
 20
154.2659934679
 30
0.0
 11
0.0
 21
21.5
 31
0.0
 40
0.255319362
 41
0.3640890653
 42
0.3807340782
  0
ELLIPSE
  5
455
100
AcDbEntity
  8
KONSTRUKTIONSELEMENTE
100
AcDbEllipse
 62
7
  6
CONTINUOUS
 10
117.287713063
 20
154.2659934679
 30
0.0
 11
0.0
 21
21.5
 31
0.0
 40
0.6808512211
 41
0.3807340782
 42
0.3932907427
  0
ELLIPSE
  5
456
100
AcDbEntity
  8
KONSTRUKTIONSELEMENTE
100
AcDbEllipse
 62
7
  6
CONTINUOUS
 10
124.2999796012
 20
154.2659934679
 30
0.0
 11
32.9361034658
 21
-0.0
 31
0.0
 40
0.6527791007
 41
1.9640870695
 42
1.972494544
  0
ELLIPSE
  5
457
100
AcDbEntity
  8
KONSTRUKTIONSELEMENTE
100
AcDbEllipse
 62
7
  6
CONTINUOUS
 10
143.2508594026
 20
154.2659934679
 30
0.0
 11
131.7451984699
 21
0.0
 31
0.0
 40
0.1631938033
 41
7.8844885341
 42
7.8883665319
  0
ELLIPSE
  5
458
100
AcDbEntity
  8
KONSTRUKTIONSELEMENTE
100
AcDbEllipse
 62
7
  6
CONTINUOUS
 10
145.7625455677
 20
154.2659934679
 30
0.0
 11
87.8301118092
 21
-0.0
 31
0.0
 40
0.244790762
 41
1.972494544
 42
1.9767095002
  0
ELLIPSE
  5
459
100
AcDbEntity
  8
KONSTRUKTIONSELEMENTE
100
AcDbEllipse
 62
7
  6
CONTINUOUS
 10
140.2369707384
 20
154.2659934679
 30
0.0
 11
32.9362015414
 21
0.0
 31
0.0
 40
0.6527771569
 41
7.8689805036
 42
7.8844885341
  0
ELLIPSE
  5
45A
100
AcDbEntity
  8
KONSTRUKTIONSELEMENTE
100
AcDbEllipse
 62
7
  6
CONTINUOUS
 10
139.9625331315
 20
154.2659934679
 30
0.0
 11
0.0
 21
21.5
 31
0.0
 40
0.6808509827
 41
6.2865557138
 42
6.2981841768
  0
ELLIPSE
  5
45B
100
AcDbEntity
  8
KONSTRUKTIONSELEMENTE
100
AcDbEllipse
 62
7
  6
CONTINUOUS
 10
110.948117579
 20
154.2659934679
 30
0.0
 11
0.0
 21
21.5
 31
0.0
 40
0.2042553906
 41
-0.3475489575
 42
-0.3270116708
  0
ELLIPSE
  5
45C
100
AcDbEntity
  8
KONSTRUKTIONSELEMENTE
100
AcDbEllipse
 62
7
  6
CONTINUOUS
 10
108.8322046234
 20
154.2659934679
 30
0.0
 11
0.0
 21
21.5
 31
0.0
 40
0.5106380606
 41
-0.3270116708
 42
-0.3106846882
  0
ELLIPSE
  5
45D
100
AcDbEntity
  8
KONSTRUKTIONSELEMENTE
100
AcDbEllipse
 62
7
  6
CONTINUOUS
 10
105.4758941776
 20
154.2659934679
 30
0.0
 11
21.9574356431
 21
-0.0
 31
0.0
 40
0.9791671646
 41
1.2601116386
 42
1.276353466
  0
ELLIPSE
  5
45E
100
AcDbEntity
  8
KONSTRUKTIONSELEMENTE
100
AcDbEllipse
 62
7
  6
CONTINUOUS
 10
99.1036791666
 20
154.2659934679
 30
0.0
 11
43.9149379515
 21
-0.0
 31
0.0
 40
0.4895828391
 41
1.276353466
 42
1.2844441746
  0
ELLIPSE
  5
45F
100
AcDbEntity
  8
KONSTRUKTIONSELEMENTE
100
AcDbEllipse
 62
7
  6
CONTINUOUS
 10
80.4977956296
 20
154.2659934679
 30
0.0
 11
109.7870115528
 21
0.0
 31
0.0
 40
0.1958337302
 41
1.2844441746
 42
1.2884822882
  0
ELLIPSE
  5
460
100
AcDbEntity
  8
KONSTRUKTIONSELEMENTE
100
AcDbEllipse
 62
7
  6
CONTINUOUS
 10
136.8851358314
 20
154.2659934679
 30
0.0
 11
0.0
 21
21.5
 31
0.0
 40
0.6808509827
 41
-0.0149988696
 42
-0.0033704066
  0
ELLIPSE
  5
461
100
AcDbEntity
  8
KONSTRUKTIONSELEMENTE
100
AcDbEllipse
 62
7
  6
CONTINUOUS
 10
136.6106980516
 20
154.2659934679
 30
0.0
 11
32.9362130749
 21
-0.0
 31
0.0
 40
0.6527769283
 41
1.5402894266
 42
1.5557974572
  0
ELLIPSE
  5
462
100
AcDbEntity
  8
KONSTRUKTIONSELEMENTE
100
AcDbEllipse
 62
7
  6
CONTINUOUS
 10
133.5968106773
 20
154.2659934679
 30
0.0
 11
131.7451677138
 21
0.0
 31
0.0
 40
0.1631938414
 41
1.5364114289
 42
1.5402894266
  0
ELLIPSE
  5
463
100
AcDbEntity
  8
KONSTRUKTIONSELEMENTE
100
AcDbEllipse
 62
7
  6
CONTINUOUS
 10
111.7651399181
 20
154.2659934679
 30
0.0
 11
-0.0
 21
21.5
 31
0.0
 40
0.2042551568
 41
-0.1551697639
 42
-0.1355829822
  0
ELLIPSE
  5
464
100
AcDbEntity
  8
KONSTRUKTIONSELEMENTE
100
AcDbEllipse
 62
7
  6
CONTINUOUS
 10
110.8747549863
 20
154.2659934679
 30
0.0
 11
-0.0
 21
21.5
 31
0.0
 40
0.510638791
 41
-0.1355829822
 42
-0.1199515492
  0
ELLIPSE
  5
465
100
AcDbEntity
  8
KONSTRUKTIONSELEMENTE
100
AcDbEllipse
 62
7
  6
CONTINUOUS
 10
109.5609947246
 20
154.2659934679
 30
0.0
 11
21.9574670535
 21
-0.0
 31
0.0
 40
0.9791657639
 41
1.4508447776
 42
1.4664468124
  0
ELLIPSE
  5
466
100
AcDbEntity
  8
KONSTRUKTIONSELEMENTE
100
AcDbEllipse
 62
7
  6
CONTINUOUS
 10
107.2739122937
 20
154.2659934679
 30
0.0
 11
43.9148123101
 21
0.0
 31
0.0
 40
0.4895842398
 41
1.4664468124
 42
1.4742380624
  0
ELLIPSE
  5
467
100
AcDbEntity
  8
KONSTRUKTIONSELEMENTE
100
AcDbEllipse
 62
7
  6
CONTINUOUS
 10
100.9232255865
 20
154.2659934679
 30
0.0
 11
109.7876397615
 21
-0.0
 31
0.0
 40
0.1958326096
 41
1.4742380624
 42
1.4781314315
  0
ELLIPSE
  5
468
100
AcDbEntity
  8
KONSTRUKTIONSELEMENTE
100
AcDbEllipse
 62
7
  6
CONTINUOUS
 10
119.9644492471
 20
154.2659934679
 30
0.0
 11
109.7877012737
 21
0.0
 31
0.0
 40
0.1958324999
 41
1.6634612221
 42
1.6673545912
  0
ELLIPSE
  5
469
100
AcDbEntity
  8
KONSTRUKTIONSELEMENTE
100
AcDbEllipse
 62
7
  6
CONTINUOUS
 10
113.6137558684
 20
154.2659934679
 30
0.0
 11
43.9148046211
 21
0.0
 31
0.0
 40
0.4895843255
 41
1.6673545912
 42
1.6751458412
  0
ELLIPSE
  5
46A
100
AcDbEntity
  8
KONSTRUKTIONSELEMENTE
100
AcDbEllipse
 62
7
  6
CONTINUOUS
 10
111.3266740382
 20
154.2659934679
 30
0.0
 11
21.9574651312
 21
-0.0
 31
0.0
 40
0.9791658496
 41
7.9583311484
 42
7.9739331832
  0
ELLIPSE
  5
46B
100
AcDbEntity
  8
KONSTRUKTIONSELEMENTE
100
AcDbEllipse
 62
7
  6
CONTINUOUS
 10
110.012913834
 20
154.2659934679
 30
0.0
 11
-0.0
 21
21.5
 31
0.0
 40
0.510638724
 41
0.1199515492
 42
0.1355829822
  0
ELLIPSE
  5
46C
100
AcDbEntity
  8
KONSTRUKTIONSELEMENTE
100
AcDbEllipse
 62
7
  6
CONTINUOUS
 10
109.1225290451
 20
154.2659934679
 30
0.0
 11
-0.0
 21
21.5
 31
0.0
 40
0.204255139
 41
0.1355829822
 42
0.1551697639
  0
ELLIPSE
  5
46D
100
AcDbEntity
  8
KONSTRUKTIONSELEMENTE
100
AcDbEllipse
 62
7
  6
CONTINUOUS
 10
134.3859258092
 20
154.2659934679
 30
0.0
 11
65.8722069317
 21
-0.0
 31
0.0
 40
0.3263895503
 41
1.857148479
 42
1.8611913996
  0
ELLIPSE
  5
46E
100
AcDbEntity
  8
KONSTRUKTIONSELEMENTE
100
AcDbEllipse
 62
7
  6
CONTINUOUS
 10
123.9074749563
 20
154.2659934679
 30
0.0
 11
29.2765922546
 21
0.0
 31
0.0
 40
0.7343750875
 41
1.8611913996
 42
1.87334982
  0
ELLIPSE
  5
46F
100
AcDbEntity
  8
KONSTRUKTIONSELEMENTE
100
AcDbEllipse
 62
7
  6
CONTINUOUS
 10
165.7188802533
 20
154.2659934679
 30
0.0
 11
131.7444446193
 21
-0.0
 31
0.0
 40
0.1631947371
 41
1.773220705
 42
1.7771790887
  0
ELLIPSE
  5
470
100
AcDbEntity
  8
KONSTRUKTIONSELEMENTE
100
AcDbEllipse
 62
7
  6
CONTINUOUS
 10
120.0910730936
 20
154.2659934679
 30
0.0
 11
0.0
 21
21.5
 31
0.0
 40
0.765958086
 41
0.3025534932
 42
0.3188371681
  0
ELLIPSE
  5
471
100
AcDbEntity
  8
KONSTRUKTIONSELEMENTE
100
AcDbEllipse
 62
7
  6
CONTINUOUS
 10
145.853987642
 20
154.2659934679
 30
0.0
 11
32.9361544258
 21
0.0
 31
0.0
 40
0.6527780907
 41
8.0406039391
 42
8.0564060122
  0
ELLIPSE
  5
472
100
AcDbEntity
  8
KONSTRUKTIONSELEMENTE
100
AcDbEllipse
 62
7
  6
CONTINUOUS
 10
142.4589863018
 20
154.2659934679
 30
0.0
 11
0.0
 21
21.5
 31
0.0
 40
0.6808509827
 41
0.1748018457
 42
0.1866223052
  0
ELLIPSE
  5
473
100
AcDbEntity
  8
KONSTRUKTIONSELEMENTE
100
AcDbEllipse
 62
7
  6
CONTINUOUS
 10
116.3055071103
 20
154.2659934679
 30
0.0
 11
-0.0
 21
21.5
 31
0.0
 40
0.204255139
 41
0.3188371681
 42
0.3393162511
  0
ELLIPSE
  5
474
100
AcDbEntity
  8
KONSTRUKTIONSELEMENTE
100
AcDbEllipse
 62
7
  6
CONTINUOUS
 10
140.6769344062
 20
154.2659934679
 30
0.0
 11
-0.0
 21
21.5
 31
0.0
 40
0.2042556065
 41
6.4383402583
 42
6.4579871528
  0
ELLIPSE
  5
475
100
AcDbEntity
  8
KONSTRUKTIONSELEMENTE
100
AcDbEllipse
 62
7
  6
CONTINUOUS
 10
115.5949278444
 20
154.2659934679
 30
0.0
 11
-0.0
 21
21.5
 31
0.0
 40
0.204255139
 41
-0.3393162511
 42
-0.3188371681
  0
ELLIPSE
  5
476
100
AcDbEntity
  8
KONSTRUKTIONSELEMENTE
100
AcDbEllipse
 62
7
  6
CONTINUOUS
 10
111.8093618611
 20
154.2659934679
 30
0.0
 11
0.0
 21
21.5
 31
0.0
 40
0.765958086
 41
-0.3188371681
 42
-0.3025534932
  0
ELLIPSE
  5
477
100
AcDbEntity
  8
KONSTRUKTIONSELEMENTE
100
AcDbEllipse
 62
7
  6
CONTINUOUS
 10
107.9929599984
 20
154.2659934679
 30
0.0
 11
29.2765922546
 21
0.0
 31
0.0
 40
0.7343750875
 41
1.2682428336
 42
1.280401254
  0
ELLIPSE
  5
478
100
AcDbEntity
  8
KONSTRUKTIONSELEMENTE
100
AcDbEllipse
 62
7
  6
CONTINUOUS
 10
97.5145091454
 20
154.2659934679
 30
0.0
 11
65.8722069317
 21
0.0
 31
0.0
 40
0.3263895503
 41
1.280401254
 42
1.2844441746
  0
ELLIPSE
  5
479
100
AcDbEntity
  8
KONSTRUKTIONSELEMENTE
100
AcDbEllipse
 62
7
  6
CONTINUOUS
 10
99.0865361047
 20
154.2659934679
 30
0.0
 11
104.2978255521
 21
-0.0
 31
0.0
 40
0.2061404434
 41
1.3802131482
 42
1.4117022594
  0
ELLIPSE
  5
47A
100
AcDbEntity
  8
KONSTRUKTIONSELEMENTE
100
AcDbEllipse
 62
7
  6
CONTINUOUS
 10
136.1707345568
 20
154.2659934679
 30
0.0
 11
0.0
 21
21.5
 31
0.0
 40
0.2042556065
 41
-0.1748018457
 42
-0.1551549511
  0
ELLIPSE
  5
47B
100
AcDbEntity
  8
KONSTRUKTIONSELEMENTE
100
AcDbEllipse
 62
7
  6
CONTINUOUS
 10
134.3886826612
 20
154.2659934679
 30
0.0
 11
0.0
 21
21.5
 31
0.0
 40
0.6808509827
 41
-0.1866223052
 42
-0.1748018457
  0
ELLIPSE
  5
47C
100
AcDbEntity
  8
KONSTRUKTIONSELEMENTE
100
AcDbEllipse
 62
7
  6
CONTINUOUS
 10
130.993679181
 20
154.2659934679
 30
0.0
 11
32.9361659593
 21
0.0
 31
0.0
 40
0.6527778621
 41
1.3683719486
 42
1.3841740216
  0
ELLIPSE
  5
47D
100
AcDbEntity
  8
KONSTRUKTIONSELEMENTE
100
AcDbEllipse
 62
7
  6
CONTINUOUS
 10
106.4071709236
 20
154.2659934679
 30
0.0
 11
128.999938488
 21
-0.0
 31
0.0
 40
0.1666667461
 41
1.4742380624
 42
1.5053490906
  0
ELLIPSE
  5
47E
100
AcDbEntity
  8
KONSTRUKTIONSELEMENTE
100
AcDbEllipse
 62
7
  6
CONTINUOUS
 10
111.1287950718
 20
154.2659934679
 30
0.0
 11
131.7444138633
 21
-0.0
 31
0.0
 40
0.1631947752
 41
1.3644135649
 42
1.3683719486
  0
ELLIPSE
  5
47F
100
AcDbEntity
  8
KONSTRUKTIONSELEMENTE
100
AcDbEllipse
 62
7
  6
CONTINUOUS
 10
128.9655320541
 20
154.2659934679
 30
0.0
 11
98.8084632774
 21
0.0
 31
0.0
 40
0.2175926969
 41
7.9661287166
 42
7.9973926296
  0
ELLIPSE
  5
480
100
AcDbEntity
  8
KONSTRUKTIONSELEMENTE
100
AcDbEllipse
 62
7
  6
CONTINUOUS
 10
144.9067883757
 20
154.2659934679
 30
0.0
 11
131.7445548825
 21
0.0
 31
0.0
 40
0.1631946005
 41
1.7771940408
 42
1.8010158331
  0
ELLIPSE
  5
481
100
AcDbEntity
  8
KONSTRUKTIONSELEMENTE
100
AcDbEllipse
 62
7
  6
CONTINUOUS
 10
136.9893601639
 20
154.2659934679
 30
0.0
 11
-0.0
 21
21.5
 31
0.0
 40
0.1702127457
 41
0.1316573985
 42
0.1551549511
  0
ELLIPSE
  5
482
100
AcDbEntity
  8
KONSTRUKTIONSELEMENTE
100
AcDbEllipse
 62
7
  6
CONTINUOUS
 10
138.2384489719
 20
154.2659934679
 30
0.0
 11
0.0
 21
21.5
 31
0.0
 40
0.6127654169
 41
0.1121323553
 42
0.1316573985
  0
ELLIPSE
  5
483
100
AcDbEntity
  8
KONSTRUKTIONSELEMENTE
100
AcDbEllipse
 62
7
  6
CONTINUOUS
 10
139.2212434926
 20
154.2659934679
 30
0.0
 11
21.957444191
 21
-0.0
 31
0.0
 40
0.9791667834
 41
1.6712347202
 42
1.6829286821
  0
ELLIPSE
  5
484
100
AcDbEntity
  8
KONSTRUKTIONSELEMENTE
100
AcDbEllipse
 62
7
  6
CONTINUOUS
 10
141.4228994653
 20
154.2659934679
 30
0.0
 11
43.9148046211
 21
-0.0
 31
0.0
 40
0.4895843255
 41
7.9466317869
 42
7.9544200273
  0
ELLIPSE
  5
485
100
AcDbEntity
  8
KONSTRUKTIONSELEMENTE
100
AcDbEllipse
 62
7
  6
CONTINUOUS
 10
143.454387455
 20
154.2659934679
 30
0.0
 11
65.8726453691
 21
0.0
 31
0.0
 40
0.3263873779
 41
1.659554524
 42
1.6634464797
  0
ELLIPSE
  5
486
100
AcDbEntity
  8
KONSTRUKTIONSELEMENTE
100
AcDbEllipse
 62
7
  6
CONTINUOUS
 10
147.3470873578
 20
154.2659934679
 30
0.0
 11
109.7876397615
 21
0.0
 31
0.0
 40
0.1958326096
 41
1.6556639158
 42
1.659554524
  0
ELLIPSE
  5
487
100
AcDbEntity
  8
KONSTRUKTIONSELEMENTE
100
AcDbEllipse
 62
7
  6
CONTINUOUS
 10
129.5005790577
 20
154.2659934679
 30
0.0
 11
109.7876705176
 21
-0.0
 31
0.0
 40
0.1958325548
 41
1.4820381296
 42
1.4859287378
  0
ELLIPSE
  5
488
100
AcDbEntity
  8
KONSTRUKTIONSELEMENTE
100
AcDbEllipse
 62
7
  6
CONTINUOUS
 10
133.3932871394
 20
154.2659934679
 30
0.0
 11
65.8725838569
 21
-0.0
 31
0.0
 40
0.3263876827
 41
1.4781461739
 42
1.4820381296
  0
ELLIPSE
  5
489
100
AcDbEntity
  8
KONSTRUKTIONSELEMENTE
100
AcDbEllipse
 62
7
  6
CONTINUOUS
 10
135.4247687267
 20
154.2659934679
 30
0.0
 11
43.9148123101
 21
0.0
 31
0.0
 40
0.4895842398
 41
1.4703579334
 42
1.4781461739
  0
ELLIPSE
  5
48A
100
AcDbEntity
  8
KONSTRUKTIONSELEMENTE
100
AcDbEllipse
 62
7
  6
CONTINUOUS
 10
137.6264252134
 20
154.2659934679
 30
0.0
 11
21.957446754
 21
-0.0
 31
0.0
 40
0.9791666691
 41
1.4586639715
 42
1.4703579334
  0
ELLIPSE
  5
48B
100
AcDbEntity
  8
KONSTRUKTIONSELEMENTE
100
AcDbEllipse
 62
7
  6
CONTINUOUS
 10
138.6092198918
 20
154.2659934679
 30
0.0
 11
-0.0
 21
21.5
 31
0.0
 40
0.6127654705
 41
-0.1316573985
 42
-0.1121323553
  0
ELLIPSE
  5
48C
100
AcDbEntity
  8
KONSTRUKTIONSELEMENTE
100
AcDbEllipse
 62
7
  6
CONTINUOUS
 10
139.8583088092
 20
154.2659934679
 30
0.0
 11
0.0
 21
21.5
 31
0.0
 40
0.1702127606
 41
-0.1551549511
 42
-0.1316573985
  0
ELLIPSE
  5
48D
100
AcDbEntity
  8
KONSTRUKTIONSELEMENTE
100
AcDbEllipse
 62
7
  6
CONTINUOUS
 10
188.1872071415
 20
154.2659934679
 30
0.0
 11
131.7451984699
 21
0.0
 31
0.0
 40
0.1631938033
 41
1.9515146415
 42
1.955693032
  0
ELLIPSE
  5
48E
100
AcDbEntity
  8
KONSTRUKTIONSELEMENTE
100
AcDbEllipse
 62
7
  6
CONTINUOUS
 10
151.4710067133
 20
154.2659934679
 30
0.0
 11
32.9361544258
 21
-0.0
 31
0.0
 40
0.6527780907
 41
1.934869707
 42
1.9515146415
  0
ELLIPSE
  5
48F
100
AcDbEntity
  8
KONSTRUKTIONSELEMENTE
100
AcDbEllipse
 62
7
  6
CONTINUOUS
 10
144.9554401213
 20
154.2659934679
 30
0.0
 11
0.0
 21
21.5
 31
0.0
 40
0.6808509827
 41
0.3516588962
 42
0.3640733802
  0
ELLIPSE
  5
490
100
AcDbEntity
  8
KONSTRUKTIONSELEMENTE
100
AcDbEllipse
 62
7
  6
CONTINUOUS
 10
141.4258699637
 20
154.2659934679
 30
0.0
 11
0.0
 21
21.5
 31
0.0
 40
0.2042553727
 41
0.3310919006
 42
0.3516588962
  0
ELLIPSE
  5
491
100
AcDbEntity
  8
KONSTRUKTIONSELEMENTE
100
AcDbEllipse
 62
7
  6
CONTINUOUS
 10
131.0796643971
 20
154.2659934679
 30
0.0
 11
0.0
 21
21.5
 31
0.0
 40
0.2042553727
 41
0.0662500097
 42
0.08568621
  0
ELLIPSE
  5
492
100
AcDbEntity
  8
KONSTRUKTIONSELEMENTE
100
AcDbEllipse
 62
7
  6
CONTINUOUS
 10
131.5157490427
 20
154.2659934679
 30
0.0
 11
0.0
 21
21.5
 31
0.0
 40
0.5106379935
 41
0.0507194172
 42
0.0662500097
  0
ELLIPSE
  5
493
100
AcDbEntity
  8
KONSTRUKTIONSELEMENTE
100
AcDbEllipse
 62
7
  6
CONTINUOUS
 10
132.0723452518
 20
154.2659934679
 30
0.0
 11
21.957449426
 21
-0.0
 31
0.0
 40
0.9791665499
 41
1.6059973982
 42
1.621515744
  0
ELLIPSE
  5
494
100
AcDbEntity
  8
KONSTRUKTIONSELEMENTE
100
AcDbEllipse
 62
7
  6
CONTINUOUS
 10
132.8451102771
 20
154.2659934679
 30
0.0
 11
43.9148674417
 21
-0.0
 31
0.0
 40
0.4895836251
 41
1.5982416326
 42
1.6059973982
  0
ELLIPSE
  5
495
100
AcDbEntity
  8
KONSTRUKTIONSELEMENTE
100
AcDbEllipse
 62
7
  6
CONTINUOUS
 10
135.4217989993
 20
154.2659934679
 30
0.0
 11
0.0
 21
21.5
 31
0.0
 40
0.2042553727
 41
-0.3516588962
 42
-0.3310919006
  0
ELLIPSE
  5
496
100
AcDbEntity
  8
KONSTRUKTIONSELEMENTE
100
AcDbEllipse
 62
7
  6
CONTINUOUS
 10
134.652774772
 20
154.2659934679
 30
0.0
 11
109.7873871683
 21
-0.0
 31
0.0
 40
0.1958330602
 41
1.5943644037
 42
1.5982416326
  0
ELLIPSE
  5
497
100
AcDbEntity
  8
KONSTRUKTIONSELEMENTE
100
AcDbEllipse
 62
7
  6
CONTINUOUS
 10
131.8922288417
 20
154.2659934679
 30
0.0
 11
0.0
 21
21.5
 31
0.0
 40
0.6808509827
 41
-0.3640733802
 42
-0.3516588962
  0
ELLIPSE
  5
498
100
AcDbEntity
  8
KONSTRUKTIONSELEMENTE
100
AcDbEllipse
 62
7
  6
CONTINUOUS
 10
125.3766581428
 20
154.2659934679
 30
0.0
 11
32.9361659593
 21
0.0
 31
0.0
 40
0.6527778621
 41
1.1900780121
 42
1.2067229466
  0
ELLIPSE
  5
499
100
AcDbEntity
  8
KONSTRUKTIONSELEMENTE
100
AcDbEllipse
 62
7
  6
CONTINUOUS
 10
130.7548958194
 20
154.2659934679
 30
0.0
 11
109.7873256562
 21
0.0
 31
0.0
 40
0.1958331699
 41
1.543351021
 42
1.5472282499
  0
ELLIPSE
  5
49A
100
AcDbEntity
  8
KONSTRUKTIONSELEMENTE
100
AcDbEllipse
 62
7
  6
CONTINUOUS
 10
88.6604734289
 20
154.2659934679
 30
0.0
 11
131.7451677138
 21
-0.0
 31
0.0
 40
0.1631938414
 41
1.1858996216
 42
1.1900780121
  0
ELLIPSE
  5
49B
100
AcDbEntity
  8
KONSTRUKTIONSELEMENTE
100
AcDbEllipse
 62
7
  6
CONTINUOUS
 10
132.5625584152
 20
154.2659934679
 30
0.0
 11
43.9148751307
 21
-0.0
 31
0.0
 40
0.4895835394
 41
1.5355952554
 42
1.543351021
  0
ELLIPSE
  5
49C
100
AcDbEntity
  8
KONSTRUKTIONSELEMENTE
100
AcDbEllipse
 62
7
  6
CONTINUOUS
 10
133.3353236435
 20
154.2659934679
 30
0.0
 11
21.9574513483
 21
0.0
 31
0.0
 40
0.9791664642
 41
1.5317428095
 42
1.5355952554
  0
ELLIPSE
  5
49D
100
AcDbEntity
  8
KONSTRUKTIONSELEMENTE
100
AcDbEllipse
 62
7
  6
CONTINUOUS
 10
137.6134735376
 20
154.2659934679
 30
0.0
 11
-0.0
 21
21.5
 31
0.0
 40
0.1702127457
 41
0.3066011118
 42
0.3310919006
  0
ELLIPSE
  5
49E
100
AcDbEntity
  8
KONSTRUKTIONSELEMENTE
100
AcDbEllipse
 62
7
  6
CONTINUOUS
 10
138.2983956742
 20
154.2659934679
 30
0.0
 11
0.0
 21
21.5
 31
0.0
 40
0.2042552737
 41
-0.5052092277
 42
-0.4831949201
  0
ELLIPSE
  5
49F
100
AcDbEntity
  8
KONSTRUKTIONSELEMENTE
100
AcDbEllipse
 62
7
  6
CONTINUOUS
 10
140.4852554031
 20
154.2659934679
 30
0.0
 11
-0.0
 21
21.5
 31
0.0
 40
0.6127654169
 41
0.2863368731
 42
0.3066011118
  0
ELLIPSE
  5
4A0
100
AcDbEntity
  8
KONSTRUKTIONSELEMENTE
100
AcDbEllipse
 62
7
  6
CONTINUOUS
 10
142.9659237349
 20
154.2659934679
 30
0.0
 11
21.957444191
 21
-0.0
 31
0.0
 40
0.9791667834
 41
1.8450330265
 42
1.8571331999
  0
ELLIPSE
  5
4A1
100
AcDbEntity
  8
KONSTRUKTIONSELEMENTE
100
AcDbEllipse
 62
7
  6
CONTINUOUS
 10
134.2177272582
 20
154.2659934679
 30
0.0
 11
0.0
 21
21.5
 31
0.0
 40
0.6127661718
 41
-0.4831949201
 42
-0.4614320623
  0
ELLIPSE
  5
4A2
100
AcDbEntity
  8
KONSTRUKTIONSELEMENTE
100
AcDbEllipse
 62
7
  6
CONTINUOUS
 10
148.9122796904
 20
154.2659934679
 30
0.0
 11
43.9149302625
 21
0.0
 31
0.0
 40
0.4895829248
 41
1.8369891932
 42
1.8450330265
  0
ELLIPSE
  5
4A3
100
AcDbEntity
  8
KONSTRUKTIONSELEMENTE
100
AcDbEllipse
 62
7
  6
CONTINUOUS
 10
154.6883838338
 20
154.2659934679
 30
0.0
 11
65.8722684435
 21
0.0
 31
0.0
 40
0.3263892456
 41
1.8329739061
 42
1.8369891932
  0
ELLIPSE
  5
4A4
100
AcDbEntity
  8
KONSTRUKTIONSELEMENTE
100
AcDbEllipse
 62
7
  6
CONTINUOUS
 10
130.3072762143
 20
154.2659934679
 30
0.0
 11
21.957446754
 21
-0.0
 31
0.0
 40
0.9791666691
 41
1.1093642645
 42
1.1223090083
  0
ELLIPSE
  5
4A5
100
AcDbEntity
  8
KONSTRUKTIONSELEMENTE
100
AcDbEllipse
 62
7
  6
CONTINUOUS
 10
166.0705599938
 20
154.2659934679
 30
0.0
 11
109.7876397615
 21
0.0
 31
0.0
 40
0.1958326096
 41
1.8289629639
 42
1.8329739061
  0
ELLIPSE
  5
4A6
100
AcDbEntity
  8
KONSTRUKTIONSELEMENTE
100
AcDbEllipse
 62
7
  6
CONTINUOUS
 10
116.0260665669
 20
154.2659934679
 30
0.0
 11
54.8935919911
 21
0.0
 31
0.0
 40
0.3916668453
 41
1.1223090083
 42
1.1308940966
  0
ELLIPSE
  5
4A7
100
AcDbEntity
  8
KONSTRUKTIONSELEMENTE
100
AcDbEllipse
 62
7
  6
CONTINUOUS
 10
110.7771011764
 20
154.2659934679
 30
0.0
 11
109.7876705176
 21
-0.0
 31
0.0
 40
0.1958325548
 41
1.3086187475
 42
1.3126296896
  0
ELLIPSE
  5
4A8
100
AcDbEntity
  8
KONSTRUKTIONSELEMENTE
100
AcDbEllipse
 62
7
  6
CONTINUOUS
 10
122.1593012508
 20
154.2659934679
 30
0.0
 11
65.8722069317
 21
-0.0
 31
0.0
 40
0.3263895503
 41
1.3046034604
 42
1.3086187475
  0
ELLIPSE
  5
4A9
100
AcDbEntity
  8
KONSTRUKTIONSELEMENTE
100
AcDbEllipse
 62
7
  6
CONTINUOUS
 10
127.9353871903
 20
154.2659934679
 30
0.0
 11
43.9149379515
 21
-0.0
 31
0.0
 40
0.4895828391
 41
1.296559627
 42
1.3046034604
  0
ELLIPSE
  5
4AA
100
AcDbEntity
  8
KONSTRUKTIONSELEMENTE
100
AcDbEllipse
 62
7
  6
CONTINUOUS
 10
133.881744534
 20
154.2659934679
 30
0.0
 11
21.957446754
 21
-0.0
 31
0.0
 40
0.9791666691
 41
1.2844594537
 42
1.296559627
  0
ELLIPSE
  5
4AB
100
AcDbEntity
  8
KONSTRUKTIONSELEMENTE
100
AcDbEllipse
 62
7
  6
CONTINUOUS
 10
162.5237334251
 20
154.2659934679
 30
0.0
 11
54.8935996801
 21
-0.0
 31
0.0
 40
0.3916667904
 41
2.010698557
 42
2.0192836453
  0
ELLIPSE
  5
4AC
100
AcDbEntity
  8
KONSTRUKTIONSELEMENTE
100
AcDbEllipse
 62
7
  6
CONTINUOUS
 10
136.3624132639
 20
154.2659934679
 30
0.0
 11
0.0
 21
21.5
 31
0.0
 40
0.6127654705
 41
-0.3066011118
 42
-0.2863368731
  0
ELLIPSE
  5
4AD
100
AcDbEntity
  8
KONSTRUKTIONSELEMENTE
100
AcDbEllipse
 62
7
  6
CONTINUOUS
 10
145.8623179058
 20
154.2659934679
 30
0.0
 11
-0.0
 21
21.5
 31
0.0
 40
0.7659575381
 41
0.4484873185
 42
0.4657654207
  0
ELLIPSE
  5
4AE
100
AcDbEntity
  8
KONSTRUKTIONSELEMENTE
100
AcDbEllipse
 62
7
  6
CONTINUOUS
 10
139.2341953808
 20
154.2659934679
 30
0.0
 11
0.0
 21
21.5
 31
0.0
 40
0.1702127606
 41
-0.3310919006
 42
-0.3066011118
  0
ELLIPSE
  5
4AF
100
AcDbEntity
  8
KONSTRUKTIONSELEMENTE
100
AcDbEllipse
 62
7
  6
CONTINUOUS
 10
143.3970043098
 20
154.2659934679
 30
0.0
 11
0.0
 21
21.5
 31
0.0
 40
0.5106379935
 41
0.4657654207
 42
0.4744606732
  0
ELLIPSE
  5
4B0
100
AcDbEntity
  8
KONSTRUKTIONSELEMENTE
100
AcDbEllipse
 62
7
  6
CONTINUOUS
 10
133.3655583399
 20
154.2659934679
 30
0.0
 11
-0.0
 21
21.5
 31
0.0
 40
0.5106379935
 41
-0.4744606732
 42
-0.4657654207
  0
ELLIPSE
  5
4B1
100
AcDbEntity
  8
KONSTRUKTIONSELEMENTE
100
AcDbEllipse
 62
7
  6
CONTINUOUS
 10
128.4349370256
 20
154.2659934679
 30
0.0
 11
21.957444191
 21
0.0
 31
0.0
 40
0.9791667834
 41
1.1050309061
 42
1.1180031827
  0
ELLIPSE
  5
4B2
100
AcDbEntity
  8
KONSTRUKTIONSELEMENTE
100
AcDbEllipse
 62
7
  6
CONTINUOUS
 10
118.8290273786
 20
154.2659934679
 30
0.0
 11
43.9148674417
 21
-0.0
 31
0.0
 40
0.4895836251
 41
1.1180031827
 42
1.1266059432
  0
ELLIPSE
  5
4B3
100
AcDbEntity
  8
KONSTRUKTIONSELEMENTE
100
AcDbEllipse
 62
7
  6
CONTINUOUS
 10
161.0343781449
 20
154.2659934679
 30
0.0
 11
54.8936150581
 21
-0.0
 31
0.0
 40
0.3916666807
 41
2.0149867104
 42
2.0235894709
  0
ELLIPSE
  5
4B4
100
AcDbEntity
  8
KONSTRUKTIONSELEMENTE
100
AcDbEllipse
 62
7
  6
CONTINUOUS
 10
146.625497929
 20
154.2659934679
 30
0.0
 11
21.957444191
 21
-0.0
 31
0.0
 40
0.9791667834
 41
2.0235894709
 42
2.0365617475
  0
ELLIPSE
  5
4B5
100
AcDbEntity
  8
KONSTRUKTIONSELEMENTE
100
AcDbEllipse
 62
7
  6
CONTINUOUS
 10
142.6810016299
 20
154.2659934679
 30
0.0
 11
-0.0
 21
21.5
 31
0.0
 40
0.6127657675
 41
0.4657654207
 42
0.4875770588
  0
ELLIPSE
  5
4B6
100
AcDbEntity
  8
KONSTRUKTIONSELEMENTE
100
AcDbEllipse
 62
7
  6
CONTINUOUS
 10
138.5662950547
 20
154.2659934679
 30
0.0
 11
-0.0
 21
21.5
 31
0.0
 40
0.2042553143
 41
0.4875770588
 42
0.5096439913
  0
ELLIPSE
  5
4B7
100
AcDbEntity
  8
KONSTRUKTIONSELEMENTE
100
AcDbEllipse
 62
7
  6
CONTINUOUS
 10
142.7614840345
 20
154.2659934679
 30
0.0
 11
0.0
 21
21.5
 31
0.0
 40
0.2553190881
 41
0.5274949514
 42
0.5455335401
  0
ELLIPSE
  5
4B8
100
AcDbEntity
  8
KONSTRUKTIONSELEMENTE
100
AcDbEllipse
 62
7
  6
CONTINUOUS
 10
134.0861849285
 20
154.2659934679
 30
0.0
 11
0.0
 21
21.5
 31
0.0
 40
0.2553190881
 41
-0.5455335401
 42
-0.5274949514
  0
ELLIPSE
  5
4B9
100
AcDbEntity
  8
KONSTRUKTIONSELEMENTE
100
AcDbEllipse
 62
7
  6
CONTINUOUS
 10
145.6097728729
 20
154.2659934679
 30
0.0
 11
-0.0
 21
21.5
 31
0.0
 40
0.5106382674
 41
0.5455335401
 42
0.5637718565
  0
ELLIPSE
  5
4BA
100
AcDbEntity
  8
KONSTRUKTIONSELEMENTE
100
AcDbEllipse
 62
7
  6
CONTINUOUS
 10
128.3896077609
 20
154.2659934679
 30
0.0
 11
-0.0
 21
21.5
 31
0.0
 40
0.7659574012
 41
-0.5637718565
 42
-0.5455335401
  0
ELLIPSE
  5
4BB
100
AcDbEntity
  8
KONSTRUKTIONSELEMENTE
100
AcDbEllipse
 62
7
  6
CONTINUOUS
 10
119.5894103669
 20
154.2659934679
 30
0.0
 11
32.9361931162
 21
-0.0
 31
0.0
 40
0.6527773238
 41
0.9978263691
 42
1.0070244703
  0
ELLIPSE
  5
4BC
100
AcDbEntity
  8
KONSTRUKTIONSELEMENTE
100
AcDbEllipse
 62
7
  6
CONTINUOUS
 10
155.3877551545
 20
154.2659934679
 30
0.0
 11
29.2765938906
 21
-0.0
 31
0.0
 40
0.7343750465
 41
2.1345681833
 42
2.1483858166
  0
ELLIPSE
  5
4BD
100
AcDbEntity
  8
KONSTRUKTIONSELEMENTE
100
AcDbEllipse
 62
7
  6
CONTINUOUS
 10
155.4710081524
 20
154.2659934679
 30
0.0
 11
32.9361623602
 21
-0.0
 31
0.0
 40
0.6527779334
 41
2.1345681833
 42
2.1437662845
  0
ELLIPSE
  5
4BE
100
AcDbEntity
  8
KONSTRUKTIONSELEMENTE
100
AcDbEllipse
 62
7
  6
CONTINUOUS
 10
146.6708271938
 20
154.2659934679
 30
0.0
 11
0.0
 21
21.5
 31
0.0
 40
0.7659574012
 41
0.5455335401
 42
0.5637718565
  0
ELLIPSE
  5
4BF
100
AcDbEntity
  8
KONSTRUKTIONSELEMENTE
100
AcDbEllipse
 62
7
  6
CONTINUOUS
 10
140.9742500262
 20
154.2659934679
 30
0.0
 11
-0.0
 21
21.5
 31
0.0
 40
0.2553190881
 41
0.5274949514
 42
0.5455335401
  0
ELLIPSE
  5
4C0
100
AcDbEntity
  8
KONSTRUKTIONSELEMENTE
100
AcDbEllipse
 62
7
  6
CONTINUOUS
 10
123.1620387643
 20
154.2659934679
 30
0.0
 11
29.2765990166
 21
-0.0
 31
0.0
 40
0.7343749179
 41
0.993206837
 42
1.0070244703
  0
ELLIPSE
  5
4C1
100
AcDbEntity
  8
KONSTRUKTIONSELEMENTE
100
AcDbEllipse
 62
7
  6
CONTINUOUS
 10
132.9400237851
 20
154.2659934679
 30
0.0
 11
-0.0
 21
21.5
 31
0.0
 40
0.5106382674
 41
-0.5637718565
 42
-0.5455335401
  0
ELLIPSE
  5
4C2
100
AcDbEntity
  8
KONSTRUKTIONSELEMENTE
100
AcDbEllipse
 62
7
  6
CONTINUOUS
 10
135.7883126236
 20
154.2659934679
 30
0.0
 11
-0.0
 21
21.5
 31
0.0
 40
0.2553190881
 41
-0.5455335401
 42
-0.5274949514
  0
ELLIPSE
  5
4C3
100
AcDbEntity
  8
KONSTRUKTIONSELEMENTE
100
AcDbEllipse
 62
7
  6
CONTINUOUS
 10
136.1796163904
 20
154.2659934679
 30
0.0
 11
21.957444191
 21
0.0
 31
0.0
 40
0.9791667834
 41
1.5325328694
 42
1.5441669655
  0
ELLIPSE
  5
4C4
100
AcDbEntity
  8
KONSTRUKTIONSELEMENTE
100
AcDbEllipse
 62
7
  6
CONTINUOUS
 10
136.4134741029
 20
154.2659934679
 30
0.0
 11
0.0
 21
21.5
 31
0.0
 40
0.6127654169
 41
-0.0266293613
 42
-0.0072464179
  0
ELLIPSE
  5
4C5
100
AcDbEntity
  8
0
100
AcDbEllipse
 62
7
  6
CONTINUOUS
 10
145.8938345113
 20
152.2850535577
 30
0.0
 11
2.0
 21
0.0
 31
0.0
 40
0.9904699551
 41
0.0
 42
1.5707963268
  0
ELLIPSE
  5
4C6
100
AcDbEntity
  8
KONSTRUKTIONSELEMENTE
100
AcDbEllipse
 62
7
  6
CONTINUOUS
 10
109.8028423719
 20
154.2659934679
 30
0.0
 11
0.0
 21
21.5
 31
0.0
 40
0.255319362
 41
0.1394959358
 42
0.1551697639
  0
ELLIPSE
  5
4C7
100
AcDbEntity
  8
KONSTRUKTIONSELEMENTE
100
AcDbEllipse
 62
7
  6
CONTINUOUS
 10
140.4341949206
 20
154.2659934679
 30
0.0
 11
0.0
 21
21.5
 31
0.0
 40
0.6127654705
 41
6.290431725
 42
6.3098146685
  0
ELLIPSE
  5
4C8
100
AcDbEntity
  8
KONSTRUKTIONSELEMENTE
100
AcDbEllipse
 62
7
  6
CONTINUOUS
 10
111.0749458487
 20
154.2659934679
 30
0.0
 11
0.0
 21
21.5
 31
0.0
 40
0.6808509827
 41
6.4109486716
 42
6.422681243
  0
ELLIPSE
  5
4C9
100
AcDbEntity
  8
KONSTRUKTIONSELEMENTE
100
AcDbEllipse
 62
7
  6
CONTINUOUS
 10
113.4063842406
 20
154.2659934679
 30
0.0
 11
32.9361342218
 21
0.0
 31
0.0
 40
0.6527784911
 41
1.690747876
 42
1.6985596912
  0
ELLIPSE
  5
4CA
100
AcDbEntity
  8
KONSTRUKTIONSELEMENTE
100
AcDbEllipse
 62
7
  6
CONTINUOUS
 10
119.975222927
 20
154.2659934679
 30
0.0
 11
87.8301118092
 21
0.0
 31
0.0
 40
0.244790762
 41
1.6868447775
 42
1.690747876
  0
ELLIPSE
  5
4CB
100
AcDbEntity
  8
KONSTRUKTIONSELEMENTE
100
AcDbEllipse
 62
7
  6
CONTINUOUS
 10
100.9124462148
 20
154.2659934679
 30
0.0
 11
87.8301118092
 21
-0.0
 31
0.0
 40
0.244790762
 41
1.4508447776
 42
1.4547478761
  0
ELLIPSE
  5
4CC
100
AcDbEntity
  8
KONSTRUKTIONSELEMENTE
100
AcDbEllipse
 62
7
  6
CONTINUOUS
 10
107.4812885816
 20
154.2659934679
 30
0.0
 11
32.9361034658
 21
0.0
 31
0.0
 40
0.6527791007
 41
1.4430329624
 42
1.4508447776
  0
ELLIPSE
  5
4CD
100
AcDbEntity
  8
KONSTRUKTIONSELEMENTE
100
AcDbEllipse
 62
7
  6
CONTINUOUS
 10
109.8127224015
 20
154.2659934679
 30
0.0
 11
-0.0
 21
21.5
 31
0.0
 40
0.6808512211
 41
-0.1394959358
 42
-0.1277633644
  0
ELLIPSE
  5
4CE
100
AcDbEntity
  8
KONSTRUKTIONSELEMENTE
100
AcDbEllipse
 62
7
  6
CONTINUOUS
 10
111.0848265911
 20
154.2659934679
 30
0.0
 11
-0.0
 21
21.5
 31
0.0
 40
0.255319362
 41
-0.1551697639
 42
-0.1394959358
  0
ELLIPSE
  5
4CF
100
AcDbEntity
  8
KONSTRUKTIONSELEMENTE
100
AcDbEllipse
 62
7
  6
CONTINUOUS
 10
140.6680526707
 20
154.2659934679
 30
0.0
 11
21.957446754
 21
-0.0
 31
0.0
 40
0.9791666691
 41
7.8806109953
 42
7.8922450913
  0
ELLIPSE
  5
4D0
100
AcDbEntity
  8
0
100
AcDbEllipse
 62
7
  6
CONTINUOUS
 10
103.8938345113
 20
152.2850535577
 30
0.0
 11
2.0
 21
0.0
 31
0.0
 40
0.9904699551
 41
1.5707963268
 42
3.1415926536
  0
ELLIPSE
  5
4D1
100
AcDbEntity
  8
KONSTRUKTIONSELEMENTE
100
AcDbEllipse
 62
7
  6
CONTINUOUS
 10
141.5080220059
 20
154.2659934679
 30
0.0
 11
43.9150635936
 21
0.0
 31
0.0
 40
0.4895814384
 41
7.8922450913
 42
7.9000039081
  0
ELLIPSE
  5
4D2
100
AcDbEntity
  8
KONSTRUKTIONSELEMENTE
100
AcDbEllipse
 62
7
  6
CONTINUOUS
 10
142.5181656514
 20
154.2659934679
 30
0.0
 11
65.8718300108
 21
0.0
 31
0.0
 40
0.3263914179
 41
7.9000039081
 42
7.9038843715
  0
ELLIPSE
  5
4D3
100
AcDbEntity
  8
KONSTRUKTIONSELEMENTE
100
AcDbEllipse
 62
7
  6
CONTINUOUS
 10
144.7087768438
 20
154.2659934679
 30
0.0
 11
109.7876705176
 21
0.0
 31
0.0
 40
0.1958325548
 41
7.9038843715
 42
7.9077655428
  0
ELLIPSE
  5
4D4
100
AcDbEntity
  8
KONSTRUKTIONSELEMENTE
100
AcDbEllipse
 62
7
  6
CONTINUOUS
 10
139.3196723221
 20
154.2659934679
 30
0.0
 11
0.0
 21
21.5
 31
0.0
 40
0.204255139
 41
-0.1551549511
 42
-0.1355682119
  0
ELLIPSE
  5
4D5
100
AcDbEntity
  8
KONSTRUKTIONSELEMENTE
100
AcDbEllipse
 62
7
  6
CONTINUOUS
 10
137.9347817301
 20
154.2659934679
 30
0.0
 11
0.0
 21
21.5
 31
0.0
 40
0.6808509827
 41
-0.1355682119
 42
-0.1238417371
  0
ELLIPSE
  5
4D6
100
AcDbEntity
  8
KONSTRUKTIONSELEMENTE
100
AcDbEllipse
 62
7
  6
CONTINUOUS
 10
135.6745252015
 20
154.2659934679
 30
0.0
 11
32.9362015414
 21
-0.0
 31
0.0
 40
0.6527771569
 41
1.4469545897
 42
1.4625635752
  0
ELLIPSE
  5
4D7
100
AcDbEntity
  8
KONSTRUKTIONSELEMENTE
100
AcDbEllipse
 62
7
  6
CONTINUOUS
 10
125.0011857747
 20
154.2659934679
 30
0.0
 11
131.7436907773
 21
-0.0
 31
0.0
 40
0.1631956709
 41
1.4625635752
 42
1.4664615718
  0
ELLIPSE
  5
4D8
100
AcDbEntity
  8
KONSTRUKTIONSELEMENTE
100
AcDbEllipse
 62
7
  6
CONTINUOUS
 10
151.8464800448
 20
154.2659934679
 30
0.0
 11
131.7436600215
 21
0.0
 31
0.0
 40
0.163195709
 41
1.6751310818
 42
1.6790290784
  0
ELLIPSE
  5
4D9
100
AcDbEntity
  8
KONSTRUKTIONSELEMENTE
100
AcDbEllipse
 62
7
  6
CONTINUOUS
 10
112.5253472159
 20
154.2659934679
 30
0.0
 11
0.0
 21
21.5
 31
0.0
 40
0.3404254913
 41
0.5096607758
 42
0.5230319909
  0
ELLIPSE
  5
4DA
100
AcDbEntity
  8
KONSTRUKTIONSELEMENTE
100
AcDbEllipse
 62
7
  6
CONTINUOUS
 10
141.1731451862
 20
154.2659934679
 30
0.0
 11
32.9362130749
 21
-0.0
 31
0.0
 40
0.6527769283
 41
7.9622143856
 42
7.977823371
  0
ELLIPSE
  5
4DB
100
AcDbEntity
  8
KONSTRUKTIONSELEMENTE
100
AcDbEllipse
 62
7
  6
CONTINUOUS
 10
138.9128872329
 20
154.2659934679
 30
0.0
 11
0.0
 21
21.5
 31
0.0
 40
0.6808509827
 41
6.4070270442
 42
6.4187535191
  0
ELLIPSE
  5
4DC
100
AcDbEntity
  8
KONSTRUKTIONSELEMENTE
100
AcDbEllipse
 62
7
  6
CONTINUOUS
 10
117.6771203873
 20
154.2659934679
 30
0.0
 11
-0.0
 21
21.5
 31
0.0
 40
0.3404254913
 41
0.3229216243
 42
0.3352088792
  0
ELLIPSE
  5
4DD
100
AcDbEntity
  8
KONSTRUKTIONSELEMENTE
100
AcDbEllipse
 62
7
  6
CONTINUOUS
 10
122.3224223105
 20
154.2659934679
 30
0.0
 11
21.9574651312
 21
-0.0
 31
0.0
 40
0.9791658496
 41
1.8855545617
 42
1.8937179511
  0
ELLIPSE
  5
4DE
100
AcDbEntity
  8
KONSTRUKTIONSELEMENTE
100
AcDbEllipse
 62
7
  6
CONTINUOUS
 10
135.9178375983
 20
154.2659934679
 30
0.0
 11
65.8722069317
 21
-0.0
 31
0.0
 40
0.3263895503
 41
1.881481015
 42
1.8855545617
  0
ELLIPSE
  5
4DF
100
AcDbEntity
  8
KONSTRUKTIONSELEMENTE
100
AcDbEllipse
 62
7
  6
CONTINUOUS
 10
95.8974909835
 20
154.2659934679
 30
0.0
 11
65.8722069317
 21
-0.0
 31
0.0
 40
0.3263895503
 41
1.2560380919
 42
1.2601116386
  0
ELLIPSE
  5
4E0
100
AcDbEntity
  8
KONSTRUKTIONSELEMENTE
100
AcDbEllipse
 62
7
  6
CONTINUOUS
 10
109.4929062713
 20
154.2659934679
 30
0.0
 11
21.9574651312
 21
0.0
 31
0.0
 40
0.9791658496
 41
1.2478747025
 42
1.2560380919
  0
ELLIPSE
  5
4E1
100
AcDbEntity
  8
KONSTRUKTIONSELEMENTE
100
AcDbEllipse
 62
7
  6
CONTINUOUS
 10
114.1382081945
 20
154.2659934679
 30
0.0
 11
-0.0
 21
21.5
 31
0.0
 40
0.3404254913
 41
-0.3352088792
 42
-0.3229216243
  0
ELLIPSE
  5
4E2
100
AcDbEntity
  8
KONSTRUKTIONSELEMENTE
100
AcDbEllipse
 62
7
  6
CONTINUOUS
 10
119.667091043
 20
154.2659934679
 30
0.0
 11
21.9574337209
 21
0.0
 31
0.0
 40
0.9791672503
 41
2.0715983445
 42
2.0804571026
  0
ELLIPSE
  5
4E3
100
AcDbEntity
  8
KONSTRUKTIONSELEMENTE
100
AcDbEllipse
 62
7
  6
CONTINUOUS
 10
137.5279966408
 20
154.2659934679
 30
0.0
 11
-0.0
 21
21.5
 31
0.0
 40
0.204255139
 41
6.4187535191
 42
6.4383402583
  0
ELLIPSE
  5
4E4
100
AcDbEntity
  8
KONSTRUKTIONSELEMENTE
100
AcDbEllipse
 62
7
  6
CONTINUOUS
 10
119.667091043
 20
154.2659934679
 30
0.0
 11
20.9361577338
 21
0.0
 31
0.0
 40
0.9791672503
 41
8.3816846539
 42
8.3906393105
  0
ELLIPSE
  5
4E5
100
AcDbEntity
  8
KONSTRUKTIONSELEMENTE
100
AcDbEllipse
 62
7
  6
CONTINUOUS
 10
132.1330712656
 20
154.2659934679
 30
0.0
 11
104.2979747514
 21
-0.0
 31
0.0
 40
0.2061401485
 41
7.9817449983
 42
8.0130757013
  0
ELLIPSE
  5
4E6
100
AcDbEntity
  8
KONSTRUKTIONSELEMENTE
100
AcDbEllipse
 62
7
  6
CONTINUOUS
 10
140.7519473843
 20
154.2659934679
 30
0.0
 11
65.8723953937
 21
0.0
 31
0.0
 40
0.3263886165
 41
2.0671850841
 42
2.0715983445
  0
ELLIPSE
  5
4E7
100
AcDbEntity
  8
KONSTRUKTIONSELEMENTE
100
AcDbEllipse
 62
7
  6
CONTINUOUS
 10
140.7519473843
 20
154.2659934679
 30
0.0
 11
62.8085630499
 21
-0.0
 31
0.0
 40
0.3263886165
 41
2.0938006744
 42
2.0984993467
  0
ELLIPSE
  5
4E8
100
AcDbEntity
  8
KONSTRUKTIONSELEMENTE
100
AcDbEllipse
 62
7
  6
CONTINUOUS
 10
113.4154211961
 20
154.2659934679
 30
0.0
 11
109.7876397615
 21
-0.0
 31
0.0
 40
0.1958326096
 41
1.3445710257
 42
1.3485465131
  0
ELLIPSE
  5
4E9
100
AcDbEntity
  8
KONSTRUKTIONSELEMENTE
100
AcDbEllipse
 62
7
  6
CONTINUOUS
 10
103.1638335763
 20
154.2659934679
 30
0.0
 11
131.7446805239
 21
-0.0
 31
0.0
 40
0.1631944448
 41
1.4586492442
 42
1.482023437
  0
ELLIPSE
  5
4EA
100
AcDbEntity
  8
KONSTRUKTIONSELEMENTE
100
AcDbEllipse
 62
7
  6
CONTINUOUS
 10
78.2633811975
 20
154.2659934679
 30
0.0
 11
65.8723953937
 21
-0.0
 31
0.0
 40
0.3263886165
 41
1.0699943091
 42
1.0744075695
  0
ELLIPSE
  5
4EB
100
AcDbEntity
  8
KONSTRUKTIONSELEMENTE
100
AcDbEllipse
 62
7
  6
CONTINUOUS
 10
78.2633811975
 20
154.2659934679
 30
0.0
 11
62.8085630499
 21
-0.0
 31
0.0
 40
0.3263886165
 41
1.0430933069
 42
1.0477919792
  0
ELLIPSE
  5
4EC
100
AcDbEntity
  8
KONSTRUKTIONSELEMENTE
100
AcDbEllipse
 62
7
  6
CONTINUOUS
 10
123.0954518303
 20
154.2659934679
 30
0.0
 11
65.8722684435
 21
-0.0
 31
0.0
 40
0.3263892456
 41
1.3485465131
 42
1.3525184547
  0
ELLIPSE
  5
4ED
100
AcDbEntity
  8
KONSTRUKTIONSELEMENTE
100
AcDbEllipse
 62
7
  6
CONTINUOUS
 10
97.6582826048
 20
154.2659934679
 30
0.0
 11
98.8086046241
 21
-0.0
 31
0.0
 40
0.2175923856
 41
1.3643986128
 42
1.3959795748
  0
ELLIPSE
  5
4EE
100
AcDbEntity
  8
KONSTRUKTIONSELEMENTE
100
AcDbEllipse
 62
7
  6
CONTINUOUS
 10
99.3482375388
 20
154.2659934679
 30
0.0
 11
21.9574337209
 21
-0.0
 31
0.0
 40
0.9791672503
 41
1.061135551
 42
1.0699943091
  0
ELLIPSE
  5
4EF
100
AcDbEntity
  8
KONSTRUKTIONSELEMENTE
100
AcDbEllipse
 62
7
  6
CONTINUOUS
 10
99.3482375388
 20
154.2659934679
 30
0.0
 11
20.9361577338
 21
0.0
 31
0.0
 40
0.9791672503
 41
1.0341386502
 42
1.0430933069
  0
ELLIPSE
  5
4F0
100
AcDbEntity
  8
KONSTRUKTIONSELEMENTE
100
AcDbEllipse
 62
7
  6
CONTINUOUS
 10
127.8502844304
 20
154.2659934679
 30
0.0
 11
43.9149302625
 21
-0.0
 31
0.0
 40
0.4895829248
 41
1.3525184547
 42
1.360451898
  0
ELLIPSE
  5
4F1
100
AcDbEntity
  8
KONSTRUKTIONSELEMENTE
100
AcDbEllipse
 62
7
  6
CONTINUOUS
 10
147.2805127164
 20
154.2659934679
 30
0.0
 11
129.000030756
 21
0.0
 31
0.0
 40
0.1666666269
 41
8.0762464743
 42
8.1081566931
  0
ELLIPSE
  5
4F2
100
AcDbEntity
  8
KONSTRUKTIONSELEMENTE
100
AcDbEllipse
 62
7
  6
CONTINUOUS
 10
147.2805127164
 20
154.2659934679
 30
0.0
 11
123.0000293255
 21
0.0
 31
0.0
 40
0.1666666269
 41
1.8040994876
 42
1.8191284993
  0
ELLIPSE
  5
4F3
100
AcDbEntity
  8
KONSTRUKTIONSELEMENTE
100
AcDbEllipse
 62
7
  6
CONTINUOUS
 10
106.4899813659
 20
154.2659934679
 30
0.0
 11
-0.0
 21
21.5
 31
0.0
 40
0.3404254913
 41
-0.5230319909
 42
-0.5096607758
  0
ELLIPSE
  5
4F4
100
AcDbEntity
  8
KONSTRUKTIONSELEMENTE
100
AcDbEllipse
 62
7
  6
CONTINUOUS
 10
132.434936148
 20
154.2659934679
 30
0.0
 11
21.957444191
 21
0.0
 31
0.0
 40
0.9791667834
 41
1.360451898
 42
1.3723270964
  0
ELLIPSE
  5
4F5
100
AcDbEntity
  8
KONSTRUKTIONSELEMENTE
100
AcDbEllipse
 62
7
  6
CONTINUOUS
 10
134.166664699
 20
154.2659934679
 30
0.0
 11
-0.0
 21
21.5
 31
0.0
 40
0.6127661182
 41
-0.1984692304
 42
-0.1787392036
  0
ELLIPSE
  5
4F6
100
AcDbEntity
  8
KONSTRUKTIONSELEMENTE
100
AcDbEllipse
 62
7
  6
CONTINUOUS
 10
135.8583088587
 20
154.2659934679
 30
0.0
 11
0.0
 21
21.5
 31
0.0
 40
0.1702127457
 41
-0.1787392036
 42
-0.1551549511
  0
ELLIPSE
  5
4F7
100
AcDbEntity
  8
KONSTRUKTIONSELEMENTE
100
AcDbEllipse
 62
7
  6
CONTINUOUS
 10
84.5721139369
 20
154.2659934679
 30
0.0
 11
87.8296092422
 21
-0.0
 31
0.0
 40
0.2447921628
 41
1.2601116386
 42
1.2641798643
  0
ELLIPSE
  5
4F8
100
AcDbEntity
  8
KONSTRUKTIONSELEMENTE
100
AcDbEllipse
 62
7
  6
CONTINUOUS
 10
101.3536126177
 20
154.2659934679
 30
0.0
 11
32.9361976969
 21
-0.0
 31
0.0
 40
0.6527772331
 41
1.2519591586
 42
1.2601116386
  0
ELLIPSE
  5
4F9
100
AcDbEntity
  8
KONSTRUKTIONSELEMENTE
100
AcDbEllipse
 62
7
  6
CONTINUOUS
 10
107.0893178418
 20
154.2659934679
 30
0.0
 11
0.0
 21
21.5
 31
0.0
 40
0.6808512211
 41
-0.3311073759
 42
-0.3188371681
  0
ELLIPSE
  5
4FA
100
AcDbEntity
  8
KONSTRUKTIONSELEMENTE
100
AcDbEllipse
 62
7
  6
CONTINUOUS
 10
110.0635518177
 20
154.2659934679
 30
0.0
 11
0.0
 21
21.5
 31
0.0
 40
0.2553189968
 41
-0.3475489575
 42
-0.3311073759
  0
ELLIPSE
  5
4FB
100
AcDbEntity
  8
KONSTRUKTIONSELEMENTE
100
AcDbEllipse
 62
7
  6
CONTINUOUS
 10
140.9893602134
 20
154.2659934679
 30
0.0
 11
0.0
 21
21.5
 31
0.0
 40
0.1702127606
 41
0.1551549511
 42
0.1787392036
  0
ELLIPSE
  5
4FC
100
AcDbEntity
  8
KONSTRUKTIONSELEMENTE
100
AcDbEllipse
 62
7
  6
CONTINUOUS
 10
142.6810045212
 20
154.2659934679
 30
0.0
 11
0.0
 21
21.5
 31
0.0
 40
0.6127661718
 41
0.1787392036
 42
0.1984692304
  0
ELLIPSE
  5
4FD
100
AcDbEntity
  8
KONSTRUKTIONSELEMENTE
100
AcDbEllipse
 62
7
  6
CONTINUOUS
 10
144.4127333501
 20
154.2659934679
 30
0.0
 11
21.957446754
 21
-0.0
 31
0.0
 40
0.9791666691
 41
1.7692655572
 42
1.7811407555
  0
ELLIPSE
  5
4FE
100
AcDbEntity
  8
KONSTRUKTIONSELEMENTE
100
AcDbEllipse
 62
7
  6
CONTINUOUS
 10
148.997386138
 20
154.2659934679
 30
0.0
 11
43.9149379515
 21
0.0
 31
0.0
 40
0.4895828391
 41
1.7811407555
 42
1.7890741988
  0
ELLIPSE
  5
4FF
100
AcDbEntity
  8
KONSTRUKTIONSELEMENTE
100
AcDbEllipse
 62
7
  6
CONTINUOUS
 10
153.7522037528
 20
154.2659934679
 30
0.0
 11
65.8722069317
 21
-0.0
 31
0.0
 40
0.3263895503
 41
1.7890741988
 42
1.7930461405
  0
ELLIPSE
  5
500
100
AcDbEntity
  8
KONSTRUKTIONSELEMENTE
100
AcDbEllipse
 62
7
  6
CONTINUOUS
 10
163.4322547251
 20
154.2659934679
 30
0.0
 11
109.7876705176
 21
0.0
 31
0.0
 40
0.1958325548
 41
1.7930461405
 42
1.7970216279
  0
ELLIPSE
  5
501
100
AcDbEntity
  8
KONSTRUKTIONSELEMENTE
100
AcDbEllipse
 62
7
  6
CONTINUOUS
 10
140.3652467039
 20
154.2659934679
 30
0.0
 11
0.0
 21
21.5
 31
0.0
 40
0.1702127606
 41
6.2671751637
 42
6.290431725
  0
ELLIPSE
  5
502
100
AcDbEntity
  8
KONSTRUKTIONSELEMENTE
100
AcDbEllipse
 62
7
  6
CONTINUOUS
 10
138.570736845
 20
154.2659934679
 30
0.0
 11
-0.0
 21
21.5
 31
0.0
 40
0.204255139
 41
-0.3310919006
 42
-0.3106692943
  0
ELLIPSE
  5
503
100
AcDbEntity
  8
KONSTRUKTIONSELEMENTE
100
AcDbEllipse
 62
7
  6
CONTINUOUS
 10
135.4383282352
 20
154.2659934679
 30
0.0
 11
-0.0
 21
21.5
 31
0.0
 40
0.6808509827
 41
-0.3106692943
 42
-0.2984803119
  0
ELLIPSE
  5
504
100
AcDbEntity
  8
KONSTRUKTIONSELEMENTE
100
AcDbEllipse
 62
7
  6
CONTINUOUS
 10
130.0574988255
 20
154.2659934679
 30
0.0
 11
32.9362015414
 21
0.0
 31
0.0
 40
0.6527771569
 41
1.2723160149
 42
1.2884975261
  0
ELLIPSE
  5
505
100
AcDbEntity
  8
KONSTRUKTIONSELEMENTE
100
AcDbEllipse
 62
7
  6
CONTINUOUS
 10
102.5330604987
 20
154.2659934679
 30
0.0
 11
131.7444446193
 21
-0.0
 31
0.0
 40
0.1631947371
 41
1.2884975261
 42
1.2925308976
  0
ELLIPSE
  5
506
100
AcDbEntity
  8
KONSTRUKTIONSELEMENTE
100
AcDbEllipse
 62
7
  6
CONTINUOUS
 10
174.3146000756
 20
154.2659934679
 30
0.0
 11
131.7444138633
 21
0.0
 31
0.0
 40
0.1631947752
 41
1.8490617559
 42
1.8530951275
  0
ELLIPSE
  5
507
100
AcDbEntity
  8
KONSTRUKTIONSELEMENTE
100
AcDbEllipse
 62
7
  6
CONTINUOUS
 10
146.7901735291
 20
154.2659934679
 30
0.0
 11
32.9362130749
 21
0.0
 31
0.0
 40
0.6527769283
 41
8.1362804346
 42
8.1524619459
  0
ELLIPSE
  5
508
100
AcDbEntity
  8
KONSTRUKTIONSELEMENTE
100
AcDbEllipse
 62
7
  6
CONTINUOUS
 10
141.4093407278
 20
154.2659934679
 30
0.0
 11
0.0
 21
21.5
 31
0.0
 40
0.6808509827
 41
0.2984803119
 42
0.3106692943
  0
ELLIPSE
  5
509
100
AcDbEntity
  8
KONSTRUKTIONSELEMENTE
100
AcDbEllipse
 62
7
  6
CONTINUOUS
 10
138.2769321179
 20
154.2659934679
 30
0.0
 11
0.0
 21
21.5
 31
0.0
 40
0.204255139
 41
0.3106692943
 42
0.3310919006
  0
ELLIPSE
  5
50A
100
AcDbEntity
  8
KONSTRUKTIONSELEMENTE
100
AcDbEllipse
 62
7
  6
CONTINUOUS
 10
156.9855883324
 20
154.2659934679
 30
0.0
 11
109.7870115528
 21
0.0
 31
0.0
 40
0.1958337302
 41
1.9979014819
 42
2.0021641548
  0
ELLIPSE
  5
50B
100
AcDbEntity
  8
KONSTRUKTIONSELEMENTE
100
AcDbEllipse
 62
7
  6
CONTINUOUS
 10
129.6988631153
 20
154.2659934679
 30
0.0
 11
43.9148751307
 21
-0.0
 31
0.0
 40
0.4895835394
 41
1.9894007852
 42
1.9979014819
  0
ELLIPSE
  5
50C
100
AcDbEntity
  8
KONSTRUKTIONSELEMENTE
100
AcDbEllipse
 62
7
  6
CONTINUOUS
 10
94.6920713649
 20
154.2659934679
 30
0.0
 11
109.7873256562
 21
-0.0
 31
0.0
 40
0.1958331699
 41
1.1648990945
 42
1.1691140341
  0
ELLIPSE
  5
50D
100
AcDbEntity
  8
KONSTRUKTIONSELEMENTE
100
AcDbEllipse
 62
7
  6
CONTINUOUS
 10
111.8613483575
 20
154.2659934679
 30
0.0
 11
65.8724569058
 21
0.0
 31
0.0
 40
0.3263883117
 41
1.1691140341
 42
1.1733214407
  0
ELLIPSE
  5
50E
100
AcDbEntity
  8
KONSTRUKTIONSELEMENTE
100
AcDbEllipse
 62
7
  6
CONTINUOUS
 10
120.7734884651
 20
154.2659934679
 30
0.0
 11
21.9574670535
 21
0.0
 31
0.0
 40
0.9791657639
 41
1.972494544
 42
1.9894007852
  0
ELLIPSE
  5
50F
100
AcDbEntity
  8
KONSTRUKTIONSELEMENTE
100
AcDbEllipse
 62
7
  6
CONTINUOUS
 10
120.3609406337
 20
154.2659934679
 30
0.0
 11
43.9148674417
 21
-0.0
 31
0.0
 40
0.4895836251
 41
1.1733214407
 42
1.1817141223
  0
ELLIPSE
  5
510
100
AcDbEntity
  8
KONSTRUKTIONSELEMENTE
100
AcDbEllipse
 62
7
  6
CONTINUOUS
 10
128.6902559057
 20
154.2659934679
 30
0.0
 11
21.957444191
 21
0.0
 31
0.0
 40
0.9791667834
 41
1.1817141223
 42
1.1942494502
  0
ELLIPSE
  5
511
100
AcDbEntity
  8
KONSTRUKTIONSELEMENTE
100
AcDbEllipse
 62
7
  6
CONTINUOUS
 10
131.9198556965
 20
154.2659934679
 30
0.0
 11
-0.0
 21
20.5
 31
0.0
 40
0.6127661182
 41
-0.3790095495
 42
-0.373980214
  0
ELLIPSE
  5
512
100
AcDbEntity
  8
KONSTRUKTIONSELEMENTE
100
AcDbEllipse
 62
7
  6
CONTINUOUS
 10
131.9198556965
 20
154.2659934679
 30
0.0
 11
0.0
 21
21.5
 31
0.0
 40
0.6127661182
 41
-0.3765468766
 42
-0.3557906782
  0
ELLIPSE
  5
513
100
AcDbEntity
  8
KONSTRUKTIONSELEMENTE
100
AcDbEllipse
 62
7
  6
CONTINUOUS
 10
135.2341954849
 20
154.2659934679
 30
0.0
 11
0.0
 21
20.5
 31
0.0
 40
0.1702127457
 41
-0.373980214
 42
-0.3479093673
  0
ELLIPSE
  5
514
100
AcDbEntity
  8
KONSTRUKTIONSELEMENTE
100
AcDbEllipse
 62
7
  6
CONTINUOUS
 10
135.2341954849
 20
154.2659934679
 30
0.0
 11
-0.0
 21
21.5
 31
0.0
 40
0.1702127457
 41
-0.3557906782
 42
-0.3310919006
  0
ELLIPSE
  5
515
100
AcDbEntity
  8
KONSTRUKTIONSELEMENTE
100
AcDbEllipse
 62
7
  6
CONTINUOUS
 10
132.51449297
 20
154.2659934679
 30
0.0
 11
-0.0
 21
21.5
 31
0.0
 40
0.5106381761
 41
-0.5729699577
 42
-0.5637718565
  0
ELLIPSE
  5
516
100
AcDbEntity
  8
KONSTRUKTIONSELEMENTE
100
AcDbEllipse
 62
7
  6
CONTINUOUS
 10
132.51449297
 20
154.2659934679
 30
0.0
 11
0.0
 21
20.5
 31
0.0
 40
0.5106381761
 41
-0.604773111
 42
-0.5949234555
  0
ELLIPSE
  5
517
100
AcDbEntity
  8
KONSTRUKTIONSELEMENTE
100
AcDbEllipse
 62
7
  6
CONTINUOUS
 10
129.5385444088
 20
154.2659934679
 30
0.0
 11
0.0
 21
21.5
 31
0.0
 40
0.7659573669
 41
-0.5915326993
 42
-0.5729699577
  0
ELLIPSE
  5
518
100
AcDbEntity
  8
KONSTRUKTIONSELEMENTE
100
AcDbEllipse
 62
7
  6
CONTINUOUS
 10
129.5385444088
 20
154.2659934679
 30
0.0
 11
-0.0
 21
20.5
 31
0.0
 40
0.7659573669
 41
-0.6246773772
 42
-0.604773111
  0
ELLIPSE
  5
519
100
AcDbEntity
  8
KONSTRUKTIONSELEMENTE
100
AcDbEllipse
 62
7
  6
CONTINUOUS
 10
108.1111582515
 20
154.2659934679
 30
0.0
 11
54.8936242195
 21
0.0
 31
0.0
 40
0.3916666153
 41
0.9698953052
 42
0.9792636275
  0
ELLIPSE
  5
51A
100
AcDbEntity
  8
KONSTRUKTIONSELEMENTE
100
AcDbEllipse
 62
7
  6
CONTINUOUS
 10
108.1111582515
 20
154.2659934679
 30
0.0
 11
52.3404323953
 21
-0.0
 31
0.0
 40
0.3916666153
 41
0.9360594152
 42
0.9461189496
  0
ELLIPSE
  5
51B
100
AcDbEntity
  8
KONSTRUKTIONSELEMENTE
100
AcDbEllipse
 62
7
  6
CONTINUOUS
 10
170.4386341189
 20
154.2659934679
 30
0.0
 11
54.8936165305
 21
0.0
 31
0.0
 40
0.3916666702
 41
2.1623290261
 42
2.1716973484
  0
ELLIPSE
  5
51C
100
AcDbEntity
  8
KONSTRUKTIONSELEMENTE
100
AcDbEllipse
 62
7
  6
CONTINUOUS
 10
170.4386341189
 20
154.2659934679
 30
0.0
 11
52.340425064
 21
-0.0
 31
0.0
 40
0.3916666702
 41
2.195473704
 42
2.2055332384
  0
ELLIPSE
  5
51D
100
AcDbEntity
  8
KONSTRUKTIONSELEMENTE
100
AcDbEllipse
 62
7
  6
CONTINUOUS
 10
152.0723083616
 20
154.2659934679
 30
0.0
 11
21.9574480627
 21
0.0
 31
0.0
 40
0.9791666107
 41
2.1483858166
 42
2.1623290261
  0
ELLIPSE
  5
51E
100
AcDbEntity
  8
KONSTRUKTIONSELEMENTE
100
AcDbEllipse
 62
7
  6
CONTINUOUS
 10
152.0723083616
 20
154.2659934679
 30
0.0
 11
20.9361714087
 21
0.0
 31
0.0
 40
0.9791666107
 41
2.1805194371
 42
2.195473704
  0
ELLIPSE
  5
51F
100
AcDbEntity
  8
KONSTRUKTIONSELEMENTE
100
AcDbEllipse
 62
7
  6
CONTINUOUS
 10
147.2767481458
 20
154.2659934679
 30
0.0
 11
-0.0
 21
21.5
 31
0.0
 40
0.6127659527
 41
0.5546269408
 42
0.5775894898
  0
ELLIPSE
  5
520
100
AcDbEntity
  8
KONSTRUKTIONSELEMENTE
100
AcDbEllipse
 62
7
  6
CONTINUOUS
 10
147.2767481458
 20
154.2659934679
 30
0.0
 11
0.0
 21
20.5
 31
0.0
 40
0.6127659527
 41
0.5851390244
 42
0.6097231103
  0
ELLIPSE
  5
521
100
AcDbEntity
  8
KONSTRUKTIONSELEMENTE
100
AcDbEllipse
 62
7
  6
CONTINUOUS
 10
142.6514013039
 20
154.2659934679
 30
0.0
 11
-0.0
 21
21.5
 31
0.0
 40
0.2042553029
 41
0.5319865529
 42
0.5546269408
  0
ELLIPSE
  5
522
100
AcDbEntity
  8
KONSTRUKTIONSELEMENTE
100
AcDbEllipse
 62
7
  6
CONTINUOUS
 10
142.6514013039
 20
154.2659934679
 30
0.0
 11
-0.0
 21
20.5
 31
0.0
 40
0.2042553029
 41
0.560949089
 42
0.5851390244
  0
ELLIPSE
  5
523
100
AcDbEntity
  8
KONSTRUKTIONSELEMENTE
100
AcDbEllipse
 62
7
  6
CONTINUOUS
 10
116.4809959615
 20
154.2659934679
 30
0.0
 11
-0.0
 21
21.5
 31
0.0
 40
0.5106380606
 41
0.3849125192
 42
0.4016982172
  0
ELLIPSE
  5
524
100
AcDbEntity
  8
KONSTRUKTIONSELEMENTE
100
AcDbEllipse
 62
7
  6
CONTINUOUS
 10
114.0076366063
 20
154.2659934679
 30
0.0
 11
0.0
 21
21.5
 31
0.0
 40
0.2042553906
 41
0.3640890653
 42
0.3849125192
  0
ELLIPSE
  5
525
100
AcDbEntity
  8
KONSTRUKTIONSELEMENTE
100
AcDbEllipse
 62
7
  6
CONTINUOUS
 10
136.4824223135
 20
154.2659934679
 30
0.0
 11
0.0
 21
21.5
 31
0.0
 40
0.1702127457
 41
-0.0072464179
 42
0.0160101435
  0
ELLIPSE
  5
526
100
AcDbEntity
  8
KONSTRUKTIONSELEMENTE
100
AcDbEllipse
 62
7
  6
CONTINUOUS
 10
141.6134736418
 20
154.2659934679
 30
0.0
 11
-0.0
 21
20.5
 31
0.0
 40
0.1702127606
 41
6.6310946745
 42
6.6571655212
  0
ELLIPSE
  5
527
100
AcDbEntity
  8
KONSTRUKTIONSELEMENTE
100
AcDbEllipse
 62
7
  6
CONTINUOUS
 10
141.6134736418
 20
154.2659934679
 30
0.0
 11
0.0
 21
21.5
 31
0.0
 40
0.1702127606
 41
0.3310919006
 42
0.3557906782
  0
ELLIPSE
  5
528
100
AcDbEntity
  8
KONSTRUKTIONSELEMENTE
100
AcDbEllipse
 62
7
  6
CONTINUOUS
 10
144.9278137204
 20
154.2659934679
 30
0.0
 11
0.0
 21
20.5
 31
0.0
 40
0.6127661718
 41
0.373980214
 42
0.376524849
  0
ELLIPSE
  5
529
100
AcDbEntity
  8
KONSTRUKTIONSELEMENTE
100
AcDbEllipse
 62
7
  6
CONTINUOUS
 10
139.894263556
 20
154.2659934679
 30
0.0
 11
57.6383021258
 21
-0.0
 31
0.0
 40
0.3730158455
 41
2.0671850841
 42
2.1027998807
  0
ELLIPSE
  5
52A
100
AcDbEntity
  8
KONSTRUKTIONSELEMENTE
100
AcDbEllipse
 62
7
  6
CONTINUOUS
 10
144.9278137204
 20
154.2659934679
 30
0.0
 11
-0.0
 21
21.5
 31
0.0
 40
0.6127661718
 41
0.3557906782
 42
0.3765468766
  0
ELLIPSE
  5
52B
100
AcDbEntity
  8
KONSTRUKTIONSELEMENTE
100
AcDbEllipse
 62
7
  6
CONTINUOUS
 10
139.894263556
 20
154.2659934679
 30
0.0
 11
54.9574508642
 21
0.0
 31
0.0
 40
0.3730158455
 41
8.3769859815
 42
8.3906156079
  0
ELLIPSE
  5
52C
100
AcDbEntity
  8
KONSTRUKTIONSELEMENTE
100
AcDbEllipse
 62
7
  6
CONTINUOUS
 10
148.1574140295
 20
154.2659934679
 30
0.0
 11
21.957446754
 21
-0.0
 31
0.0
 40
0.9791666691
 41
1.9473432034
 42
1.9598785313
  0
ELLIPSE
  5
52D
100
AcDbEntity
  8
KONSTRUKTIONSELEMENTE
100
AcDbEllipse
 62
7
  6
CONTINUOUS
 10
156.486731246
 20
154.2659934679
 30
0.0
 11
43.9148751307
 21
0.0
 31
0.0
 40
0.4895835394
 41
1.9598785313
 42
1.9682712129
  0
ELLIPSE
  5
52E
100
AcDbEntity
  8
KONSTRUKTIONSELEMENTE
100
AcDbEllipse
 62
7
  6
CONTINUOUS
 10
164.9862967351
 20
154.2659934679
 30
0.0
 11
65.8723953937
 21
-0.0
 31
0.0
 40
0.3263886165
 41
1.9682712129
 42
1.9724786195
  0
ELLIPSE
  5
52F
100
AcDbEntity
  8
KONSTRUKTIONSELEMENTE
100
AcDbEllipse
 62
7
  6
CONTINUOUS
 10
182.1556098015
 20
154.2659934679
 30
0.0
 11
109.7873564123
 21
0.0
 31
0.0
 40
0.1958331151
 41
1.9724786195
 42
1.976693559
  0
ELLIPSE
  5
530
100
AcDbEntity
  8
KONSTRUKTIONSELEMENTE
100
AcDbEllipse
 62
7
  6
CONTINUOUS
 10
134.2132891956
 20
154.2659934679
 30
0.0
 11
-0.0
 21
21.5
 31
0.0
 40
0.2042552851
 41
-0.5500739005
 42
-0.5274949514
  0
ELLIPSE
  5
531
100
AcDbEntity
  8
KONSTRUKTIONSELEMENTE
100
AcDbEllipse
 62
7
  6
CONTINUOUS
 10
134.2132891956
 20
154.2659934679
 30
0.0
 11
0.0
 21
20.5
 31
0.0
 40
0.2042552851
 41
-0.5802705727
 42
-0.5561555333
  0
ELLIPSE
  5
532
100
AcDbEntity
  8
KONSTRUKTIONSELEMENTE
100
AcDbEllipse
 62
7
  6
CONTINUOUS
 10
129.6219858185
 20
154.2659934679
 30
0.0
 11
-0.0
 21
21.5
 31
0.0
 40
0.6127658552
 41
-0.5729699577
 42
-0.5500739005
  0
ELLIPSE
  5
533
100
AcDbEntity
  8
KONSTRUKTIONSELEMENTE
100
AcDbEllipse
 62
7
  6
CONTINUOUS
 10
129.6219858185
 20
154.2659934679
 30
0.0
 11
-0.0
 21
20.5
 31
0.0
 40
0.6127658552
 41
-0.604773111
 42
-0.5802705727
  0
ELLIPSE
  5
534
100
AcDbEntity
  8
KONSTRUKTIONSELEMENTE
100
AcDbEllipse
 62
7
  6
CONTINUOUS
 10
124.8604691282
 20
154.2659934679
 30
0.0
 11
21.957444191
 21
0.0
 31
0.0
 40
0.9791667834
 41
0.9839256965
 42
0.9978263691
  0
ELLIPSE
  5
535
100
AcDbEntity
  8
KONSTRUKTIONSELEMENTE
100
AcDbEllipse
 62
7
  6
CONTINUOUS
 10
124.8604691282
 20
154.2659934679
 30
0.0
 11
20.936167717
 21
0.0
 31
0.0
 40
0.9791667834
 41
0.9511213913
 42
0.9660232158
  0
ELLIPSE
  5
536
100
AcDbEntity
  8
KONSTRUKTIONSELEMENTE
100
AcDbEllipse
 62
7
  6
CONTINUOUS
 10
106.6217866545
 20
154.2659934679
 30
0.0
 11
54.8936420514
 21
-0.0
 31
0.0
 40
0.3916664881
 41
0.974586911
 42
0.9839256965
  0
ELLIPSE
  5
537
100
AcDbEntity
  8
KONSTRUKTIONSELEMENTE
100
AcDbEllipse
 62
7
  6
CONTINUOUS
 10
106.6217866545
 20
154.2659934679
 30
0.0
 11
52.3404493979
 21
-0.0
 31
0.0
 40
0.3916664881
 41
0.9410983995
 42
0.9511213913
  0
ELLIPSE
  5
538
100
AcDbEntity
  8
KONSTRUKTIONSELEMENTE
100
AcDbEllipse
 62
7
  6
CONTINUOUS
 10
162.3590761818
 20
154.2659934679
 30
0.0
 11
43.9148890363
 21
0.0
 31
0.0
 40
0.4895833844
 41
2.1576669571
 42
2.1670057426
  0
ELLIPSE
  5
539
100
AcDbEntity
  8
KONSTRUKTIONSELEMENTE
100
AcDbEllipse
 62
7
  6
CONTINUOUS
 10
162.3590761818
 20
154.2659934679
 30
0.0
 11
41.8723360579
 21
0.0
 31
0.0
 40
0.4895833844
 41
2.1904712623
 42
2.2004942541
  0
ELLIPSE
  5
53A
100
AcDbEntity
  8
KONSTRUKTIONSELEMENTE
100
AcDbEllipse
 62
7
  6
CONTINUOUS
 10
150.1999658265
 20
154.2659934679
 30
0.0
 11
21.957444191
 21
-0.0
 31
0.0
 40
0.9791667834
 41
2.1437662845
 42
2.1576669571
  0
ELLIPSE
  5
53B
100
AcDbEntity
  8
KONSTRUKTIONSELEMENTE
100
AcDbEllipse
 62
7
  6
CONTINUOUS
 10
150.1999658265
 20
154.2659934679
 30
0.0
 11
20.936167717
 21
0.0
 31
0.0
 40
0.9791667834
 41
2.1755694378
 42
2.1904712623
  0
ELLIPSE
  5
53C
100
AcDbEntity
  8
KONSTRUKTIONSELEMENTE
100
AcDbEllipse
 62
7
  6
CONTINUOUS
 10
144.2480696797
 20
154.2659934679
 30
0.0
 11
0.0
 21
21.5
 31
0.0
 40
0.5106381761
 41
0.5637718565
 42
0.5729699577
  0
ELLIPSE
  5
53D
100
AcDbEntity
  8
KONSTRUKTIONSELEMENTE
100
AcDbEllipse
 62
7
  6
CONTINUOUS
 10
144.2480696797
 20
154.2659934679
 30
0.0
 11
-0.0
 21
20.5
 31
0.0
 40
0.5106381761
 41
0.5949234555
 42
0.604773111
  0
ELLIPSE
  5
53E
100
AcDbEntity
  8
KONSTRUKTIONSELEMENTE
100
AcDbEllipse
 62
7
  6
CONTINUOUS
 10
132.1388938322
 20
154.2659934679
 30
0.0
 11
109.7876397615
 21
-0.0
 31
0.0
 40
0.1958326096
 41
1.517012418
 42
1.5208935892
  0
ELLIPSE
  5
53F
100
AcDbEntity
  8
KONSTRUKTIONSELEMENTE
100
AcDbEllipse
 62
7
  6
CONTINUOUS
 10
134.3295004221
 20
154.2659934679
 30
0.0
 11
65.8718915223
 21
-0.0
 31
0.0
 40
0.3263911132
 41
1.5208935892
 42
1.5247740527
  0
ELLIPSE
  5
540
100
AcDbEntity
  8
KONSTRUKTIONSELEMENTE
100
AcDbEllipse
 62
7
  6
CONTINUOUS
 10
135.5329934746
 20
154.2659934679
 30
0.0
 11
-0.0
 21
21.5
 31
0.0
 40
0.2553190881
 41
-0.5096439913
 42
-0.4919693918
  0
ELLIPSE
  5
541
100
AcDbEntity
  8
KONSTRUKTIONSELEMENTE
100
AcDbEllipse
 62
7
  6
CONTINUOUS
 10
135.3396472512
 20
154.2659934679
 30
0.0
 11
43.9150559046
 21
0.0
 31
0.0
 40
0.4895815241
 41
1.5247740527
 42
1.5325328694
  0
ELLIPSE
  5
542
100
AcDbEntity
  8
KONSTRUKTIONSELEMENTE
100
AcDbEllipse
 62
7
  6
CONTINUOUS
 10
130.3470532292
 20
154.2659934679
 30
0.0
 11
-0.0
 21
21.5
 31
0.0
 40
0.7659575381
 41
-0.4919693918
 42
-0.4744606732
  0
ELLIPSE
  5
543
100
AcDbEntity
  8
KONSTRUKTIONSELEMENTE
100
AcDbEllipse
 62
7
  6
CONTINUOUS
 10
141.2295691751
 20
154.2659934679
 30
0.0
 11
0.0
 21
21.5
 31
0.0
 40
0.2553190881
 41
0.4919693918
 42
0.5096439913
  0
ELLIPSE
  5
544
100
AcDbEntity
  8
KONSTRUKTIONSELEMENTE
100
AcDbEllipse
 62
7
  6
CONTINUOUS
 10
143.8225397615
 20
154.2659934679
 30
0.0
 11
-0.0
 21
21.5
 31
0.0
 40
0.5106383587
 41
0.4744606732
 42
0.4919693918
  0
ELLIPSE
  5
545
100
AcDbEntity
  8
KONSTRUKTIONSELEMENTE
100
AcDbEllipse
 62
7
  6
CONTINUOUS
 10
152.1820855438
 20
154.2659934679
 30
0.0
 11
29.2766025066
 21
0.0
 31
0.0
 40
0.7343748304
 41
2.0322283891
 42
2.0452569999
  0
ELLIPSE
  5
546
100
AcDbEntity
  8
KONSTRUKTIONSELEMENTE
100
AcDbEllipse
 62
7
  6
CONTINUOUS
 10
152.1820855438
 20
154.2659934679
 30
0.0
 11
27.9149000645
 21
0.0
 31
0.0
 40
0.7343748304
 41
8.3398194974
 42
8.3452312363
  0
ELLIPSE
  5
547
100
AcDbEntity
  8
KONSTRUKTIONSELEMENTE
100
AcDbEllipse
 62
7
  6
CONTINUOUS
 10
126.3677134561
 20
154.2659934679
 30
0.0
 11
29.2765973806
 21
-0.0
 31
0.0
 40
0.734374959
 41
1.0963356536
 42
1.1093642645
  0
ELLIPSE
  5
548
100
AcDbEntity
  8
KONSTRUKTIONSELEMENTE
100
AcDbEllipse
 62
7
  6
CONTINUOUS
 10
126.3677134561
 20
154.2659934679
 30
0.0
 11
27.9148951769
 21
0.0
 31
0.0
 40
0.734374959
 41
1.0795467245
 42
1.0849584633
  0
ELLIPSE
  5
549
100
AcDbEntity
  8
KONSTRUKTIONSELEMENTE
100
AcDbEllipse
 62
7
  6
CONTINUOUS
 10
134.7272568965
 20
154.2659934679
 30
0.0
 11
0.0
 21
21.5
 31
0.0
 40
0.5106383587
 41
-0.4919693918
 42
-0.4744606732
  0
ELLIPSE
  5
54A
100
AcDbEntity
  8
KONSTRUKTIONSELEMENTE
100
AcDbEllipse
 62
7
  6
CONTINUOUS
 10
137.3202274829
 20
154.2659934679
 30
0.0
 11
-0.0
 21
21.5
 31
0.0
 40
0.2553190881
 41
-0.5096439913
 42
-0.4919693918
  0
ELLIPSE
  5
54B
100
AcDbEntity
  8
KONSTRUKTIONSELEMENTE
100
AcDbEllipse
 62
7
  6
CONTINUOUS
 10
122.823474133
 20
154.2659934679
 30
0.0
 11
32.9361505813
 21
0.0
 31
0.0
 40
0.6527781669
 41
1.0963356536
 42
1.1050309061
  0
ELLIPSE
  5
54C
100
AcDbEntity
  8
KONSTRUKTIONSELEMENTE
100
AcDbEllipse
 62
7
  6
CONTINUOUS
 10
139.52744148
 20
154.2659934679
 30
0.0
 11
0.0
 21
21.5
 31
0.0
 40
0.2553190881
 41
0.4919693918
 42
0.5096439913
  0
ELLIPSE
  5
54D
100
AcDbEntity
  8
KONSTRUKTIONSELEMENTE
100
AcDbEllipse
 62
7
  6
CONTINUOUS
 10
144.7133817255
 20
154.2659934679
 30
0.0
 11
0.0
 21
21.5
 31
0.0
 40
0.7659575381
 41
0.4744606732
 42
0.4919693918
  0
ELLIPSE
  5
54E
100
AcDbEntity
  8
KONSTRUKTIONSELEMENTE
100
AcDbEllipse
 62
7
  6
CONTINUOUS
 10
152.2369748728
 20
154.2659934679
 30
0.0
 11
32.9361813373
 21
0.0
 31
0.0
 40
0.6527775573
 41
2.0365617475
 42
2.0452569999
  0
ELLIPSE
  5
54F
100
AcDbEntity
  8
KONSTRUKTIONSELEMENTE
100
AcDbEllipse
 62
7
  6
CONTINUOUS
 10
103.8938345113
 20
112.941714895
 30
0.0
 11
2.0
 21
0.0
 31
0.0
 40
0.8407800352
 41
1.5707963268
 42
3.1415926536
  0
ELLIPSE
  5
550
100
AcDbEntity
  8
KONSTRUKTIONSELEMENTE
100
AcDbEllipse
 62
7
  6
CONTINUOUS
 10
145.8938345113
 20
112.941714895
 30
0.0
 11
2.0
 21
-0.0
 31
0.0
 40
0.8407800352
 41
-0.0
 42
1.5707963268
  0
ELLIPSE
  5
551
100
AcDbEntity
  8
0
100
AcDbEllipse
 62
7
  6
CONTINUOUS
 10
145.8938345113
 20
73.6569173367
 30
0.0
 11
2.0
 21
-0.0
 31
0.0
 40
0.8407800352
 41
-1.5707963268
 42
0.0
  0
ELLIPSE
  5
552
100
AcDbEntity
  8
0
100
AcDbEllipse
 62
7
  6
CONTINUOUS
 10
103.8938345113
 20
73.6569173367
 30
0.0
 11
2.0
 21
0.0
 31
0.0
 40
0.8407800352
 41
3.1415926536
 42
4.7123889804
  0
ENDSEC
  0
SECTION
  2
OBJECTS
  0
DICTIONARY
  5
C
100
AcDbDictionary
280
0
281
1
  3
ACAD_GROUP
350
D
  3
ACAD_MLINESTYLE
350
17
  3
ACAD_LAYOUT
350
1A
  3
ACAD_PLOTSETTINGS
350
19
  3
ACAD_PLOTSTYLENAME
350
E
  0
DICTIONARY
  5
D
102
{ACAD_REACTORS
330
C
102
}
100
AcDbDictionary
280
0
281
1
  0
ACDBDICTIONARYWDFLT
  5
E
102
{ACAD_REACTORS
330
C
102
}
100
AcDbDictionary
281
1
  3
Normal
350
F
100
AcDbDictionaryWithDefault
340
F
  0
DICTIONARY
  5
17
102
{ACAD_REACTORS
330
C
102
}
100
AcDbDictionary
280
0
281
1
  3
Standard
350
18
  0
DICTIONARY
  5
19
102
{ACAD_REACTORS
330
C
102
}
100
AcDbDictionary
281
1
  0
DICTIONARY
  5
1A
102
{ACAD_REACTORS
330
C
102
}
100
AcDbDictionary
281
1
  3
Model
350
553
  3
Layout1
350
554
  0
ACDBPLACEHOLDER
  5
F
102
{ACAD_REACTORS
330
E
102
}
  0
MLINESTYLE
  5
18
102
{ACAD_REACTORS
330
17
102
}
100
AcDbMlineStyle
  2
STANDARD
 70
0
  3

 62
256
 51
90.0
 52
90.0
 71
2
 49
0.5
 62
256
  6
BYLAYER
 49
-0.5
 62
256
  6
BYLAYER
  0
LAYOUT
  5
553
102
{ACAD_REACTORS
330
1A
102
}
100
AcDbPlotSettings
  1

  2
none_device
  4
ISO_A3_(420.00_x_297.00_MM)
  6

 40
0.0
 41
0.0
 42
0.0
 43
0.0
 44
420.0
 45
297.0
 46
0.0
 47
0.0
 48
0.0
 49
0.0
140
0.0
141
0.0
142
1.0
143
1.0
 70
1024
 72
1
 73
0
 74
0
  7

 75
0
147
1.0
148
0.0
149
0.0
100
AcDbLayout
  1
Model
 70
0
 71
0
 10
0.0
 20
0.0
 11
420.0
 21
297.0
 12
0.0
 22
0.0
 32
0.0
 14
0.0
 24
0.0
 34
0.0
 15
0.0
 25
0.0
 35
0.0
146
0.0
 13
0.0
 23
0.0
 33
0.0
 16
1.0
 26
0.0
 36
0.0
 17
0.0
 27
1.0
 37
0.0
 76
0
330
20C
345
0
346
0
  0
LAYOUT
  5
554
102
{ACAD_REACTORS
330
1A
102
}
100
AcDbPlotSettings
  1

  2
none_device
  4
ISO_A3_(420.00_x_297.00_MM)
  6

 40
0.0
 41
0.0
 42
0.0
 43
0.0
 44
420.0
 45
297.0
 46
0.0
 47
0.0
 48
0.0
 49
0.0
140
0.0
141
0.0
142
1.0
143
1.0
 70
0
 72
1
 73
0
 74
0
  7

 75
0
147
1.0
148
0.0
149
0.0
100
AcDbLayout
  1
Layout1
 70
0
 71
1
 10
0.0
 20
0.0
 11
420.0
 21
297.0
 12
0.0
 22
0.0
 32
0.0
 14
0.0
 24
0.0
 34
0.0
 15
0.0
 25
0.0
 35
0.0
146
0.0
 13
0.0
 23
0.0
 33
0.0
 16
1.0
 26
0.0
 36
0.0
 17
0.0
 27
1.0
 37
0.0
 76
0
330
20D
345
0
346
0
  0
ENDSEC
  0
EOF
