999
DXF file: 001-m34884-p6.dxf
999
Pro/ENGINEER 2011490 by Parametric Technology Corporation
  0
SECTION
  2
HEADER
  9
$ACADVER
  1
AC1015
  9
$DWGCODEPAGE
  3
ANSI_1252
  9
$EXTMAX
 10
420.0
 20
297.0
 30
0.0
  9
$EXTMIN
 10
0.0
 20
0.0
 30
0.0
  9
$LIMMIN
 10
0.0
 20
0.0
  9
$LIMMAX
 10
420.0
 20
297.0
  9
$VIEWCTR
 10
210.0
 20
148.5
  9
$VIEWSIZE
 40
297.0
  9
$CLAYER
  8
0
  9
$LTSCALE
 40
23.1
  9
$CELTYPE
  6
BYLAYER
  9
$DIMSCALE
 40
1.0
  9
$DIMASZ
 40
3.5
  9
$DIMEXO
 40
2.625
  9
$DIMDLI
 40
15.96
  9
$DIMEXE
 40
7.56
  9
$DIMCEN
 40
3.78
  9
$DIMLFAC
 40
1.0
  9
$DIMBLK
  1
_FILLED
  9
$DIMTXT
 40
3.5
  9
$DIMTOL
 70
1
  9
$DIMLIM
 70
0
  9
$DIMTFAC
 40
1.0
  9
$DIMTP
 40
0.005
  9
$DIMTM
 40
0.005
  9
$PDMODE
 70
3
  9
$PDSIZE
 40
0.3125
  9
$HANDSEED
  5
44C
  9
$TILEMODE
 70
1
  9
$MEASUREMENT
 70
1
  9
$INSUNITS
 70
4
  0
ENDSEC
  0
SECTION
  2
CLASSES
  0
CLASS
  1
ACDBDICTIONARYWDFLT
  2
AcDbDictionaryWithDefault
  3
AutoCAD 2000
 90
0
280
0
281
0
  0
CLASS
  1
ACDBPLACEHOLDER
  2
AcDbPlaceHolder
  3
AutoCAD 2000
 90
0
280
0
281
0
  0
CLASS
  1
LAYOUT
  2
AcDbLayout
  3
AutoCAD 2000
 90
0
280
0
281
0
  0
ENDSEC
  0
SECTION
  2
TABLES
  0
TABLE
  2
VPORT
  5
8
100
AcDbSymbolTable
 70
2
  0
VPORT
  5
1F4
100
AcDbSymbolTableRecord
100
AcDbViewportTableRecord
  2
*ACTIVE
 70
0
 10
0.0
 20
0.0
 11
1.0
 21
1.0
 12
210.0
 22
148.5
 13
0.0
 23
0.0
 14
1.0
 24
1.0
 15
0.0
 25
0.0
 16
0.0
 26
0.0
 36
1.0
 17
0.0
 27
0.0
 37
0.0
 40
297.0
 41
1.4141414141
 42
50.0
 43
0.0
 44
0.0
 50
0.0
 51
0.0
 71
0
 72
100
 73
1
 74
1
 75
0
 76
0
 77
0
 78
0
  0
ENDTAB
  0
TABLE
  2
LTYPE
  5
5
100
AcDbSymbolTable
 70
6
  0
LTYPE
  5
14
100
AcDbSymbolTableRecord
100
AcDbLinetypeTableRecord
  2
BYBLOCK
 70
0
  3

 72
65
 73
0
 40
0.0
  0
LTYPE
  5
15
100
AcDbSymbolTableRecord
100
AcDbLinetypeTableRecord
  2
BYLAYER
 70
0
  3

 72
65
 73
0
 40
0.0
  0
LTYPE
  5
16
100
AcDbSymbolTableRecord
100
AcDbLinetypeTableRecord
  2
CONTINUOUS
 70
64
  3
Solid line
 72
65
 73
0
 40
0.0
  0
LTYPE
  5
1F5
100
AcDbSymbolTableRecord
100
AcDbLinetypeTableRecord
  2
CENTER
 70
64
  3
____ _ ____ _ ____ _ ____ _ ____ _ ____ _ ____
 72
65
 73
4
 40
0.6
 49
0.375
 74
0
 49
-0.075
 74
0
 49
0.075
 74
0
 49
-0.075
 74
0
  0
LTYPE
  5
1F6
100
AcDbSymbolTableRecord
100
AcDbLinetypeTableRecord
  2
HIDDEN
 70
64
  3
- - - - - - - - - - - - - - - - - - - -
 72
65
 73
2
 40
0.2
 49
0.1
 74
0
 49
-0.1
 74
0
  0
LTYPE
  5
1F7
100
AcDbSymbolTableRecord
100
AcDbLinetypeTableRecord
  2
PHANTOM
 70
64
  3
_____ _ _ _____ _ _ _____ _ _ _____
 72
65
 73
6
 40
0.8
 49
0.45
 74
0
 49
-0.05
 74
0
 49
0.1
 74
0
 49
-0.05
 74
0
 49
0.1
 74
0
 49
-0.05
 74
0
  0
LTYPE
  5
1F8
100
AcDbSymbolTableRecord
100
AcDbLinetypeTableRecord
  2
DOT
 70
64
  3
. . . . . . . . . . . . . . . . . . . .
 72
65
 73
2
 40
0.2
 49
0.1
 74
0
 49
-0.1
 74
0
  0
LTYPE
  5
1F9
100
AcDbSymbolTableRecord
100
AcDbLinetypeTableRecord
  2
DASHED
 70
64
  3
- - - - - - - - - - - - - - - - - - - -
 72
65
 73
2
 40
0.2
 49
0.1
 74
0
 49
-0.1
 74
0
  0
ENDTAB
  0
TABLE
  2
LAYER
  5
2
100
AcDbSymbolTable
 70
36
  0
LAYER
  5
10
100
AcDbSymbolTableRecord
100
AcDbLayerTableRecord
  2
0
 70
0
 62
7
  6
CONTINUOUS
370
-3
390
F
  0
LAYER
  5
1FA
100
AcDbSymbolTableRecord
100
AcDbLayerTableRecord
  2
DEFAULT_1
 70
0
 62
7
  6
CENTER
370
-3
390
F
  0
LAYER
  5
1FB
100
AcDbSymbolTableRecord
100
AcDbLayerTableRecord
  2
DEFAULT_2
 70
0
 62
8
  6
HIDDEN
370
-3
390
F
  0
LAYER
  5
1FC
100
AcDbSymbolTableRecord
100
AcDbLayerTableRecord
  2
DEFAULT_3
 70
0
 62
7
  6
PHANTOM
370
-3
390
F
  0
LAYER
  5
1FD
100
AcDbSymbolTableRecord
100
AcDbLayerTableRecord
  2
AUSFORMSCHRAEGEN
 70
0
 62
7
  6
CONTINUOUS
370
-3
390
F
  0
LAYER
  5
1FE
100
AcDbSymbolTableRecord
100
AcDbLayerTableRecord
  2
BEZUGSACHSEN
 70
0
 62
7
  6
CONTINUOUS
370
-3
390
F
  0
LAYER
  5
1FF
100
AcDbSymbolTableRecord
100
AcDbLayerTableRecord
  2
BEZUGSEBENEN
 70
0
 62
7
  6
CONTINUOUS
370
-3
390
F
  0
LAYER
  5
200
100
AcDbSymbolTableRecord
100
AcDbLayerTableRecord
  2
BG_STARTBEZUEGE
 70
0
 62
7
  6
CONTINUOUS
370
-3
390
F
  0
LAYER
  5
201
100
AcDbSymbolTableRecord
100
AcDbLayerTableRecord
  2
FASEN
 70
0
 62
7
  6
CONTINUOUS
370
-3
390
F
  0
LAYER
  5
202
100
AcDbSymbolTableRecord
100
AcDbLayerTableRecord
  2
HILFEN
 70
0
 62
7
  6
CONTINUOUS
370
-3
390
F
  0
LAYER
  5
203
100
AcDbSymbolTableRecord
100
AcDbLayerTableRecord
  2
KONSTRUKTIONSELEMENTE
 70
0
 62
7
  6
CONTINUOUS
370
-3
390
F
  0
LAYER
  5
204
100
AcDbSymbolTableRecord
100
AcDbLayerTableRecord
  2
KURVEN
 70
0
 62
7
  6
CONTINUOUS
370
-3
390
F
  0
LAYER
  5
205
100
AcDbSymbolTableRecord
100
AcDbLayerTableRecord
  2
NORM
 70
0
 62
7
  6
CONTINUOUS
370
-3
390
F
  0
LAYER
  5
206
100
AcDbSymbolTableRecord
100
AcDbLayerTableRecord
  2
PLATZIERUNG
 70
0
 62
7
  6
CONTINUOUS
370
-3
390
F
  0
LAYER
  5
207
100
AcDbSymbolTableRecord
100
AcDbLayerTableRecord
  2
RUNDUNGEN
 70
0
 62
7
  6
CONTINUOUS
370
-3
390
F
  0
LAYER
  5
208
100
AcDbSymbolTableRecord
100
AcDbLayerTableRecord
  2
TEIL_STARTBEZUEGE
 70
0
 62
7
  6
CONTINUOUS
370
-3
390
F
  0
LAYER
  5
209
100
AcDbSymbolTableRecord
100
AcDbLayerTableRecord
  2
T_STARTBEZUEGE
 70
0
 62
7
  6
CONTINUOUS
370
-3
390
F
  0
ENDTAB
  0
TABLE
  2
STYLE
  5
3
100
AcDbSymbolTable
 70
1
  0
STYLE
  5
11
100
AcDbSymbolTableRecord
100
AcDbTextStyleTableRecord
  2
STANDARD
 70
0
 40
0.0
 41
0.7
 50
0.0
 71
0
 42
0.2
  3
txt
  4

  0
STYLE
  5
20A
100
AcDbSymbolTableRecord
100
AcDbTextStyleTableRecord
  2
TEXTSTYLE_1
 70
0
 40
0.0
 41
0.8
 50
0.0
 71
0
 42
0.2
  3
gdt
  4

  0
ENDTAB
  0
TABLE
  2
VIEW
  5
6
100
AcDbSymbolTable
 70
0
  0
ENDTAB
  0
TABLE
  2
UCS
  5
7
100
AcDbSymbolTable
 70
0
  0
ENDTAB
  0
TABLE
  2
APPID
  5
9
100
AcDbSymbolTable
 70
1
  0
APPID
  5
20B
100
AcDbSymbolTableRecord
100
AcDbRegAppTableRecord
  2
ACAD
 70
0
  0
ENDTAB
  0
TABLE
  2
BLOCK_RECORD
  5
1
100
AcDbSymbolTable
 70
0
  0
BLOCK_RECORD
  5
20C
100
AcDbSymbolTableRecord
100
AcDbBlockTableRecord
  2
*Model_Space
  0
BLOCK_RECORD
  5
20D
100
AcDbSymbolTableRecord
100
AcDbBlockTableRecord
  2
*Paper_Space
  0
ENDTAB
  0
TABLE
  2
DIMSTYLE
  5
A
100
AcDbSymbolTable
 70
1
100
AcDbDimStyleTable
 71
0
  0
DIMSTYLE
105
20E
100
AcDbSymbolTableRecord
100
AcDbDimStyleTableRecord
  2
STANDARD
 70
0
  3

  4

 40
1.0
 41
3.5
 42
0.0625
 43
0.38
 44
0.18
 45
0.0
 46
0.0
 47
0.005
 48
0.005
140
3.5
141
0.09
142
0.0
143
25.4
144
1.0
145
0.0
146
1.0
147
0.09
 71
1.0
 72
0.0
 73
0
 74
0
 75
0
 76
0
 77
1
 78
8
170
0
171
2
172
0
173
0
174
0
175
0
176
0
177
0
178
5
270
2
271
3
272
3
273
2
274
2
275
0
280
0
281
0
282
0
283
1
284
8
285
0
286
0
287
3
288
0
340
11
  0
ENDTAB
  0
ENDSEC
  0
SECTION
  2
BLOCKS
  0
BLOCK
  5
20
100
AcDbEntity
  8
0
100
AcDbBlockBegin
  2
*Model_Space
 70
0
 10
0.0
 20
0.0
 30
0.0
  3
*Model_Space
  1

  0
ENDBLK
  5
21
100
AcDbEntity
  8
0
100
AcDbBlockEnd
  0
BLOCK
  5
1C
100
AcDbEntity
  8
0
100
AcDbBlockBegin
  2
*Paper_Space
 70
0
 10
0.0
 20
0.0
 30
0.0
  3
*Paper_Space
  1

  0
ENDBLK
  5
1D
100
AcDbEntity
  8
0
100
AcDbBlockEnd
  0
ENDSEC
  0
SECTION
  2
ENTITIES
  0
MTEXT
  5
20F
100
AcDbEntity
  8
0
100
AcDbMText
 62
5
  6
CONTINUOUS
  7
STANDARD
 71
1
 72
1
 10
258.2269526248
 20
199.1575704225
 30
0.0
 11
0.0
 21
1.0
 31
0.0
 44
0.9
  1
LPW-U 5000daN\PRUD
 40
3.5
 41
36.9166666667
  0
MTEXT
  5
210
100
AcDbEntity
  8
0
100
AcDbMText
 62
5
  6
CONTINUOUS
  7
STANDARD
 71
1
 72
1
 10
121.5196862996
 20
110.093549936
 30
0.0
 11
1.0
 21
0.0
 31
0.0
 44
0.9
  1
LPW-U 5000daN\PRUD
 40
3.5
 41
36.9166666667
  0
MTEXT
  5
211
100
AcDbEntity
  8
0
100
AcDbMText
 62
5
  6
CONTINUOUS
  7
STANDARD
 71
1
 72
1
 10
116.750450086
 20
255.6435533212
 30
0.0
 11
1.0
 21
0.0
 31
0.0
 44
0.9
  1
LPW-U 5000daN\PRUD
 40
3.5
 41
36.9166666667
  0
LINE
  5
212
100
AcDbEntity
  8
0
100
AcDbLine
 62
7
  6
CONTINUOUS
 10
0.0
 20
0.0
 11
0.0
 21
297.0
  0
LINE
  5
213
100
AcDbEntity
  8
0
100
AcDbLine
 62
7
  6
CONTINUOUS
 10
0.0
 20
0.0
 11
420.0
 21
0.0
  0
LINE
  5
214
100
AcDbEntity
  8
0
100
AcDbLine
 62
7
  6
CONTINUOUS
 10
0.0
 20
297.0
 11
420.0
 21
297.0
  0
LINE
  5
215
100
AcDbEntity
  8
0
100
AcDbLine
 62
7
  6
CONTINUOUS
 10
420.0
 20
0.0
 11
420.0
 21
297.0
  0
LINE
  5
216
100
AcDbEntity
  8
RUNDUNGEN
100
AcDbLine
 62
7
  6
CONTINUOUS
 10
113.8382868232
 20
173.6118857935
 11
153.7384161217
 21
173.6118857935
  0
LINE
  5
217
100
AcDbEntity
  8
BEZUGSACHSEN
100
AcDbLine
 62
7
  6
CONTINUOUS
 10
100.2883519725
 20
174.6118857935
 11
113.7933796163
 21
174.6118857935
  0
LINE
  5
218
100
AcDbEntity
  8
BEZUGSACHSEN
100
AcDbLine
 62
7
  6
CONTINUOUS
 10
153.7833233286
 20
174.6118857935
 11
167.2883509725
 21
174.6118857935
  0
LINE
  5
219
100
AcDbEntity
  8
RUNDUNGEN
100
AcDbLine
 62
7
  6
CONTINUOUS
 10
131.0692850398
 20
262.8210293523
 11
108.8698539671
 21
253.6257239251
  0
LINE
  5
21A
100
AcDbEntity
  8
0
100
AcDbLine
 62
7
  6
CONTINUOUS
 10
153.7883514725
 20
176.6118857935
 11
113.7883514725
 21
176.6118857935
  0
LINE
  5
21B
100
AcDbEntity
  8
RUNDUNGEN
100
AcDbLine
 62
7
  6
CONTINUOUS
 10
95.2883519725
 20
224.8618857935
 11
95.2883519725
 21
182.6118857935
  0
LINE
  5
21C
100
AcDbEntity
  8
BEZUGSACHSEN
100
AcDbLine
 62
7
  6
CONTINUOUS
 10
95.2883519725
 20
179.6118857935
 11
95.2883519725
 21
182.6118857935
  0
LINE
  5
21D
100
AcDbEntity
  8
RUNDUNGEN
100
AcDbLine
 62
7
  6
CONTINUOUS
 10
105.0245133409
 20
249.780383299
 11
95.8292079137
 21
227.5809522262
  0
LINE
  5
21E
100
AcDbEntity
  8
0
100
AcDbLine
 62
7
  6
CONTINUOUS
 10
115.2883514725
 20
183.8168992541
 11
152.2883514725
 21
183.8168992541
  0
LINE
  5
21F
100
AcDbEntity
  8
0
100
AcDbLine
 62
7
  6
CONTINUOUS
 10
165.3222987975
 20
191.4360966535
 11
166.7433513975
 21
191.4360966535
  0
LINE
  5
220
100
AcDbEntity
  8
0
100
AcDbLine
 62
7
  6
CONTINUOUS
 10
166.7033513975
 20
192.5060966535
 11
165.3696672175
 21
192.5060966535
  0
LINE
  5
221
100
AcDbEntity
  8
0
100
AcDbLine
 62
7
  6
CONTINUOUS
 10
164.2565093475
 20
194.7282018435
 11
167.2762461225
 21
194.7282018435
  0
LINE
  5
222
100
AcDbEntity
  8
RUNDUNGEN
100
AcDbLine
 62
7
  6
CONTINUOUS
 10
111.2883519725
 20
196.6118858145
 11
111.2883519725
 21
201.8918347378
  0
LINE
  5
223
100
AcDbEntity
  8
BEZUGSACHSEN
100
AcDbLine
 62
7
  6
CONTINUOUS
 10
111.2883519725
 20
218.2244498754
 11
111.2883519725
 21
224.8618755921
  0
LINE
  5
224
100
AcDbEntity
  8
RUNDUNGEN
100
AcDbLine
 62
7
  6
CONTINUOUS
 10
111.2883517381
 20
218.2238625917
 11
111.2883519725
 21
224.8618755921
  0
LINE
  5
225
100
AcDbEntity
  8
RUNDUNGEN
100
AcDbLine
 62
7
  6
CONTINUOUS
 10
113.7883514725
 20
176.6118857935
 11
113.7883514725
 21
175.0382703683
  0
LINE
  5
226
100
AcDbEntity
  8
0
100
AcDbLine
 62
7
  6
CONTINUOUS
 10
113.7883514725
 20
176.6118857935
 11
113.7883514725
 21
200.1131480245
  0
LINE
  5
227
100
AcDbEntity
  8
0
100
AcDbLine
 62
7
  6
CONTINUOUS
 10
168.6972987225
 20
195.7939912935
 11
167.8091408475
 21
195.7939912935
  0
LINE
  5
228
100
AcDbEntity
  8
0
100
AcDbLine
 62
7
  6
CONTINUOUS
 10
167.2762461225
 20
195.7939912935
 11
163.3683514725
 21
195.7939912935
  0
LINE
  5
229
100
AcDbEntity
  8
0
100
AcDbLine
 62
7
  6
CONTINUOUS
 10
118.7883514725
 20
195.9816277507
 11
130.7883514725
 21
195.9816277507
  0
LINE
  5
22A
100
AcDbEntity
  8
0
100
AcDbLine
 62
7
  6
CONTINUOUS
 10
136.7883514725
 20
195.9816277507
 11
148.7883514725
 21
195.9816277507
  0
LINE
  5
22B
100
AcDbEntity
  8
0
100
AcDbLine
 62
7
  6
CONTINUOUS
 10
120.2083514725
 20
196.8093258777
 11
124.2083514725
 21
196.8093258777
  0
LINE
  5
22C
100
AcDbEntity
  8
0
100
AcDbLine
 62
7
  6
CONTINUOUS
 10
165.4999303725
 20
196.8597807435
 11
168.6972987225
 21
196.8597807435
  0
LINE
  5
22D
100
AcDbEntity
  8
0
100
AcDbLine
 62
7
  6
CONTINUOUS
 10
120.8040961419
 20
197.2387094739
 11
124.2083514725
 21
197.2387094739
  0
LINE
  5
22E
100
AcDbEntity
  8
0
100
AcDbLine
 62
7
  6
CONTINUOUS
 10
120.2083514725
 20
197.7145547553
 11
120.7967579001
 21
197.7145547553
  0
LINE
  5
22F
100
AcDbEntity
  8
0
100
AcDbLine
 62
7
  6
CONTINUOUS
 10
168.6972987225
 20
197.9255701935
 11
165.4999303725
 21
197.9255701935
  0
LINE
  5
230
100
AcDbEntity
  8
0
100
AcDbLine
 62
7
  6
CONTINUOUS
 10
120.2083514725
 20
198.8934892087
 11
123.6977132355
 21
198.8934892087
  0
LINE
  5
231
100
AcDbEntity
  8
0
100
AcDbLine
 62
7
  6
CONTINUOUS
 10
120.2083514725
 20
199.1839690584
 11
124.2083514725
 21
199.1839690584
  0
LINE
  5
232
100
AcDbEntity
  8
0
100
AcDbLine
 62
7
  6
CONTINUOUS
 10
120.7484934306
 20
201.6118857908
 11
120.7189897691
 21
201.611836379
  0
LINE
  5
233
100
AcDbEntity
  8
0
100
AcDbLine
 62
7
  6
CONTINUOUS
 10
120.8892025147
 20
199.6244811276
 11
122.2509046589
 21
199.6244811276
  0
LINE
  5
234
100
AcDbEntity
  8
0
100
AcDbLine
 62
7
  6
CONTINUOUS
 10
122.9317556416
 20
199.8159729676
 11
124.2083514725
 21
199.8159729676
  0
LINE
  5
235
100
AcDbEntity
  8
0
100
AcDbLine
 62
7
  6
CONTINUOUS
 10
121.1445216928
 20
199.8253914987
 11
121.6551599298
 21
199.8253914987
  0
LINE
  5
236
100
AcDbEntity
  8
0
100
AcDbLine
 62
7
  6
CONTINUOUS
 10
121.9955855404
 20
199.8253914987
 11
122.2509046589
 21
199.8253914987
  0
LINE
  5
237
100
AcDbEntity
  8
0
100
AcDbLine
 62
7
  6
CONTINUOUS
 10
165.4999303725
 20
200.0571490935
 11
168.6972987225
 21
200.0571490935
  0
LINE
  5
238
100
AcDbEntity
  8
0
100
AcDbLine
 62
7
  6
CONTINUOUS
 10
120.8892025147
 20
200.5098781483
 11
121.05941532
 21
200.5098781483
  0
LINE
  5
239
100
AcDbEntity
  8
0
100
AcDbLine
 62
7
  6
CONTINUOUS
 10
127.090053557
 20
200.5928930647
 11
128.3666492687
 21
200.5928930647
  0
LINE
  5
23A
100
AcDbEntity
  8
0
100
AcDbLine
 62
7
  6
CONTINUOUS
 10
118.7883514725
 20
200.6118857935
 11
120.2083514725
 21
200.6118857935
  0
LINE
  5
23B
100
AcDbEntity
  8
0
100
AcDbLine
 62
7
  6
CONTINUOUS
 10
124.2083514725
 20
200.6118857935
 11
125.7283514725
 21
200.6118857935
  0
LINE
  5
23C
100
AcDbEntity
  8
0
100
AcDbLine
 62
7
  6
CONTINUOUS
 10
129.7283514725
 20
200.6118857935
 11
130.7883514725
 21
200.6118857935
  0
LINE
  5
23D
100
AcDbEntity
  8
0
100
AcDbLine
 62
7
  6
CONTINUOUS
 10
136.7883514725
 20
200.6118857935
 11
148.7883514725
 21
200.6118857935
  0
LINE
  5
23E
100
AcDbEntity
  8
0
100
AcDbLine
 62
7
  6
CONTINUOUS
 10
120.9743089472
 20
200.6529057204
 11
121.2296280657
 21
200.6529057204
  0
LINE
  5
23F
100
AcDbEntity
  8
0
100
AcDbLine
 62
7
  6
CONTINUOUS
 10
122.2509046589
 20
200.6529057204
 11
122.4211174046
 21
200.6529057204
  0
LINE
  5
240
100
AcDbEntity
  8
0
100
AcDbLine
 62
7
  6
CONTINUOUS
 10
120.2083514725
 20
200.8596422444
 11
124.2083514725
 21
200.8596422444
  0
LINE
  5
241
100
AcDbEntity
  8
0
100
AcDbLine
 62
7
  6
CONTINUOUS
 10
120.2083514725
 20
200.9753856893
 11
120.7189897691
 21
200.9753856893
  0
LINE
  5
242
100
AcDbEntity
  8
0
100
AcDbLine
 62
7
  6
CONTINUOUS
 10
121.1445216928
 20
200.9753856893
 11
121.9955855404
 21
200.9753856893
  0
LINE
  5
243
100
AcDbEntity
  8
0
100
AcDbLine
 62
7
  6
CONTINUOUS
 10
122.4211174046
 20
200.9753856893
 11
124.2083514725
 21
200.9753856893
  0
LINE
  5
244
100
AcDbEntity
  8
0
100
AcDbLine
 62
7
  6
CONTINUOUS
 10
168.6972987225
 20
201.1229385435
 11
165.4999303725
 21
201.1229385435
  0
LINE
  5
245
100
AcDbEntity
  8
0
100
AcDbLine
 62
7
  6
CONTINUOUS
 10
121.3147344385
 20
201.3665685197
 11
121.8253727947
 21
201.3665685197
  0
LINE
  5
246
100
AcDbEntity
  8
0
100
AcDbLine
 62
7
  6
CONTINUOUS
 10
121.2296280657
 20
201.4294472868
 11
121.9104791676
 21
201.4294472868
  0
LINE
  5
247
100
AcDbEntity
  8
0
100
AcDbLine
 62
7
  6
CONTINUOUS
 10
121.8253727947
 20
201.5105206649
 11
122.5913301502
 21
201.5105206649
  0
LINE
  5
248
100
AcDbEntity
  8
0
100
AcDbLine
 62
7
  6
CONTINUOUS
 10
121.9104791676
 20
201.5491010905
 11
122.5062237774
 21
201.5491010905
  0
LINE
  5
249
100
AcDbEntity
  8
0
100
AcDbLine
 62
7
  6
CONTINUOUS
 10
144.850053557
 20
201.5882874972
 11
146.1266492687
 21
201.5882874972
  0
LINE
  5
24A
100
AcDbEntity
  8
0
100
AcDbLine
 62
7
  6
CONTINUOUS
 10
127.090053557
 20
201.5938936559
 11
128.3666492687
 21
201.5938936559
  0
LINE
  5
24B
100
AcDbEntity
  8
0
100
AcDbLine
 62
7
  6
CONTINUOUS
 10
121.9104791676
 20
201.6016581974
 11
122.5062237774
 21
201.6016581974
  0
LINE
  5
24C
100
AcDbEntity
  8
0
100
AcDbLine
 62
7
  6
CONTINUOUS
 10
125.7283514725
 20
201.6088434447
 11
126.2389897691
 21
201.6088434447
  0
LINE
  5
24D
100
AcDbEntity
  8
0
100
AcDbLine
 62
7
  6
CONTINUOUS
 10
127.090053557
 20
201.6090773975
 11
128.3666492687
 21
201.6090773975
  0
LINE
  5
24E
100
AcDbEntity
  8
KONSTRUKTIONSELEMENTE
100
AcDbLine
 62
7
  6
CONTINUOUS
 10
115.2883514725
 20
201.6118857935
 11
118.7883514725
 21
201.6118857935
  0
LINE
  5
24F
100
AcDbEntity
  8
0
100
AcDbLine
 62
7
  6
CONTINUOUS
 10
120.2866494546
 20
201.6118857935
 11
120.6338833962
 21
201.6118857935
  0
LINE
  5
250
100
AcDbEntity
  8
0
100
AcDbLine
 62
7
  6
CONTINUOUS
 10
123.668209952
 20
201.6118857935
 11
123.6977132355
 21
201.6118857935
  0
LINE
  5
251
100
AcDbEntity
  8
0
100
AcDbLine
 62
7
  6
CONTINUOUS
 10
123.7828196083
 20
201.6118857935
 11
124.1300534972
 21
201.6118857935
  0
LINE
  5
252
100
AcDbEntity
  8
KONSTRUKTIONSELEMENTE
100
AcDbLine
 62
7
  6
CONTINUOUS
 10
130.7883514725
 20
201.6118857935
 11
136.7883514725
 21
201.6118857935
  0
LINE
  5
253
100
AcDbEntity
  8
KONSTRUKTIONSELEMENTE
100
AcDbLine
 62
7
  6
CONTINUOUS
 10
148.7883514725
 20
201.6118857935
 11
152.2883514725
 21
201.6118857935
  0
LINE
  5
254
100
AcDbEntity
  8
0
100
AcDbLine
 62
7
  6
CONTINUOUS
 10
118.7883514725
 20
201.6114626844
 11
118.7883514725
 21
195.9816277507
  0
LINE
  5
255
100
AcDbEntity
  8
0
100
AcDbLine
 62
7
  6
CONTINUOUS
 10
120.2083514725
 20
195.9816277507
 11
120.2083514725
 21
197.4424219939
  0
LINE
  5
256
100
AcDbEntity
  8
0
100
AcDbLine
 62
7
  6
CONTINUOUS
 10
120.2083514725
 20
197.7145547553
 11
120.2083514725
 21
201.6063165563
  0
LINE
  5
257
100
AcDbEntity
  8
0
100
AcDbLine
 62
7
  6
CONTINUOUS
 10
120.2934578528
 20
199.7664284834
 11
120.2934578528
 21
199.977250748
  0
LINE
  5
258
100
AcDbEntity
  8
0
100
AcDbLine
 62
7
  6
CONTINUOUS
 10
120.2934578528
 20
200.9753856893
 11
120.2934578528
 21
201.0810059675
  0
LINE
  5
259
100
AcDbEntity
  8
0
100
AcDbLine
 62
7
  6
CONTINUOUS
 10
120.2934578528
 20
201.3242869663
 11
120.2934578528
 21
201.5876176635
  0
LINE
  5
25A
100
AcDbEntity
  8
0
100
AcDbLine
 62
7
  6
CONTINUOUS
 10
120.378564233
 20
200.9753856893
 11
120.378564233
 21
201.0399611526
  0
LINE
  5
25B
100
AcDbEntity
  8
0
100
AcDbLine
 62
7
  6
CONTINUOUS
 10
120.4636706208
 20
199.1839690584
 11
120.4636706208
 21
199.5827857311
  0
LINE
  5
25C
100
AcDbEntity
  8
0
100
AcDbLine
 62
7
  6
CONTINUOUS
 10
120.4636706208
 20
199.7993197055
 11
120.4636706208
 21
199.8640856533
  0
LINE
  5
25D
100
AcDbEntity
  8
0
100
AcDbLine
 62
7
  6
CONTINUOUS
 10
120.5487769936
 20
200.3559161583
 11
120.5487769936
 21
200.1563230776
  0
LINE
  5
25E
100
AcDbEntity
  8
0
100
AcDbLine
 62
7
  6
CONTINUOUS
 10
120.5487769936
 20
200.9753856893
 11
120.5487769936
 21
200.9973134323
  0
LINE
  5
25F
100
AcDbEntity
  8
0
100
AcDbLine
 62
7
  6
CONTINUOUS
 10
120.5487769936
 20
201.3798774942
 11
120.5487769936
 21
201.5619461632
  0
LINE
  5
260
100
AcDbEntity
  8
0
100
AcDbLine
 62
7
  6
CONTINUOUS
 10
120.6338833962
 20
201.2293674877
 11
120.6338833962
 21
201.1583309373
  0
LINE
  5
261
100
AcDbEntity
  8
0
100
AcDbLine
 62
7
  6
CONTINUOUS
 10
120.7189897691
 20
199.977250748
 11
120.7189897691
 21
200.4799690707
  0
LINE
  5
262
100
AcDbEntity
  8
0
100
AcDbLine
 62
7
  6
CONTINUOUS
 10
120.7189897691
 20
201.0810059675
 11
120.7189897691
 21
201.2941875789
  0
LINE
  5
263
100
AcDbEntity
  8
0
100
AcDbLine
 62
7
  6
CONTINUOUS
 10
120.7189897691
 20
201.5916501492
 11
120.7189897691
 21
201.611836379
  0
LINE
  5
264
100
AcDbEntity
  8
0
100
AcDbLine
 62
7
  6
CONTINUOUS
 10
120.8040961419
 20
201.4176269382
 11
120.8040961419
 21
201.54212495
  0
LINE
  5
265
100
AcDbEntity
  8
0
100
AcDbLine
 62
7
  6
CONTINUOUS
 10
120.8892025147
 20
199.1839690584
 11
120.8892025147
 21
199.6244811276
  0
LINE
  5
266
100
AcDbEntity
  8
0
100
AcDbLine
 62
7
  6
CONTINUOUS
 10
120.8892025147
 20
199.9022610238
 11
120.8892025147
 21
200.5098781483
  0
LINE
  5
267
100
AcDbEntity
  8
0
100
AcDbLine
 62
7
  6
CONTINUOUS
 10
120.8892025147
 20
201.0188382844
 11
120.8892025147
 21
201.3387622015
  0
LINE
  5
268
100
AcDbEntity
  8
0
100
AcDbLine
 62
7
  6
CONTINUOUS
 10
120.8892025147
 20
201.5784516795
 11
120.8892025147
 21
201.6107617802
  0
LINE
  5
269
100
AcDbEntity
  8
0
100
AcDbLine
 62
7
  6
CONTINUOUS
 10
121.05941532
 20
199.8447997853
 11
121.05941532
 21
200.5098781483
  0
LINE
  5
26A
100
AcDbEntity
  8
0
100
AcDbLine
 62
7
  6
CONTINUOUS
 10
121.1445216928
 20
201.4294472868
 11
121.1445216928
 21
201.5270637387
  0
LINE
  5
26B
100
AcDbEntity
  8
0
100
AcDbLine
 62
7
  6
CONTINUOUS
 10
121.3147344385
 20
199.8253914987
 11
121.3147344385
 21
200.4799690707
  0
LINE
  5
26C
100
AcDbEntity
  8
0
100
AcDbLine
 62
7
  6
CONTINUOUS
 10
121.3147344385
 20
200.9753856893
 11
121.3147344385
 21
201.3665685197
  0
LINE
  5
26D
100
AcDbEntity
  8
0
100
AcDbLine
 62
7
  6
CONTINUOUS
 10
121.3998408113
 20
201.5557080055
 11
121.3998408113
 21
201.6042105591
  0
LINE
  5
26E
100
AcDbEntity
  8
0
100
AcDbLine
 62
7
  6
CONTINUOUS
 10
121.3998408113
 20
201.4294472868
 11
121.3998408113
 21
201.5189776119
  0
LINE
  5
26F
100
AcDbEntity
  8
0
100
AcDbLine
 62
7
  6
CONTINUOUS
 10
121.4849471842
 20
199.8253914987
 11
121.4849471842
 21
200.4188309924
  0
LINE
  5
270
100
AcDbEntity
  8
0
100
AcDbLine
 62
7
  6
CONTINUOUS
 10
121.570053557
 20
199.8253914987
 11
121.570053557
 21
200.3559161583
  0
LINE
  5
271
100
AcDbEntity
  8
0
100
AcDbLine
 62
7
  6
CONTINUOUS
 10
121.6551599298
 20
200.224683166
 11
121.6551599298
 21
199.8253914987
  0
LINE
  5
272
100
AcDbEntity
  8
0
100
AcDbLine
 62
7
  6
CONTINUOUS
 10
121.8253727947
 20
200.9753856893
 11
121.8253727947
 21
201.3665685197
  0
LINE
  5
273
100
AcDbEntity
  8
0
100
AcDbLine
 62
7
  6
CONTINUOUS
 10
121.8253727947
 20
201.4294472868
 11
121.8253727947
 21
201.5105206649
  0
LINE
  5
274
100
AcDbEntity
  8
0
100
AcDbLine
 62
7
  6
CONTINUOUS
 10
121.9104791676
 20
201.5491010905
 11
121.9104791676
 21
201.6016581974
  0
LINE
  5
275
100
AcDbEntity
  8
0
100
AcDbLine
 62
7
  6
CONTINUOUS
 10
121.9955855404
 20
200.224683166
 11
121.9955855404
 21
199.8253914987
  0
LINE
  5
276
100
AcDbEntity
  8
0
100
AcDbLine
 62
7
  6
CONTINUOUS
 10
122.0806919132
 20
200.9900380327
 11
122.0806919132
 21
201.3528557142
  0
LINE
  5
277
100
AcDbEntity
  8
0
100
AcDbLine
 62
7
  6
CONTINUOUS
 10
122.2509046589
 20
199.1839690584
 11
122.2509046589
 21
199.6244811276
  0
LINE
  5
278
100
AcDbEntity
  8
0
100
AcDbLine
 62
7
  6
CONTINUOUS
 10
122.2509046589
 20
199.8253914987
 11
122.2509046589
 21
200.6529057204
  0
LINE
  5
279
100
AcDbEntity
  8
0
100
AcDbLine
 62
7
  6
CONTINUOUS
 10
122.3360110317
 20
201.0503717788
 11
122.3360110317
 21
201.3242869663
  0
LINE
  5
27A
100
AcDbEntity
  8
0
100
AcDbLine
 62
7
  6
CONTINUOUS
 10
122.4211174046
 20
199.8640856533
 11
122.4211174046
 21
200.4799690707
  0
LINE
  5
27B
100
AcDbEntity
  8
BEZUGSACHSEN
100
AcDbLine
 62
7
  6
CONTINUOUS
 10
154.2883509725
 20
203.3618857935
 11
148.0883514725
 21
203.3618857935
  0
LINE
  5
27C
100
AcDbEntity
  8
RUNDUNGEN
100
AcDbLine
 62
7
  6
CONTINUOUS
 10
113.2883519725
 20
203.3618857935
 11
119.4883514725
 21
203.3618857935
  0
LINE
  5
27D
100
AcDbEntity
  8
0
100
AcDbLine
 62
7
  6
CONTINUOUS
 10
163.3683514725
 20
205.5637279185
 11
165.5946672125
 21
205.5637279185
  0
LINE
  5
27E
100
AcDbEntity
  8
0
100
AcDbLine
 62
7
  6
CONTINUOUS
 10
166.4828250875
 20
205.5637279185
 11
167.2762461225
 21
205.5637279185
  0
LINE
  5
27F
100
AcDbEntity
  8
0
100
AcDbLine
 62
7
  6
CONTINUOUS
 10
168.6972987225
 20
206.4518857935
 11
167.8091408475
 21
206.4518857935
  0
LINE
  5
280
100
AcDbEntity
  8
0
100
AcDbLine
 62
7
  6
CONTINUOUS
 10
167.2762461225
 20
206.4518857935
 11
163.3683514725
 21
206.4518857935
  0
LINE
  5
281
100
AcDbEntity
  8
0
100
AcDbLine
 62
7
  6
CONTINUOUS
 10
122.5062237774
 20
201.2625503014
 11
122.5062237774
 21
201.1583309373
  0
LINE
  5
282
100
AcDbEntity
  8
0
100
AcDbLine
 62
7
  6
CONTINUOUS
 10
122.5062237774
 20
199.1839690584
 11
122.5062237774
 21
199.6656673744
  0
LINE
  5
283
100
AcDbEntity
  8
0
100
AcDbLine
 62
7
  6
CONTINUOUS
 10
122.5062237774
 20
199.9400116485
 11
122.5062237774
 21
200.4188309924
  0
LINE
  5
284
100
AcDbEntity
  8
0
100
AcDbLine
 62
7
  6
CONTINUOUS
 10
122.5062237774
 20
201.5491010905
 11
122.5062237774
 21
201.6016581974
  0
LINE
  5
285
100
AcDbEntity
  8
0
100
AcDbLine
 62
7
  6
CONTINUOUS
 10
122.5913301502
 20
200.2912070475
 11
122.5913301502
 21
200.0861068062
  0
LINE
  5
286
100
AcDbEntity
  8
0
100
AcDbLine
 62
7
  6
CONTINUOUS
 10
122.5913301502
 20
200.9753856893
 11
122.5913301502
 21
200.9973134323
  0
LINE
  5
287
100
AcDbEntity
  8
0
100
AcDbLine
 62
7
  6
CONTINUOUS
 10
122.5913301502
 20
201.3798774957
 11
122.5913301502
 21
201.5105206649
  0
LINE
  5
288
100
AcDbEntity
  8
0
100
AcDbLine
 62
7
  6
CONTINUOUS
 10
122.6764365231
 20
199.1839690584
 11
122.6764365231
 21
199.7465261458
  0
LINE
  5
289
100
AcDbEntity
  8
0
100
AcDbLine
 62
7
  6
CONTINUOUS
 10
122.7615428959
 20
200.9753856893
 11
122.7615428959
 21
201.0399611526
  0
LINE
  5
28A
100
AcDbEntity
  8
0
100
AcDbLine
 62
7
  6
CONTINUOUS
 10
122.8466492687
 20
199.1839690584
 11
122.8466492687
 21
199.8640856533
  0
LINE
  5
28B
100
AcDbEntity
  8
0
100
AcDbLine
 62
7
  6
CONTINUOUS
 10
122.8466492687
 20
200.9753856893
 11
122.8466492687
 21
201.0810059675
  0
LINE
  5
28C
100
AcDbEntity
  8
0
100
AcDbLine
 62
7
  6
CONTINUOUS
 10
122.9317556416
 20
199.1839690584
 11
122.9317556416
 21
200.2912070475
  0
LINE
  5
28D
100
AcDbEntity
  8
0
100
AcDbLine
 62
7
  6
CONTINUOUS
 10
122.9317556416
 20
200.9753856893
 11
122.9317556416
 21
201.2625503014
  0
LINE
  5
28E
100
AcDbEntity
  8
0
100
AcDbLine
 62
7
  6
CONTINUOUS
 10
123.0168620144
 20
201.5557080055
 11
123.0168620144
 21
201.6042105591
  0
LINE
  5
28F
100
AcDbEntity
  8
0
100
AcDbLine
 62
7
  6
CONTINUOUS
 10
123.0168620144
 20
200.9753856893
 11
123.0168620144
 21
201.5189776119
  0
LINE
  5
290
100
AcDbEntity
  8
0
100
AcDbLine
 62
7
  6
CONTINUOUS
 10
123.2721813713
 20
200.9753856893
 11
123.2721813713
 21
201.5270637387
  0
LINE
  5
291
100
AcDbEntity
  8
0
100
AcDbLine
 62
7
  6
CONTINUOUS
 10
123.5275004898
 20
201.5784516795
 11
123.5275004898
 21
201.6107617802
  0
LINE
  5
292
100
AcDbEntity
  8
0
100
AcDbLine
 62
7
  6
CONTINUOUS
 10
123.6126068626
 20
200.9753856893
 11
123.6126068626
 21
201.54212495
  0
LINE
  5
293
100
AcDbEntity
  8
0
100
AcDbLine
 62
7
  6
CONTINUOUS
 10
123.6977132355
 20
201.5916501492
 11
123.6977132355
 21
201.611836379
  0
LINE
  5
294
100
AcDbEntity
  8
0
100
AcDbLine
 62
7
  6
CONTINUOUS
 10
123.8679259811
 20
200.9753856893
 11
123.8679259811
 21
201.5619461632
  0
LINE
  5
295
100
AcDbEntity
  8
0
100
AcDbLine
 62
7
  6
CONTINUOUS
 10
124.1232450996
 20
200.9753856893
 11
124.1232450996
 21
201.5876176635
  0
LINE
  5
296
100
AcDbEntity
  8
0
100
AcDbLine
 62
7
  6
CONTINUOUS
 10
124.2083514725
 20
195.9816277507
 11
124.2083514725
 21
197.2387094739
  0
LINE
  5
297
100
AcDbEntity
  8
0
100
AcDbLine
 62
7
  6
CONTINUOUS
 10
124.2083514725
 20
197.5494706982
 11
124.2083514725
 21
199.1839690584
  0
LINE
  5
298
100
AcDbEntity
  8
0
100
AcDbLine
 62
7
  6
CONTINUOUS
 10
124.2083514725
 20
199.8159729676
 11
124.2083514725
 21
201.6063165563
  0
LINE
  5
299
100
AcDbEntity
  8
0
100
AcDbLine
 62
7
  6
CONTINUOUS
 10
125.7283514725
 20
200.449820091
 11
125.7283514725
 21
201.6088434447
  0
LINE
  5
29A
100
AcDbEntity
  8
0
100
AcDbLine
 62
7
  6
CONTINUOUS
 10
125.8134578528
 20
200.3885546731
 11
125.8134578528
 21
201.400444984
  0
LINE
  5
29B
100
AcDbEntity
  8
0
100
AcDbLine
 62
7
  6
CONTINUOUS
 10
125.9836706208
 20
200.3323372551
 11
125.9836706208
 21
201.3472640924
  0
LINE
  5
29C
100
AcDbEntity
  8
0
100
AcDbLine
 62
7
  6
CONTINUOUS
 10
126.2389897691
 20
201.5392310908
 11
126.2389897691
 21
201.4584212842
  0
LINE
  5
29D
100
AcDbEntity
  8
0
100
AcDbLine
 62
7
  6
CONTINUOUS
 10
126.3240961419
 20
200.2696495566
 11
126.3240961419
 21
201.2879833814
  0
LINE
  5
29E
100
AcDbEntity
  8
0
100
AcDbLine
 62
7
  6
CONTINUOUS
 10
126.3240961419
 20
201.4127932544
 11
126.3240961419
 21
201.5655122533
  0
LINE
  5
29F
100
AcDbEntity
  8
0
100
AcDbLine
 62
7
  6
CONTINUOUS
 10
126.4943089472
 20
201.3746135964
 11
126.4943089472
 21
201.5813557184
  0
LINE
  5
2A0
100
AcDbEntity
  8
0
100
AcDbLine
 62
7
  6
CONTINUOUS
 10
126.7496280657
 20
200.2529587964
 11
126.7496280657
 21
201.5900811767
  0
LINE
  5
2A1
100
AcDbEntity
  8
0
100
AcDbLine
 62
7
  6
CONTINUOUS
 10
127.090053557
 20
200.5928930647
 11
127.090053557
 21
201.5938936559
  0
LINE
  5
2A2
100
AcDbEntity
  8
0
100
AcDbLine
 62
7
  6
CONTINUOUS
 10
128.3666492687
 20
200.5928930647
 11
128.3666492687
 21
201.5938936559
  0
LINE
  5
2A3
100
AcDbEntity
  8
0
100
AcDbLine
 62
7
  6
CONTINUOUS
 10
128.7070747601
 20
200.2529587964
 11
128.7070747601
 21
201.5900811767
  0
LINE
  5
2A4
100
AcDbEntity
  8
0
100
AcDbLine
 62
7
  6
CONTINUOUS
 10
128.962394117
 20
201.3746135964
 11
128.962394117
 21
201.5813557184
  0
LINE
  5
2A5
100
AcDbEntity
  8
0
100
AcDbLine
 62
7
  6
CONTINUOUS
 10
129.1326068626
 20
200.2696495566
 11
129.1326068626
 21
201.2879833814
  0
LINE
  5
2A6
100
AcDbEntity
  8
0
100
AcDbLine
 62
7
  6
CONTINUOUS
 10
129.1326068626
 20
201.4127932544
 11
129.1326068626
 21
201.5655122533
  0
LINE
  5
2A7
100
AcDbEntity
  8
0
100
AcDbLine
 62
7
  6
CONTINUOUS
 10
129.2177132355
 20
201.5392310908
 11
129.2177132355
 21
201.4584212842
  0
LINE
  5
2A8
100
AcDbEntity
  8
0
100
AcDbLine
 62
7
  6
CONTINUOUS
 10
129.473032354
 20
200.3323372551
 11
129.473032354
 21
201.3472640924
  0
LINE
  5
2A9
100
AcDbEntity
  8
0
100
AcDbLine
 62
7
  6
CONTINUOUS
 10
129.6432450996
 20
200.3885546731
 11
129.6432450996
 21
201.400444984
  0
LINE
  5
2AA
100
AcDbEntity
  8
0
100
AcDbLine
 62
7
  6
CONTINUOUS
 10
129.7283514725
 20
200.449820091
 11
129.7283514725
 21
201.5392310908
  0
LINE
  5
2AB
100
AcDbEntity
  8
0
100
AcDbLine
 62
7
  6
CONTINUOUS
 10
130.7883514725
 20
201.6114626844
 11
130.7883514725
 21
195.9816277507
  0
LINE
  5
2AC
100
AcDbEntity
  8
0
100
AcDbLine
 62
7
  6
CONTINUOUS
 10
136.7883514725
 20
201.6114626844
 11
136.7883514725
 21
195.9816277507
  0
LINE
  5
2AD
100
AcDbEntity
  8
0
100
AcDbLine
 62
7
  6
CONTINUOUS
 10
138.2383514725
 20
200.6118857935
 11
138.2383514725
 21
201.5839468308
  0
LINE
  5
2AE
100
AcDbEntity
  8
0
100
AcDbLine
 62
7
  6
CONTINUOUS
 10
142.2383514725
 20
200.6082184511
 11
142.2383514725
 21
201.6084115054
  0
LINE
  5
2AF
100
AcDbEntity
  8
0
100
AcDbLine
 62
7
  6
CONTINUOUS
 10
143.4883514725
 20
200.6118857935
 11
143.4883514725
 21
201.4745897354
  0
LINE
  5
2B0
100
AcDbEntity
  8
0
100
AcDbLine
 62
7
  6
CONTINUOUS
 10
143.5734578528
 20
200.6118857935
 11
143.5734578528
 21
201.520296358
  0
LINE
  5
2B1
100
AcDbEntity
  8
0
100
AcDbLine
 62
7
  6
CONTINUOUS
 10
143.7436706208
 20
200.6118857935
 11
143.7436706208
 21
201.5501829715
  0
LINE
  5
2B2
100
AcDbEntity
  8
0
100
AcDbLine
 62
7
  6
CONTINUOUS
 10
144.0840961419
 20
200.6118857935
 11
144.0840961419
 21
201.5741638246
  0
LINE
  5
2B3
100
AcDbEntity
  8
0
100
AcDbLine
 62
7
  6
CONTINUOUS
 10
144.4245216928
 20
200.6118857935
 11
144.4245216928
 21
201.5839468308
  0
LINE
  5
2B4
100
AcDbEntity
  8
0
100
AcDbLine
 62
7
  6
CONTINUOUS
 10
144.850053557
 20
200.6118857935
 11
144.850053557
 21
201.5882874972
  0
LINE
  5
2B5
100
AcDbEntity
  8
0
100
AcDbLine
 62
7
  6
CONTINUOUS
 10
146.1266492687
 20
200.6118857935
 11
146.1266492687
 21
201.5882874972
  0
LINE
  5
2B6
100
AcDbEntity
  8
0
100
AcDbLine
 62
7
  6
CONTINUOUS
 10
146.5521813713
 20
200.6118857935
 11
146.5521813713
 21
201.5839468308
  0
LINE
  5
2B7
100
AcDbEntity
  8
0
100
AcDbLine
 62
7
  6
CONTINUOUS
 10
146.8926068626
 20
200.6118857935
 11
146.8926068626
 21
201.5741638246
  0
LINE
  5
2B8
100
AcDbEntity
  8
0
100
AcDbLine
 62
7
  6
CONTINUOUS
 10
147.233032354
 20
200.6118857935
 11
147.233032354
 21
201.5501829715
  0
LINE
  5
2B9
100
AcDbEntity
  8
0
100
AcDbLine
 62
7
  6
CONTINUOUS
 10
147.4032450996
 20
200.6118857935
 11
147.4032450996
 21
201.520296358
  0
LINE
  5
2BA
100
AcDbEntity
  8
0
100
AcDbLine
 62
7
  6
CONTINUOUS
 10
147.4883514725
 20
200.6118857935
 11
147.4883514725
 21
201.4745897354
  0
LINE
  5
2BB
100
AcDbEntity
  8
0
100
AcDbLine
 62
7
  6
CONTINUOUS
 10
148.7883514725
 20
201.6114626844
 11
148.7883514725
 21
195.9816277507
  0
LINE
  5
2BC
100
AcDbEntity
  8
0
100
AcDbLine
 62
7
  6
CONTINUOUS
 10
153.7883514725
 20
200.1131480245
 11
153.7883514725
 21
176.6118857935
  0
LINE
  5
2BD
100
AcDbEntity
  8
RUNDUNGEN
100
AcDbLine
 62
7
  6
CONTINUOUS
 10
153.7883514725
 20
176.6118857935
 11
153.7883514725
 21
175.0382703683
  0
LINE
  5
2BE
100
AcDbEntity
  8
BEZUGSACHSEN
100
AcDbLine
 62
7
  6
CONTINUOUS
 10
156.2883509725
 20
196.6118858145
 11
156.2883509725
 21
201.8918347378
  0
LINE
  5
2BF
100
AcDbEntity
  8
BEZUGSACHSEN
100
AcDbLine
 62
7
  6
CONTINUOUS
 10
156.2883509725
 20
224.8618755921
 11
156.2883512063
 21
218.2238591144
  0
LINE
  5
2C0
100
AcDbEntity
  8
0
100
AcDbLine
 62
7
  6
CONTINUOUS
 10
163.3683514725
 20
206.4518857935
 11
163.3683514725
 21
205.5637279185
  0
LINE
  5
2C1
100
AcDbEntity
  8
0
100
AcDbLine
 62
7
  6
CONTINUOUS
 10
163.3683514725
 20
202.85902122
 11
163.3683514725
 21
201.8334648435
  0
LINE
  5
2C2
100
AcDbEntity
  8
0
100
AcDbLine
 62
7
  6
CONTINUOUS
 10
163.3683514725
 20
195.7939912935
 11
163.3683514725
 21
193.3900439785
  0
LINE
  5
2C3
100
AcDbEntity
  8
0
100
AcDbLine
 62
7
  6
CONTINUOUS
 10
164.2565093475
 20
193.6192545235
 11
164.2565093475
 21
194.7282018435
  0
LINE
  5
2C4
100
AcDbEntity
  8
0
100
AcDbLine
 62
7
  6
CONTINUOUS
 10
165.5946672125
 20
205.5637279185
 11
165.5946672125
 21
204.6571634
  0
LINE
  5
2C5
100
AcDbEntity
  8
0
100
AcDbLine
 62
7
  6
CONTINUOUS
 10
165.150588275
 20
203.8879961177
 11
163.3683514725
 21
202.85902122
  0
LINE
  5
2C6
100
AcDbEntity
  8
0
100
AcDbLine
 62
7
  6
CONTINUOUS
 10
163.3683514725
 20
201.8334648435
 11
165.6995297471
 21
203.1793712479
  0
LINE
  5
2C7
100
AcDbEntity
  8
0
100
AcDbLine
 62
7
  6
CONTINUOUS
 10
166.4828250875
 20
204.0953068985
 11
166.4828250875
 21
205.5637279185
  0
LINE
  5
2C8
100
AcDbEntity
  8
0
100
AcDbLine
 62
7
  6
CONTINUOUS
 10
167.2762461225
 20
194.7282018435
 11
167.2762461225
 21
195.7939912935
  0
LINE
  5
2C9
100
AcDbEntity
  8
0
100
AcDbLine
 62
7
  6
CONTINUOUS
 10
167.2762461225
 20
205.5637279185
 11
167.2762461225
 21
206.4518857935
  0
LINE
  5
2CA
100
AcDbEntity
  8
0
100
AcDbLine
 62
7
  6
CONTINUOUS
 10
167.8091408475
 20
206.4518857935
 11
167.8091408475
 21
204.0953068985
  0
LINE
  5
2CB
100
AcDbEntity
  8
0
100
AcDbLine
 62
7
  6
CONTINUOUS
 10
167.8091408475
 20
195.7939912935
 11
167.8091408475
 21
193.6192301361
  0
LINE
  5
2CC
100
AcDbEntity
  8
0
100
AcDbLine
 62
7
  6
CONTINUOUS
 10
168.6972987225
 20
193.3900439785
 11
168.6972987225
 21
195.7939912935
  0
LINE
  5
2CD
100
AcDbEntity
  8
0
100
AcDbLine
 62
7
  6
CONTINUOUS
 10
168.6972987225
 20
196.8597807435
 11
168.6972987225
 21
197.9255701935
  0
LINE
  5
2CE
100
AcDbEntity
  8
0
100
AcDbLine
 62
7
  6
CONTINUOUS
 10
168.6972987225
 20
200.0571490935
 11
168.6972987225
 21
201.1229385435
  0
LINE
  5
2CF
100
AcDbEntity
  8
0
100
AcDbLine
 62
7
  6
CONTINUOUS
 10
168.6972987225
 20
203.7400437485
 11
168.6972987225
 21
206.4518857935
  0
LINE
  5
2D0
100
AcDbEntity
  8
BEZUGSACHSEN
100
AcDbLine
 62
7
  6
CONTINUOUS
 10
172.2883509725
 20
224.8618857935
 11
172.2883509725
 21
179.6118857935
  0
LINE
  5
2D1
100
AcDbEntity
  8
BEZUGSACHSEN
100
AcDbLine
 62
7
  6
CONTINUOUS
 10
162.552189604
 20
249.780383299
 11
171.7474950313
 21
227.5809522262
  0
LINE
  5
2D2
100
AcDbEntity
  8
BEZUGSACHSEN
100
AcDbLine
 62
7
  6
CONTINUOUS
 10
136.5074179052
 20
262.8210293523
 11
158.7068489779
 21
253.6257239251
  0
LINE
  5
2D3
100
AcDbEntity
  8
RUNDUNGEN
100
AcDbLine
 62
7
  6
CONTINUOUS
 10
276.9831609827
 20
173.6118857935
 11
273.9831609827
 21
173.6118857935
  0
LINE
  5
2D4
100
AcDbEntity
  8
RUNDUNGEN
100
AcDbLine
 62
7
  6
CONTINUOUS
 10
250.9442116032
 20
173.6118857935
 11
247.9442116032
 21
173.6118857935
  0
LINE
  5
2D5
100
AcDbEntity
  8
KONSTRUKTIONSELEMENTE
100
AcDbLine
 62
7
  6
CONTINUOUS
 10
247.4152306611
 20
176.6118857935
 11
243.2554142001
 21
183.8168992541
  0
LINE
  5
2D6
100
AcDbEntity
  8
0
100
AcDbLine
 62
7
  6
CONTINUOUS
 10
252.8011693001
 20
175.5147985944
 11
251.8266597919
 21
177.1511921639
  0
LINE
  5
2D7
100
AcDbEntity
  8
0
100
AcDbLine
 62
7
  6
CONTINUOUS
 10
253.230761997
 20
175.7706307949
 11
251.9984008801
 21
177.8400080457
  0
LINE
  5
2D8
100
AcDbEntity
  8
RUNDUNGEN
100
AcDbLine
 62
7
  6
CONTINUOUS
 10
247.9442116032
 20
173.6118857935
 11
247.4152306611
 21
176.6118857935
  0
LINE
  5
2D9
100
AcDbEntity
  8
0
100
AcDbLine
 62
7
  6
CONTINUOUS
 10
270.4636862929
 20
201.1229385435
 11
270.9636862929
 21
201.1229385435
  0
LINE
  5
2DA
100
AcDbEntity
  8
0
100
AcDbLine
 62
7
  6
CONTINUOUS
 10
270.4636862929
 20
201.8334648435
 11
270.9636862929
 21
201.8334648435
  0
LINE
  5
2DB
100
AcDbEntity
  8
0
100
AcDbLine
 62
7
  6
CONTINUOUS
 10
270.4636862929
 20
202.85902122
 11
270.9636862929
 21
202.85902122
  0
LINE
  5
2DC
100
AcDbEntity
  8
0
100
AcDbLine
 62
7
  6
CONTINUOUS
 10
270.4636862929
 20
205.5637279185
 11
270.9636862929
 21
205.5637279185
  0
LINE
  5
2DD
100
AcDbEntity
  8
KONSTRUKTIONSELEMENTE
100
AcDbLine
 62
7
  6
CONTINUOUS
 10
243.9329814021
 20
186.8086674471
 11
243.2554142001
 21
183.8168992541
  0
LINE
  5
2DE
100
AcDbEntity
  8
0
100
AcDbLine
 62
7
  6
CONTINUOUS
 10
270.4636862929
 20
206.4518857935
 11
270.9636862929
 21
206.4518857935
  0
LINE
  5
2DF
100
AcDbEntity
  8
BEZUGSACHSEN
100
AcDbLine
 62
7
  6
CONTINUOUS
 10
254.4636862929
 20
258.3618849228
 11
254.4636862929
 21
182.6118857935
  0
LINE
  5
2E0
100
AcDbEntity
  8
RUNDUNGEN
100
AcDbLine
 62
7
  6
CONTINUOUS
 10
250.9442116032
 20
173.6118857935
 11
253.7310247564
 21
184.7891828539
  0
LINE
  5
2E1
100
AcDbEntity
  8
RUNDUNGEN
100
AcDbLine
 62
7
  6
CONTINUOUS
 10
271.1963478294
 20
184.7891828539
 11
273.9831609827
 21
173.6118857935
  0
LINE
  5
2E2
100
AcDbEntity
  8
BEZUGSACHSEN
100
AcDbLine
 62
7
  6
CONTINUOUS
 10
270.4636862929
 20
258.3618849228
 11
270.4636862929
 21
258.2016316898
  0
LINE
  5
2E3
100
AcDbEntity
  8
RUNDUNGEN
100
AcDbLine
 62
7
  6
CONTINUOUS
 10
270.4636862929
 20
258.2016316898
 11
270.4636862929
 21
182.6118857935
  0
LINE
  5
2E4
100
AcDbEntity
  8
0
100
AcDbLine
 62
7
  6
CONTINUOUS
 10
270.9636862929
 20
206.4518857935
 11
270.9636862929
 21
201.8334648435
  0
LINE
  5
2E5
100
AcDbEntity
  8
0
100
AcDbLine
 62
7
  6
CONTINUOUS
 10
270.9636862929
 20
201.1229385435
 11
270.9636862929
 21
199.6044628744
  0
LINE
  5
2E6
100
AcDbEntity
  8
0
100
AcDbLine
 62
7
  6
CONTINUOUS
 10
280.9943911838
 20
186.8086674471
 11
281.6719583858
 21
183.8168992541
  0
LINE
  5
2E7
100
AcDbEntity
  8
RUNDUNGEN
100
AcDbLine
 62
7
  6
CONTINUOUS
 10
277.5121419248
 20
176.6118857935
 11
276.9831609827
 21
173.6118857935
  0
LINE
  5
2E8
100
AcDbEntity
  8
0
100
AcDbLine
 62
7
  6
CONTINUOUS
 10
272.9289717057
 20
177.8400080457
 11
271.6966105889
 21
175.7706307949
  0
LINE
  5
2E9
100
AcDbEntity
  8
0
100
AcDbLine
 62
7
  6
CONTINUOUS
 10
273.1007127939
 20
177.1511921639
 11
272.1262032857
 21
175.5147985944
  0
LINE
  5
2EA
100
AcDbEntity
  8
0
100
AcDbLine
 62
7
  6
CONTINUOUS
 10
277.5121419248
 20
176.6118857935
 11
281.6719583858
 21
183.8168992541
  0
LINE
  5
2EB
100
AcDbEntity
  8
0
100
AcDbLine
 62
7
  6
CONTINUOUS
 10
259.4636862929
 20
263.3618852935
 11
265.4636862929
 21
263.3618852935
  0
LINE
  5
2EC
100
AcDbEntity
  8
BEZUGSACHSEN
100
AcDbLine
 62
7
  6
CONTINUOUS
 10
95.2883519725
 20
108.03
 11
95.2883519725
 21
102.03
  0
LINE
  5
2ED
100
AcDbEntity
  8
0
100
AcDbLine
 62
7
  6
CONTINUOUS
 10
113.7883514725
 20
86.9263900334
 11
113.7883514725
 21
97.03
  0
LINE
  5
2EE
100
AcDbEntity
  8
0
100
AcDbLine
 62
7
  6
CONTINUOUS
 10
113.7883514725
 20
113.03
 11
113.7883514725
 21
122.0977545047
  0
LINE
  5
2EF
100
AcDbEntity
  8
KONSTRUKTIONSELEMENTE
100
AcDbLine
 62
7
  6
CONTINUOUS
 10
113.7883514725
 20
122.0977545047
 11
113.7883514725
 21
123.1336099666
  0
LINE
  5
2F0
100
AcDbEntity
  8
0
100
AcDbLine
 62
7
  6
CONTINUOUS
 10
120.5487769936
 20
116.6533333433
 11
120.2934578528
 21
116.2366666865
  0
LINE
  5
2F1
100
AcDbEntity
  8
0
100
AcDbLine
 62
7
  6
CONTINUOUS
 10
120.8892025147
 20
116.4033333135
 11
120.7189897691
 21
116.1533333135
  0
LINE
  5
2F2
100
AcDbEntity
  8
0
100
AcDbLine
 62
7
  6
CONTINUOUS
 10
120.8892025147
 20
116.9033333284
 11
120.5487769936
 21
116.6533333433
  0
LINE
  5
2F3
100
AcDbEntity
  8
0
100
AcDbLine
 62
7
  6
CONTINUOUS
 10
115.2883514725
 20
85.8217279071
 11
152.2883514725
 21
85.8217279071
  0
LINE
  5
2F4
100
AcDbEntity
  8
0
100
AcDbLine
 62
7
  6
CONTINUOUS
 10
118.7883514725
 20
118.53
 11
118.7883514725
 21
113.03
  0
LINE
  5
2F5
100
AcDbEntity
  8
0
100
AcDbLine
 62
7
  6
CONTINUOUS
 10
118.7883514725
 20
97.03
 11
118.7883514725
 21
91.53
  0
LINE
  5
2F6
100
AcDbEntity
  8
0
100
AcDbLine
 62
7
  6
CONTINUOUS
 10
120.2934578528
 20
116.2366666865
 11
120.2083514725
 21
115.82
  0
LINE
  5
2F7
100
AcDbEntity
  8
0
100
AcDbLine
 62
7
  6
CONTINUOUS
 10
120.7189897691
 20
116.1533333135
 11
120.6338833962
 21
115.82
  0
LINE
  5
2F8
100
AcDbEntity
  8
0
100
AcDbLine
 62
7
  6
CONTINUOUS
 10
122.6764365231
 20
114.9033332539
 11
122.4211174046
 21
114.4866667461
  0
LINE
  5
2F9
100
AcDbEntity
  8
0
100
AcDbLine
 62
7
  6
CONTINUOUS
 10
122.2509046589
 20
114.9866667461
 11
122.0806919132
 21
114.7366667461
  0
LINE
  5
2FA
100
AcDbEntity
  8
0
100
AcDbLine
 62
7
  6
CONTINUOUS
 10
120.8040961419
 20
113.07
 11
120.7632450782
 21
113.03
  0
LINE
  5
2FB
100
AcDbEntity
  8
0
100
AcDbLine
 62
7
  6
CONTINUOUS
 10
122.4211174046
 20
114.4866667461
 11
122.0806919132
 21
114.2366667461
  0
LINE
  5
2FC
100
AcDbEntity
  8
0
100
AcDbLine
 62
7
  6
CONTINUOUS
 10
122.0806919132
 20
114.7366667461
 11
121.8253727947
 21
114.57
  0
LINE
  5
2FD
100
AcDbEntity
  8
0
100
AcDbLine
 62
7
  6
CONTINUOUS
 10
121.2296280657
 20
117.07
 11
120.8892025147
 21
116.9033333284
  0
LINE
  5
2FE
100
AcDbEntity
  8
0
100
AcDbLine
 62
7
  6
CONTINUOUS
 10
121.2296280657
 20
116.57
 11
120.8892025147
 21
116.4033333135
  0
LINE
  5
2FF
100
AcDbEntity
  8
0
100
AcDbLine
 62
7
  6
CONTINUOUS
 10
120.2083514725
 20
115.82
 11
120.2083514725
 21
115.32
  0
LINE
  5
300
100
AcDbEntity
  8
0
100
AcDbLine
 62
7
  6
CONTINUOUS
 10
120.2083514725
 20
96.82
 11
120.2083514725
 21
96.4033339691
  0
LINE
  5
301
100
AcDbEntity
  8
0
100
AcDbLine
 62
7
  6
CONTINUOUS
 10
120.2083514725
 20
95.7366660309
 11
120.2083514725
 21
95.2366660309
  0
LINE
  5
302
100
AcDbEntity
  8
0
100
AcDbLine
 62
7
  6
CONTINUOUS
 10
120.2083514725
 20
93.1533339691
 11
120.2083514725
 21
92.4033339691
  0
LINE
  5
303
100
AcDbEntity
  8
0
100
AcDbLine
 62
7
  6
CONTINUOUS
 10
120.6338833962
 20
115.82
 11
120.6338833962
 21
115.32
  0
LINE
  5
304
100
AcDbEntity
  8
0
100
AcDbLine
 62
7
  6
CONTINUOUS
 10
121.2296280657
 20
117.07
 11
121.2296280657
 21
116.57
  0
LINE
  5
305
100
AcDbEntity
  8
0
100
AcDbLine
 62
7
  6
CONTINUOUS
 10
121.6551599298
 20
97.03
 11
121.6551599298
 21
96.9866660309
  0
LINE
  5
306
100
AcDbEntity
  8
0
100
AcDbLine
 62
7
  6
CONTINUOUS
 10
121.9955855404
 20
117.07
 11
121.9955855404
 21
116.4866666865
  0
LINE
  5
307
100
AcDbEntity
  8
0
100
AcDbLine
 62
7
  6
CONTINUOUS
 10
121.9955855404
 20
97.03
 11
121.9955855404
 21
96.9866660309
  0
LINE
  5
308
100
AcDbEntity
  8
0
100
AcDbLine
 62
7
  6
CONTINUOUS
 10
122.3360110317
 20
115.82
 11
122.3360110317
 21
115.32
  0
LINE
  5
309
100
AcDbEntity
  8
0
100
AcDbLine
 62
7
  6
CONTINUOUS
 10
122.7615428959
 20
115.32
 11
122.6764365231
 21
114.9033332539
  0
LINE
  5
30A
100
AcDbEntity
  8
0
100
AcDbLine
 62
7
  6
CONTINUOUS
 10
122.3360110317
 20
115.32
 11
122.2509046589
 21
114.9866667461
  0
LINE
  5
30B
100
AcDbEntity
  8
0
100
AcDbLine
 62
7
  6
CONTINUOUS
 10
121.1445216928
 20
113.2366667461
 11
120.8040961419
 21
113.07
  0
LINE
  5
30C
100
AcDbEntity
  8
0
100
AcDbLine
 62
7
  6
CONTINUOUS
 10
122.0806919132
 20
114.2366667461
 11
121.6551599298
 21
114.07
  0
LINE
  5
30D
100
AcDbEntity
  8
0
100
AcDbLine
 62
7
  6
CONTINUOUS
 10
121.8253727947
 20
114.57
 11
121.570053557
 21
114.4866667461
  0
LINE
  5
30E
100
AcDbEntity
  8
0
100
AcDbLine
 62
7
  6
CONTINUOUS
 10
121.3998408113
 20
113.32
 11
121.1445216928
 21
113.2366667461
  0
LINE
  5
30F
100
AcDbEntity
  8
0
100
AcDbLine
 62
7
  6
CONTINUOUS
 10
118.7883514725
 20
91.53
 11
130.7883514725
 21
91.53
  0
LINE
  5
310
100
AcDbEntity
  8
0
100
AcDbLine
 62
7
  6
CONTINUOUS
 10
136.7883514725
 20
91.53
 11
148.7883514725
 21
91.53
  0
LINE
  5
311
100
AcDbEntity
  8
0
100
AcDbLine
 62
7
  6
CONTINUOUS
 10
120.2083514725
 20
92.4033339691
 11
124.2083514725
 21
92.4033339691
  0
LINE
  5
312
100
AcDbEntity
  8
0
100
AcDbLine
 62
7
  6
CONTINUOUS
 10
120.8040961419
 20
92.9033339691
 11
124.2083514725
 21
92.9033339691
  0
LINE
  5
313
100
AcDbEntity
  8
0
100
AcDbLine
 62
7
  6
CONTINUOUS
 10
120.5453721297
 20
97.03
 11
120.6338833962
 21
96.9866660309
  0
LINE
  5
314
100
AcDbEntity
  8
0
100
AcDbLine
 62
7
  6
CONTINUOUS
 10
121.0560104418
 20
97.03
 11
121.1445216928
 21
96.9866660309
  0
LINE
  5
315
100
AcDbEntity
  8
0
100
AcDbLine
 62
7
  6
CONTINUOUS
 10
120.2083514725
 20
115.32
 11
120.2934578528
 21
114.9033332539
  0
LINE
  5
316
100
AcDbEntity
  8
0
100
AcDbLine
 62
7
  6
CONTINUOUS
 10
122.7615428959
 20
115.82
 11
122.7615428959
 21
115.32
  0
LINE
  5
317
100
AcDbEntity
  8
0
100
AcDbLine
 62
7
  6
CONTINUOUS
 10
123.7828196083
 20
116.6533333433
 11
123.7828196083
 21
114.2366667461
  0
LINE
  5
318
100
AcDbEntity
  8
0
100
AcDbLine
 62
7
  6
CONTINUOUS
 10
124.2083514725
 20
117.07
 11
124.2083514725
 21
114.2366667461
  0
LINE
  5
319
100
AcDbEntity
  8
0
100
AcDbLine
 62
7
  6
CONTINUOUS
 10
124.2083514725
 20
95.7366660309
 11
124.2083514725
 21
94.9866660309
  0
LINE
  5
31A
100
AcDbEntity
  8
0
100
AcDbLine
 62
7
  6
CONTINUOUS
 10
124.2083514725
 20
92.9033339691
 11
124.2083514725
 21
92.4033339691
  0
LINE
  5
31B
100
AcDbEntity
  8
0
100
AcDbLine
 62
7
  6
CONTINUOUS
 10
120.2083514725
 20
95.2366660309
 11
123.6977132355
 21
95.2366660309
  0
LINE
  5
31C
100
AcDbEntity
  8
0
100
AcDbLine
 62
7
  6
CONTINUOUS
 10
120.2083514725
 20
95.7366660309
 11
124.2083514725
 21
95.7366660309
  0
LINE
  5
31D
100
AcDbEntity
  8
0
100
AcDbLine
 62
7
  6
CONTINUOUS
 10
168.6972987225
 20
96.53
 11
163.3683514725
 21
96.53
  0
LINE
  5
31E
100
AcDbEntity
  8
0
100
AcDbLine
 62
7
  6
CONTINUOUS
 10
120.8892025147
 20
96.57
 11
122.2509046589
 21
96.57
  0
LINE
  5
31F
100
AcDbEntity
  8
0
100
AcDbLine
 62
7
  6
CONTINUOUS
 10
120.6338833962
 20
115.32
 11
120.7189897691
 21
114.9866667461
  0
LINE
  5
320
100
AcDbEntity
  8
0
100
AcDbLine
 62
7
  6
CONTINUOUS
 10
122.2509046589
 20
116.1533333135
 11
122.3360110317
 21
115.82
  0
LINE
  5
321
100
AcDbEntity
  8
0
100
AcDbLine
 62
7
  6
CONTINUOUS
 10
122.6764365231
 20
116.2366666865
 11
122.7615428959
 21
115.82
  0
LINE
  5
322
100
AcDbEntity
  8
0
100
AcDbLine
 62
7
  6
CONTINUOUS
 10
120.8892025147
 20
96.57
 11
120.4636706208
 21
96.4866660309
  0
LINE
  5
323
100
AcDbEntity
  8
0
100
AcDbLine
 62
7
  6
CONTINUOUS
 10
121.1445216928
 20
96.9866660309
 11
121.6551599298
 21
96.9866660309
  0
LINE
  5
324
100
AcDbEntity
  8
0
100
AcDbLine
 62
7
  6
CONTINUOUS
 10
121.9955855404
 20
96.9866660309
 11
122.2509046589
 21
96.9866660309
  0
LINE
  5
325
100
AcDbEntity
  8
RUNDUNGEN
100
AcDbLine
 62
7
  6
CONTINUOUS
 10
132.9827022016
 20
97.03
 11
100.2883519725
 21
97.03
  0
LINE
  5
326
100
AcDbEntity
  8
BEZUGSACHSEN
100
AcDbLine
 62
7
  6
CONTINUOUS
 10
132.9827022016
 20
97.03
 11
167.2883509725
 21
97.03
  0
LINE
  5
327
100
AcDbEntity
  8
0
100
AcDbLine
 62
7
  6
CONTINUOUS
 10
120.2934578528
 20
114.9033332539
 11
120.5487769936
 21
114.4866667461
  0
LINE
  5
328
100
AcDbEntity
  8
0
100
AcDbLine
 62
7
  6
CONTINUOUS
 10
130.7883514725
 20
118.53
 11
130.7883514725
 21
113.03
  0
LINE
  5
329
100
AcDbEntity
  8
0
100
AcDbLine
 62
7
  6
CONTINUOUS
 10
130.7883514725
 20
97.03
 11
130.7883514725
 21
91.53
  0
LINE
  5
32A
100
AcDbEntity
  8
0
100
AcDbLine
 62
7
  6
CONTINUOUS
 10
122.8194152294
 20
97.03
 11
122.6764365231
 21
96.82
  0
LINE
  5
32B
100
AcDbEntity
  8
0
100
AcDbLine
 62
7
  6
CONTINUOUS
 10
145.4457982861
 20
114.3933332539
 11
143.4883514725
 21
113.6433332539
  0
LINE
  5
32C
100
AcDbEntity
  8
0
100
AcDbLine
 62
7
  6
CONTINUOUS
 10
145.2755855404
 20
114.8933333731
 11
143.4883514725
 21
114.2266667461
  0
LINE
  5
32D
100
AcDbEntity
  8
0
100
AcDbLine
 62
7
  6
CONTINUOUS
 10
146.8075004898
 20
114.31
 11
146.5521813713
 21
114.2266667461
  0
LINE
  5
32E
100
AcDbEntity
  8
0
100
AcDbLine
 62
7
  6
CONTINUOUS
 10
146.8075004898
 20
113.81
 11
146.5521813713
 21
113.7266667461
  0
LINE
  5
32F
100
AcDbEntity
  8
0
100
AcDbLine
 62
7
  6
CONTINUOUS
 10
120.7189897691
 20
114.9866667461
 11
120.8892025147
 21
114.7366667461
  0
LINE
  5
330
100
AcDbEntity
  8
0
100
AcDbLine
 62
7
  6
CONTINUOUS
 10
122.4211174046
 20
116.6533333433
 11
122.6764365231
 21
116.2366666865
  0
LINE
  5
331
100
AcDbEntity
  8
0
100
AcDbLine
 62
7
  6
CONTINUOUS
 10
122.6764365231
 20
96.82
 11
122.5062237774
 21
96.6533339691
  0
LINE
  5
332
100
AcDbEntity
  8
0
100
AcDbLine
 62
7
  6
CONTINUOUS
 10
120.5487769936
 20
114.4866667461
 11
120.8892025147
 21
114.2366667461
  0
LINE
  5
333
100
AcDbEntity
  8
0
100
AcDbLine
 62
7
  6
CONTINUOUS
 10
123.6126068626
 20
113.07
 11
123.6534579216
 21
113.03
  0
LINE
  5
334
100
AcDbEntity
  8
0
100
AcDbLine
 62
7
  6
CONTINUOUS
 10
121.9955855404
 20
116.4866666865
 11
122.2509046589
 21
116.1533333135
  0
LINE
  5
335
100
AcDbEntity
  8
0
100
AcDbLine
 62
7
  6
CONTINUOUS
 10
136.7883514725
 20
118.53
 11
136.7883514725
 21
113.03
  0
LINE
  5
336
100
AcDbEntity
  8
0
100
AcDbLine
 62
7
  6
CONTINUOUS
 10
136.7883514725
 20
97.03
 11
136.7883514725
 21
91.53
  0
LINE
  5
337
100
AcDbEntity
  8
0
100
AcDbLine
 62
7
  6
CONTINUOUS
 10
146.9777132355
 20
114.4766667461
 11
146.8075004898
 21
114.31
  0
LINE
  5
338
100
AcDbEntity
  8
0
100
AcDbLine
 62
7
  6
CONTINUOUS
 10
147.1479259811
 20
114.06
 11
146.8075004898
 21
113.81
  0
LINE
  5
339
100
AcDbEntity
  8
0
100
AcDbLine
 62
7
  6
CONTINUOUS
 10
123.6977132355
 20
95.2366660309
 11
120.2083514725
 21
93.1533339691
  0
LINE
  5
33A
100
AcDbEntity
  8
0
100
AcDbLine
 62
7
  6
CONTINUOUS
 10
120.378564233
 20
96.9033339691
 11
120.2083514725
 21
96.82
  0
LINE
  5
33B
100
AcDbEntity
  8
0
100
AcDbLine
 62
7
  6
CONTINUOUS
 10
122.33941591
 20
97.03
 11
122.2509046589
 21
96.9866660309
  0
LINE
  5
33C
100
AcDbEntity
  8
0
100
AcDbLine
 62
7
  6
CONTINUOUS
 10
123.2721813713
 20
113.2366667461
 11
123.6126068626
 21
113.07
  0
LINE
  5
33D
100
AcDbEntity
  8
0
100
AcDbLine
 62
7
  6
CONTINUOUS
 10
120.8892025147
 20
114.7366667461
 11
121.1445216928
 21
114.57
  0
LINE
  5
33E
100
AcDbEntity
  8
0
100
AcDbLine
 62
7
  6
CONTINUOUS
 10
138.2383514725
 20
116.81
 11
138.2383514725
 21
113.81
  0
LINE
  5
33F
100
AcDbEntity
  8
0
100
AcDbLine
 62
7
  6
CONTINUOUS
 10
138.2383514725
 20
113.1433332539
 11
138.2383514725
 21
113.03
  0
LINE
  5
340
100
AcDbEntity
  8
0
100
AcDbLine
 62
7
  6
CONTINUOUS
 10
138.7489897691
 20
116.31
 11
138.7489897691
 21
113.81
  0
LINE
  5
341
100
AcDbEntity
  8
0
100
AcDbLine
 62
7
  6
CONTINUOUS
 10
147.4032450996
 20
114.3933332539
 11
147.1479259811
 21
114.06
  0
LINE
  5
342
100
AcDbEntity
  8
0
100
AcDbLine
 62
7
  6
CONTINUOUS
 10
124.2083514725
 20
94.9866660309
 11
120.8040961419
 21
92.9033339691
  0
LINE
  5
343
100
AcDbEntity
  8
0
100
AcDbLine
 62
7
  6
CONTINUOUS
 10
120.6338833962
 20
96.9866660309
 11
120.378564233
 21
96.9033339691
  0
LINE
  5
344
100
AcDbEntity
  8
0
100
AcDbLine
 62
7
  6
CONTINUOUS
 10
120.4636706208
 20
96.4866660309
 11
120.2083514725
 21
96.4033339691
  0
LINE
  5
345
100
AcDbEntity
  8
0
100
AcDbLine
 62
7
  6
CONTINUOUS
 10
122.5062237774
 20
96.6533339691
 11
122.2509046589
 21
96.57
  0
LINE
  5
346
100
AcDbEntity
  8
0
100
AcDbLine
 62
7
  6
CONTINUOUS
 10
122.5913301502
 20
113.4033332539
 11
123.0168620144
 21
113.32
  0
LINE
  5
347
100
AcDbEntity
  8
0
100
AcDbLine
 62
7
  6
CONTINUOUS
 10
123.0168620144
 20
113.32
 11
123.2721813713
 21
113.2366667461
  0
LINE
  5
348
100
AcDbEntity
  8
0
100
AcDbLine
 62
7
  6
CONTINUOUS
 10
121.1445216928
 20
114.57
 11
121.3998408113
 21
114.4866667461
  0
LINE
  5
349
100
AcDbEntity
  8
0
100
AcDbLine
 62
7
  6
CONTINUOUS
 10
120.8892025147
 20
114.2366667461
 11
121.3147344385
 21
114.07
  0
LINE
  5
34A
100
AcDbEntity
  8
0
100
AcDbLine
 62
7
  6
CONTINUOUS
 10
142.2383514725
 20
116.81
 11
142.2383514725
 21
116.31
  0
LINE
  5
34B
100
AcDbEntity
  8
0
100
AcDbLine
 62
7
  6
CONTINUOUS
 10
142.2383514725
 20
113.1433332539
 11
142.2383514725
 21
113.03
  0
LINE
  5
34C
100
AcDbEntity
  8
BEZUGSACHSEN
100
AcDbLine
 62
7
  6
CONTINUOUS
 10
100.2883519725
 20
113.03
 11
167.2883509725
 21
113.03
  0
LINE
  5
34D
100
AcDbEntity
  8
0
100
AcDbLine
 62
7
  6
CONTINUOUS
 10
138.2383514725
 20
113.1433332539
 11
142.2383514725
 21
113.1433332539
  0
LINE
  5
34E
100
AcDbEntity
  8
0
100
AcDbLine
 62
7
  6
CONTINUOUS
 10
121.8253727947
 20
113.4033332539
 11
122.5913301502
 21
113.4033332539
  0
LINE
  5
34F
100
AcDbEntity
  8
0
100
AcDbLine
 62
7
  6
CONTINUOUS
 10
146.2117556416
 20
113.7266667461
 11
146.5521813713
 21
113.7266667461
  0
LINE
  5
350
100
AcDbEntity
  8
0
100
AcDbLine
 62
7
  6
CONTINUOUS
 10
138.2383514725
 20
113.81
 11
138.7489897691
 21
113.81
  0
LINE
  5
351
100
AcDbEntity
  8
0
100
AcDbLine
 62
7
  6
CONTINUOUS
 10
143.4883514725
 20
116.81
 11
143.4883514725
 21
116.31
  0
LINE
  5
352
100
AcDbEntity
  8
0
100
AcDbLine
 62
7
  6
CONTINUOUS
 10
143.4883514725
 20
114.2266667461
 11
143.4883514725
 21
113.6433332539
  0
LINE
  5
353
100
AcDbEntity
  8
0
100
AcDbLine
 62
7
  6
CONTINUOUS
 10
145.2755855404
 20
116.31
 11
145.2755855404
 21
114.8933333731
  0
LINE
  5
354
100
AcDbEntity
  8
0
100
AcDbLine
 62
7
  6
CONTINUOUS
 10
147.4883514725
 20
114.81
 11
147.4032450996
 21
114.3933332539
  0
LINE
  5
355
100
AcDbEntity
  8
0
100
AcDbLine
 62
7
  6
CONTINUOUS
 10
147.0628196083
 20
114.7266667461
 11
146.9777132355
 21
114.4766667461
  0
LINE
  5
356
100
AcDbEntity
  8
0
100
AcDbLine
 62
7
  6
CONTINUOUS
 10
121.8253727947
 20
113.4033332539
 11
121.3998408113
 21
113.32
  0
LINE
  5
357
100
AcDbEntity
  8
0
100
AcDbLine
 62
7
  6
CONTINUOUS
 10
121.3147344385
 20
114.07
 11
121.6551599298
 21
114.07
  0
LINE
  5
358
100
AcDbEntity
  8
0
100
AcDbLine
 62
7
  6
CONTINUOUS
 10
146.2968620144
 20
114.2266667461
 11
146.5521813713
 21
114.2266667461
  0
LINE
  5
359
100
AcDbEntity
  8
0
100
AcDbLine
 62
7
  6
CONTINUOUS
 10
123.7828196083
 20
114.2366667461
 11
124.2083514725
 21
114.2366667461
  0
LINE
  5
35A
100
AcDbEntity
  8
0
100
AcDbLine
 62
7
  6
CONTINUOUS
 10
121.3998408113
 20
114.4866667461
 11
121.570053557
 21
114.4866667461
  0
LINE
  5
35B
100
AcDbEntity
  8
0
100
AcDbLine
 62
7
  6
CONTINUOUS
 10
138.7489897691
 20
116.31
 11
142.2383514725
 21
116.31
  0
LINE
  5
35C
100
AcDbEntity
  8
0
100
AcDbLine
 62
7
  6
CONTINUOUS
 10
143.4883514725
 20
116.31
 11
145.2755855404
 21
116.31
  0
LINE
  5
35D
100
AcDbEntity
  8
0
100
AcDbLine
 62
7
  6
CONTINUOUS
 10
145.7862237774
 20
116.31
 11
147.0628196083
 21
116.31
  0
LINE
  5
35E
100
AcDbEntity
  8
0
100
AcDbLine
 62
7
  6
CONTINUOUS
 10
122.4211174046
 20
116.6533333433
 11
123.7828196083
 21
116.6533333433
  0
LINE
  5
35F
100
AcDbEntity
  8
0
100
AcDbLine
 62
7
  6
CONTINUOUS
 10
138.2383514725
 20
116.81
 11
142.2383514725
 21
116.81
  0
LINE
  5
360
100
AcDbEntity
  8
0
100
AcDbLine
 62
7
  6
CONTINUOUS
 10
143.4883514725
 20
116.81
 11
147.4883514725
 21
116.81
  0
LINE
  5
361
100
AcDbEntity
  8
0
100
AcDbLine
 62
7
  6
CONTINUOUS
 10
145.7862237774
 20
116.31
 11
145.7862237774
 21
114.7266667461
  0
LINE
  5
362
100
AcDbEntity
  8
0
100
AcDbLine
 62
7
  6
CONTINUOUS
 10
147.0628196083
 20
116.31
 11
147.0628196083
 21
114.7266667461
  0
LINE
  5
363
100
AcDbEntity
  8
0
100
AcDbLine
 62
7
  6
CONTINUOUS
 10
147.4883514725
 20
116.81
 11
147.4883514725
 21
114.81
  0
LINE
  5
364
100
AcDbEntity
  8
0
100
AcDbLine
 62
7
  6
CONTINUOUS
 10
121.9955855404
 20
117.07
 11
124.2083514725
 21
117.07
  0
LINE
  5
365
100
AcDbEntity
  8
0
100
AcDbLine
 62
7
  6
CONTINUOUS
 10
118.7883514725
 20
118.53
 11
130.7883514725
 21
118.53
  0
LINE
  5
366
100
AcDbEntity
  8
0
100
AcDbLine
 62
7
  6
CONTINUOUS
 10
136.7883514725
 20
118.53
 11
148.7883514725
 21
118.53
  0
LINE
  5
367
100
AcDbEntity
  8
0
100
AcDbLine
 62
7
  6
CONTINUOUS
 10
145.9564365231
 20
113.81
 11
146.2117556416
 21
113.7266667461
  0
LINE
  5
368
100
AcDbEntity
  8
0
100
AcDbLine
 62
7
  6
CONTINUOUS
 10
146.0415428959
 20
114.31
 11
146.2968620144
 21
114.2266667461
  0
LINE
  5
369
100
AcDbEntity
  8
0
100
AcDbLine
 62
7
  6
CONTINUOUS
 10
145.6160110317
 20
114.06
 11
145.9564365231
 21
113.81
  0
LINE
  5
36A
100
AcDbEntity
  8
0
100
AcDbLine
 62
7
  6
CONTINUOUS
 10
145.4457982861
 20
114.3933332539
 11
145.6160110317
 21
114.06
  0
LINE
  5
36B
100
AcDbEntity
  8
0
100
AcDbLine
 62
7
  6
CONTINUOUS
 10
145.7862237774
 20
114.7266667461
 11
145.8713301502
 21
114.4766667461
  0
LINE
  5
36C
100
AcDbEntity
  8
0
100
AcDbLine
 62
7
  6
CONTINUOUS
 10
148.7883514725
 20
118.53
 11
148.7883514725
 21
113.03
  0
LINE
  5
36D
100
AcDbEntity
  8
0
100
AcDbLine
 62
7
  6
CONTINUOUS
 10
148.7883514725
 20
97.03
 11
148.7883514725
 21
91.53
  0
LINE
  5
36E
100
AcDbEntity
  8
0
100
AcDbLine
 62
7
  6
CONTINUOUS
 10
145.8713301502
 20
114.4766667461
 11
146.0415428959
 21
114.31
  0
LINE
  5
36F
100
AcDbEntity
  8
KONSTRUKTIONSELEMENTE
100
AcDbLine
 62
7
  6
CONTINUOUS
 10
153.7883514725
 20
123.1336099666
 11
153.7883514725
 21
122.0977545047
  0
LINE
  5
370
100
AcDbEntity
  8
0
100
AcDbLine
 62
7
  6
CONTINUOUS
 10
153.7883514725
 20
122.0977545047
 11
153.7883514725
 21
113.03
  0
LINE
  5
371
100
AcDbEntity
  8
0
100
AcDbLine
 62
7
  6
CONTINUOUS
 10
153.7883514725
 20
97.03
 11
153.7883514725
 21
86.9263900334
  0
LINE
  5
372
100
AcDbEntity
  8
KONSTRUKTIONSELEMENTE
100
AcDbLine
 62
7
  6
CONTINUOUS
 10
115.2883514725
 20
124.2382720929
 11
152.2883514725
 21
124.2382720929
  0
LINE
  5
373
100
AcDbEntity
  8
0
100
AcDbLine
 62
7
  6
CONTINUOUS
 10
163.3683514725
 20
97.03
 11
163.3683514725
 21
96.53
  0
LINE
  5
374
100
AcDbEntity
  8
0
100
AcDbLine
 62
7
  6
CONTINUOUS
 10
167.2762461225
 20
97.03
 11
167.2762461225
 21
96.53
  0
LINE
  5
375
100
AcDbEntity
  8
0
100
AcDbLine
 62
7
  6
CONTINUOUS
 10
167.8091408475
 20
97.0571961726
 11
167.8091408475
 21
96.53
  0
LINE
  5
376
100
AcDbEntity
  8
0
100
AcDbLine
 62
7
  6
CONTINUOUS
 10
168.6972987225
 20
97.2326188146
 11
168.6972987225
 21
96.53
  0
LINE
  5
377
100
AcDbEntity
  8
BEZUGSACHSEN
100
AcDbLine
 62
7
  6
CONTINUOUS
 10
172.2883509725
 20
102.03
 11
172.2883509725
 21
108.03
  0
ARC
  5
378
100
AcDbEntity
  8
RUNDUNGEN
100
AcDbCircle
 62
7
  6
CONTINUOUS
 10
117.2883519725
 20
196.6118857935
 40
6.0
100
AcDbArc
 50
179.9999998003
 51
234.3145325721
  0
ARC
  5
379
100
AcDbEntity
  8
BEZUGSACHSEN
100
AcDbCircle
 62
7
  6
CONTINUOUS
 10
100.2883519725
 20
179.6118857935
 40
5.0
100
AcDbArc
 50
180.0
 51
270.0
  0
ARC
  5
37A
100
AcDbEntity
  8
BEZUGSACHSEN
100
AcDbCircle
 62
7
  6
CONTINUOUS
 10
119.4883514725
 20
205.6618857935
 40
2.3
100
AcDbArc
 50
270.0
 51
60.2018032089
  0
ARC
  5
37B
100
AcDbEntity
  8
RUNDUNGEN
100
AcDbCircle
 62
7
  6
CONTINUOUS
 10
119.4883514725
 20
205.6618857935
 40
2.3
100
AcDbArc
 50
270.0
 51
60.2018032089
  0
ARC
  5
37C
100
AcDbEntity
  8
RUNDUNGEN
100
AcDbCircle
 62
7
  6
CONTINUOUS
 10
113.2883519725
 20
201.3618857935
 40
2.0
100
AcDbArc
 50
90.0
 51
180.0
  0
ARC
  5
37D
100
AcDbEntity
  8
0
100
AcDbCircle
 62
7
  6
CONTINUOUS
 10
115.2883514725
 20
200.1118857935
 40
1.5
100
AcDbArc
 50
90.0
 51
180.0
  0
ARC
  5
37E
100
AcDbEntity
  8
RUNDUNGEN
100
AcDbCircle
 62
7
  6
CONTINUOUS
 10
129.5763684782
 20
223.277841995
 40
18.0
100
AcDbArc
 50
200.6102911233
 51
240.2018032089
  0
ARC
  5
37F
100
AcDbEntity
  8
BEZUGSACHSEN
100
AcDbCircle
 62
7
  6
CONTINUOUS
 10
102.3936149725
 20
224.8618857935
 40
7.105263
100
AcDbArc
 50
157.5
 51
180.0
  0
ARC
  5
380
100
AcDbEntity
  8
BEZUGSACHSEN
100
AcDbCircle
 62
7
  6
CONTINUOUS
 10
111.5889203998
 20
247.0613168663
 40
7.105263
100
AcDbArc
 50
112.5
 51
156.4523294213
  0
ARC
  5
381
100
AcDbEntity
  8
RUNDUNGEN
100
AcDbCircle
 62
7
  6
CONTINUOUS
 10
111.5889203998
 20
247.0613168663
 40
7.105263
100
AcDbArc
 50
112.5
 51
157.5
  0
ARC
  5
382
100
AcDbEntity
  8
RUNDUNGEN
100
AcDbCircle
 62
7
  6
CONTINUOUS
 10
102.3936149725
 20
224.8618857935
 40
7.105263
100
AcDbArc
 50
157.5
 51
180.0
  0
ARC
  5
383
100
AcDbEntity
  8
BEZUGSACHSEN
100
AcDbCircle
 62
7
  6
CONTINUOUS
 10
150.2883509725
 20
196.6118857935
 40
6.0
100
AcDbArc
 50
305.6854674278
 51
0.0000001997
  0
ARC
  5
384
100
AcDbEntity
  8
BEZUGSACHSEN
100
AcDbCircle
 62
7
  6
CONTINUOUS
 10
167.2883509725
 20
179.6118857935
 40
5.0
100
AcDbArc
 50
270.0
 51
360.0
  0
ARC
  5
385
100
AcDbEntity
  8
BEZUGSACHSEN
100
AcDbCircle
 62
7
  6
CONTINUOUS
 10
148.0883514725
 20
205.6618857935
 40
2.3
100
AcDbArc
 50
119.7981967911
 51
270.0
  0
ARC
  5
386
100
AcDbEntity
  8
0
100
AcDbCircle
 62
7
  6
CONTINUOUS
 10
165.4999303725
 20
198.9913596435
 40
2.1315789
100
AcDbArc
 50
90.0
 51
270.0
  0
ARC
  5
387
100
AcDbEntity
  8
BEZUGSACHSEN
100
AcDbCircle
 62
7
  6
CONTINUOUS
 10
154.2883509725
 20
201.3618857935
 40
2.0
100
AcDbArc
 50
0.0
 51
90.0
  0
ARC
  5
388
100
AcDbEntity
  8
0
100
AcDbCircle
 62
7
  6
CONTINUOUS
 10
165.3222987975
 20
193.3900439785
 40
1.953947325
100
AcDbArc
 50
180.0
 51
270.0
  0
ARC
  5
389
100
AcDbEntity
  8
0
100
AcDbCircle
 62
7
  6
CONTINUOUS
 10
166.7433513975
 20
193.3900439785
 40
1.953947325
100
AcDbArc
 50
270.0
 51
360.0
  0
ARC
  5
38A
100
AcDbEntity
  8
0
100
AcDbCircle
 62
7
  6
CONTINUOUS
 10
167.1459829675
 20
203.7400437485
 40
1.551315755
100
AcDbArc
 50
201.1872687082
 51
360.0
  0
ARC
  5
38B
100
AcDbEntity
  8
0
100
AcDbCircle
 62
7
  6
CONTINUOUS
 10
152.2883514725
 20
200.1118857935
 40
1.5
100
AcDbArc
 50
0.0
 51
90.0
  0
ARC
  5
38C
100
AcDbEntity
  8
0
100
AcDbCircle
 62
7
  6
CONTINUOUS
 10
166.6959829775
 20
193.6192301361
 40
1.11315787
100
AcDbArc
 50
270.3792655671
 51
360.0
  0
ARC
  5
38D
100
AcDbEntity
  8
0
100
AcDbCircle
 62
7
  6
CONTINUOUS
 10
165.3696672175
 20
193.6192545235
 40
1.11315787
100
AcDbArc
 50
180.0
 51
270.0
  0
ARC
  5
38E
100
AcDbEntity
  8
0
100
AcDbCircle
 62
7
  6
CONTINUOUS
 10
165.4999303725
 20
198.9913596435
 40
1.06578945
100
AcDbArc
 50
90.0
 51
270.0
  0
ARC
  5
38F
100
AcDbEntity
  8
0
100
AcDbCircle
 62
7
  6
CONTINUOUS
 10
164.7065093375
 20
204.6571634
 40
0.888157875
100
AcDbArc
 50
300.0
 51
360.0
  0
ARC
  5
390
100
AcDbEntity
  8
0
100
AcDbCircle
 62
7
  6
CONTINUOUS
 10
167.1459829675
 20
204.0953068985
 40
0.66315788
100
AcDbArc
 50
180.0
 51
360.0
  0
ARC
  5
391
100
AcDbEntity
  8
RUNDUNGEN
100
AcDbCircle
 62
7
  6
CONTINUOUS
 10
133.7883514725
 20
224.8618857935
 40
22.4999995
100
AcDbArc
 50
180.0000259778
 51
200.6102911233
  0
ARC
  5
392
100
AcDbEntity
  8
BEZUGSACHSEN
100
AcDbCircle
 62
7
  6
CONTINUOUS
 10
133.7883514725
 20
224.8618857935
 40
22.4999995
100
AcDbArc
 50
339.3897088767
 51
180.0000000917
  0
ARC
  5
393
100
AcDbEntity
  8
BEZUGSACHSEN
100
AcDbCircle
 62
7
  6
CONTINUOUS
 10
138.0003344668
 20
223.277841995
 40
18.0
100
AcDbArc
 50
299.7981967911
 51
339.3897088767
  0
ARC
  5
394
100
AcDbEntity
  8
BEZUGSACHSEN
100
AcDbCircle
 62
7
  6
CONTINUOUS
 10
165.1830879725
 20
224.8618857935
 40
7.105263
100
AcDbArc
 50
0.0
 51
22.5
  0
ARC
  5
395
100
AcDbEntity
  8
BEZUGSACHSEN
100
AcDbCircle
 62
7
  6
CONTINUOUS
 10
155.9877825452
 20
247.0613168663
 40
7.105263
100
AcDbArc
 50
22.5
 51
67.5
  0
ARC
  5
396
100
AcDbEntity
  8
BEZUGSACHSEN
100
AcDbCircle
 62
7
  6
CONTINUOUS
 10
133.7883514725
 20
256.2566222935
 40
7.105263
100
AcDbArc
 50
67.5
 51
112.5
  0
ARC
  5
397
100
AcDbEntity
  8
0
100
AcDbCircle
 62
7
  6
CONTINUOUS
 10
262.4636862929
 20
182.6118857935
 40
19.0
100
AcDbArc
 50
12.7609155037
 51
65.0989356121
  0
ARC
  5
398
100
AcDbEntity
  8
0
100
AcDbCircle
 62
7
  6
CONTINUOUS
 10
262.4636862929
 20
182.6118857935
 40
19.0
100
AcDbArc
 50
114.9011113071
 51
167.2390844963
  0
ARC
  5
399
100
AcDbEntity
  8
RUNDUNGEN
100
AcDbCircle
 62
7
  6
CONTINUOUS
 10
262.4636862929
 20
182.6118857935
 40
9.0
100
AcDbArc
 50
152.8419840045
 51
166.0
  0
ARC
  5
39A
100
AcDbEntity
  8
RUNDUNGEN
100
AcDbCircle
 62
7
  6
CONTINUOUS
 10
262.4636862929
 20
182.6118857935
 40
9.0
100
AcDbArc
 50
14.0
 51
27.158015987
  0
ARC
  5
39B
100
AcDbEntity
  8
0
100
AcDbCircle
 62
7
  6
CONTINUOUS
 10
262.4636862929
 20
182.6118857935
 40
8.5
100
AcDbArc
 50
322.6
 51
19.4221145418
  0
ARC
  5
39C
100
AcDbEntity
  8
0
100
AcDbCircle
 62
7
  6
CONTINUOUS
 10
262.4636862929
 20
182.6118857935
 40
8.5
100
AcDbArc
 50
160.5778854582
 51
217.4
  0
ARC
  5
39D
100
AcDbEntity
  8
BEZUGSACHSEN
100
AcDbCircle
 62
7
  6
CONTINUOUS
 10
262.4636862929
 20
182.6118857935
 40
8.0
100
AcDbArc
 50
180.0
 51
360.0
  0
ARC
  5
39E
100
AcDbEntity
  8
BEZUGSACHSEN
100
AcDbCircle
 62
7
  6
CONTINUOUS
 10
259.4636862929
 20
258.3618852935
 40
5.0
100
AcDbArc
 50
90.0
 51
180.0
  0
ARC
  5
39F
100
AcDbEntity
  8
BEZUGSACHSEN
100
AcDbCircle
 62
7
  6
CONTINUOUS
 10
265.4636862929
 20
258.3618852935
 40
5.0
100
AcDbArc
 50
0.0
 51
90.0
  0
ARC
  5
3A0
100
AcDbEntity
  8
0
100
AcDbCircle
 62
7
  6
CONTINUOUS
 10
270.4078324983
 20
176.5381273963
 40
2.0
100
AcDbArc
 50
142.6
 51
329.2252416191
  0
ARC
  5
3A1
100
AcDbEntity
  8
0
100
AcDbCircle
 62
7
  6
CONTINUOUS
 10
254.5195400876
 20
176.5381273963
 40
2.0
100
AcDbArc
 50
210.7747583809
 51
37.4
  0
ARC
  5
3A2
100
AcDbEntity
  8
0
100
AcDbCircle
 62
7
  6
CONTINUOUS
 10
254.5195400876
 20
176.5381273963
 40
1.5
100
AcDbArc
 50
210.7747583809
 51
37.4
  0
ARC
  5
3A3
100
AcDbEntity
  8
0
100
AcDbCircle
 62
7
  6
CONTINUOUS
 10
270.4078324983
 20
176.5381273963
 40
1.5
100
AcDbArc
 50
142.6
 51
329.2252416191
  0
ARC
  5
3A4
100
AcDbEntity
  8
RUNDUNGEN
100
AcDbCircle
 62
7
  6
CONTINUOUS
 10
100.2883519725
 20
102.03
 40
5.0
100
AcDbArc
 50
180.0
 51
270.0
  0
ARC
  5
3A5
100
AcDbEntity
  8
BEZUGSACHSEN
100
AcDbCircle
 62
7
  6
CONTINUOUS
 10
100.2883519725
 20
108.03
 40
5.0
100
AcDbArc
 50
90.0
 51
180.0
  0
ARC
  5
3A6
100
AcDbEntity
  8
BEZUGSACHSEN
100
AcDbCircle
 62
7
  6
CONTINUOUS
 10
167.2883509725
 20
102.03
 40
5.0
100
AcDbArc
 50
270.0
 51
360.0
  0
ARC
  5
3A7
100
AcDbEntity
  8
BEZUGSACHSEN
100
AcDbCircle
 62
7
  6
CONTINUOUS
 10
167.2883509725
 20
108.03
 40
5.0
100
AcDbArc
 50
0.0
 51
90.0
  0
ELLIPSE
  5
3A8
100
AcDbEntity
  8
RUNDUNGEN
100
AcDbEllipse
 62
7
  6
CONTINUOUS
 10
117.2883514725
 20
175.0382703683
 30
0.0
 11
0.0
 21
8.4743462243
 31
0.0
 40
0.4130112114
 41
-4.7123889804
 42
-4.5432659574
  0
ELLIPSE
  5
3A9
100
AcDbEntity
  8
0
100
AcDbEllipse
 62
7
  6
CONTINUOUS
 10
124.1300536095
 20
182.6118857935
 30
0.0
 11
-0.0
 21
19.0
 31
0.0
 40
0.1702127457
 41
-0.0242128921
 42
-0.0000000976
  0
ELLIPSE
  5
3AA
100
AcDbEntity
  8
0
100
AcDbEllipse
 62
7
  6
CONTINUOUS
 10
120.2866493423
 20
182.6118857935
 30
0.0
 11
0.0
 21
19.0
 31
0.0
 40
0.1702127606
 41
0.0000000976
 42
0.0242128921
  0
ELLIPSE
  5
3AB
100
AcDbEntity
  8
RUNDUNGEN
100
AcDbEllipse
 62
7
  6
CONTINUOUS
 10
150.2883514725
 20
175.0382703683
 30
0.0
 11
0.0
 21
8.4743462243
 31
0.0
 40
0.4130112114
 41
-1.7399193498
 42
-1.5707963268
  0
ELLIPSE
  5
3AC
100
AcDbEntity
  8
0
100
AcDbEllipse
 62
7
  6
CONTINUOUS
 10
117.5693677659
 20
182.6118857935
 30
0.0
 11
0.0
 21
19.0
 31
0.0
 40
0.4085112845
 41
-0.4178424535
 42
-0.393972582
  0
ELLIPSE
  5
3AD
100
AcDbEntity
  8
0
100
AcDbEllipse
 62
7
  6
CONTINUOUS
 10
112.8449463163
 20
182.6118857935
 30
0.0
 11
19.4042575359
 21
-0.0
 31
0.0
 40
0.9791665548
 41
1.1385105896
 42
1.1529538733
  0
ELLIPSE
  5
3AE
100
AcDbEntity
  8
0
100
AcDbEllipse
 62
7
  6
CONTINUOUS
 10
104.7157115244
 20
182.6118857935
 30
0.0
 11
38.8082099288
 21
-0.0
 31
0.0
 40
0.4895871269
 41
1.1336748374
 42
1.1385105896
  0
ELLIPSE
  5
3AF
100
AcDbEntity
  8
0
100
AcDbEllipse
 62
7
  6
CONTINUOUS
 10
129.4662504721
 20
182.6118857935
 30
0.0
 11
29.1064905414
 21
0.0
 31
0.0
 40
0.6527753654
 41
1.8213028838
 42
1.8303680368
  0
ELLIPSE
  5
3B0
100
AcDbEntity
  8
0
100
AcDbEllipse
 62
7
  6
CONTINUOUS
 10
125.4577127872
 20
182.6118857935
 30
0.0
 11
0.0
 21
19.0
 31
0.0
 40
0.6808509827
 41
6.5201331443
 42
6.5336918642
  0
ELLIPSE
  5
3B1
100
AcDbEntity
  8
0
100
AcDbEllipse
 62
7
  6
CONTINUOUS
 10
123.5598385011
 20
182.6118857935
 30
0.0
 11
-0.0
 21
19.0
 31
0.0
 40
0.2553186315
 41
0.2189378483
 42
0.2369478371
  0
ELLIPSE
  5
3B2
100
AcDbEntity
  8
0
100
AcDbEllipse
 62
7
  6
CONTINUOUS
 10
119.5802686725
 20
182.6118857935
 30
0.0
 11
0.0
 21
19.0
 31
0.0
 40
0.2553186315
 41
-0.2369478371
 42
-0.2189378483
  0
ELLIPSE
  5
3B3
100
AcDbEntity
  8
0
100
AcDbEllipse
 62
7
  6
CONTINUOUS
 10
117.6823943864
 20
182.6118857935
 30
0.0
 11
0.0
 21
19.0
 31
0.0
 40
0.6808509827
 41
-0.250506557
 42
-0.2369478371
  0
ELLIPSE
  5
3B4
100
AcDbEntity
  8
0
100
AcDbEllipse
 62
7
  6
CONTINUOUS
 10
113.6738550171
 20
182.6118857935
 30
0.0
 11
29.1064973364
 21
-0.0
 31
0.0
 40
0.6527752131
 41
1.3112246168
 42
1.3202897698
  0
ELLIPSE
  5
3B5
100
AcDbEntity
  8
0
100
AcDbEllipse
 62
7
  6
CONTINUOUS
 10
118.0908916405
 20
182.6118857935
 30
0.0
 11
116.4259893455
 21
0.0
 31
0.0
 40
0.1631938033
 41
7.8211687453
 42
7.8255567537
  0
ELLIPSE
  5
3B6
100
AcDbEntity
  8
0
100
AcDbEllipse
 62
7
  6
CONTINUOUS
 10
120.5726059819
 20
182.6118857935
 30
0.0
 11
29.1064106645
 21
0.0
 31
0.0
 40
0.6527771569
 41
7.8255567537
 42
7.8431042098
  0
ELLIPSE
  5
3B7
100
AcDbEntity
  8
0
100
AcDbEllipse
 62
7
  6
CONTINUOUS
 10
120.7484930952
 20
182.6118857935
 30
0.0
 11
0.0
 21
19.0
 31
0.0
 40
0.6808509827
 41
6.272307883
 42
6.2831852813
  0
ELLIPSE
  5
3B8
100
AcDbEntity
  8
0
100
AcDbEllipse
 62
7
  6
CONTINUOUS
 10
120.5399260323
 20
182.6118857935
 30
0.0
 11
-0.0
 21
19.0
 31
0.0
 40
0.204255139
 41
-0.0461567549
 42
-0.0242128921
  0
ELLIPSE
  5
3B9
100
AcDbEntity
  8
0
100
AcDbEllipse
 62
7
  6
CONTINUOUS
 10
120.1221101912
 20
182.6118857935
 30
0.0
 11
0.0
 21
19.0
 31
0.0
 40
0.6808509827
 41
-0.059333069
 42
-0.0461567549
  0
ELLIPSE
  5
3BA
100
AcDbEntity
  8
0
100
AcDbEllipse
 62
7
  6
CONTINUOUS
 10
119.1632429392
 20
182.6118857935
 30
0.0
 11
29.1064106645
 21
-0.0
 31
0.0
 40
0.6527771569
 41
1.4938783982
 42
1.5114632578
  0
ELLIPSE
  5
3BB
100
AcDbEntity
  8
0
100
AcDbEllipse
 62
7
  6
CONTINUOUS
 10
112.4534226827
 20
182.6118857935
 30
0.0
 11
116.4259893455
 21
-0.0
 31
0.0
 40
0.1631938033
 41
1.4894786834
 42
1.4938783982
  0
ELLIPSE
  5
3BC
100
AcDbEntity
  8
0
100
AcDbEllipse
 62
7
  6
CONTINUOUS
 10
131.9632780545
 20
182.6118857935
 30
0.0
 11
116.4259621657
 21
0.0
 31
0.0
 40
0.1631938414
 41
1.6477142554
 42
1.6521139702
  0
ELLIPSE
  5
3BD
100
AcDbEntity
  8
0
100
AcDbEllipse
 62
7
  6
CONTINUOUS
 10
125.2534606697
 20
182.6118857935
 30
0.0
 11
29.1064208569
 21
-0.0
 31
0.0
 40
0.6527769283
 41
7.913314703
 42
7.9308995626
  0
ELLIPSE
  5
3BE
100
AcDbEntity
  8
0
100
AcDbEllipse
 62
7
  6
CONTINUOUS
 10
124.2945928134
 20
182.6118857935
 30
0.0
 11
0.0
 21
19.0
 31
0.0
 40
0.6808509827
 41
0.0461567549
 42
0.059333069
  0
ELLIPSE
  5
3BF
100
AcDbEntity
  8
0
100
AcDbEllipse
 62
7
  6
CONTINUOUS
 10
123.8767769722
 20
182.6118857935
 30
0.0
 11
0.0
 21
19.0
 31
0.0
 40
0.204255139
 41
0.0242128921
 42
0.0461567549
  0
ELLIPSE
  5
3C0
100
AcDbEntity
  8
0
100
AcDbEllipse
 62
7
  6
CONTINUOUS
 10
123.6682099093
 20
182.6118857935
 30
0.0
 11
0.0
 21
19.0
 31
0.0
 40
0.6808509827
 41
0.0000000259
 42
0.0108774242
  0
ELLIPSE
  5
3C1
100
AcDbEntity
  8
0
100
AcDbEllipse
 62
7
  6
CONTINUOUS
 10
123.8440971335
 20
182.6118857935
 30
0.0
 11
29.1064208569
 21
0.0
 31
0.0
 40
0.6527769283
 41
1.581673751
 42
1.599221207
  0
ELLIPSE
  5
3C2
100
AcDbEntity
  8
0
100
AcDbEllipse
 62
7
  6
CONTINUOUS
 10
126.3258104128
 20
182.6118857935
 30
0.0
 11
116.4259621657
 21
-0.0
 31
0.0
 40
0.1631938414
 41
1.599221207
 42
1.6036092155
  0
ELLIPSE
  5
3C3
100
AcDbEntity
  8
0
100
AcDbEllipse
 62
7
  6
CONTINUOUS
 10
140.1005160873
 20
182.6118857935
 30
0.0
 11
31.8229987018
 21
-0.0
 31
0.0
 40
0.5970524707
 41
8.3955010686
 42
8.5292254997
  0
ELLIPSE
  5
3C4
100
AcDbEntity
  8
0
100
AcDbEllipse
 62
7
  6
CONTINUOUS
 10
136.9775847045
 20
182.6118857935
 30
0.0
 11
38.8082133263
 21
-0.0
 31
0.0
 40
0.4895870841
 41
8.2959497163
 42
8.3008075612
  0
ELLIPSE
  5
3C5
100
AcDbEntity
  8
0
100
AcDbEllipse
 62
7
  6
CONTINUOUS
 10
145.2776670108
 20
182.6118857935
 30
0.0
 11
58.2136574803
 21
0.0
 31
0.0
 40
0.3263838904
 41
8.2911031234
 42
8.2959497163
  0
ELLIPSE
  5
3C6
100
AcDbEntity
  8
0
100
AcDbEllipse
 62
7
  6
CONTINUOUS
 10
121.9428163568
 20
182.6118857935
 30
0.0
 11
0.0
 21
19.0
 31
0.0
 40
0.2553186539
 41
0.3469168975
 42
0.3656366084
  0
ELLIPSE
  5
3C7
100
AcDbEntity
  8
0
100
AcDbEllipse
 62
7
  6
CONTINUOUS
 10
123.5921937362
 20
182.6118857935
 30
0.0
 11
0.0
 21
19.0
 31
0.0
 40
0.5106402296
 41
0.337604855
 42
0.3469168975
  0
ELLIPSE
  5
3C8
100
AcDbEntity
  8
0
100
AcDbEllipse
 62
7
  6
CONTINUOUS
 10
126.8057992841
 20
182.6118857935
 30
0.0
 11
19.4042564034
 21
0.0
 31
0.0
 40
0.979166612
 41
1.8944896168
 42
1.9084011818
  0
ELLIPSE
  5
3C9
100
AcDbEntity
  8
0
100
AcDbEllipse
 62
7
  6
CONTINUOUS
 10
145.321358597
 20
182.6118857935
 30
0.0
 11
77.6164334474
 21
-0.0
 31
0.0
 40
0.2447935206
 41
1.8898669321
 42
1.8944896168
  0
ELLIPSE
  5
3CA
100
AcDbEntity
  8
0
100
AcDbEllipse
 62
7
  6
CONTINUOUS
 10
109.0559660568
 20
182.6118857935
 30
0.0
 11
38.8086540552
 21
0.0
 31
0.0
 40
0.4895815241
 41
1.2424732778
 42
1.2517257215
  0
ELLIPSE
  5
3CB
100
AcDbEntity
  8
0
100
AcDbEllipse
 62
7
  6
CONTINUOUS
 10
115.3130770304
 20
182.6118857935
 30
0.0
 11
19.4041185542
 21
0.0
 31
0.0
 40
0.9791735681
 41
1.2331914718
 42
1.2424732778
  0
ELLIPSE
  5
3CC
100
AcDbEntity
  8
0
100
AcDbEllipse
 62
7
  6
CONTINUOUS
 10
118.5266372
 20
182.6118857935
 30
0.0
 11
-0.0
 21
19.0
 31
0.0
 40
0.5106401849
 41
-0.3562603978
 42
-0.337604855
  0
ELLIPSE
  5
3CD
100
AcDbEntity
  8
0
100
AcDbEllipse
 62
7
  6
CONTINUOUS
 10
120.7825361478
 20
182.6118857935
 30
0.0
 11
0.0
 21
19.0
 31
0.0
 40
0.1702127457
 41
-0.3844913648
 42
-0.3562603978
  0
ELLIPSE
  5
3CE
100
AcDbEntity
  8
0
100
AcDbEllipse
 62
7
  6
CONTINUOUS
 10
138.6797148274
 20
182.6118857935
 30
0.0
 11
38.8082099288
 21
0.0
 31
0.0
 40
0.4895871269
 41
2.003082064
 42
2.0079178162
  0
ELLIPSE
  5
3CF
100
AcDbEntity
  8
0
100
AcDbEllipse
 62
7
  6
CONTINUOUS
 10
126.4858132767
 20
182.6118857935
 30
0.0
 11
0.0
 21
19.0
 31
0.0
 40
0.5106401849
 41
0.422646456
 42
0.4322857372
  0
ELLIPSE
  5
3D0
100
AcDbEntity
  8
0
100
AcDbEllipse
 62
7
  6
CONTINUOUS
 10
124.4960071413
 20
182.6118857935
 30
0.0
 11
-0.0
 21
19.0
 31
0.0
 40
0.2553186315
 41
0.403491209
 42
0.422646456
  0
ELLIPSE
  5
3D1
100
AcDbEntity
  8
0
100
AcDbEllipse
 62
7
  6
CONTINUOUS
 10
110.2475947111
 20
182.6118857935
 30
0.0
 11
38.8082099288
 21
-0.0
 31
0.0
 40
0.4895871269
 41
1.2471030368
 42
1.2517257215
  0
ELLIPSE
  5
3D2
100
AcDbEntity
  8
0
100
AcDbEllipse
 62
7
  6
CONTINUOUS
 10
116.419391799
 20
182.6118857935
 30
0.0
 11
19.4043270276
 21
0.0
 31
0.0
 40
0.9791630482
 41
1.2378360991
 42
1.2471030368
  0
ELLIPSE
  5
3D3
100
AcDbEntity
  8
0
100
AcDbEllipse
 62
7
  6
CONTINUOUS
 10
119.5904673474
 20
182.6118857935
 30
0.0
 11
0.0
 21
19.0
 31
0.0
 40
0.5106401849
 41
-0.3422569612
 42
-0.3329602277
  0
ELLIPSE
  5
3D4
100
AcDbEntity
  8
0
100
AcDbEllipse
 62
7
  6
CONTINUOUS
 10
121.9163161399
 20
182.6118857935
 30
0.0
 11
-0.0
 21
19.0
 31
0.0
 40
0.1458964801
 41
-0.3750464916
 42
-0.3422569612
  0
ELLIPSE
  5
3D5
100
AcDbEntity
  8
0
100
AcDbEllipse
 62
7
  6
CONTINUOUS
 10
121.134307205
 20
182.6118857935
 30
0.0
 11
0.0
 21
19.0
 31
0.0
 40
0.2553186539
 41
0.1742132159
 42
0.1920557093
  0
ELLIPSE
  5
3D6
100
AcDbEntity
  8
0
100
AcDbEllipse
 62
7
  6
CONTINUOUS
 10
122.535727167
 20
182.6118857935
 30
0.0
 11
0.0
 21
19.0
 31
0.0
 40
0.6808510721
 41
0.1608683668
 42
0.1742132159
  0
ELLIPSE
  5
3D7
100
AcDbEntity
  8
0
100
AcDbEllipse
 62
7
  6
CONTINUOUS
 10
123.5717553948
 20
182.6118857935
 30
0.0
 11
19.404255271
 21
-0.0
 31
0.0
 40
0.9791666691
 41
8.0015339894
 42
8.0148500008
  0
ELLIPSE
  5
3D8
100
AcDbEntity
  8
0
100
AcDbEllipse
 62
7
  6
CONTINUOUS
 10
126.4245421195
 20
182.6118857935
 30
0.0
 11
38.8086540552
 21
-0.0
 31
0.0
 40
0.4895815241
 41
1.713915998
 42
1.7183486823
  0
ELLIPSE
  5
3D9
100
AcDbEntity
  8
0
100
AcDbEllipse
 62
7
  6
CONTINUOUS
 10
131.9598836625
 20
182.6118857935
 30
0.0
 11
77.6173217004
 21
-0.0
 31
0.0
 40
0.2447907192
 41
1.7094861435
 42
1.713915998
  0
ELLIPSE
  5
3DA
100
AcDbEntity
  8
0
100
AcDbEllipse
 62
7
  6
CONTINUOUS
 10
111.1802254494
 20
182.6118857935
 30
0.0
 11
77.6173081105
 21
-0.0
 31
0.0
 40
0.244790762
 41
1.4276766556
 42
1.4321065101
  0
ELLIPSE
  5
3DB
100
AcDbEntity
  8
0
100
AcDbEllipse
 62
7
  6
CONTINUOUS
 10
116.7155650542
 20
182.6118857935
 30
0.0
 11
38.8086540552
 21
0.0
 31
0.0
 40
0.4895815241
 41
1.4232439713
 42
1.4276766556
  0
ELLIPSE
  5
3DC
100
AcDbEntity
  8
0
100
AcDbEllipse
 62
7
  6
CONTINUOUS
 10
119.5683521118
 20
182.6118857935
 30
0.0
 11
19.404253006
 21
-0.0
 31
0.0
 40
0.9791667834
 41
1.40992796
 42
1.4232439713
  0
ELLIPSE
  5
3DD
100
AcDbEntity
  8
0
100
AcDbEllipse
 62
7
  6
CONTINUOUS
 10
120.6043802489
 20
182.6118857935
 30
0.0
 11
0.0
 21
19.0
 31
0.0
 40
0.6808509827
 41
-0.1742132159
 42
-0.1608683668
  0
ELLIPSE
  5
3DE
100
AcDbEntity
  8
0
100
AcDbEllipse
 62
7
  6
CONTINUOUS
 10
122.0057999901
 20
182.6118857935
 30
0.0
 11
-0.0
 21
19.0
 31
0.0
 40
0.2553186315
 41
-0.1920557093
 42
-0.1742132159
  0
ELLIPSE
  5
3DF
100
AcDbEntity
  8
0
100
AcDbEllipse
 62
7
  6
CONTINUOUS
 10
143.9540532301
 20
182.6118857935
 30
0.0
 11
0.0
 21
19.0
 31
0.0
 40
0.2042551568
 41
0.0982280455
 42
0.1202898824
  0
ELLIPSE
  5
3E0
100
AcDbEntity
  8
0
100
AcDbEllipse
 62
7
  6
CONTINUOUS
 10
144.5249479711
 20
182.6118857935
 30
0.0
 11
0.0
 21
19.0
 31
0.0
 40
0.510638791
 41
0.0806135994
 42
0.0982280455
  0
ELLIPSE
  5
3E1
100
AcDbEntity
  8
0
100
AcDbEllipse
 62
7
  6
CONTINUOUS
 10
145.306225253
 20
182.6118857935
 30
0.0
 11
19.4042732101
 21
-0.0
 31
0.0
 40
0.9791657639
 41
1.6338205139
 42
1.6514099262
  0
ELLIPSE
  5
3E2
100
AcDbEntity
  8
0
100
AcDbEllipse
 62
7
  6
CONTINUOUS
 10
146.5283475849
 20
182.6118857935
 30
0.0
 11
38.8084387857
 21
-0.0
 31
0.0
 40
0.4895842398
 41
1.6250334404
 42
1.6338205139
  0
ELLIPSE
  5
3E3
100
AcDbEntity
  8
0
100
AcDbEllipse
 62
7
  6
CONTINUOUS
 10
149.6841155977
 20
182.6118857935
 30
0.0
 11
97.0216351381
 21
-0.0
 31
0.0
 40
0.1958326096
 41
1.6206415428
 42
1.6250334404
  0
ELLIPSE
  5
3E4
100
AcDbEntity
  8
0
100
AcDbEllipse
 62
7
  6
CONTINUOUS
 10
141.2925845196
 20
182.6118857935
 30
0.0
 11
97.0216894977
 21
-0.0
 31
0.0
 40
0.1958324999
 41
1.5165592132
 42
1.5209511108
  0
ELLIPSE
  5
3E5
100
AcDbEntity
  8
0
100
AcDbEllipse
 62
7
  6
CONTINUOUS
 10
144.4483558476
 20
182.6118857935
 30
0.0
 11
38.8084319908
 21
0.0
 31
0.0
 40
0.4895843255
 41
1.5077721397
 42
1.5165592132
  0
ELLIPSE
  5
3E6
100
AcDbEntity
  8
0
100
AcDbEllipse
 62
7
  6
CONTINUOUS
 10
145.6704778586
 20
182.6118857935
 30
0.0
 11
19.4042715113
 21
-0.0
 31
0.0
 40
0.9791658496
 41
1.4901827274
 42
1.5077721397
  0
ELLIPSE
  5
3E7
100
AcDbEntity
  8
0
100
AcDbEllipse
 62
7
  6
CONTINUOUS
 10
146.4517551063
 20
182.6118857935
 30
0.0
 11
0.0
 21
19.0
 31
0.0
 40
0.510638724
 41
-0.0982280455
 42
-0.0806135994
  0
ELLIPSE
  5
3E8
100
AcDbEntity
  8
0
100
AcDbEllipse
 62
7
  6
CONTINUOUS
 10
147.0226497556
 20
182.6118857935
 30
0.0
 11
0.0
 21
19.0
 31
0.0
 40
0.204255139
 41
-0.1202898824
 42
-0.0982280455
  0
ELLIPSE
  5
3E9
100
AcDbEntity
  8
0
100
AcDbEllipse
 62
7
  6
CONTINUOUS
 10
144.4183485256
 20
182.6118857935
 30
0.0
 11
113.9999456406
 21
0.0
 31
0.0
 40
0.1666667461
 41
1.5899202827
 42
1.6250334404
  0
ELLIPSE
  5
3EA
100
AcDbEntity
  8
0
100
AcDbEllipse
 62
7
  6
CONTINUOUS
 10
117.3232107387
 20
182.6118857935
 30
0.0
 11
58.2129810828
 21
0.0
 31
0.0
 40
0.3263876827
 41
1.4081503603
 42
1.4125933621
  0
ELLIPSE
  5
3EB
100
AcDbEntity
  8
0
100
AcDbEllipse
 62
7
  6
CONTINUOUS
 10
124.4562941838
 20
182.6118857935
 30
0.0
 11
0.0
 21
19.0
 31
0.0
 40
0.6808512211
 41
-0.1582029647
 42
-0.1448924154
  0
ELLIPSE
  5
3EC
100
AcDbEntity
  8
0
100
AcDbEllipse
 62
7
  6
CONTINUOUS
 10
126.0674154209
 20
182.6118857935
 30
0.0
 11
0.0
 21
19.0
 31
0.0
 40
0.2042553906
 41
0.0654853987
 42
0.0874799553
  0
ELLIPSE
  5
3ED
100
AcDbEntity
  8
0
100
AcDbEllipse
 62
7
  6
CONTINUOUS
 10
126.4483512559
 20
182.6118857935
 30
0.0
 11
0.0
 21
19.0
 31
0.0
 40
0.5106380606
 41
0.0479130668
 42
0.0654853987
  0
ELLIPSE
  5
3EE
100
AcDbEntity
  8
0
100
AcDbEllipse
 62
7
  6
CONTINUOUS
 10
125.6236709869
 20
182.6118857935
 30
0.0
 11
0.0
 21
19.0
 31
0.0
 40
0.2553189968
 41
-0.1448924154
 42
-0.127184717
  0
ELLIPSE
  5
3EF
100
AcDbEntity
  8
0
100
AcDbEllipse
 62
7
  6
CONTINUOUS
 10
126.913032515
 20
182.6118857935
 30
0.0
 11
19.404259331
 21
-0.0
 31
0.0
 40
0.9791664642
 41
7.884337177
 42
7.9018947007
  0
ELLIPSE
  5
3F0
100
AcDbEntity
  8
0
100
AcDbEllipse
 62
7
  6
CONTINUOUS
 10
127.5019681488
 20
182.6118857935
 30
0.0
 11
38.8084943016
 21
-0.0
 31
0.0
 40
0.4895835394
 41
1.5923769492
 42
1.6011518699
  0
ELLIPSE
  5
3F1
100
AcDbEntity
  8
0
100
AcDbEllipse
 62
7
  6
CONTINUOUS
 10
128.7581404612
 20
182.6118857935
 30
0.0
 11
97.0213575567
 21
0.0
 31
0.0
 40
0.1958331699
 41
1.5879901606
 42
1.5923769492
  0
ELLIPSE
  5
3F2
100
AcDbEntity
  8
0
100
AcDbEllipse
 62
7
  6
CONTINUOUS
 10
126.69856143
 20
182.6118857935
 30
0.0
 11
97.0214119162
 21
-0.0
 31
0.0
 40
0.1958330602
 41
1.5492157044
 42
1.553602493
  0
ELLIPSE
  5
3F3
100
AcDbEntity
  8
0
100
AcDbEllipse
 62
7
  6
CONTINUOUS
 10
127.954735062
 20
182.6118857935
 30
0.0
 11
38.8084875066
 21
0.0
 31
0.0
 40
0.4895836251
 41
1.5404407837
 42
1.5492157044
  0
ELLIPSE
  5
3F4
100
AcDbEntity
  8
0
100
AcDbEllipse
 62
7
  6
CONTINUOUS
 10
128.5436705411
 20
182.6118857935
 30
0.0
 11
19.4042576323
 21
-0.0
 31
0.0
 40
0.9791665499
 41
1.52288326
 42
1.5404407837
  0
ELLIPSE
  5
3F5
100
AcDbEntity
  8
0
100
AcDbEllipse
 62
7
  6
CONTINUOUS
 10
129.0083517799
 20
182.6118857935
 30
0.0
 11
0.0
 21
19.0
 31
0.0
 40
0.5106379935
 41
-0.0654853987
 42
-0.0479130668
  0
ELLIPSE
  5
3F6
100
AcDbEntity
  8
0
100
AcDbEllipse
 62
7
  6
CONTINUOUS
 10
129.8330320176
 20
182.6118857935
 30
0.0
 11
-0.0
 21
19.0
 31
0.0
 40
0.2553189968
 41
0.127184717
 42
0.1448924154
  0
ELLIPSE
  5
3F7
100
AcDbEntity
  8
0
100
AcDbEllipse
 62
7
  6
CONTINUOUS
 10
129.3892875538
 20
182.6118857935
 30
0.0
 11
0.0
 21
19.0
 31
0.0
 40
0.2042553727
 41
-0.0874799553
 42
-0.0654853987
  0
ELLIPSE
  5
3F8
100
AcDbEntity
  8
0
100
AcDbEllipse
 62
7
  6
CONTINUOUS
 10
131.0004081666
 20
182.6118857935
 30
0.0
 11
0.0
 21
19.0
 31
0.0
 40
0.6808509827
 41
6.4280777226
 42
6.4413882718
  0
ELLIPSE
  5
3F9
100
AcDbEntity
  8
0
100
AcDbEllipse
 62
7
  6
CONTINUOUS
 10
138.1335008895
 20
182.6118857935
 30
0.0
 11
58.2130354425
 21
0.0
 31
0.0
 40
0.3263873779
 41
1.7289992915
 42
1.7334422933
  0
ELLIPSE
  5
3FA
100
AcDbEntity
  8
0
100
AcDbEllipse
 62
7
  6
CONTINUOUS
 10
133.9137811449
 20
182.6118857935
 30
0.0
 11
38.8082099288
 21
0.0
 31
0.0
 40
0.4895871269
 41
1.913053288
 42
1.9177132243
  0
ELLIPSE
  5
3FB
100
AcDbEntity
  8
0
100
AcDbEllipse
 62
7
  6
CONTINUOUS
 10
124.0177070659
 20
182.6118857935
 30
0.0
 11
0.0
 21
19.0
 31
0.0
 40
0.5106373524
 41
0.3469168975
 42
0.3656366084
  0
ELLIPSE
  5
3FC
100
AcDbEntity
  8
0
100
AcDbEllipse
 62
7
  6
CONTINUOUS
 10
120.6543124744
 20
182.6118857935
 30
0.0
 11
0.0
 21
19.0
 31
0.0
 40
0.510637263
 41
-0.1920557093
 42
-0.1742132159
  0
ELLIPSE
  5
3FD
100
AcDbEntity
  8
0
100
AcDbEllipse
 62
7
  6
CONTINUOUS
 10
117.2908864915
 20
182.6118857935
 30
0.0
 11
29.1064905414
 21
0.0
 31
0.0
 40
0.6527753654
 41
1.3965831109
 42
1.4054829736
  0
ELLIPSE
  5
3FE
100
AcDbEntity
  8
0
100
AcDbEllipse
 62
7
  6
CONTINUOUS
 10
112.5011906989
 20
182.6118857935
 30
0.0
 11
58.2123148932
 21
0.0
 31
0.0
 40
0.3263914179
 41
1.4054829736
 42
1.40992796
  0
ELLIPSE
  5
3FF
100
AcDbEntity
  8
0
100
AcDbEllipse
 62
7
  6
CONTINUOUS
 10
129.0849317345
 20
182.6118857935
 30
0.0
 11
48.5105467834
 21
0.0
 31
0.0
 40
0.3916674055
 41
1.7316646936
 42
1.7405579142
  0
ELLIPSE
  5
400
100
AcDbEntity
  8
0
100
AcDbEllipse
 62
7
  6
CONTINUOUS
 10
115.2883514725
 20
181.9035683263
 30
0.0
 11
-0.0
 21
1.9133309278
 31
0.0
 40
0.7839731111
 41
0.0
 42
1.5707963268
  0
ELLIPSE
  5
401
100
AcDbEntity
  8
0
100
AcDbEllipse
 62
7
  6
CONTINUOUS
 10
140.6195966256
 20
182.6118857935
 30
0.0
 11
31.0468275642
 21
-0.0
 31
0.0
 40
0.6119787911
 41
2.1277427003
 42
2.2630134718
  0
ELLIPSE
  5
402
100
AcDbEntity
  8
0
100
AcDbEllipse
 62
7
  6
CONTINUOUS
 10
152.2883514725
 20
181.9035683263
 30
0.0
 11
0.0
 21
1.9133309278
 31
0.0
 40
0.7839731111
 41
-1.5707963268
 42
0.0
  0
ELLIPSE
  5
403
100
AcDbEntity
  8
0
100
AcDbEllipse
 62
7
  6
CONTINUOUS
 10
123.0747341691
 20
182.6118857935
 30
0.0
 11
-0.0
 21
19.0
 31
0.0
 40
0.6808509827
 41
6.4529468946
 42
6.4663123995
  0
ELLIPSE
  5
404
100
AcDbEntity
  8
0
100
AcDbEllipse
 62
7
  6
CONTINUOUS
 10
121.6023947616
 20
182.6118857935
 30
0.0
 11
0.0
 21
19.0
 31
0.0
 40
0.255319362
 41
0.1831270923
 42
0.2009998043
  0
ELLIPSE
  5
405
100
AcDbEntity
  8
0
100
AcDbEllipse
 62
7
  6
CONTINUOUS
 10
104.2050703513
 20
182.6118857935
 30
0.0
 11
38.8082167237
 21
-0.0
 31
0.0
 40
0.4895870412
 41
1.1336748374
 42
1.1385105896
  0
ELLIPSE
  5
406
100
AcDbEntity
  8
0
100
AcDbEllipse
 62
7
  6
CONTINUOUS
 10
115.0440960871
 20
182.6118857935
 30
0.0
 11
-0.0
 21
19.0
 31
0.0
 40
0.6808510721
 41
-0.4322857372
 42
-0.4178424535
  0
ELLIPSE
  5
407
100
AcDbEntity
  8
0
100
AcDbEllipse
 62
7
  6
CONTINUOUS
 10
118.718646989
 20
182.6118857935
 30
0.0
 11
-0.0
 21
19.0
 31
0.0
 40
0.2042556244
 41
-0.4178424535
 42
-0.393972582
  0
ELLIPSE
  5
408
100
AcDbEntity
  8
0
100
AcDbEllipse
 62
7
  6
CONTINUOUS
 10
120.8143124749
 20
182.6118857935
 30
0.0
 11
0.0
 21
19.0
 31
0.0
 40
0.2553186315
 41
-0.3750464916
 42
-0.3562603978
  0
ELLIPSE
  5
409
100
AcDbEntity
  8
0
100
AcDbEllipse
 62
7
  6
CONTINUOUS
 10
119.1223818099
 20
182.6118857935
 30
0.0
 11
0.0
 21
19.0
 31
0.0
 40
0.5106401849
 41
-0.3562603978
 42
-0.3469168975
  0
ELLIPSE
  5
40A
100
AcDbEntity
  8
0
100
AcDbEllipse
 62
7
  6
CONTINUOUS
 10
109.2263260288
 20
182.6118857935
 30
0.0
 11
38.8082099288
 21
-0.0
 31
0.0
 40
0.4895871269
 41
1.2238794293
 42
1.2285393656
  0
ELLIPSE
  5
40B
100
AcDbEntity
  8
0
100
AcDbEllipse
 62
7
  6
CONTINUOUS
 10
120.7278407602
 20
182.6118857935
 30
0.0
 11
-0.0
 21
19.0
 31
0.0
 40
0.204255139
 41
6.2854659942
 42
6.3073981993
  0
ELLIPSE
  5
40C
100
AcDbEntity
  8
0
100
AcDbEllipse
 62
7
  6
CONTINUOUS
 10
124.2015427242
 20
182.6118857935
 30
0.0
 11
-0.0
 21
19.0
 31
0.0
 40
0.1702127457
 41
0.403491209
 42
0.4322857372
  0
ELLIPSE
  5
40D
100
AcDbEntity
  8
0
100
AcDbEllipse
 62
7
  6
CONTINUOUS
 10
128.2662230907
 20
182.6118857935
 30
0.0
 11
0.0
 21
19.0
 31
0.0
 40
0.6808509827
 41
0.4322857372
 42
0.4468259272
  0
ELLIPSE
  5
40E
100
AcDbEntity
  8
0
100
AcDbEllipse
 62
7
  6
CONTINUOUS
 10
131.0611483597
 20
182.6118857935
 30
0.0
 11
19.4043270276
 21
0.0
 31
0.0
 40
0.9791630482
 41
2.017622254
 42
2.027372029
  0
ELLIPSE
  5
40F
100
AcDbEntity
  8
0
100
AcDbEllipse
 62
7
  6
CONTINUOUS
 10
148.1707038166
 20
182.6118857935
 30
0.0
 11
58.2123148932
 21
0.0
 31
0.0
 40
0.3263914179
 41
2.027372029
 42
2.0322644661
  0
ELLIPSE
  5
410
100
AcDbEntity
  8
0
100
AcDbEllipse
 62
7
  6
CONTINUOUS
 10
164.0888708031
 20
182.6118857935
 30
0.0
 11
97.0205316169
 21
-0.0
 31
0.0
 40
0.1958348371
 41
2.0322644661
 42
2.0371688352
  0
ELLIPSE
  5
411
100
AcDbEntity
  8
0
100
AcDbEllipse
 62
7
  6
CONTINUOUS
 10
146.6393910624
 20
182.6118857935
 30
0.0
 11
58.2136540827
 21
-0.0
 31
0.0
 40
0.3263839094
 41
2.0371688352
 42
2.0420852302
  0
ELLIPSE
  5
412
100
AcDbEntity
  8
0
100
AcDbEllipse
 62
7
  6
CONTINUOUS
 10
110.7579874544
 20
182.6118857935
 30
0.0
 11
38.8091049868
 21
0.0
 31
0.0
 40
0.4895758355
 41
1.3112246168
 42
1.3157598195
  0
ELLIPSE
  5
413
100
AcDbEntity
  8
0
100
AcDbEllipse
 62
7
  6
CONTINUOUS
 10
115.6534946984
 20
182.6118857935
 30
0.0
 11
19.4041066631
 21
0.0
 31
0.0
 40
0.9791741681
 41
1.3157598195
 42
1.3248144753
  0
ELLIPSE
  5
414
100
AcDbEntity
  8
0
100
AcDbEllipse
 62
7
  6
CONTINUOUS
 10
118.0160024286
 20
182.6118857935
 30
0.0
 11
-0.0
 21
19.0
 31
0.0
 40
0.5106402296
 41
-0.2459818515
 42
-0.2369478371
  0
ELLIPSE
  5
415
100
AcDbEntity
  8
0
100
AcDbEllipse
 62
7
  6
CONTINUOUS
 10
123.6888622444
 20
182.6118857935
 30
0.0
 11
0.0
 21
19.0
 31
0.0
 40
0.204255139
 41
-0.0242128921
 42
-0.002280687
  0
ELLIPSE
  5
416
100
AcDbEntity
  8
0
100
AcDbEllipse
 62
7
  6
CONTINUOUS
 10
119.1547366565
 20
182.6118857935
 30
0.0
 11
0.0
 21
19.0
 31
0.0
 40
0.2553186539
 41
-0.2369478371
 42
-0.2189378483
  0
ELLIPSE
  5
417
100
AcDbEntity
  8
0
100
AcDbEllipse
 62
7
  6
CONTINUOUS
 10
123.9853703653
 20
182.6118857935
 30
0.0
 11
-0.0
 21
19.0
 31
0.0
 40
0.2553186315
 41
0.2189378483
 42
0.2369478371
  0
ELLIPSE
  5
418
100
AcDbEntity
  8
0
100
AcDbEllipse
 62
7
  6
CONTINUOUS
 10
125.1241044935
 20
182.6118857935
 30
0.0
 11
0.0
 21
19.0
 31
0.0
 40
0.5106401849
 41
0.2369478371
 42
0.2459818515
  0
ELLIPSE
  5
419
100
AcDbEntity
  8
0
100
AcDbEllipse
 62
7
  6
CONTINUOUS
 10
127.4866120169
 20
182.6118857935
 30
0.0
 11
19.4041049644
 21
0.0
 31
0.0
 40
0.9791742538
 41
1.8167781783
 42
1.8258328341
  0
ELLIPSE
  5
41A
100
AcDbEntity
  8
0
100
AcDbEllipse
 62
7
  6
CONTINUOUS
 10
132.3821179751
 20
182.6118857935
 30
0.0
 11
38.8090981918
 21
0.0
 31
0.0
 40
0.4895759212
 41
8.1090181412
 42
8.113553344
  0
ELLIPSE
  5
41B
100
AcDbEntity
  8
0
100
AcDbEllipse
 62
7
  6
CONTINUOUS
 10
124.2866493355
 20
182.6118857935
 30
0.0
 11
-0.0
 21
19.0
 31
0.0
 40
0.1702127457
 41
0.0242128921
 42
0.0505478387
  0
ELLIPSE
  5
41C
100
AcDbEntity
  8
0
100
AcDbEllipse
 62
7
  6
CONTINUOUS
 10
124.7114998999
 20
182.6118857935
 30
0.0
 11
-0.0
 21
19.0
 31
0.0
 40
0.6127654169
 41
0.0505478387
 42
0.0725197052
  0
ELLIPSE
  5
41D
100
AcDbEntity
  8
0
100
AcDbEllipse
 62
7
  6
CONTINUOUS
 10
125.273883585
 20
182.6118857935
 30
0.0
 11
19.404253006
 21
0.0
 31
0.0
 40
0.9791667834
 41
1.643316032
 42
1.6565153136
  0
ELLIPSE
  5
41E
100
AcDbEntity
  8
0
100
AcDbEllipse
 62
7
  6
CONTINUOUS
 10
126.9351729819
 20
182.6118857935
 30
0.0
 11
38.8086540552
 21
0.0
 31
0.0
 40
0.4895815241
 41
7.9397006208
 42
7.9485082898
  0
ELLIPSE
  5
41F
100
AcDbEntity
  8
0
100
AcDbEllipse
 62
7
  6
CONTINUOUS
 10
128.7666110391
 20
182.6118857935
 30
0.0
 11
58.2123692522
 21
0.0
 31
0.0
 40
0.3263911132
 41
1.6653229826
 42
1.669729584
  0
ELLIPSE
  5
420
100
AcDbEntity
  8
0
100
AcDbEllipse
 62
7
  6
CONTINUOUS
 10
132.599877775
 20
182.6118857935
 30
0.0
 11
97.0216351381
 21
-0.0
 31
0.0
 40
0.1958326096
 41
1.669729584
 42
1.6741380633
  0
ELLIPSE
  5
421
100
AcDbEntity
  8
0
100
AcDbEllipse
 62
7
  6
CONTINUOUS
 10
140.6195966256
 20
182.6118857935
 30
0.0
 11
29.4127840082
 21
-0.0
 31
0.0
 40
0.6119787911
 41
2.1627254797
 42
2.1927597992
  0
ELLIPSE
  5
422
100
AcDbEntity
  8
0
100
AcDbEllipse
 62
7
  6
CONTINUOUS
 10
111.8168223661
 20
182.6118857935
 30
0.0
 11
97.0216623179
 21
0.0
 31
0.0
 40
0.1958325548
 41
1.4674545903
 42
1.4718630696
  0
ELLIPSE
  5
423
100
AcDbEntity
  8
0
100
AcDbEllipse
 62
7
  6
CONTINUOUS
 10
115.6500971558
 20
182.6118857935
 30
0.0
 11
58.2123148932
 21
0.0
 31
0.0
 40
0.3263914179
 41
1.4718630696
 42
1.476269671
  0
ELLIPSE
  5
424
100
AcDbEntity
  8
0
100
AcDbEllipse
 62
7
  6
CONTINUOUS
 10
117.4815294409
 20
182.6118857935
 30
0.0
 11
38.8086608502
 21
0.0
 31
0.0
 40
0.4895814384
 41
1.476269671
 42
1.48507734
  0
ELLIPSE
  5
425
100
AcDbEntity
  8
0
100
AcDbEllipse
 62
7
  6
CONTINUOUS
 10
119.1428192256
 20
182.6118857935
 30
0.0
 11
19.404255271
 21
0.0
 31
0.0
 40
0.9791666691
 41
1.48507734
 42
1.4982766216
  0
ELLIPSE
  5
426
100
AcDbEntity
  8
0
100
AcDbEllipse
 62
7
  6
CONTINUOUS
 10
119.705203001
 20
182.6118857935
 30
0.0
 11
-0.0
 21
19.0
 31
0.0
 40
0.6127654705
 41
-0.0725197052
 42
-0.0505478387
  0
ELLIPSE
  5
427
100
AcDbEntity
  8
0
100
AcDbEllipse
 62
7
  6
CONTINUOUS
 10
119.8355788998
 20
182.6118857935
 30
0.0
 11
-0.0
 21
19.0
 31
0.0
 40
0.2553200925
 41
-0.3844913648
 42
-0.3656366084
  0
ELLIPSE
  5
428
100
AcDbEntity
  8
0
100
AcDbEllipse
 62
7
  6
CONTINUOUS
 10
120.1300536026
 20
182.6118857935
 30
0.0
 11
0.0
 21
19.0
 31
0.0
 40
0.1702127606
 41
-0.0505478387
 42
-0.0242128921
  0
ELLIPSE
  5
429
100
AcDbEntity
  8
0
100
AcDbEllipse
 62
7
  6
CONTINUOUS
 10
118.1011439414
 20
182.6118857935
 30
0.0
 11
0.0
 21
19.0
 31
0.0
 40
0.5106343412
 41
-0.3656366084
 42
-0.3562603978
  0
ELLIPSE
  5
42A
100
AcDbEntity
  8
0
100
AcDbEllipse
 62
7
  6
CONTINUOUS
 10
114.7172632491
 20
182.6118857935
 30
0.0
 11
19.4043270276
 21
-0.0
 31
0.0
 40
0.9791630482
 41
1.214535929
 42
1.2238794293
  0
ELLIPSE
  5
42B
100
AcDbEntity
  8
0
100
AcDbEllipse
 62
7
  6
CONTINUOUS
 10
101.5225473748
 20
182.6118857935
 30
0.0
 11
58.2123148932
 21
-0.0
 31
0.0
 40
0.3263914179
 41
1.2238794293
 42
1.2285393656
  0
ELLIPSE
  5
42C
100
AcDbEntity
  8
0
100
AcDbEllipse
 62
7
  6
CONTINUOUS
 10
130.4670673406
 20
182.6118857935
 30
0.0
 11
73.5317658772
 21
0.0
 31
0.0
 40
0.2447921628
 41
1.6167384036
 42
1.6213734427
  0
ELLIPSE
  5
42D
100
AcDbEntity
  8
0
100
AcDbEllipse
 62
7
  6
CONTINUOUS
 10
124.9896354851
 20
182.6118857935
 30
0.0
 11
73.5317658772
 21
-0.0
 31
0.0
 40
0.2447921628
 41
1.5202192109
 42
1.5248542499
  0
ELLIPSE
  5
42E
100
AcDbEntity
  8
0
100
AcDbEllipse
 62
7
  6
CONTINUOUS
 10
146.9709814626
 20
182.6118857935
 30
0.0
 11
91.9152847873
 21
0.0
 31
0.0
 40
0.1958324999
 41
1.7661098258
 42
1.7708313899
  0
ELLIPSE
  5
42F
100
AcDbEntity
  8
0
100
AcDbEllipse
 62
7
  6
CONTINUOUS
 10
132.7002644729
 20
182.6118857935
 30
0.0
 11
18.3829677663
 21
0.0
 31
0.0
 40
0.9791672503
 41
1.7472663863
 42
1.7661098258
  0
ELLIPSE
  5
430
100
AcDbEntity
  8
0
100
AcDbEllipse
 62
7
  6
CONTINUOUS
 10
131.0866484135
 20
182.6118857935
 30
0.0
 11
0.0
 21
18.0
 31
0.0
 40
0.5106379935
 41
0.1576897364
 42
0.1764700595
  0
ELLIPSE
  5
431
100
AcDbEntity
  8
0
100
AcDbEllipse
 62
7
  6
CONTINUOUS
 10
130.2206069207
 20
182.6118857935
 30
0.0
 11
0.0
 21
18.0
 31
0.0
 40
0.2042553727
 41
0.1342921712
 42
0.1576897364
  0
ELLIPSE
  5
432
100
AcDbEntity
  8
0
100
AcDbEllipse
 62
7
  6
CONTINUOUS
 10
125.2360959811
 20
182.6118857935
 30
0.0
 11
-0.0
 21
18.0
 31
0.0
 40
0.2042553906
 41
-0.1576897364
 42
-0.1342921712
  0
ELLIPSE
  5
433
100
AcDbEntity
  8
0
100
AcDbEllipse
 62
7
  6
CONTINUOUS
 10
124.3700543494
 20
182.6118857935
 30
0.0
 11
0.0
 21
18.0
 31
0.0
 40
0.5106380606
 41
-0.1764700595
 42
-0.1576897364
  0
ELLIPSE
  5
434
100
AcDbEntity
  8
0
100
AcDbEllipse
 62
7
  6
CONTINUOUS
 10
122.7564382193
 20
182.6118857935
 30
0.0
 11
18.3829693756
 21
-0.0
 31
0.0
 40
0.9791671646
 41
1.3754828278
 42
1.3943262673
  0
ELLIPSE
  5
435
100
AcDbEntity
  8
0
100
AcDbEllipse
 62
7
  6
CONTINUOUS
 10
108.4857290378
 20
182.6118857935
 30
0.0
 11
91.9152461634
 21
-0.0
 31
0.0
 40
0.1958325822
 41
1.3707612637
 42
1.3754828278
  0
ELLIPSE
  5
436
100
AcDbEntity
  8
0
100
AcDbEllipse
 62
7
  6
CONTINUOUS
 10
108.4857290378
 20
182.6118857935
 30
0.0
 11
97.021648728
 21
-0.0
 31
0.0
 40
0.1958325822
 41
1.3814208175
 42
1.3858847103
  0
ELLIPSE
  5
437
100
AcDbEntity
  8
0
100
AcDbEllipse
 62
7
  6
CONTINUOUS
 10
122.7564382193
 20
182.6118857935
 30
0.0
 11
19.404245452
 21
-0.0
 31
0.0
 40
0.9791671646
 41
1.3858847103
 42
1.4037040913
  0
ELLIPSE
  5
438
100
AcDbEntity
  8
0
100
AcDbEllipse
 62
7
  6
CONTINUOUS
 10
124.3700543494
 20
182.6118857935
 30
0.0
 11
0.0
 21
19.0
 31
0.0
 40
0.5106380606
 41
-0.1670922355
 42
-0.1493262574
  0
ELLIPSE
  5
439
100
AcDbEntity
  8
0
100
AcDbEllipse
 62
7
  6
CONTINUOUS
 10
125.2360959811
 20
182.6118857935
 30
0.0
 11
0.0
 21
19.0
 31
0.0
 40
0.2042553906
 41
-0.1493262574
 42
-0.127184717
  0
ELLIPSE
  5
43A
100
AcDbEntity
  8
0
100
AcDbEllipse
 62
7
  6
CONTINUOUS
 10
126.6628193037
 20
182.6118857935
 30
0.0
 11
0.0
 21
19.0
 31
0.0
 40
0.2553189968
 41
0.0698814158
 42
0.0874799553
  0
ELLIPSE
  5
43B
100
AcDbEntity
  8
0
100
AcDbEllipse
 62
7
  6
CONTINUOUS
 10
127.2273586537
 20
182.6118857935
 30
0.0
 11
-0.0
 21
19.0
 31
0.0
 40
0.6808512211
 41
0.0566970294
 42
0.0698814158
  0
ELLIPSE
  5
43C
100
AcDbEntity
  8
0
100
AcDbEllipse
 62
7
  6
CONTINUOUS
 10
128.1436717822
 20
182.6118857935
 30
0.0
 11
29.106407267
 21
-0.0
 31
0.0
 40
0.6527772331
 41
1.6187093936
 42
1.6274933561
  0
ELLIPSE
  5
43D
100
AcDbEntity
  8
0
100
AcDbEllipse
 62
7
  6
CONTINUOUS
 10
130.4670673406
 20
182.6118857935
 30
0.0
 11
77.6168639815
 21
-0.0
 31
0.0
 40
0.2447921628
 41
1.6143188292
 42
1.6187093936
  0
ELLIPSE
  5
43E
100
AcDbEntity
  8
0
100
AcDbEllipse
 62
7
  6
CONTINUOUS
 10
124.9896354851
 20
182.6118857935
 30
0.0
 11
77.6168639815
 21
-0.0
 31
0.0
 40
0.2447921628
 41
1.52288326
 42
1.5272738244
  0
ELLIPSE
  5
43F
100
AcDbEntity
  8
0
100
AcDbEllipse
 62
7
  6
CONTINUOUS
 10
127.3130297418
 20
182.6118857935
 30
0.0
 11
29.1064344467
 21
0.0
 31
0.0
 40
0.6527766235
 41
1.5140992974
 42
1.52288326
  0
ELLIPSE
  5
440
100
AcDbEntity
  8
0
100
AcDbEllipse
 62
7
  6
CONTINUOUS
 10
128.2293446672
 20
182.6118857935
 30
0.0
 11
0.0
 21
19.0
 31
0.0
 40
0.6808509827
 41
-0.0698814158
 42
-0.0566970294
  0
ELLIPSE
  5
441
100
AcDbEntity
  8
0
100
AcDbEllipse
 62
7
  6
CONTINUOUS
 10
128.7938837009
 20
182.6118857935
 30
0.0
 11
0.0
 21
19.0
 31
0.0
 40
0.2553189968
 41
-0.0874799553
 42
-0.0698814158
  0
ELLIPSE
  5
442
100
AcDbEntity
  8
0
100
AcDbEllipse
 62
7
  6
CONTINUOUS
 10
130.2206069207
 20
182.6118857935
 30
0.0
 11
0.0
 21
19.0
 31
0.0
 40
0.2042553727
 41
0.127184717
 42
0.1493262574
  0
ELLIPSE
  5
443
100
AcDbEntity
  8
0
100
AcDbEllipse
 62
7
  6
CONTINUOUS
 10
146.9709814626
 20
182.6118857935
 30
0.0
 11
97.0216894977
 21
-0.0
 31
0.0
 40
0.1958324999
 41
1.7557079433
 42
1.7601718361
  0
ELLIPSE
  5
444
100
AcDbEntity
  8
0
100
AcDbEllipse
 62
7
  6
CONTINUOUS
 10
132.7002644729
 20
182.6118857935
 30
0.0
 11
19.4042437533
 21
-0.0
 31
0.0
 40
0.9791672503
 41
8.0210738695
 42
8.0388932505
  0
ELLIPSE
  5
445
100
AcDbEntity
  8
0
100
AcDbEllipse
 62
7
  6
CONTINUOUS
 10
131.0866484135
 20
182.6118857935
 30
0.0
 11
0.0
 21
19.0
 31
0.0
 40
0.5106379935
 41
0.1493262574
 42
0.1670922355
  0
ELLIPSE
  5
446
100
AcDbEntity
  8
0
100
AcDbEllipse
 62
7
  6
CONTINUOUS
 10
115.2883514725
 20
86.9263900334
 30
0.0
 11
1.5
 21
0.0
 31
0.0
 40
0.7364414175
 41
3.1415926536
 42
4.7123889804
  0
ELLIPSE
  5
447
100
AcDbEntity
  8
KONSTRUKTIONSELEMENTE
100
AcDbEllipse
 62
7
  6
CONTINUOUS
 10
115.2883514725
 20
123.1336099666
 30
0.0
 11
1.5
 21
0.0
 31
0.0
 40
0.7364414175
 41
1.5707963268
 42
3.1415926536
  0
ELLIPSE
  5
448
100
AcDbEntity
  8
KONSTRUKTIONSELEMENTE
100
AcDbEllipse
 62
7
  6
CONTINUOUS
 10
152.2883514725
 20
123.1336099666
 30
0.0
 11
1.5
 21
0.0
 31
0.0
 40
0.7364414175
 41
-0.0
 42
1.5707963268
  0
ELLIPSE
  5
449
100
AcDbEntity
  8
0
100
AcDbEllipse
 62
7
  6
CONTINUOUS
 10
152.2883514725
 20
86.9263900334
 30
0.0
 11
1.5
 21
-0.0
 31
0.0
 40
0.7364414175
 41
-1.5707963268
 42
-0.0
  0
ENDSEC
  0
SECTION
  2
OBJECTS
  0
DICTIONARY
  5
C
100
AcDbDictionary
280
0
281
1
  3
ACAD_GROUP
350
D
  3
ACAD_MLINESTYLE
350
17
  3
ACAD_LAYOUT
350
1A
  3
ACAD_PLOTSETTINGS
350
19
  3
ACAD_PLOTSTYLENAME
350
E
  0
DICTIONARY
  5
D
102
{ACAD_REACTORS
330
C
102
}
100
AcDbDictionary
280
0
281
1
  0
ACDBDICTIONARYWDFLT
  5
E
102
{ACAD_REACTORS
330
C
102
}
100
AcDbDictionary
281
1
  3
Normal
350
F
100
AcDbDictionaryWithDefault
340
F
  0
DICTIONARY
  5
17
102
{ACAD_REACTORS
330
C
102
}
100
AcDbDictionary
280
0
281
1
  3
Standard
350
18
  0
DICTIONARY
  5
19
102
{ACAD_REACTORS
330
C
102
}
100
AcDbDictionary
281
1
  0
DICTIONARY
  5
1A
102
{ACAD_REACTORS
330
C
102
}
100
AcDbDictionary
281
1
  3
Model
350
44A
  3
Layout1
350
44B
  0
ACDBPLACEHOLDER
  5
F
102
{ACAD_REACTORS
330
E
102
}
  0
MLINESTYLE
  5
18
102
{ACAD_REACTORS
330
17
102
}
100
AcDbMlineStyle
  2
STANDARD
 70
0
  3

 62
256
 51
90.0
 52
90.0
 71
2
 49
0.5
 62
256
  6
BYLAYER
 49
-0.5
 62
256
  6
BYLAYER
  0
LAYOUT
  5
44A
102
{ACAD_REACTORS
330
1A
102
}
100
AcDbPlotSettings
  1

  2
none_device
  4
ISO_A3_(420.00_x_297.00_MM)
  6

 40
0.0
 41
0.0
 42
0.0
 43
0.0
 44
420.0
 45
297.0
 46
0.0
 47
0.0
 48
0.0
 49
0.0
140
0.0
141
0.0
142
1.0
143
1.0
 70
1024
 72
1
 73
0
 74
0
  7

 75
0
147
1.0
148
0.0
149
0.0
100
AcDbLayout
  1
Model
 70
0
 71
0
 10
0.0
 20
0.0
 11
420.0
 21
297.0
 12
0.0
 22
0.0
 32
0.0
 14
0.0
 24
0.0
 34
0.0
 15
0.0
 25
0.0
 35
0.0
146
0.0
 13
0.0
 23
0.0
 33
0.0
 16
1.0
 26
0.0
 36
0.0
 17
0.0
 27
1.0
 37
0.0
 76
0
330
20C
345
0
346
0
  0
LAYOUT
  5
44B
102
{ACAD_REACTORS
330
1A
102
}
100
AcDbPlotSettings
  1

  2
none_device
  4
ISO_A3_(420.00_x_297.00_MM)
  6

 40
0.0
 41
0.0
 42
0.0
 43
0.0
 44
420.0
 45
297.0
 46
0.0
 47
0.0
 48
0.0
 49
0.0
140
0.0
141
0.0
142
1.0
143
1.0
 70
0
 72
1
 73
0
 74
0
  7

 75
0
147
1.0
148
0.0
149
0.0
100
AcDbLayout
  1
Layout1
 70
0
 71
1
 10
0.0
 20
0.0
 11
420.0
 21
297.0
 12
0.0
 22
0.0
 32
0.0
 14
0.0
 24
0.0
 34
0.0
 15
0.0
 25
0.0
 35
0.0
146
0.0
 13
0.0
 23
0.0
 33
0.0
 16
1.0
 26
0.0
 36
0.0
 17
0.0
 27
1.0
 37
0.0
 76
0
330
20D
345
0
346
0
  0
ENDSEC
  0
EOF
