999
DXF file: 001-m35499-p6.dxf
999
Pro/ENGINEER 2011490 by Parametric Technology Corporation
  0
SECTION
  2
HEADER
  9
$ACADVER
  1
AC1015
  9
$DWGCODEPAGE
  3
ANSI_1252
  9
$EXTMAX
 10
420.0
 20
297.0
 30
0.0
  9
$EXTMIN
 10
0.0
 20
0.0
 30
0.0
  9
$LIMMIN
 10
0.0
 20
0.0
  9
$LIMMAX
 10
420.0
 20
297.0
  9
$VIEWCTR
 10
210.0
 20
148.5
  9
$VIEWSIZE
 40
297.0
  9
$CLAYER
  8
0
  9
$LTSCALE
 40
23.1
  9
$CELTYPE
  6
BYLAYER
  9
$DIMSCALE
 40
1.0
  9
$DIMASZ
 40
3.5
  9
$DIMEXO
 40
2.625
  9
$DIMDLI
 40
15.96
  9
$DIMEXE
 40
7.56
  9
$DIMCEN
 40
3.78
  9
$DIMLFAC
 40
1.0
  9
$DIMBLK
  1
_FILLED
  9
$DIMTXT
 40
3.5
  9
$DIMTOL
 70
1
  9
$DIMLIM
 70
0
  9
$DIMTFAC
 40
1.0
  9
$DIMTP
 40
0.005
  9
$DIMTM
 40
0.005
  9
$PDMODE
 70
3
  9
$PDSIZE
 40
0.3125
  9
$HANDSEED
  5
687
  9
$TILEMODE
 70
1
  9
$MEASUREMENT
 70
1
  9
$INSUNITS
 70
4
  0
ENDSEC
  0
SECTION
  2
CLASSES
  0
CLASS
  1
ACDBDICTIONARYWDFLT
  2
AcDbDictionaryWithDefault
  3
AutoCAD 2000
 90
0
280
0
281
0
  0
CLASS
  1
ACDBPLACEHOLDER
  2
AcDbPlaceHolder
  3
AutoCAD 2000
 90
0
280
0
281
0
  0
CLASS
  1
LAYOUT
  2
AcDbLayout
  3
AutoCAD 2000
 90
0
280
0
281
0
  0
ENDSEC
  0
SECTION
  2
TABLES
  0
TABLE
  2
VPORT
  5
8
100
AcDbSymbolTable
 70
2
  0
VPORT
  5
1F4
100
AcDbSymbolTableRecord
100
AcDbViewportTableRecord
  2
*ACTIVE
 70
0
 10
0.0
 20
0.0
 11
1.0
 21
1.0
 12
210.0
 22
148.5
 13
0.0
 23
0.0
 14
1.0
 24
1.0
 15
0.0
 25
0.0
 16
0.0
 26
0.0
 36
1.0
 17
0.0
 27
0.0
 37
0.0
 40
297.0
 41
1.4141414141
 42
50.0
 43
0.0
 44
0.0
 50
0.0
 51
0.0
 71
0
 72
100
 73
1
 74
1
 75
0
 76
0
 77
0
 78
0
  0
ENDTAB
  0
TABLE
  2
LTYPE
  5
5
100
AcDbSymbolTable
 70
6
  0
LTYPE
  5
14
100
AcDbSymbolTableRecord
100
AcDbLinetypeTableRecord
  2
BYBLOCK
 70
0
  3

 72
65
 73
0
 40
0.0
  0
LTYPE
  5
15
100
AcDbSymbolTableRecord
100
AcDbLinetypeTableRecord
  2
BYLAYER
 70
0
  3

 72
65
 73
0
 40
0.0
  0
LTYPE
  5
16
100
AcDbSymbolTableRecord
100
AcDbLinetypeTableRecord
  2
CONTINUOUS
 70
64
  3
Solid line
 72
65
 73
0
 40
0.0
  0
LTYPE
  5
1F5
100
AcDbSymbolTableRecord
100
AcDbLinetypeTableRecord
  2
CENTER
 70
64
  3
____ _ ____ _ ____ _ ____ _ ____ _ ____ _ ____
 72
65
 73
4
 40
0.6
 49
0.375
 74
0
 49
-0.075
 74
0
 49
0.075
 74
0
 49
-0.075
 74
0
  0
LTYPE
  5
1F6
100
AcDbSymbolTableRecord
100
AcDbLinetypeTableRecord
  2
HIDDEN
 70
64
  3
- - - - - - - - - - - - - - - - - - - -
 72
65
 73
2
 40
0.2
 49
0.1
 74
0
 49
-0.1
 74
0
  0
LTYPE
  5
1F7
100
AcDbSymbolTableRecord
100
AcDbLinetypeTableRecord
  2
PHANTOM
 70
64
  3
_____ _ _ _____ _ _ _____ _ _ _____
 72
65
 73
6
 40
0.8
 49
0.45
 74
0
 49
-0.05
 74
0
 49
0.1
 74
0
 49
-0.05
 74
0
 49
0.1
 74
0
 49
-0.05
 74
0
  0
LTYPE
  5
1F8
100
AcDbSymbolTableRecord
100
AcDbLinetypeTableRecord
  2
DOT
 70
64
  3
. . . . . . . . . . . . . . . . . . . .
 72
65
 73
2
 40
0.2
 49
0.1
 74
0
 49
-0.1
 74
0
  0
LTYPE
  5
1F9
100
AcDbSymbolTableRecord
100
AcDbLinetypeTableRecord
  2
DASHED
 70
64
  3
- - - - - - - - - - - - - - - - - - - -
 72
65
 73
2
 40
0.2
 49
0.1
 74
0
 49
-0.1
 74
0
  0
ENDTAB
  0
TABLE
  2
LAYER
  5
2
100
AcDbSymbolTable
 70
36
  0
LAYER
  5
10
100
AcDbSymbolTableRecord
100
AcDbLayerTableRecord
  2
0
 70
0
 62
7
  6
CONTINUOUS
370
-3
390
F
  0
LAYER
  5
1FA
100
AcDbSymbolTableRecord
100
AcDbLayerTableRecord
  2
DEFAULT_1
 70
0
 62
7
  6
CENTER
370
-3
390
F
  0
LAYER
  5
1FB
100
AcDbSymbolTableRecord
100
AcDbLayerTableRecord
  2
DEFAULT_2
 70
0
 62
8
  6
HIDDEN
370
-3
390
F
  0
LAYER
  5
1FC
100
AcDbSymbolTableRecord
100
AcDbLayerTableRecord
  2
DEFAULT_3
 70
0
 62
7
  6
PHANTOM
370
-3
390
F
  0
LAYER
  5
1FD
100
AcDbSymbolTableRecord
100
AcDbLayerTableRecord
  2
AUSFORMSCHRAEGEN
 70
0
 62
7
  6
CONTINUOUS
370
-3
390
F
  0
LAYER
  5
1FE
100
AcDbSymbolTableRecord
100
AcDbLayerTableRecord
  2
BEZUGSACHSEN
 70
0
 62
7
  6
CONTINUOUS
370
-3
390
F
  0
LAYER
  5
1FF
100
AcDbSymbolTableRecord
100
AcDbLayerTableRecord
  2
BEZUGSEBENEN
 70
0
 62
7
  6
CONTINUOUS
370
-3
390
F
  0
LAYER
  5
200
100
AcDbSymbolTableRecord
100
AcDbLayerTableRecord
  2
BG_STARTBEZUEGE
 70
0
 62
7
  6
CONTINUOUS
370
-3
390
F
  0
LAYER
  5
201
100
AcDbSymbolTableRecord
100
AcDbLayerTableRecord
  2
FASEN
 70
0
 62
7
  6
CONTINUOUS
370
-3
390
F
  0
LAYER
  5
202
100
AcDbSymbolTableRecord
100
AcDbLayerTableRecord
  2
FLAECHEN
 70
0
 62
7
  6
CONTINUOUS
370
-3
390
F
  0
LAYER
  5
203
100
AcDbSymbolTableRecord
100
AcDbLayerTableRecord
  2
HILFEN
 70
0
 62
7
  6
CONTINUOUS
370
-3
390
F
  0
LAYER
  5
204
100
AcDbSymbolTableRecord
100
AcDbLayerTableRecord
  2
KONSTRUKTIONSELEMENTE
 70
0
 62
7
  6
CONTINUOUS
370
-3
390
F
  0
LAYER
  5
205
100
AcDbSymbolTableRecord
100
AcDbLayerTableRecord
  2
KURVEN
 70
0
 62
7
  6
CONTINUOUS
370
-3
390
F
  0
LAYER
  5
206
100
AcDbSymbolTableRecord
100
AcDbLayerTableRecord
  2
NORM
 70
0
 62
7
  6
CONTINUOUS
370
-3
390
F
  0
LAYER
  5
207
100
AcDbSymbolTableRecord
100
AcDbLayerTableRecord
  2
PLATZIERUNG
 70
0
 62
7
  6
CONTINUOUS
370
-3
390
F
  0
LAYER
  5
208
100
AcDbSymbolTableRecord
100
AcDbLayerTableRecord
  2
RUNDUNGEN
 70
0
 62
7
  6
CONTINUOUS
370
-3
390
F
  0
LAYER
  5
209
100
AcDbSymbolTableRecord
100
AcDbLayerTableRecord
  2
TEIL_STARTBEZUEGE
 70
0
 62
7
  6
CONTINUOUS
370
-3
390
F
  0
LAYER
  5
20A
100
AcDbSymbolTableRecord
100
AcDbLayerTableRecord
  2
T_STARTBEZUEGE
 70
0
 62
7
  6
CONTINUOUS
370
-3
390
F
  0
ENDTAB
  0
TABLE
  2
STYLE
  5
3
100
AcDbSymbolTable
 70
1
  0
STYLE
  5
11
100
AcDbSymbolTableRecord
100
AcDbTextStyleTableRecord
  2
STANDARD
 70
0
 40
0.0
 41
0.7
 50
0.0
 71
0
 42
0.2
  3
txt
  4

  0
STYLE
  5
20B
100
AcDbSymbolTableRecord
100
AcDbTextStyleTableRecord
  2
TEXTSTYLE_1
 70
0
 40
0.0
 41
0.8
 50
0.0
 71
0
 42
0.2
  3
gdt
  4

  0
ENDTAB
  0
TABLE
  2
VIEW
  5
6
100
AcDbSymbolTable
 70
0
  0
ENDTAB
  0
TABLE
  2
UCS
  5
7
100
AcDbSymbolTable
 70
0
  0
ENDTAB
  0
TABLE
  2
APPID
  5
9
100
AcDbSymbolTable
 70
1
  0
APPID
  5
20C
100
AcDbSymbolTableRecord
100
AcDbRegAppTableRecord
  2
ACAD
 70
0
  0
ENDTAB
  0
TABLE
  2
BLOCK_RECORD
  5
1
100
AcDbSymbolTable
 70
0
  0
BLOCK_RECORD
  5
20D
100
AcDbSymbolTableRecord
100
AcDbBlockTableRecord
  2
*Model_Space
  0
BLOCK_RECORD
  5
20E
100
AcDbSymbolTableRecord
100
AcDbBlockTableRecord
  2
*Paper_Space
  0
ENDTAB
  0
TABLE
  2
DIMSTYLE
  5
A
100
AcDbSymbolTable
 70
1
100
AcDbDimStyleTable
 71
0
  0
DIMSTYLE
105
20F
100
AcDbSymbolTableRecord
100
AcDbDimStyleTableRecord
  2
STANDARD
 70
0
  3

  4

 40
1.0
 41
3.5
 42
0.0625
 43
0.38
 44
0.18
 45
0.0
 46
0.0
 47
0.005
 48
0.005
140
3.5
141
0.09
142
0.0
143
25.4
144
1.0
145
0.0
146
1.0
147
0.09
 71
1.0
 72
0.0
 73
0
 74
0
 75
0
 76
0
 77
1
 78
8
170
0
171
2
172
0
173
0
174
0
175
0
176
0
177
0
178
5
270
2
271
3
272
3
273
2
274
2
275
0
280
0
281
0
282
0
283
1
284
8
285
0
286
0
287
3
288
0
340
11
  0
ENDTAB
  0
ENDSEC
  0
SECTION
  2
BLOCKS
  0
BLOCK
  5
20
100
AcDbEntity
  8
0
100
AcDbBlockBegin
  2
*Model_Space
 70
0
 10
0.0
 20
0.0
 30
0.0
  3
*Model_Space
  1

  0
ENDBLK
  5
21
100
AcDbEntity
  8
0
100
AcDbBlockEnd
  0
BLOCK
  5
1C
100
AcDbEntity
  8
0
100
AcDbBlockBegin
  2
*Paper_Space
 70
0
 10
0.0
 20
0.0
 30
0.0
  3
*Paper_Space
  1

  0
ENDBLK
  5
1D
100
AcDbEntity
  8
0
100
AcDbBlockEnd
  0
ENDSEC
  0
SECTION
  2
ENTITIES
  0
MTEXT
  5
210
100
AcDbEntity
  8
0
100
AcDbMText
 62
5
  6
CONTINUOUS
  7
STANDARD
 71
1
 72
1
 10
126.2961416794
 20
79.1071593087
 30
0.0
 11
1.0
 21
0.0
 31
0.0
 44
0.9
  1
LPW-U 32.000daN\PRUD
 40
4.5
 41
53.5714285714
  0
MTEXT
  5
211
100
AcDbEntity
  8
0
100
AcDbMText
 62
5
  6
CONTINUOUS
  7
STANDARD
 71
1
 72
1
 10
126.4085495377
 20
240.3073700871
 30
0.0
 11
1.0
 21
0.0
 31
0.0
 44
0.9
  1
LPW-U 32.000daN\PRUD
 40
4.5
 41
53.5714285714
  0
MTEXT
  5
212
100
AcDbEntity
  8
0
100
AcDbMText
 62
5
  6
CONTINUOUS
  7
STANDARD
 71
1
 72
1
 10
270.159597727
 20
206.5105606794
 30
0.0
 11
0.0
 21
1.0
 31
0.0
 44
0.9
  1
LPW-U 32.000daN\PRUD
 40
3.5
 41
41.6666666667
  0
LINE
  5
213
100
AcDbEntity
  8
0
100
AcDbLine
 62
7
  6
CONTINUOUS
 10
0.0
 20
0.0
 11
0.0
 21
297.0
  0
LINE
  5
214
100
AcDbEntity
  8
0
100
AcDbLine
 62
7
  6
CONTINUOUS
 10
0.0
 20
0.0
 11
420.0
 21
0.0
  0
LINE
  5
215
100
AcDbEntity
  8
0
100
AcDbLine
 62
7
  6
CONTINUOUS
 10
0.0
 20
297.0
 11
420.0
 21
297.0
  0
LINE
  5
216
100
AcDbEntity
  8
0
100
AcDbLine
 62
7
  6
CONTINUOUS
 10
420.0
 20
0.0
 11
420.0
 21
297.0
  0
LINE
  5
217
100
AcDbEntity
  8
BEZUGSACHSEN
100
AcDbLine
 62
7
  6
CONTINUOUS
 10
197.4631661672
 20
144.4403545475
 11
197.5516874967
 21
144.4651181133
  0
LINE
  5
218
100
AcDbEntity
  8
BEZUGSACHSEN
100
AcDbLine
 62
7
  6
CONTINUOUS
 10
197.2860242345
 20
144.3965721258
 11
197.3750397607
 21
144.4176210523
  0
LWPOLYLINE
  5
219
100
AcDbEntity
  8
BEZUGSACHSEN
100
AcDbPolyline
 62
7
  6
CONTINUOUS
 90
3
 70
0
 10
197.2855663057
 20
144.3964687667
 10
197.3745906461
 20
144.4175100493
 10
197.4636063492
 20
144.4404728799
  0
LINE
  5
21A
100
AcDbEntity
  8
BEZUGSACHSEN
100
AcDbLine
 62
7
  6
CONTINUOUS
 10
197.1067934514
 20
144.3599172529
 11
197.1965965053
 21
144.3773348593
  0
LWPOLYLINE
  5
21B
100
AcDbEntity
  8
BEZUGSACHSEN
100
AcDbPolyline
 62
7
  6
CONTINUOUS
 90
3
 70
0
 10
197.1063182858
 20
144.3598301166
 10
197.1961298898
 20
144.3772394564
 10
197.2860242345
 20
144.3965721258
  0
LINE
  5
21C
100
AcDbEntity
  8
RUNDUNGEN
100
AcDbLine
 62
7
  6
CONTINUOUS
 10
149.7197500977
 20
250.185032339
 11
123.4823668232
 21
239.3171523455
  0
LINE
  5
21D
100
AcDbEntity
  8
BEZUGSACHSEN
100
AcDbLine
 62
7
  6
CONTINUOUS
 10
197.0161685623
 20
144.3442479942
 11
197.1067934514
 21
144.3599172529
  0
LINE
  5
21E
100
AcDbEntity
  8
BEZUGSACHSEN
100
AcDbLine
 62
7
  6
CONTINUOUS
 10
196.835503551
 20
144.3186510728
 11
196.9262097226
 21
144.3305692533
  0
LWPOLYLINE
  5
21F
100
AcDbEntity
  8
BEZUGSACHSEN
100
AcDbPolyline
 62
7
  6
CONTINUOUS
 90
3
 70
0
 10
196.8350036452
 20
144.318590574
 10
196.9257179028
 20
144.3304995717
 10
197.0166521324
 20
144.3443265558
  0
LINE
  5
220
100
AcDbEntity
  8
BEZUGSACHSEN
100
AcDbLine
 62
7
  6
CONTINUOUS
 10
196.7440632041
 20
144.3085259556
 11
196.835503551
 21
144.3186510728
  0
LINE
  5
221
100
AcDbEntity
  8
BEZUGSACHSEN
100
AcDbLine
 62
7
  6
CONTINUOUS
 10
196.5621771035
 20
144.2939770152
 11
196.6534496837
 21
144.3003511464
  0
LWPOLYLINE
  5
222
100
AcDbEntity
  8
BEZUGSACHSEN
100
AcDbPolyline
 62
7
  6
CONTINUOUS
 90
3
 70
0
 10
196.5616540118
 20
144.2939458481
 10
196.6529341331
 20
144.3003099082
 10
196.7445710232
 20
144.3085769722
  0
LINE
  5
223
100
AcDbEntity
  8
BEZUGSACHSEN
100
AcDbLine
 62
7
  6
CONTINUOUS
 10
196.4702605779
 20
144.289436425
 11
196.5621771035
 21
144.2939770152
  0
LWPOLYLINE
  5
224
100
AcDbEntity
  8
BEZUGSACHSEN
100
AcDbPolyline
 62
7
  6
CONTINUOUS
 90
80
 70
0
 10
104.6902769614
 20
148.93136241
 10
104.6881826077
 20
148.8400513098
 10
104.6879446995
 20
148.7487150353
 10
104.6895633849
 20
148.6573912707
 10
104.6930380493
 20
148.566117697
 10
104.6983673099
 20
148.4749320549
 10
104.7055490171
 20
148.3838720319
 10
104.7145802569
 20
148.2929752496
 10
104.7254573507
 20
148.2022792661
 10
104.738175858
 20
148.1118215539
 10
104.7527305779
 20
148.0216394875
 10
104.769115551
 20
147.9317703279
 10
104.7873240626
 20
147.842251206
 10
104.8073486446
 20
147.7531191098
 10
104.8291810792
 20
147.6644108667
 10
104.8528124016
 20
147.576163131
 10
104.8782329048
 20
147.4884123664
 10
104.9054321426
 20
147.4011948317
 10
104.9343989342
 20
147.3145465664
 10
104.9651213708
 20
147.2285033707
 10
104.9975868185
 20
147.1431007963
 10
105.0317819247
 20
147.0583741291
 10
105.0676926236
 20
146.9743583753
 10
105.1053041402
 20
146.8910882511
 10
105.1446009983
 20
146.8085981632
 10
105.1855670255
 20
146.726922199
 10
105.2281853609
 20
146.6460941089
 10
105.2724384616
 20
146.5661472941
 10
105.3183081107
 20
146.4871147917
 10
105.3657754238
 20
146.4090292624
 10
105.414820857
 20
146.3319229768
 10
105.4654242185
 20
146.2558277973
 10
105.5175646731
 20
146.1807751704
 10
105.5712207532
 20
146.1067961111
 10
105.6263703672
 20
146.0339211907
 10
105.6829908046
 20
145.9621805297
 10
105.7410587505
 20
145.8916037785
 10
105.8005502896
 20
145.8222201118
 10
105.8614409212
 20
145.7540582103
 10
105.9237055657
 20
145.6871462536
 10
105.9873185785
 20
145.6215119037
 10
106.0522537557
 20
145.5571822994
 10
106.1184843502
 20
145.4941840392
 10
106.1859830777
 20
145.4325431756
 10
106.2547221306
 20
145.3722852011
 10
106.3246731965
 20
145.3134350324
 10
106.3958074604
 20
145.2560170082
 10
106.4680956292
 20
145.20005487
 10
106.5415079351
 20
145.145571759
 10
106.6160141406
 20
145.0925902125
 10
106.6915835634
 20
145.0411321453
 10
106.768185073
 20
144.9912188513
 10
106.8457871202
 20
144.9428709835
 10
106.9243577343
 20
144.8961085555
 10
107.0038645527
 20
144.8509509228
 10
107.0842748154
 20
144.8074167856
 10
107.1655553934
 20
144.7655241727
 10
107.2476728063
 20
144.7252904319
 10
107.3305932261
 20
144.6867322285
 10
107.4142825104
 20
144.6498655301
 10
107.4987062062
 20
144.6147056057
 10
107.5838295355
 20
144.5812670311
 10
107.6696174543
 20
144.549563664
 10
107.7560345967
 20
144.5196086646
 10
107.8430453595
 20
144.4914144627
 10
107.930613873
 20
144.4649927673
 10
108.0187040622
 20
144.4403545474
 10
108.1072795833
 20
144.4175100492
 10
108.1963039237
 20
144.3964687666
 10
108.2857403396
 20
144.3772394564
 10
108.3755519436
 20
144.3598301166
 10
108.4657016671
 20
144.3442479941
 10
108.5561523266
 20
144.3304995717
 10
108.6468665842
 20
144.3185905739
 10
108.7378070252
 20
144.3085259555
 10
108.8289360963
 20
144.3003099082
 10
108.9202162175
 20
144.2939458481
 10
109.0116096515
 20
144.289436425
 10
109.1030785584
 20
144.2867835101
 10
109.1880026598
 20
144.2859833827
  0
LINE
  5
225
100
AcDbEntity
  8
BEZUGSACHSEN
100
AcDbLine
 62
7
  6
CONTINUOUS
 10
104.6942268453
 20
149.0226105764
 11
104.6902771083
 21
148.931365803
  0
LWPOLYLINE
  5
226
100
AcDbEntity
  8
RUNDUNGEN
100
AcDbPolyline
 62
7
  6
CONTINUOUS
 90
81
 70
0
 10
104.6942268453
 20
149.0226105764
 10
104.6902771862
 20
148.9313691985
 10
104.6881827812
 20
148.8400648958
 10
104.6879445455
 20
148.7487354203
 10
104.689562627
 20
148.6574184443
 10
104.6930364118
 20
148.5661516366
 10
104.6983645176
 20
148.4749727319
 10
104.7055447958
 20
148.3839194107
 10
104.7145743331
 20
148.2930292862
 10
104.7254494523
 20
148.2023399085
 10
104.7381657144
 20
148.1118887417
 10
104.7527179201
 20
148.0217131524
 10
104.769100112
 20
147.9318503928
 10
104.7873055774
 20
147.8423375857
 10
104.8073268507
 20
147.7532117112
 10
104.8291557166
 20
147.6645095884
 10
104.8527832134
 20
147.5762678637
 10
104.8781996367
 20
147.4885229929
 10
104.9053945438
 20
147.4013112269
 10
104.9343567572
 20
147.3146685976
 10
104.9650743719
 20
147.2286308975
 10
104.9975347577
 20
147.1432336707
 10
105.0317245662
 20
147.0585121956
 10
105.0676297358
 20
146.9745014713
 10
105.1052354961
 20
146.8912362064
 10
105.1445263755
 20
146.8087508008
 10
105.1854862063
 20
146.7270793346
 10
105.2280981329
 20
146.6462555516
 10
105.2723446176
 20
146.566312846
 10
105.3182074488
 20
146.4872842486
 10
105.3656677479
 20
146.4092024133
 10
105.4147059767
 20
146.3320996046
 10
105.4653019493
 20
146.2560076785
 10
105.5174348368
 20
146.1809580758
 10
105.5710831778
 20
146.1069818052
 10
105.6262248873
 20
146.0341094327
 10
105.6828372613
 20
145.9623710731
 10
105.7408969917
 20
145.8917963713
 10
105.8003801702
 20
145.8224144971
 10
105.8612623032
 20
145.754254126
 10
105.9235183182
 20
145.6873434329
 10
105.9871225782
 20
145.621710075
 10
106.0520488865
 20
145.5573811868
 10
106.1182705039
 20
145.4943833624
 10
106.1857601537
 20
145.4327426504
 10
106.2544900362
 20
145.3724845393
 10
106.324431847
 20
145.3136339422
 10
106.3955567793
 20
145.2562151944
 10
106.4678355481
 20
145.200252034
 10
106.5412383939
 20
145.1457675993
 10
106.6157350877
 20
145.0927844248
 10
106.6912949555
 20
145.0413244226
 10
106.7678868756
 20
144.9914088844
 10
106.8454793071
 20
144.9430584609
 10
106.9240402883
 20
144.8962931638
 10
107.0035374653
 20
144.8511323468
 10
107.083938087
 20
144.807594709
 10
107.1652090332
 20
144.7656982775
 10
107.2473168325
 20
144.7254603992
 10
107.3302276659
 20
144.6868977388
 10
107.4139074001
 20
144.6500262632
 10
107.4983215911
 20
144.6148612412
 10
107.5834354699
 20
144.5814172484
 10
107.6692140017
 20
144.5497081427
 10
107.7556218297
 20
144.5197470849
 10
107.8426233599
 20
144.4915465051
 10
107.9301827316
 20
144.4651181135
 10
108.0182638792
 20
144.4404728801
 10
108.1068304677
 20
144.4176210524
 10
108.195845994
 20
144.3965721259
 10
108.2852737232
 20
144.3773348594
 10
108.3750767771
 20
144.359917253
 10
108.4652180962
 20
144.3443265559
 10
108.555660506
 20
144.3305692533
 10
108.6463666777
 20
144.3186510728
 10
108.7372992056
 20
144.3085769722
 10
108.8284205451
 20
144.3003511464
 10
108.9196931253
 20
144.2939770152
 10
109.0110792176
 20
144.2894572323
 10
109.1025409911
 20
144.2867936728
 10
109.1880026589
 20
144.2859833827
  0
LINE
  5
227
100
AcDbEntity
  8
RUNDUNGEN
100
AcDbLine
 62
7
  6
CONTINUOUS
 10
107.2907623899
 20
197.5785559554
 11
107.2885217982
 21
197.5366618636
  0
LINE
  5
228
100
AcDbEntity
  8
BEZUGSACHSEN
100
AcDbLine
 62
7
  6
CONTINUOUS
 10
104.6942268454
 20
149.0226105771
 11
105.0063213991
 21
154.8588672338
  0
LINE
  5
229
100
AcDbEntity
  8
RUNDUNGEN
100
AcDbLine
 62
7
  6
CONTINUOUS
 10
104.9877287098
 20
154.5111786718
 11
107.2884855159
 21
197.5359833826
  0
LINE
  5
22A
100
AcDbEntity
  8
RUNDUNGEN
100
AcDbLine
 62
7
  6
CONTINUOUS
 10
119.2097660734
 20
235.0445514852
 11
108.3418861448
 21
208.8071683673
  0
LINE
  5
22B
100
AcDbEntity
  8
BEZUGSACHSEN
100
AcDbLine
 62
7
  6
CONTINUOUS
 10
196.3790511633
 20
144.2867910362
 11
196.4707910113
 21
144.2894572323
  0
LINE
  5
22C
100
AcDbEntity
  8
BEZUGSACHSEN
100
AcDbLine
 62
7
  6
CONTINUOUS
 10
196.2938675701
 20
144.2859833827
 11
196.3793292379
 21
144.2867936728
  0
LINE
  5
22D
100
AcDbEntity
  8
0
100
AcDbLine
 62
7
  6
CONTINUOUS
 10
131.9805310333
 20
143.5359833826
 11
173.5013391957
 21
143.5359833826
  0
LINE
  5
22E
100
AcDbEntity
  8
BEZUGSACHSEN
100
AcDbLine
 62
7
  6
CONTINUOUS
 10
109.1880026587
 20
144.2859833826
 11
131.7629082047
 21
144.2859833826
  0
LINE
  5
22F
100
AcDbEntity
  8
BEZUGSACHSEN
100
AcDbLine
 62
7
  6
CONTINUOUS
 10
173.7189387719
 20
144.2859833826
 11
196.2938675703
 21
144.2859833826
  0
LINE
  5
230
100
AcDbEntity
  8
0
100
AcDbLine
 62
7
  6
CONTINUOUS
 10
174.1517303233
 20
146.0359833826
 11
131.3301399057
 21
146.0359833826
  0
LINE
  5
231
100
AcDbEntity
  8
0
100
AcDbLine
 62
7
  6
CONTINUOUS
 10
133.199043771
 20
155.8979080878
 11
172.282826458
 21
155.8979080878
  0
LINE
  5
232
100
AcDbEntity
  8
RUNDUNGEN
100
AcDbLine
 62
7
  6
CONTINUOUS
 10
127.7409350895
 20
205.7859833033
 11
127.7409350895
 21
204.7297372078
  0
LINE
  5
233
100
AcDbEntity
  8
RUNDUNGEN
100
AcDbLine
 62
7
  6
CONTINUOUS
 10
127.7409350895
 20
177.7337935616
 11
127.7409350895
 21
170.2859833908
  0
LINE
  5
234
100
AcDbEntity
  8
KONSTRUKTIONSELEMENTE
100
AcDbLine
 62
7
  6
CONTINUOUS
 10
143.9909351145
 20
164.4949453292
 11
161.4909351145
 21
164.4949453292
  0
LINE
  5
235
100
AcDbEntity
  8
0
100
AcDbLine
 62
7
  6
CONTINUOUS
 10
130.2409351145
 20
149.7859833826
 11
130.2409351145
 21
174.2858740152
  0
LINE
  5
236
100
AcDbEntity
  8
KONSTRUKTIONSELEMENTE
100
AcDbLine
 62
7
  6
CONTINUOUS
 10
143.8427677726
 20
170.2321872861
 11
148.0057005559
 21
170.2321872861
  0
LINE
  5
237
100
AcDbEntity
  8
KONSTRUKTIONSELEMENTE
100
AcDbLine
 62
7
  6
CONTINUOUS
 10
148.9181240474
 20
170.2321872861
 11
150.1401202356
 21
170.2321872861
  0
LINE
  5
238
100
AcDbEntity
  8
KONSTRUKTIONSELEMENTE
100
AcDbLine
 62
7
  6
CONTINUOUS
 10
155.769448248
 20
170.2321872861
 11
156.9140505468
 21
170.2321872861
  0
LINE
  5
239
100
AcDbEntity
  8
KONSTRUKTIONSELEMENTE
100
AcDbLine
 62
7
  6
CONTINUOUS
 10
158.7959241544
 20
170.2321872861
 11
159.9405278836
 21
170.2321872861
  0
LINE
  5
23A
100
AcDbEntity
  8
0
100
AcDbLine
 62
7
  6
CONTINUOUS
 10
143.8427677726
 20
170.7980807883
 11
148.0057005559
 21
170.7980807883
  0
LINE
  5
23B
100
AcDbEntity
  8
0
100
AcDbLine
 62
7
  6
CONTINUOUS
 10
148.9181240474
 20
170.7980807883
 11
150.1401202356
 21
170.7980807883
  0
LINE
  5
23C
100
AcDbEntity
  8
0
100
AcDbLine
 62
7
  6
CONTINUOUS
 10
155.769448248
 20
170.7980807883
 11
156.9140505468
 21
170.7980807883
  0
LINE
  5
23D
100
AcDbEntity
  8
0
100
AcDbLine
 62
7
  6
CONTINUOUS
 10
158.7959241544
 20
170.7980807883
 11
159.9405278836
 21
170.7980807883
  0
LINE
  5
23E
100
AcDbEntity
  8
0
100
AcDbLine
 62
7
  6
CONTINUOUS
 10
145.0647636925
 20
171.5617101583
 11
148.0057005559
 21
171.5617101583
  0
LINE
  5
23F
100
AcDbEntity
  8
KONSTRUKTIONSELEMENTE
100
AcDbLine
 62
7
  6
CONTINUOUS
 10
150.1401202356
 20
171.7001351255
 11
151.5169024144
 21
171.7001351255
  0
LINE
  5
240
100
AcDbEntity
  8
0
100
AcDbLine
 62
7
  6
CONTINUOUS
 10
150.1401202356
 20
172.2669277908
 11
151.5169024144
 21
172.2669277908
  0
LINE
  5
241
100
AcDbEntity
  8
0
100
AcDbLine
 62
7
  6
CONTINUOUS
 10
150.1401202356
 20
172.9633353509
 11
151.3784095918
 21
172.9633353509
  0
LINE
  5
242
100
AcDbEntity
  8
0
100
AcDbLine
 62
7
  6
CONTINUOUS
 10
136.2409351145
 20
176.7303590701
 11
136.2409351145
 21
178.2859833826
  0
LINE
  5
243
100
AcDbEntity
  8
0
100
AcDbLine
 62
7
  6
CONTINUOUS
 10
137.4559351145
 20
176.9362901294
 11
137.4559351145
 21
178.2066334574
  0
LINE
  5
244
100
AcDbEntity
  8
0
100
AcDbLine
 62
7
  6
CONTINUOUS
 10
137.5444767838
 20
176.8744542081
 11
137.5444767838
 21
177.6953621491
  0
LINE
  5
245
100
AcDbEntity
  8
0
100
AcDbLine
 62
7
  6
CONTINUOUS
 10
137.5444767838
 20
177.7550352536
 11
137.5444767838
 21
178.126792141
  0
LINE
  5
246
100
AcDbEntity
  8
0
100
AcDbLine
 62
7
  6
CONTINUOUS
 10
137.7215601145
 20
176.8091814555
 11
137.7215601145
 21
177.6323846348
  0
LINE
  5
247
100
AcDbEntity
  8
0
100
AcDbLine
 62
7
  6
CONTINUOUS
 10
137.9871851145
 20
176.7637421999
 11
137.9871851145
 21
177.5885506542
  0
LINE
  5
248
100
AcDbEntity
  8
0
100
AcDbLine
 62
7
  6
CONTINUOUS
 10
137.9871851145
 20
177.715619076
 11
137.9871851145
 21
178.126792141
  0
LINE
  5
249
100
AcDbEntity
  8
KONSTRUKTIONSELEMENTE
100
AcDbLine
 62
7
  6
CONTINUOUS
 10
150.1401202356
 20
173.4384606225
 11
151.3947024022
 21
173.4384606225
  0
LINE
  5
24A
100
AcDbEntity
  8
0
100
AcDbLine
 62
7
  6
CONTINUOUS
 10
150.1401202356
 20
174.0137095823
 11
151.3947024022
 21
174.0137095823
  0
LINE
  5
24B
100
AcDbEntity
  8
0
100
AcDbLine
 62
7
  6
CONTINUOUS
 10
143.8427677726
 20
174.6180868662
 11
145.0647636925
 21
174.6180868662
  0
LINE
  5
24C
100
AcDbEntity
  8
0
100
AcDbLine
 62
7
  6
CONTINUOUS
 10
148.9181240474
 20
174.6180868662
 11
151.6309549485
 21
174.6180868662
  0
LINE
  5
24D
100
AcDbEntity
  8
0
100
AcDbLine
 62
7
  6
CONTINUOUS
 10
154.0708739434
 20
174.6180868662
 11
155.4109964048
 21
174.6180868662
  0
LINE
  5
24E
100
AcDbEntity
  8
0
100
AcDbLine
 62
7
  6
CONTINUOUS
 10
157.1991829549
 20
174.6180868662
 11
158.5107917463
 21
174.6180868662
  0
LINE
  5
24F
100
AcDbEntity
  8
0
100
AcDbLine
 62
7
  6
CONTINUOUS
 10
160.3519329702
 20
174.6180868662
 11
161.639101473
 21
174.6180868662
  0
LINE
  5
250
100
AcDbEntity
  8
0
100
AcDbLine
 62
7
  6
CONTINUOUS
 10
189.2169877483
 20
174.6544545808
 11
190.7959351183
 21
174.6544545808
  0
LINE
  5
251
100
AcDbEntity
  8
0
100
AcDbLine
 62
7
  6
CONTINUOUS
 10
189.2169877483
 20
174.6697203551
 11
190.7959351183
 21
174.6697203551
  0
LINE
  5
252
100
AcDbEntity
  8
KONSTRUKTIONSELEMENTE
100
AcDbLine
 62
7
  6
CONTINUOUS
 10
143.9909351145
 20
175.2786239023
 11
161.4909351145
 21
175.2786239023
  0
LINE
  5
253
100
AcDbEntity
  8
0
100
AcDbLine
 62
7
  6
CONTINUOUS
 10
190.7459351183
 20
175.852509036
 11
189.2696193273
 21
175.852509036
  0
LINE
  5
254
100
AcDbEntity
  8
KONSTRUKTIONSELEMENTE
100
AcDbLine
 62
7
  6
CONTINUOUS
 10
143.9909351145
 20
175.8785740263
 11
161.4909351145
 21
175.8785740263
  0
LINE
  5
255
100
AcDbEntity
  8
0
100
AcDbLine
 62
7
  6
CONTINUOUS
 10
136.2409351145
 20
176.7303590701
 11
169.2409351145
 21
176.7303590701
  0
LINE
  5
256
100
AcDbEntity
  8
KONSTRUKTIONSELEMENTE
100
AcDbLine
 62
7
  6
CONTINUOUS
 10
136.2409351145
 20
177.4859833826
 11
137.4559351145
 21
177.4859833826
  0
LINE
  5
257
100
AcDbEntity
  8
KONSTRUKTIONSELEMENTE
100
AcDbLine
 62
7
  6
CONTINUOUS
 10
140.6434351145
 20
177.4859833826
 11
141.3517685323
 21
177.4859833826
  0
LINE
  5
258
100
AcDbEntity
  8
KONSTRUKTIONSELEMENTE
100
AcDbLine
 62
7
  6
CONTINUOUS
 10
144.539268279
 20
177.4859833826
 11
145.2476019501
 21
177.4859833826
  0
LINE
  5
259
100
AcDbEntity
  8
KONSTRUKTIONSELEMENTE
100
AcDbLine
 62
7
  6
CONTINUOUS
 10
148.4351014434
 20
177.4859833826
 11
149.1434351145
 21
177.4859833826
  0
LINE
  5
25A
100
AcDbEntity
  8
KONSTRUKTIONSELEMENTE
100
AcDbLine
 62
7
  6
CONTINUOUS
 10
152.3309351145
 20
177.4859833826
 11
153.0392687856
 21
177.4859833826
  0
LINE
  5
25B
100
AcDbEntity
  8
KONSTRUKTIONSELEMENTE
100
AcDbLine
 62
7
  6
CONTINUOUS
 10
156.2267677723
 20
177.4859833826
 11
156.9351024567
 21
177.4859833826
  0
LINE
  5
25C
100
AcDbEntity
  8
KONSTRUKTIONSELEMENTE
100
AcDbLine
 62
7
  6
CONTINUOUS
 10
159.7684351145
 20
177.4859833826
 11
160.4767677723
 21
177.4859833826
  0
LINE
  5
25D
100
AcDbEntity
  8
KONSTRUKTIONSELEMENTE
100
AcDbLine
 62
7
  6
CONTINUOUS
 10
163.3101024567
 20
177.4859833826
 11
164.0184351145
 21
177.4859833826
  0
LINE
  5
25E
100
AcDbEntity
  8
KONSTRUKTIONSELEMENTE
100
AcDbLine
 62
7
  6
CONTINUOUS
 10
167.5601024567
 20
177.4859833826
 11
169.2409351145
 21
177.4859833826
  0
LINE
  5
25F
100
AcDbEntity
  8
0
100
AcDbLine
 62
7
  6
CONTINUOUS
 10
138.6955184056
 20
177.5200053117
 11
139.4038518234
 21
177.5200053117
  0
LINE
  5
260
100
AcDbEntity
  8
0
100
AcDbLine
 62
7
  6
CONTINUOUS
 10
141.3517685323
 20
177.5200053117
 11
144.539268279
 21
177.5200053117
  0
LINE
  5
261
100
AcDbEntity
  8
0
100
AcDbLine
 62
7
  6
CONTINUOUS
 10
157.9976024567
 20
177.5200053117
 11
158.5288524567
 21
177.5200053117
  0
LINE
  5
262
100
AcDbEntity
  8
0
100
AcDbLine
 62
7
  6
CONTINUOUS
 10
159.3257274567
 20
177.5200053117
 11
159.7684351145
 21
177.5200053117
  0
LINE
  5
263
100
AcDbEntity
  8
0
100
AcDbLine
 62
7
  6
CONTINUOUS
 10
161.3621851145
 20
177.5200053117
 11
161.8934351145
 21
177.5200053117
  0
LINE
  5
264
100
AcDbEntity
  8
0
100
AcDbLine
 62
7
  6
CONTINUOUS
 10
162.8673927723
 20
177.5200053117
 11
163.3101024567
 21
177.5200053117
  0
LINE
  5
265
100
AcDbEntity
  8
0
100
AcDbLine
 62
7
  6
CONTINUOUS
 10
164.0184351145
 20
177.5200053117
 11
164.5496851145
 21
177.5200053117
  0
LINE
  5
266
100
AcDbEntity
  8
0
100
AcDbLine
 62
7
  6
CONTINUOUS
 10
166.7632274567
 20
177.5200053117
 11
167.5601024567
 21
177.5200053117
  0
LINE
  5
267
100
AcDbEntity
  8
0
100
AcDbLine
 62
7
  6
CONTINUOUS
 10
161.3621851145
 20
177.6106532203
 11
161.8934351145
 21
177.6106532203
  0
LINE
  5
268
100
AcDbEntity
  8
0
100
AcDbLine
 62
7
  6
CONTINUOUS
 10
138.7840601145
 20
177.6323846348
 11
139.3153101145
 21
177.6323846348
  0
LINE
  5
269
100
AcDbEntity
  8
0
100
AcDbLine
 62
7
  6
CONTINUOUS
 10
142.0601019501
 20
177.6323846348
 11
144.539268279
 21
177.6323846348
  0
LINE
  5
26A
100
AcDbEntity
  8
0
100
AcDbLine
 62
7
  6
CONTINUOUS
 10
158.1746851145
 20
177.6323846348
 11
158.5288524567
 21
177.6323846348
  0
LINE
  5
26B
100
AcDbEntity
  8
0
100
AcDbLine
 62
7
  6
CONTINUOUS
 10
137.4559351145
 20
177.7550352536
 11
137.8986434373
 21
177.7550352536
  0
LINE
  5
26C
100
AcDbEntity
  8
0
100
AcDbLine
 62
7
  6
CONTINUOUS
 10
161.7163524567
 20
177.8645671298
 11
162.6903101145
 21
177.8645671298
  0
LINE
  5
26D
100
AcDbEntity
  8
0
100
AcDbLine
 62
7
  6
CONTINUOUS
 10
161.7163524567
 20
177.9303911521
 11
162.6903101145
 21
177.9303911521
  0
LINE
  5
26E
100
AcDbEntity
  8
0
100
AcDbLine
 62
7
  6
CONTINUOUS
 10
138.8726018234
 20
177.9459545666
 11
139.2267684056
 21
177.9459545666
  0
LINE
  5
26F
100
AcDbEntity
  8
0
100
AcDbLine
 62
7
  6
CONTINUOUS
 10
160.4767677723
 20
177.9760152755
 11
160.9194774567
 21
177.9760152755
  0
LINE
  5
270
100
AcDbEntity
  8
0
100
AcDbLine
 62
7
  6
CONTINUOUS
 10
138.8726018234
 20
178.0046589684
 11
139.2267684056
 21
178.0046589684
  0
LINE
  5
271
100
AcDbEntity
  8
0
100
AcDbLine
 62
7
  6
CONTINUOUS
 10
157.9976024567
 20
178.0184510472
 11
158.5288524567
 21
178.0184510472
  0
LINE
  5
272
100
AcDbEntity
  8
0
100
AcDbLine
 62
7
  6
CONTINUOUS
 10
161.5392677723
 20
178.0318907732
 11
162.0705177723
 21
178.0318907732
  0
LINE
  5
273
100
AcDbEntity
  8
0
100
AcDbLine
 62
7
  6
CONTINUOUS
 10
157.9976024567
 20
178.0821378562
 11
158.5288524567
 21
178.0821378562
  0
LINE
  5
274
100
AcDbEntity
  8
0
100
AcDbLine
 62
7
  6
CONTINUOUS
 10
161.5392677723
 20
178.0821378562
 11
162.0705177723
 21
178.0821378562
  0
LINE
  5
275
100
AcDbEntity
  8
0
100
AcDbLine
 62
7
  6
CONTINUOUS
 10
137.5444767838
 20
178.126792141
 11
137.9871851145
 21
178.126792141
  0
LINE
  5
276
100
AcDbEntity
  8
0
100
AcDbLine
 62
7
  6
CONTINUOUS
 10
141.4403101145
 20
178.126792141
 11
141.883018279
 21
178.126792141
  0
LINE
  5
277
100
AcDbEntity
  8
0
100
AcDbLine
 62
7
  6
CONTINUOUS
 10
138.8726018234
 20
178.1833544761
 11
139.2267684056
 21
178.1833544761
  0
LINE
  5
278
100
AcDbEntity
  8
0
100
AcDbLine
 62
7
  6
CONTINUOUS
 10
142.7684351145
 20
178.1833544761
 11
143.1226019501
 21
178.1833544761
  0
LINE
  5
279
100
AcDbEntity
  8
0
100
AcDbLine
 62
7
  6
CONTINUOUS
 10
137.4559351145
 20
178.2066334574
 11
138.1562283248
 21
178.2066334574
  0
LINE
  5
27A
100
AcDbEntity
  8
0
100
AcDbLine
 62
7
  6
CONTINUOUS
 10
139.9431419345
 20
178.2066334574
 11
140.6434351145
 21
178.2066334574
  0
LINE
  5
27B
100
AcDbEntity
  8
0
100
AcDbLine
 62
7
  6
CONTINUOUS
 10
138.9611434056
 20
178.2209948721
 11
139.1382268234
 21
178.2209948721
  0
LINE
  5
27C
100
AcDbEntity
  8
0
100
AcDbLine
 62
7
  6
CONTINUOUS
 10
142.8569769501
 20
178.2209948721
 11
143.211143279
 21
178.2209948721
  0
LINE
  5
27D
100
AcDbEntity
  8
0
100
AcDbLine
 62
7
  6
CONTINUOUS
 10
159.3257274567
 20
178.2209948721
 11
159.7684351145
 21
178.2209948721
  0
LINE
  5
27E
100
AcDbEntity
  8
0
100
AcDbLine
 62
7
  6
CONTINUOUS
 10
164.0184351145
 20
178.2209948721
 11
164.8153101145
 21
178.2209948721
  0
LINE
  5
27F
100
AcDbEntity
  8
0
100
AcDbLine
 62
7
  6
CONTINUOUS
 10
167.0288524567
 20
178.2209948721
 11
167.5601024567
 21
178.2209948721
  0
LINE
  5
280
100
AcDbEntity
  8
KONSTRUKTIONSELEMENTE
100
AcDbLine
 62
7
  6
CONTINUOUS
 10
134.2409351145
 20
178.2859833826
 11
136.2409351145
 21
178.2859833826
  0
LINE
  5
281
100
AcDbEntity
  8
KONSTRUKTIONSELEMENTE
100
AcDbLine
 62
7
  6
CONTINUOUS
 10
169.2409351145
 20
178.2859833826
 11
171.2409351145
 21
178.2859833826
  0
LINE
  5
282
100
AcDbEntity
  8
0
100
AcDbLine
 62
7
  6
CONTINUOUS
 10
188.0327772208
 20
178.305523353
 11
191.388040382
 21
178.305523353
  0
LINE
  5
283
100
AcDbEntity
  8
0
100
AcDbLine
 62
7
  6
CONTINUOUS
 10
188.0327772208
 20
178.3207891272
 11
191.388040382
 21
178.3207891272
  0
LINE
  5
284
100
AcDbEntity
  8
0
100
AcDbLine
 62
7
  6
CONTINUOUS
 10
138.1642684689
 20
177.6747380918
 11
138.1642684689
 21
178.1566315659
  0
LINE
  5
285
100
AcDbEntity
  8
0
100
AcDbLine
 62
7
  6
CONTINUOUS
 10
138.3413517601
 20
176.7303590701
 11
138.3413517601
 21
177.5432277882
  0
LINE
  5
286
100
AcDbEntity
  8
0
100
AcDbLine
 62
7
  6
CONTINUOUS
 10
138.4298934689
 20
177.6495013665
 11
138.4298934689
 21
178.1747924481
  0
LINE
  5
287
100
AcDbEntity
  8
0
100
AcDbLine
 62
7
  6
CONTINUOUS
 10
138.6955184056
 20
176.7303590701
 11
138.6955184056
 21
177.5200053117
  0
LINE
  5
288
100
AcDbEntity
  8
0
100
AcDbLine
 62
7
  6
CONTINUOUS
 10
138.8726018234
 20
177.6323846348
 11
138.8726018234
 21
178.1833544761
  0
LINE
  5
289
100
AcDbEntity
  8
0
100
AcDbLine
 62
7
  6
CONTINUOUS
 10
139.2267684056
 20
177.6323846348
 11
139.2267684056
 21
177.9459545666
  0
LINE
  5
28A
100
AcDbEntity
  8
0
100
AcDbLine
 62
7
  6
CONTINUOUS
 10
139.2267684056
 20
178.0046589684
 11
139.2267684056
 21
178.1833544761
  0
LINE
  5
28B
100
AcDbEntity
  8
0
100
AcDbLine
 62
7
  6
CONTINUOUS
 10
139.4038518234
 20
176.7303590701
 11
139.4038518234
 21
177.5200053117
  0
LINE
  5
28C
100
AcDbEntity
  8
0
100
AcDbLine
 62
7
  6
CONTINUOUS
 10
139.6694766967
 20
178.0274401651
 11
139.6694766967
 21
178.1747924481
  0
LINE
  5
28D
100
AcDbEntity
  8
0
100
AcDbLine
 62
7
  6
CONTINUOUS
 10
139.7580185323
 20
177.6537459181
 11
139.7580185323
 21
177.9303911521
  0
LINE
  5
28E
100
AcDbEntity
  8
0
100
AcDbLine
 62
7
  6
CONTINUOUS
 10
139.7580185323
 20
176.7303590701
 11
139.7580185323
 21
177.5432277882
  0
LINE
  5
28F
100
AcDbEntity
  8
0
100
AcDbLine
 62
7
  6
CONTINUOUS
 10
139.9351016967
 20
178.0577155422
 11
139.9351016967
 21
178.1566315659
  0
LINE
  5
290
100
AcDbEntity
  8
0
100
AcDbLine
 62
7
  6
CONTINUOUS
 10
140.0236435323
 20
177.6953621358
 11
140.0236435323
 21
177.8981946898
  0
LINE
  5
291
100
AcDbEntity
  8
0
100
AcDbLine
 62
7
  6
CONTINUOUS
 10
140.1121851145
 20
178.126792141
 11
140.1121851145
 21
178.1051620291
  0
LINE
  5
292
100
AcDbEntity
  8
0
100
AcDbLine
 62
7
  6
CONTINUOUS
 10
140.1121851145
 20
176.7637421999
 11
140.1121851145
 21
177.5885506542
  0
LINE
  5
293
100
AcDbEntity
  8
0
100
AcDbLine
 62
7
  6
CONTINUOUS
 10
140.2007266967
 20
177.8295023873
 11
140.2007266967
 21
177.7550352536
  0
LINE
  5
294
100
AcDbEntity
  8
0
100
AcDbLine
 62
7
  6
CONTINUOUS
 10
140.2892685323
 20
177.9520732487
 11
140.2892685323
 21
178.0184510472
  0
LINE
  5
295
100
AcDbEntity
  8
0
100
AcDbLine
 62
7
  6
CONTINUOUS
 10
140.3778101145
 20
176.8091814555
 11
140.3778101145
 21
177.6323846348
  0
LINE
  5
296
100
AcDbEntity
  8
0
100
AcDbLine
 62
7
  6
CONTINUOUS
 10
140.4663516967
 20
177.9224757712
 11
140.4663516967
 21
178.0577155422
  0
LINE
  5
297
100
AcDbEntity
  8
0
100
AcDbLine
 62
7
  6
CONTINUOUS
 10
140.5548935323
 20
176.8744542081
 11
140.5548935323
 21
177.6953621491
  0
LINE
  5
298
100
AcDbEntity
  8
0
100
AcDbLine
 62
7
  6
CONTINUOUS
 10
140.5548935323
 20
177.8981946898
 11
140.5548935323
 21
178.126792141
  0
LINE
  5
299
100
AcDbEntity
  8
0
100
AcDbLine
 62
7
  6
CONTINUOUS
 10
140.6434351145
 20
176.9362901294
 11
140.6434351145
 21
178.2066334574
  0
LINE
  5
29A
100
AcDbEntity
  8
KONSTRUKTIONSELEMENTE
100
AcDbLine
 62
7
  6
CONTINUOUS
 10
140.9909351145
 20
174.341584631
 11
140.9909351145
 21
167.2283917551
  0
LINE
  5
29B
100
AcDbEntity
  8
0
100
AcDbLine
 62
7
  6
CONTINUOUS
 10
141.3517685323
 20
176.7303590701
 11
141.3517685323
 21
178.0443859437
  0
LINE
  5
29C
100
AcDbEntity
  8
0
100
AcDbLine
 62
7
  6
CONTINUOUS
 10
141.4403101145
 20
177.6509452967
 11
141.4403101145
 21
178.126792141
  0
LINE
  5
29D
100
AcDbEntity
  8
0
100
AcDbLine
 62
7
  6
CONTINUOUS
 10
141.883018279
 20
177.7418779363
 11
141.883018279
 21
178.126792141
  0
LINE
  5
29E
100
AcDbEntity
  8
0
100
AcDbLine
 62
7
  6
CONTINUOUS
 10
142.0601019501
 20
177.7762891127
 11
142.0601019501
 21
178.1566315659
  0
LINE
  5
29F
100
AcDbEntity
  8
0
100
AcDbLine
 62
7
  6
CONTINUOUS
 10
142.3257269501
 20
177.8255695017
 11
142.3257269501
 21
178.1747924481
  0
LINE
  5
2A0
100
AcDbEntity
  8
0
100
AcDbLine
 62
7
  6
CONTINUOUS
 10
142.7684351145
 20
177.9021099854
 11
142.7684351145
 21
178.1833544761
  0
LINE
  5
2A1
100
AcDbEntity
  8
0
100
AcDbLine
 62
7
  6
CONTINUOUS
 10
143.1226019501
 20
177.9583577283
 11
143.1226019501
 21
178.1833544761
  0
LINE
  5
2A2
100
AcDbEntity
  8
0
100
AcDbLine
 62
7
  6
CONTINUOUS
 10
192.966987752
 20
179.5027898089
 11
191.9801456458
 21
179.5027898089
  0
LINE
  5
2A3
100
AcDbEntity
  8
0
100
AcDbLine
 62
7
  6
CONTINUOUS
 10
191.388040382
 20
179.5027898089
 11
187.0459351145
 21
179.5027898089
  0
LINE
  5
2A4
100
AcDbEntity
  8
BEZUGSACHSEN
100
AcDbLine
 62
7
  6
CONTINUOUS
 10
175.2409351395
 20
179.7859833826
 11
168.755223734
 21
179.7859833826
  0
LINE
  5
2A5
100
AcDbEntity
  8
RUNDUNGEN
100
AcDbLine
 62
7
  6
CONTINUOUS
 10
130.2409350895
 20
179.7859833826
 11
136.726646495
 21
179.7859833826
  0
LINE
  5
2A6
100
AcDbEntity
  8
0
100
AcDbLine
 62
7
  6
CONTINUOUS
 10
189.4143561695
 20
180.6695247162
 11
192.966987752
 21
180.6695247162
  0
LINE
  5
2A7
100
AcDbEntity
  8
0
100
AcDbLine
 62
7
  6
CONTINUOUS
 10
189.4143561695
 20
180.6847904905
 11
192.966987752
 21
180.6847904905
  0
LINE
  5
2A8
100
AcDbEntity
  8
0
100
AcDbLine
 62
7
  6
CONTINUOUS
 10
192.966987752
 20
181.8667911721
 11
189.4143561695
 21
181.8667911721
  0
LINE
  5
2A9
100
AcDbEntity
  8
0
100
AcDbLine
 62
7
  6
CONTINUOUS
 10
143.5653101145
 20
178.0220865662
 11
143.5653101145
 21
178.1747924481
  0
LINE
  5
2AA
100
AcDbEntity
  8
0
100
AcDbLine
 62
7
  6
CONTINUOUS
 10
143.8309351145
 20
178.0577155422
 11
143.8309351145
 21
178.1566315659
  0
LINE
  5
2AB
100
AcDbEntity
  8
0
100
AcDbLine
 62
7
  6
CONTINUOUS
 10
143.8427677726
 20
170.2321872861
 11
143.8427677726
 21
174.6180868662
  0
LINE
  5
2AC
100
AcDbEntity
  8
0
100
AcDbLine
 62
7
  6
CONTINUOUS
 10
144.008018279
 20
178.126792141
 11
144.008018279
 21
178.1051620291
  0
LINE
  5
2AD
100
AcDbEntity
  8
0
100
AcDbLine
 62
7
  6
CONTINUOUS
 10
144.273643279
 20
177.6323846348
 11
144.273643279
 21
178.0184510472
  0
LINE
  5
2AE
100
AcDbEntity
  8
0
100
AcDbLine
 62
7
  6
CONTINUOUS
 10
144.3621851145
 20
178.1747923897
 11
144.3621851145
 21
178.1829691819
  0
LINE
  5
2AF
100
AcDbEntity
  8
0
100
AcDbLine
 62
7
  6
CONTINUOUS
 10
144.4507269501
 20
177.6323846348
 11
144.4507269501
 21
178.0577155422
  0
LINE
  5
2B0
100
AcDbEntity
  8
0
100
AcDbLine
 62
7
  6
CONTINUOUS
 10
144.539268279
 20
176.7303590701
 11
144.539268279
 21
178.126792141
  0
LINE
  5
2B1
100
AcDbEntity
  8
0
100
AcDbLine
 62
7
  6
CONTINUOUS
 10
144.7163519501
 20
177.4859833826
 11
144.7163519501
 21
178.1465831441
  0
LINE
  5
2B2
100
AcDbEntity
  8
0
100
AcDbLine
 62
7
  6
CONTINUOUS
 10
144.804893279
 20
177.4859833826
 11
144.804893279
 21
178.0932958992
  0
LINE
  5
2B3
100
AcDbEntity
  8
0
100
AcDbLine
 62
7
  6
CONTINUOUS
 10
145.0647636925
 20
171.5617101583
 11
145.0647636925
 21
174.6180868662
  0
LINE
  5
2B4
100
AcDbEntity
  8
0
100
AcDbLine
 62
7
  6
CONTINUOUS
 10
145.2476019501
 20
177.0845912966
 11
145.2476019501
 21
178.0318907732
  0
LINE
  5
2B5
100
AcDbEntity
  8
0
100
AcDbLine
 62
7
  6
CONTINUOUS
 10
145.336143279
 20
176.9947172663
 11
145.336143279
 21
177.8114290659
  0
LINE
  5
2B6
100
AcDbEntity
  8
0
100
AcDbLine
 62
7
  6
CONTINUOUS
 10
145.4246851145
 20
176.9362901294
 11
145.4246851145
 21
177.7550352536
  0
LINE
  5
2B7
100
AcDbEntity
  8
0
100
AcDbLine
 62
7
  6
CONTINUOUS
 10
145.601768279
 20
176.853079936
 11
145.601768279
 21
177.6747380918
  0
LINE
  5
2B8
100
AcDbEntity
  8
0
100
AcDbLine
 62
7
  6
CONTINUOUS
 10
145.6903101145
 20
178.0184510472
 11
145.6903101145
 21
177.9144714334
  0
LINE
  5
2B9
100
AcDbEntity
  8
0
100
AcDbLine
 62
7
  6
CONTINUOUS
 10
145.7788519501
 20
177.8114290659
 11
145.7788519501
 21
178.093824451
  0
LINE
  5
2BA
100
AcDbEntity
  8
0
100
AcDbLine
 62
7
  6
CONTINUOUS
 10
145.867393279
 20
176.7866549957
 11
145.867393279
 21
177.6106532203
  0
LINE
  5
2BB
100
AcDbEntity
  8
0
100
AcDbLine
 62
7
  6
CONTINUOUS
 10
146.1330187856
 20
177.6953621491
 11
146.1330187856
 21
178.1566315659
  0
LINE
  5
2BC
100
AcDbEntity
  8
0
100
AcDbLine
 62
7
  6
CONTINUOUS
 10
146.3101014434
 20
176.7303590701
 11
146.3101014434
 21
177.5432277882
  0
LINE
  5
2BD
100
AcDbEntity
  8
0
100
AcDbLine
 62
7
  6
CONTINUOUS
 10
146.3986437856
 20
177.6537459181
 11
146.3986437856
 21
178.1747924481
  0
LINE
  5
2BE
100
AcDbEntity
  8
0
100
AcDbLine
 62
7
  6
CONTINUOUS
 10
146.8413514434
 20
176.7303590701
 11
146.8413514434
 21
177.5200053117
  0
LINE
  5
2BF
100
AcDbEntity
  8
0
100
AcDbLine
 62
7
  6
CONTINUOUS
 10
146.8413514434
 20
177.6323846348
 11
146.8413514434
 21
178.1833544761
  0
LINE
  5
2C0
100
AcDbEntity
  8
0
100
AcDbLine
 62
7
  6
CONTINUOUS
 10
147.2840601145
 20
177.6537459181
 11
147.2840601145
 21
178.1747924481
  0
LINE
  5
2C1
100
AcDbEntity
  8
0
100
AcDbLine
 62
7
  6
CONTINUOUS
 10
147.3726014434
 20
176.7303590701
 11
147.3726014434
 21
177.5432277882
  0
LINE
  5
2C2
100
AcDbEntity
  8
0
100
AcDbLine
 62
7
  6
CONTINUOUS
 10
147.5496851145
 20
177.6953621491
 11
147.5496851145
 21
178.1566315659
  0
LINE
  5
2C3
100
AcDbEntity
  8
0
100
AcDbLine
 62
7
  6
CONTINUOUS
 10
147.8153101145
 20
176.7866549957
 11
147.8153101145
 21
177.6106532203
  0
LINE
  5
2C4
100
AcDbEntity
  8
0
100
AcDbLine
 62
7
  6
CONTINUOUS
 10
147.9038514434
 20
177.8114290659
 11
147.9038514434
 21
178.093824451
  0
LINE
  5
2C5
100
AcDbEntity
  8
0
100
AcDbLine
 62
7
  6
CONTINUOUS
 10
147.9923937856
 20
178.0184510472
 11
147.9923937856
 21
177.9144714334
  0
LINE
  5
2C6
100
AcDbEntity
  8
0
100
AcDbLine
 62
7
  6
CONTINUOUS
 10
148.0057005559
 20
170.2321872861
 11
148.0057005559
 21
171.5617101583
  0
LINE
  5
2C7
100
AcDbEntity
  8
0
100
AcDbLine
 62
7
  6
CONTINUOUS
 10
148.0809351145
 20
176.853079936
 11
148.0809351145
 21
177.6747380918
  0
LINE
  5
2C8
100
AcDbEntity
  8
0
100
AcDbLine
 62
7
  6
CONTINUOUS
 10
148.2580187856
 20
176.9362901294
 11
148.2580187856
 21
177.7550352536
  0
LINE
  5
2C9
100
AcDbEntity
  8
0
100
AcDbLine
 62
7
  6
CONTINUOUS
 10
189.4143561695
 20
184.2155267611
 11
192.966987752
 21
184.2155267611
  0
LINE
  5
2CA
100
AcDbEntity
  8
0
100
AcDbLine
 62
7
  6
CONTINUOUS
 10
189.4143561695
 20
184.2307925354
 11
192.966987752
 21
184.2307925354
  0
LINE
  5
2CB
100
AcDbEntity
  8
0
100
AcDbLine
 62
7
  6
CONTINUOUS
 10
192.966987752
 20
185.412793217
 11
189.4143561695
 21
185.412793217
  0
LINE
  5
2CC
100
AcDbEntity
  8
0
100
AcDbLine
 62
7
  6
CONTINUOUS
 10
148.3465601145
 20
176.9947172663
 11
148.3465601145
 21
177.8114290659
  0
LINE
  5
2CD
100
AcDbEntity
  8
0
100
AcDbLine
 62
7
  6
CONTINUOUS
 10
148.4351014434
 20
177.0845912966
 11
148.4351014434
 21
178.0318907732
  0
LINE
  5
2CE
100
AcDbEntity
  8
0
100
AcDbLine
 62
7
  6
CONTINUOUS
 10
148.9181240474
 20
170.2321872861
 11
148.9181240474
 21
174.6180868662
  0
LINE
  5
2CF
100
AcDbEntity
  8
0
100
AcDbLine
 62
7
  6
CONTINUOUS
 10
149.1434351145
 20
177.0845912966
 11
149.1434351145
 21
178.0318907732
  0
LINE
  5
2D0
100
AcDbEntity
  8
0
100
AcDbLine
 62
7
  6
CONTINUOUS
 10
149.2319764434
 20
176.9947172663
 11
149.2319764434
 21
177.8114290659
  0
LINE
  5
2D1
100
AcDbEntity
  8
0
100
AcDbLine
 62
7
  6
CONTINUOUS
 10
149.3205187856
 20
176.9362901294
 11
149.3205187856
 21
177.7550352536
  0
LINE
  5
2D2
100
AcDbEntity
  8
0
100
AcDbLine
 62
7
  6
CONTINUOUS
 10
149.4976014434
 20
176.853079936
 11
149.4976014434
 21
177.6747380918
  0
LINE
  5
2D3
100
AcDbEntity
  8
0
100
AcDbLine
 62
7
  6
CONTINUOUS
 10
149.5861437856
 20
178.0184510472
 11
149.5861437856
 21
177.9144714334
  0
LINE
  5
2D4
100
AcDbEntity
  8
0
100
AcDbLine
 62
7
  6
CONTINUOUS
 10
149.6746851145
 20
177.8114290659
 11
149.6746851145
 21
178.093824451
  0
LINE
  5
2D5
100
AcDbEntity
  8
0
100
AcDbLine
 62
7
  6
CONTINUOUS
 10
149.7632264434
 20
176.7866549957
 11
149.7632264434
 21
177.6106532203
  0
LINE
  5
2D6
100
AcDbEntity
  8
0
100
AcDbLine
 62
7
  6
CONTINUOUS
 10
150.0288514434
 20
177.6953621491
 11
150.0288514434
 21
178.1566315659
  0
LINE
  5
2D7
100
AcDbEntity
  8
0
100
AcDbLine
 62
7
  6
CONTINUOUS
 10
150.1401202356
 20
174.0137095823
 11
150.1401202356
 21
172.9633353509
  0
LINE
  5
2D8
100
AcDbEntity
  8
0
100
AcDbLine
 62
7
  6
CONTINUOUS
 10
150.1401202356
 20
170.2321872861
 11
150.1401202356
 21
172.2669277908
  0
LINE
  5
2D9
100
AcDbEntity
  8
0
100
AcDbLine
 62
7
  6
CONTINUOUS
 10
150.2059351145
 20
176.7303590701
 11
150.2059351145
 21
177.5432277882
  0
LINE
  5
2DA
100
AcDbEntity
  8
0
100
AcDbLine
 62
7
  6
CONTINUOUS
 10
150.2944764434
 20
177.6537459181
 11
150.2944764434
 21
178.1747924481
  0
LINE
  5
2DB
100
AcDbEntity
  8
0
100
AcDbLine
 62
7
  6
CONTINUOUS
 10
150.7371851145
 20
176.7303590701
 11
150.7371851145
 21
177.5200053117
  0
LINE
  5
2DC
100
AcDbEntity
  8
0
100
AcDbLine
 62
7
  6
CONTINUOUS
 10
150.7371851145
 20
177.6323846348
 11
150.7371851145
 21
178.1833544761
  0
LINE
  5
2DD
100
AcDbEntity
  8
0
100
AcDbLine
 62
7
  6
CONTINUOUS
 10
151.1798937856
 20
177.6537459181
 11
151.1798937856
 21
178.1747924481
  0
LINE
  5
2DE
100
AcDbEntity
  8
0
100
AcDbLine
 62
7
  6
CONTINUOUS
 10
151.2684351145
 20
176.7303590701
 11
151.2684351145
 21
177.5432277882
  0
LINE
  5
2DF
100
AcDbEntity
  8
0
100
AcDbLine
 62
7
  6
CONTINUOUS
 10
151.4455187856
 20
177.6953621491
 11
151.4455187856
 21
178.1566315659
  0
LINE
  5
2E0
100
AcDbEntity
  8
0
100
AcDbLine
 62
7
  6
CONTINUOUS
 10
151.7111437856
 20
176.7866549957
 11
151.7111437856
 21
177.6106532203
  0
LINE
  5
2E1
100
AcDbEntity
  8
0
100
AcDbLine
 62
7
  6
CONTINUOUS
 10
151.7996851145
 20
177.8114290659
 11
151.7996851145
 21
178.093824451
  0
LINE
  5
2E2
100
AcDbEntity
  8
0
100
AcDbLine
 62
7
  6
CONTINUOUS
 10
151.8882264434
 20
178.0184510472
 11
151.8882264434
 21
177.9144714334
  0
LINE
  5
2E3
100
AcDbEntity
  8
0
100
AcDbLine
 62
7
  6
CONTINUOUS
 10
151.9767687856
 20
176.853079936
 11
151.9767687856
 21
177.6747380918
  0
LINE
  5
2E4
100
AcDbEntity
  8
0
100
AcDbLine
 62
7
  6
CONTINUOUS
 10
152.1538514434
 20
176.9362901294
 11
152.1538514434
 21
177.7550352536
  0
LINE
  5
2E5
100
AcDbEntity
  8
0
100
AcDbLine
 62
7
  6
CONTINUOUS
 10
152.2423937856
 20
176.9947172663
 11
152.2423937856
 21
177.8114290659
  0
LINE
  5
2E6
100
AcDbEntity
  8
0
100
AcDbLine
 62
7
  6
CONTINUOUS
 10
152.3309351145
 20
177.0845912966
 11
152.3309351145
 21
178.0318907732
  0
LINE
  5
2E7
100
AcDbEntity
  8
BG_STARTBEZUEGE
100
AcDbLine
 62
7
  6
CENTER
 10
152.7409351145
 20
130.1344664974
 11
152.7409351145
 21
256.1355716705
  0
LINE
  5
2E8
100
AcDbEntity
  8
0
100
AcDbLine
 62
7
  6
CONTINUOUS
 10
153.0392687856
 20
177.0845912966
 11
153.0392687856
 21
178.0318907732
  0
LINE
  5
2E9
100
AcDbEntity
  8
0
100
AcDbLine
 62
7
  6
CONTINUOUS
 10
153.1278101145
 20
176.9947172663
 11
153.1278101145
 21
177.8114290659
  0
LINE
  5
2EA
100
AcDbEntity
  8
0
100
AcDbLine
 62
7
  6
CONTINUOUS
 10
153.2163514434
 20
176.9362901294
 11
153.2163514434
 21
177.7550352536
  0
LINE
  5
2EB
100
AcDbEntity
  8
0
100
AcDbLine
 62
7
  6
CONTINUOUS
 10
153.3934351145
 20
176.853079936
 11
153.3934351145
 21
177.6747380918
  0
LINE
  5
2EC
100
AcDbEntity
  8
0
100
AcDbLine
 62
7
  6
CONTINUOUS
 10
187.0459351145
 20
190.3225302829
 11
189.5196193275
 21
190.3225302829
  0
LINE
  5
2ED
100
AcDbEntity
  8
0
100
AcDbLine
 62
7
  6
CONTINUOUS
 10
190.5064614338
 20
190.3225302829
 11
191.388040382
 21
190.3225302829
  0
LINE
  5
2EE
100
AcDbEntity
  8
0
100
AcDbLine
 62
7
  6
CONTINUOUS
 10
187.0459351145
 20
190.3377960572
 11
189.5196193275
 21
190.3377960572
  0
LINE
  5
2EF
100
AcDbEntity
  8
0
100
AcDbLine
 62
7
  6
CONTINUOUS
 10
190.5064614338
 20
190.3377960572
 11
191.388040382
 21
190.3377960572
  0
LINE
  5
2F0
100
AcDbEntity
  8
0
100
AcDbLine
 62
7
  6
CONTINUOUS
 10
192.966987752
 20
191.3227966252
 11
191.9801456458
 21
191.3227966252
  0
LINE
  5
2F1
100
AcDbEntity
  8
0
100
AcDbLine
 62
7
  6
CONTINUOUS
 10
191.388040382
 20
191.3227966252
 11
187.0459351145
 21
191.3227966252
  0
LINE
  5
2F2
100
AcDbEntity
  8
0
100
AcDbLine
 62
7
  6
CONTINUOUS
 10
153.4435825025
 20
172.9404997375
 11
153.4435825025
 21
173.5122851478
  0
LINE
  5
2F3
100
AcDbEntity
  8
0
100
AcDbLine
 62
7
  6
CONTINUOUS
 10
153.4819764434
 20
178.0184510472
 11
153.4819764434
 21
177.9144714334
  0
LINE
  5
2F4
100
AcDbEntity
  8
0
100
AcDbLine
 62
7
  6
CONTINUOUS
 10
153.5705187856
 20
177.8114290659
 11
153.5705187856
 21
178.093824451
  0
LINE
  5
2F5
100
AcDbEntity
  8
0
100
AcDbLine
 62
7
  6
CONTINUOUS
 10
153.6590601145
 20
176.7866549957
 11
153.6590601145
 21
177.6106532203
  0
LINE
  5
2F6
100
AcDbEntity
  8
0
100
AcDbLine
 62
7
  6
CONTINUOUS
 10
153.9246851145
 20
177.6953621491
 11
153.9246851145
 21
178.1566315659
  0
LINE
  5
2F7
100
AcDbEntity
  8
0
100
AcDbLine
 62
7
  6
CONTINUOUS
 10
154.0708739434
 20
174.0372160041
 11
154.0708739434
 21
174.6180868662
  0
LINE
  5
2F8
100
AcDbEntity
  8
0
100
AcDbLine
 62
7
  6
CONTINUOUS
 10
154.1017687856
 20
176.7303590701
 11
154.1017687856
 21
177.5432277882
  0
LINE
  5
2F9
100
AcDbEntity
  8
0
100
AcDbLine
 62
7
  6
CONTINUOUS
 10
154.1903101145
 20
177.6537459181
 11
154.1903101145
 21
178.1747924481
  0
LINE
  5
2FA
100
AcDbEntity
  8
0
100
AcDbLine
 62
7
  6
CONTINUOUS
 10
154.6330177723
 20
176.7303590701
 11
154.6330177723
 21
177.5200053117
  0
LINE
  5
2FB
100
AcDbEntity
  8
0
100
AcDbLine
 62
7
  6
CONTINUOUS
 10
154.6330177723
 20
177.6323846348
 11
154.6330177723
 21
178.1833544761
  0
LINE
  5
2FC
100
AcDbEntity
  8
0
100
AcDbLine
 62
7
  6
CONTINUOUS
 10
155.0757274567
 20
177.6537459181
 11
155.0757274567
 21
178.1747924481
  0
LINE
  5
2FD
100
AcDbEntity
  8
0
100
AcDbLine
 62
7
  6
CONTINUOUS
 10
155.1642677723
 20
176.7303590701
 11
155.1642677723
 21
177.5432277882
  0
LINE
  5
2FE
100
AcDbEntity
  8
0
100
AcDbLine
 62
7
  6
CONTINUOUS
 10
155.3413524567
 20
177.6953621491
 11
155.3413524567
 21
178.1566315659
  0
LINE
  5
2FF
100
AcDbEntity
  8
0
100
AcDbLine
 62
7
  6
CONTINUOUS
 10
155.6069774567
 20
176.7866549957
 11
155.6069774567
 21
177.6106532203
  0
LINE
  5
300
100
AcDbEntity
  8
0
100
AcDbLine
 62
7
  6
CONTINUOUS
 10
155.6955177723
 20
177.8114290659
 11
155.6955177723
 21
178.093824451
  0
LINE
  5
301
100
AcDbEntity
  8
0
100
AcDbLine
 62
7
  6
CONTINUOUS
 10
155.769448248
 20
170.2321872861
 11
155.769448248
 21
170.7980807883
  0
LINE
  5
302
100
AcDbEntity
  8
0
100
AcDbLine
 62
7
  6
CONTINUOUS
 10
155.7840601145
 20
178.0184510472
 11
155.7840601145
 21
177.9144714334
  0
LINE
  5
303
100
AcDbEntity
  8
0
100
AcDbLine
 62
7
  6
CONTINUOUS
 10
155.8726024567
 20
176.853079936
 11
155.8726024567
 21
177.6747380918
  0
LINE
  5
304
100
AcDbEntity
  8
0
100
AcDbLine
 62
7
  6
CONTINUOUS
 10
156.0496851145
 20
176.9362901294
 11
156.0496851145
 21
177.7550352536
  0
LINE
  5
305
100
AcDbEntity
  8
0
100
AcDbLine
 62
7
  6
CONTINUOUS
 10
156.1382274567
 20
176.9947172663
 11
156.1382274567
 21
177.8114290659
  0
LINE
  5
306
100
AcDbEntity
  8
0
100
AcDbLine
 62
7
  6
CONTINUOUS
 10
156.2267677723
 20
177.0845912966
 11
156.2267677723
 21
178.0318907732
  0
LINE
  5
307
100
AcDbEntity
  8
0
100
AcDbLine
 62
7
  6
CONTINUOUS
 10
156.9140505468
 20
170.2321872861
 11
156.9140505468
 21
170.7980807883
  0
LINE
  5
308
100
AcDbEntity
  8
0
100
AcDbLine
 62
7
  6
CONTINUOUS
 10
156.9351024567
 20
176.9561432607
 11
156.9351024567
 21
177.9144714334
  0
LINE
  5
309
100
AcDbEntity
  8
0
100
AcDbLine
 62
7
  6
CONTINUOUS
 10
157.0236427723
 20
176.8744542081
 11
157.0236427723
 21
177.6953621491
  0
LINE
  5
30A
100
AcDbEntity
  8
0
100
AcDbLine
 62
7
  6
CONTINUOUS
 10
157.1121851145
 20
176.8313227217
 11
157.1121851145
 21
177.6537459181
  0
LINE
  5
30B
100
AcDbEntity
  8
0
100
AcDbLine
 62
7
  6
CONTINUOUS
 10
157.3778101145
 20
177.8981946898
 11
157.3778101145
 21
177.7929940076
  0
LINE
  5
30C
100
AcDbEntity
  8
0
100
AcDbLine
 62
7
  6
CONTINUOUS
 10
157.3778101145
 20
176.7637421999
 11
157.3778101145
 21
177.5885506542
  0
LINE
  5
30D
100
AcDbEntity
  8
0
100
AcDbLine
 62
7
  6
CONTINUOUS
 10
157.4663524567
 20
177.7453168808
 11
157.4663524567
 21
177.9459545666
  0
LINE
  5
30E
100
AcDbEntity
  8
0
100
AcDbLine
 62
7
  6
CONTINUOUS
 10
157.6434351145
 20
176.7303590701
 11
157.6434351145
 21
177.5432277882
  0
LINE
  5
30F
100
AcDbEntity
  8
0
100
AcDbLine
 62
7
  6
CONTINUOUS
 10
157.6434351145
 20
177.6816433031
 11
157.6434351145
 21
177.9905139219
  0
LINE
  5
310
100
AcDbEntity
  8
0
100
AcDbLine
 62
7
  6
CONTINUOUS
 10
157.8224010144
 20
173.1803556811
 11
157.8224010144
 21
173.7536870669
  0
LINE
  5
311
100
AcDbEntity
  8
0
100
AcDbLine
 62
7
  6
CONTINUOUS
 10
157.9976024567
 20
176.7303590701
 11
157.9976024567
 21
177.5200053117
  0
LINE
  5
312
100
AcDbEntity
  8
0
100
AcDbLine
 62
7
  6
CONTINUOUS
 10
157.9976024567
 20
177.6431114093
 11
157.9976024567
 21
178.0184510472
  0
LINE
  5
313
100
AcDbEntity
  8
0
100
AcDbLine
 62
7
  6
CONTINUOUS
 10
158.5288524567
 20
176.7303590701
 11
158.5288524567
 21
177.5200053117
  0
LINE
  5
314
100
AcDbEntity
  8
0
100
AcDbLine
 62
7
  6
CONTINUOUS
 10
158.5288524567
 20
177.6323846348
 11
158.5288524567
 21
178.0184510472
  0
LINE
  5
315
100
AcDbEntity
  8
0
100
AcDbLine
 62
7
  6
CONTINUOUS
 10
158.7959241544
 20
170.2321872861
 11
158.7959241544
 21
170.7980807883
  0
LINE
  5
316
100
AcDbEntity
  8
0
100
AcDbLine
 62
7
  6
CONTINUOUS
 10
158.8830177723
 20
176.7303590701
 11
158.8830177723
 21
177.5432277882
  0
LINE
  5
317
100
AcDbEntity
  8
0
100
AcDbLine
 62
7
  6
CONTINUOUS
 10
158.8830177723
 20
177.6537459181
 11
158.8830177723
 21
178.0046589684
  0
LINE
  5
318
100
AcDbEntity
  8
0
100
AcDbLine
 62
7
  6
CONTINUOUS
 10
159.0601024567
 20
176.7404418736
 11
159.0601024567
 21
177.5660758679
  0
LINE
  5
319
100
AcDbEntity
  8
0
100
AcDbLine
 62
7
  6
CONTINUOUS
 10
159.1486427723
 20
177.6953621491
 11
159.1486427723
 21
177.9760152755
  0
LINE
  5
31A
100
AcDbEntity
  8
0
100
AcDbLine
 62
7
  6
CONTINUOUS
 10
159.2371851145
 20
176.7866549957
 11
159.2371851145
 21
177.6106532203
  0
LINE
  5
31B
100
AcDbEntity
  8
0
100
AcDbLine
 62
7
  6
CONTINUOUS
 10
159.3257274567
 20
178.2209948721
 11
159.3257274567
 21
178.0046589684
  0
LINE
  5
31C
100
AcDbEntity
  8
0
100
AcDbLine
 62
7
  6
CONTINUOUS
 10
159.3257274567
 20
177.9303911521
 11
159.3257274567
 21
177.7550352536
  0
LINE
  5
31D
100
AcDbEntity
  8
0
100
AcDbLine
 62
7
  6
CONTINUOUS
 10
159.3257274567
 20
176.7303590701
 11
159.3257274567
 21
177.6537459181
  0
LINE
  5
31E
100
AcDbEntity
  8
0
100
AcDbLine
 62
7
  6
CONTINUOUS
 10
159.7684351145
 20
176.7303590701
 11
159.7684351145
 21
178.2209948721
  0
LINE
  5
31F
100
AcDbEntity
  8
0
100
AcDbLine
 62
7
  6
CONTINUOUS
 10
159.9405278836
 20
170.2321872861
 11
159.9405278836
 21
170.7980807883
  0
LINE
  5
320
100
AcDbEntity
  8
0
100
AcDbLine
 62
7
  6
CONTINUOUS
 10
160.4767677723
 20
176.8954466387
 11
160.4767677723
 21
178.0046589684
  0
LINE
  5
321
100
AcDbEntity
  8
0
100
AcDbLine
 62
7
  6
CONTINUOUS
 10
160.5653101145
 20
176.8091814555
 11
160.5653101145
 21
177.6323846348
  0
LINE
  5
322
100
AcDbEntity
  8
0
100
AcDbLine
 62
7
  6
CONTINUOUS
 10
160.8309351145
 20
176.7404418736
 11
160.8309351145
 21
177.5660758679
  0
LINE
  5
323
100
AcDbEntity
  8
0
100
AcDbLine
 62
7
  6
CONTINUOUS
 10
160.9194774567
 20
177.7355097958
 11
160.9194774567
 21
177.6953621491
  0
LINE
  5
324
100
AcDbEntity
  8
0
100
AcDbLine
 62
7
  6
CONTINUOUS
 10
160.9194774567
 20
177.8899222365
 11
160.9194774567
 21
177.9760152755
  0
LINE
  5
325
100
AcDbEntity
  8
0
100
AcDbLine
 62
7
  6
CONTINUOUS
 10
161.0080177723
 20
177.6537459181
 11
161.0080177723
 21
177.7929940076
  0
LINE
  5
326
100
AcDbEntity
  8
0
100
AcDbLine
 62
7
  6
CONTINUOUS
 10
161.0080177723
 20
176.7303590701
 11
161.0080177723
 21
177.5432277882
  0
LINE
  5
327
100
AcDbEntity
  8
0
100
AcDbLine
 62
7
  6
CONTINUOUS
 10
161.0080177723
 20
177.8981945527
 11
161.0080177723
 21
178.0046589684
  0
LINE
  5
328
100
AcDbEntity
  8
0
100
AcDbLine
 62
7
  6
CONTINUOUS
 10
161.1851024567
 20
177.6323844489
 11
161.1851024567
 21
177.8295023873
  0
LINE
  5
329
100
AcDbEntity
  8
0
100
AcDbLine
 62
7
  6
CONTINUOUS
 10
161.1851024567
 20
177.9144714334
 11
161.1851024567
 21
178.0184510472
  0
LINE
  5
32A
100
AcDbEntity
  8
0
100
AcDbLine
 62
7
  6
CONTINUOUS
 10
161.3621851145
 20
176.7303590701
 11
161.3621851145
 21
177.5200053117
  0
LINE
  5
32B
100
AcDbEntity
  8
0
100
AcDbLine
 62
7
  6
CONTINUOUS
 10
161.3621851145
 20
177.6106532203
 11
161.3621851145
 21
177.8472148041
  0
LINE
  5
32C
100
AcDbEntity
  8
0
100
AcDbLine
 62
7
  6
CONTINUOUS
 10
161.5392677723
 20
177.9251216864
 11
161.5392677723
 21
178.0318907732
  0
LINE
  5
32D
100
AcDbEntity
  8
0
100
AcDbLine
 62
7
  6
CONTINUOUS
 10
161.639101473
 20
174.0372160041
 11
161.639101473
 21
174.6180868662
  0
LINE
  5
32E
100
AcDbEntity
  8
0
100
AcDbLine
 62
7
  6
CONTINUOUS
 10
161.7163524567
 20
177.6106532203
 11
161.7163524567
 21
177.8645671298
  0
LINE
  5
32F
100
AcDbEntity
  8
0
100
AcDbLine
 62
7
  6
CONTINUOUS
 10
161.8934351145
 20
176.7303590701
 11
161.8934351145
 21
177.5200053117
  0
LINE
  5
330
100
AcDbEntity
  8
0
100
AcDbLine
 62
7
  6
CONTINUOUS
 10
162.0705177723
 20
177.9303911521
 11
162.0705177723
 21
178.0318907732
  0
LINE
  5
331
100
AcDbEntity
  8
0
100
AcDbLine
 62
7
  6
CONTINUOUS
 10
162.3361427723
 20
176.7303590701
 11
162.3361427723
 21
177.5432277882
  0
LINE
  5
332
100
AcDbEntity
  8
0
100
AcDbLine
 62
7
  6
CONTINUOUS
 10
162.4246851145
 20
177.9303911521
 11
162.4246851145
 21
178.0184510472
  0
LINE
  5
333
100
AcDbEntity
  8
0
100
AcDbLine
 62
7
  6
CONTINUOUS
 10
162.6017677723
 20
176.7637421999
 11
162.6017677723
 21
177.5885506542
  0
LINE
  5
334
100
AcDbEntity
  8
0
100
AcDbLine
 62
7
  6
CONTINUOUS
 10
162.6017677723
 20
177.9303911521
 11
162.6017677723
 21
178.0046589684
  0
LINE
  5
335
100
AcDbEntity
  8
0
100
AcDbLine
 62
7
  6
CONTINUOUS
 10
162.6903101145
 20
177.9760152755
 11
162.6903101145
 21
177.9303911521
  0
LINE
  5
336
100
AcDbEntity
  8
0
100
AcDbLine
 62
7
  6
CONTINUOUS
 10
162.6903101145
 20
177.8645671298
 11
162.6903101145
 21
177.7550352536
  0
LINE
  5
337
100
AcDbEntity
  8
0
100
AcDbLine
 62
7
  6
CONTINUOUS
 10
162.6903101145
 20
176.8091814555
 11
162.6903101145
 21
177.6323846348
  0
LINE
  5
338
100
AcDbEntity
  8
0
100
AcDbLine
 62
7
  6
CONTINUOUS
 10
162.7788524567
 20
176.7404418736
 11
162.7788524567
 21
177.5660758679
  0
LINE
  5
339
100
AcDbEntity
  8
0
100
AcDbLine
 62
7
  6
CONTINUOUS
 10
162.8673927723
 20
176.7303590701
 11
162.8673927723
 21
177.5200053117
  0
LINE
  5
33A
100
AcDbEntity
  8
0
100
AcDbLine
 62
7
  6
CONTINUOUS
 10
163.1330177723
 20
177.9760152755
 11
163.1330177723
 21
177.6953621491
  0
LINE
  5
33B
100
AcDbEntity
  8
0
100
AcDbLine
 62
7
  6
CONTINUOUS
 10
163.3101024567
 20
176.7303590701
 11
163.3101024567
 21
177.5200053117
  0
LINE
  5
33C
100
AcDbEntity
  8
0
100
AcDbLine
 62
7
  6
CONTINUOUS
 10
164.0184351145
 20
176.7303590701
 11
164.0184351145
 21
178.2209948721
  0
LINE
  5
33D
100
AcDbEntity
  8
KONSTRUKTIONSELEMENTE
100
AcDbLine
 62
7
  6
CONTINUOUS
 10
164.4909351145
 20
167.2283917551
 11
164.4909351145
 21
174.341584631
  0
LINE
  5
33E
100
AcDbEntity
  8
0
100
AcDbLine
 62
7
  6
CONTINUOUS
 10
164.5496851145
 20
176.7303590701
 11
164.5496851145
 21
178.1747924481
  0
LINE
  5
33F
100
AcDbEntity
  8
0
100
AcDbLine
 62
7
  6
CONTINUOUS
 10
166.7632274567
 20
176.7303590701
 11
166.7632274567
 21
177.5200053117
  0
LINE
  5
340
100
AcDbEntity
  8
0
100
AcDbLine
 62
7
  6
CONTINUOUS
 10
167.0288524567
 20
178.2209948721
 11
167.0288524567
 21
177.6747380918
  0
LINE
  5
341
100
AcDbEntity
  8
0
100
AcDbLine
 62
7
  6
CONTINUOUS
 10
167.5601024567
 20
176.7303590701
 11
167.5601024567
 21
178.2209948721
  0
LINE
  5
342
100
AcDbEntity
  8
0
100
AcDbLine
 62
7
  6
CONTINUOUS
 10
169.2409351145
 20
178.2859833826
 11
169.2409351145
 21
176.7303590701
  0
LINE
  5
343
100
AcDbEntity
  8
0
100
AcDbLine
 62
7
  6
CONTINUOUS
 10
175.2409351145
 20
174.2858740152
 11
175.2409351145
 21
149.7859833826
  0
LINE
  5
344
100
AcDbEntity
  8
BEZUGSACHSEN
100
AcDbLine
 62
7
  6
CONTINUOUS
 10
177.7409351395
 20
205.7859833033
 11
177.7409351395
 21
204.7297372078
  0
LINE
  5
345
100
AcDbEntity
  8
BEZUGSACHSEN
100
AcDbLine
 62
7
  6
CONTINUOUS
 10
177.7409351395
 20
177.7337935616
 11
177.7409351395
 21
170.2859833908
  0
LINE
  5
346
100
AcDbEntity
  8
0
100
AcDbLine
 62
7
  6
CONTINUOUS
 10
189.0261982744
 20
188.4793463128
 11
187.0459351145
 21
187.3381743577
  0
LINE
  5
347
100
AcDbEntity
  8
0
100
AcDbLine
 62
7
  6
CONTINUOUS
 10
187.0459351145
 20
186.2007936715
 11
189.6361332576
 21
187.6934546163
  0
LINE
  5
348
100
AcDbEntity
  8
0
100
AcDbLine
 62
7
  6
CONTINUOUS
 10
187.0459351145
 20
186.1855278972
 11
189.6361332576
 21
187.678188842
  0
LINE
  5
349
100
AcDbEntity
  8
0
100
AcDbLine
 62
7
  6
CONTINUOUS
 10
187.0459351145
 20
179.5027898089
 11
187.0459351145
 21
176.8367216047
  0
LINE
  5
34A
100
AcDbEntity
  8
0
100
AcDbLine
 62
7
  6
CONTINUOUS
 10
187.0459351145
 20
186.1855278972
 11
187.0459351145
 21
187.3381743577
  0
LINE
  5
34B
100
AcDbEntity
  8
0
100
AcDbLine
 62
7
  6
CONTINUOUS
 10
187.0459351145
 20
190.3225302829
 11
187.0459351145
 21
191.3227966252
  0
LINE
  5
34C
100
AcDbEntity
  8
0
100
AcDbLine
 62
7
  6
CONTINUOUS
 10
188.0327772208
 20
177.0870430812
 11
188.0327772208
 21
178.3207891272
  0
LINE
  5
34D
100
AcDbEntity
  8
0
100
AcDbLine
 62
7
  6
CONTINUOUS
 10
189.5196193275
 20
190.3377960572
 11
189.5196193275
 21
189.3323818275
  0
LINE
  5
34E
100
AcDbEntity
  8
0
100
AcDbLine
 62
7
  6
CONTINUOUS
 10
189.6361332576
 20
187.678188842
 11
189.6361332576
 21
187.6934546163
  0
LINE
  5
34F
100
AcDbEntity
  8
0
100
AcDbLine
 62
7
  6
CONTINUOUS
 10
190.5064614338
 20
188.7092617847
 11
190.5064614338
 21
190.3377960572
  0
LINE
  5
350
100
AcDbEntity
  8
0
100
AcDbLine
 62
7
  6
CONTINUOUS
 10
191.388040382
 20
178.305523353
 11
191.388040382
 21
179.5027898089
  0
LINE
  5
351
100
AcDbEntity
  8
0
100
AcDbLine
 62
7
  6
CONTINUOUS
 10
191.388040382
 20
190.3225302829
 11
191.388040382
 21
191.3227966252
  0
LINE
  5
352
100
AcDbEntity
  8
0
100
AcDbLine
 62
7
  6
CONTINUOUS
 10
191.9801456458
 20
191.3227966252
 11
191.9801456458
 21
188.7092617847
  0
LINE
  5
353
100
AcDbEntity
  8
0
100
AcDbLine
 62
7
  6
CONTINUOUS
 10
191.9801456458
 20
179.5027898089
 11
191.9801456458
 21
177.0870402869
  0
LINE
  5
354
100
AcDbEntity
  8
0
100
AcDbLine
 62
7
  6
CONTINUOUS
 10
192.966987752
 20
176.8367216047
 11
192.966987752
 21
179.5027898089
  0
LINE
  5
355
100
AcDbEntity
  8
0
100
AcDbLine
 62
7
  6
CONTINUOUS
 10
192.966987752
 20
180.6695247162
 11
192.966987752
 21
181.8667911721
  0
LINE
  5
356
100
AcDbEntity
  8
0
100
AcDbLine
 62
7
  6
CONTINUOUS
 10
192.966987752
 20
184.2155267611
 11
192.966987752
 21
185.412793217
  0
LINE
  5
357
100
AcDbEntity
  8
0
100
AcDbLine
 62
7
  6
CONTINUOUS
 10
192.966987752
 20
188.3152615575
 11
192.966987752
 21
191.3227966252
  0
LINE
  5
358
100
AcDbEntity
  8
BEZUGSACHSEN
100
AcDbLine
 62
7
  6
CONTINUOUS
 10
200.7876433836
 20
149.0226105771
 11
198.1933847131
 21
197.5359833826
  0
LINE
  5
359
100
AcDbEntity
  8
BEZUGSACHSEN
100
AcDbLine
 62
7
  6
CONTINUOUS
 10
198.1933484308
 20
197.5366618636
 11
198.1911078392
 21
197.5785559554
  0
LINE
  5
35A
100
AcDbEntity
  8
BEZUGSACHSEN
100
AcDbLine
 62
7
  6
CONTINUOUS
 10
186.2721041556
 20
235.0445514852
 11
197.1399840842
 21
208.8071683673
  0
LWPOLYLINE
  5
35B
100
AcDbEntity
  8
BEZUGSACHSEN
100
AcDbPolyline
 62
7
  6
CONTINUOUS
 90
4
 70
0
 10
200.7564128784
 20
148.2022792667
 10
200.7672899722
 20
148.2929752502
 10
200.7763212119
 20
148.3838720326
 10
200.7835029192
 20
148.4749320556
  0
LINE
  5
35C
100
AcDbEntity
  8
BEZUGSACHSEN
100
AcDbLine
 62
7
  6
CONTINUOUS
 10
200.7291396512
 20
148.0216394881
 11
200.7436943711
 21
148.1118215545
  0
LINE
  5
35D
100
AcDbEntity
  8
BEZUGSACHSEN
100
AcDbLine
 62
7
  6
CONTINUOUS
 10
155.7621201314
 20
250.185032339
 11
181.9995034058
 21
239.3171523455
  0
LWPOLYLINE
  5
35E
100
AcDbEntity
  8
BEZUGSACHSEN
100
AcDbPolyline
 62
7
  6
CONTINUOUS
 90
21
 70
0
 10
200.5167958561
 20
147.2286308946
 10
200.5475134708
 20
147.3146685946
 10
200.5764756843
 20
147.4013112239
 10
200.6036705913
 20
147.4885229897
 10
200.6290870147
 20
147.5762678605
 10
200.6527145115
 20
147.6645095851
 10
200.6745433775
 20
147.7532117079
 10
200.6945646509
 20
147.8423375824
 10
200.7127701164
 20
147.9318503894
 10
200.7291523084
 20
148.0217131489
 10
200.7437045141
 20
148.1118887383
 10
200.7564207762
 20
148.2023399049
 10
200.7672958955
 20
148.2930292825
 10
200.7763254329
 20
148.3839194068
 10
200.7835057111
 20
148.4749727279
 10
200.788833817
 20
148.5661516325
 10
200.7923076019
 20
148.6574184404
 10
200.7939256835
 20
148.7487354177
 10
200.7936874478
 20
148.8400648947
 10
200.7915930429
 20
148.9313691981
 10
200.7876433837
 20
149.0226105764
  0
LWPOLYLINE
  5
35F
100
AcDbEntity
  8
BEZUGSACHSEN
100
AcDbPolyline
 62
7
  6
CONTINUOUS
 90
9
 70
0
 10
200.5167488584
 20
147.2285033713
 10
200.547471295
 20
147.314546567
 10
200.5764380866
 20
147.4011948323
 10
200.6036373244
 20
147.488412367
 10
200.6290578275
 20
147.5761631316
 10
200.65268915
 20
147.6644108672
 10
200.6745215846
 20
147.7531191104
 10
200.6945461665
 20
147.8422512066
 10
200.7127546781
 20
147.9317703285
  0
LINE
  5
360
100
AcDbEntity
  8
BEZUGSACHSEN
100
AcDbLine
 62
7
  6
CONTINUOUS
 10
200.4501456617
 20
147.0585121929
 11
200.4843354702
 21
147.1432336679
  0
LWPOLYLINE
  5
361
100
AcDbEntity
  8
BEZUGSACHSEN
100
AcDbPolyline
 62
7
  6
CONTINUOUS
 90
3
 70
0
 10
200.4500883045
 20
147.0583741296
 10
200.4842834108
 20
147.1431007969
 10
200.5167958561
 20
147.2286308946
  0
LINE
  5
362
100
AcDbEntity
  8
BEZUGSACHSEN
100
AcDbLine
 62
7
  6
CONTINUOUS
 10
197.8980406939
 20
144.5812670312
 11
197.983548637
 21
144.6148612408
  0
LWPOLYLINE
  5
363
100
AcDbEntity
  8
BEZUGSACHSEN
100
AcDbPolyline
 62
7
  6
CONTINUOUS
 90
3
 70
0
 10
197.7258356327
 20
144.5196086648
 10
197.8122527751
 20
144.5495636641
 10
197.8984347582
 20
144.581417248
  0
LINE
  5
364
100
AcDbEntity
  8
BEZUGSACHSEN
100
AcDbLine
 62
7
  6
CONTINUOUS
 10
197.7262483985
 20
144.5197470846
 11
197.8126562265
 21
144.5497081424
  0
LWPOLYLINE
  5
365
100
AcDbEntity
  8
BEZUGSACHSEN
100
AcDbPolyline
 62
7
  6
CONTINUOUS
 90
3
 70
0
 10
197.5512563564
 20
144.4649927674
 10
197.6388248699
 20
144.4914144628
 10
197.7262483985
 20
144.5197470846
  0
LINE
  5
366
100
AcDbEntity
  8
BEZUGSACHSEN
100
AcDbLine
 62
7
  6
CONTINUOUS
 10
197.5516874967
 20
144.4651181133
 11
197.6392468684
 21
144.4915465049
  0
LWPOLYLINE
  5
367
100
AcDbEntity
  8
BEZUGSACHSEN
100
AcDbPolyline
 62
7
  6
CONTINUOUS
 90
7
 70
0
 10
200.1636627789
 20
146.4872842463
 10
200.2095256101
 20
146.5663128437
 10
200.2537720948
 20
146.6462555492
 10
200.2963840214
 20
146.7270793322
 10
200.3373438523
 20
146.8087507983
 10
200.3766347317
 20
146.8912362038
 10
200.414240492
 20
146.9745014686
  0
LWPOLYLINE
  5
368
100
AcDbEntity
  8
BEZUGSACHSEN
100
AcDbPolyline
 62
7
  6
CONTINUOUS
 90
8
 70
0
 10
200.1635621186
 20
146.4871147922
 10
200.2094317677
 20
146.5661472945
 10
200.2536848684
 20
146.6460941094
 10
200.2963032038
 20
146.7269221995
 10
200.3372692309
 20
146.8085981638
 10
200.3765660891
 20
146.8910882516
 10
200.4141776057
 20
146.9743583759
 10
200.4501456617
 20
147.0585121929
  0
LINE
  5
369
100
AcDbEntity
  8
BEZUGSACHSEN
100
AcDbLine
 62
7
  6
CONTINUOUS
 10
200.0671642509
 20
146.3320996025
 11
200.1162024798
 21
146.4092024111
  0
LWPOLYLINE
  5
36A
100
AcDbEntity
  8
BEZUGSACHSEN
100
AcDbPolyline
 62
7
  6
CONTINUOUS
 90
3
 70
0
 10
200.0670493723
 20
146.3319229773
 10
200.1160948055
 20
146.4090292629
 10
200.1636627789
 20
146.4872842463
  0
LINE
  5
36B
100
AcDbEntity
  8
BEZUGSACHSEN
100
AcDbLine
 62
7
  6
CONTINUOUS
 10
199.9644353908
 20
146.1809580738
 11
200.0165682783
 21
146.2560076765
  0
LWPOLYLINE
  5
36C
100
AcDbEntity
  8
BEZUGSACHSEN
100
AcDbPolyline
 62
7
  6
CONTINUOUS
 90
3
 70
0
 10
199.9643055562
 20
146.1807751709
 10
200.0164460108
 20
146.2558277977
 10
200.0671642509
 20
146.3320996025
  0
LWPOLYLINE
  5
36D
100
AcDbEntity
  8
BEZUGSACHSEN
100
AcDbPolyline
 62
7
  6
CONTINUOUS
 90
3
 70
0
 10
199.7990329663
 20
145.9623710713
 10
199.8556453403
 20
146.0341094309
 10
199.9107870498
 20
146.1069818033
  0
LWPOLYLINE
  5
36E
100
AcDbEntity
  8
BEZUGSACHSEN
100
AcDbPolyline
 62
7
  6
CONTINUOUS
 90
4
 70
0
 10
199.7988794248
 20
145.9621805301
 10
199.8554998622
 20
146.0339211911
 10
199.9106494762
 20
146.1067961115
 10
199.9644353908
 20
146.1809580738
  0
LINE
  5
36F
100
AcDbEntity
  8
BEZUGSACHSEN
100
AcDbLine
 62
7
  6
CONTINUOUS
 10
199.7408114788
 20
145.8916037789
 11
199.7990329663
 21
145.9623710713
  0
LINE
  5
370
100
AcDbEntity
  8
BEZUGSACHSEN
100
AcDbLine
 62
7
  6
CONTINUOUS
 10
199.6813199398
 20
145.8222201121
 11
199.7409732358
 21
145.8917963696
  0
LINE
  5
371
100
AcDbEntity
  8
BEZUGSACHSEN
100
AcDbLine
 62
7
  6
CONTINUOUS
 10
199.6204293081
 20
145.7540582107
 11
199.6814900574
 21
145.8224144954
  0
LINE
  5
372
100
AcDbEntity
  8
BEZUGSACHSEN
100
AcDbLine
 62
7
  6
CONTINUOUS
 10
199.5581646637
 20
145.687146254
 11
199.6206079244
 21
145.7542541245
  0
LINE
  5
373
100
AcDbEntity
  8
BEZUGSACHSEN
100
AcDbLine
 62
7
  6
CONTINUOUS
 10
199.4945516509
 20
145.621511904
 11
199.5583519094
 21
145.6873434314
  0
LINE
  5
374
100
AcDbEntity
  8
BEZUGSACHSEN
100
AcDbLine
 62
7
  6
CONTINUOUS
 10
199.4296164737
 20
145.5571822997
 11
199.4947476494
 21
145.6217100735
  0
LINE
  5
375
100
AcDbEntity
  8
BEZUGSACHSEN
100
AcDbLine
 62
7
  6
CONTINUOUS
 10
199.3633858792
 20
145.4941840395
 11
199.4298213411
 21
145.5573811854
  0
LINE
  5
376
100
AcDbEntity
  8
BEZUGSACHSEN
100
AcDbLine
 62
7
  6
CONTINUOUS
 10
199.2958871517
 20
145.4325431759
 11
199.3635997237
 21
145.4943833611
  0
LINE
  5
377
100
AcDbEntity
  8
BEZUGSACHSEN
100
AcDbLine
 62
7
  6
CONTINUOUS
 10
199.2271480988
 20
145.3722852014
 11
199.296110074
 21
145.4327426491
  0
LWPOLYLINE
  5
378
100
AcDbEntity
  8
BEZUGSACHSEN
100
AcDbPolyline
 62
7
  6
CONTINUOUS
 90
3
 70
0
 10
199.0860627689
 20
145.2560170085
 10
199.1571970329
 20
145.3134350327
 10
199.2273801914
 20
145.3724845381
  0
LINE
  5
379
100
AcDbEntity
  8
BEZUGSACHSEN
100
AcDbLine
 62
7
  6
CONTINUOUS
 10
199.0863134483
 20
145.2562151934
 11
199.1574383806
 21
145.3136339411
  0
LWPOLYLINE
  5
37A
100
AcDbEntity
  8
BEZUGSACHSEN
100
AcDbPolyline
 62
7
  6
CONTINUOUS
 90
3
 70
0
 10
198.9403622943
 20
145.1455717592
 10
199.0137746002
 20
145.2000548703
 10
199.0863134483
 20
145.2562151934
  0
LINE
  5
37B
100
AcDbEntity
  8
BEZUGSACHSEN
100
AcDbLine
 62
7
  6
CONTINUOUS
 10
198.9406318338
 20
145.1457675984
 11
199.0140346796
 21
145.200252033
  0
LWPOLYLINE
  5
37C
100
AcDbEntity
  8
BEZUGSACHSEN
100
AcDbPolyline
 62
7
  6
CONTINUOUS
 90
4
 70
0
 10
198.7136851564
 20
144.9912188515
 10
198.790286666
 20
145.0411321455
 10
198.8658560888
 20
145.0925902127
 10
198.9406318338
 20
145.1457675984
  0
LWPOLYLINE
  5
37D
100
AcDbEntity
  8
BEZUGSACHSEN
100
AcDbPolyline
 62
7
  6
CONTINUOUS
 90
3
 70
0
 10
198.7139833522
 20
144.9914088836
 10
198.7905752722
 20
145.0413244218
 10
198.86613514
 20
145.0927844239
  0
LWPOLYLINE
  5
37E
100
AcDbEntity
  8
BEZUGSACHSEN
100
AcDbPolyline
 62
7
  6
CONTINUOUS
 90
3
 70
0
 10
198.5575124951
 20
144.8961085557
 10
198.6360831092
 20
144.9428709838
 10
198.7139833522
 20
144.9914088836
  0
LINE
  5
37F
100
AcDbEntity
  8
BEZUGSACHSEN
100
AcDbLine
 62
7
  6
CONTINUOUS
 10
198.5578299395
 20
144.8962931631
 11
198.6363909207
 21
144.9430584602
  0
LWPOLYLINE
  5
380
100
AcDbEntity
  8
BEZUGSACHSEN
100
AcDbPolyline
 62
7
  6
CONTINUOUS
 90
3
 70
0
 10
198.397595414
 20
144.8074167858
 10
198.4780056767
 20
144.850950923
 10
198.5578299395
 20
144.8962931631
  0
LINE
  5
381
100
AcDbEntity
  8
BEZUGSACHSEN
100
AcDbLine
 62
7
  6
CONTINUOUS
 10
198.3979321409
 20
144.8075947084
 11
198.4783327626
 21
144.8511323462
  0
LINE
  5
382
100
AcDbEntity
  8
BEZUGSACHSEN
100
AcDbLine
 62
7
  6
CONTINUOUS
 10
198.316314836
 20
144.7655241729
 11
198.3979321409
 21
144.8075947084
  0
LWPOLYLINE
  5
383
100
AcDbEntity
  8
BEZUGSACHSEN
100
AcDbPolyline
 62
7
  6
CONTINUOUS
 90
3
 70
0
 10
198.1512770033
 20
144.6867322287
 10
198.2341974231
 20
144.7252904321
 10
198.3166611948
 20
144.7656982769
  0
LINE
  5
384
100
AcDbEntity
  8
BEZUGSACHSEN
100
AcDbLine
 62
7
  6
CONTINUOUS
 10
198.1516425621
 20
144.6868977384
 11
198.2345533955
 21
144.7254603987
  0
LWPOLYLINE
  5
385
100
AcDbEntity
  8
BEZUGSACHSEN
100
AcDbPolyline
 62
7
  6
CONTINUOUS
 90
3
 70
0
 10
197.9831640232
 20
144.6147056059
 10
198.0675877189
 20
144.6498655303
 10
198.1516425621
 20
144.6868977384
  0
LINE
  5
386
100
AcDbEntity
  8
BEZUGSACHSEN
100
AcDbLine
 62
7
  6
CONTINUOUS
 10
197.983548637
 20
144.6148612408
 11
198.0679628279
 21
144.6500262628
  0
LINE
  5
387
100
AcDbEntity
  8
KONSTRUKTIONSELEMENTE
100
AcDbLine
 62
7
  6
CONTINUOUS
 10
261.8255221954
 20
143.5359833826
 11
259.4070206103
 21
143.5359833826
  0
LINE
  5
388
100
AcDbEntity
  8
0
100
AcDbLine
 62
7
  6
CONTINUOUS
 10
287.4482244362
 20
143.5359833826
 11
289.8667260213
 21
143.5359833826
  0
LINE
  5
389
100
AcDbEntity
  8
0
100
AcDbLine
 62
7
  6
CONTINUOUS
 10
253.9316053715
 20
152.0359833826
 11
250.6910657758
 21
155.8979080878
  0
LINE
  5
38A
100
AcDbEntity
  8
KONSTRUKTIONSELEMENTE
100
AcDbLine
 62
7
  6
CONTINUOUS
 10
253.9316053715
 20
152.0359833826
 11
258.9662031586
 21
146.0359833826
  0
LINE
  5
38B
100
AcDbEntity
  8
KONSTRUKTIONSELEMENTE
100
AcDbLine
 62
7
  6
CONTINUOUS
 10
259.4070206103
 20
143.5359833826
 11
258.9662031586
 21
146.0359833826
  0
LINE
  5
38C
100
AcDbEntity
  8
0
100
AcDbLine
 62
7
  6
CONTINUOUS
 10
262.7055236303
 20
148.5267195216
 11
262.7306467696
 21
148.3629847416
  0
LINE
  5
38D
100
AcDbEntity
  8
0
100
AcDbLine
 62
7
  6
CONTINUOUS
 10
283.1153373646
 20
179.4875240346
 11
283.3648708416
 21
179.5027898089
  0
LINE
  5
38E
100
AcDbEntity
  8
0
100
AcDbLine
 62
7
  6
CONTINUOUS
 10
283.0430258022
 20
180.6695247162
 11
283.2925592792
 21
180.6847904905
  0
LINE
  5
38F
100
AcDbEntity
  8
BEZUGSACHSEN
100
AcDbLine
 62
7
  6
CONTINUOUS
 10
264.6368733158
 20
154.2859833826
 11
264.6368733158
 21
154.3415434451
  0
LINE
  5
390
100
AcDbEntity
  8
0
100
AcDbLine
 62
7
  6
CONTINUOUS
 10
282.7537795527
 20
185.3975274428
 11
283.0033130297
 21
185.412793217
  0
LINE
  5
391
100
AcDbEntity
  8
BEZUGSACHSEN
100
AcDbLine
 62
7
  6
CONTINUOUS
 10
268.1368733158
 20
247.7859834069
 11
268.1368733158
 21
216.1057934767
  0
LINE
  5
392
100
AcDbEntity
  8
BEZUGSACHSEN
100
AcDbLine
 62
7
  6
CONTINUOUS
 10
264.6536681444
 20
154.8911113187
 11
267.8756204272
 21
207.5569598874
  0
LINE
  5
393
100
AcDbEntity
  8
KONSTRUKTIONSELEMENTE
100
AcDbLine
 62
7
  6
CONTINUOUS
 10
261.8255221954
 20
143.5359833826
 11
264.0501899709
 21
156.1527012925
  0
LINE
  5
394
100
AcDbEntity
  8
0
100
AcDbLine
 62
7
  6
CONTINUOUS
 10
282.7055718444
 20
186.1855278972
 11
282.9551053214
 21
186.2007936715
  0
LINE
  5
395
100
AcDbEntity
  8
0
100
AcDbLine
 62
7
  6
CONTINUOUS
 10
282.6359900111
 20
187.3229085834
 11
282.8855234881
 21
187.3381743577
  0
LINE
  5
396
100
AcDbEntity
  8
BG_STARTBEZUEGE
100
AcDbLine
 62
7
  6
CENTER
 10
274.6368733158
 20
130.1344664974
 11
274.6368733158
 21
256.1355716705
  0
LINE
  5
397
100
AcDbEntity
  8
0
100
AcDbLine
 62
7
  6
CONTINUOUS
 10
282.4524813761
 20
190.3225302829
 11
282.7020148531
 21
190.3377960572
  0
LINE
  5
398
100
AcDbEntity
  8
0
100
AcDbLine
 62
7
  6
CONTINUOUS
 10
282.3922217407
 20
191.307530851
 11
282.6417552177
 21
191.3227966252
  0
LINE
  5
399
100
AcDbEntity
  8
0
100
AcDbLine
 62
7
  6
CONTINUOUS
 10
287.4482244362
 20
143.5359833826
 11
285.2235566607
 21
156.1527012925
  0
LINE
  5
39A
100
AcDbEntity
  8
RUNDUNGEN
100
AcDbLine
 62
7
  6
CONTINUOUS
 10
284.6196436357
 20
154.8982172663
 11
284.6197418275
 21
154.8966143402
  0
LINE
  5
39B
100
AcDbEntity
  8
BEZUGSACHSEN
100
AcDbLine
 62
7
  6
CONTINUOUS
 10
281.4877913289
 20
206.091298868
 11
281.5228127735
 21
205.5188403289
  0
LINE
  5
39C
100
AcDbEntity
  8
RUNDUNGEN
100
AcDbLine
 62
7
  6
CONTINUOUS
 10
284.6200784873
 20
154.8911113187
 11
281.3981262044
 21
207.5569598874
  0
LINE
  5
39D
100
AcDbEntity
  8
0
100
AcDbLine
 62
7
  6
CONTINUOUS
 10
282.6417552177
 20
191.3227966252
 11
282.9551053214
 21
186.2007936715
  0
LINE
  5
39E
100
AcDbEntity
  8
0
100
AcDbLine
 62
7
  6
CONTINUOUS
 10
283.0033130297
 20
185.412793217
 11
283.2925592792
 21
180.6847904905
  0
LINE
  5
39F
100
AcDbEntity
  8
0
100
AcDbLine
 62
7
  6
CONTINUOUS
 10
283.3648708416
 20
179.5027898089
 11
283.5445665299
 21
176.5654943199
  0
LINE
  5
3A0
100
AcDbEntity
  8
BEZUGSACHSEN
100
AcDbLine
 62
7
  6
CONTINUOUS
 10
281.1368733158
 20
247.7859834069
 11
281.1368733158
 21
216.1057934767
  0
LINE
  5
3A1
100
AcDbEntity
  8
RUNDUNGEN
100
AcDbLine
 62
7
  6
CONTINUOUS
 10
281.1368733158
 20
247.4033679358
 11
281.1368733158
 21
216.1057934767
  0
LINE
  5
3A2
100
AcDbEntity
  8
RUNDUNGEN
100
AcDbLine
 62
7
  6
CONTINUOUS
 10
284.6368733158
 20
154.2859833826
 11
284.6368733158
 21
154.3415434451
  0
LINE
  5
3A3
100
AcDbEntity
  8
BEZUGSACHSEN
100
AcDbLine
 62
7
  6
CONTINUOUS
 10
278.0034955812
 20
205.7859833875
 11
271.2702510504
 21
205.7859833875
  0
LINE
  5
3A4
100
AcDbEntity
  8
0
100
AcDbLine
 62
7
  6
CONTINUOUS
 10
286.5430998621
 20
148.3629847416
 11
286.5682230013
 21
148.5267195216
  0
LINE
  5
3A5
100
AcDbEntity
  8
0
100
AcDbLine
 62
7
  6
CONTINUOUS
 10
289.8667260213
 20
143.5359833826
 11
290.3075434731
 21
146.0359833826
  0
LINE
  5
3A6
100
AcDbEntity
  8
0
100
AcDbLine
 62
7
  6
CONTINUOUS
 10
290.3075434731
 20
146.0359833826
 11
298.5826808559
 21
155.8979080878
  0
LINE
  5
3A7
100
AcDbEntity
  8
0
100
AcDbLine
 62
7
  6
CONTINUOUS
 10
271.1368733233
 20
250.7859834076
 11
278.1368733083
 21
250.7859834076
  0
LWPOLYLINE
  5
3A8
100
AcDbEntity
  8
RUNDUNGEN
100
AcDbPolyline
 62
7
  6
CONTINUOUS
 90
146
 70
0
 10
104.7056848988
 20
71.7928168945
 10
104.7078303544
 20
71.6834187126
 10
104.7100984121
 20
71.5745536426
 10
104.712489831
 20
71.4662299491
 10
104.715005398
 20
71.358460627
 10
104.7176460253
 20
71.2512586695
 10
104.7204127916
 20
71.1446358287
 10
104.7233066655
 20
71.0386131304
 10
104.7263294435
 20
70.9331871184
 10
104.7294803287
 20
70.8284468871
 10
104.7327593238
 20
70.7244485147
 10
104.7361652607
 20
70.6212803215
 10
104.7396934005
 20
70.519123676
 10
104.7433535376
 20
70.4177418509
 10
104.7471491466
 20
70.3171081816
 10
104.7510994057
 20
70.2168181434
 10
104.7552335214
 20
70.11630509
 10
104.7595354957
 20
70.0161411516
 10
104.764018487
 20
69.9161852268
 10
104.7686188579
 20
69.8179400804
 10
104.7732769971
 20
69.7225934298
 10
104.7779640484
 20
69.6305514082
 10
104.782617631
 20
69.5427709935
 10
104.787261635
 20
69.4585216871
 10
104.7918982801
 20
69.3775418111
 10
104.7965385777
 20
69.2994535472
 10
104.8011983959
 20
69.2238469881
 10
104.8058747303
 20
69.1506525404
 10
104.8105718004
 20
69.0796971685
 10
104.8152880326
 20
69.010908708
 10
104.8200237744
 20
68.9441927979
 10
104.8247802539
 20
68.879450694
 10
104.829558997
 20
68.8165879342
 10
104.8343623123
 20
68.7555077908
 10
104.8391929633
 20
68.6961159065
 10
104.8440539985
 20
68.6383222303
 10
104.8489509642
 20
68.5820158017
 10
104.8538822899
 20
68.5271737592
 10
104.8588499124
 20
68.473735208
 10
104.8638507048
 20
68.4216949222
 10
104.8688830301
 20
68.3710295511
 10
104.8739451998
 20
68.3217149621
 10
104.8790340032
 20
68.2737398256
 10
104.8841530383
 20
68.2270286104
 10
104.8893020723
 20
68.1815440267
 10
104.8944911411
 20
68.1371626052
 10
104.8997279895
 20
68.0937906489
 10
104.9050229731
 20
68.0513215994
 10
104.910386418
 20
68.0096587576
 10
104.9158306156
 20
67.9686996264
 10
104.9213698336
 20
67.9283373516
 10
104.9270137296
 20
67.8885078474
 10
104.9327754629
 20
67.8491292731
 10
104.9386634866
 20
67.8101586753
 10
104.9446881194
 20
67.7715449559
 10
104.950860741
 20
67.7332352748
 10
104.9571932779
 20
67.6951786512
 10
104.963698485
 20
67.6573243726
 10
104.9703929971
 20
67.6196053485
 10
104.9772813668
 20
67.5820267193
 10
104.9843773431
 20
67.5445442875
 10
104.9916707003
 20
67.5072391008
 10
104.9991580033
 20
67.4701480242
 10
105.0068255006
 20
67.4333507255
 10
105.0146591954
 20
67.3969166798
 10
105.022644322
 20
67.3609085895
 10
105.0307454717
 20
67.3254687751
 10
105.0389966756
 20
67.2904305359
 10
105.0474055166
 20
67.2557517039
 10
105.0560209232
 20
67.2212299562
 10
105.0648931431
 20
67.1866790416
 10
105.0740430661
 20
67.1520420941
 10
105.0835044509
 20
67.117221564
 10
105.093299501
 20
67.0821713749
 10
105.1034533914
 20
67.0468406374
 10
105.1139990865
 20
67.0111585578
 10
105.1249686317
 20
66.9750658189
 10
105.1364008065
 20
66.938489407
 10
105.1483321814
 20
66.9013724492
 10
105.1608149416
 20
66.86361947
 10
105.1738915801
 20
66.8251757151
 10
105.1876467266
 20
66.7858764011
 10
105.2021595628
 20
66.7455932683
 10
105.2175218984
 20
66.704183248
 10
105.2338492006
 20
66.6614639787
 10
105.2511896961
 20
66.6174491294
 10
105.269631239
 20
66.5720623395
 10
105.2891929572
 20
66.5254059261
 10
105.3099144345
 20
66.4775315374
 10
105.3318228381
 20
66.4285197823
 10
105.354942711
 20
66.3784546074
 10
105.3793155589
 20
66.3273819328
 10
105.4049577136
 20
66.2753994216
 10
105.4319661013
 20
66.2224440593
 10
105.4604179837
 20
66.1685051201
 10
105.4904094532
 20
66.1135476424
 10
105.5220324887
 20
66.0575574631
 10
105.5554030194
 20
66.0004919671
 10
105.5906114057
 20
65.9423666768
 10
105.6278597656
 20
65.8830320767
 10
105.6673374434
 20
65.8223922797
 10
105.7092412088
 20
65.7603704333
 10
105.7539225321
 20
65.696703444
 10
105.8011780449
 20
65.6319359229
 10
105.8510311694
 20
65.566261464
 10
105.9030502129
 20
65.5004296345
 10
105.9567544099
 20
65.4351502896
 10
106.0120701951
 20
65.3705684283
 10
106.0686880258
 20
65.3070727847
 10
106.1267173607
 20
65.2445548174
 10
106.1861609112
 20
65.1830345712
 10
106.247030303
 20
65.1225247831
 10
106.309355022
 20
65.0630242031
 10
106.3730868058
 20
65.0046066613
 10
106.4382036474
 20
64.9473170192
 10
106.5046409101
 20
64.8912333204
 10
106.5723365076
 20
64.836423965
 10
106.6412380517
 20
64.7829433429
 10
106.7112742777
 20
64.7308547271
 10
106.7824214008
 20
64.6801814951
 10
106.8546390676
 20
64.6309575
 10
106.927897848
 20
64.5832071792
 10
107.0021644055
 20
64.5369563246
 10
107.0774048636
 20
64.4922296646
 10
107.153584252
 20
64.4490511967
 10
107.2306677383
 20
64.4074434845
 10
107.3086193177
 20
64.3674284198
 10
107.3874033008
 20
64.3290264437
 10
107.4669829229
 20
64.2922572877
 10
107.5473216927
 20
64.2571393331
 10
107.6283815845
 20
64.2236904334
 10
107.7101272112
 20
64.1919262147
 10
107.7925217569
 20
64.1618618786
 10
107.8755289293
 20
64.1335114333
 10
107.9591116346
 20
64.1068882022
 10
108.0432332874
 20
64.082004396
 10
108.1278567207
 20
64.0588714896
 10
108.2129447548
 20
64.037500051
 10
108.2984597235
 20
64.0178998706
 10
108.3843643693
 20
64.0000797573
 10
108.4706209281
 20
63.9840477658
 10
108.5571919934
 20
63.9698110285
 10
108.6440398198
 20
63.9573759042
 10
108.731126667
 20
63.9467479187
 10
108.8184145428
 20
63.937931802
 10
108.9058656974
 20
63.9309314386
  0
LINE
  5
3A9
100
AcDbEntity
  8
RUNDUNGEN
100
AcDbLine
 62
7
  6
CONTINUOUS
 10
104.7017602537
 20
72.0131294564
 11
104.7056848988
 21
71.7928168945
  0
LINE
  5
3AA
100
AcDbEntity
  8
RUNDUNGEN
100
AcDbLine
 62
7
  6
CONTINUOUS
 10
104.6983227313
 20
72.235278474
 11
104.7017602537
 21
72.0131294564
  0
LINE
  5
3AB
100
AcDbEntity
  8
RUNDUNGEN
100
AcDbLine
 62
7
  6
CONTINUOUS
 10
104.6953719444
 20
72.4589863751
 11
104.6983227313
 21
72.235278474
  0
LINE
  5
3AC
100
AcDbEntity
  8
RUNDUNGEN
100
AcDbLine
 62
7
  6
CONTINUOUS
 10
104.6929073322
 20
72.6839879149
 11
104.6953719444
 21
72.4589863751
  0
LINE
  5
3AD
100
AcDbEntity
  8
RUNDUNGEN
100
AcDbLine
 62
7
  6
CONTINUOUS
 10
104.6909282087
 20
72.9100379631
 11
104.6929073322
 21
72.6839879149
  0
LINE
  5
3AE
100
AcDbEntity
  8
RUNDUNGEN
100
AcDbLine
 62
7
  6
CONTINUOUS
 10
104.6894340225
 20
73.1368952434
 11
104.6909282087
 21
72.9100379631
  0
LINE
  5
3AF
100
AcDbEntity
  8
RUNDUNGEN
100
AcDbLine
 62
7
  6
CONTINUOUS
 10
104.6884244255
 20
73.3643053835
 11
104.6894340225
 21
73.1368952434
  0
LINE
  5
3B0
100
AcDbEntity
  8
RUNDUNGEN
100
AcDbLine
 62
7
  6
CONTINUOUS
 10
104.6878991551
 20
73.5920027038
 11
104.6884244255
 21
73.3643053835
  0
LINE
  5
3B1
100
AcDbEntity
  8
BEZUGSACHSEN
100
AcDbLine
 62
7
  6
CONTINUOUS
 10
104.6878179979
 20
74.1351720634
 11
104.6879948186
 21
73.9207450851
  0
LWPOLYLINE
  5
3B2
100
AcDbEntity
  8
RUNDUNGEN
100
AcDbPolyline
 62
7
  6
CONTINUOUS
 90
3
 70
0
 10
104.6879948186
 20
73.9207434646
 10
104.6878580048
 20
73.8197264689
 10
104.6878991551
 20
73.5920027038
  0
LINE
  5
3B3
100
AcDbEntity
  8
BEZUGSACHSEN
100
AcDbLine
 62
7
  6
CONTINUOUS
 10
104.6880992315
 20
74.3624713889
 11
104.6878179979
 21
74.1351720634
  0
LINE
  5
3B4
100
AcDbEntity
  8
BEZUGSACHSEN
100
AcDbLine
 62
7
  6
CONTINUOUS
 10
104.6888628017
 20
74.5896176782
 11
104.6880992315
 21
74.3624713889
  0
LINE
  5
3B5
100
AcDbEntity
  8
BEZUGSACHSEN
100
AcDbLine
 62
7
  6
CONTINUOUS
 10
104.6901089595
 20
74.816349205
 11
104.6888628017
 21
74.5896176782
  0
LINE
  5
3B6
100
AcDbEntity
  8
BEZUGSACHSEN
100
AcDbLine
 62
7
  6
CONTINUOUS
 10
104.6918380057
 20
75.0424053724
 11
104.6901089595
 21
74.816349205
  0
LINE
  5
3B7
100
AcDbEntity
  8
BEZUGSACHSEN
100
AcDbLine
 62
7
  6
CONTINUOUS
 10
104.694050342
 20
75.2675361769
 11
104.6918380057
 21
75.0424053724
  0
LINE
  5
3B8
100
AcDbEntity
  8
BEZUGSACHSEN
100
AcDbLine
 62
7
  6
CONTINUOUS
 10
104.6967464875
 20
75.4914947988
 11
104.694050342
 21
75.2675361769
  0
LINE
  5
3B9
100
AcDbEntity
  8
BEZUGSACHSEN
100
AcDbLine
 62
7
  6
CONTINUOUS
 10
104.6999271199
 20
75.7140347972
 11
104.6967464875
 21
75.4914947988
  0
LINE
  5
3BA
100
AcDbEntity
  8
BEZUGSACHSEN
100
AcDbLine
 62
7
  6
CONTINUOUS
 10
104.7035931266
 20
75.9349102282
 11
104.6999271199
 21
75.7140347972
  0
LINE
  5
3BB
100
AcDbEntity
  8
BEZUGSACHSEN
100
AcDbLine
 62
7
  6
CONTINUOUS
 10
107.7409350898
 20
70.5541220094
 11
107.7409350898
 21
77.2873665402
  0
LINE
  5
3BC
100
AcDbEntity
  8
0
100
AcDbLine
 62
7
  6
CONTINUOUS
 10
130.2409351145
 20
53.2154763305
 11
130.2409351145
 21
67.4207442748
  0
LINE
  5
3BD
100
AcDbEntity
  8
0
100
AcDbLine
 62
7
  6
CONTINUOUS
 10
130.2409351145
 20
80.4207442748
 11
130.2409351145
 21
93.6168993351
  0
LINE
  5
3BE
100
AcDbEntity
  8
KONSTRUKTIONSELEMENTE
100
AcDbLine
 62
7
  6
CONTINUOUS
 10
130.2409351145
 20
93.6168993351
 11
130.2409351145
 21
94.6260122191
  0
LINE
  5
3BF
100
AcDbEntity
  8
0
100
AcDbLine
 62
7
  6
CONTINUOUS
 10
133.199043771
 20
49.9749367348
 11
172.282826458
 21
49.9749367348
  0
LINE
  5
3C0
100
AcDbEntity
  8
KONSTRUKTIONSELEMENTE
100
AcDbLine
 62
7
  6
CONTINUOUS
 10
143.9909351145
 20
52.200313893
 11
161.4909351145
 21
52.200313893
  0
LINE
  5
3C1
100
AcDbEntity
  8
KONSTRUKTIONSELEMENTE
100
AcDbLine
 62
7
  6
CONTINUOUS
 10
143.9909351145
 20
52.8029944467
 11
161.4909351145
 21
52.8029944467
  0
LINE
  5
3C2
100
AcDbEntity
  8
0
100
AcDbLine
 62
7
  6
CONTINUOUS
 10
143.8427677726
 20
56.5037801517
 11
148.0057005559
 21
56.5037801517
  0
LINE
  5
3C3
100
AcDbEntity
  8
0
100
AcDbLine
 62
7
  6
CONTINUOUS
 10
148.9181240474
 20
56.5037801517
 11
150.1401202356
 21
56.5037801517
  0
LINE
  5
3C4
100
AcDbEntity
  8
0
100
AcDbLine
 62
7
  6
CONTINUOUS
 10
155.769448248
 20
56.5037801517
 11
156.9140505468
 21
56.5037801517
  0
LINE
  5
3C5
100
AcDbEntity
  8
0
100
AcDbLine
 62
7
  6
CONTINUOUS
 10
158.7959241544
 20
56.5037801517
 11
159.9405278836
 21
56.5037801517
  0
LINE
  5
3C6
100
AcDbEntity
  8
0
100
AcDbLine
 62
7
  6
CONTINUOUS
 10
136.2409351145
 20
65.4207442748
 11
136.2409351145
 21
67.4207442748
  0
LINE
  5
3C7
100
AcDbEntity
  8
0
100
AcDbLine
 62
7
  6
CONTINUOUS
 10
136.2409351145
 20
80.4207442748
 11
136.2409351145
 21
82.4207442748
  0
LINE
  5
3C8
100
AcDbEntity
  8
0
100
AcDbLine
 62
7
  6
CONTINUOUS
 10
145.0647636925
 20
57.2609344207
 11
148.0057005559
 21
57.2609344207
  0
LINE
  5
3C9
100
AcDbEntity
  8
KONSTRUKTIONSELEMENTE
100
AcDbLine
 62
7
  6
CONTINUOUS
 10
145.0647636925
 20
57.8267162222
 11
148.0057005559
 21
57.8267162222
  0
LINE
  5
3CA
100
AcDbEntity
  8
0
100
AcDbLine
 62
7
  6
CONTINUOUS
 10
150.1401202356
 20
58.0246555046
 11
151.5169024144
 21
58.0246555046
  0
LINE
  5
3CB
100
AcDbEntity
  8
0
100
AcDbLine
 62
7
  6
CONTINUOUS
 10
150.1401202356
 20
58.8490315834
 11
151.3784095918
 21
58.8490315834
  0
LINE
  5
3CC
100
AcDbEntity
  8
KONSTRUKTIONSELEMENTE
100
AcDbLine
 62
7
  6
CONTINUOUS
 10
150.1401202356
 20
59.4180482406
 11
151.3784095918
 21
59.4180482406
  0
LWPOLYLINE
  5
3CD
100
AcDbEntity
  8
BEZUGSACHSEN
100
AcDbPolyline
 62
7
  6
CONTINUOUS
 90
28
 70
0
 10
126.7510709423
 20
80.4207442748
 10
126.7387388796
 20
80.4373138932
 10
126.653721416
 20
80.5455374796
 10
126.5634769948
 20
80.6543331224
 10
126.4684534678
 20
80.7628080702
 10
126.3687243482
 20
80.8706057914
 10
126.2645283768
 20
80.9772457995
 10
126.1560617775
 20
81.0823583482
 10
126.0436169822
 20
81.1855412522
 10
125.9273435293
 20
81.2865784674
 10
125.8074171947
 20
81.3852648411
 10
125.6841678699
 20
81.481311521
 10
125.5577870408
 20
81.5745838814
 10
125.4290264605
 20
81.6645940838
 10
125.298886491
 20
81.7507996572
 10
125.1671931408
 20
81.8335012658
 10
125.0347579879
 20
81.9123879379
 10
124.8995753178
 20
81.9887830223
 10
124.7597127161
 20
82.0637266263
 10
124.6146892364
 20
82.1373313477
 10
124.4629544005
 20
82.2101738058
 10
124.3051533899
 20
82.2817206547
 10
124.1415024264
 20
82.3517097538
 10
123.9719419004
 20
82.4200323802
 10
123.7966714935
 20
82.4865019184
 10
123.6153885013
 20
82.5511455277
 10
123.4280151205
 20
82.6139116581
 10
123.2364665934
 20
82.6741560609
  0
LINE
  5
3CE
100
AcDbEntity
  8
KONSTRUKTIONSELEMENTE
100
AcDbLine
 62
7
  6
CONTINUOUS
 10
140.9909351145
 20
93.268757734
 11
140.9909351145
 21
86.2338741219
  0
LINE
  5
3CF
100
AcDbEntity
  8
KONSTRUKTIONSELEMENTE
100
AcDbLine
 62
7
  6
CONTINUOUS
 10
140.9909351145
 20
60.738450902
 11
140.9909351145
 21
53.7095081542
  0
LINE
  5
3D0
100
AcDbEntity
  8
0
100
AcDbLine
 62
7
  6
CONTINUOUS
 10
142.1759351145
 20
88.7655127228
 11
142.1759351145
 21
90.813231518
  0
LWPOLYLINE
  5
3D1
100
AcDbEntity
  8
BEZUGSACHSEN
100
AcDbPolyline
 62
7
  6
CONTINUOUS
 90
146
 70
0
 10
196.3995742624
 20
63.9223564789
 10
196.487069356
 20
63.9256839151
 10
196.5744779712
 20
63.9308254682
 10
196.6617624138
 20
63.9377788792
 10
196.7488849534
 20
63.9465410863
 10
196.8358080677
 20
63.9571082457
 10
196.9224939612
 20
63.9694756711
 10
197.0089050982
 20
63.9836378861
 10
197.0950039294
 20
63.9995885855
 10
197.1807532212
 20
64.0173206897
 10
197.2661154751
 20
64.036826223
 10
197.3510536505
 20
64.0580964535
 10
197.4355303833
 20
64.0811216998
 10
197.5195087959
 20
64.1058915184
 10
197.6029519116
 20
64.1323945378
 10
197.6858234934
 20
64.1606187125
 10
197.7680862519
 20
64.190550702
 10
197.8497037615
 20
64.2221764761
 10
197.9306393905
 20
64.2554809219
 10
198.0108573197
 20
64.2904482307
 10
198.090321239
 20
64.3270613312
 10
198.1689958251
 20
64.3653025112
 10
198.2468452706
 20
64.4051527121
 10
198.3238358533
 20
64.4465928183
 10
198.3999294229
 20
64.489600097
 10
198.4750904321
 20
64.5341517778
 10
198.5492818397
 20
64.5802227142
 10
198.6224681408
 20
64.6277870757
 10
198.6946144844
 20
64.6768178395
 10
198.7656889092
 20
64.727288383
 10
198.8356530915
 20
64.7791657947
 10
198.9044801387
 20
64.8324237603
 10
198.9721115147
 20
64.8870087818
 10
199.0385021434
 20
64.9428732794
 10
199.1035996767
 20
64.999958956
 10
199.167354698
 20
65.0582045469
 10
199.229731651
 20
65.117556438
 10
199.290689397
 20
65.1779511854
 10
199.3502123852
 20
65.2393466858
 10
199.4082823772
 20
65.3016960802
 10
199.4648786991
 20
65.3649471543
 10
199.5200385821
 20
65.4291130092
 10
199.5735841194
 20
65.4939483199
 10
199.6254698421
 20
65.5593425136
 10
199.6754112914
 20
65.6248535688
 10
199.7231759436
 20
65.6900468062
 10
199.7687131022
 20
65.7546915528
 10
199.8118869053
 20
65.8184065533
 10
199.8528170998
 20
65.8811659851
 10
199.891552129
 20
65.9428424889
 10
199.9281837602
 20
66.0033792117
 10
199.9627791922
 20
66.0626846954
 10
199.995457128
 20
66.1207632809
 10
200.0263156909
 20
66.1775970462
 10
200.0554615218
 20
66.2331965314
 10
200.0829974148
 20
66.2875796582
 10
200.1090067956
 20
66.3407391853
 10
200.1335934388
 20
66.3927222952
 10
200.1567782224
 20
66.4434093087
 10
200.1786056278
 20
66.4927287943
 10
200.1991121213
 20
66.5405915282
 10
200.2183110465
 20
66.5868509714
 10
200.2363185837
 20
66.6316129591
 10
200.2531996396
 20
66.6748749987
 10
200.2690904274
 20
66.7168360238
 10
200.2841012921
 20
66.757657306
 10
200.2983255665
 20
66.797478729
 10
200.3118647033
 20
66.8364866359
 10
200.3247648034
 20
66.8747276722
 10
200.3370854817
 20
66.912299561
 10
200.3488661093
 20
66.9492503169
 10
200.3601477449
 20
66.9856418364
 10
200.3709702793
 20
67.0215416812
 10
200.3813711879
 20
67.057018902
 10
200.3913853527
 20
67.0921429569
 10
200.4010447135
 20
67.126981863
 10
200.4103837431
 20
67.1616219992
 10
200.4194324213
 20
67.1961430075
 10
200.4282245039
 20
67.2306491149
 10
200.4367930575
 20
67.2652538808
 10
200.4451583863
 20
67.3000300097
 10
200.4533500558
 20
67.3350982851
 10
200.4613659084
 20
67.3704509828
 10
200.4692146191
 20
67.4061277846
 10
200.4768947595
 20
67.4421235288
 10
200.4844101115
 20
67.4784560272
 10
200.4917577227
 20
67.5151092058
 10
200.4989376897
 20
67.5520786746
 10
200.5059497882
 20
67.5893555694
 10
200.5127940177
 20
67.626928939
 10
200.5194739179
 20
67.6648046883
 10
200.5259915806
 20
67.7029788961
 10
200.5323533435
 20
67.7414713143
 10
200.5385607275
 20
67.7802719405
 10
200.5446301488
 20
67.8194654848
 10
200.550572075
 20
67.8591060506
 10
200.5564016721
 20
67.8992859701
 10
200.5621321685
 20
67.9400937809
 10
200.5677747286
 20
67.9816119309
 10
200.5733389864
 20
68.0239192388
 10
200.5788383716
 20
68.0671322735
 10
200.5842829177
 20
68.1113518178
 10
200.5896875062
 20
68.1567297325
 10
200.595065078
 20
68.203417072
 10
200.6004258905
 20
68.2515560699
 10
200.605784118
 20
68.3013399549
 10
200.611136133
 20
68.3528085186
 10
200.6164870636
 20
68.4060885756
 10
200.6218234004
 20
68.4611221365
 10
200.6271359095
 20
68.5178814436
 10
200.6324186729
 20
68.5763648871
 10
200.6376594556
 20
68.6364902678
 10
200.6428686112
 20
68.6984307397
 10
200.6480477756
 20
68.762270412
 10
200.6532067956
 20
68.8282067935
 10
200.6583524443
 20
68.8964191935
 10
200.6634899644
 20
68.9670856133
 10
200.6686240833
 20
69.040396274
 10
200.6737577468
 20
69.1165360195
 10
200.678898233
 20
69.1957781226
 10
200.6840317258
 20
69.2780854461
 10
200.6891582032
 20
69.3636389388
 10
200.6942428786
 20
69.4520230677
 10
200.699261834
 20
69.5429418116
 10
200.7041913563
 20
69.6360449467
 10
200.709006468
 20
69.730891725
 10
200.7136970981
 20
69.8272765738
 10
200.7182493912
 20
69.9248783014
 10
200.7226563938
 20
70.0234823463
 10
200.7269074748
 20
70.122756663
 10
200.7310050729
 20
70.2226459265
 10
200.7349445158
 20
70.3229124708
 10
200.7387379069
 20
70.4237442735
 10
200.7423930075
 20
70.5252536887
 10
200.7459137757
 20
70.6274720097
 10
200.749305924
 20
70.7305007542
 10
200.7525689335
 20
70.8342671169
 10
200.7557037707
 20
70.9387430806
 10
200.7587112051
 20
71.0438965674
 10
200.761591866
 20
71.1496922662
 10
200.7643467962
 20
71.2561125189
 10
200.7669768219
 20
71.3631355895
 10
200.769482711
 20
71.4707411865
 10
200.7718651476
 20
71.5789093709
 10
200.774124725
 20
71.687620014
 10
200.7782773213
 20
71.90659064
  0
LINE
  5
3D2
100
AcDbEntity
  8
BEZUGSACHSEN
100
AcDbLine
 62
7
  6
CONTINUOUS
 10
196.312579504
 20
63.9208541069
 11
196.3995742624
 21
63.9223564789
  0
LINE
  5
3D3
100
AcDbEntity
  8
BEZUGSACHSEN
100
AcDbLine
 62
7
  6
CONTINUOUS
 10
196.3086148992
 20
63.9208328489
 11
196.334301469
 21
63.9210766383
  0
LINE
  5
3D4
100
AcDbEntity
  8
0
100
AcDbLine
 62
7
  6
CONTINUOUS
 10
150.1401202356
 20
60.2526493458
 11
151.3947024022
 21
60.2526493458
  0
LINE
  5
3D5
100
AcDbEntity
  8
0
100
AcDbLine
 62
7
  6
CONTINUOUS
 10
143.8427677726
 20
61.1690554481
 11
145.0647636925
 21
61.1690554481
  0
LINE
  5
3D6
100
AcDbEntity
  8
0
100
AcDbLine
 62
7
  6
CONTINUOUS
 10
148.9181240474
 20
61.1690554481
 11
151.6309549485
 21
61.1690554481
  0
LINE
  5
3D7
100
AcDbEntity
  8
0
100
AcDbLine
 62
7
  6
CONTINUOUS
 10
154.0708739434
 20
61.1690554481
 11
155.4109964048
 21
61.1690554481
  0
LINE
  5
3D8
100
AcDbEntity
  8
0
100
AcDbLine
 62
7
  6
CONTINUOUS
 10
157.1991829549
 20
61.1690554481
 11
158.5107917463
 21
61.1690554481
  0
LINE
  5
3D9
100
AcDbEntity
  8
0
100
AcDbLine
 62
7
  6
CONTINUOUS
 10
160.3519329702
 20
61.1690554481
 11
161.639101473
 21
61.1690554481
  0
LINE
  5
3DA
100
AcDbEntity
  8
KONSTRUKTIONSELEMENTE
100
AcDbLine
 62
7
  6
CONTINUOUS
 10
143.8427677726
 20
61.7499263101
 11
145.0647636925
 21
61.7499263101
  0
LINE
  5
3DB
100
AcDbEntity
  8
KONSTRUKTIONSELEMENTE
100
AcDbLine
 62
7
  6
CONTINUOUS
 10
148.9181240474
 20
61.7499263101
 11
151.6309549485
 21
61.7499263101
  0
LINE
  5
3DC
100
AcDbEntity
  8
KONSTRUKTIONSELEMENTE
100
AcDbLine
 62
7
  6
CONTINUOUS
 10
154.0708739434
 20
61.7499263101
 11
155.4109964048
 21
61.7499263101
  0
LINE
  5
3DD
100
AcDbEntity
  8
KONSTRUKTIONSELEMENTE
100
AcDbLine
 62
7
  6
CONTINUOUS
 10
157.1991829549
 20
61.7499263101
 11
158.5107917463
 21
61.7499263101
  0
LINE
  5
3DE
100
AcDbEntity
  8
KONSTRUKTIONSELEMENTE
100
AcDbLine
 62
7
  6
CONTINUOUS
 10
160.3519329702
 20
61.7499263101
 11
161.639101473
 21
61.7499263101
  0
LINE
  5
3DF
100
AcDbEntity
  8
KONSTRUKTIONSELEMENTE
100
AcDbLine
 62
7
  6
CONTINUOUS
 10
143.9909351145
 20
63.4441021938
 11
161.4909351145
 21
63.4441021938
  0
LINE
  5
3E0
100
AcDbEntity
  8
RUNDUNGEN
100
AcDbLine
 62
7
  6
CONTINUOUS
 10
109.1475692851
 20
63.9210766317
 11
109.1722445858
 21
63.9208395615
  0
LINE
  5
3E1
100
AcDbEntity
  8
RUNDUNGEN
100
AcDbLine
 62
7
  6
CONTINUOUS
 10
109.0811060712
 20
63.9223895438
 11
109.1676032557
 21
63.9208731055
  0
LINE
  5
3E2
100
AcDbEntity
  8
RUNDUNGEN
100
AcDbLine
 62
7
  6
CONTINUOUS
 10
108.9934421801
 20
63.9257499238
 11
109.0811060712
 21
63.9223895438
  0
LINE
  5
3E3
100
AcDbEntity
  8
RUNDUNGEN
100
AcDbLine
 62
7
  6
CONTINUOUS
 10
108.9058656974
 20
63.9309314386
 11
108.9934421801
 21
63.9257499238
  0
LINE
  5
3E4
100
AcDbEntity
  8
0
100
AcDbLine
 62
7
  6
CONTINUOUS
 10
143.6759351145
 20
90.7669963617
 11
143.6759351145
 21
89.3815105123
  0
LINE
  5
3E5
100
AcDbEntity
  8
0
100
AcDbLine
 62
7
  6
CONTINUOUS
 10
143.8427677726
 20
61.7499263101
 11
143.8427677726
 21
56.5037801517
  0
LINE
  5
3E6
100
AcDbEntity
  8
0
100
AcDbLine
 62
7
  6
CONTINUOUS
 10
145.0647636925
 20
57.2609344207
 11
145.0647636925
 21
61.7499263101
  0
LINE
  5
3E7
100
AcDbEntity
  8
0
100
AcDbLine
 62
7
  6
CONTINUOUS
 10
187.0459351145
 20
65.6025122692
 11
189.6361332576
 21
65.6938291751
  0
LINE
  5
3E8
100
AcDbEntity
  8
0
100
AcDbLine
 62
7
  6
CONTINUOUS
 10
189.0261982744
 20
65.7419078754
 11
187.0459351145
 21
65.6720941026
  0
LINE
  5
3E9
100
AcDbEntity
  8
BEZUGSACHSEN
100
AcDbLine
 62
7
  6
CONTINUOUS
 10
196.3120705942
 20
63.9208447638
 11
196.2811576507
 21
63.9207424968
  0
LINE
  5
3EA
100
AcDbEntity
  8
BEZUGSACHSEN
100
AcDbLine
 62
7
  6
CONTINUOUS
 10
196.2808918196
 20
63.9207442748
 11
175.2409351145
 21
63.9207442748
  0
LINE
  5
3EB
100
AcDbEntity
  8
BEZUGSACHSEN
100
AcDbLine
 62
7
  6
CONTINUOUS
 10
130.2409351145
 20
63.9207442748
 11
109.2009784094
 21
63.9207442748
  0
LINE
  5
3EC
100
AcDbEntity
  8
0
100
AcDbLine
 62
7
  6
CONTINUOUS
 10
189.2169877483
 20
64.897072805
 11
190.7959351183
 21
64.897072805
  0
LINE
  5
3ED
100
AcDbEntity
  8
0
100
AcDbLine
 62
7
  6
CONTINUOUS
 10
190.7459351183
 20
64.969432575
 11
189.2696193273
 21
64.969432575
  0
LINE
  5
3EE
100
AcDbEntity
  8
0
100
AcDbLine
 62
7
  6
CONTINUOUS
 10
188.0327772208
 20
65.1204351866
 11
191.388040382
 21
65.1204351866
  0
LINE
  5
3EF
100
AcDbEntity
  8
0
100
AcDbLine
 62
7
  6
CONTINUOUS
 10
192.966987752
 20
65.192746749
 11
191.9801456458
 21
65.192746749
  0
LINE
  5
3F0
100
AcDbEntity
  8
0
100
AcDbLine
 62
7
  6
CONTINUOUS
 10
191.388040382
 20
65.192746749
 11
187.0459351145
 21
65.192746749
  0
LINE
  5
3F1
100
AcDbEntity
  8
0
100
AcDbLine
 62
7
  6
CONTINUOUS
 10
189.4143561695
 20
65.2650583114
 11
192.966987752
 21
65.2650583114
  0
LINE
  5
3F2
100
AcDbEntity
  8
0
100
AcDbLine
 62
7
  6
CONTINUOUS
 10
192.966987752
 20
65.3373698738
 11
189.4143561695
 21
65.3373698738
  0
LINE
  5
3F3
100
AcDbEntity
  8
0
100
AcDbLine
 62
7
  6
CONTINUOUS
 10
136.2409351145
 20
65.4207442748
 11
169.2409351145
 21
65.4207442748
  0
LINE
  5
3F4
100
AcDbEntity
  8
0
100
AcDbLine
 62
7
  6
CONTINUOUS
 10
189.4143561695
 20
65.4819929986
 11
192.966987752
 21
65.4819929986
  0
LINE
  5
3F5
100
AcDbEntity
  8
0
100
AcDbLine
 62
7
  6
CONTINUOUS
 10
192.966987752
 20
65.554304561
 11
189.4143561695
 21
65.554304561
  0
LINE
  5
3F6
100
AcDbEntity
  8
KONSTRUKTIONSELEMENTE
100
AcDbLine
 62
7
  6
CONTINUOUS
 10
136.2409351145
 20
65.8474859487
 11
169.2409351145
 21
65.8474859487
  0
LINE
  5
3F7
100
AcDbEntity
  8
0
100
AcDbLine
 62
7
  6
CONTINUOUS
 10
187.0459351145
 20
65.8556027376
 11
189.5196193275
 21
65.8556027376
  0
LINE
  5
3F8
100
AcDbEntity
  8
0
100
AcDbLine
 62
7
  6
CONTINUOUS
 10
190.5064614338
 20
65.8556027376
 11
191.388040382
 21
65.8556027376
  0
LINE
  5
3F9
100
AcDbEntity
  8
0
100
AcDbLine
 62
7
  6
CONTINUOUS
 10
192.966987752
 20
65.9158623729
 11
191.9801456458
 21
65.9158623729
  0
LINE
  5
3FA
100
AcDbEntity
  8
0
100
AcDbLine
 62
7
  6
CONTINUOUS
 10
191.388040382
 20
65.9158623729
 11
187.0459351145
 21
65.9158623729
  0
LINE
  5
3FB
100
AcDbEntity
  8
0
100
AcDbLine
 62
7
  6
CONTINUOUS
 10
192.966987752
 20
66.1653958499
 11
191.9801456458
 21
66.1653958499
  0
LINE
  5
3FC
100
AcDbEntity
  8
0
100
AcDbLine
 62
7
  6
CONTINUOUS
 10
191.388040382
 20
66.1653958499
 11
187.0459351145
 21
66.1653958499
  0
LINE
  5
3FD
100
AcDbEntity
  8
RUNDUNGEN
100
AcDbLine
 62
7
  6
CONTINUOUS
 10
109.1691984687
 20
63.920848997
 11
109.20071258
 21
63.9207424968
  0
LINE
  5
3FE
100
AcDbEntity
  8
0
100
AcDbLine
 62
7
  6
CONTINUOUS
 10
146.8009351145
 20
88.1780377709
 11
146.8009351145
 21
91.8455907086
  0
LINE
  5
3FF
100
AcDbEntity
  8
0
100
AcDbLine
 62
7
  6
CONTINUOUS
 10
148.0057005559
 20
57.8267162222
 11
148.0057005559
 21
56.5037801517
  0
LINE
  5
400
100
AcDbEntity
  8
0
100
AcDbLine
 62
7
  6
CONTINUOUS
 10
148.3009351145
 20
86.5249571999
 11
148.3009351145
 21
88.1454397417
  0
LINE
  5
401
100
AcDbEntity
  8
0
100
AcDbLine
 62
7
  6
CONTINUOUS
 10
148.3009351145
 20
88.1780377709
 11
148.3009351145
 21
92.6549822887
  0
LINE
  5
402
100
AcDbEntity
  8
0
100
AcDbLine
 62
7
  6
CONTINUOUS
 10
148.9181240474
 20
61.7499263101
 11
148.9181240474
 21
56.5037801517
  0
LINE
  5
403
100
AcDbEntity
  8
RUNDUNGEN
100
AcDbLine
 62
7
  6
CONTINUOUS
 10
124.0413595214
 20
67.4050956098
 11
124.0405406458
 21
67.4050034565
  0
LWPOLYLINE
  5
404
100
AcDbEntity
  8
RUNDUNGEN
100
AcDbPolyline
 62
7
  6
CONTINUOUS
 90
18
 70
0
 10
124.0405406458
 20
67.4050034565
 10
124.0438531673
 20
67.405332013
 10
124.0495357559
 20
67.405854638
 10
124.0580561943
 20
67.4065797399
 10
124.0694819659
 20
67.4074750284
 10
124.0838902947
 20
67.4085091793
 10
124.1013510753
 20
67.4096505058
 10
124.1219379559
 20
67.4108678659
 10
124.1457175628
 20
67.4121300518
 10
124.1727610423
 20
67.4134065531
 10
124.2031318316
 20
67.4146669875
 10
124.2368970255
 20
67.4158817268
 10
124.2741196006
 20
67.4170216047
 10
124.3148648033
 20
67.4180581942
 10
124.3591959874
 20
67.4189636947
 10
124.4071782557
 20
67.4197110443
 10
124.4588749885
 20
67.4202738654
 10
124.5143429941
 20
67.4206264983
  0
LINE
  5
405
100
AcDbEntity
  8
RUNDUNGEN
100
AcDbLine
 62
7
  6
CONTINUOUS
 10
150.8719532446
 20
67.4207442748
 11
115.0126803722
 21
67.4207442748
  0
LINE
  5
406
100
AcDbEntity
  8
BEZUGSACHSEN
100
AcDbLine
 62
7
  6
CONTINUOUS
 10
124.5717760727
 20
67.4207442748
 11
190.4691898569
 21
67.4207442748
  0
LWPOLYLINE
  5
407
100
AcDbEntity
  8
BEZUGSACHSEN
100
AcDbPolyline
 62
7
  6
CONTINUOUS
 90
18
 70
0
 10
180.9675279087
 20
67.4206264955
 10
181.0229964958
 20
67.4202738545
 10
181.0746937208
 20
67.4197110212
 10
181.1226763953
 20
67.4189636559
 10
181.1670079026
 20
67.4180581374
 10
181.2077533483
 20
67.4170215284
 10
181.244976089
 20
67.4158816307
 10
181.278741374
 20
67.4146668721
 10
181.3091121821
 20
67.4134064201
 10
181.3361556111
 20
67.412129904
 10
181.3599351005
 20
67.4108677071
 10
181.3805217992
 20
67.409650341
 10
181.3979823363
 20
67.4085090144
 10
181.4123903616
 20
67.4074748707
 10
181.4238157717
 20
67.4065795977
 10
181.432335794
 20
67.4058545208
 10
181.4380179139
 20
67.4053319313
 10
181.4400335329
 20
67.4051350484
  0
LINE
  5
408
100
AcDbEntity
  8
0
100
AcDbLine
 62
7
  6
CONTINUOUS
 10
149.8009351145
 20
86.5249571999
 11
149.8009351145
 21
90.6347225798
  0
LINE
  5
409
100
AcDbEntity
  8
0
100
AcDbLine
 62
7
  6
CONTINUOUS
 10
150.1401202356
 20
60.2526493458
 11
150.1401202356
 21
58.8490315834
  0
LINE
  5
40A
100
AcDbEntity
  8
0
100
AcDbLine
 62
7
  6
CONTINUOUS
 10
150.1401202356
 20
58.0246555046
 11
150.1401202356
 21
56.5037801517
  0
LINE
  5
40B
100
AcDbEntity
  8
0
100
AcDbLine
 62
7
  6
CONTINUOUS
 10
151.3009351145
 20
86.5249571999
 11
151.3009351145
 21
90.6347225798
  0
LINE
  5
40C
100
AcDbEntity
  8
BG_STARTBEZUEGE
100
AcDbLine
 62
7
  6
CENTER
 10
152.7409351145
 20
46.2762453185
 11
152.7409351145
 21
101.5652432312
  0
LWPOLYLINE
  5
40D
100
AcDbEntity
  8
RUNDUNGEN
100
AcDbPolyline
 62
7
  6
CONTINUOUS
 90
28
 70
0
 10
123.236466597
 20
65.1673324898
 10
123.4279031009
 20
65.2275405333
 10
123.6151747565
 20
65.2902691394
 10
123.7963653435
 20
65.3548740336
 10
123.9715531325
 20
65.4213041799
 10
124.1410403771
 20
65.4895869634
 10
124.3046283918
 20
65.559536681
 10
124.4623781346
 20
65.6310458469
 10
124.6140711433
 20
65.7038520321
 10
124.7590646024
 20
65.7774238998
 10
124.8988972902
 20
65.8523323945
 10
125.0340392027
 20
65.9286836326
 10
125.1664285977
 20
66.0075198451
 10
125.2980709468
 20
66.0901630504
 10
125.4281616909
 20
66.1763062101
 10
125.5568813393
 20
66.2662543042
 10
125.6832275494
 20
66.3594640687
 10
125.8064491469
 20
66.4554486772
 10
125.9263532053
 20
66.5540728297
 10
126.0426083656
 20
66.6550468338
 10
126.1550400541
 20
66.7581669284
 10
126.2634988329
 20
66.8632176466
 10
126.367693532
 20
66.9697987775
 10
126.4674284938
 20
67.0775421287
 10
126.5624659808
 20
67.1859695953
 10
126.6527325828
 20
67.294726236
 10
126.7377822521
 20
67.4029236497
 10
126.7510537611
 20
67.4207442748
  0
LINE
  5
40E
100
AcDbEntity
  8
BG_STARTBEZUEGE
100
AcDbLine
 62
7
  6
CENTER
 10
101.6878192725
 20
73.9207442748
 11
203.7940509565
 21
73.9207442748
  0
LINE
  5
40F
100
AcDbEntity
  8
0
100
AcDbLine
 62
7
  6
CONTINUOUS
 10
153.4435825025
 20
60.1276655914
 11
153.4435825025
 21
59.555880181
  0
LINE
  5
410
100
AcDbEntity
  8
0
100
AcDbLine
 62
7
  6
CONTINUOUS
 10
154.0708739434
 20
61.7499263101
 11
154.0708739434
 21
61.1690554481
  0
LINE
  5
411
100
AcDbEntity
  8
0
100
AcDbLine
 62
7
  6
CONTINUOUS
 10
154.3009351145
 20
86.5249571999
 11
154.3009351145
 21
90.6347225798
  0
LINE
  5
412
100
AcDbEntity
  8
0
100
AcDbLine
 62
7
  6
CONTINUOUS
 10
155.4109964048
 20
61.7499263101
 11
155.4109964048
 21
61.1690554481
  0
LINE
  5
413
100
AcDbEntity
  8
0
100
AcDbLine
 62
7
  6
CONTINUOUS
 10
155.8009351145
 20
86.5249571999
 11
155.8009351145
 21
90.6347225798
  0
LINE
  5
414
100
AcDbEntity
  8
0
100
AcDbLine
 62
7
  6
CONTINUOUS
 10
156.3356389676
 20
58.2876227537
 11
156.3356389676
 21
57.7213582382
  0
LWPOLYLINE
  5
415
100
AcDbEntity
  8
BEZUGSACHSEN
100
AcDbPolyline
 62
7
  6
CONTINUOUS
 90
28
 70
0
 10
182.245403632
 20
82.6741560598
 10
182.0539671265
 20
82.6139480158
 10
181.8666954693
 20
82.5512194091
 10
181.6855048809
 20
82.4866145143
 10
181.5103170905
 20
82.4201843674
 10
181.3408298447
 20
82.3519015832
 10
181.1772418288
 20
82.2819518649
 10
181.019492085
 20
82.2104426984
 10
180.8677990754
 20
82.1376365124
 10
180.7228056155
 20
82.064064644
 10
180.5829729269
 20
81.9891561486
 10
180.4478310135
 20
81.9128049095
 10
180.3154416176
 20
81.8339686961
 10
180.1837992674
 20
81.7513254897
 10
180.0537085222
 20
81.6651823288
 10
179.924988873
 20
81.5752342335
 10
179.7986426622
 20
81.4820244677
 10
179.6754210641
 20
81.386039858
 10
179.5555170051
 20
81.2874157043
 10
179.4392618444
 20
81.1864416989
 10
179.3268301556
 20
81.083321603
 10
179.2183713766
 20
80.9782708837
 10
179.1141766775
 20
80.8716897515
 10
179.0144417157
 20
80.7639463992
 10
178.9194042288
 20
80.6555189316
 10
178.8291376271
 20
80.5467622899
 10
178.7440879582
 20
80.4385648755
 10
178.7308164676
 20
80.4207442748
  0
LINE
  5
416
100
AcDbEntity
  8
BEZUGSACHSEN
100
AcDbLine
 62
7
  6
CONTINUOUS
 10
181.4405107076
 20
80.4363929398
 11
181.4413295833
 21
80.4364850931
  0
LWPOLYLINE
  5
417
100
AcDbEntity
  8
BEZUGSACHSEN
100
AcDbPolyline
 62
7
  6
CONTINUOUS
 90
18
 70
0
 10
181.4413295833
 20
80.4364850931
 10
181.4380170617
 20
80.4361565367
 10
181.4323344732
 20
80.4356339116
 10
181.4238140347
 20
80.4349088097
 10
181.4123882631
 20
80.4340135212
 10
181.3979799343
 20
80.4329793703
 10
181.3805191537
 20
80.4318380438
 10
181.3599322731
 20
80.4306206838
 10
181.3361526662
 20
80.4293584979
 10
181.3091091867
 20
80.4280819966
 10
181.2787383974
 20
80.4268215622
 10
181.2449732035
 20
80.4256068228
 10
181.2077506284
 20
80.4244669449
 10
181.1670054257
 20
80.4234303554
 10
181.1226742416
 20
80.4225248549
 10
181.0746919733
 20
80.4217775053
 10
181.0229952405
 20
80.4212146843
 10
180.9675272349
 20
80.4208620513
  0
LINE
  5
418
100
AcDbEntity
  8
0
100
AcDbLine
 62
7
  6
CONTINUOUS
 10
156.8009351145
 20
92.0888535178
 11
156.8009351145
 21
92.6581261887
  0
LINE
  5
419
100
AcDbEntity
  8
0
100
AcDbLine
 62
7
  6
CONTINUOUS
 10
157.1991829549
 20
61.7499263101
 11
157.1991829549
 21
61.1690554481
  0
LINE
  5
41A
100
AcDbEntity
  8
KONSTRUKTIONSELEMENTE
100
AcDbLine
 62
7
  6
CONTINUOUS
 10
157.3009351145
 20
88.3278838853
 11
157.3009351145
 21
88.8972745423
  0
LINE
  5
41B
100
AcDbEntity
  8
0
100
AcDbLine
 62
7
  6
CONTINUOUS
 10
158.5107917463
 20
61.7499263101
 11
158.5107917463
 21
61.1690554481
  0
LINE
  5
41C
100
AcDbEntity
  8
0
100
AcDbLine
 62
7
  6
CONTINUOUS
 10
159.3784098302
 20
58.3358936148
 11
159.3784098302
 21
57.7695560618
  0
LINE
  5
41D
100
AcDbEntity
  8
0
100
AcDbLine
 62
7
  6
CONTINUOUS
 10
160.3519329702
 20
61.7499263101
 11
160.3519329702
 21
61.1690554481
  0
LINE
  5
41E
100
AcDbEntity
  8
BEZUGSACHSEN
100
AcDbLine
 62
7
  6
CONTINUOUS
 10
115.0126803722
 20
80.4207442748
 11
190.4691898569
 21
80.4207442748
  0
LWPOLYLINE
  5
41F
100
AcDbEntity
  8
BEZUGSACHSEN
100
AcDbPolyline
 62
7
  6
CONTINUOUS
 90
18
 70
0
 10
124.5143423203
 20
80.4208620541
 10
124.4588737332
 20
80.4212146951
 10
124.4071765082
 20
80.4217775284
 10
124.3591938337
 20
80.4225248937
 10
124.3148623264
 20
80.4234304122
 10
124.2741168807
 20
80.4244670212
 10
124.23689414
 20
80.4256069189
 10
124.203128855
 20
80.4268216775
 10
124.1727580469
 20
80.4280821295
 10
124.1457146179
 20
80.4293586456
 10
124.1219351285
 20
80.4306208425
 10
124.1013484298
 20
80.4318382086
 10
124.0838878927
 20
80.4329795352
 10
124.0694798674
 20
80.4340136789
 10
124.0580544573
 20
80.4349089519
 10
124.049534435
 20
80.4356340288
 10
124.0438523151
 20
80.4361566183
 10
124.0418366961
 20
80.4363535012
  0
LINE
  5
420
100
AcDbEntity
  8
0
100
AcDbLine
 62
7
  6
CONTINUOUS
 10
161.639101473
 20
61.7499263101
 11
161.639101473
 21
61.1690554481
  0
LINE
  5
421
100
AcDbEntity
  8
0
100
AcDbLine
 62
7
  6
CONTINUOUS
 10
162.0509351145
 20
92.6581261887
 11
162.0509351145
 21
90.5483840346
  0
LINE
  5
422
100
AcDbEntity
  8
0
100
AcDbLine
 62
7
  6
CONTINUOUS
 10
162.0509351145
 20
88.1780377709
 11
162.0509351145
 21
89.6237419977
  0
LINE
  5
423
100
AcDbEntity
  8
0
100
AcDbLine
 62
7
  6
CONTINUOUS
 10
163.3009351145
 20
86.5249571999
 11
163.3009351145
 21
88.1454397417
  0
LINE
  5
424
100
AcDbEntity
  8
0
100
AcDbLine
 62
7
  6
CONTINUOUS
 10
163.3009351145
 20
88.1780377709
 11
163.3009351145
 21
92.6581261887
  0
LINE
  5
425
100
AcDbEntity
  8
BEZUGSACHSEN
100
AcDbLine
 62
7
  6
CONTINUOUS
 10
109.1692909832
 20
83.9206344446
 11
109.0822963028
 21
83.91913208
  0
LINE
  5
426
100
AcDbEntity
  8
BEZUGSACHSEN
100
AcDbLine
 62
7
  6
CONTINUOUS
 10
109.1732555953
 20
83.9206557024
 11
109.1475692519
 21
83.9204119175
  0
LINE
  5
427
100
AcDbEntity
  8
BEZUGSACHSEN
100
AcDbLine
 62
7
  6
CONTINUOUS
 10
109.2007125783
 20
83.9207460528
 11
109.1697998832
 21
83.9206437875
  0
LINE
  5
428
100
AcDbEntity
  8
BEZUGSACHSEN
100
AcDbLine
 62
7
  6
CONTINUOUS
 10
109.1993153614
 20
83.9207468973
 11
109.197738775
 21
83.9207466031
  0
LINE
  5
429
100
AcDbEntity
  8
KONSTRUKTIONSELEMENTE
100
AcDbLine
 62
7
  6
CONTINUOUS
 10
136.2409351145
 20
81.9940026009
 11
169.2409351145
 21
81.9940026009
  0
LINE
  5
42A
100
AcDbEntity
  8
KONSTRUKTIONSELEMENTE
100
AcDbLine
 62
7
  6
CONTINUOUS
 10
136.2409351145
 20
82.4207442748
 11
169.2409351145
 21
82.4207442748
  0
LINE
  5
42B
100
AcDbEntity
  8
BEZUGSACHSEN
100
AcDbLine
 62
7
  6
CONTINUOUS
 10
196.2808918196
 20
83.9207442748
 11
175.2409351145
 21
83.9207442748
  0
LINE
  5
42C
100
AcDbEntity
  8
BEZUGSACHSEN
100
AcDbLine
 62
7
  6
CONTINUOUS
 10
130.2409351145
 20
83.9207442748
 11
109.2009784094
 21
83.9207442748
  0
LINE
  5
42D
100
AcDbEntity
  8
KONSTRUKTIONSELEMENTE
100
AcDbLine
 62
7
  6
CONTINUOUS
 10
142.9909351145
 20
84.3973863558
 11
162.4909351145
 21
84.3973863558
  0
LINE
  5
42E
100
AcDbEntity
  8
BEZUGSACHSEN
100
AcDbLine
 62
7
  6
CONTINUOUS
 10
196.3126717603
 20
83.9206395526
 11
196.281157649
 21
83.9207460528
  0
LINE
  5
42F
100
AcDbEntity
  8
BEZUGSACHSEN
100
AcDbLine
 62
7
  6
CONTINUOUS
 10
196.3343015964
 20
83.9204119097
 11
196.3096256638
 21
83.9206489881
  0
LINE
  5
430
100
AcDbEntity
  8
BEZUGSACHSEN
100
AcDbLine
 62
7
  6
CONTINUOUS
 10
196.4007641578
 20
83.9190990058
 11
196.3142669651
 21
83.9206154442
  0
LINE
  5
431
100
AcDbEntity
  8
KONSTRUKTIONSELEMENTE
100
AcDbLine
 62
7
  6
CONTINUOUS
 10
164.4909351145
 20
53.7095081542
 11
164.4909351145
 21
60.738450902
  0
LINE
  5
432
100
AcDbEntity
  8
KONSTRUKTIONSELEMENTE
100
AcDbLine
 62
7
  6
CONTINUOUS
 10
164.4909351145
 20
86.2338741219
 11
164.4909351145
 21
93.2687577783
  0
LWPOLYLINE
  5
433
100
AcDbEntity
  8
BEZUGSACHSEN
100
AcDbPolyline
 62
7
  6
CONTINUOUS
 90
146
 70
0
 10
109.0822963028
 20
83.91913208
 10
108.9948012928
 20
83.9158046548
 10
108.9073927609
 20
83.9106631162
 10
108.8201084012
 20
83.9037097232
 10
108.7329859438
 20
83.8949475376
 10
108.6460629111
 20
83.884380403
 10
108.5593770985
 20
83.8720130059
 10
108.4729660414
 20
83.8578508225
 10
108.3868672892
 20
83.8419001581
 10
108.3011180752
 20
83.8241680922
 10
108.2157558979
 20
83.8046626005
 10
108.1308177979
 20
83.783392415
 10
108.046341139
 20
83.7603672167
 10
107.9623627988
 20
83.7355974494
 10
107.8789197538
 20
83.7090944845
 10
107.796048241
 20
83.6808703673
 10
107.7137855497
 20
83.6509384384
 10
107.6321681053
 20
83.6193127278
 10
107.5512325395
 20
83.5860083484
 10
107.4710146714
 20
83.5510411089
 10
107.3915508109
 20
83.5144280804
 10
107.3128762814
 20
83.4761869751
 10
107.23502689
 20
83.4363368516
 10
107.1580363588
 20
83.3948968253
 10
107.081942838
 20
83.3518896289
 10
107.006781875
 20
83.3073380327
 10
106.9325905106
 20
83.2612671832
 10
106.8594042498
 20
83.2137029106
 10
106.7872579434
 20
83.1646722378
 10
106.7161835529
 20
83.1142017871
 10
106.6462194016
 20
83.06232447
 10
106.5773923817
 20
83.0090666003
 10
106.5097610293
 20
82.9544816757
 10
106.4433704198
 20
82.8986172754
 10
106.3782729016
 20
82.8415316964
 10
106.314517891
 20
82.7832862031
 10
106.2521409448
 20
82.7239344097
 10
106.1911832018
 20
82.66353976
 10
106.1316602132
 20
82.6021443573
 10
106.0735902175
 20
82.5397950609
 10
106.016993888
 20
82.476544084
 10
105.9618339949
 20
82.4123783271
 10
105.9082884389
 20
82.3475431074
 10
105.8564026838
 20
82.2821489896
 10
105.8064611898
 20
82.2166379948
 10
105.7586964786
 20
82.1514447968
 10
105.7131592533
 20
82.0868000754
 10
105.6699853813
 20
82.0230850921
 10
105.6290551158
 20
81.9603256694
 10
105.5903200152
 20
81.8986491681
 10
105.553688313
 20
81.8381124425
 10
105.519092811
 20
81.7788069516
 10
105.4864148069
 20
81.7207283556
 10
105.4555561779
 20
81.6638945776
 10
105.4264102832
 20
81.6082950779
 10
105.3988743292
 20
81.5539119358
 10
105.372864889
 20
81.5007523905
 10
105.3482781872
 20
81.4487692586
 10
105.3250933452
 20
81.3980822167
 10
105.3032658799
 20
81.3487626926
 10
105.2827593267
 20
81.3008999129
 10
105.2635603418
 20
81.254640416
 10
105.245552748
 20
81.2098783744
 10
105.2286716416
 20
81.1666162886
 10
105.2127808083
 20
81.1246552241
 10
105.1977699038
 20
81.0838339117
 10
105.1835455938
 20
81.0440124658
 10
105.1700064253
 20
81.005004543
 10
105.1571062963
 20
80.9667634955
 10
105.1447855908
 20
80.9291915974
 10
105.1330049379
 20
80.8922408354
 10
105.1217232789
 20
80.8558493132
 10
105.110900723
 20
80.8199494698
 10
105.1004997948
 20
80.7844722547
 10
105.0904856122
 20
80.74934821
 10
105.080826235
 20
80.7145093184
 10
105.0714871909
 20
80.6798692026
 10
105.0624385004
 20
80.6453482223
 10
105.0536464073
 20
80.6108421506
 10
105.0450778453
 20
80.5762374295
 10
105.0367125095
 20
80.5414613525
 10
105.0285208339
 20
80.5063931352
 10
105.0205049756
 20
80.471040499
 10
105.0126562585
 20
80.4353637587
 10
105.0049761114
 20
80.3993680762
 10
104.9974607521
 20
80.3630356388
 10
104.990113133
 20
80.3263825198
 10
104.9829331572
 20
80.2894131077
 10
104.9759210493
 20
80.2521362678
 10
104.9690768102
 20
80.2145629518
 10
104.9623969
 20
80.1766872554
 10
104.9558792273
 20
80.1385130996
 10
104.9495174544
 20
80.1000207341
 10
104.9433100607
 20
80.0612201618
 10
104.9372406301
 20
80.0220266746
 10
104.9312986956
 20
79.9823861717
 10
104.9254690909
 20
79.9422063201
 10
104.9197385873
 20
79.9013985821
 10
104.9140960207
 20
79.8598805101
 10
104.9085317568
 20
79.8175732849
 10
104.9030323661
 20
79.7743603392
 10
104.8975878151
 20
79.7301408916
 10
104.8921832224
 20
79.6847630816
 10
104.8868056469
 20
79.6380758557
 10
104.8814448313
 20
79.5899369801
 10
104.8760866012
 20
79.5401532273
 10
104.8707345837
 20
79.4886848028
 10
104.8653836505
 20
79.4354048893
 10
104.860047311
 20
79.3803714764
 10
104.854734799
 20
79.3236123206
 10
104.8494520328
 20
79.2651290338
 10
104.8442112472
 20
79.2050038155
 10
104.8390020892
 20
79.1430635153
 10
104.8338229228
 20
79.0792240285
 10
104.8286639012
 20
79.0132878455
 10
104.8235182515
 20
78.945075658
 10
104.8183807305
 20
78.8744094653
 10
104.8132466112
 20
78.8010990476
 10
104.8081129473
 20
78.7249595611
 10
104.8029724611
 20
78.6457177375
 10
104.7978389678
 20
78.5634107021
 10
104.7927124889
 20
78.4778574967
 10
104.7876278105
 20
78.3894736466
 10
104.7826088505
 20
78.2985551618
 10
104.7776793217
 20
78.2054522636
 10
104.7728642017
 20
78.1106056903
 10
104.768173562
 20
78.0142210233
 10
104.7636212583
 20
77.9166194582
 10
104.7592142447
 20
77.8180155638
 10
104.7549631526
 20
77.7187413938
 10
104.7508655438
 20
77.6188522785
 10
104.7469260905
 20
77.518585894
 10
104.7431326895
 20
77.4177542574
 10
104.739477579
 20
77.3162450133
 10
104.7359568011
 20
77.2140268655
 10
104.7325646427
 20
77.110998292
 10
104.7293016232
 20
77.0072320996
 10
104.7261667758
 20
76.9027563049
 10
104.7231593311
 20
76.7976029864
 10
104.7202786597
 20
76.6918074556
 10
104.7175237188
 20
76.5853873703
 10
104.7148936824
 20
76.4783644664
 10
104.7123877825
 20
76.3707590349
 10
104.7100053347
 20
76.2625910148
 10
104.7077457461
 20
76.1538805345
 10
104.7035931266
 20
75.9349102282
  0
LINE
  5
434
100
AcDbEntity
  8
KONSTRUKTIONSELEMENTE
100
AcDbLine
 62
7
  6
CONTINUOUS
 10
144.9259351145
 20
86.5249571999
 11
148.3009351145
 21
86.5249571999
  0
LINE
  5
435
100
AcDbEntity
  8
KONSTRUKTIONSELEMENTE
100
AcDbLine
 62
7
  6
CONTINUOUS
 10
149.8009351145
 20
86.5249571999
 11
151.3009351145
 21
86.5249571999
  0
LINE
  5
436
100
AcDbEntity
  8
KONSTRUKTIONSELEMENTE
100
AcDbLine
 62
7
  6
CONTINUOUS
 10
154.3009351145
 20
86.5249571999
 11
155.8009351145
 21
86.5249571999
  0
LINE
  5
437
100
AcDbEntity
  8
KONSTRUKTIONSELEMENTE
100
AcDbLine
 62
7
  6
CONTINUOUS
 10
159.4909351145
 20
86.5249571999
 11
163.3009351145
 21
86.5249571999
  0
LINE
  5
438
100
AcDbEntity
  8
0
100
AcDbLine
 62
7
  6
CONTINUOUS
 10
144.9259351145
 20
87.1030376476
 11
148.3009351145
 21
87.1030376476
  0
LINE
  5
439
100
AcDbEntity
  8
0
100
AcDbLine
 62
7
  6
CONTINUOUS
 10
149.8009351145
 20
87.1030376476
 11
151.3009351145
 21
87.1030376476
  0
LINE
  5
43A
100
AcDbEntity
  8
0
100
AcDbLine
 62
7
  6
CONTINUOUS
 10
154.3009351145
 20
87.1030376476
 11
155.8009351145
 21
87.1030376476
  0
LINE
  5
43B
100
AcDbEntity
  8
0
100
AcDbLine
 62
7
  6
CONTINUOUS
 10
159.4909351145
 20
87.1030376476
 11
163.3009351145
 21
87.1030376476
  0
LINE
  5
43C
100
AcDbEntity
  8
0
100
AcDbLine
 62
7
  6
CONTINUOUS
 10
145.2409331177
 20
88.1454397417
 11
148.3009351145
 21
88.1454397417
  0
LINE
  5
43D
100
AcDbEntity
  8
0
100
AcDbLine
 62
7
  6
CONTINUOUS
 10
159.9909351145
 20
88.1454397417
 11
163.3009351145
 21
88.1454397417
  0
LINE
  5
43E
100
AcDbEntity
  8
KONSTRUKTIONSELEMENTE
100
AcDbLine
 62
7
  6
CONTINUOUS
 10
146.8009351145
 20
88.1780377709
 11
148.3009351145
 21
88.1780377709
  0
LINE
  5
43F
100
AcDbEntity
  8
KONSTRUKTIONSELEMENTE
100
AcDbLine
 62
7
  6
CONTINUOUS
 10
162.0509351145
 20
88.1780377709
 11
163.3009351145
 21
88.1780377709
  0
LINE
  5
440
100
AcDbEntity
  8
BEZUGSACHSEN
100
AcDbLine
 62
7
  6
CONTINUOUS
 10
196.4884280489
 20
83.9157386259
 11
196.4007641578
 21
83.9190990058
  0
LINE
  5
441
100
AcDbEntity
  8
BEZUGSACHSEN
100
AcDbLine
 62
7
  6
CONTINUOUS
 10
196.5760045316
 20
83.9105571111
 11
196.4884280489
 21
83.9157386259
  0
LINE
  5
442
100
AcDbEntity
  8
0
100
AcDbLine
 62
7
  6
CONTINUOUS
 10
169.2409351145
 20
82.4207442748
 11
169.2409351145
 21
80.4207442748
  0
LINE
  5
443
100
AcDbEntity
  8
0
100
AcDbLine
 62
7
  6
CONTINUOUS
 10
169.2409351145
 20
67.4207442748
 11
169.2409351145
 21
65.4207442748
  0
LINE
  5
444
100
AcDbEntity
  8
0
100
AcDbLine
 62
7
  6
CONTINUOUS
 10
146.8009351145
 20
88.7479251096
 11
148.3009351145
 21
88.7479251096
  0
LINE
  5
445
100
AcDbEntity
  8
0
100
AcDbLine
 62
7
  6
CONTINUOUS
 10
162.0509351145
 20
88.7479251096
 11
163.3009351145
 21
88.7479251096
  0
LINE
  5
446
100
AcDbEntity
  8
KONSTRUKTIONSELEMENTE
100
AcDbLine
 62
7
  6
CONTINUOUS
 10
159.9909351145
 20
89.0565297952
 11
162.0509351145
 21
89.0565297952
  0
LINE
  5
447
100
AcDbEntity
  8
0
100
AcDbLine
 62
7
  6
CONTINUOUS
 10
159.9909351145
 20
89.6237419977
 11
162.0509351145
 21
89.6237419977
  0
LINE
  5
448
100
AcDbEntity
  8
0
100
AcDbLine
 62
7
  6
CONTINUOUS
 10
160.7702182152
 20
90.5483840346
 11
162.0509351145
 21
90.5483840346
  0
LINE
  5
449
100
AcDbEntity
  8
KONSTRUKTIONSELEMENTE
100
AcDbLine
 62
7
  6
CONTINUOUS
 10
145.2409351145
 20
91.2789214856
 11
146.8009351145
 21
91.2789214856
  0
LINE
  5
44A
100
AcDbEntity
  8
0
100
AcDbLine
 62
7
  6
CONTINUOUS
 10
145.2409351145
 20
91.8455907086
 11
146.8009351145
 21
91.8455907086
  0
LWPOLYLINE
  5
44B
100
AcDbEntity
  8
BEZUGSACHSEN
100
AcDbPolyline
 62
7
  6
CONTINUOUS
 90
28
 70
0
 10
178.730799287
 20
67.4207442748
 10
178.7431313637
 20
67.4041746377
 10
178.8281488277
 20
67.2959510518
 10
178.918393249
 20
67.1871554098
 10
179.0134167762
 20
67.0786804628
 10
179.1131458958
 20
66.9708827424
 10
179.2173418671
 20
66.8642427352
 10
179.3258084663
 20
66.7591301875
 10
179.4382532613
 20
66.6559472844
 10
179.5545267139
 20
66.5549100702
 10
179.6744530481
 20
66.4562236975
 10
179.7977023724
 20
66.3601770185
 10
179.9240832009
 20
66.2669046591
 10
180.0528437806
 20
66.1768944576
 10
180.1829837494
 20
66.0906888851
 10
180.3146770988
 20
66.0079872774
 10
180.447112251
 20
65.929100606
 10
180.5822949204
 20
65.8527055222
 10
180.7221575215
 20
65.7777619188
 10
180.8671810006
 20
65.704157198
 10
181.0189158357
 20
65.6313147404
 10
181.1767168455
 20
65.5597678921
 10
181.3403678081
 20
65.4897787935
 10
181.5099283332
 20
65.4214561676
 10
181.6851987391
 20
65.3549866299
 10
181.8664817302
 20
65.2903430211
 10
182.0538551098
 20
65.2275768911
 10
182.2454036356
 20
65.1673324887
  0
LINE
  5
44C
100
AcDbEntity
  8
0
100
AcDbLine
 62
7
  6
CONTINUOUS
 10
144.9259351145
 20
92.6549822887
 11
148.3009351145
 21
92.6549822887
  0
LINE
  5
44D
100
AcDbEntity
  8
0
100
AcDbLine
 62
7
  6
CONTINUOUS
 10
156.8009351145
 20
92.6581261887
 11
158.2443107875
 21
92.6581261887
  0
LINE
  5
44E
100
AcDbEntity
  8
0
100
AcDbLine
 62
7
  6
CONTINUOUS
 10
162.0509351145
 20
92.6581261887
 11
163.3009351145
 21
92.6581261887
  0
LINE
  5
44F
100
AcDbEntity
  8
KONSTRUKTIONSELEMENTE
100
AcDbLine
 62
7
  6
CONTINUOUS
 10
142.9909351145
 20
93.8214773926
 11
162.4909351145
 21
93.8214773926
  0
LINE
  5
450
100
AcDbEntity
  8
KONSTRUKTIONSELEMENTE
100
AcDbLine
 62
7
  6
CONTINUOUS
 10
142.9909351145
 20
94.4040477621
 11
162.4909351145
 21
94.4040477621
  0
LINE
  5
451
100
AcDbEntity
  8
KONSTRUKTIONSELEMENTE
100
AcDbLine
 62
7
  6
CONTINUOUS
 10
175.2409351145
 20
94.6260122191
 11
175.2409351145
 21
93.6168993351
  0
LINE
  5
452
100
AcDbEntity
  8
0
100
AcDbLine
 62
7
  6
CONTINUOUS
 10
175.2409351145
 20
93.6168993351
 11
175.2409351145
 21
80.4207442748
  0
LINE
  5
453
100
AcDbEntity
  8
0
100
AcDbLine
 62
7
  6
CONTINUOUS
 10
175.2409351145
 20
67.4207442748
 11
175.2409351145
 21
53.2154763305
  0
LINE
  5
454
100
AcDbEntity
  8
0
100
AcDbLine
 62
7
  6
CONTINUOUS
 10
133.199043771
 20
97.8665518149
 11
172.282826458
 21
97.8665518149
  0
LINE
  5
455
100
AcDbEntity
  8
0
100
AcDbLine
 62
7
  6
CONTINUOUS
 10
187.0459351145
 20
66.1653958499
 11
187.0459351145
 21
65.0296440027
  0
LINE
  5
456
100
AcDbEntity
  8
0
100
AcDbLine
 62
7
  6
CONTINUOUS
 10
188.0327772208
 20
65.0449579847
 11
188.0327772208
 21
65.1204351866
  0
LINE
  5
457
100
AcDbEntity
  8
0
100
AcDbLine
 62
7
  6
CONTINUOUS
 10
189.5196193275
 20
65.8556027376
 11
189.5196193275
 21
65.7940942504
  0
LINE
  5
458
100
AcDbEntity
  8
0
100
AcDbLine
 62
7
  6
CONTINUOUS
 10
190.5064614338
 20
65.7559734738
 11
190.5064614338
 21
65.8556027376
  0
LINE
  5
459
100
AcDbEntity
  8
0
100
AcDbLine
 62
7
  6
CONTINUOUS
 10
190.7459351183
 20
65.1204351866
 11
190.7459351183
 21
64.969432575
  0
LINE
  5
45A
100
AcDbEntity
  8
0
100
AcDbLine
 62
7
  6
CONTINUOUS
 10
191.388040382
 20
65.1204351866
 11
191.388040382
 21
65.2650583114
  0
LINE
  5
45B
100
AcDbEntity
  8
0
100
AcDbLine
 62
7
  6
CONTINUOUS
 10
191.388040382
 20
65.8556027376
 11
191.388040382
 21
66.1653958499
  0
LINE
  5
45C
100
AcDbEntity
  8
0
100
AcDbLine
 62
7
  6
CONTINUOUS
 10
191.9801456458
 20
66.1653958499
 11
191.9801456458
 21
65.7559734738
  0
LINE
  5
45D
100
AcDbEntity
  8
0
100
AcDbLine
 62
7
  6
CONTINUOUS
 10
191.9801456458
 20
65.2650583114
 11
191.9801456458
 21
65.0449578137
  0
LINE
  5
45E
100
AcDbEntity
  8
0
100
AcDbLine
 62
7
  6
CONTINUOUS
 10
192.966987752
 20
65.0296440027
 11
192.966987752
 21
66.1653958499
  0
LINE
  5
45F
100
AcDbEntity
  8
BEZUGSACHSEN
100
AcDbLine
 62
7
  6
CONTINUOUS
 10
197.7409351392
 20
77.2873665402
 11
197.7409351392
 21
70.5541220094
  0
LWPOLYLINE
  5
460
100
AcDbEntity
  8
BEZUGSACHSEN
100
AcDbPolyline
 62
7
  6
CONTINUOUS
 90
146
 70
0
 10
200.7761853302
 20
76.0486716552
 10
200.7740398746
 20
76.1580698372
 10
200.7717718169
 20
76.2669349071
 10
200.769380398
 20
76.3752586007
 10
200.766864831
 20
76.4830279228
 10
200.7642242037
 20
76.5902298802
 10
200.7614574374
 20
76.6968527211
 10
200.7585635635
 20
76.8028754194
 10
200.7555407855
 20
76.9083014314
 10
200.7523899003
 20
77.0130416627
 10
200.7491109052
 20
77.1170400351
 10
200.7457049683
 20
77.2202082282
 10
200.7421768285
 20
77.3223648738
 10
200.7385166914
 20
77.4237466988
 10
200.7347210824
 20
77.5243803682
 10
200.7307708233
 20
77.6246704063
 10
200.7266367076
 20
77.7251834598
 10
200.7223347333
 20
77.8253473981
 10
200.717851742
 20
77.925303323
 10
200.7132513711
 20
78.0235484694
 10
200.7085932319
 20
78.11889512
 10
200.7039061806
 20
78.2109371416
 10
200.699252598
 20
78.2987175563
 10
200.694608594
 20
78.3829668627
 10
200.6899719489
 20
78.4639467387
 10
200.6853316513
 20
78.5420350026
 10
200.6806718331
 20
78.6176415617
 10
200.6759954987
 20
78.6908360093
 10
200.6712984286
 20
78.7617913813
 10
200.6665821964
 20
78.8305798417
 10
200.6618464546
 20
78.8972957519
 10
200.6570899751
 20
78.9620378557
 10
200.652311232
 20
79.0249006155
 10
200.6475079167
 20
79.0859807589
 10
200.6426772657
 20
79.1453726432
 10
200.6378162305
 20
79.2031663194
 10
200.6329192648
 20
79.259472748
 10
200.6279879391
 20
79.3143147905
 10
200.6230203166
 20
79.3677533417
 10
200.6180195242
 20
79.4197936275
 10
200.6129871989
 20
79.4704589986
 10
200.6079250292
 20
79.5197735876
 10
200.6028362258
 20
79.5677487241
 10
200.5977171907
 20
79.6144599392
 10
200.5925681567
 20
79.659944523
 10
200.5873790879
 20
79.7043259444
 10
200.5821422395
 20
79.7476979007
 10
200.5768472559
 20
79.7901669503
 10
200.571483811
 20
79.8318297921
 10
200.5660396134
 20
79.8727889232
 10
200.5605003954
 20
79.9131511981
 10
200.5548564994
 20
79.9529807023
 10
200.5490947661
 20
79.9923592765
 10
200.5432067424
 20
80.0313298744
 10
200.5371821096
 20
80.0699435937
 10
200.531009488
 20
80.1082532748
 10
200.5246769511
 20
80.1463098985
 10
200.518171744
 20
80.184164177
 10
200.5114772319
 20
80.2218832012
 10
200.5045888622
 20
80.2594618304
 10
200.4974928859
 20
80.2969442622
 10
200.4901995287
 20
80.3342494488
 10
200.4827122257
 20
80.3713405254
 10
200.4750447284
 20
80.4081378241
 10
200.4672110336
 20
80.4445718698
 10
200.459225907
 20
80.4805799601
 10
200.4511247574
 20
80.5160197745
 10
200.4428735534
 20
80.5510580137
 10
200.4344647124
 20
80.5857368457
 10
200.4258493058
 20
80.6202585934
 10
200.4169770859
 20
80.654809508
 10
200.4078271629
 20
80.6894464555
 10
200.3983657781
 20
80.7242669856
 10
200.388570728
 20
80.7593171747
 10
200.3784168376
 20
80.7946479123
 10
200.3678711425
 20
80.8303299919
 10
200.3569015973
 20
80.8664227308
 10
200.3454694225
 20
80.9029991427
 10
200.3335380476
 20
80.9401161005
 10
200.3210552874
 20
80.9778690797
 10
200.3079786489
 20
81.0163128346
 10
200.2942235024
 20
81.0556121486
 10
200.2797106662
 20
81.0958952814
 10
200.2643483306
 20
81.1373053017
 10
200.2480210284
 20
81.180024571
 10
200.2306805329
 20
81.2240394203
 10
200.21223899
 20
81.2694262101
 10
200.1926772718
 20
81.3160826236
 10
200.1719557945
 20
81.3639570123
 10
200.1500473909
 20
81.4129687673
 10
200.1269275179
 20
81.4630339423
 10
200.1025546701
 20
81.5141066168
 10
200.0769125153
 20
81.566089128
 10
200.0499041277
 20
81.6190444904
 10
200.0214522453
 20
81.6729834296
 10
199.9914607758
 20
81.7279409073
 10
199.9598377403
 20
81.7839310866
 10
199.9264672096
 20
81.8409965825
 10
199.8912588233
 20
81.8991218729
 10
199.8540104634
 20
81.9584564729
 10
199.8145327856
 20
82.0190962699
 10
199.7726290202
 20
82.0811181163
 10
199.7279476969
 20
82.1447851056
 10
199.6806921841
 20
82.2095526268
 10
199.6308390596
 20
82.2752270856
 10
199.5788200161
 20
82.3410589151
 10
199.5251158191
 20
82.40633826
 10
199.4698000339
 20
82.4709201213
 10
199.4131822032
 20
82.5344157649
 10
199.3551528683
 20
82.5969337323
 10
199.2957093178
 20
82.6584539784
 10
199.234839926
 20
82.7189637666
 10
199.172515207
 20
82.7784643466
 10
199.1087834232
 20
82.8368818884
 10
199.0436665816
 20
82.8941715305
 10
198.9772293189
 20
82.9502552293
 10
198.9095337214
 20
83.0050645846
 10
198.8406321773
 20
83.0585452068
 10
198.7705959513
 20
83.1106338226
 10
198.6994488282
 20
83.1613070545
 10
198.6272311614
 20
83.2105310496
 10
198.553972381
 20
83.2582813704
 10
198.4797058235
 20
83.304532225
 10
198.4044653654
 20
83.349258885
 10
198.328285977
 20
83.3924373529
 10
198.2512024906
 20
83.4340450651
 10
198.1732509113
 20
83.4740601299
 10
198.0944669282
 20
83.5124621059
 10
198.0148873061
 20
83.549231262
 10
197.9345485363
 20
83.5843492165
 10
197.8534886445
 20
83.6177981162
 10
197.7717430178
 20
83.6495623349
 10
197.6893484721
 20
83.6796266711
 10
197.6063412997
 20
83.7079771163
 10
197.5227585944
 20
83.7346003474
 10
197.4386369416
 20
83.7594841537
 10
197.3540135083
 20
83.78261706
 10
197.2689254742
 20
83.8039884986
 10
197.1834105055
 20
83.823588679
 10
197.0975058597
 20
83.8414087923
 10
197.0112493009
 20
83.8574407839
 10
196.9246782356
 20
83.8716775211
 10
196.8378304092
 20
83.8841126454
 10
196.750743562
 20
83.8947406309
 10
196.6634556862
 20
83.9035567476
 10
196.5760045316
 20
83.9105571111
  0
LINE
  5
461
100
AcDbEntity
  8
BEZUGSACHSEN
100
AcDbLine
 62
7
  6
CONTINUOUS
 10
200.7801099753
 20
75.8283590933
 11
200.7761853302
 21
76.0486716552
  0
LINE
  5
462
100
AcDbEntity
  8
BEZUGSACHSEN
100
AcDbLine
 62
7
  6
CONTINUOUS
 10
200.7835474977
 20
75.6062100757
 11
200.7801099753
 21
75.8283590933
  0
LINE
  5
463
100
AcDbEntity
  8
BEZUGSACHSEN
100
AcDbLine
 62
7
  6
CONTINUOUS
 10
200.7864982846
 20
75.3825021746
 11
200.7835474977
 21
75.6062100757
  0
LINE
  5
464
100
AcDbEntity
  8
BEZUGSACHSEN
100
AcDbLine
 62
7
  6
CONTINUOUS
 10
200.7889628968
 20
75.1575006348
 11
200.7864982846
 21
75.3825021746
  0
LINE
  5
465
100
AcDbEntity
  8
BEZUGSACHSEN
100
AcDbLine
 62
7
  6
CONTINUOUS
 10
200.7909420203
 20
74.9314505866
 11
200.7889628968
 21
75.1575006348
  0
LINE
  5
466
100
AcDbEntity
  8
BEZUGSACHSEN
100
AcDbLine
 62
7
  6
CONTINUOUS
 10
200.7924362065
 20
74.7045933063
 11
200.7909420203
 21
74.9314505866
  0
LINE
  5
467
100
AcDbEntity
  8
BEZUGSACHSEN
100
AcDbLine
 62
7
  6
CONTINUOUS
 10
200.7934458036
 20
74.4771831662
 11
200.7924362065
 21
74.7045933063
  0
LINE
  5
468
100
AcDbEntity
  8
BEZUGSACHSEN
100
AcDbLine
 62
7
  6
CONTINUOUS
 10
200.7939710739
 20
74.249485846
 11
200.7934458036
 21
74.4771831662
  0
LINE
  5
469
100
AcDbEntity
  8
BEZUGSACHSEN
100
AcDbLine
 62
7
  6
CONTINUOUS
 10
200.7940522337
 20
73.7063309596
 11
200.7938754124
 21
73.9207423773
  0
LWPOLYLINE
  5
46A
100
AcDbEntity
  8
BEZUGSACHSEN
100
AcDbPolyline
 62
7
  6
CONTINUOUS
 90
3
 70
0
 10
200.7938754084
 20
73.9207439987
 10
200.7940122242
 20
74.0217620808
 10
200.7939710739
 20
74.249485846
  0
LINE
  5
46B
100
AcDbEntity
  8
BEZUGSACHSEN
100
AcDbLine
 62
7
  6
CONTINUOUS
 10
200.7937710303
 20
73.4790314053
 11
200.7940522337
 21
73.7063309596
  0
LINE
  5
46C
100
AcDbEntity
  8
BEZUGSACHSEN
100
AcDbLine
 62
7
  6
CONTINUOUS
 10
200.7930074894
 20
73.25188488
 11
200.7937710303
 21
73.4790314053
  0
LINE
  5
46D
100
AcDbEntity
  8
BEZUGSACHSEN
100
AcDbLine
 62
7
  6
CONTINUOUS
 10
200.7917613599
 20
73.0251531056
 11
200.7930074894
 21
73.25188488
  0
LINE
  5
46E
100
AcDbEntity
  8
BEZUGSACHSEN
100
AcDbLine
 62
7
  6
CONTINUOUS
 10
200.7900323412
 20
72.7990966748
 11
200.7917613599
 21
73.0251531056
  0
LINE
  5
46F
100
AcDbEntity
  8
BEZUGSACHSEN
100
AcDbLine
 62
7
  6
CONTINUOUS
 10
200.7878200315
 20
72.5739655923
 11
200.7900323412
 21
72.7990966748
  0
LINE
  5
470
100
AcDbEntity
  8
BEZUGSACHSEN
100
AcDbLine
 62
7
  6
CONTINUOUS
 10
200.7851239117
 20
72.3500066803
 11
200.7878200315
 21
72.5739655923
  0
LINE
  5
471
100
AcDbEntity
  8
BEZUGSACHSEN
100
AcDbLine
 62
7
  6
CONTINUOUS
 10
200.781943304
 20
72.1274663814
 11
200.7851239117
 21
72.3500066803
  0
LINE
  5
472
100
AcDbEntity
  8
BEZUGSACHSEN
100
AcDbLine
 62
7
  6
CONTINUOUS
 10
200.7782773213
 20
71.90659064
 11
200.781943304
 21
72.1274663814
  0
ARC
  5
473
100
AcDbEntity
  8
RUNDUNGEN
100
AcDbCircle
 62
7
  6
CONTINUOUS
 10
152.7409351145
 20
205.7859833826
 40
25.000000025
100
AcDbArc
 50
159.87962228
 51
235.1348325194
  0
ARC
  5
474
100
AcDbEntity
  8
BEZUGSACHSEN
100
AcDbCircle
 62
7
  6
CONTINUOUS
 10
152.7409351145
 20
205.7859833826
 40
25.000000025
100
AcDbArc
 50
304.8651674874
 51
159.87962228
  0
ARC
  5
475
100
AcDbEntity
  8
RUNDUNGEN
100
AcDbCircle
 62
7
  6
CONTINUOUS
 10
115.6356719395
 20
205.7859833826
 40
7.89473685
100
AcDbArc
 50
157.5000000839
 51
179.9999999643
  0
ARC
  5
476
100
AcDbEntity
  8
BEZUGSACHSEN
100
AcDbCircle
 62
7
  6
CONTINUOUS
 10
133.7409350895
 20
170.2859833826
 40
6.0
100
AcDbArc
 50
179.9999999224
 51
234.3146331321
  0
ARC
  5
477
100
AcDbEntity
  8
RUNDUNGEN
100
AcDbCircle
 62
7
  6
CONTINUOUS
 10
133.7409350895
 20
170.2859833826
 40
6.0
100
AcDbArc
 50
179.9999999224
 51
234.3146331321
  0
ARC
  5
478
100
AcDbEntity
  8
0
100
AcDbCircle
 62
7
  6
CONTINUOUS
 10
134.2409351145
 20
174.2859833826
 40
4.0
100
AcDbArc
 50
90.0
 51
180.0
  0
ARC
  5
479
100
AcDbEntity
  8
BEZUGSACHSEN
100
AcDbCircle
 62
7
  6
CONTINUOUS
 10
136.726646495
 20
182.8002720021
 40
3.0142886195
100
AcDbArc
 50
53.8145378529
 51
55.134832457
  0
ARC
  5
47A
100
AcDbEntity
  8
RUNDUNGEN
100
AcDbCircle
 62
7
  6
CONTINUOUS
 10
136.726646495
 20
182.8002720021
 40
3.0142886195
100
AcDbArc
 50
270.0
 51
55.1348325126
  0
ARC
  5
47B
100
AcDbEntity
  8
RUNDUNGEN
100
AcDbCircle
 62
7
  6
CONTINUOUS
 10
130.2409350895
 20
177.2859833826
 40
2.5
100
AcDbArc
 50
90.0
 51
180.0
  0
ARC
  5
47C
100
AcDbEntity
  8
BEZUGSACHSEN
100
AcDbCircle
 62
7
  6
CONTINUOUS
 10
152.7409351145
 20
242.8912465576
 40
7.89473685
100
AcDbArc
 50
67.4999998313
 51
112.5000001687
  0
ARC
  5
47D
100
AcDbEntity
  8
RUNDUNGEN
100
AcDbCircle
 62
7
  6
CONTINUOUS
 10
126.5035519057
 20
232.0233665914
 40
7.89473685
100
AcDbArc
 50
112.5000006851
 51
157.5000007974
  0
ARC
  5
47E
100
AcDbEntity
  8
BEZUGSACHSEN
100
AcDbCircle
 62
7
  6
CONTINUOUS
 10
189.8461982895
 20
205.7859833826
 40
7.89473685
100
AcDbArc
 50
0.0000000357
 51
22.4999999161
  0
ARC
  5
47F
100
AcDbEntity
  8
BEZUGSACHSEN
100
AcDbCircle
 62
7
  6
CONTINUOUS
 10
171.7409351395
 20
170.2859833826
 40
6.0
100
AcDbArc
 50
305.6853668679
 51
0.0000000776
  0
ARC
  5
480
100
AcDbEntity
  8
0
100
AcDbCircle
 62
7
  6
CONTINUOUS
 10
171.2409351145
 20
174.2859833826
 40
4.0
100
AcDbArc
 50
0.0
 51
90.0
  0
ARC
  5
481
100
AcDbEntity
  8
BEZUGSACHSEN
100
AcDbCircle
 62
7
  6
CONTINUOUS
 10
168.755223734
 20
182.8002720021
 40
3.0142886195
100
AcDbArc
 50
124.865167543
 51
270.0
  0
ARC
  5
482
100
AcDbEntity
  8
BEZUGSACHSEN
100
AcDbCircle
 62
7
  6
CONTINUOUS
 10
175.2409351395
 20
177.2859833826
 40
2.5
100
AcDbArc
 50
0.0
 51
90.0
  0
ARC
  5
483
100
AcDbEntity
  8
0
100
AcDbCircle
 62
7
  6
CONTINUOUS
 10
189.2083031292
 20
176.8367219978
 40
2.1623680147
100
AcDbArc
 50
180.0000104152
 51
180.4044684014
  0
ARC
  5
484
100
AcDbEntity
  8
0
100
AcDbCircle
 62
7
  6
CONTINUOUS
 10
189.2646837331
 20
177.087043841
 40
1.2319065123
100
AcDbArc
 50
180.0000353344
 51
180.7099847529
  0
ARC
  5
485
100
AcDbEntity
  8
0
100
AcDbCircle
 62
7
  6
CONTINUOUS
 10
188.5349691179
 20
189.3327491818
 40
0.9846658727
100
AcDbArc
 50
299.9252584711
 51
359.9786240321
  0
ARC
  5
486
100
AcDbEntity
  8
0
100
AcDbCircle
 62
7
  6
CONTINUOUS
 10
191.2404263302
 20
188.7092631321
 40
0.7339648964
100
AcDbArc
 50
180.0001051786
 51
181.1917164284
  0
ARC
  5
487
100
AcDbEntity
  8
BEZUGSACHSEN
100
AcDbCircle
 62
7
  6
CONTINUOUS
 10
178.9783183233
 20
232.0233665914
 40
7.89473685
100
AcDbArc
 50
22.4999992026
 51
67.4999993149
  0
ARC
  5
488
100
AcDbEntity
  8
BEZUGSACHSEN
100
AcDbCircle
 62
7
  6
CONTINUOUS
 10
274.6353384603
 20
154.2859891486
 40
9.9999976366
100
AcDbArc
 50
176.3731470641
 51
176.4991942133
  0
ARC
  5
489
100
AcDbEntity
  8
BEZUGSACHSEN
100
AcDbCircle
 62
7
  6
CONTINUOUS
 10
273.6368733158
 20
154.3415434451
 40
9.0
100
AcDbArc
 50
176.4991643561
 51
180.0
  0
ARC
  5
48A
100
AcDbEntity
  8
0
100
AcDbCircle
 62
7
  6
CONTINUOUS
 10
264.2132951426
 20
148.5904793614
 40
2.0
100
AcDbArc
 50
212.4908295536
 51
10.6275132977
  0
ARC
  5
48B
100
AcDbEntity
  8
0
100
AcDbCircle
 62
7
  6
CONTINUOUS
 10
264.2132951426
 20
148.5904793614
 40
1.5
100
AcDbArc
 50
188.7233167854
 51
29.7
  0
ARC
  5
48C
100
AcDbEntity
  8
BEZUGSACHSEN
100
AcDbCircle
 62
7
  6
CONTINUOUS
 10
128.1368733158
 20
216.1057934767
 40
140.0
100
AcDbArc
 50
356.4991643558
 51
360.0
  0
ARC
  5
48D
100
AcDbEntity
  8
BEZUGSACHSEN
100
AcDbCircle
 62
7
  6
CONTINUOUS
 10
271.1368544718
 20
247.7860022512
 40
2.999981156
100
AcDbArc
 50
89.9996399603
 51
180.0003599014
  0
ARC
  5
48E
100
AcDbEntity
  8
0
100
AcDbCircle
 62
7
  6
CONTINUOUS
 10
274.6368733158
 20
154.2859833826
 40
24.0
100
AcDbArc
 50
111.1371979526
 51
176.1489141841
  0
ARC
  5
48F
100
AcDbEntity
  8
0
100
AcDbCircle
 62
7
  6
CONTINUOUS
 10
274.6368733158
 20
154.2859833826
 40
24.0
100
AcDbArc
 50
3.8510858159
 51
68.8628020474
  0
ARC
  5
490
100
AcDbEntity
  8
0
100
AcDbCircle
 62
7
  6
CONTINUOUS
 10
274.6368733158
 20
154.2859833826
 40
10.75
100
AcDbArc
 50
10.0
 51
24.9097205847
  0
ARC
  5
491
100
AcDbEntity
  8
0
100
AcDbCircle
 62
7
  6
CONTINUOUS
 10
274.6368733158
 20
154.2859833826
 40
10.75
100
AcDbArc
 50
155.0902794153
 51
170.0
  0
ARC
  5
492
100
AcDbEntity
  8
BEZUGSACHSEN
100
AcDbCircle
 62
7
  6
CONTINUOUS
 10
274.6368733158
 20
154.2859833826
 40
10.0
100
AcDbArc
 50
180.0
 51
360.0
  0
ARC
  5
493
100
AcDbEntity
  8
RUNDUNGEN
100
AcDbCircle
 62
7
  6
CONTINUOUS
 10
274.6384081713
 20
154.2859891486
 40
9.9999976366
100
AcDbArc
 50
3.5008057867
 51
3.6268536906
  0
ARC
  5
494
100
AcDbEntity
  8
BEZUGSACHSEN
100
AcDbCircle
 62
7
  6
CONTINUOUS
 10
274.6384081713
 20
154.2859891486
 40
9.9999976366
100
AcDbArc
 50
3.5008057867
 51
3.5100056202
  0
ARC
  5
495
100
AcDbEntity
  8
0
100
AcDbCircle
 62
7
  6
CONTINUOUS
 10
274.6368733158
 20
154.5359833826
 40
10.5
100
AcDbArc
 50
158.6290173924
 51
209.7
  0
ARC
  5
496
100
AcDbEntity
  8
0
100
AcDbCircle
 62
7
  6
CONTINUOUS
 10
274.6368733158
 20
154.5359833826
 40
10.5
100
AcDbArc
 50
330.3
 51
21.3709826076
  0
ARC
  5
497
100
AcDbEntity
  8
0
100
AcDbCircle
 62
7
  6
CONTINUOUS
 10
274.6368733158
 20
154.5359833826
 40
10.0
100
AcDbArc
 50
181.4273053324
 51
209.7
  0
ARC
  5
498
100
AcDbEntity
  8
0
100
AcDbCircle
 62
7
  6
CONTINUOUS
 10
274.6368733158
 20
154.5359833826
 40
10.0
100
AcDbArc
 50
174.4961129092
 51
181.0573693752
  0
ARC
  5
499
100
AcDbEntity
  8
0
100
AcDbCircle
 62
7
  6
CONTINUOUS
 10
274.6368733158
 20
154.5359833826
 40
10.0
100
AcDbArc
 50
358.9426306248
 51
5.5038870908
  0
ARC
  5
49A
100
AcDbEntity
  8
0
100
AcDbCircle
 62
7
  6
CONTINUOUS
 10
274.6368733158
 20
154.5359833826
 40
10.0
100
AcDbArc
 50
330.3
 51
358.5726946676
  0
ARC
  5
49B
100
AcDbEntity
  8
RUNDUNGEN
100
AcDbCircle
 62
7
  6
CONTINUOUS
 10
275.6368733158
 20
154.3415434451
 40
9.0
100
AcDbArc
 50
0.0
 51
3.5008356439
  0
ARC
  5
49C
100
AcDbEntity
  8
0
100
AcDbCircle
 62
7
  6
CONTINUOUS
 10
285.0604514891
 20
148.5904793614
 40
2.0
100
AcDbArc
 50
169.3724867023
 51
327.5091704464
  0
ARC
  5
49D
100
AcDbEntity
  8
0
100
AcDbCircle
 62
7
  6
CONTINUOUS
 10
285.0604514891
 20
148.5904793614
 40
1.5
100
AcDbArc
 50
150.3
 51
351.2766832146
  0
ARC
  5
49E
100
AcDbEntity
  8
RUNDUNGEN
100
AcDbCircle
 62
7
  6
CONTINUOUS
 10
421.1368733158
 20
216.1057934767
 40
140.0
100
AcDbArc
 50
180.0
 51
183.5008356442
  0
ARC
  5
49F
100
AcDbEntity
  8
BEZUGSACHSEN
100
AcDbCircle
 62
7
  6
CONTINUOUS
 10
421.1368733158
 20
216.1057934767
 40
140.0
100
AcDbArc
 50
183.4563060041
 51
183.5008356442
  0
ARC
  5
4A0
100
AcDbEntity
  8
BEZUGSACHSEN
100
AcDbCircle
 62
7
  6
CONTINUOUS
 10
278.1368921598
 20
247.7860022512
 40
2.999981156
100
AcDbArc
 50
359.9996400986
 51
90.0003600397
  0
ARC
  5
4A1
100
AcDbEntity
  8
BEZUGSACHSEN
100
AcDbCircle
 62
7
  6
CONTINUOUS
 10
196.280878752
 20
79.7072888428
 40
4.2134555025
100
AcDbArc
 50
88.6133350317
 51
89.0621182316
  0
ARC
  5
4A2
100
AcDbEntity
  8
RUNDUNGEN
100
AcDbCircle
 62
7
  6
CONTINUOUS
 10
109.200991477
 20
68.1341997054
 40
4.2134555011
100
AcDbArc
 50
268.6133350317
 51
269.0621182318
  0
ARC
  5
4A3
100
AcDbEntity
  8
BEZUGSACHSEN
100
AcDbCircle
 62
7
  6
CONTINUOUS
 10
196.2808787739
 20
68.1341986417
 40
4.2134544371
100
AcDbArc
 50
270.9361190966
 51
271.3797932466
  0
ARC
  5
4A4
100
AcDbEntity
  8
BEZUGSACHSEN
100
AcDbCircle
 62
7
  6
CONTINUOUS
 10
109.2009914551
 20
79.7072899087
 40
4.2134544364
100
AcDbArc
 50
90.9361191201
 51
91.3797912376
  0
ARC
  5
4A5
100
AcDbEntity
  8
RUNDUNGEN
100
AcDbCircle
 62
7
  6
CONTINUOUS
 10
109.2009820852
 20
68.1338527675
 40
4.2131084375
100
AcDbArc
 50
267.7040594239
 51
268.6133485399
  0
ARC
  5
4A6
100
AcDbEntity
  8
BEZUGSACHSEN
100
AcDbCircle
 62
7
  6
CONTINUOUS
 10
196.2808881438
 20
79.707635782
 40
4.2131084376
100
AcDbArc
 50
87.7040594239
 51
88.6133485399
  0
ARC
  5
4A7
100
AcDbEntity
  8
BEZUGSACHSEN
100
AcDbCircle
 62
7
  6
CONTINUOUS
 10
196.2808881281
 20
68.1338525508
 40
4.2131082213
100
AcDbArc
 50
271.3797794057
 51
272.302667672
  0
ARC
  5
4A8
100
AcDbEntity
  8
BEZUGSACHSEN
100
AcDbCircle
 62
7
  6
CONTINUOUS
 10
109.2009821009
 20
79.7076359997
 40
4.2131082205
100
AcDbArc
 50
91.3797773966
 51
92.3026703786
  0
ARC
  5
4A9
100
AcDbEntity
  8
BEZUGSACHSEN
100
AcDbCircle
 62
7
  6
CONTINUOUS
 10
196.2808886527
 20
79.7079828748
 40
4.2127614015
100
AcDbArc
 50
89.0620983633
 51
89.9722973066
  0
ARC
  5
4AA
100
AcDbEntity
  8
RUNDUNGEN
100
AcDbCircle
 62
7
  6
CONTINUOUS
 10
109.2009815763
 20
68.1335056741
 40
4.2127614007
100
AcDbArc
 50
269.0620983632
 51
269.9722973067
  0
ARC
  5
4AB
100
AcDbEntity
  8
BEZUGSACHSEN
100
AcDbCircle
 62
7
  6
CONTINUOUS
 10
109.2009815667
 20
79.7079843916
 40
4.2127598846
100
AcDbArc
 50
90.0277025718
 51
90.936138965
  0
ARC
  5
4AC
100
AcDbEntity
  8
BEZUGSACHSEN
100
AcDbCircle
 62
7
  6
CONTINUOUS
 10
196.2808886624
 20
68.1335041573
 40
4.2127598839
100
AcDbArc
 50
270.0277025717
 51
270.9361389415
  0
ARC
  5
4AD
100
AcDbEntity
  8
RUNDUNGEN
100
AcDbCircle
 62
7
  6
CONTINUOUS
 10
109.2009616654
 20
68.1331867762
 40
4.2124421793
100
AcDbArc
 50
266.271265666
 51
267.4283808866
  0
ARC
  5
4AE
100
AcDbEntity
  8
BEZUGSACHSEN
100
AcDbCircle
 62
7
  6
CONTINUOUS
 10
196.2809085636
 20
79.7083017736
 40
4.2124421791
100
AcDbArc
 50
86.2712656659
 51
87.4283808867
  0
ARC
  5
4AF
100
AcDbEntity
  8
BEZUGSACHSEN
100
AcDbCircle
 62
7
  6
CONTINUOUS
 10
196.2809298723
 20
79.7087224041
 40
4.2120210162
100
AcDbArc
 50
87.4284137279
 51
87.7040344465
  0
ARC
  5
4B0
100
AcDbEntity
  8
RUNDUNGEN
100
AcDbCircle
 62
7
  6
CONTINUOUS
 10
109.2009403564
 20
68.1327661388
 40
4.2120210094
100
AcDbArc
 50
267.4284137276
 51
267.7040344467
  0
ARC
  5
4B1
100
AcDbEntity
  8
BEZUGSACHSEN
100
AcDbCircle
 62
7
  6
CONTINUOUS
 10
109.2009401443
 20
79.7087271513
 40
4.2120162642
100
AcDbArc
 50
92.3026964692
 51
92.5644132394
  0
ARC
  5
4B2
100
AcDbEntity
  8
BEZUGSACHSEN
100
AcDbCircle
 62
7
  6
CONTINUOUS
 10
196.2809300848
 20
68.1327613951
 40
4.212016261
100
AcDbArc
 50
272.3026937622
 51
272.5644155179
  0
SPLINE
  5
4B3
100
AcDbEntity
  8
KONSTRUKTIONSELEMENTE
100
AcDbSpline
 62
7
  6
CONTINUOUS
 70
0
 71
3
 72
11
 73
7
 74
0
 42
0.0000001
 43
0.0000001
 44
0.0000000001
 40
0.0
 40
0.0
 40
0.0
 40
0.0
 40
0.2629143238
 40
0.5198749655
 40
0.7662860109
 40
1.0
 40
1.0
 40
1.0
 40
1.0
 10
143.9909351145
 20
164.4949453292
 30
0.0
 10
143.6487966319
 20
164.4949453292
 30
0.0
 10
142.9670420516
 20
164.6084259935
 30
0.0
 10
142.0731313007
 20
165.0869112472
 30
0.0
 10
141.3999299819
 20
165.792275681
 30
0.0
 10
141.1334108777
 20
166.3739167618
 30
0.0
 10
141.0602397745
 20
166.6691228539
 30
0.0
  0
SPLINE
  5
4B4
100
AcDbEntity
  8
KONSTRUKTIONSELEMENTE
100
AcDbSpline
 62
7
  6
CONTINUOUS
 70
0
 71
3
 72
9
 73
5
 74
0
 42
0.0000001
 43
0.0000001
 44
0.0000000001
 40
0.0
 40
0.0
 40
0.0
 40
0.0
 40
0.2526834998
 40
1.0
 40
1.0
 40
1.0
 40
1.0
 10
141.0602397745
 20
166.6691228539
 30
0.0
 10
141.0488044262
 20
166.7152583408
 30
0.0
 10
141.0088825511
 20
166.8991110116
 30
0.0
 10
140.9909351145
 20
167.087816181
 30
0.0
 10
140.9909351145
 20
167.2283917551
 30
0.0
  0
SPLINE
  5
4B5
100
AcDbEntity
  8
KONSTRUKTIONSELEMENTE
100
AcDbSpline
 62
7
  6
CONTINUOUS
 70
0
 71
3
 72
13
 73
9
 74
0
 42
0.0000001
 43
0.0000001
 44
0.0000000001
 40
0.0
 40
0.0
 40
0.0
 40
0.0
 40
0.1140548506
 40
0.231164714
 40
0.4753926002
 40
0.7331260789
 40
0.8660230526
 40
1.0
 40
1.0
 40
1.0
 40
1.0
 10
164.4909351145
 20
167.2283917551
 30
0.0
 10
164.4909351145
 20
167.0584668058
 30
0.0
 10
164.4511114244
 20
166.7129400061
 30
0.0
 10
164.2207685954
 20
166.0386233978
 30
0.0
 10
163.6608576609
 20
165.2748235955
 30
0.0
 10
162.8424820466
 20
164.7559092109
 30
0.0
 10
162.0893123221
 20
164.5334490659
 30
0.0
 10
161.6905410573
 20
164.4949453292
 30
0.0
 10
161.4909351145
 20
164.4949453292
 30
0.0
  0
SPLINE
  5
4B6
100
AcDbEntity
  8
0
100
AcDbSpline
 62
7
  6
CONTINUOUS
 70
0
 71
3
 72
9
 73
5
 74
0
 42
0.0000001
 43
0.0000001
 44
0.0000000001
 40
0.0
 40
0.0
 40
0.0
 40
0.0
 40
0.5225060522
 40
1.0
 40
1.0
 40
1.0
 40
1.0
 10
151.3784095918
 20
172.9633353509
 30
0.0
 10
151.4872002518
 20
172.9633353509
 30
0.0
 10
151.6965158678
 20
172.9808658148
 30
0.0
 10
151.89507022
 20
173.056044717
 30
0.0
 10
151.9802849137
 20
173.107255433
 30
0.0
  0
SPLINE
  5
4B7
100
AcDbEntity
  8
0
100
AcDbSpline
 62
7
  6
CONTINUOUS
 70
0
 71
3
 72
10
 73
6
 74
0
 42
0.0000001
 43
0.0000001
 44
0.0000000001
 40
0.0
 40
0.0
 40
0.0
 40
0.0
 40
0.5437710606
 40
0.7774038513
 40
1.0
 40
1.0
 40
1.0
 40
1.0
 10
151.9802849137
 20
173.107255433
 30
0.0
 10
152.0556198681
 20
173.1525288101
 30
0.0
 10
152.1549829234
 20
173.2420412648
 30
0.0
 10
152.2137584014
 20
173.3947949878
 30
0.0
 10
152.2215866719
 20
173.468913477
 30
0.0
 10
152.2215866719
 20
173.504892698
 30
0.0
  0
SPLINE
  5
4B8
100
AcDbEntity
  8
0
100
AcDbSpline
 62
7
  6
CONTINUOUS
 70
0
 71
3
 72
9
 73
5
 74
0
 42
0.0000001
 43
0.0000001
 44
0.0000000001
 40
0.0
 40
0.0
 40
0.0
 40
0.0
 40
0.2693414031
 40
1.0
 40
1.0
 40
1.0
 40
1.0
 10
151.6309549485
 20
174.6180868662
 30
0.0
 10
151.7518947794
 20
174.6180868662
 30
0.0
 10
152.1989513658
 20
174.6006988925
 30
0.0
 10
152.6558115373
 20
174.4938163395
 30
0.0
 10
152.9384910737
 20
174.3272953126
 30
0.0
  0
SPLINE
  5
4B9
100
AcDbEntity
  8
0
100
AcDbSpline
 62
7
  6
CONTINUOUS
 70
0
 71
3
 72
11
 73
7
 74
0
 42
0.0000001
 43
0.0000001
 44
0.0000000001
 40
0.0
 40
0.0
 40
0.0
 40
0.0
 40
0.285640278
 40
0.5388939081
 40
0.7720800388
 40
1.0
 40
1.0
 40
1.0
 40
1.0
 10
152.9384910737
 20
174.3272953126
 30
0.0
 10
153.021001337
 20
174.2786901184
 30
0.0
 10
153.1692067999
 20
174.172249878
 30
0.0
 10
153.3355875427
 20
173.9693547195
 30
0.0
 10
153.4268728889
 20
173.7442065836
 30
0.0
 10
153.4435825025
 20
173.5886963891
 30
0.0
 10
153.4435825025
 20
173.5122851478
 30
0.0
  0
SPLINE
  5
4BA
100
AcDbEntity
  8
KONSTRUKTIONSELEMENTE
100
AcDbSpline
 62
7
  6
CONTINUOUS
 70
0
 71
3
 72
14
 73
10
 74
0
 42
0.0000001
 43
0.0000001
 44
0.0000000001
 40
0.0
 40
0.0
 40
0.0
 40
0.0
 40
0.0881726671
 40
0.180646459
 40
0.2837999998
 40
0.4012145929
 40
0.5338073641
 40
0.6802847109
 40
1.0
 40
1.0
 40
1.0
 40
1.0
 10
164.4909351145
 20
173.7635041833
 30
0.0
 10
164.4909351145
 20
173.8710787356
 30
0.0
 10
164.4506398254
 20
174.0935123667
 30
0.0
 10
164.2712690481
 20
174.3964660787
 30
0.0
 10
163.988672638
 20
174.6592786343
 30
0.0
 10
163.6154482609
 20
174.879413172
 30
0.0
 10
163.1628913385
 20
175.0549962129
 30
0.0
 10
162.4524421447
 20
175.2305815802
 30
0.0
 10
161.8810019031
 20
175.2786239023
 30
0.0
 10
161.4909351145
 20
175.2786239023
 30
0.0
  0
SPLINE
  5
4BB
100
AcDbEntity
  8
KONSTRUKTIONSELEMENTE
100
AcDbSpline
 62
7
  6
CONTINUOUS
 70
0
 71
3
 72
14
 73
10
 74
0
 42
0.0000001
 43
0.0000001
 44
0.0000000001
 40
0.0
 40
0.0
 40
0.0
 40
0.0
 40
0.3197153746
 40
0.4661926717
 40
0.5987854225
 40
0.7162000036
 40
0.819353564
 40
0.9118273669
 40
1.0
 40
1.0
 40
1.0
 40
1.0
 10
143.9909351145
 20
175.2786239023
 30
0.0
 10
143.6008682216
 20
175.2786239023
 30
0.0
 10
143.0294279305
 20
175.2305815797
 30
0.0
 10
142.3189787348
 20
175.0549961499
 30
0.0
 10
141.8664219049
 20
174.8794131488
 30
0.0
 10
141.493197552
 20
174.6592786016
 30
0.0
 10
141.210601129
 20
174.3964660244
 30
0.0
 10
141.0312303833
 20
174.0935122949
 30
0.0
 10
140.9909351145
 20
173.8710786941
 30
0.0
 10
140.9909351145
 20
173.7635041833
 30
0.0
  0
SPLINE
  5
4BC
100
AcDbEntity
  8
KONSTRUKTIONSELEMENTE
100
AcDbSpline
 62
7
  6
CONTINUOUS
 70
0
 71
3
 72
14
 73
10
 74
0
 42
0.0000001
 43
0.0000001
 44
0.0000000001
 40
0.0
 40
0.0
 40
0.0
 40
0.0
 40
0.3184572098
 40
0.464608357
 40
0.5971005318
 40
0.7146658048
 40
0.8182094708
 40
0.9112430009
 40
1.0
 40
1.0
 40
1.0
 40
1.0
 10
161.4909351145
 20
175.8785740263
 30
0.0
 10
161.8808147554
 20
175.8785740263
 30
0.0
 10
162.4523714707
 20
175.8294550487
 30
0.0
 10
163.1625267716
 20
175.65060092
 30
0.0
 10
163.6153194744
 20
175.4718394725
 30
0.0
 10
163.9887693386
 20
175.2480426319
 30
0.0
 10
164.2714343667
 20
174.98137598
 30
0.0
 10
164.4506504967
 20
174.6748174941
 30
0.0
 10
164.4909351145
 20
174.4502477288
 30
0.0
 10
164.4909351145
 20
174.341584631
 30
0.0
  0
SPLINE
  5
4BD
100
AcDbEntity
  8
KONSTRUKTIONSELEMENTE
100
AcDbSpline
 62
7
  6
CONTINUOUS
 70
0
 71
3
 72
14
 73
10
 74
0
 42
0.0000001
 43
0.0000001
 44
0.0000000001
 40
0.0
 40
0.0
 40
0.0
 40
0.0
 40
0.0887572029
 40
0.181790646
 40
0.2853344271
 40
0.4029009429
 40
0.5353953925
 40
0.6815480183
 40
1.0
 40
1.0
 40
1.0
 40
1.0
 10
140.9909351145
 20
174.341584631
 30
0.0
 10
140.9909351145
 20
174.4502479783
 30
0.0
 10
141.0312198606
 20
174.6748178897
 30
0.0
 10
141.2104362306
 20
174.9813765527
 30
0.0
 10
141.4931026094
 20
175.2480440816
 30
0.0
 10
141.8665566787
 20
175.4718426794
 30
0.0
 10
142.3193557103
 20
175.6506049393
 30
0.0
 10
143.0295099641
 20
175.8294557784
 30
0.0
 10
143.6010618744
 20
175.8785740263
 30
0.0
 10
143.9909351145
 20
175.8785740263
 30
0.0
  0
SPLINE
  5
4BE
100
AcDbEntity
  8
KONSTRUKTIONSELEMENTE
100
AcDbSpline
 62
7
  6
CONTINUOUS
 70
0
 71
3
 72
9
 73
5
 74
0
 42
0.0000001
 43
0.0000001
 44
0.0000000001
 40
0.0
 40
0.0
 40
0.0
 40
0.0
 40
0.2353840785
 40
1.0
 40
1.0
 40
1.0
 40
1.0
 10
152.1091815623
 20
173.2106327475
 30
0.0
 10
152.1001388701
 20
173.2197394907
 30
0.0
 10
152.0600223477
 20
173.2567416055
 30
0.0
 10
152.0139014419
 20
173.2868936579
 30
0.0
 10
151.9771874519
 20
173.3066425937
 30
0.0
  0
SPLINE
  5
4BF
100
AcDbEntity
  8
0
100
AcDbSpline
 62
7
  6
CONTINUOUS
 70
0
 71
3
 72
10
 73
6
 74
0
 42
0.0000001
 43
0.0000001
 44
0.0000000001
 40
0.0
 40
0.0
 40
0.0
 40
0.0
 40
0.2242719581
 40
0.4567543015
 40
1.0
 40
1.0
 40
1.0
 40
1.0
 10
152.2215866719
 20
173.504892698
 30
0.0
 10
152.2215866719
 20
173.5400135915
 30
0.0
 10
152.213733327
 20
173.6119753676
 30
0.0
 10
152.1530117626
 20
173.7588899514
 30
0.0
 10
152.0519832781
 20
173.8403458783
 30
0.0
 10
151.9771874519
 20
173.8808778088
 30
0.0
  0
SPLINE
  5
4C0
100
AcDbEntity
  8
KONSTRUKTIONSELEMENTE
100
AcDbSpline
 62
7
  6
CONTINUOUS
 70
0
 71
3
 72
9
 73
5
 74
0
 42
0.0000001
 43
0.0000001
 44
0.0000000001
 40
0.0
 40
0.0
 40
0.0
 40
0.0
 40
0.4749888116
 40
1.0
 40
1.0
 40
1.0
 40
1.0
 10
151.9771874519
 20
173.3066425937
 30
0.0
 10
151.8932615849
 20
173.3517874162
 30
0.0
 10
151.7016905701
 20
173.4206422464
 30
0.0
 10
151.5000359012
 20
173.4384606225
 30
0.0
 10
151.3947024022
 20
173.4384606225
 30
0.0
  0
SPLINE
  5
4C1
100
AcDbEntity
  8
0
100
AcDbSpline
 62
7
  6
CONTINUOUS
 70
0
 71
3
 72
9
 73
5
 74
0
 42
0.0000001
 43
0.0000001
 44
0.0000000001
 40
0.0
 40
0.0
 40
0.0
 40
0.0
 40
0.4752658273
 40
1.0
 40
1.0
 40
1.0
 40
1.0
 10
151.9771874519
 20
173.8808778088
 30
0.0
 10
151.89331223
 20
173.9263298725
 30
0.0
 10
151.7018004454
 20
173.9957312591
 30
0.0
 10
151.5000309158
 20
174.0137095823
 30
0.0
 10
151.3947024022
 20
174.0137095823
 30
0.0
  0
SPLINE
  5
4C2
100
AcDbEntity
  8
0
100
AcDbSpline
 62
7
  6
CONTINUOUS
 70
0
 71
3
 72
9
 73
5
 74
0
 42
0.0000001
 43
0.0000001
 44
0.0000000001
 40
0.0
 40
0.0
 40
0.0
 40
0.0
 40
0.2488716795
 40
1.0
 40
1.0
 40
1.0
 40
1.0
 10
171.2409351145
 20
158.4535396466
 30
0.0
 10
171.3286107875
 20
158.2420416819
 30
0.0
 10
171.6801888299
 20
157.3919211676
 30
0.0
 10
172.0273409905
 20
156.5399468481
 30
0.0
 10
172.282826458
 20
155.8979080878
 30
0.0
  0
SPLINE
  5
4C3
100
AcDbEntity
  8
0
100
AcDbSpline
 62
7
  6
CONTINUOUS
 70
0
 71
3
 72
9
 73
5
 74
0
 42
0.0000001
 43
0.0000001
 44
0.0000000001
 40
0.0
 40
0.0
 40
0.0
 40
0.0
 40
0.2509578598
 40
1.0
 40
1.0
 40
1.0
 40
1.0
 10
133.199043771
 20
155.8979080878
 30
0.0
 10
133.2844036144
 20
156.1124186374
 30
0.0
 10
133.6268901513
 20
156.9662516425
 30
0.0
 10
133.9770525937
 20
157.8169820458
 30
0.0
 10
134.2409351145
 20
158.4535396466
 30
0.0
  0
SPLINE
  5
4C4
100
AcDbEntity
  8
KONSTRUKTIONSELEMENTE
100
AcDbSpline
 62
7
  6
CONTINUOUS
 70
0
 71
3
 72
11
 73
7
 74
0
 42
0.0000001
 43
0.0000001
 44
0.0000000001
 40
0.0
 40
0.0
 40
0.0
 40
0.0
 40
0.2201223416
 40
0.4535719015
 40
0.7111187445
 40
1.0
 40
1.0
 40
1.0
 40
1.0
 10
153.4435825025
 20
172.9404997375
 30
0.0
 10
153.4435825025
 20
172.861486342
 30
0.0
 10
153.4259457511
 20
172.6978871519
 30
0.0
 10
153.3333439949
 20
172.4566630931
 30
0.0
 10
153.1631427932
 20
172.2301939704
 30
0.0
 10
153.0086870341
 20
172.106235121
 30
0.0
 10
152.9221737334
 20
172.0490686088
 30
0.0
  0
SPLINE
  5
4C5
100
AcDbEntity
  8
0
100
AcDbSpline
 62
7
  6
CONTINUOUS
 70
0
 71
3
 72
11
 73
7
 74
0
 42
0.0000001
 43
0.0000001
 44
0.0000000001
 40
0.0
 40
0.0
 40
0.0
 40
0.0
 40
0.2206668463
 40
0.4543491622
 40
0.7117189965
 40
1.0
 40
1.0
 40
1.0
 40
1.0
 10
153.4435825025
 20
173.5122851478
 30
0.0
 10
153.4435825025
 20
173.4328165482
 30
0.0
 10
153.4259733352
 20
173.2684050001
 30
0.0
 10
153.3334115171
 20
173.0260408068
 30
0.0
 10
153.1632374336
 20
172.7986379938
 30
0.0
 10
153.0087062973
 20
172.6741749783
 30
0.0
 10
152.9221737334
 20
172.6168131113
 30
0.0
  0
SPLINE
  5
4C6
100
AcDbEntity
  8
KONSTRUKTIONSELEMENTE
100
AcDbSpline
 62
7
  6
CONTINUOUS
 70
0
 71
3
 72
9
 73
5
 74
0
 42
0.0000001
 43
0.0000001
 44
0.0000000001
 40
0.0
 40
0.0
 40
0.0
 40
0.0
 40
0.4778197852
 40
1.0
 40
1.0
 40
1.0
 40
1.0
 10
152.9221737334
 20
172.0490686088
 30
0.0
 10
152.7277231995
 20
171.9205790155
 30
0.0
 10
152.2616249434
 20
171.7396051326
 30
0.0
 10
151.7716080217
 20
171.7001351255
 30
0.0
 10
151.5169024144
 20
171.7001351255
 30
0.0
  0
SPLINE
  5
4C7
100
AcDbEntity
  8
0
100
AcDbSpline
 62
7
  6
CONTINUOUS
 70
0
 71
3
 72
9
 73
5
 74
0
 42
0.0000001
 43
0.0000001
 44
0.0000000001
 40
0.0
 40
0.0
 40
0.0
 40
0.0
 40
0.4779322849
 40
1.0
 40
1.0
 40
1.0
 40
1.0
 10
152.9221737334
 20
172.6168131113
 30
0.0
 10
152.727824626
 20
172.4879803673
 30
0.0
 10
152.2617440685
 20
172.306486874
 30
0.0
 10
151.7716076923
 20
172.2669277908
 30
0.0
 10
151.5169024144
 20
172.2669277908
 30
0.0
  0
SPLINE
  5
4C8
100
AcDbEntity
  8
RUNDUNGEN
100
AcDbSpline
 62
7
  6
CONTINUOUS
 70
0
 71
3
 72
26
 73
22
 74
0
 42
0.0000001
 43
0.0000001
 44
0.0000000001
 40
0.0
 40
0.0
 40
0.0
 40
0.0
 40
0.0647556904
 40
0.1294458286
 40
0.1940053689
 40
0.258371243
 40
0.3224867251
 40
0.3863077198
 40
0.449808485
 40
0.5129829905
 40
0.5287265909
 40
0.5444263277
 40
0.5756759567
 40
0.6067259586
 40
0.6375679865
 40
0.6986646475
 40
0.7591421772
 40
0.8192629268
 40
0.8792841636
 40
0.9394247475
 40
1.0
 40
1.0
 40
1.0
 40
1.0
 10
127.4931087236
 20
191.5006690115
 30
0.0
 10
127.4947116495
 20
191.7863021935
 30
0.0
 10
127.5017648859
 20
192.3572633634
 30
0.0
 10
127.5224199579
 20
193.2127875902
 30
0.0
 10
127.5509794331
 20
194.0663579956
 30
0.0
 10
127.5847350729
 20
194.9171954947
 30
0.0
 10
127.6205798595
 20
195.7646841712
 30
0.0
 10
127.6553107186
 20
196.6084013969
 30
0.0
 10
127.6859907636
 20
197.4481256448
 30
0.0
 10
127.7044026262
 20
198.0760744566
 30
0.0
 10
127.7143103916
 20
198.4933166543
 30
0.0
 10
127.7204209398
 20
198.7697886541
 30
0.0
 10
127.7257568994
 20
199.1138064386
 30
0.0
 10
127.7298971763
 20
199.524634871
 30
0.0
 10
127.7333580454
 20
200.0671284589
 30
0.0
 10
127.7353232815
 20
200.7394355563
 30
0.0
 10
127.7362160968
 20
201.540892311
 30
0.0
 10
127.7367456898
 20
202.3376057325
 30
0.0
 10
127.7377338525
 20
203.1328326766
 30
0.0
 10
127.7396853695
 20
203.9300622333
 30
0.0
 10
127.7409346378
 20
204.4625396479
 30
0.0
 10
127.7409350895
 20
204.7297373946
 30
0.0
  0
SPLINE
  5
4C9
100
AcDbEntity
  8
RUNDUNGEN
100
AcDbSpline
 62
7
  6
CONTINUOUS
 70
0
 71
3
 72
32
 73
28
 74
0
 42
0.0000001
 43
0.0000001
 44
0.0000000001
 40
0.0
 40
0.0
 40
0.0
 40
0.0
 40
0.0006857735
 40
0.0011682607
 40
0.0017733254
 40
0.0033864991
 40
0.0055655549
 40
0.0083238022
 40
0.0116666119
 40
0.0155958433
 40
0.0201115333
 40
0.0308965033
 40
0.0440035355
 40
0.0594051652
 40
0.0770667854
 40
0.0969474791
 40
0.1190004734
 40
0.1694086106
 40
0.2278102126
 40
0.2936453344
 40
0.3662814813
 40
0.4450200616
 40
0.5291033409
 40
0.6177218635
 40
0.710022317
 40
0.8051157979
 40
1.0
 40
1.0
 40
1.0
 40
1.0
 10
104.9906971189
 20
154.566688763
 30
0.0
 10
104.9906455938
 20
154.5657252288
 30
0.0
 10
104.9915504877
 20
154.5641062503
 30
0.0
 10
104.9934464694
 20
154.5625250362
 30
0.0
 10
104.9966890173
 20
154.560498361
 30
0.0
 10
105.0024096489
 20
154.5580952543
 30
0.0
 10
105.0111949869
 20
154.5552914113
 30
0.0
 10
105.0224903367
 20
154.5524153325
 30
0.0
 10
105.0362915128
 20
154.5494559659
 30
0.0
 10
105.0526002876
 20
154.5464278029
 30
0.0
 10
105.0793003961
 20
154.5420379884
 30
0.0
 10
105.1188948933
 20
154.5365282995
 30
0.0
 10
105.1737973461
 20
154.529996837
 30
0.0
 10
105.238411346
 20
154.5232500413
 30
0.0
 10
105.3125823752
 20
154.5163072742
 30
0.0
 10
105.3961336618
 20
154.5091909551
 30
0.0
 10
105.5256658719
 20
154.4990390749
 30
0.0
 10
105.7093516502
 20
154.486223804
 30
0.0
 10
105.9546157812
 20
154.4710355815
 30
0.0
 10
106.2311947798
 20
154.4555982409
 30
0.0
 10
106.5364238288
 20
154.4400663381
 30
0.0
 10
106.8673621781
 20
154.4245972083
 30
0.0
 10
107.2208205778
 20
154.4093435576
 30
0.0
 10
107.5933926086
 20
154.3944553442
 30
0.0
 10
107.9814875278
 20
154.3800774558
 30
0.0
 10
108.5190520609
 20
154.3616250747
 30
0.0
 10
108.9268757767
 20
154.349212654
 30
0.0
 10
109.2009784094
 20
154.3415434451
 30
0.0
  0
SPLINE
  5
4CA
100
AcDbEntity
  8
0
100
AcDbSpline
 62
7
  6
CONTINUOUS
 70
0
 71
3
 72
15
 73
11
 74
0
 42
0.0000001
 43
0.0000001
 44
0.0000000001
 40
0.0
 40
0.0
 40
0.0
 40
0.0
 40
0.1248856483
 40
0.2497886631
 40
0.3747238466
 40
0.499701043
 40
0.6247237281
 40
0.7497884709
 40
0.8748854439
 40
1.0
 40
1.0
 40
1.0
 40
1.0
 10
191.9801456458
 20
177.0870402869
 30
0.0
 10
191.9801456458
 20
177.0064774198
 30
0.0
 10
191.9642404433
 20
176.8448936151
 30
0.0
 10
191.893584165
 20
176.6121646839
 30
0.0
 10
191.7788404497
 20
176.3975463145
 30
0.0
 10
191.6244084322
 20
176.2093856623
 30
0.0
 10
191.4362191342
 20
176.0548596081
 30
0.0
 10
191.2214544419
 20
175.9398958435
 30
0.0
 10
190.9884656514
 20
175.8688943476
 30
0.0
 10
190.8266454701
 20
175.8526804401
 30
0.0
 10
190.7459351183
 20
175.852509036
 30
0.0
  0
SPLINE
  5
4CB
100
AcDbEntity
  8
0
100
AcDbSpline
 62
7
  6
CONTINUOUS
 70
0
 71
3
 72
15
 73
11
 74
0
 42
0.0000001
 43
0.0000001
 44
0.0000000001
 40
0.0
 40
0.0
 40
0.0
 40
0.0
 40
0.1251134978
 40
0.2502098097
 40
0.3752743999
 40
0.5002974121
 40
0.6252752328
 40
0.7502110226
 40
0.8751142323
 40
1.0
 40
1.0
 40
1.0
 40
1.0
 10
189.2696193273
 20
175.852509036
 30
0.0
 10
189.1894338054
 20
175.852509036
 30
0.0
 10
189.0286378699
 20
175.8681721798
 30
0.0
 10
188.7968990358
 20
175.9377703011
 30
0.0
 10
188.5829432187
 20
176.0508407498
 30
0.0
 10
188.3949819845
 20
176.2031124539
 30
0.0
 10
188.2400956712
 20
176.3888198319
 30
0.0
 10
188.1241549413
 20
176.6009716694
 30
0.0
 10
188.0515483628
 20
176.8314238062
 30
0.0
 10
188.0338635506
 20
176.9917455493
 30
0.0
 10
188.0328717998
 20
177.0717789739
 30
0.0
  0
SPLINE
  5
4CC
100
AcDbEntity
  8
BEZUGSACHSEN
100
AcDbSpline
 62
7
  6
CONTINUOUS
 70
0
 71
3
 72
26
 73
22
 74
0
 42
0.0000001
 43
0.0000001
 44
0.0000000001
 40
0.0
 40
0.0
 40
0.0
 40
0.0
 40
0.0647556904
 40
0.1294458286
 40
0.1940053689
 40
0.258371243
 40
0.3224867251
 40
0.3863077198
 40
0.449808485
 40
0.5129829905
 40
0.5287265909
 40
0.5444263277
 40
0.5756759567
 40
0.6067259586
 40
0.6375679865
 40
0.6986646475
 40
0.7591421772
 40
0.8192629268
 40
0.8792841636
 40
0.9394247475
 40
1.0
 40
1.0
 40
1.0
 40
1.0
 10
177.9887615054
 20
191.5006690115
 30
0.0
 10
177.9871585795
 20
191.7863021935
 30
0.0
 10
177.9801053431
 20
192.3572633634
 30
0.0
 10
177.9594502711
 20
193.2127875902
 30
0.0
 10
177.930890796
 20
194.0663579956
 30
0.0
 10
177.8971351562
 20
194.9171954947
 30
0.0
 10
177.8612903695
 20
195.7646841712
 30
0.0
 10
177.8265595104
 20
196.6084013969
 30
0.0
 10
177.7958794654
 20
197.4481256448
 30
0.0
 10
177.7774676028
 20
198.0760744566
 30
0.0
 10
177.7675598374
 20
198.4933166543
 30
0.0
 10
177.7614492892
 20
198.7697886541
 30
0.0
 10
177.7561133296
 20
199.1138064386
 30
0.0
 10
177.7519730527
 20
199.524634871
 30
0.0
 10
177.7485121836
 20
200.0671284589
 30
0.0
 10
177.7465469475
 20
200.7394355563
 30
0.0
 10
177.7456541322
 20
201.540892311
 30
0.0
 10
177.7451245392
 20
202.3376057325
 30
0.0
 10
177.7441363765
 20
203.1328326766
 30
0.0
 10
177.7421848595
 20
203.9300622333
 30
0.0
 10
177.7409355912
 20
204.4625396479
 30
0.0
 10
177.7409351395
 20
204.7297373946
 30
0.0
  0
SPLINE
  5
4CD
100
AcDbEntity
  8
BEZUGSACHSEN
100
AcDbSpline
 62
7
  6
CONTINUOUS
 70
0
 71
3
 72
32
 73
28
 74
0
 42
0.0000001
 43
0.0000001
 44
0.0000000001
 40
0.0
 40
0.0
 40
0.0
 40
0.0
 40
0.0006857735
 40
0.0011682607
 40
0.0017733254
 40
0.0033864991
 40
0.0055655549
 40
0.0083238022
 40
0.0116666119
 40
0.0155958433
 40
0.0201115333
 40
0.0308965033
 40
0.0440035355
 40
0.0594051652
 40
0.0770667854
 40
0.0969474791
 40
0.1190004734
 40
0.1694086106
 40
0.2278102126
 40
0.2936453344
 40
0.3662814813
 40
0.4450200616
 40
0.5291033409
 40
0.6177218635
 40
0.710022317
 40
0.8051157979
 40
1.0
 40
1.0
 40
1.0
 40
1.0
 10
200.4911731101
 20
154.566688763
 30
0.0
 10
200.4912246353
 20
154.5657252288
 30
0.0
 10
200.4903197413
 20
154.5641062503
 30
0.0
 10
200.4884237596
 20
154.5625250362
 30
0.0
 10
200.4851812117
 20
154.560498361
 30
0.0
 10
200.4794605802
 20
154.5580952543
 30
0.0
 10
200.4706752421
 20
154.5552914113
 30
0.0
 10
200.4593798923
 20
154.5524153325
 30
0.0
 10
200.4455787162
 20
154.5494559659
 30
0.0
 10
200.4292699414
 20
154.5464278029
 30
0.0
 10
200.4025698329
 20
154.5420379884
 30
0.0
 10
200.3629753357
 20
154.5365282995
 30
0.0
 10
200.3080728829
 20
154.529996837
 30
0.0
 10
200.243458883
 20
154.5232500413
 30
0.0
 10
200.1692878538
 20
154.5163072742
 30
0.0
 10
200.0857365672
 20
154.5091909551
 30
0.0
 10
199.9562043571
 20
154.4990390749
 30
0.0
 10
199.7725185788
 20
154.486223804
 30
0.0
 10
199.5272544478
 20
154.4710355815
 30
0.0
 10
199.2506754492
 20
154.4555982409
 30
0.0
 10
198.9454464002
 20
154.4400663381
 30
0.0
 10
198.6145080509
 20
154.4245972083
 30
0.0
 10
198.2610496512
 20
154.4093435576
 30
0.0
 10
197.8884776204
 20
154.3944553442
 30
0.0
 10
197.5003827012
 20
154.3800774558
 30
0.0
 10
196.9628181681
 20
154.3616250747
 30
0.0
 10
196.5549944523
 20
154.349212654
 30
0.0
 10
196.2808918196
 20
154.3415434451
 30
0.0
  0
SPLINE
  5
4CE
100
AcDbEntity
  8
0
100
AcDbSpline
 62
7
  6
CONTINUOUS
 70
0
 71
3
 72
15
 73
11
 74
0
 42
0.0000001
 43
0.0000001
 44
0.0000000001
 40
0.0
 40
0.0
 40
0.0
 40
0.0
 40
0.1251144713
 40
0.2502115279
 40
0.3752763958
 40
0.5002991959
 40
0.6252764461
 40
0.750211599
 40
0.8751145225
 40
1.0
 40
1.0
 40
1.0
 40
1.0
 10
189.4143561695
 20
185.412793217
 30
0.0
 10
189.2595950368
 20
185.412793217
 30
0.0
 10
188.9492396424
 20
185.3823207032
 30
0.0
 10
188.502245321
 20
185.2469452272
 30
0.0
 10
188.0901080162
 20
185.0271019107
 30
0.0
 10
187.7288970136
 20
184.7312271955
 30
0.0
 10
187.432434888
 20
184.3707014487
 30
0.0
 10
187.2121378174
 20
183.9593133516
 30
0.0
 10
187.0764747975
 20
183.5131062476
 30
0.0
 10
187.0459351482
 20
183.2032697311
 30
0.0
 10
187.0459351482
 20
183.0487918538
 30
0.0
  0
SPLINE
  5
4CF
100
AcDbEntity
  8
0
100
AcDbSpline
 62
7
  6
CONTINUOUS
 70
0
 71
3
 72
15
 73
11
 74
0
 42
0.0000001
 43
0.0000001
 44
0.0000000001
 40
0.0
 40
0.0
 40
0.0
 40
0.0
 40
0.1251144884
 40
0.2502115267
 40
0.3752763943
 40
0.5002991941
 40
0.6252764445
 40
0.7502115978
 40
0.8751145217
 40
1.0
 40
1.0
 40
1.0
 40
1.0
 10
189.4143561695
 20
181.8667911721
 30
0.0
 10
189.3369755932
 20
181.8667911721
 30
0.0
 10
189.1817979004
 20
181.8820274656
 30
0.0
 10
188.9583007454
 20
181.9497151905
 30
0.0
 10
188.7522320825
 20
182.0596368127
 30
0.0
 10
188.5716266253
 20
182.2075742174
 30
0.0
 10
188.4233955115
 20
182.3878370429
 30
0.0
 10
188.3132469973
 20
182.5935311094
 30
0.0
 10
188.2454155141
 20
182.8166346617
 30
0.0
 10
188.230145642
 20
182.9715529152
 30
0.0
 10
188.230145642
 20
183.0487918538
 30
0.0
  0
SPLINE
  5
4D0
100
AcDbEntity
  8
0
100
AcDbSpline
 62
7
  6
CONTINUOUS
 70
0
 71
3
 72
23
 73
19
 74
0
 42
0.0000001
 43
0.0000001
 44
0.0000000001
 40
0.0
 40
0.0
 40
0.0
 40
0.0
 40
0.062442295
 40
0.1248932045
 40
0.1873600385
 40
0.2498477158
 40
0.3123580179
 40
0.3748893271
 40
0.4374368719
 40
0.4999934459
 40
0.5625504888
 40
0.6250993703
 40
0.6876326835
 40
0.750145356
 40
0.8126354139
 40
0.8751042811
 40
0.9375565567
 40
1.0
 40
1.0
 40
1.0
 40
1.0
 10
191.9801456458
 20
188.7092617847
 30
0.0
 10
191.9801456458
 20
188.6615185402
 30
0.0
 10
191.9707699604
 20
188.5657634066
 30
0.0
 10
191.9291143612
 20
188.4277876861
 30
0.0
 10
191.8614479115
 20
188.300434396
 30
0.0
 10
191.7703391345
 20
188.1886047746
 30
0.0
 10
191.6592453441
 20
188.0965198213
 30
0.0
 10
191.5323808627
 20
188.0276749657
 30
0.0
 10
191.3945568304
 20
187.9846775014
 30
0.0
 10
191.2509988089
 20
187.9691566884
 30
0.0
 10
191.1071490686
 20
187.9817003067
 30
0.0
 10
190.9684609012
 20
188.0218333506
 30
0.0
 10
190.8401925385
 20
188.0880351021
 30
0.0
 10
190.727208198
 20
188.1777984907
 30
0.0
 10
190.6337938628
 20
188.2877161957
 30
0.0
 10
190.563493889
 20
188.4136398436
 30
0.0
 10
190.5189777606
 20
188.5507230205
 30
0.0
 10
190.5076131053
 20
188.6462644245
 30
0.0
 10
190.5066201898
 20
188.6939982213
 30
0.0
  0
SPLINE
  5
4D1
100
AcDbEntity
  8
RUNDUNGEN
100
AcDbSpline
 62
7
  6
CONTINUOUS
 70
0
 71
3
 72
19
 73
15
 74
0
 42
0.0000001
 43
0.0000001
 44
0.0000000001
 40
0.0
 40
0.0
 40
0.0
 40
0.0
 40
0.193926658
 40
0.3804081925
 40
0.5523765509
 40
0.7034560564
 40
0.7693919449
 40
0.8280899396
 40
0.8789764871
 40
0.9215489178
 40
0.9553335539
 40
0.9799208923
 40
0.9949226391
 40
1.0
 40
1.0
 40
1.0
 40
1.0
 10
111.2722664269
 20
205.5150594236
 30
0.0
 10
111.0427287164
 20
205.5064812782
 30
0.0
 10
110.592127575
 20
205.4975750207
 30
0.0
 10
109.9378028706
 20
205.5079913678
 30
0.0
 10
109.3349976838
 20
205.5400710073
 30
0.0
 10
108.8760807677
 20
205.5825731609
 30
0.0
 10
108.5520622887
 20
205.6235088897
 30
0.0
 10
108.3464143742
 20
205.6541304792
 30
0.0
 10
108.1688162128
 20
205.6848820108
 30
0.0
 10
108.0209669415
 20
205.7142130277
 30
0.0
 10
107.9043325457
 20
205.7405949665
 30
0.0
 10
107.8201255038
 20
205.7621294109
 30
0.0
 10
107.7692629251
 20
205.7767409295
 30
0.0
 10
107.746637754
 20
205.7840717982
 30
0.0
 10
107.7409350895
 20
205.7859833826
 30
0.0
  0
SPLINE
  5
4D2
100
AcDbEntity
  8
0
100
AcDbSpline
 62
7
  6
CONTINUOUS
 70
0
 71
3
 72
15
 73
11
 74
0
 42
0.0000001
 43
0.0000001
 44
0.0000000001
 40
0.0
 40
0.0
 40
0.0
 40
0.0
 40
0.125114475
 40
0.2502115279
 40
0.3752763949
 40
0.5002991938
 40
0.6252764432
 40
0.7502115961
 40
0.8751145181
 40
1.0
 40
1.0
 40
1.0
 40
1.0
 10
190.7959351183
 20
174.6697203551
 30
0.0
 10
190.9377994938
 20
174.6697203551
 30
0.0
 10
191.2222919391
 20
174.6976534942
 30
0.0
 10
191.6320367271
 20
174.8217476968
 30
0.0
 10
192.0098292468
 20
175.0232707383
 30
0.0
 10
192.3409393296
 20
175.2944892239
 30
0.0
 10
192.6126962841
 20
175.6249711492
 30
0.0
 10
192.8146352779
 20
176.002076894
 30
0.0
 10
192.938993069
 20
176.4111000687
 30
0.0
 10
192.966987752
 20
176.695116879
 30
0.0
 10
192.966987752
 20
176.8367216047
 30
0.0
  0
SPLINE
  5
4D3
100
AcDbEntity
  8
0
100
AcDbSpline
 62
7
  6
CONTINUOUS
 70
0
 71
3
 72
15
 73
11
 74
0
 42
0.0000001
 43
0.0000001
 44
0.0000000001
 40
0.0
 40
0.0
 40
0.0
 40
0.0
 40
0.1248854775
 40
0.249788401
 40
0.3747235539
 40
0.4997008041
 40
0.6247236042
 40
0.7497884721
 40
0.8748855287
 40
1.0
 40
1.0
 40
1.0
 40
1.0
 10
187.0459351482
 20
183.0487918538
 30
0.0
 10
187.0459351482
 20
182.8943139764
 30
0.0
 10
187.0764747975
 20
182.5844774599
 30
0.0
 10
187.2121378174
 20
182.1382703559
 30
0.0
 10
187.432434888
 20
181.7268822588
 30
0.0
 10
187.7288970136
 20
181.366356512
 30
0.0
 10
188.0901080162
 20
181.0704817969
 30
0.0
 10
188.502245321
 20
180.8506384804
 30
0.0
 10
188.9492396424
 20
180.7152630044
 30
0.0
 10
189.2595950368
 20
180.6847904905
 30
0.0
 10
189.4143561695
 20
180.6847904905
 30
0.0
  0
SPLINE
  5
4D4
100
AcDbEntity
  8
0
100
AcDbSpline
 62
7
  6
CONTINUOUS
 70
0
 71
3
 72
15
 73
11
 74
0
 42
0.0000001
 43
0.0000001
 44
0.0000000001
 40
0.0
 40
0.0
 40
0.0
 40
0.0
 40
0.1248854783
 40
0.2497884024
 40
0.3747235558
 40
0.4997008062
 40
0.6247236061
 40
0.7497884736
 40
0.8748855287
 40
1.0
 40
1.0
 40
1.0
 40
1.0
 10
187.0459351145
 20
176.8214558305
 30
0.0
 10
187.0459351145
 20
176.6798511076
 30
0.0
 10
187.073929794
 20
176.3958342971
 30
0.0
 10
187.1982875665
 20
175.986811114
 30
0.0
 10
187.400226554
 20
175.6097053561
 30
0.0
 10
187.6719835091
 20
175.2792234219
 30
0.0
 10
188.0030936009
 20
175.0080049357
 30
0.0
 10
188.3808861337
 20
174.8064819005
 30
0.0
 10
188.79063093
 20
174.6823877164
 30
0.0
 10
189.0751233755
 20
174.6544545808
 30
0.0
 10
189.2169877483
 20
174.6544545808
 30
0.0
  0
SPLINE
  5
4D5
100
AcDbEntity
  8
0
100
AcDbSpline
 62
7
  6
CONTINUOUS
 70
0
 71
3
 72
27
 73
23
 74
0
 42
0.0000001
 43
0.0000001
 44
0.0000000001
 40
0.0
 40
0.0
 40
0.0
 40
0.0
 40
0.0624425316
 40
0.093699631
 40
0.1249615476
 40
0.1874418047
 40
0.2499417392
 40
0.2812276331
 40
0.3125172973
 40
0.3750468001
 40
0.4375826855
 40
0.5001181024
 40
0.5626462554
 40
0.6251612102
 40
0.6876585979
 40
0.7189292144
 40
0.750194778
 40
0.8126525388
 40
0.8750929496
 40
0.906337373
 40
0.9375792788
 40
1.0
 40
1.0
 40
1.0
 40
1.0
 10
189.6361332576
 20
187.678188842
 30
0.0
 10
189.6720665246
 20
187.5856592492
 30
0.0
 10
189.7382499958
 20
187.4511239326
 30
0.0
 10
189.8484221772
 20
187.2856168275
 30
0.0
 10
189.972547446
 20
187.1301589461
 30
0.0
 10
190.1523118332
 20
186.9568681985
 30
0.0
 10
190.3593124848
 20
186.8171673744
 30
0.0
 10
190.537317832
 20
186.728101763
 30
0.0
 10
190.7223830383
 20
186.6547086745
 30
0.0
 10
190.9646476497
 20
186.5934108647
 30
0.0
 10
191.2634875684
 20
186.5710225314
 30
0.0
 10
191.5617613918
 20
186.6003671918
 30
0.0
 10
191.8505022905
 20
186.6806010498
 30
0.0
 10
192.1210428498
 20
186.8092781067
 30
0.0
 10
192.3247507944
 20
186.9538343316
 30
0.0
 10
192.4707373528
 20
187.0890324938
 30
0.0
 10
192.6044605594
 20
187.2362916546
 30
0.0
 10
192.7468891747
 20
187.4412302568
 30
0.0
 10
192.8517547359
 20
187.6676600094
 30
0.0
 10
192.9111977195
 20
187.8573835741
 30
0.0
 10
192.9539953428
 20
188.0514572369
 30
0.0
 10
192.966987752
 20
188.2007685519
 30
0.0
 10
192.966987752
 20
188.2999957832
 30
0.0
  0
SPLINE
  5
4D6
100
AcDbEntity
  8
0
100
AcDbSpline
 62
7
  6
CONTINUOUS
 70
0
 71
3
 72
15
 73
11
 74
0
 42
0.0000001
 43
0.0000001
 44
0.0000000001
 40
0.0
 40
0.0
 40
0.0
 40
0.0
 40
0.1248854789
 40
0.2497884033
 40
0.3747235564
 40
0.4997008062
 40
0.6247236056
 40
0.7497884728
 40
0.8748855295
 40
1.0
 40
1.0
 40
1.0
 40
1.0
 10
187.0459351145
 20
183.0335260795
 30
0.0
 10
187.0459351145
 20
182.8790482004
 30
0.0
 10
187.07647477
 20
182.5692116808
 30
0.0
 10
187.2121378061
 20
182.1230045782
 30
0.0
 10
187.4324348907
 20
181.7116164876
 30
0.0
 10
187.728897023
 20
181.3510907481
 30
0.0
 10
188.0901080253
 20
181.0552160365
 30
0.0
 10
188.5022453263
 20
180.8353727166
 30
0.0
 10
188.9492396441
 20
180.6999972345
 30
0.0
 10
189.2595950378
 20
180.6695247162
 30
0.0
 10
189.4143561695
 20
180.6695247162
 30
0.0
  0
SPLINE
  5
4D7
100
AcDbEntity
  8
BEZUGSACHSEN
100
AcDbSpline
 62
7
  6
CONTINUOUS
 70
0
 71
3
 72
19
 73
15
 74
0
 42
0.0000001
 43
0.0000001
 44
0.0000000001
 40
0.0
 40
0.0
 40
0.0
 40
0.0
 40
0.193926658
 40
0.3804081925
 40
0.5523765509
 40
0.7034560564
 40
0.7693919449
 40
0.8280899396
 40
0.8789764871
 40
0.9215489178
 40
0.9553335539
 40
0.9799208923
 40
0.9949226391
 40
1.0
 40
1.0
 40
1.0
 40
1.0
 10
194.2096038021
 20
205.5150594236
 30
0.0
 10
194.4391415126
 20
205.5064812782
 30
0.0
 10
194.889742654
 20
205.4975750207
 30
0.0
 10
195.5440673584
 20
205.5079913678
 30
0.0
 10
196.1468725452
 20
205.5400710073
 30
0.0
 10
196.6057894613
 20
205.5825731609
 30
0.0
 10
196.9298079403
 20
205.6235088897
 30
0.0
 10
197.1354558548
 20
205.6541304792
 30
0.0
 10
197.3130540163
 20
205.6848820108
 30
0.0
 10
197.4609032875
 20
205.7142130277
 30
0.0
 10
197.5775376833
 20
205.7405949665
 30
0.0
 10
197.6617447252
 20
205.7621294109
 30
0.0
 10
197.7126073039
 20
205.7767409295
 30
0.0
 10
197.735232475
 20
205.7840717982
 30
0.0
 10
197.7409351395
 20
205.7859833826
 30
0.0
  0
SPLINE
  5
4D8
100
AcDbEntity
  8
0
100
AcDbSpline
 62
7
  6
CONTINUOUS
 70
0
 71
3
 72
17
 73
13
 74
0
 42
0.0000001
 43
0.0000001
 44
0.0000000001
 40
0.0
 40
0.0
 40
0.0
 40
0.0
 40
0.1250764912
 40
0.1876832196
 40
0.2502837036
 40
0.3753113337
 40
0.5002974203
 40
0.5628476223
 40
0.6253866524
 40
0.7502855615
 40
0.8751519
 40
1.0
 40
1.0
 40
1.0
 40
1.0
 10
189.4143561695
 20
184.2155267611
 30
0.0
 10
189.3376097315
 20
184.2155267611
 30
0.0
 10
189.2220409935
 20
184.2042583866
 30
0.0
 10
189.0728165306
 20
184.1672457566
 30
0.0
 10
188.9278592673
 20
184.1159550863
 30
0.0
 10
188.757104214
 20
184.025778122
 30
0.0
 10
188.6070661324
 20
183.9042526504
 30
0.0
 10
188.503001009
 20
183.7911976147
 30
0.0
 10
188.4104343713
 20
183.6686252659
 30
0.0
 10
188.3178142759
 20
183.4993407194
 30
0.0
 10
188.2482462656
 20
183.2788318905
 30
0.0
 10
188.2312354361
 20
183.1253901603
 30
0.0
 10
188.230244411
 20
183.0487902727
 30
0.0
  0
SPLINE
  5
4D9
100
AcDbEntity
  8
0
100
AcDbSpline
 62
7
  6
CONTINUOUS
 70
0
 71
3
 72
27
 73
23
 74
0
 42
0.0000001
 43
0.0000001
 44
0.0000000001
 40
0.0
 40
0.0
 40
0.0
 40
0.0
 40
0.0624425318
 40
0.0936996309
 40
0.1249615475
 40
0.1874418046
 40
0.2499417392
 40
0.2812276336
 40
0.3125172974
 40
0.3750468002
 40
0.4375826856
 40
0.5001181024
 40
0.5626462553
 40
0.6251612101
 40
0.6876585978
 40
0.7189292139
 40
0.750194778
 40
0.8126525389
 40
0.8750929497
 40
0.9063373731
 40
0.9375792785
 40
1.0
 40
1.0
 40
1.0
 40
1.0
 10
189.6361332576
 20
187.6934546163
 30
0.0
 10
189.6720665247
 20
187.6009250232
 30
0.0
 10
189.7382499938
 20
187.4663897061
 30
0.0
 10
189.8484221732
 20
187.3008825989
 30
0.0
 10
189.9725474641
 20
187.1454247363
 30
0.0
 10
190.1523118255
 20
186.9721339639
 30
0.0
 10
190.35931248
 20
186.832433141
 30
0.0
 10
190.5373178246
 20
186.7433675205
 30
0.0
 10
190.7223830583
 20
186.6699745026
 30
0.0
 10
190.9646476416
 20
186.6086766128
 30
0.0
 10
191.2634875718
 20
186.5862882735
 30
0.0
 10
191.5617613796
 20
186.6156330313
 30
0.0
 10
191.850502299
 20
186.6958667929
 30
0.0
 10
192.1210428668
 20
186.8245438595
 30
0.0
 10
192.3247507562
 20
186.9691001489
 30
0.0
 10
192.4707373658
 20
187.1042982551
 30
0.0
 10
192.6044605667
 20
187.2515574235
 30
0.0
 10
192.7468891851
 20
187.4564960256
 30
0.0
 10
192.8517547133
 20
187.6829257919
 30
0.0
 10
192.9111977242
 20
187.8726493472
 30
0.0
 10
192.9539953449
 20
188.0667230112
 30
0.0
 10
192.966987752
 20
188.2160343259
 30
0.0
 10
192.966987752
 20
188.3152615575
 30
0.0
  0
SPLINE
  5
4DA
100
AcDbEntity
  8
0
100
AcDbSpline
 62
7
  6
CONTINUOUS
 70
0
 71
3
 72
15
 73
11
 74
0
 42
0.0000001
 43
0.0000001
 44
0.0000000001
 40
0.0
 40
0.0
 40
0.0
 40
0.0
 40
0.1251144713
 40
0.2502115264
 40
0.3752763939
 40
0.5002991938
 40
0.6252764442
 40
0.7502115976
 40
0.8751145217
 40
1.0
 40
1.0
 40
1.0
 40
1.0
 10
190.7959351183
 20
174.6544545808
 30
0.0
 10
190.937799491
 20
174.6544545808
 30
0.0
 10
191.2222919365
 20
174.6823877164
 30
0.0
 10
191.6320367328
 20
174.8064819005
 30
0.0
 10
192.0098292656
 20
175.0080049357
 30
0.0
 10
192.3409393574
 20
175.2792234219
 30
0.0
 10
192.6126963125
 20
175.6097053561
 30
0.0
 10
192.8146353
 20
175.986811114
 30
0.0
 10
192.9389930725
 20
176.3958342971
 30
0.0
 10
192.966987752
 20
176.6798511076
 30
0.0
 10
192.966987752
 20
176.8214558305
 30
0.0
  0
SPLINE
  5
4DB
100
AcDbEntity
  8
0
100
AcDbSpline
 62
7
  6
CONTINUOUS
 70
0
 71
3
 72
15
 73
11
 74
0
 42
0.0000001
 43
0.0000001
 44
0.0000000001
 40
0.0
 40
0.0
 40
0.0
 40
0.0
 40
0.1248855859
 40
0.2497886849
 40
0.3747242066
 40
0.4997017889
 40
0.624724717
 40
0.7497894341
 40
0.874886081
 40
1.0
 40
1.0
 40
1.0
 40
1.0
 10
187.0459889938
 20
176.8214573086
 30
0.0
 10
187.0469841306
 20
176.680488361
 30
0.0
 10
187.0767219925
 20
176.3979494378
 30
0.0
 10
187.202849653
 20
175.9914909388
 30
0.0
 10
187.4056933107
 20
175.6170694326
 30
0.0
 10
187.6775234793
 20
175.2891564438
 30
0.0
 10
188.0079664045
 20
175.0201812112
 30
0.0
 10
188.3844895999
 20
174.8203972214
 30
0.0
 10
188.7925436361
 20
174.6974027573
 30
0.0
 10
189.0757575429
 20
174.6697203551
 30
0.0
 10
189.2169877483
 20
174.6697203551
 30
0.0
  0
SPLINE
  5
4DC
100
AcDbEntity
  8
0
100
AcDbSpline
 62
7
  6
CONTINUOUS
 70
0
 71
3
 72
15
 73
11
 74
0
 42
0.0000001
 43
0.0000001
 44
0.0000000001
 40
0.0
 40
0.0
 40
0.0
 40
0.0
 40
0.1248854783
 40
0.2497884022
 40
0.3747235555
 40
0.4997008059
 40
0.6247236057
 40
0.7497884733
 40
0.8748855116
 40
1.0
 40
1.0
 40
1.0
 40
1.0
 10
188.230145642
 20
183.0487918538
 30
0.0
 10
188.230145642
 20
183.1260307923
 30
0.0
 10
188.2454155141
 20
183.2809490458
 30
0.0
 10
188.3132469973
 20
183.5040525981
 30
0.0
 10
188.4233955115
 20
183.7097466646
 30
0.0
 10
188.5716266253
 20
183.8900094902
 30
0.0
 10
188.7522320825
 20
184.0379468948
 30
0.0
 10
188.9583007454
 20
184.1478685171
 30
0.0
 10
189.1817979004
 20
184.215556242
 30
0.0
 10
189.3369755932
 20
184.2307925354
 30
0.0
 10
189.4143561695
 20
184.2307925354
 30
0.0
  0
SPLINE
  5
4DD
100
AcDbEntity
  8
RUNDUNGEN
100
AcDbSpline
 62
7
  6
CONTINUOUS
 70
0
 71
3
 72
31
 73
27
 74
0
 42
0.0000001
 43
0.0000001
 44
0.0000000001
 40
0.0
 40
0.0
 40
0.0
 40
0.0
 40
0.1946012017
 40
0.2895765425
 40
0.3817761693
 40
0.4703123005
 40
0.554332587
 40
0.6330283779
 40
0.7056425916
 40
0.7714771533
 40
0.8298999836
 40
0.8803515191
 40
0.9024346895
 40
0.9223513167
 40
0.9400547662
 40
0.9555043388
 40
0.9686657883
 40
0.979512283
 40
0.984061771
 40
0.9880271171
 40
0.9914087333
 40
0.9942090708
 40
0.9964344897
 40
0.9981000497
 40
0.999245421
 40
1.0
 40
1.0
 40
1.0
 40
1.0
 10
280.4205764857
 20
154.566688763
 30
0.0
 10
280.6947344432
 20
154.5597192893
 30
0.0
 10
281.1026688382
 20
154.5482477765
 30
0.0
 10
281.6404147713
 20
154.5308285632
 30
0.0
 10
282.0287251046
 20
154.5170897537
 30
0.0
 10
282.4015624062
 20
154.5027061925
 30
0.0
 10
282.7553334247
 20
154.4878180287
 30
0.0
 10
283.0866287857
 20
154.472571967
 30
0.0
 10
283.3922558782
 20
154.4571188954
 30
0.0
 10
283.6692703072
 20
154.4416160688
 30
0.0
 10
283.9150032195
 20
154.4262192055
 30
0.0
 10
284.0990955724
 20
154.4131044323
 30
0.0
 10
284.2289641393
 20
154.4026307053
 30
0.0
 10
284.3127788891
 20
154.3952484467
 30
0.0
 10
284.3872183825
 20
154.3880067022
 30
0.0
 10
284.4521054847
 20
154.3809288919
 30
0.0
 10
284.5072853711
 20
154.374035724
 30
0.0
 10
284.5471093054
 20
154.3681855999
 30
0.0
 10
284.5739914551
 20
154.3635015588
 30
0.0
 10
284.5904410846
 20
154.3602547395
 30
0.0
 10
284.6043867414
 20
154.3570753685
 30
0.0
 10
284.6158211923
 20
154.3539560999
 30
0.0
 10
284.6247672564
 20
154.3509448032
 30
0.0
 10
284.6312286932
 20
154.3479541993
 30
0.0
 10
284.6354332212
 20
154.3451653129
 30
0.0
 10
284.6368733158
 20
154.3426068541
 30
0.0
 10
284.6368733158
 20
154.3415434451
 30
0.0
  0
SPLINE
  5
4DE
100
AcDbEntity
  8
BEZUGSACHSEN
100
AcDbSpline
 62
7
  6
CONTINUOUS
 70
0
 71
3
 72
31
 73
27
 74
0
 42
0.0000001
 43
0.0000001
 44
0.0000000001
 40
0.0
 40
0.0
 40
0.0
 40
0.0
 40
0.1946012017
 40
0.2895765425
 40
0.3817761693
 40
0.4703123005
 40
0.554332587
 40
0.6330283779
 40
0.7056425916
 40
0.7714771533
 40
0.8298999836
 40
0.8803515191
 40
0.9024346895
 40
0.9223513167
 40
0.9400547662
 40
0.9555043388
 40
0.9686657883
 40
0.979512283
 40
0.984061771
 40
0.9880271171
 40
0.9914087333
 40
0.9942090708
 40
0.9964344897
 40
0.9981000497
 40
0.999245421
 40
1.0
 40
1.0
 40
1.0
 40
1.0
 10
268.8531701459
 20
154.566688763
 30
0.0
 10
268.5790121885
 20
154.5597192893
 30
0.0
 10
268.1710777934
 20
154.5482477765
 30
0.0
 10
267.6333318603
 20
154.5308285632
 30
0.0
 10
267.2450215271
 20
154.5170897537
 30
0.0
 10
266.8721842254
 20
154.5027061925
 30
0.0
 10
266.5184132069
 20
154.4878180287
 30
0.0
 10
266.187117846
 20
154.472571967
 30
0.0
 10
265.8814907534
 20
154.4571188954
 30
0.0
 10
265.6044763245
 20
154.4416160688
 30
0.0
 10
265.3587434122
 20
154.4262192055
 30
0.0
 10
265.1746510592
 20
154.4131044323
 30
0.0
 10
265.0447824923
 20
154.4026307053
 30
0.0
 10
264.9609677426
 20
154.3952484467
 30
0.0
 10
264.8865282491
 20
154.3880067022
 30
0.0
 10
264.8216411469
 20
154.3809288919
 30
0.0
 10
264.7664612605
 20
154.374035724
 30
0.0
 10
264.7266373263
 20
154.3681855999
 30
0.0
 10
264.6997551765
 20
154.3635015588
 30
0.0
 10
264.6833055471
 20
154.3602547395
 30
0.0
 10
264.6693598903
 20
154.3570753685
 30
0.0
 10
264.6579254393
 20
154.3539560999
 30
0.0
 10
264.6489793753
 20
154.3509448032
 30
0.0
 10
264.6425179385
 20
154.3479541993
 30
0.0
 10
264.6383134104
 20
154.3451653129
 30
0.0
 10
264.6368733158
 20
154.3426068541
 30
0.0
 10
264.6368733158
 20
154.3415434451
 30
0.0
  0
SPLINE
  5
4DF
100
AcDbEntity
  8
RUNDUNGEN
100
AcDbSpline
 62
7
  6
CONTINUOUS
 70
0
 71
3
 72
31
 73
27
 74
0
 42
0.0000001
 43
0.0000001
 44
0.0000000001
 40
0.0
 40
0.0
 40
0.0
 40
0.0
 40
0.0008957077
 40
0.0020361305
 40
0.0036358396
 40
0.0057736061
 40
0.0084802196
 40
0.0117693678
 40
0.0156475865
 40
0.0201179733
 40
0.030834961
 40
0.0439013634
 40
0.0592854888
 40
0.0769519771
 40
0.0968602084
 40
0.1189549853
 40
0.1694660093
 40
0.2279825013
 40
0.2939076196
 40
0.3666018795
 40
0.4453519032
 40
0.5294117589
 40
0.6179742781
 40
0.7102087881
 40
0.8052355538
 40
1.0
 40
1.0
 40
1.0
 40
1.0
 10
281.5230440789
 20
205.5150594236
 30
0.0
 10
281.5231085733
 20
205.5140052933
 30
0.0
 10
281.5222920003
 20
205.5115217868
 30
0.0
 10
281.518729603
 20
205.5088964476
 30
0.0
 10
281.513389458
 20
205.5067443566
 30
0.0
 10
281.5059767127
 20
205.5049626008
 30
0.0
 10
281.4964896496
 20
205.5035393743
 30
0.0
 10
281.4848892388
 20
205.502486015
 30
0.0
 10
281.4711820888
 20
205.5018069738
 30
0.0
 10
281.4487035549
 20
205.5013847969
 30
0.0
 10
281.4153865178
 20
205.5019706324
 30
0.0
 10
281.3692507732
 20
205.5040861273
 30
0.0
 10
281.3149900367
 20
205.5076560581
 30
0.0
 10
281.2527464095
 20
205.5126492957
 30
0.0
 10
281.1826812523
 20
205.519034674
 30
0.0
 10
281.0741329838
 20
205.5298048526
 30
0.0
 10
280.9204292275
 20
205.5464722178
 30
0.0
 10
280.7154923022
 20
205.5699857653
 30
0.0
 10
280.4846257535
 20
205.5969584653
 30
0.0
 10
280.2300374251
 20
205.6264761329
 30
0.0
 10
279.9540825075
 20
205.6573516158
 30
0.0
 10
279.6593213793
 20
205.6883732652
 30
0.0
 10
279.3484431379
 20
205.718029508
 30
0.0
 10
279.024313984
 20
205.7447961683
 30
0.0
 10
278.5748503726
 20
205.7743168951
 30
0.0
 10
278.2331363481
 20
205.7859833826
 30
0.0
 10
278.0034955815
 20
205.7859833826
 30
0.0
  0
SPLINE
  5
4E0
100
AcDbEntity
  8
BEZUGSACHSEN
100
AcDbSpline
 62
7
  6
CONTINUOUS
 70
0
 71
3
 72
31
 73
27
 74
0
 42
0.0000001
 43
0.0000001
 44
0.0000000001
 40
0.0
 40
0.0
 40
0.0
 40
0.0
 40
0.0008957077
 40
0.0020361305
 40
0.0036358396
 40
0.0057736061
 40
0.0084802196
 40
0.0117693678
 40
0.0156475865
 40
0.0201179733
 40
0.030834961
 40
0.0439013634
 40
0.0592854888
 40
0.0769519771
 40
0.0968602084
 40
0.1189549853
 40
0.1694660093
 40
0.2279825013
 40
0.2939076196
 40
0.3666018795
 40
0.4453519032
 40
0.5294117589
 40
0.6179742781
 40
0.7102087881
 40
0.8052355538
 40
1.0
 40
1.0
 40
1.0
 40
1.0
 10
267.7507025527
 20
205.5150594236
 30
0.0
 10
267.7506380583
 20
205.5140052933
 30
0.0
 10
267.7514546313
 20
205.5115217868
 30
0.0
 10
267.7550170286
 20
205.5088964476
 30
0.0
 10
267.7603571736
 20
205.5067443566
 30
0.0
 10
267.7677699189
 20
205.5049626008
 30
0.0
 10
267.777256982
 20
205.5035393743
 30
0.0
 10
267.7888573928
 20
205.502486015
 30
0.0
 10
267.8025645428
 20
205.5018069738
 30
0.0
 10
267.8250430768
 20
205.5013847969
 30
0.0
 10
267.8583601139
 20
205.5019706324
 30
0.0
 10
267.9044958584
 20
205.5040861273
 30
0.0
 10
267.9587565949
 20
205.5076560581
 30
0.0
 10
268.0210002222
 20
205.5126492957
 30
0.0
 10
268.0910653794
 20
205.519034674
 30
0.0
 10
268.1996136478
 20
205.5298048526
 30
0.0
 10
268.3533174041
 20
205.5464722178
 30
0.0
 10
268.5582543295
 20
205.5699857653
 30
0.0
 10
268.7891208782
 20
205.5969584653
 30
0.0
 10
269.0437092065
 20
205.6264761329
 30
0.0
 10
269.3196641242
 20
205.6573516158
 30
0.0
 10
269.6144252523
 20
205.6883732652
 30
0.0
 10
269.9253034937
 20
205.718029508
 30
0.0
 10
270.2494326477
 20
205.7447961683
 30
0.0
 10
270.698896259
 20
205.7743168951
 30
0.0
 10
271.0406102836
 20
205.7859833826
 30
0.0
 10
271.2702510502
 20
205.7859833826
 30
0.0
  0
SPLINE
  5
4E1
100
AcDbEntity
  8
KONSTRUKTIONSELEMENTE
100
AcDbSpline
 62
7
  6
CONTINUOUS
 70
0
 71
3
 72
9
 73
5
 74
0
 42
0.0000001
 43
0.0000001
 44
0.0000000001
 40
0.0
 40
0.0
 40
0.0
 40
0.0
 40
0.2478355052
 40
1.0
 40
1.0
 40
1.0
 40
1.0
 10
140.9909351145
 20
60.738450902
 30
0.0
 10
140.9909351145
 20
60.7842916178
 30
0.0
 10
140.9967553503
 20
60.9692235053
 30
0.0
 10
141.0257387887
 20
61.1533181431
 30
0.0
 10
141.0593184348
 20
61.2883284149
 30
0.0
  0
SPLINE
  5
4E2
100
AcDbEntity
  8
KONSTRUKTIONSELEMENTE
100
AcDbSpline
 62
7
  6
CONTINUOUS
 70
0
 71
3
 72
11
 73
7
 74
0
 42
0.0000001
 43
0.0000001
 44
0.0000000001
 40
0.0
 40
0.0
 40
0.0
 40
0.0
 40
0.2328475053
 40
0.4790104419
 40
0.736369599
 40
1.0
 40
1.0
 40
1.0
 40
1.0
 10
141.0593184348
 20
61.2883284149
 30
0.0
 10
141.1322366627
 20
61.5815033271
 30
0.0
 10
141.3993222831
 20
62.1594632103
 30
0.0
 10
142.0735233952
 20
62.8585851094
 30
0.0
 10
142.9677942602
 20
63.332025476
 30
0.0
 10
143.6488890574
 20
63.4441021938
 30
0.0
 10
143.9909351145
 20
63.4441021938
 30
0.0
  0
SPLINE
  5
4E3
100
AcDbEntity
  8
0
100
AcDbSpline
 62
7
  6
CONTINUOUS
 70
0
 71
3
 72
11
 73
7
 74
0
 42
0.0000001
 43
0.0000001
 44
0.0000000001
 40
0.0
 40
0.0
 40
0.0
 40
0.0
 40
0.2213691606
 40
0.4614034253
 40
0.7236011299
 40
1.0
 40
1.0
 40
1.0
 40
1.0
 10
159.0509389344
 20
88.8978465392
 30
0.0
 10
159.0509411869
 20
88.8002226246
 30
0.0
 10
159.1053252494
 20
88.5944064339
 30
0.0
 10
159.3201381723
 20
88.3467703391
 30
0.0
 10
159.6296318586
 20
88.1832330784
 30
0.0
 10
159.8690430694
 20
88.1454397417
 30
0.0
 10
159.9909351145
 20
88.1454397417
 30
0.0
  0
SPLINE
  5
4E4
100
AcDbEntity
  8
0
100
AcDbSpline
 62
7
  6
CONTINUOUS
 70
0
 71
3
 72
11
 73
7
 74
0
 42
0.0000001
 43
0.0000001
 44
0.0000000001
 40
0.0
 40
0.0
 40
0.0
 40
0.0
 40
0.2292393678
 40
0.4669809338
 40
0.7232673998
 40
1.0
 40
1.0
 40
1.0
 40
1.0
 10
157.3009408281
 20
88.8978948522
 30
0.0
 10
157.3009451294
 20
89.0677321917
 30
0.0
 10
157.368915284
 20
89.4174370462
 30
0.0
 10
157.6678450139
 20
89.8757941032
 30
0.0
 10
158.1252040741
 20
90.2317016781
 30
0.0
 10
158.4950285459
 20
90.3832007075
 30
0.0
 10
158.6922403551
 20
90.4392566168
 30
0.0
  0
SPLINE
  5
4E5
100
AcDbEntity
  8
KONSTRUKTIONSELEMENTE
100
AcDbSpline
 62
7
  6
CONTINUOUS
 70
0
 71
3
 72
11
 73
7
 74
0
 42
0.0000001
 43
0.0000001
 44
0.0000000001
 40
0.0
 40
0.0
 40
0.0
 40
0.0
 40
0.2612694391
 40
0.5171455262
 40
0.7638495196
 40
1.0
 40
1.0
 40
1.0
 40
1.0
 10
142.9909351145
 20
84.3973863558
 30
0.0
 10
142.7769183767
 20
84.3973863558
 30
0.0
 10
142.35043971
 20
84.4631033943
 30
0.0
 10
141.7809610705
 20
84.7441486055
 30
0.0
 10
141.3358331145
 20
85.1673402716
 30
0.0
 10
141.1429310216
 20
85.5218562773
 30
0.0
 10
141.0803114287
 20
85.7048811641
 30
0.0
  0
SPLINE
  5
4E6
100
AcDbEntity
  8
KONSTRUKTIONSELEMENTE
100
AcDbSpline
 62
7
  6
CONTINUOUS
 70
0
 71
3
 72
9
 73
5
 74
0
 42
0.0000001
 43
0.0000001
 44
0.0000000001
 40
0.0
 40
0.0
 40
0.0
 40
0.0
 40
0.2532357889
 40
1.0
 40
1.0
 40
1.0
 40
1.0
 10
141.0803114287
 20
85.7048811641
 30
0.0
 10
141.0656144633
 20
85.7478375345
 30
0.0
 10
141.0142837016
 20
85.9196721429
 30
0.0
 10
140.9909351145
 20
86.0999916243
 30
0.0
 10
140.9909351145
 20
86.2338741219
 30
0.0
  0
SPLINE
  5
4E7
100
AcDbEntity
  8
KONSTRUKTIONSELEMENTE
100
AcDbSpline
 62
7
  6
CONTINUOUS
 70
0
 71
3
 72
11
 73
7
 74
0
 42
0.0000001
 43
0.0000001
 44
0.0000000001
 40
0.0
 40
0.0
 40
0.0
 40
0.0
 40
0.23262531
 40
0.477248899
 40
0.7345962704
 40
1.0
 40
1.0
 40
1.0
 40
1.0
 10
164.4909351145
 20
86.2338741219
 30
0.0
 10
164.4909351145
 20
86.0022568044
 30
0.0
 10
164.381873375
 20
85.5224572438
 30
0.0
 10
163.9405715821
 20
84.9171461334
 30
0.0
 10
163.2810638885
 20
84.4978800764
 30
0.0
 10
162.755188819
 20
84.3973863558
 30
0.0
 10
162.4909351145
 20
84.3973863558
 30
0.0
  0
SPLINE
  5
4E8
100
AcDbEntity
  8
KONSTRUKTIONSELEMENTE
100
AcDbSpline
 62
7
  6
CONTINUOUS
 70
0
 71
3
 72
13
 73
9
 74
0
 42
0.0000001
 43
0.0000001
 44
0.0000000001
 40
0.0
 40
0.0
 40
0.0
 40
0.0
 40
0.1344052195
 40
0.2677281253
 40
0.5258845237
 40
0.769776839
 40
0.8864740627
 40
1.0
 40
1.0
 40
1.0
 40
1.0
 10
161.4909351145
 20
63.4441021938
 30
0.0
 10
161.6902338937
 20
63.4441021938
 30
0.0
 10
162.0883712733
 20
63.4061204591
 30
0.0
 10
162.8404328134
 20
63.1866104389
 30
0.0
 10
163.6583080247
 20
62.6745324682
 30
0.0
 10
164.2199713126
 20
61.9179149827
 30
0.0
 10
164.4510014883
 20
61.2493021032
 30
0.0
 10
164.4909351145
 20
60.906789459
 30
0.0
 10
164.4909351145
 20
60.738450902
 30
0.0
  0
SPLINE
  5
4E9
100
AcDbEntity
  8
0
100
AcDbSpline
 62
7
  6
CONTINUOUS
 70
0
 71
3
 72
10
 73
6
 74
0
 42
0.0000001
 43
0.0000001
 44
0.0000000001
 40
0.0
 40
0.0
 40
0.0
 40
0.0
 40
0.4806283223
 40
0.733701777
 40
1.0
 40
1.0
 40
1.0
 40
1.0
 10
152.2215866719
 20
59.5459912429
 30
0.0
 10
152.2215866719
 20
59.6406927602
 30
0.0
 10
152.1964605393
 20
59.7887909141
 30
0.0
 10
152.0935167125
 20
59.9591562467
 30
0.0
 10
152.0188369423
 20
60.0309768005
 30
0.0
 10
151.9771874519
 20
60.0628904572
 30
0.0
  0
SPLINE
  5
4EA
100
AcDbEntity
  8
0
100
AcDbSpline
 62
7
  6
CONTINUOUS
 70
0
 71
3
 72
9
 73
5
 74
0
 42
0.0000001
 43
0.0000001
 44
0.0000000001
 40
0.0
 40
0.0
 40
0.0
 40
0.0
 40
0.488548069
 40
1.0
 40
1.0
 40
1.0
 40
1.0
 10
151.9771874519
 20
60.0628904572
 30
0.0
 10
151.8968585627
 20
60.1244419569
 30
0.0
 10
151.7100932295
 20
60.2246156744
 30
0.0
 10
151.5006461758
 20
60.2526493458
 30
0.0
 10
151.3947024022
 20
60.2526493458
 30
0.0
  0
SPLINE
  5
4EB
100
AcDbEntity
  8
0
100
AcDbSpline
 62
7
  6
CONTINUOUS
 70
0
 71
3
 72
11
 73
7
 74
0
 42
0.0000001
 43
0.0000001
 44
0.0000000001
 40
0.0
 40
0.0
 40
0.0
 40
0.0
 40
0.2432895987
 40
0.4870080816
 40
0.7371632309
 40
1.0
 40
1.0
 40
1.0
 40
1.0
 10
153.4435825025
 20
59.555880181
 30
0.0
 10
153.4435825025
 20
59.4515886316
 30
0.0
 10
153.4273683456
 20
59.2421742954
 30
0.0
 10
153.3379911869
 20
58.9361371978
 30
0.0
 10
153.1701184689
 20
58.654283251
 30
0.0
 10
153.0108254805
 20
58.4989728528
 30
0.0
 10
152.9221737334
 20
58.4294344058
 30
0.0
  0
SPLINE
  5
4EC
100
AcDbEntity
  8
0
100
AcDbSpline
 62
7
  6
CONTINUOUS
 70
0
 71
3
 72
11
 73
7
 74
0
 42
0.0000001
 43
0.0000001
 44
0.0000000001
 40
0.0
 40
0.0
 40
0.0
 40
0.0
 40
0.2363652549
 40
0.4846583344
 40
0.740755513
 40
1.0
 40
1.0
 40
1.0
 40
1.0
 10
152.9221737334
 20
58.4294344058
 30
0.0
 10
152.8299110209
 20
58.3570635168
 30
0.0
 10
152.6233496467
 20
58.2297288708
 30
0.0
 10
152.2756896495
 20
58.1043492233
 30
0.0
 10
151.9014696826
 20
58.0371233385
 30
0.0
 10
151.6455129393
 20
58.0246555046
 30
0.0
 10
151.5169024144
 20
58.0246555046
 30
0.0
  0
SPLINE
  5
4ED
100
AcDbEntity
  8
0
100
AcDbSpline
 62
7
  6
CONTINUOUS
 70
0
 71
3
 72
12
 73
8
 74
0
 42
0.0000001
 43
0.0000001
 44
0.0000000001
 40
0.0
 40
0.0
 40
0.0
 40
0.0
 40
0.1082723402
 40
0.2202527577
 40
0.4598461946
 40
0.7227277903
 40
1.0
 40
1.0
 40
1.0
 40
1.0
 10
143.6759351145
 20
89.3815105123
 30
0.0
 10
143.6760997125
 20
89.3024124752
 30
0.0
 10
143.6975194185
 20
89.1408839717
 30
0.0
 10
143.8220287469
 20
88.8258940041
 30
0.0
 10
144.1268855062
 20
88.4774033219
 30
0.0
 10
144.6406403253
 20
88.2084217062
 30
0.0
 10
145.0383722886
 20
88.1454397417
 30
0.0
 10
145.2409331177
 20
88.1454397417
 30
0.0
  0
SPLINE
  5
4EE
100
AcDbEntity
  8
0
100
AcDbSpline
 62
7
  6
CONTINUOUS
 70
0
 71
3
 72
13
 73
9
 74
0
 42
0.0000001
 43
0.0000001
 44
0.0000000001
 40
0.0
 40
0.0
 40
0.0
 40
0.0
 40
0.1044238596
 40
0.2106863242
 40
0.3226402567
 40
0.4428428124
 40
0.7090320338
 40
1.0
 40
1.0
 40
1.0
 40
1.0
 10
142.1759351145
 20
90.813231518
 30
0.0
 10
142.1759351145
 20
90.9401708283
 30
0.0
 10
142.211942233
 20
91.1978104317
 30
0.0
 10
142.3744433861
 20
91.5598951575
 30
0.0
 10
142.6358112539
 20
91.8828345305
 30
0.0
 10
143.1147527752
 20
92.2603589518
 30
0.0
 10
143.8923798098
 20
92.5748108619
 30
0.0
 10
144.572229811
 20
92.6549822887
 30
0.0
 10
144.9259351145
 20
92.6549822887
 30
0.0
  0
SPLINE
  5
4EF
100
AcDbEntity
  8
0
100
AcDbSpline
 62
7
  6
CONTINUOUS
 70
0
 71
3
 72
21
 73
17
 74
0
 42
0.0000001
 43
0.0000001
 44
0.0000000001
 40
0.0
 40
0.0
 40
0.0
 40
0.0
 40
0.0525250857
 40
0.105830335
 40
0.1618361953
 40
0.2218488414
 40
0.2863435894
 40
0.3549887789
 40
0.4999999978
 40
0.6450112175
 40
0.7136564054
 40
0.7781511564
 40
0.8381637996
 40
0.8941696618
 40
0.9474749092
 40
1.0
 40
1.0
 40
1.0
 40
1.0
 10
149.8009351145
 20
90.6347225798
 30
0.0
 10
149.8009351145
 20
90.7744767478
 30
0.0
 10
149.8400425379
 20
91.0577278925
 30
0.0
 10
150.0171538673
 20
91.4558247216
 30
0.0
 10
150.3023406607
 20
91.8103278957
 30
0.0
 10
150.6814150952
 20
92.1106251419
 30
0.0
 10
151.138816191
 20
92.3504861338
 30
0.0
 10
151.8425777478
 20
92.5872902002
 30
0.0
 10
152.8009350999
 20
92.7009204622
 30
0.0
 10
153.7592924433
 20
92.5872901994
 30
0.0
 10
154.4630540147
 20
92.3504861531
 30
0.0
 10
154.9204551008
 20
92.1106251522
 30
0.0
 10
155.2995295543
 20
91.8103279217
 30
0.0
 10
155.5847163388
 20
91.4558247493
 30
0.0
 10
155.7618276878
 20
91.057727916
 30
0.0
 10
155.8009351145
 20
90.7744767614
 30
0.0
 10
155.8009351145
 20
90.6347225798
 30
0.0
  0
SPLINE
  5
4F0
100
AcDbEntity
  8
0
100
AcDbSpline
 62
7
  6
CONTINUOUS
 70
0
 71
3
 72
9
 73
5
 74
0
 42
0.0000001
 43
0.0000001
 44
0.0000000001
 40
0.0
 40
0.0
 40
0.0
 40
0.0
 40
0.4684879234
 40
1.0
 40
1.0
 40
1.0
 40
1.0
 10
159.6876864605
 20
90.9934134893
 30
0.0
 10
159.8063879616
 20
90.8489117973
 30
0.0
 10
160.1554826016
 20
90.6196136416
 30
0.0
 10
160.5580562989
 20
90.5483840346
 30
0.0
 10
160.7702182152
 20
90.5483840346
 30
0.0
  0
SPLINE
  5
4F1
100
AcDbEntity
  8
KONSTRUKTIONSELEMENTE
100
AcDbSpline
 62
7
  6
CONTINUOUS
 70
0
 71
3
 72
10
 73
6
 74
0
 42
0.0000001
 43
0.0000001
 44
0.0000000001
 40
0.0
 40
0.0
 40
0.0
 40
0.0
 40
0.5102985197
 40
0.7593289353
 40
1.0
 40
1.0
 40
1.0
 40
1.0
 10
151.6309549485
 20
61.7499263101
 30
0.0
 10
151.8713062953
 20
61.7499263101
 30
0.0
 10
152.2347191789
 20
61.7030281055
 30
0.0
 10
152.6666757644
 20
61.5080662651
 30
0.0
 10
152.854217669
 20
61.3704967876
 30
0.0
 10
152.9384910737
 20
61.2946833868
 30
0.0
  0
SPLINE
  5
4F2
100
AcDbEntity
  8
0
100
AcDbSpline
 62
7
  6
CONTINUOUS
 70
0
 71
3
 72
10
 73
6
 74
0
 42
0.0000001
 43
0.0000001
 44
0.0000000001
 40
0.0
 40
0.0
 40
0.0
 40
0.0
 40
0.5105556495
 40
0.7595511692
 40
1.0
 40
1.0
 40
1.0
 40
1.0
 10
151.6309549485
 20
61.1690554481
 30
0.0
 10
151.8712168927
 20
61.1690554481
 30
0.0
 10
152.2343566739
 20
61.1225743772
 30
0.0
 10
152.6664300103
 20
60.9289411122
 30
0.0
 10
152.8541391624
 20
60.792157303
 30
0.0
 10
152.9384910737
 20
60.7167366966
 30
0.0
  0
SPLINE
  5
4F3
100
AcDbEntity
  8
KONSTRUKTIONSELEMENTE
100
AcDbSpline
 62
7
  6
CONTINUOUS
 70
0
 71
3
 72
11
 73
7
 74
0
 42
0.0000001
 43
0.0000001
 44
0.0000000001
 40
0.0
 40
0.0
 40
0.0
 40
0.0
 40
0.2642483043
 40
0.517218663
 40
0.7613654373
 40
1.0
 40
1.0
 40
1.0
 40
1.0
 10
152.9384910737
 20
61.2946833868
 30
0.0
 10
153.0242405799
 20
61.2175420669
 30
0.0
 10
153.1770840834
 20
61.0483669429
 30
0.0
 10
153.3382891986
 20
60.7543961695
 30
0.0
 10
153.426530633
 20
60.4431355599
 30
0.0
 10
153.4435825025
 20
60.231827362
 30
0.0
 10
153.4435825025
 20
60.1276655914
 30
0.0
  0
SPLINE
  5
4F4
100
AcDbEntity
  8
KONSTRUKTIONSELEMENTE
100
AcDbSpline
 62
7
  6
CONTINUOUS
 70
0
 71
3
 72
11
 73
7
 74
0
 42
0.0000001
 43
0.0000001
 44
0.0000000001
 40
0.0
 40
0.0
 40
0.0
 40
0.0
 40
0.269405808
 40
0.5293607201
 40
0.7733223336
 40
1.0
 40
1.0
 40
1.0
 40
1.0
 10
159.9909351145
 20
89.0565297952
 30
0.0
 10
159.8994746553
 20
89.0565297952
 30
0.0
 10
159.7190825387
 20
89.0366507127
 30
0.0
 10
159.4691976916
 20
88.9483716068
 30
0.0
 10
159.2613607068
 20
88.8075642779
 30
0.0
 10
159.1597820983
 20
88.6798593049
 30
0.0
 10
159.123404545
 20
88.612045592
 30
0.0
  0
SPLINE
  5
4F5
100
AcDbEntity
  8
0
100
AcDbSpline
 62
7
  6
CONTINUOUS
 70
0
 71
3
 72
11
 73
7
 74
0
 42
0.0000001
 43
0.0000001
 44
0.0000000001
 40
0.0
 40
0.0
 40
0.0
 40
0.0
 40
0.2644853043
 40
0.5174619496
 40
0.7614905614
 40
1.0
 40
1.0
 40
1.0
 40
1.0
 10
152.9384910737
 20
60.7167366966
 30
0.0
 10
153.0241903897
 20
60.6401113506
 30
0.0
 10
153.1769901691
 20
60.4720379424
 30
0.0
 10
153.3382714378
 20
60.1796270049
 30
0.0
 10
153.4265389368
 20
59.8698698775
 30
0.0
 10
153.4435825025
 20
59.6595496854
 30
0.0
 10
153.4435825025
 20
59.555880181
 30
0.0
  0
SPLINE
  5
4F6
100
AcDbEntity
  8
0
100
AcDbSpline
 62
7
  6
CONTINUOUS
 70
0
 71
3
 72
11
 73
7
 74
0
 42
0.0000001
 43
0.0000001
 44
0.0000000001
 40
0.0
 40
0.0
 40
0.0
 40
0.0
 40
0.2788887618
 40
0.5410427858
 40
0.7788747556
 40
1.0
 40
1.0
 40
1.0
 40
1.0
 10
159.9909351145
 20
89.6237419977
 30
0.0
 10
159.8694189829
 20
89.6237419977
 30
0.0
 10
159.632016628
 20
89.5892337749
 30
0.0
 10
159.3217805848
 20
89.4367233657
 30
0.0
 10
159.1042761215
 20
89.1970666766
 30
0.0
 10
159.0509367114
 20
88.9941942161
 30
0.0
 10
159.0509389344
 20
88.8978465392
 30
0.0
  0
SPLINE
  5
4F7
100
AcDbEntity
  8
KONSTRUKTIONSELEMENTE
100
AcDbSpline
 62
7
  6
CONTINUOUS
 70
0
 71
3
 72
12
 73
8
 74
0
 42
0.0000001
 43
0.0000001
 44
0.0000000001
 40
0.0
 40
0.0
 40
0.0
 40
0.0
 40
0.2739884023
 40
0.5356489559
 40
0.7768895202
 40
0.8903193971
 40
1.0
 40
1.0
 40
1.0
 40
1.0
 10
159.4909351145
 20
86.5249571999
 30
0.0
 10
159.2061032247
 20
86.5249571999
 30
0.0
 10
158.6444434927
 20
86.6195960743
 30
0.0
 10
157.9250131898
 20
87.0193031448
 30
0.0
 10
157.5030287351
 20
87.5269174541
 30
0.0
 10
157.3305106606
 20
87.9816670233
 30
0.0
 10
157.300941934
 20
88.2145052004
 30
0.0
 10
157.3009420196
 20
88.3285265719
 30
0.0
  0
SPLINE
  5
4F8
100
AcDbEntity
  8
0
100
AcDbSpline
 62
7
  6
CONTINUOUS
 70
0
 71
3
 72
12
 73
8
 74
0
 42
0.0000001
 43
0.0000001
 44
0.0000000001
 40
0.0
 40
0.0
 40
0.0
 40
0.0
 40
0.2743885905
 40
0.5362052864
 40
0.7772573941
 40
0.8905080206
 40
1.0
 40
1.0
 40
1.0
 40
1.0
 10
159.4909351145
 20
87.1030376476
 30
0.0
 10
159.2062441331
 20
87.1030376476
 30
0.0
 10
158.645146141
 20
87.1969003656
 30
0.0
 10
157.9256979154
 20
87.5938713288
 30
0.0
 10
157.5031600302
 20
88.0991820894
 30
0.0
 10
157.3305037225
 20
88.5522831915
 30
0.0
 10
157.300937951
 20
88.7842918084
 30
0.0
 10
157.3009408281
 20
88.8978948522
 30
0.0
  0
SPLINE
  5
4F9
100
AcDbEntity
  8
0
100
AcDbSpline
 62
7
  6
CONTINUOUS
 70
0
 71
3
 72
9
 73
5
 74
0
 42
0.0000001
 43
0.0000001
 44
0.0000000001
 40
0.0
 40
0.0
 40
0.0
 40
0.0
 40
0.259022682
 40
1.0
 40
1.0
 40
1.0
 40
1.0
 10
171.2409351145
 20
50.2853582025
 30
0.0
 10
171.3274209999
 20
50.2485714805
 30
0.0
 10
171.6650344446
 20
50.1156077295
 30
0.0
 10
172.0177347243
 20
50.0197809569
 30
0.0
 10
172.282826458
 20
49.9749367348
 30
0.0
  0
SPLINE
  5
4FA
100
AcDbEntity
  8
0
100
AcDbSpline
 62
7
  6
CONTINUOUS
 70
0
 71
3
 72
9
 73
5
 74
0
 42
0.0000001
 43
0.0000001
 44
0.0000000001
 40
0.0
 40
0.0
 40
0.0
 40
0.0
 40
0.24153432
 40
1.0
 40
1.0
 40
1.0
 40
1.0
 10
133.199043771
 20
49.9749367348
 30
0.0
 10
133.2854586996
 20
49.9895551093
 30
0.0
 10
133.6412564299
 20
50.0615257878
 30
0.0
 10
133.9876777819
 20
50.1776353404
 30
0.0
 10
134.2409351145
 20
50.2853582025
 30
0.0
  0
SPLINE
  5
4FB
100
AcDbEntity
  8
KONSTRUKTIONSELEMENTE
100
AcDbSpline
 62
7
  6
CONTINUOUS
 70
0
 71
3
 72
14
 73
10
 74
0
 42
0.0000001
 43
0.0000001
 44
0.0000000001
 40
0.0
 40
0.0
 40
0.0
 40
0.0
 40
0.0924910597
 40
0.1893428702
 40
0.2958104374
 40
0.4147931836
 40
0.5468590409
 40
0.6906356949
 40
1.0
 40
1.0
 40
1.0
 40
1.0
 10
164.4909351145
 20
92.6962198572
 30
0.0
 10
164.4909351145
 20
92.7735324584
 30
0.0
 10
164.4639544544
 20
92.9330146612
 30
0.0
 10
164.3447288148
 20
93.1537593699
 30
0.0
 10
164.1555554334
 20
93.3493430947
 30
0.0
 10
163.9051050887
 20
93.5156196612
 30
0.0
 10
163.602012054
 20
93.6495341091
 30
0.0
 10
163.1305235943
 20
93.7836893056
 30
0.0
 10
162.7495304773
 20
93.8214773926
 30
0.0
 10
162.4909351145
 20
93.8214773926
 30
0.0
  0
SPLINE
  5
4FC
100
AcDbEntity
  8
0
100
AcDbSpline
 62
7
  6
CONTINUOUS
 70
0
 71
3
 72
9
 73
5
 74
0
 42
0.0000001
 43
0.0000001
 44
0.0000000001
 40
0.0
 40
0.0
 40
0.0
 40
0.0
 40
0.241534322
 40
1.0
 40
1.0
 40
1.0
 40
1.0
 10
172.282826458
 20
97.8665518149
 30
0.0
 10
172.1964115287
 20
97.8519334402
 30
0.0
 10
171.8406137984
 20
97.7799627617
 30
0.0
 10
171.4941924465
 20
97.6638532089
 30
0.0
 10
171.2409351145
 20
97.5561303471
 30
0.0
  0
SPLINE
  5
4FD
100
AcDbEntity
  8
0
100
AcDbSpline
 62
7
  6
CONTINUOUS
 70
0
 71
3
 72
9
 73
5
 74
0
 42
0.0000001
 43
0.0000001
 44
0.0000000001
 40
0.0
 40
0.0
 40
0.0
 40
0.0
 40
0.2590226795
 40
1.0
 40
1.0
 40
1.0
 40
1.0
 10
134.2409351145
 20
97.5561303471
 30
0.0
 10
134.15444923
 20
97.5929170688
 30
0.0
 10
133.8168357852
 20
97.7258808198
 30
0.0
 10
133.4641355056
 20
97.8217075926
 30
0.0
 10
133.199043771
 20
97.8665518149
 30
0.0
  0
SPLINE
  5
4FE
100
AcDbEntity
  8
KONSTRUKTIONSELEMENTE
100
AcDbSpline
 62
7
  6
CONTINUOUS
 70
0
 71
3
 72
14
 73
10
 74
0
 42
0.0000001
 43
0.0000001
 44
0.0000000001
 40
0.0
 40
0.0
 40
0.0
 40
0.0
 40
0.3093654048
 40
0.4531419099
 40
0.5852068037
 40
0.7041887967
 40
0.8106563898
 40
0.9075086628
 40
1.0
 40
1.0
 40
1.0
 40
1.0
 10
142.9909351145
 20
93.8214773926
 30
0.0
 10
142.7323388356
 20
93.8214773926
 30
0.0
 10
142.3513449235
 20
93.7836890021
 30
0.0
 10
141.879856553
 20
93.6495335299
 30
0.0
 10
141.5767650742
 20
93.5156194918
 30
0.0
 10
141.326315807
 20
93.3493439094
 30
0.0
 10
141.1371423944
 20
93.1537605644
 30
0.0
 10
141.0179159559
 20
92.9330155318
 30
0.0
 10
140.9909351145
 20
92.7735326895
 30
0.0
 10
140.9909351145
 20
92.6962198573
 30
0.0
  0
SPLINE
  5
4FF
100
AcDbEntity
  8
KONSTRUKTIONSELEMENTE
100
AcDbSpline
 62
7
  6
CONTINUOUS
 70
0
 71
3
 72
13
 73
9
 74
0
 42
0.0000001
 43
0.0000001
 44
0.0000000001
 40
0.0
 40
0.0
 40
0.0
 40
0.0
 40
0.3086951722
 40
0.5837148073
 40
0.7028955792
 40
0.8097173134
 40
0.907029709
 40
1.0
 40
1.0
 40
1.0
 40
1.0
 10
162.4909351145
 20
94.4040477621
 30
0.0
 10
162.7494275527
 20
94.4040477621
 30
0.0
 10
163.2393606383
 20
94.3546089189
 30
0.0
 10
163.8048006204
 20
94.1617216157
 30
0.0
 10
164.1555377071
 20
93.9270163513
 30
0.0
 10
164.344746947
 20
93.7296028447
 30
0.0
 10
164.4639536002
 20
93.5071497703
 30
0.0
 10
164.4909351145
 20
93.3466084199
 30
0.0
 10
164.4909351145
 20
93.2687577783
 30
0.0
  0
SPLINE
  5
500
100
AcDbEntity
  8
KONSTRUKTIONSELEMENTE
100
AcDbSpline
 62
7
  6
CONTINUOUS
 70
0
 71
3
 72
14
 73
10
 74
0
 42
0.0000001
 43
0.0000001
 44
0.0000000001
 40
0.0
 40
0.0
 40
0.0
 40
0.0
 40
0.3217069364
 40
0.4687691192
 40
0.6015731747
 40
0.7188038413
 40
0.8213831773
 40
0.9129388367
 40
1.0
 40
1.0
 40
1.0
 40
1.0
 10
161.4909351145
 20
52.8029944467
 30
0.0
 10
161.8815222931
 20
52.8029944467
 30
0.0
 10
162.453235428
 20
52.8499530637
 30
0.0
 10
163.1643109245
 20
53.0220919433
 30
0.0
 10
163.6164798254
 20
53.1940546945
 30
0.0
 10
163.9891010443
 20
53.4096389741
 30
0.0
 10
164.2712352093
 20
53.6671335686
 30
0.0
 10
164.4505755533
 20
53.9644950532
 30
0.0
 10
164.4909351145
 20
54.1834090612
 30
0.0
 10
164.4909351145
 20
54.2891107738
 30
0.0
  0
SPLINE
  5
501
100
AcDbEntity
  8
KONSTRUKTIONSELEMENTE
100
AcDbSpline
 62
7
  6
CONTINUOUS
 70
0
 71
3
 72
14
 73
10
 74
0
 42
0.0000001
 43
0.0000001
 44
0.0000000001
 40
0.0
 40
0.0
 40
0.0
 40
0.0
 40
0.3202309501
 40
0.46690706
 40
0.5996262529
 40
0.7170614396
 40
0.8200957907
 40
0.912280547
 40
1.0
 40
1.0
 40
1.0
 40
1.0
 10
143.9909351145
 20
52.200313893
 30
0.0
 10
143.6007187666
 20
52.200313893
 30
0.0
 10
143.0291121741
 20
52.2483670271
 30
0.0
 10
142.3185044408
 20
52.4238162596
 30
0.0
 10
141.8660121526
 20
52.599057862
 30
0.0
 10
141.4929734511
 20
52.8184918003
 30
0.0
 10
141.210592401
 20
53.080105702
 30
0.0
 10
141.0313000021
 20
53.3813701543
 30
0.0
 10
140.9909351145
 20
53.6026179096
 30
0.0
 10
140.9909351145
 20
53.7095081542
 30
0.0
  0
SPLINE
  5
502
100
AcDbEntity
  8
KONSTRUKTIONSELEMENTE
100
AcDbSpline
 62
7
  6
CONTINUOUS
 70
0
 71
3
 72
13
 73
9
 74
0
 42
0.0000001
 43
0.0000001
 44
0.0000000001
 40
0.0
 40
0.0
 40
0.0
 40
0.0
 40
0.288967417
 40
0.4264132853
 40
0.5560805119
 40
0.7886715259
 40
0.895632186
 40
1.0
 40
1.0
 40
1.0
 40
1.0
 10
145.2409351145
 20
91.2789214856
 30
0.0
 10
145.0395333026
 20
91.2789214856
 30
0.0
 10
144.7399756576
 20
91.2413348857
 30
0.0
 10
144.3732949545
 20
91.1114624178
 30
0.0
 10
144.0669097446
 20
90.9445243346
 30
0.0
 10
143.8228628994
 20
90.7083176564
 30
0.0
 10
143.6966808698
 20
90.4221522163
 30
0.0
 10
143.6759351146
 20
90.2740366567
 30
0.0
 10
143.6759351145
 20
90.2012953523
 30
0.0
  0
SPLINE
  5
503
100
AcDbEntity
  8
0
100
AcDbSpline
 62
7
  6
CONTINUOUS
 70
0
 71
3
 72
13
 73
9
 74
0
 42
0.0000001
 43
0.0000001
 44
0.0000000001
 40
0.0
 40
0.0
 40
0.0
 40
0.0
 40
0.2889064961
 40
0.4263491259
 40
0.5560344758
 40
0.7886912898
 40
0.8956617104
 40
1.0
 40
1.0
 40
1.0
 40
1.0
 10
145.2409351145
 20
91.8455907086
 30
0.0
 10
145.0395276418
 20
91.8455907086
 30
0.0
 10
144.7399372699
 20
91.8079085411
 30
0.0
 10
144.3732763002
 20
91.6777957359
 30
0.0
 10
144.0668814739
 20
91.510576714
 30
0.0
 10
143.8228810928
 20
91.2741402686
 30
0.0
 10
143.6966928993
 20
90.9878696047
 30
0.0
 10
143.6759351145
 20
90.8397344672
 30
0.0
 10
143.6759351145
 20
90.7669963617
 30
0.0
  0
SPLINE
  5
504
100
AcDbEntity
  8
KONSTRUKTIONSELEMENTE
100
AcDbSpline
 62
7
  6
CONTINUOUS
 70
0
 71
3
 72
14
 73
10
 74
0
 42
0.0000001
 43
0.0000001
 44
0.0000000001
 40
0.0
 40
0.0
 40
0.0
 40
0.0
 40
0.0877191567
 40
0.1799034144
 40
0.2829376412
 40
0.4003734764
 40
0.5330936521
 40
0.6797700041
 40
1.0
 40
1.0
 40
1.0
 40
1.0
 10
164.4909351145
 20
53.7095081542
 30
0.0
 10
164.4909351145
 20
53.6026182694
 30
0.0
 10
164.4505705212
 20
53.3813715241
 30
0.0
 10
164.2712795271
 20
53.0801075979
 30
0.0
 10
163.9888987763
 20
52.8184932547
 30
0.0
 10
163.6158586943
 20
52.5990579745
 30
0.0
 10
163.1633641608
 20
52.4238157266
 30
0.0
 10
162.4527560294
 20
52.2483667235
 30
0.0
 10
161.8811503044
 20
52.200313893
 30
0.0
 10
161.4909351145
 20
52.200313893
 30
0.0
  0
SPLINE
  5
505
100
AcDbEntity
  8
0
100
AcDbSpline
 62
7
  6
CONTINUOUS
 70
0
 71
3
 72
17
 73
13
 74
0
 42
0.0000001
 43
0.0000001
 44
0.0000000001
 40
0.0
 40
0.0
 40
0.0
 40
0.0
 40
0.0524463915
 40
0.1061897044
 40
0.2228161774
 40
0.3558681245
 40
0.4999999999
 40
0.6441318733
 40
0.7771838175
 40
0.8938102917
 40
0.947553607
 40
1.0
 40
1.0
 40
1.0
 40
1.0
 10
154.3009351145
 20
90.6347225798
 30
0.0
 10
154.3009351145
 20
90.7049762755
 30
0.0
 10
154.2810611075
 20
90.8479887526
 30
0.0
 10
154.1602714497
 20
91.1245091646
 30
0.0
 10
153.8593424315
 20
91.4190315715
 30
0.0
 10
153.3671515327
 20
91.6301734788
 30
0.0
 10
152.8009351175
 20
91.7030872876
 30
0.0
 10
152.234718706
 20
91.6301734805
 30
0.0
 10
151.7425278113
 20
91.4190315791
 30
0.0
 10
151.4415987866
 20
91.1245091771
 30
0.0
 10
151.3208091233
 20
90.8479887598
 30
0.0
 10
151.3009351145
 20
90.7049762775
 30
0.0
 10
151.3009351145
 20
90.6347225798
 30
0.0
  0
SPLINE
  5
506
100
AcDbEntity
  8
KONSTRUKTIONSELEMENTE
100
AcDbSpline
 62
7
  6
CONTINUOUS
 70
0
 71
3
 72
17
 73
13
 74
0
 42
0.0000001
 43
0.0000001
 44
0.0000000001
 40
0.0
 40
0.0
 40
0.0
 40
0.0
 40
0.0524689235
 40
0.1062146218
 40
0.2228151345
 40
0.3558535425
 40
0.4999999999
 40
0.6441464551
 40
0.7771848601
 40
0.8937853741
 40
0.9475310749
 40
1.0
 40
1.0
 40
1.0
 40
1.0
 10
154.3009351145
 20
90.0689712498
 30
0.0
 10
154.3009351145
 20
90.1392462367
 30
0.0
 10
154.2810730649
 20
90.282275523
 30
0.0
 10
154.1602974856
 20
90.5587657183
 30
0.0
 10
153.859310214
 20
90.8531149955
 30
0.0
 10
153.3670947832
 20
91.0639243629
 30
0.0
 10
152.8009351177
 20
91.1366924769
 30
0.0
 10
152.2347754562
 20
91.0639243647
 30
0.0
 10
151.7425600297
 20
90.8531150036
 30
0.0
 10
151.4415727512
 20
90.5587657317
 30
0.0
 10
151.320797166
 20
90.2822755306
 30
0.0
 10
151.3009351145
 20
90.1392462389
 30
0.0
 10
151.3009351145
 20
90.0689712498
 30
0.0
  0
SPLINE
  5
507
100
AcDbEntity
  8
KONSTRUKTIONSELEMENTE
100
AcDbSpline
 62
7
  6
CONTINUOUS
 70
0
 71
3
 72
13
 73
9
 74
0
 42
0.0000001
 43
0.0000001
 44
0.0000000001
 40
0.0
 40
0.0
 40
0.0
 40
0.0
 40
0.2748664899
 40
0.5372141361
 40
0.6612198141
 40
0.7793316064
 40
0.8918342022
 40
1.0
 40
1.0
 40
1.0
 40
1.0
 10
144.9259351145
 20
86.5249571999
 30
0.0
 10
144.5686141075
 20
86.5249571999
 30
0.0
 10
143.8648237073
 20
86.6428838827
 30
0.0
 10
143.0966547447
 20
87.0694620824
 30
0.0
 10
142.6307309868
 20
87.5360520389
 30
0.0
 10
142.3737464338
 20
87.9228875692
 30
0.0
 10
142.2134546877
 20
88.3369566878
 30
0.0
 10
142.1759351145
 20
88.6248993224
 30
0.0
 10
142.1759351145
 20
88.7655127228
 30
0.0
  0
SPLINE
  5
508
100
AcDbEntity
  8
0
100
AcDbSpline
 62
7
  6
CONTINUOUS
 70
0
 71
3
 72
13
 73
9
 74
0
 42
0.0000001
 43
0.0000001
 44
0.0000000001
 40
0.0
 40
0.0
 40
0.0
 40
0.0
 40
0.2751612299
 40
0.5375806895
 40
0.6615270682
 40
0.7795453927
 40
0.8919403365
 40
1.0
 40
1.0
 40
1.0
 40
1.0
 10
144.9259351145
 20
87.1030376476
 30
0.0
 10
144.5688645865
 20
87.1030376476
 30
0.0
 10
143.8659053937
 20
87.2199353422
 30
0.0
 10
143.0975531568
 20
87.6436594335
 30
0.0
 10
142.6311934139
 20
88.1080358936
 30
0.0
 10
142.3739403361
 20
88.4933212437
 30
0.0
 10
142.2134676215
 20
88.9060816648
 30
0.0
 10
142.1759351145
 20
89.1932471422
 30
0.0
 10
142.1759351145
 20
89.3334737326
 30
0.0
  0
SPLINE
  5
509
100
AcDbEntity
  8
KONSTRUKTIONSELEMENTE
100
AcDbSpline
 62
7
  6
CONTINUOUS
 70
0
 71
3
 72
14
 73
10
 74
0
 42
0.0000001
 43
0.0000001
 44
0.0000000001
 40
0.0
 40
0.0
 40
0.0
 40
0.0
 40
0.0870609117
 40
0.1786160884
 40
0.2811953514
 40
0.3984268064
 40
0.5312319404
 40
0.6782943111
 40
1.0
 40
1.0
 40
1.0
 40
1.0
 10
140.9909351145
 20
54.2891107738
 30
0.0
 10
140.9909351145
 20
54.1834093653
 30
0.0
 10
141.0312943932
 20
53.9644962806
 30
0.0
 10
141.2106334981
 20
53.6671352492
 30
0.0
 10
141.4927675841
 20
53.4096400756
 30
0.0
 10
141.8653905733
 20
53.194054419
 30
0.0
 10
142.317561978
 20
53.0220911199
 30
0.0
 10
143.0286375989
 20
52.8499526592
 30
0.0
 10
143.6003494455
 20
52.8029944467
 30
0.0
 10
143.9909351145
 20
52.8029944467
 30
0.0
  0
SPLINE
  5
50A
100
AcDbEntity
  8
KONSTRUKTIONSELEMENTE
100
AcDbSpline
 62
7
  6
CONTINUOUS
 70
0
 71
3
 72
13
 73
9
 74
0
 42
0.0000001
 43
0.0000001
 44
0.0000000001
 40
0.0
 40
0.0
 40
0.0
 40
0.0
 40
0.0929699897
 40
0.1902819278
 40
0.2971036105
 40
0.4162849846
 40
0.6913056674
 40
1.0
 40
1.0
 40
1.0
 40
1.0
 10
140.9909351145
 20
93.2687577835
 30
0.0
 10
140.9909351146
 20
93.3466081729
 30
0.0
 10
141.0179164576
 20
93.50714886
 30
0.0
 10
141.1371222519
 20
93.7296015928
 30
0.0
 10
141.3263313555
 20
93.927015379
 30
0.0
 10
141.6770693558
 20
94.1617217196
 30
0.0
 10
142.2425101505
 20
94.3546090673
 30
0.0
 10
142.7324433787
 20
94.4040477621
 30
0.0
 10
142.9909351145
 20
94.4040477621
 30
0.0
  0
SPLINE
  5
50B
100
AcDbEntity
  8
KONSTRUKTIONSELEMENTE
100
AcDbSpline
 62
7
  6
CONTINUOUS
 70
0
 71
3
 72
9
 73
5
 74
0
 42
0.0000001
 43
0.0000001
 44
0.0000000001
 40
0.0
 40
0.0
 40
0.0
 40
0.0
 40
0.5137355151
 40
1.0
 40
1.0
 40
1.0
 40
1.0
 10
151.3784095918
 20
59.4180482406
 30
0.0
 10
151.4875294711
 20
59.4180482406
 30
0.0
 10
151.7019000749
 20
59.4406096189
 30
0.0
 10
151.8981452404
 20
59.5361776043
 30
0.0
 10
151.9802849137
 20
59.5987942546
 30
0.0
  0
SPLINE
  5
50C
100
AcDbEntity
  8
0
100
AcDbSpline
 62
7
  6
CONTINUOUS
 70
0
 71
3
 72
9
 73
5
 74
0
 42
0.0000001
 43
0.0000001
 44
0.0000000001
 40
0.0
 40
0.0
 40
0.0
 40
0.0
 40
0.5138877541
 40
1.0
 40
1.0
 40
1.0
 40
1.0
 10
151.3784095918
 20
58.8490315834
 30
0.0
 10
151.4875213219
 20
58.8490315834
 30
0.0
 10
151.7017959442
 20
58.8715005964
 30
0.0
 10
151.8980916372
 20
58.9667157914
 30
0.0
 10
151.9802849137
 20
59.0291453544
 30
0.0
  0
SPLINE
  5
50D
100
AcDbEntity
  8
KONSTRUKTIONSELEMENTE
100
AcDbSpline
 62
7
  6
CONTINUOUS
 70
0
 71
3
 72
9
 73
5
 74
0
 42
0.0000001
 43
0.0000001
 44
0.0000000001
 40
0.0
 40
0.0
 40
0.0
 40
0.0
 40
0.5125889531
 40
1.0
 40
1.0
 40
1.0
 40
1.0
 10
151.9802849137
 20
59.5987942546
 30
0.0
 10
152.0207386425
 20
59.629632909
 30
0.0
 10
152.0933401998
 20
59.6989716031
 30
0.0
 10
152.1455134681
 20
59.7848671303
 30
0.0
 10
152.1651953751
 20
59.829050818
 30
0.0
  0
SPLINE
  5
50E
100
AcDbEntity
  8
0
100
AcDbSpline
 62
7
  6
CONTINUOUS
 70
0
 71
3
 72
10
 73
6
 74
0
 42
0.0000001
 43
0.0000001
 44
0.0000000001
 40
0.0
 40
0.0
 40
0.0
 40
0.0
 40
0.2650385368
 40
0.5165890305
 40
1.0
 40
1.0
 40
1.0
 40
1.0
 10
151.9802849137
 20
59.0291453544
 30
0.0
 10
152.0218003895
 20
59.0606782624
 30
0.0
 10
152.096133336
 20
59.1319017606
 30
0.0
 10
152.1979826347
 20
59.3026727161
 30
0.0
 10
152.2215866719
 20
59.4509042882
 30
0.0
 10
152.2215866719
 20
59.5459912429
 30
0.0
  0
SPLINE
  5
50F
100
AcDbEntity
  8
0
100
AcDbSpline
 62
7
  6
CONTINUOUS
 70
0
 71
3
 72
25
 73
21
 74
0
 42
0.0000001
 43
0.0000001
 44
0.0000000001
 40
0.0
 40
0.0
 40
0.0
 40
0.0
 40
0.0032075345
 40
0.0053152028
 40
0.0078791917
 40
0.0145382803
 40
0.0233740423
 40
0.0344435224
 40
0.0477590547
 40
0.0633106861
 40
0.0810747303
 40
0.1230963251
 40
0.1734675847
 40
0.2317295135
 40
0.2973377358
 40
0.36967205
 40
0.4480444911
 40
0.6198583809
 40
0.8062200546
 40
1.0
 40
1.0
 40
1.0
 40
1.0
 10
187.0459351145
 20
65.0296440027
 30
0.0
 10
187.0459351145
 20
65.0273070217
 30
0.0
 10
187.0478240345
 20
65.0235019512
 30
0.0
 10
187.0519891723
 20
65.0195892286
 30
0.0
 10
187.0588101652
 20
65.0148632936
 30
0.0
 10
187.0708055817
 20
65.009318293
 30
0.0
 10
187.0891351581
 20
65.0030657007
 30
0.0
 10
187.1125440178
 20
64.9968487326
 30
0.0
 10
187.1409832482
 20
64.9906685818
 30
0.0
 10
187.1744100808
 20
64.9845609054
 30
0.0
 10
187.2286416061
 20
64.9760572983
 30
0.0
 10
187.3082900008
 20
64.9660414989
 30
0.0
 10
187.4175155665
 20
64.9551000796
 30
0.0
 10
187.5440556549
 20
64.9448198386
 30
0.0
 10
187.6866955012
 20
64.9353090943
 30
0.0
 10
187.8440670434
 20
64.926673567
 30
0.0
 10
188.0788188467
 20
64.9161249595
 30
0.0
 10
188.3967371487
 20
64.9060069586
 30
0.0
 10
188.7988303415
 20
64.8987060454
 30
0.0
 10
189.0758014065
 20
64.897072805
 30
0.0
 10
189.2169877483
 20
64.897072805
 30
0.0
  0
SPLINE
  5
510
100
AcDbEntity
  8
0
100
AcDbSpline
 62
7
  6
CONTINUOUS
 70
0
 71
3
 72
22
 73
18
 74
0
 42
0.0000001
 43
0.0000001
 44
0.0000000001
 40
0.0
 40
0.0
 40
0.0
 40
0.0
 40
0.0076319807
 40
0.014292748
 40
0.0231307237
 40
0.0342029704
 40
0.0475218333
 40
0.0630773702
 40
0.0808458856
 40
0.1228780395
 40
0.1732619255
 40
0.231538488
 40
0.2971631976
 40
0.447905889
 40
0.6197629291
 40
0.8061713784
 40
1.0
 40
1.0
 40
1.0
 40
1.0
 10
188.230145642
 20
65.4096814362
 30
0.0
 10
188.230145642
 20
65.4127137256
 30
0.0
 10
188.2356359293
 20
65.41707793
 30
0.0
 10
188.2436071358
 20
65.4207053076
 30
0.0
 10
188.2537490563
 20
65.4242026542
 30
0.0
 10
188.2664635831
 20
65.4275612021
 30
0.0
 10
188.2819949129
 20
65.4309436747
 30
0.0
 10
188.3002213377
 20
65.4342712786
 30
0.0
 10
188.3298048672
 20
65.4389112255
 30
0.0
 10
188.3732478254
 20
65.4443734466
 30
0.0
 10
188.43282606
 20
65.4503417111
 30
0.0
 10
188.5018476674
 20
65.4559498108
 30
0.0
 10
188.6107288821
 20
65.4632045156
 30
0.0
 10
188.764806496
 20
65.4706761535
 30
0.0
 10
188.9669460191
 20
65.4771230262
 30
0.0
 10
189.1862705288
 20
65.4811011508
 30
0.0
 10
189.3373454306
 20
65.4819929986
 30
0.0
 10
189.4143561695
 20
65.4819929986
 30
0.0
  0
SPLINE
  5
511
100
AcDbEntity
  8
0
100
AcDbSpline
 62
7
  6
CONTINUOUS
 70
0
 71
3
 72
26
 73
22
 74
0
 42
0.0000001
 43
0.0000001
 44
0.0000000001
 40
0.0
 40
0.0
 40
0.0
 40
0.0
 40
0.0015181597
 40
0.0032553189
 40
0.0053628524
 40
0.00792675
 40
0.0145855194
 40
0.0234208561
 40
0.0344898041
 40
0.0478046963
 40
0.0633555805
 40
0.0811187714
 40
0.1231383489
 40
0.1735071917
 40
0.2317663266
 40
0.297371404
 40
0.3697022518
 40
0.448070938
 40
0.6198765966
 40
0.8062293466
 40
1.0
 40
1.0
 40
1.0
 40
1.0
 10
187.0459351482
 20
65.4096814362
 30
0.0
 10
187.0459351482
 20
65.4084747046
 30
0.0
 10
187.0465011305
 20
65.4058704338
 30
0.0
 10
187.0488377315
 20
65.4022358706
 30
0.0
 10
187.0525416088
 20
65.3986946212
 30
0.0
 10
187.0599789458
 20
65.3935718067
 30
0.0
 10
187.073067381
 20
65.3875007311
 30
0.0
 10
187.0930621465
 20
65.3806896717
 30
0.0
 10
187.1185995041
 20
65.3739037963
 30
0.0
 10
187.149623965
 20
65.3671631298
 30
0.0
 10
187.1860896462
 20
65.3604997678
 30
0.0
 10
187.245251283
 20
65.3512232915
 30
0.0
 10
187.332140447
 20
65.3402968526
 30
0.0
 10
187.4512955981
 20
65.3283608036
 30
0.0
 10
187.5893393283
 20
65.3171459799
 30
0.0
 10
187.7449464311
 20
65.306770627
 30
0.0
 10
187.9166244777
 20
65.2973500502
 30
0.0
 10
188.1727173571
 20
65.2858424789
 30
0.0
 10
188.519537332
 20
65.2748046595
 30
0.0
 10
188.9581844555
 20
65.2668400281
 30
0.0
 10
189.2603347099
 20
65.2650583114
 30
0.0
 10
189.4143561695
 20
65.2650583114
 30
0.0
  0
SPLINE
  5
512
100
AcDbEntity
  8
RUNDUNGEN
100
AcDbSpline
 62
7
  6
CONTINUOUS
 70
0
 71
3
 72
15
 73
11
 74
0
 42
0.0000001
 43
0.0000001
 44
0.0000000001
 40
0.0
 40
0.0
 40
0.0
 40
0.0
 40
0.1250253182
 40
0.2500345627
 40
0.3750305537
 40
0.5000179756
 40
0.6250027115
 40
0.7499910223
 40
0.874988667
 40
1.0
 40
1.0
 40
1.0
 40
1.0
 10
104.9906971189
 20
68.1370411049
 30
0.0
 10
104.9903382763
 20
67.873072027
 30
0.0
 10
105.0395169279
 20
67.3437541158
 30
0.0
 10
105.260412919
 20
66.5787209237
 30
0.0
 10
105.6206279136
 20
65.8683504625
 30
0.0
 10
106.107445265
 20
65.2381067172
 30
0.0
 10
106.7036395043
 20
64.7101622156
 30
0.0
 10
107.3882432666
 20
64.3031900685
 30
0.0
 10
108.1367028957
 20
64.0315850975
 30
0.0
 10
108.6614909949
 20
63.9471021183
 30
0.0
 10
108.9248632425
 20
63.9298025712
 30
0.0
  0
LINE
  5
513
100
AcDbEntity
  8
RUNDUNGEN
100
AcDbLine
 62
7
  6
CONTINUOUS
 10
108.9248632425
 20
63.9298025712
 11
108.9270149093
 21
63.9296617925
  0
LINE
  5
514
100
AcDbEntity
  8
RUNDUNGEN
100
AcDbLine
 62
7
  6
CONTINUOUS
 10
109.1989446928
 20
63.9207447658
 11
109.2009784094
 21
63.9207442748
  0
SPLINE
  5
515
100
AcDbEntity
  8
BEZUGSACHSEN
100
AcDbSpline
 62
7
  6
CONTINUOUS
 70
0
 71
3
 72
15
 73
11
 74
0
 42
0.0000001
 43
0.0000001
 44
0.0000000001
 40
0.0
 40
0.0
 40
0.0
 40
0.0
 40
0.1250249205
 40
0.2500335725
 40
0.3750288984
 40
0.5000157664
 40
0.6250002614
 40
0.7499888103
 40
0.874987255
 40
1.0
 40
1.0
 40
1.0
 40
1.0
 10
200.4911731101
 20
68.1370411049
 30
0.0
 10
200.4915369009
 20
67.8694320756
 30
0.0
 10
200.4409741996
 20
67.332776818
 30
0.0
 10
200.2139661788
 20
66.5579548371
 30
0.0
 10
199.8440418782
 20
65.8400635443
 30
0.0
 10
199.3446236127
 20
65.205552589
 30
0.0
 10
198.7338733828
 20
64.6773632846
 30
0.0
 10
198.0338678929
 20
64.2746987851
 30
0.0
 10
197.2704075823
 20
64.0121893538
 30
0.0
 10
196.7367016871
 20
63.9369356249
 30
0.0
 10
196.469386443
 20
63.9249632555
 30
0.0
  0
LINE
  5
516
100
AcDbEntity
  8
BEZUGSACHSEN
100
AcDbLine
 62
7
  6
CONTINUOUS
 10
196.2829255363
 20
63.9207447658
 11
196.2808918196
 21
63.9207442748
  0
SPLINE
  5
517
100
AcDbEntity
  8
BEZUGSACHSEN
100
AcDbSpline
 62
7
  6
CONTINUOUS
 70
0
 71
3
 72
15
 73
11
 74
0
 42
0.0000001
 43
0.0000001
 44
0.0000000001
 40
0.0
 40
0.0
 40
0.0
 40
0.0
 40
0.1250249205
 40
0.2500335725
 40
0.3750288983
 40
0.5000157664
 40
0.6250002614
 40
0.7499888103
 40
0.874987255
 40
1.0
 40
1.0
 40
1.0
 40
1.0
 10
104.9906971189
 20
79.7044474447
 30
0.0
 10
104.9903333281
 20
79.972056481
 30
0.0
 10
105.0408960321
 20
80.5087117526
 30
0.0
 10
105.2679040646
 20
81.2835337522
 30
0.0
 10
105.6378283839
 20
82.0014250592
 30
0.0
 10
106.1372466735
 20
82.6359360225
 30
0.0
 10
106.7479969313
 20
83.1641253271
 30
0.0
 10
107.4480024506
 20
83.566789818
 30
0.0
 10
108.2114627898
 20
83.8292992315
 30
0.0
 10
108.7451687018
 20
83.9045529426
 30
0.0
 10
109.0124839533
 20
83.9165253016
 30
0.0
  0
LINE
  5
518
100
AcDbEntity
  8
BEZUGSACHSEN
100
AcDbLine
 62
7
  6
CONTINUOUS
 10
109.1989446928
 20
83.9207437838
 11
109.2009784094
 21
83.9207442748
  0
SPLINE
  5
519
100
AcDbEntity
  8
BEZUGSACHSEN
100
AcDbSpline
 62
7
  6
CONTINUOUS
 70
0
 71
3
 72
15
 73
11
 74
0
 42
0.0000001
 43
0.0000001
 44
0.0000000001
 40
0.0
 40
0.0
 40
0.0
 40
0.0
 40
0.1250253182
 40
0.2500345627
 40
0.3750305537
 40
0.5000179756
 40
0.6250027115
 40
0.7499910223
 40
0.874988667
 40
1.0
 40
1.0
 40
1.0
 40
1.0
 10
200.4911731101
 20
79.7044474447
 30
0.0
 10
200.4915319527
 20
79.9684165226
 30
0.0
 10
200.4423533011
 20
80.4977344338
 30
0.0
 10
200.22145731
 20
81.2627676259
 30
0.0
 10
199.8612423154
 20
81.9731380871
 30
0.0
 10
199.3744249641
 20
82.6033818324
 30
0.0
 10
198.7782307247
 20
83.1313263341
 30
0.0
 10
198.0936269624
 20
83.5382984811
 30
0.0
 10
197.3451673333
 20
83.8099034521
 30
0.0
 10
196.8203792341
 20
83.8943864313
 30
0.0
 10
196.5570069865
 20
83.9116859784
 30
0.0
  0
LINE
  5
51A
100
AcDbEntity
  8
BEZUGSACHSEN
100
AcDbLine
 62
7
  6
CONTINUOUS
 10
196.5570069865
 20
83.9116859784
 11
196.5548553197
 21
83.9118267571
  0
LINE
  5
51B
100
AcDbEntity
  8
BEZUGSACHSEN
100
AcDbLine
 62
7
  6
CONTINUOUS
 10
196.2829255363
 20
83.9207437838
 11
196.2808918196
 21
83.9207442748
  0
SPLINE
  5
51C
100
AcDbEntity
  8
0
100
AcDbSpline
 62
7
  6
CONTINUOUS
 70
0
 71
3
 72
30
 73
26
 74
0
 42
0.0000001
 43
0.0000001
 44
0.0000000001
 40
0.0
 40
0.0
 40
0.0
 40
0.0
 40
0.01808821
 40
0.0396054181
 40
0.0922973527
 40
0.1565534959
 40
0.2304778381
 40
0.311875191
 40
0.3983220773
 40
0.4872416253
 40
0.5759820192
 40
0.6618968759
 40
0.7424254528
 40
0.8151707226
 40
0.877973726
 40
0.9289839795
 40
0.9495917984
 40
0.9667356646
 40
0.9739745006
 40
0.9803114477
 40
0.9857415776
 40
0.9902658564
 40
0.993895303
 40
0.9966615779
 40
1.0
 40
1.0
 40
1.0
 40
1.0
 10
189.6361332576
 20
65.6938291751
 30
0.0
 10
189.656053486
 20
65.6906910643
 30
0.0
 10
189.6998132451
 20
65.6847290453
 30
0.0
 10
189.8021015774
 20
65.6734772598
 30
0.0
 10
189.9560061942
 20
65.6611340996
 30
0.0
 10
190.1684614861
 20
65.6489293935
 30
0.0
 10
190.4130718673
 20
65.6390453864
 30
0.0
 10
190.6825198698
 20
65.631796167
 30
0.0
 10
190.9687493774
 20
65.6274362788
 30
0.0
 10
191.2631949459
 20
65.6261056124
 30
0.0
 10
191.557045229
 20
65.6278487797
 30
0.0
 10
191.8415068305
 20
65.632607524
 30
0.0
 10
192.108067293
 20
65.6402293029
 30
0.0
 10
192.3487581881
 20
65.6504433988
 30
0.0
 10
192.5563794936
 20
65.662928198
 30
0.0
 10
192.7057463872
 20
65.6754737215
 30
0.0
 10
192.8040499765
 20
65.6869002456
 30
0.0
 10
192.8537010638
 20
65.6940937336
 30
0.0
 10
192.8874150849
 20
65.7001514505
 30
0.0
 10
192.9081554833
 20
65.704478241
 30
0.0
 10
192.925805191
 20
65.708859604
 30
0.0
 10
192.9402682079
 20
65.7132087478
 30
0.0
 10
192.9517486236
 20
65.7177122393
 30
0.0
 10
192.9610512649
 20
65.7225038368
 30
0.0
 10
192.966987752
 20
65.7281477333
 30
0.0
 10
192.966987752
 20
65.7318696197
 30
0.0
  0
SPLINE
  5
51D
100
AcDbEntity
  8
0
100
AcDbSpline
 62
7
  6
CONTINUOUS
 70
0
 71
3
 72
25
 73
21
 74
0
 42
0.0000001
 43
0.0000001
 44
0.0000000001
 40
0.0
 40
0.0
 40
0.0
 40
0.0
 40
0.1937799454
 40
0.3801416191
 40
0.5519555089
 40
0.63032795
 40
0.7026622642
 40
0.7682704865
 40
0.8265324153
 40
0.8769036749
 40
0.9189252697
 40
0.9366893139
 40
0.9522409453
 40
0.9655564776
 40
0.9766259577
 40
0.9854617197
 40
0.9921208083
 40
0.9946847972
 40
0.9967924655
 40
1.0
 40
1.0
 40
1.0
 40
1.0
 10
190.7959351183
 20
64.897072805
 30
0.0
 10
190.93712146
 20
64.897072805
 30
0.0
 10
191.214092525
 20
64.8987060454
 30
0.0
 10
191.6161857178
 20
64.9060069586
 30
0.0
 10
191.9341040198
 20
64.9161249595
 30
0.0
 10
192.1688558231
 20
64.926673567
 30
0.0
 10
192.3262273653
 20
64.9353090943
 30
0.0
 10
192.4688672116
 20
64.9448198386
 30
0.0
 10
192.5954073
 20
64.9551000796
 30
0.0
 10
192.7046328657
 20
64.9660414989
 30
0.0
 10
192.7842812605
 20
64.9760572983
 30
0.0
 10
192.8385127857
 20
64.9845609054
 30
0.0
 10
192.8719396183
 20
64.9906685818
 30
0.0
 10
192.9003788487
 20
64.9968487326
 30
0.0
 10
192.9237877084
 20
65.0030657007
 30
0.0
 10
192.9421172848
 20
65.009318293
 30
0.0
 10
192.9541127013
 20
65.0148632936
 30
0.0
 10
192.9609336942
 20
65.0195892286
 30
0.0
 10
192.9650988321
 20
65.0235019512
 30
0.0
 10
192.966987752
 20
65.0273070217
 30
0.0
 10
192.966987752
 20
65.0296440027
 30
0.0
  0
SPLINE
  5
51E
100
AcDbEntity
  8
BEZUGSACHSEN
100
AcDbSpline
 62
7
  6
CONTINUOUS
 70
0
 71
3
 72
15
 73
11
 74
0
 42
0.0000001
 43
0.0000001
 44
0.0000000001
 40
0.0
 40
0.0
 40
0.0
 40
0.0
 40
0.1252001528
 40
0.2504116454
 40
0.3754997516
 40
0.5004022061
 40
0.6251614365
 40
0.7499157944
 40
0.8748381828
 40
1.0
 40
1.0
 40
1.0
 40
1.0
 10
194.2096038021
 20
67.0345735117
 30
0.0
 10
194.4403397924
 20
67.0340459386
 30
0.0
 10
194.9032178955
 20
67.0791482284
 30
0.0
 10
195.5695366857
 20
67.2811703059
 30
0.0
 10
196.1835601517
 20
67.6087687835
 30
0.0
 10
196.721530575
 20
68.048856708
 30
0.0
 10
197.163284912
 20
68.5846827991
 30
0.0
 10
197.4920837495
 20
69.1965018333
 30
0.0
 10
197.6950988377
 20
69.8612740658
 30
0.0
 10
197.7409351395
 20
70.323456066
 30
0.0
 10
197.7409351395
 20
70.5541220092
 30
0.0
  0
SPLINE
  5
51F
100
AcDbEntity
  8
0
100
AcDbSpline
 62
7
  6
CONTINUOUS
 70
0
 71
3
 72
19
 73
15
 74
0
 42
0.0000001
 43
0.0000001
 44
0.0000000001
 40
0.0
 40
0.0
 40
0.0
 40
0.0
 40
0.2031780646
 40
0.3933138334
 40
0.5648523805
 40
0.7127975108
 40
0.8328722566
 40
0.9216843213
 40
0.9536178059
 40
0.9663933082
 40
0.9770398134
 40
0.9855842643
 40
0.9921025382
 40
1.0
 40
1.0
 40
1.0
 40
1.0
 10
191.3880508208
 20
65.9613897836
 30
0.0
 10
191.4284768333
 20
65.961884344
 30
0.0
 10
191.506729534
 20
65.9632551983
 30
0.0
 10
191.6190806516
 20
65.9665527782
 30
0.0
 10
191.7203941978
 20
65.9709403146
 30
0.0
 10
191.8077073177
 20
65.9762475842
 30
0.0
 10
191.8784520139
 20
65.9823171
 30
0.0
 10
191.9260497225
 20
65.988161122
 30
0.0
 10
191.9521674544
 20
65.9930818179
 30
0.0
 10
191.9628647286
 20
65.9957600418
 30
0.0
 10
191.9689350691
 20
65.9976035408
 30
0.0
 10
191.9737520188
 20
65.9995110054
 30
0.0
 10
191.9776637073
 20
66.0015449619
 30
0.0
 10
191.9801456458
 20
66.003935488
 30
0.0
 10
191.9801456458
 20
66.0055069508
 30
0.0
  0
SPLINE
  5
520
100
AcDbEntity
  8
BEZUGSACHSEN
100
AcDbSpline
 62
7
  6
CONTINUOUS
 70
0
 71
3
 72
15
 73
11
 74
0
 42
0.0000001
 43
0.0000001
 44
0.0000000001
 40
0.0
 40
0.0
 40
0.0
 40
0.0
 40
0.1252001528
 40
0.2504116454
 40
0.3754997516
 40
0.5004022061
 40
0.6251614365
 40
0.7499157944
 40
0.8748381828
 40
1.0
 40
1.0
 40
1.0
 40
1.0
 10
111.2722664269
 20
80.8069150379
 30
0.0
 10
111.0415304366
 20
80.8074426111
 30
0.0
 10
110.5786523335
 20
80.7623403212
 30
0.0
 10
109.9123335433
 20
80.5603182437
 30
0.0
 10
109.2983100774
 20
80.2327197662
 30
0.0
 10
108.760339654
 20
79.7926318416
 30
0.0
 10
108.318585317
 20
79.2568057505
 30
0.0
 10
107.9897864795
 20
78.6449867163
 30
0.0
 10
107.7867713913
 20
77.9802144838
 30
0.0
 10
107.7409350895
 20
77.5180324836
 30
0.0
 10
107.7409350895
 20
77.2873665405
 30
0.0
  0
SPLINE
  5
521
100
AcDbEntity
  8
0
100
AcDbSpline
 62
7
  6
CONTINUOUS
 70
0
 71
3
 72
11
 73
7
 74
0
 42
0.0000001
 43
0.0000001
 44
0.0000000001
 40
0.0
 40
0.0
 40
0.0
 40
0.0
 40
0.3144305519
 40
0.5900810134
 40
0.820398675
 40
1.0
 40
1.0
 40
1.0
 40
1.0
 10
191.3881036894
 20
65.2300411915
 30
0.0
 10
191.4400161066
 20
65.2319777432
 30
0.0
 10
191.5374175711
 20
65.2362038774
 30
0.0
 10
191.6727320864
 20
65.2442126109
 30
0.0
 10
191.7856372015
 20
65.2533141152
 30
0.0
 10
191.8529729642
 20
65.2608184323
 30
0.0
 10
191.8823415987
 20
65.2650559214
 30
0.0
  0
SPLINE
  5
522
100
AcDbEntity
  8
BEZUGSACHSEN
100
AcDbSpline
 62
7
  6
CONTINUOUS
 70
0
 71
3
 72
15
 73
11
 74
0
 42
0.0000001
 43
0.0000001
 44
0.0000000001
 40
0.0
 40
0.0
 40
0.0
 40
0.0
 40
0.1252001528
 40
0.2504116454
 40
0.3754997516
 40
0.5004022061
 40
0.6251614365
 40
0.7499157944
 40
0.8748381828
 40
1.0
 40
1.0
 40
1.0
 40
1.0
 10
194.2096038021
 20
80.8069150379
 30
0.0
 10
194.4403397924
 20
80.8074426111
 30
0.0
 10
194.9032178955
 20
80.7623403212
 30
0.0
 10
195.5695366857
 20
80.5603182437
 30
0.0
 10
196.1835601517
 20
80.2327197662
 30
0.0
 10
196.721530575
 20
79.7926318416
 30
0.0
 10
197.163284912
 20
79.2568057505
 30
0.0
 10
197.4920837495
 20
78.6449867163
 30
0.0
 10
197.6950988377
 20
77.9802144838
 30
0.0
 10
197.7409351395
 20
77.5180324836
 30
0.0
 10
197.7409351395
 20
77.2873665405
 30
0.0
  0
SPLINE
  5
523
100
AcDbEntity
  8
0
100
AcDbSpline
 62
7
  6
CONTINUOUS
 70
0
 71
3
 72
35
 73
31
 74
0
 42
0.0000001
 43
0.0000001
 44
0.0000000001
 40
0.0
 40
0.0
 40
0.0
 40
0.0
 40
0.0038160205
 40
0.0071463923
 40
0.0115653829
 40
0.0171015401
 40
0.0237610049
 40
0.0404216695
 40
0.0614378203
 40
0.0866298222
 40
0.1157681998
 40
0.1485806206
 40
0.2239521826
 40
0.309880938
 40
0.4030854329
 40
0.5
 40
0.5969145671
 40
0.690119062
 40
0.7760478174
 40
0.8514193794
 40
0.8842318002
 40
0.9133701778
 40
0.9385621797
 40
0.9595783305
 40
0.9762389951
 40
0.9828984599
 40
0.9884346171
 40
0.9928536077
 40
0.9961839795
 40
1.0
 40
1.0
 40
1.0
 40
1.0
 10
191.9801456458
 20
65.7559734738
 30
0.0
 10
191.9801456458
 20
65.7540867063
 30
0.0
 10
191.9767294706
 20
65.751371199
 30
0.0
 10
191.9717695938
 20
65.7491141703
 30
0.0
 10
191.9654591046
 20
65.7469381436
 30
0.0
 10
191.9575477108
 20
65.7448477336
 30
0.0
 10
191.9435866695
 20
65.7418117886
 30
0.0
 10
191.9219511009
 20
65.7382765291
 30
0.0
 10
191.8911042364
 20
65.7343835016
 30
0.0
 10
191.8540333934
 20
65.7306750346
 30
0.0
 10
191.8110866011
 20
65.7271838603
 30
0.0
 10
191.7433383005
 20
65.7226705031
 30
0.0
 10
191.6474677798
 20
65.7180210924
 30
0.0
 10
191.5216921063
 20
65.7140098518
 30
0.0
 10
191.3852233628
 20
65.7115345281
 30
0.0
 10
191.2433035398
 20
65.7106967407
 30
0.0
 10
191.1013837167
 20
65.7115345281
 30
0.0
 10
190.9649149732
 20
65.7140098518
 30
0.0
 10
190.8391392998
 20
65.7180210924
 30
0.0
 10
190.743268779
 20
65.7226705031
 30
0.0
 10
190.6755204784
 20
65.7271838603
 30
0.0
 10
190.6325736861
 20
65.7306750346
 30
0.0
 10
190.5955028431
 20
65.7343835016
 30
0.0
 10
190.5646559786
 20
65.7382765291
 30
0.0
 10
190.54302041
 20
65.7418117886
 30
0.0
 10
190.5290593687
 20
65.7448477336
 30
0.0
 10
190.5211479749
 20
65.7469381436
 30
0.0
 10
190.5148374857
 20
65.7491141703
 30
0.0
 10
190.5098776089
 20
65.751371199
 30
0.0
 10
190.5064614338
 20
65.7540867063
 30
0.0
 10
190.5064614338
 20
65.7559734738
 30
0.0
  0
SPLINE
  5
524
100
AcDbEntity
  8
0
100
AcDbSpline
 62
7
  6
CONTINUOUS
 70
0
 71
3
 72
20
 73
16
 74
0
 42
0.0000001
 43
0.0000001
 44
0.0000000001
 40
0.0
 40
0.0
 40
0.0
 40
0.0
 40
0.0089444508
 40
0.0155259245
 40
0.0238832819
 40
0.0463167833
 40
0.0766363859
 40
0.1148833463
 40
0.1609769061
 40
0.2147664393
 40
0.2760507786
 40
0.4200929398
 40
0.5907436688
 40
0.7851417676
 40
1.0
 40
1.0
 40
1.0
 40
1.0
 10
189.5196193275
 20
65.7940942504
 30
0.0
 10
189.5196193275
 20
65.7926036407
 30
0.0
 10
189.5178911447
 20
65.7902015781
 30
0.0
 10
189.5146686266
 20
65.7879761614
 30
0.0
 10
189.5090993641
 20
65.7850882385
 30
0.0
 10
189.4994469313
 20
65.7817892244
 30
0.0
 10
189.4847383595
 20
65.7780520727
 30
0.0
 10
189.4659814821
 20
65.7743719177
 30
0.0
 10
189.4432469576
 20
65.7707401386
 30
0.0
 10
189.4166207015
 20
65.7671951929
 30
0.0
 10
189.3737101125
 20
65.7623414238
 30
0.0
 10
189.3112907352
 20
65.756794732
 30
0.0
 10
189.2266438547
 20
65.7510079145
 30
0.0
 10
189.1301322007
 20
65.7459165499
 30
0.0
 10
189.0619825745
 20
65.7431694435
 30
0.0
 10
189.0261982744
 20
65.7419078754
 30
0.0
  0
SPLINE
  5
525
100
AcDbEntity
  8
0
100
AcDbSpline
 62
7
  6
CONTINUOUS
 70
0
 71
3
 72
22
 73
18
 74
0
 42
0.0000001
 43
0.0000001
 44
0.0000000001
 40
0.0
 40
0.0
 40
0.0
 40
0.0
 40
0.1938286216
 40
0.3802370709
 40
0.552094111
 40
0.7028368024
 40
0.768461512
 40
0.8267380745
 40
0.8771219605
 40
0.9191541144
 40
0.9369226298
 40
0.9524781667
 40
0.9657970296
 40
0.9768692763
 40
0.985707252
 40
0.9923680193
 40
1.0
 40
1.0
 40
1.0
 40
1.0
 10
189.4143561695
 20
65.3373698738
 30
0.0
 10
189.3373454306
 20
65.3373698738
 30
0.0
 10
189.1862705288
 20
65.3382617216
 30
0.0
 10
188.9669460191
 20
65.3422398461
 30
0.0
 10
188.764806496
 20
65.3486867188
 30
0.0
 10
188.6107288821
 20
65.3561583567
 30
0.0
 10
188.5018476674
 20
65.3634130616
 30
0.0
 10
188.43282606
 20
65.3690211612
 30
0.0
 10
188.3732478254
 20
65.3749894258
 30
0.0
 10
188.3298048672
 20
65.3804516469
 30
0.0
 10
188.3002213377
 20
65.3850915937
 30
0.0
 10
188.2819949129
 20
65.3884191977
 30
0.0
 10
188.2664635831
 20
65.3918016703
 30
0.0
 10
188.2537490563
 20
65.3951602181
 30
0.0
 10
188.2436071358
 20
65.3986575648
 30
0.0
 10
188.2356359293
 20
65.4022849423
 30
0.0
 10
188.230145642
 20
65.4066491468
 30
0.0
 10
188.230145642
 20
65.4096814362
 30
0.0
  0
SPLINE
  5
526
100
AcDbEntity
  8
0
100
AcDbSpline
 62
7
  6
CONTINUOUS
 70
0
 71
3
 72
26
 73
22
 74
0
 42
0.0000001
 43
0.0000001
 44
0.0000000001
 40
0.0
 40
0.0
 40
0.0
 40
0.0
 40
0.1937706534
 40
0.3801234034
 40
0.551929062
 40
0.6302977482
 40
0.702628596
 40
0.7682336734
 40
0.8264928083
 40
0.8768616511
 40
0.9188812286
 40
0.9366444195
 40
0.9521953037
 40
0.9655101959
 40
0.9765791439
 40
0.9854144806
 40
0.99207325
 40
0.9946371476
 40
0.9967446811
 40
0.9984818403
 40
1.0
 40
1.0
 40
1.0
 40
1.0
 10
189.4143561695
 20
65.554304561
 30
0.0
 10
189.2603347099
 20
65.554304561
 30
0.0
 10
188.9581844555
 20
65.5525228442
 30
0.0
 10
188.519537332
 20
65.5445582128
 30
0.0
 10
188.1727173571
 20
65.5335203935
 30
0.0
 10
187.9166244777
 20
65.5220128221
 30
0.0
 10
187.7449464311
 20
65.5125922453
 30
0.0
 10
187.5893393283
 20
65.5022168925
 30
0.0
 10
187.4512955981
 20
65.4910020688
 30
0.0
 10
187.332140447
 20
65.4790660197
 30
0.0
 10
187.245251283
 20
65.4681395809
 30
0.0
 10
187.1860896462
 20
65.4588631045
 30
0.0
 10
187.149623965
 20
65.4521997425
 30
0.0
 10
187.1185995041
 20
65.445459076
 30
0.0
 10
187.0930621465
 20
65.4386732007
 30
0.0
 10
187.073067381
 20
65.4318621412
 30
0.0
 10
187.0599789458
 20
65.4257910657
 30
0.0
 10
187.0525416088
 20
65.4206682512
 30
0.0
 10
187.0488377315
 20
65.4171270018
 30
0.0
 10
187.0465011305
 20
65.4134924385
 30
0.0
 10
187.0459351482
 20
65.4108881678
 30
0.0
 10
187.0459351482
 20
65.4096814362
 30
0.0
  0
SPLINE
  5
527
100
AcDbEntity
  8
0
100
AcDbSpline
 62
7
  6
CONTINUOUS
 70
0
 71
3
 72
22
 73
18
 74
0
 42
0.0000001
 43
0.0000001
 44
0.0000000001
 40
0.0
 40
0.0
 40
0.0
 40
0.0
 40
0.1938286208
 40
0.3802370692
 40
0.5520941086
 40
0.7028367994
 40
0.7684615087
 40
0.826738071
 40
0.8771219568
 40
0.9191541104
 40
0.9369226258
 40
0.9524781626
 40
0.9657970256
 40
0.9768692717
 40
0.9857072497
 40
0.9923680083
 40
1.0
 40
1.0
 40
1.0
 40
1.0
 10
189.2696193273
 20
64.969432575
 30
0.0
 10
189.1891858889
 20
64.969432575
 30
0.0
 10
189.0313965469
 20
64.9703640605
 30
0.0
 10
188.8023242813
 20
64.9745189906
 30
0.0
 10
188.5912007794
 20
64.981252391
 30
0.0
 10
188.4302752715
 20
64.9890561017
 30
0.0
 10
188.3165548917
 20
64.9966332378
 30
0.0
 10
188.2444656574
 20
65.0024905863
 30
0.0
 10
188.1822395012
 20
65.0087241073
 30
0.0
 10
188.1368657447
 20
65.0144290933
 30
0.0
 10
188.105967392
 20
65.0192752608
 30
0.0
 10
188.0869309031
 20
65.0227507562
 30
0.0
 10
188.0707092944
 20
65.0262835669
 30
0.0
 10
188.0574296707
 20
65.029791369
 30
0.0
 10
188.0468370142
 20
65.0334441811
 30
0.0
 10
188.0385115054
 20
65.0372327326
 30
0.0
 10
188.0327772208
 20
65.0417909222
 30
0.0
 10
188.0327772208
 20
65.0449579847
 30
0.0
  0
SPLINE
  5
528
100
AcDbEntity
  8
0
100
AcDbSpline
 62
7
  6
CONTINUOUS
 70
0
 71
3
 72
22
 73
18
 74
0
 42
0.0000001
 43
0.0000001
 44
0.0000000001
 40
0.0
 40
0.0
 40
0.0
 40
0.0
 40
0.0076337558
 40
0.0142923916
 40
0.0231265744
 40
0.0341935433
 40
0.0475057997
 40
0.0630535436
 40
0.0808132251
 40
0.1228252125
 40
0.1731867675
 40
0.231440405
 40
0.2970433595
 40
0.4477539249
 40
0.6196083252
 40
0.8060615616
 40
1.0
 40
1.0
 40
1.0
 40
1.0
 10
191.9801456458
 20
65.0449578137
 30
0.0
 10
191.9801456458
 20
65.0417967127
 30
0.0
 10
191.9744296586
 20
65.0372440679
 30
0.0
 10
191.9661239694
 20
65.0334595939
 30
0.0
 10
191.9555601256
 20
65.0298115825
 30
0.0
 10
191.9423158473
 20
65.0263082025
 30
0.0
 10
191.9261375853
 20
65.0227798041
 30
0.0
 10
191.9071516475
 20
65.0193084927
 30
0.0
 10
191.8763347419
 20
65.0144679042
 30
0.0
 10
191.8310790234
 20
65.0087689026
 30
0.0
 10
191.7690123301
 20
65.0025409997
 30
0.0
 10
191.6971039259
 20
64.9966877448
 30
0.0
 10
191.5836565747
 20
64.9891135896
 30
0.0
 10
191.423095392
 20
64.9813083258
 30
0.0
 10
191.2124146005
 20
64.9745652099
 30
0.0
 10
190.9837639135
 20
64.9703919514
 30
0.0
 10
190.8262440771
 20
64.9694430089
 30
0.0
 10
190.7459351183
 20
64.969432575
 30
0.0
  0
SPLINE
  5
529
100
AcDbEntity
  8
RUNDUNGEN
100
AcDbSpline
 62
7
  6
CONTINUOUS
 70
0
 71
3
 72
15
 73
11
 74
0
 42
0.0000001
 43
0.0000001
 44
0.0000000001
 40
0.0
 40
0.0
 40
0.0
 40
0.0
 40
0.1252001528
 40
0.2504116454
 40
0.3754997516
 40
0.5004022061
 40
0.6251614365
 40
0.7499157944
 40
0.8748381828
 40
1.0
 40
1.0
 40
1.0
 40
1.0
 10
111.2722664269
 20
67.0345735117
 30
0.0
 10
111.0415304366
 20
67.0340459386
 30
0.0
 10
110.5786523335
 20
67.0791482284
 30
0.0
 10
109.9123335433
 20
67.2811703059
 30
0.0
 10
109.2983100774
 20
67.6087687835
 30
0.0
 10
108.760339654
 20
68.048856708
 30
0.0
 10
108.318585317
 20
68.5846827991
 30
0.0
 10
107.9897864795
 20
69.1965018333
 30
0.0
 10
107.7867713913
 20
69.8612740658
 30
0.0
 10
107.7409350895
 20
70.323456066
 30
0.0
 10
107.7409350895
 20
70.5541220092
 30
0.0
  0
ELLIPSE
  5
52A
100
AcDbEntity
  8
0
100
AcDbEllipse
 62
7
  6
CONTINUOUS
 10
168.2409351145
 20
149.7859833826
 30
0.0
 11
7.0
 21
0.0
 31
0.0
 40
1.0
 41
-0.5653534302
 42
0.0
  0
ELLIPSE
  5
52B
100
AcDbEntity
  8
0
100
AcDbEllipse
 62
7
  6
CONTINUOUS
 10
168.2409351145
 20
156.8336780385
 30
0.0
 11
0.0
 21
20.155696691
 31
0.0
 40
0.3472963553
 41
-2.2912806324
 42
-2.136149757
  0
ELLIPSE
  5
52C
100
AcDbEntity
  8
0
100
AcDbEllipse
 62
7
  6
CONTINUOUS
 10
137.2409351145
 20
149.7859833826
 30
0.0
 11
7.0
 21
-0.0
 31
0.0
 40
1.0
 41
-3.1415926536
 42
-2.5762392234
  0
ELLIPSE
  5
52D
100
AcDbEntity
  8
0
100
AcDbEllipse
 62
7
  6
CONTINUOUS
 10
137.2409351145
 20
156.8336780385
 30
0.0
 11
0.0
 21
20.155696691
 31
0.0
 40
0.3472963553
 41
-4.1470355501
 42
-3.9919046748
  0
ELLIPSE
  5
52E
100
AcDbEntity
  8
0
100
AcDbEllipse
 62
7
  6
CONTINUOUS
 10
156.5654134279
 20
154.2859833826
 30
0.0
 11
-3.7386622885
 21
23.9935550655
 31
0.0
 40
0.14875942
 41
-0.7641054898
 42
-0.5833338254
  0
ELLIPSE
  5
52F
100
AcDbEntity
  8
0
100
AcDbEllipse
 62
7
  6
CONTINUOUS
 10
156.1210475552
 20
154.2859833826
 30
0.0
 11
3.4817428588
 21
23.9950952794
 31
0.0
 40
0.1393506098
 41
0.5803757013
 42
0.7611473657
  0
ELLIPSE
  5
530
100
AcDbEntity
  8
0
100
AcDbEllipse
 62
7
  6
CONTINUOUS
 10
159.6107107451
 20
154.2859833826
 30
0.0
 11
-3.5549017037
 21
23.994687203
 31
0.0
 40
0.142046519
 41
-0.7592532368
 42
-0.5811999776
  0
ELLIPSE
  5
531
100
AcDbEntity
  8
0
100
AcDbEllipse
 62
7
  6
CONTINUOUS
 10
159.1177533037
 20
154.2859833826
 30
0.0
 11
4.0095779908
 21
23.9915844057
 31
0.0
 40
0.1584989083
 41
0.5866412005
 42
0.7646944597
  0
ELLIPSE
  5
532
100
AcDbEntity
  8
0
100
AcDbEllipse
 62
7
  6
CONTINUOUS
 10
139.5030458319
 20
154.2859833826
 30
0.0
 11
0.0
 21
24.0
 31
0.0
 40
0.2447913767
 41
-0.1953491378
 42
-0.1800086855
  0
ELLIPSE
  5
533
100
AcDbEntity
  8
0
100
AcDbEllipse
 62
7
  6
CONTINUOUS
 10
137.7499613365
 20
154.2859833826
 30
0.0
 11
0.0
 21
24.0
 31
0.0
 40
0.6527781669
 41
-0.1800086855
 42
-0.1685315938
  0
ELLIPSE
  5
534
100
AcDbEntity
  8
0
100
AcDbEllipse
 62
7
  6
CONTINUOUS
 10
130.5233800164
 20
154.2859833826
 30
0.0
 11
58.7500182092
 21
-0.0
 31
0.0
 40
0.4085105117
 41
1.402264733
 42
1.4099035989
  0
ELLIPSE
  5
535
100
AcDbEntity
  8
0
100
AcDbEllipse
 62
7
  6
CONTINUOUS
 10
139.8793453173
 20
154.2859833826
 30
0.0
 11
0.0
 21
24.0
 31
0.0
 40
0.2447921628
 41
-0.115241608
 42
-0.1000827742
  0
ELLIPSE
  5
536
100
AcDbEntity
  8
0
100
AcDbEllipse
 62
7
  6
CONTINUOUS
 10
138.1183312172
 20
154.2859833826
 30
0.0
 11
0.0
 21
24.0
 31
0.0
 40
0.9791665499
 41
-0.1000827742
 42
-0.0849469827
  0
ELLIPSE
  5
537
100
AcDbEntity
  8
0
100
AcDbEllipse
 62
7
  6
CONTINUOUS
 10
136.1244773199
 20
154.2859833826
 30
0.0
 11
46.9999943972
 21
-0.0
 31
0.0
 40
0.5106383587
 41
1.4858493441
 42
1.4934097125
  0
ELLIPSE
  5
538
100
AcDbEntity
  8
0
100
AcDbEllipse
 62
7
  6
CONTINUOUS
 10
127.0406203905
 20
154.2859833826
 30
0.0
 11
164.5000308156
 21
-0.0
 31
0.0
 40
0.1458966292
 41
1.4934097125
 42
1.4971882081
  0
ELLIPSE
  5
539
100
AcDbEntity
  8
0
100
AcDbEllipse
 62
7
  6
CONTINUOUS
 10
151.0587486024
 20
154.2859833826
 30
0.0
 11
164.5000140071
 21
0.0
 31
0.0
 40
0.1458966441
 41
1.6444044455
 42
1.6481829411
  0
ELLIPSE
  5
53A
100
AcDbEntity
  8
0
100
AcDbEllipse
 62
7
  6
CONTINUOUS
 10
141.9748936222
 20
154.2859833826
 30
0.0
 11
47.0000028014
 21
0.0
 31
0.0
 40
0.5106382674
 41
1.6481829411
 42
1.6557433095
  0
ELLIPSE
  5
53B
100
AcDbEntity
  8
0
100
AcDbEllipse
 62
7
  6
CONTINUOUS
 10
139.9810394575
 20
154.2859833826
 30
0.0
 11
0.0
 21
24.0
 31
0.0
 40
0.9791667688
 41
6.3681322899
 42
6.3832680814
  0
ELLIPSE
  5
53C
100
AcDbEntity
  8
0
100
AcDbEllipse
 62
7
  6
CONTINUOUS
 10
138.2200237304
 20
154.2859833826
 30
0.0
 11
0.0
 21
24.0
 31
0.0
 40
0.2447917031
 41
0.1000827742
 42
0.115241608
  0
ELLIPSE
  5
53D
100
AcDbEntity
  8
0
100
AcDbEllipse
 62
7
  6
CONTINUOUS
 10
141.5518214447
 20
154.2859833826
 30
0.0
 11
0.0
 21
24.0
 31
0.0
 40
0.4895836251
 41
0.1228308013
 42
0.1380309777
  0
ELLIPSE
  5
53E
100
AcDbEntity
  8
0
100
AcDbEllipse
 62
7
  6
CONTINUOUS
 10
143.1685365671
 20
154.2859833826
 30
0.0
 11
-0.0
 21
24.0
 31
0.0
 40
0.9791658496
 41
0.1380309777
 42
0.1456428949
  0
ELLIPSE
  5
53F
100
AcDbEntity
  8
0
100
AcDbEllipse
 62
7
  6
CONTINUOUS
 10
149.9895848339
 20
154.2859833826
 30
0.0
 11
70.5000252128
 21
0.0
 31
0.0
 40
0.3404254102
 41
1.7164392217
 42
1.7240596475
  0
ELLIPSE
  5
540
100
AcDbEntity
  8
0
100
AcDbEllipse
 62
7
  6
CONTINUOUS
 10
142.6585892251
 20
154.2859833826
 30
0.0
 11
0.0
 21
24.0
 31
0.0
 40
0.4895829248
 41
0.2107362967
 42
0.2184486723
  0
ELLIPSE
  5
541
100
AcDbEntity
  8
0
100
AcDbEllipse
 62
7
  6
CONTINUOUS
 10
145.2049988376
 20
154.2859833826
 30
0.0
 11
-0.0
 21
24.0
 31
0.0
 40
0.9791669074
 41
0.2184486723
 42
0.2261742777
  0
ELLIPSE
  5
542
100
AcDbEntity
  8
0
100
AcDbEllipse
 62
7
  6
CONTINUOUS
 10
150.4748845921
 20
154.2859833826
 30
0.0
 11
46.9999607801
 21
0.0
 31
0.0
 40
0.510638724
 41
1.7969706045
 42
1.800838532
  0
ELLIPSE
  5
543
100
AcDbEntity
  8
0
100
AcDbEllipse
 62
7
  6
CONTINUOUS
 10
166.550214343
 20
154.2859833826
 30
0.0
 11
117.5000364184
 21
0.0
 31
0.0
 40
0.2042552558
 41
1.800838532
 42
1.8047099663
  0
ELLIPSE
  5
544
100
AcDbEntity
  8
0
100
AcDbEllipse
 62
7
  6
CONTINUOUS
 10
111.549159782
 20
154.2859833826
 30
0.0
 11
117.5000196099
 21
0.0
 31
0.0
 40
0.2042552851
 41
1.3368826873
 42
1.3407541216
  0
ELLIPSE
  5
545
100
AcDbEntity
  8
0
100
AcDbEllipse
 62
7
  6
CONTINUOUS
 10
127.624478035
 20
154.2859833826
 30
0.0
 11
46.9999943972
 21
-0.0
 31
0.0
 40
0.5106383587
 41
1.3407541216
 42
1.3446220491
  0
ELLIPSE
  5
546
100
AcDbEntity
  8
0
100
AcDbEllipse
 62
7
  6
CONTINUOUS
 10
132.8943732127
 20
154.2859833826
 30
0.0
 11
0.0
 21
24.0
 31
0.0
 40
0.9791665572
 41
-0.2261742777
 42
-0.2184486723
  0
ELLIPSE
  5
547
100
AcDbEntity
  8
0
100
AcDbEllipse
 62
7
  6
CONTINUOUS
 10
135.4407782719
 20
154.2859833826
 30
0.0
 11
-0.0
 21
24.0
 31
0.0
 40
0.4895834501
 41
-0.2184486723
 42
-0.2107362967
  0
ELLIPSE
  5
548
100
AcDbEntity
  8
0
100
AcDbEllipse
 62
7
  6
CONTINUOUS
 10
144.2105205592
 20
154.2859833826
 30
0.0
 11
0.0
 21
24.0
 31
0.0
 40
0.1958325822
 41
-0.126802298
 42
-0.1078329709
  0
ELLIPSE
  5
549
100
AcDbEntity
  8
0
100
AcDbEllipse
 62
7
  6
CONTINUOUS
 10
142.1871840092
 20
154.2859833826
 30
0.0
 11
-0.0
 21
24.0
 31
0.0
 40
0.9791671646
 41
6.1753523363
 42
6.1904994672
  0
ELLIPSE
  5
54A
100
AcDbEntity
  8
0
100
AcDbEllipse
 62
7
  6
CONTINUOUS
 10
140.0121830942
 20
154.2859833826
 30
0.0
 11
47.0000218423
 21
-0.0
 31
0.0
 40
0.5106380606
 41
1.4781104868
 42
1.4817251407
  0
ELLIPSE
  5
54B
100
AcDbEntity
  8
0
100
AcDbEllipse
 62
7
  6
CONTINUOUS
 10
143.8637239295
 20
154.2859833826
 30
0.0
 11
0.0
 21
24.0
 31
0.0
 40
0.244790762
 41
-0.115241608
 42
-0.1000827742
  0
ELLIPSE
  5
54C
100
AcDbEntity
  8
0
100
AcDbEllipse
 62
7
  6
CONTINUOUS
 10
142.1027047911
 20
154.2859833826
 30
0.0
 11
-0.0
 21
24.0
 31
0.0
 40
0.9791672503
 41
-0.1000827742
 42
-0.0849469827
  0
ELLIPSE
  5
54D
100
AcDbEntity
  8
0
100
AcDbEllipse
 62
7
  6
CONTINUOUS
 10
140.1088494676
 20
154.2859833826
 30
0.0
 11
47.0000280142
 21
0.0
 31
0.0
 40
0.5106379935
 41
1.4858493441
 42
1.4934097125
  0
ELLIPSE
  5
54E
100
AcDbEntity
  8
0
100
AcDbEllipse
 62
7
  6
CONTINUOUS
 10
132.8417670428
 20
154.2859833826
 30
0.0
 11
141.0000168085
 21
-0.0
 31
0.0
 40
0.1702127457
 41
1.4934097125
 42
1.4971882081
  0
ELLIPSE
  5
54F
100
AcDbEntity
  8
0
100
AcDbEllipse
 62
7
  6
CONTINUOUS
 10
154.9545858552
 20
154.2859833826
 30
0.0
 11
164.5000644326
 21
-0.0
 31
0.0
 40
0.1458965994
 41
1.6444044455
 42
1.6481829411
  0
ELLIPSE
  5
550
100
AcDbEntity
  8
0
100
AcDbEllipse
 62
7
  6
CONTINUOUS
 10
142.0169763015
 20
154.2859833826
 30
0.0
 11
-0.0
 21
24.0
 31
0.0
 40
0.1958331699
 41
0.1230049834
 42
0.1420105258
  0
ELLIPSE
  5
551
100
AcDbEntity
  8
0
100
AcDbEllipse
 62
7
  6
CONTINUOUS
 10
145.8707289258
 20
154.2859833826
 30
0.0
 11
47.0000280142
 21
-0.0
 31
0.0
 40
0.5106379935
 41
1.6481829411
 42
1.6557433095
  0
ELLIPSE
  5
552
100
AcDbEntity
  8
0
100
AcDbEllipse
 62
7
  6
CONTINUOUS
 10
143.8768721763
 20
154.2859833826
 30
0.0
 11
0.0
 21
24.0
 31
0.0
 40
0.9791665499
 41
6.3681322899
 42
6.3832680814
  0
ELLIPSE
  5
553
100
AcDbEntity
  8
0
100
AcDbEllipse
 62
7
  6
CONTINUOUS
 10
142.1158563968
 20
154.2859833826
 30
0.0
 11
-0.0
 21
24.0
 31
0.0
 40
0.2447914624
 41
0.1000827742
 42
0.115241608
  0
ELLIPSE
  5
554
100
AcDbEntity
  8
0
100
AcDbEllipse
 62
7
  6
CONTINUOUS
 10
145.4476525497
 20
154.2859833826
 30
0.0
 11
0.0
 21
24.0
 31
0.0
 40
0.4895829248
 41
0.1228308013
 42
0.1380309777
  0
ELLIPSE
  5
555
100
AcDbEntity
  8
0
100
AcDbEllipse
 62
7
  6
CONTINUOUS
 10
147.4523851954
 20
154.2859833826
 30
0.0
 11
26.3200000291
 21
0.0
 31
0.0
 40
0.9118541023
 41
1.7088273045
 42
1.8047099663
  0
ELLIPSE
  5
556
100
AcDbEntity
  8
0
100
AcDbEllipse
 62
7
  6
CONTINUOUS
 10
147.752999788
 20
154.2859833826
 30
0.0
 11
0.0
 21
24.0
 31
0.0
 40
0.1958326096
 41
-0.1456428949
 42
-0.1266280329
  0
ELLIPSE
  5
557
100
AcDbEntity
  8
0
100
AcDbEllipse
 62
7
  6
CONTINUOUS
 10
147.3572938274
 20
154.2859833826
 30
0.0
 11
0.0
 21
24.0
 31
0.0
 40
0.3263873779
 41
-0.1266280329
 42
-0.115241608
  0
ELLIPSE
  5
558
100
AcDbEntity
  8
0
100
AcDbEllipse
 62
7
  6
CONTINUOUS
 10
146.9069223556
 20
154.2859833826
 30
0.0
 11
-0.0
 21
24.0
 31
0.0
 40
0.4895843255
 41
-0.115241608
 42
-0.1000827742
  0
ELLIPSE
  5
559
100
AcDbEntity
  8
0
100
AcDbEllipse
 62
7
  6
CONTINUOUS
 10
145.7329140751
 20
154.2859833826
 30
0.0
 11
-0.0
 21
24.0
 31
0.0
 40
0.9791667834
 41
-0.1000827742
 42
-0.0887289657
  0
ELLIPSE
  5
55A
100
AcDbEntity
  8
0
100
AcDbEllipse
 62
7
  6
CONTINUOUS
 10
144.344647401
 20
154.2859833826
 30
0.0
 11
39.1667012175
 21
-0.0
 31
0.0
 40
0.6127654169
 41
1.4820673611
 42
1.4934097125
  0
ELLIPSE
  5
55B
100
AcDbEntity
  8
0
100
AcDbEllipse
 62
7
  6
CONTINUOUS
 10
136.4719752073
 20
154.2859833826
 30
0.0
 11
141.0000168085
 21
-0.0
 31
0.0
 40
0.1702127457
 41
1.4934097125
 42
1.4971882081
  0
ELLIPSE
  5
55C
100
AcDbEntity
  8
0
100
AcDbEllipse
 62
7
  6
CONTINUOUS
 10
157.2107276795
 20
154.2859833826
 30
0.0
 11
141.0000168085
 21
0.0
 31
0.0
 40
0.1702127457
 41
1.6444044455
 42
1.6481829411
  0
ELLIPSE
  5
55D
100
AcDbEntity
  8
0
100
AcDbEllipse
 62
7
  6
CONTINUOUS
 10
163.7351665593
 20
154.2859833826
 30
0.0
 11
-0.0
 21
24.0
 31
0.0
 40
0.6119793514
 41
-0.2261742777
 42
-0.0736081187
  0
ELLIPSE
  5
55E
100
AcDbEntity
  8
0
100
AcDbEllipse
 62
7
  6
CONTINUOUS
 10
149.3380520206
 20
154.2859833826
 30
0.0
 11
39.1666563948
 21
-0.0
 31
0.0
 40
0.6127661182
 41
1.6481829411
 42
1.6595252925
  0
ELLIPSE
  5
55F
100
AcDbEntity
  8
0
100
AcDbEllipse
 62
7
  6
CONTINUOUS
 10
147.9497893183
 20
154.2859833826
 30
0.0
 11
-0.0
 21
24.0
 31
0.0
 40
0.9791667834
 41
0.0887289657
 42
0.1000827742
  0
ELLIPSE
  5
560
100
AcDbEntity
  8
0
100
AcDbEllipse
 62
7
  6
CONTINUOUS
 10
146.775777679
 20
154.2859833826
 30
0.0
 11
0.0
 21
24.0
 31
0.0
 40
0.4895829248
 41
0.1000827742
 42
0.115241608
  0
ELLIPSE
  5
561
100
AcDbEntity
  8
0
100
AcDbEllipse
 62
7
  6
CONTINUOUS
 10
146.3254152267
 20
154.2859833826
 30
0.0
 11
0.0
 21
24.0
 31
0.0
 40
0.3263892456
 41
0.115241608
 42
0.1266280329
  0
ELLIPSE
  5
562
100
AcDbEntity
  8
0
100
AcDbEllipse
 62
7
  6
CONTINUOUS
 10
145.9297036055
 20
154.2859833826
 30
0.0
 11
0.0
 21
24.0
 31
0.0
 40
0.1958326096
 41
0.1266280329
 42
0.1456428949
  0
ELLIPSE
  5
563
100
AcDbEntity
  8
0
100
AcDbEllipse
 62
7
  6
CONTINUOUS
 10
148.6788746329
 20
154.2859833826
 30
0.0
 11
0.0
 21
24.0
 31
0.0
 40
0.1631956709
 41
0.1761804013
 42
0.1991913898
  0
ELLIPSE
  5
564
100
AcDbEntity
  8
0
100
AcDbEllipse
 62
7
  6
CONTINUOUS
 10
151.0039179549
 20
154.2859833826
 30
0.0
 11
0.0
 21
24.0
 31
0.0
 40
0.6527771569
 41
0.1991913898
 42
0.2223097899
  0
ELLIPSE
  5
565
100
AcDbEntity
  8
0
100
AcDbEllipse
 62
7
  6
CONTINUOUS
 10
155.3217173246
 20
154.2859833826
 30
0.0
 11
35.2500042021
 21
0.0
 31
0.0
 40
0.6808509827
 41
1.7931061167
 42
1.800838532
  0
ELLIPSE
  5
566
100
AcDbEntity
  8
0
100
AcDbEllipse
 62
7
  6
CONTINUOUS
 10
174.0762712558
 20
154.2859833826
 30
0.0
 11
117.5001036525
 21
0.0
 31
0.0
 40
0.204255139
 41
1.800838532
 42
1.8047099663
  0
ELLIPSE
  5
567
100
AcDbEntity
  8
0
100
AcDbEllipse
 62
7
  6
CONTINUOUS
 10
119.6064939668
 20
154.2859833826
 30
0.0
 11
117.4998347163
 21
-0.0
 31
0.0
 40
0.2042556065
 41
1.3368826873
 42
1.3407541216
  0
ELLIPSE
  5
568
100
AcDbEntity
  8
0
100
AcDbEllipse
 62
7
  6
CONTINUOUS
 10
138.3609865755
 20
154.2859833826
 30
0.0
 11
35.2500042021
 21
-0.0
 31
0.0
 40
0.6808509827
 41
1.3407541216
 42
1.3484865369
  0
ELLIPSE
  5
569
100
AcDbEntity
  8
0
100
AcDbEllipse
 62
7
  6
CONTINUOUS
 10
142.6787810038
 20
154.2859833826
 30
0.0
 11
0.0
 21
24.0
 31
0.0
 40
0.6527780907
 41
-0.2223097899
 42
-0.1991913898
  0
ELLIPSE
  5
56A
100
AcDbEntity
  8
0
100
AcDbEllipse
 62
7
  6
CONTINUOUS
 10
158.3288395839
 20
154.2859833826
 30
0.0
 11
0.0
 21
24.0
 31
0.0
 40
0.4895759212
 41
-0.2300422052
 42
-0.2223097899
  0
ELLIPSE
  5
56B
100
AcDbEntity
  8
0
100
AcDbEllipse
 62
7
  6
CONTINUOUS
 10
150.2911229277
 20
154.2859833826
 30
0.0
 11
47.0000870191
 21
-0.0
 31
0.0
 40
0.5106373524
 41
1.3330076771
 42
1.3407541216
  0
ELLIPSE
  5
56C
100
AcDbEntity
  8
0
100
AcDbEllipse
 62
7
  6
CONTINUOUS
 10
145.0038331953
 20
154.2859833826
 30
0.0
 11
0.0
 21
24.0
 31
0.0
 40
0.1631947371
 41
-0.1991913898
 42
-0.1761804013
  0
ELLIPSE
  5
56D
100
AcDbEntity
  8
0
100
AcDbEllipse
 62
7
  6
CONTINUOUS
 10
175.7322153362
 20
154.2859833826
 30
0.0
 11
58.7499070717
 21
0.0
 31
0.0
 40
0.4085112845
 41
1.800838532
 42
1.8085849765
  0
ELLIPSE
  5
56E
100
AcDbEntity
  8
0
100
AcDbEllipse
 62
7
  6
CONTINUOUS
 10
167.6945796615
 20
154.2859833826
 30
0.0
 11
-0.0
 21
24.0
 31
0.0
 40
0.9791665548
 41
0.2184486723
 42
0.2300422052
  0
ELLIPSE
  5
56F
100
AcDbEntity
  8
0
100
AcDbEllipse
 62
7
  6
CONTINUOUS
 10
165.1481937389
 20
154.2859833826
 30
0.0
 11
-0.0
 21
24.0
 31
0.0
 40
0.4895871269
 41
0.2107362967
 42
0.2184486723
  0
ELLIPSE
  5
570
100
AcDbEntity
  8
0
100
AcDbEllipse
 62
7
  6
CONTINUOUS
 10
151.648833459
 20
154.2859833826
 30
0.0
 11
-0.0
 21
24.0
 31
0.0
 40
0.1958326096
 41
-0.1456428949
 42
-0.1266280329
  0
ELLIPSE
  5
571
100
AcDbEntity
  8
0
100
AcDbEllipse
 62
7
  6
CONTINUOUS
 10
151.2531161772
 20
154.2859833826
 30
0.0
 11
-0.0
 21
24.0
 31
0.0
 40
0.3263911132
 41
-0.1266280329
 42
-0.115241608
  0
ELLIPSE
  5
572
100
AcDbEntity
  8
0
100
AcDbEllipse
 62
7
  6
CONTINUOUS
 10
150.8027627444
 20
154.2859833826
 30
0.0
 11
0.0
 21
24.0
 31
0.0
 40
0.4895815241
 41
-0.115241608
 42
-0.1000827742
  0
ELLIPSE
  5
573
100
AcDbEntity
  8
0
100
AcDbEllipse
 62
7
  6
CONTINUOUS
 10
149.6287477462
 20
154.2859833826
 30
0.0
 11
0.0
 21
24.0
 31
0.0
 40
0.9791667834
 41
-0.1000827742
 42
-0.0887289657
  0
ELLIPSE
  5
574
100
AcDbEntity
  8
0
100
AcDbEllipse
 62
7
  6
CONTINUOUS
 10
148.2404810721
 20
154.2859833826
 30
0.0
 11
39.1667012175
 21
-0.0
 31
0.0
 40
0.6127654169
 41
1.4820673611
 42
1.4934097125
  0
ELLIPSE
  5
575
100
AcDbEntity
  8
0
100
AcDbEllipse
 62
7
  6
CONTINUOUS
 10
140.3678088784
 20
154.2859833826
 30
0.0
 11
141.0000168085
 21
-0.0
 31
0.0
 40
0.1702127457
 41
1.4934097125
 42
1.4971882081
  0
ELLIPSE
  5
576
100
AcDbEntity
  8
0
100
AcDbEllipse
 62
7
  6
CONTINUOUS
 10
161.1065613506
 20
154.2859833826
 30
0.0
 11
141.0000168085
 21
0.0
 31
0.0
 40
0.1702127457
 41
1.6444044455
 42
1.6481829411
  0
ELLIPSE
  5
577
100
AcDbEntity
  8
0
100
AcDbEllipse
 62
7
  6
CONTINUOUS
 10
153.2338891569
 20
154.2859833826
 30
0.0
 11
39.1667012175
 21
0.0
 31
0.0
 40
0.6127654169
 41
1.6481829411
 42
1.6595252925
  0
ELLIPSE
  5
578
100
AcDbEntity
  8
0
100
AcDbEllipse
 62
7
  6
CONTINUOUS
 10
151.8456224828
 20
154.2859833826
 30
0.0
 11
0.0
 21
24.0
 31
0.0
 40
0.9791667834
 41
0.0887289657
 42
0.1000827742
  0
ELLIPSE
  5
579
100
AcDbEntity
  8
0
100
AcDbEllipse
 62
7
  6
CONTINUOUS
 10
150.6716074846
 20
154.2859833826
 30
0.0
 11
-0.0
 21
24.0
 31
0.0
 40
0.4895815241
 41
0.1000827742
 42
0.115241608
  0
ELLIPSE
  5
57A
100
AcDbEntity
  8
0
100
AcDbEllipse
 62
7
  6
CONTINUOUS
 10
150.2212540518
 20
154.2859833826
 30
0.0
 11
-0.0
 21
24.0
 31
0.0
 40
0.3263911132
 41
0.115241608
 42
0.1266280329
  0
ELLIPSE
  5
57B
100
AcDbEntity
  8
0
100
AcDbEllipse
 62
7
  6
CONTINUOUS
 10
149.82553677
 20
154.2859833826
 30
0.0
 11
-0.0
 21
24.0
 31
0.0
 40
0.1958326096
 41
0.1266280329
 42
0.1456428949
  0
ELLIPSE
  5
57C
100
AcDbEntity
  8
0
100
AcDbEllipse
 62
7
  6
CONTINUOUS
 10
152.5746994346
 20
154.2859833826
 30
0.0
 11
-0.0
 21
24.0
 31
0.0
 40
0.1631938033
 41
0.1761804013
 42
0.1991913898
  0
ELLIPSE
  5
57D
100
AcDbEntity
  8
0
100
AcDbEllipse
 62
7
  6
CONTINUOUS
 10
154.899751626
 20
154.2859833826
 30
0.0
 11
0.0
 21
24.0
 31
0.0
 40
0.6527771569
 41
0.1991913898
 42
0.2223097899
  0
ELLIPSE
  5
57E
100
AcDbEntity
  8
0
100
AcDbEllipse
 62
7
  6
CONTINUOUS
 10
159.2175509957
 20
154.2859833826
 30
0.0
 11
35.2500042021
 21
0.0
 31
0.0
 40
0.6808509827
 41
1.7931061167
 42
1.800838532
  0
ELLIPSE
  5
57F
100
AcDbEntity
  8
0
100
AcDbEllipse
 62
7
  6
CONTINUOUS
 10
162.8903802256
 20
154.2859833826
 30
0.0
 11
0.0
 21
24.0
 31
0.0
 40
0.4895871269
 41
0.1915098049
 42
0.206884905
  0
ELLIPSE
  5
580
100
AcDbEntity
  8
0
100
AcDbEllipse
 62
7
  6
CONTINUOUS
 10
177.9721049269
 20
154.2859833826
 30
0.0
 11
117.5001036525
 21
0.0
 31
0.0
 40
0.204255139
 41
1.800838532
 42
1.8047099663
  0
ELLIPSE
  5
581
100
AcDbEntity
  8
0
100
AcDbEllipse
 62
7
  6
CONTINUOUS
 10
165.1268536722
 20
154.2859833826
 30
0.0
 11
-0.0
 21
24.0
 31
0.0
 40
0.9791623624
 41
0.1838396385
 42
0.1915098049
  0
ELLIPSE
  5
582
100
AcDbEntity
  8
0
100
AcDbEllipse
 62
7
  6
CONTINUOUS
 10
169.4228274103
 20
154.2859833826
 30
0.0
 11
47.0000952482
 21
0.0
 31
0.0
 40
0.510637263
 41
1.7469767281
 42
1.7546359653
  0
ELLIPSE
  5
583
100
AcDbEntity
  8
0
100
AcDbEllipse
 62
7
  6
CONTINUOUS
 10
123.5022653021
 20
154.2859833826
 30
0.0
 11
117.5001036525
 21
-0.0
 31
0.0
 40
0.204255139
 41
1.3368826873
 42
1.3407541216
  0
ELLIPSE
  5
584
100
AcDbEntity
  8
0
100
AcDbEllipse
 62
7
  6
CONTINUOUS
 10
185.8982301811
 20
154.2859833826
 30
0.0
 11
141.0000168085
 21
0.0
 31
0.0
 40
0.1702127457
 41
1.7431510513
 42
1.7469767281
  0
ELLIPSE
  5
585
100
AcDbEntity
  8
0
100
AcDbEllipse
 62
7
  6
CONTINUOUS
 10
142.2568192333
 20
154.2859833826
 30
0.0
 11
35.2500042021
 21
-0.0
 31
0.0
 40
0.6808509827
 41
1.3407541216
 42
1.3484865369
  0
ELLIPSE
  5
586
100
AcDbEntity
  8
0
100
AcDbEllipse
 62
7
  6
CONTINUOUS
 10
146.574618603
 20
154.2859833826
 30
0.0
 11
-0.0
 21
24.0
 31
0.0
 40
0.6527771569
 41
-0.2223097899
 42
-0.1991913898
  0
ELLIPSE
  5
587
100
AcDbEntity
  8
0
100
AcDbEllipse
 62
7
  6
CONTINUOUS
 10
148.8996707944
 20
154.2859833826
 30
0.0
 11
0.0
 21
24.0
 31
0.0
 40
0.1631938033
 41
-0.1991913898
 42
-0.1761804013
  0
ELLIPSE
  5
588
100
AcDbEntity
  8
0
100
AcDbEllipse
 62
7
  6
CONTINUOUS
 10
155.5446739229
 20
154.2859833826
 30
0.0
 11
-0.0
 21
24.0
 31
0.0
 40
0.1958303685
 41
-0.1456428949
 42
-0.1266280329
  0
ELLIPSE
  5
589
100
AcDbEntity
  8
0
100
AcDbEllipse
 62
7
  6
CONTINUOUS
 10
155.1489498483
 20
154.2859833826
 30
0.0
 11
-0.0
 21
24.0
 31
0.0
 40
0.3263911132
 41
-0.1266280329
 42
-0.115241608
  0
ELLIPSE
  5
58A
100
AcDbEntity
  8
0
100
AcDbEllipse
 62
7
  6
CONTINUOUS
 10
154.6985964155
 20
154.2859833826
 30
0.0
 11
-0.0
 21
24.0
 31
0.0
 40
0.4895815241
 41
-0.115241608
 42
-0.1000827742
  0
ELLIPSE
  5
58B
100
AcDbEntity
  8
0
100
AcDbEllipse
 62
7
  6
CONTINUOUS
 10
153.5245814173
 20
154.2859833826
 30
0.0
 11
0.0
 21
24.0
 31
0.0
 40
0.9791667834
 41
-0.1000827742
 42
-0.0887289657
  0
ELLIPSE
  5
58C
100
AcDbEntity
  8
0
100
AcDbEllipse
 62
7
  6
CONTINUOUS
 10
152.1363067995
 20
154.2859833826
 30
0.0
 11
39.1667908629
 21
-0.0
 31
0.0
 40
0.6127640144
 41
1.4820673611
 42
1.4934097125
  0
ELLIPSE
  5
58D
100
AcDbEntity
  8
0
100
AcDbEllipse
 62
7
  6
CONTINUOUS
 10
144.2636415362
 20
154.2859833826
 30
0.0
 11
141.0000168085
 21
-0.0
 31
0.0
 40
0.1702127457
 41
1.4934097125
 42
1.4971882081
  0
ELLIPSE
  5
58E
100
AcDbEntity
  8
0
100
AcDbEllipse
 62
7
  6
CONTINUOUS
 10
165.0023742304
 20
154.2859833826
 30
0.0
 11
140.9997478723
 21
0.0
 31
0.0
 40
0.1702130703
 41
1.6444044455
 42
1.6481829411
  0
ELLIPSE
  5
58F
100
AcDbEntity
  8
0
100
AcDbEllipse
 62
7
  6
CONTINUOUS
 10
157.129722828
 20
154.2859833826
 30
0.0
 11
39.1667012175
 21
0.0
 31
0.0
 40
0.6127654169
 41
1.6481829411
 42
1.6595252925
  0
ELLIPSE
  5
590
100
AcDbEntity
  8
0
100
AcDbEllipse
 62
7
  6
CONTINUOUS
 10
162.2705837683
 20
154.2859833826
 30
0.0
 11
0.0
 21
24.0
 31
0.0
 40
0.4895871269
 41
0.1456428949
 42
0.1532633207
  0
ELLIPSE
  5
591
100
AcDbEntity
  8
0
100
AcDbEllipse
 62
7
  6
CONTINUOUS
 10
155.7414561539
 20
154.2859833826
 30
0.0
 11
0.0
 21
24.0
 31
0.0
 40
0.9791667834
 41
0.0887289657
 42
0.1000827742
  0
ELLIPSE
  5
592
100
AcDbEntity
  8
0
100
AcDbEllipse
 62
7
  6
CONTINUOUS
 10
163.9758183918
 20
154.2859833826
 30
0.0
 11
0.0
 21
24.0
 31
0.0
 40
0.9791630482
 41
0.1380309777
 42
0.1456428949
  0
ELLIPSE
  5
593
100
AcDbEntity
  8
0
100
AcDbEllipse
 62
7
  6
CONTINUOUS
 10
167.2093180188
 20
154.2859833826
 30
0.0
 11
47.0003641844
 21
0.0
 31
0.0
 40
0.5106343412
 41
1.7050243902
 42
1.7088273045
  0
ELLIPSE
  5
594
100
AcDbEntity
  8
0
100
AcDbEllipse
 62
7
  6
CONTINUOUS
 10
154.5674478734
 20
154.2859833826
 30
0.0
 11
0.0
 21
24.0
 31
0.0
 40
0.4895843255
 41
0.1000827742
 42
0.115241608
  0
ELLIPSE
  5
595
100
AcDbEntity
  8
0
100
AcDbEllipse
 62
7
  6
CONTINUOUS
 10
182.9337034812
 20
154.2859833826
 30
0.0
 11
164.4996610283
 21
0.0
 31
0.0
 40
0.1458969572
 41
1.7012234279
 42
1.7050243902
  0
ELLIPSE
  5
596
100
AcDbEntity
  8
0
100
AcDbEllipse
 62
7
  6
CONTINUOUS
 10
154.1170764016
 20
154.2859833826
 30
0.0
 11
0.0
 21
24.0
 31
0.0
 40
0.3263873779
 41
0.115241608
 42
0.1266280329
  0
ELLIPSE
  5
597
100
AcDbEntity
  8
0
100
AcDbEllipse
 62
7
  6
CONTINUOUS
 10
143.7323900479
 20
154.2859833826
 30
0.0
 11
141.0000168085
 21
-0.0
 31
0.0
 40
0.1702127457
 41
1.4365682634
 42
1.4403692257
  0
ELLIPSE
  5
598
100
AcDbEntity
  8
0
100
AcDbEllipse
 62
7
  6
CONTINUOUS
 10
157.8844233412
 20
154.2859833826
 30
0.0
 11
35.2500042021
 21
-0.0
 31
0.0
 40
0.6808509827
 41
1.4289604247
 42
1.4365682634
  0
ELLIPSE
  5
599
100
AcDbEntity
  8
0
100
AcDbEllipse
 62
7
  6
CONTINUOUS
 10
153.7213704411
 20
154.2859833826
 30
0.0
 11
-0.0
 21
24.0
 31
0.0
 40
0.1958326096
 41
0.1266280329
 42
0.1456428949
  0
ELLIPSE
  5
59A
100
AcDbEntity
  8
0
100
AcDbEllipse
 62
7
  6
CONTINUOUS
 10
159.5453878069
 20
154.2859833826
 30
0.0
 11
0.0
 21
24.0
 31
0.0
 40
0.9791742538
 41
-0.1494520148
 42
-0.1418359021
  0
ELLIPSE
  5
59B
100
AcDbEntity
  8
0
100
AcDbEllipse
 62
7
  6
CONTINUOUS
 10
161.8781409358
 20
154.2859833826
 30
0.0
 11
0.0
 21
24.0
 31
0.0
 40
0.3263839475
 41
-0.1608927279
 42
-0.1494520148
  0
ELLIPSE
  5
59C
100
AcDbEntity
  8
0
100
AcDbEllipse
 62
7
  6
CONTINUOUS
 10
162.0967389774
 20
154.2859833826
 30
0.0
 11
-0.0
 21
24.0
 31
0.0
 40
0.1958348371
 41
-0.2416673015
 42
-0.2223097899
  0
ELLIPSE
  5
59D
100
AcDbEntity
  8
0
100
AcDbEllipse
 62
7
  6
CONTINUOUS
 10
156.4705409618
 20
154.2859833826
 30
0.0
 11
0.0
 21
24.0
 31
0.0
 40
0.1631956709
 41
0.1761804013
 42
0.1991913898
  0
ELLIPSE
  5
59E
100
AcDbEntity
  8
0
100
AcDbEllipse
 62
7
  6
CONTINUOUS
 10
161.3468583069
 20
154.2859833826
 30
0.0
 11
0.0
 21
24.0
 31
0.0
 40
0.3263913798
 41
-0.2533258062
 42
-0.2416673015
  0
ELLIPSE
  5
59F
100
AcDbEntity
  8
0
100
AcDbEllipse
 62
7
  6
CONTINUOUS
 10
158.7955754145
 20
154.2859833826
 30
0.0
 11
-0.0
 21
24.0
 31
0.0
 40
0.6527752892
 41
0.1991913898
 42
0.2223097899
  0
ELLIPSE
  5
5A0
100
AcDbEntity
  8
0
100
AcDbEllipse
 62
7
  6
CONTINUOUS
 10
163.1133846668
 20
154.2859833826
 30
0.0
 11
35.2500042021
 21
0.0
 31
0.0
 40
0.6808509827
 41
1.7931061167
 42
1.800838532
  0
ELLIPSE
  5
5A1
100
AcDbEntity
  8
0
100
AcDbEllipse
 62
7
  6
CONTINUOUS
 10
181.8679999204
 20
154.2859833826
 30
0.0
 11
117.5003725887
 21
0.0
 31
0.0
 40
0.2042546715
 41
1.800838532
 42
1.8047099663
  0
ELLIPSE
  5
5A2
100
AcDbEntity
  8
0
100
AcDbEllipse
 62
7
  6
CONTINUOUS
 10
127.3981602957
 20
154.2859833826
 30
0.0
 11
117.4998347163
 21
-0.0
 31
0.0
 40
0.2042556065
 41
1.3368826873
 42
1.3407541216
  0
ELLIPSE
  5
5A3
100
AcDbEntity
  8
0
100
AcDbEllipse
 62
7
  6
CONTINUOUS
 10
146.1526529044
 20
154.2859833826
 30
0.0
 11
35.2500042021
 21
-0.0
 31
0.0
 40
0.6808509827
 41
1.3407541216
 42
1.3484865369
  0
ELLIPSE
  5
5A4
100
AcDbEntity
  8
0
100
AcDbEllipse
 62
7
  6
CONTINUOUS
 10
150.4704522741
 20
154.2859833826
 30
0.0
 11
-0.0
 21
24.0
 31
0.0
 40
0.6527771569
 41
-0.2223097899
 42
-0.1991913898
  0
ELLIPSE
  5
5A5
100
AcDbEntity
  8
0
100
AcDbEllipse
 62
7
  6
CONTINUOUS
 10
152.7954955962
 20
154.2859833826
 30
0.0
 11
-0.0
 21
24.0
 31
0.0
 40
0.1631956709
 41
-0.1991913898
 42
-0.1761804013
  0
ELLIPSE
  5
5A6
100
AcDbEntity
  8
0
100
AcDbEllipse
 62
7
  6
CONTINUOUS
 10
155.482359046
 20
154.2859833826
 30
0.0
 11
0.0
 21
24.0
 31
0.0
 40
0.3916651644
 41
-0.2223097899
 42
-0.2030366242
  0
ELLIPSE
  5
5A7
100
AcDbEntity
  8
0
100
AcDbEllipse
 62
7
  6
CONTINUOUS
 10
157.5319114607
 20
154.2859833826
 30
0.0
 11
-0.0
 21
24.0
 31
0.0
 40
0.4895871269
 41
-0.1532633207
 42
-0.1456428949
  0
ELLIPSE
  5
5A8
100
AcDbEntity
  8
0
100
AcDbEllipse
 62
7
  6
CONTINUOUS
 10
149.7828605622
 20
154.2859833826
 30
0.0
 11
35.2500042021
 21
-0.0
 31
0.0
 40
0.6808509827
 41
1.3407541216
 42
1.3484865369
  0
ELLIPSE
  5
5A9
100
AcDbEntity
  8
0
100
AcDbEllipse
 62
7
  6
CONTINUOUS
 10
136.3867243303
 20
154.2859833826
 30
0.0
 11
94.0001904965
 21
-0.0
 31
0.0
 40
0.2553186315
 41
1.3368826873
 42
1.3407541216
  0
ELLIPSE
  5
5AA
100
AcDbEntity
  8
0
100
AcDbEllipse
 62
7
  6
CONTINUOUS
 10
155.8266768372
 20
154.2859833826
 30
0.0
 11
-0.0
 21
24.0
 31
0.0
 40
0.9791630482
 41
-0.1456428949
 42
-0.1380309777
  0
ELLIPSE
  5
5AB
100
AcDbEntity
  8
0
100
AcDbEllipse
 62
7
  6
CONTINUOUS
 10
180.3166885694
 20
154.2859833826
 30
0.0
 11
93.9996526241
 21
0.0
 31
0.0
 40
0.2553200925
 41
1.800838532
 42
1.8047099663
  0
ELLIPSE
  5
5AC
100
AcDbEntity
  8
0
100
AcDbEllipse
 62
7
  6
CONTINUOUS
 10
152.5931772102
 20
154.2859833826
 30
0.0
 11
47.0003641844
 21
-0.0
 31
0.0
 40
0.5106343412
 41
1.4327653491
 42
1.4365682634
  0
ELLIPSE
  5
5AD
100
AcDbEntity
  8
0
100
AcDbEllipse
 62
7
  6
CONTINUOUS
 10
166.9206749825
 20
154.2859833826
 30
0.0
 11
35.2500042021
 21
0.0
 31
0.0
 40
0.6808509827
 41
1.7931061167
 42
1.800838532
  0
ELLIPSE
  5
5AE
100
AcDbEntity
  8
0
100
AcDbEllipse
 62
7
  6
CONTINUOUS
 10
162.6029048575
 20
154.2859833826
 30
0.0
 11
0.0
 21
24.0
 31
0.0
 40
0.6527826835
 41
0.2107362967
 42
0.2223097899
  0
ELLIPSE
  5
5AF
100
AcDbEntity
  8
0
100
AcDbEllipse
 62
7
  6
CONTINUOUS
 10
146.30348061
 20
154.2859833826
 30
0.0
 11
93.9996526241
 21
-0.0
 31
0.0
 40
0.2553200925
 41
1.4365682634
 42
1.4403692257
  0
ELLIPSE
  5
5B0
100
AcDbEntity
  8
0
100
AcDbEllipse
 62
7
  6
CONTINUOUS
 10
170.2230442577
 20
154.2859833826
 30
0.0
 11
94.0001904965
 21
0.0
 31
0.0
 40
0.2553186315
 41
1.7012234279
 42
1.7050243902
  0
ELLIPSE
  5
5B1
100
AcDbEntity
  8
0
100
AcDbEllipse
 62
7
  6
CONTINUOUS
 10
162.3607795456
 20
154.2859833826
 30
0.0
 11
35.2500042021
 21
0.0
 31
0.0
 40
0.6808509827
 41
1.7050243902
 42
1.7126322289
  0
ELLIPSE
  5
5B2
100
AcDbEntity
  8
0
100
AcDbEllipse
 62
7
  6
CONTINUOUS
 10
160.6997897352
 20
154.2859833826
 30
0.0
 11
0.0
 21
24.0
 31
0.0
 40
0.9791667834
 41
0.1418359021
 42
0.1532633207
  0
ELLIPSE
  5
5B3
100
AcDbEntity
  8
0
100
AcDbEllipse
 62
7
  6
CONTINUOUS
 10
158.9060011105
 20
154.2859833826
 30
0.0
 11
0.0
 21
24.0
 31
0.0
 40
0.4895871269
 41
0.1532633207
 42
0.1608927279
  0
ELLIPSE
  5
5B4
100
AcDbEntity
  8
0
100
AcDbEllipse
 62
7
  6
CONTINUOUS
 10
157.9648003997
 20
154.2859833826
 30
0.0
 11
0.0
 21
24.0
 31
0.0
 40
0.2447879606
 41
0.1608927279
 42
0.1761804013
  0
ELLIPSE
  5
5B5
100
AcDbEntity
  8
0
100
AcDbEllipse
 62
7
  6
CONTINUOUS
 10
148.2498501948
 20
154.2859833826
 30
0.0
 11
26.7045420128
 21
0.0
 31
0.0
 40
0.8987235201
 41
8.0034336488
 42
8.0878952734
  0
ELLIPSE
  5
5B6
100
AcDbEntity
  8
0
100
AcDbEllipse
 62
7
  6
CONTINUOUS
 10
146.6063563643
 20
154.2859833826
 30
0.0
 11
-0.0
 21
24.0
 31
0.0
 40
0.6527791007
 41
0.1380309777
 42
0.1494520148
  0
ELLIPSE
  5
5B7
100
AcDbEntity
  8
0
100
AcDbEllipse
 62
7
  6
CONTINUOUS
 10
145.2590833549
 20
154.2859833826
 30
0.0
 11
-0.0
 21
24.0
 31
0.0
 40
0.244790762
 41
0.1228308013
 42
0.1380309777
  0
ELLIPSE
  5
5B8
100
AcDbEntity
  8
0
100
AcDbEllipse
 62
7
  6
CONTINUOUS
 10
144.0091317172
 20
154.2859833826
 30
0.0
 11
0.0
 21
24.0
 31
0.0
 40
0.6527781669
 41
0.2223097899
 42
0.2339136395
  0
ELLIPSE
  5
5B9
100
AcDbEntity
  8
KONSTRUKTIONSELEMENTE
100
AcDbEllipse
 62
7
  6
CONTINUOUS
 10
144.0091317172
 20
154.2859833826
 30
0.0
 11
-0.0
 21
23.2
 31
0.0
 40
0.6527781669
 41
0.2301114369
 42
0.242138183
  0
ELLIPSE
  5
5BA
100
AcDbEntity
  8
0
100
AcDbEllipse
 62
7
  6
CONTINUOUS
 10
142.2820097509
 20
154.2859833826
 30
0.0
 11
0.0
 21
24.0
 31
0.0
 40
0.3263885403
 41
0.2107362967
 42
0.2223097899
  0
ELLIPSE
  5
5BB
100
AcDbEntity
  8
KONSTRUKTIONSELEMENTE
100
AcDbEllipse
 62
7
  6
CONTINUOUS
 10
142.2820097509
 20
154.2859833826
 30
0.0
 11
-0.0
 21
23.2
 31
0.0
 40
0.3263885403
 41
0.2181184791
 42
0.2301114369
  0
ELLIPSE
  5
5BC
100
AcDbEntity
  8
0
100
AcDbEllipse
 62
7
  6
CONTINUOUS
 10
143.6844801856
 20
154.2859833826
 30
0.0
 11
0.0
 21
24.0
 31
0.0
 40
0.6527791007
 41
6.3870554897
 42
6.3984269152
  0
ELLIPSE
  5
5BD
100
AcDbEntity
  8
0
100
AcDbEllipse
 62
7
  6
CONTINUOUS
 10
145.7149460091
 20
154.2859833826
 30
0.0
 11
35.2500042021
 21
0.0
 31
0.0
 40
0.6808509827
 41
1.6670931327
 42
1.6746665093
  0
ELLIPSE
  5
5BE
100
AcDbEntity
  8
0
100
AcDbEllipse
 62
7
  6
CONTINUOUS
 10
153.6231195039
 20
154.2859833826
 30
0.0
 11
117.4999691844
 21
0.0
 31
0.0
 40
0.2042553727
 41
1.6633085484
 42
1.6670931327
  0
ELLIPSE
  5
5BF
100
AcDbEntity
  8
0
100
AcDbEllipse
 62
7
  6
CONTINUOUS
 10
132.2679175607
 20
154.2859833826
 30
0.0
 11
117.4999691844
 21
-0.0
 31
0.0
 40
0.2042553727
 41
1.4744995209
 42
1.4782841052
  0
ELLIPSE
  5
5C0
100
AcDbEntity
  8
0
100
AcDbEllipse
 62
7
  6
CONTINUOUS
 10
140.1760910555
 20
154.2859833826
 30
0.0
 11
35.2500042021
 21
-0.0
 31
0.0
 40
0.6808509827
 41
1.4669261443
 42
1.4744995209
  0
ELLIPSE
  5
5C1
100
AcDbEntity
  8
0
100
AcDbEllipse
 62
7
  6
CONTINUOUS
 10
142.2065615263
 20
154.2859833826
 30
0.0
 11
0.0
 21
24.0
 31
0.0
 40
0.6527772331
 41
-0.115241608
 42
-0.1038701825
  0
ELLIPSE
  5
5C2
100
AcDbEntity
  8
0
100
AcDbEllipse
 62
7
  6
CONTINUOUS
 10
144.954688029
 20
154.2859833826
 30
0.0
 11
31.3333520095
 21
0.0
 31
0.0
 40
0.7659569903
 41
8.0034336488
 42
8.0148743618
  0
ELLIPSE
  5
5C3
100
AcDbEntity
  8
0
100
AcDbEllipse
 62
7
  6
CONTINUOUS
 10
142.6219749437
 20
154.2859833826
 30
0.0
 11
-0.0
 21
24.0
 31
0.0
 40
0.6527772331
 41
0.1380309777
 42
0.1494520148
  0
ELLIPSE
  5
5C4
100
AcDbEntity
  8
0
100
AcDbEllipse
 62
7
  6
CONTINUOUS
 10
141.2747127271
 20
154.2859833826
 30
0.0
 11
-0.0
 21
24.0
 31
0.0
 40
0.2447921628
 41
0.1228308013
 42
0.1380309777
  0
ELLIPSE
  5
5C5
100
AcDbEntity
  8
0
100
AcDbEllipse
 62
7
  6
CONTINUOUS
 10
144.4061261383
 20
154.2859833826
 30
0.0
 11
0.0
 21
24.0
 31
0.0
 40
0.1958325548
 41
-0.1991913898
 42
-0.1800086855
  0
ELLIPSE
  5
5C6
100
AcDbEntity
  8
KONSTRUKTIONSELEMENTE
100
AcDbEllipse
 62
7
  6
CONTINUOUS
 10
144.4061261383
 20
154.2859833826
 30
0.0
 11
0.0
 21
23.2
 31
0.0
 40
0.1958325548
 41
-0.2061573209
 42
-0.1862874345
  0
ELLIPSE
  5
5C7
100
AcDbEntity
  8
0
100
AcDbEllipse
 62
7
  6
CONTINUOUS
 10
143.7861054076
 20
154.2859833826
 30
0.0
 11
0.0
 21
24.0
 31
0.0
 40
0.3263895503
 41
-0.2107362967
 42
-0.1991913898
  0
ELLIPSE
  5
5C8
100
AcDbEntity
  8
KONSTRUKTIONSELEMENTE
100
AcDbEllipse
 62
7
  6
CONTINUOUS
 10
143.7861054076
 20
154.2859833826
 30
0.0
 11
-0.0
 21
23.2
 31
0.0
 40
0.3263895503
 41
-0.2181184791
 42
-0.2061573209
  0
ELLIPSE
  5
5C9
100
AcDbEntity
  8
0
100
AcDbEllipse
 62
7
  6
CONTINUOUS
 10
142.9668230165
 20
154.2859833826
 30
0.0
 11
0.0
 21
24.0
 31
0.0
 40
0.4895828391
 41
-0.2261742777
 42
-0.2107362967
  0
ELLIPSE
  5
5CA
100
AcDbEntity
  8
KONSTRUKTIONSELEMENTE
100
AcDbEllipse
 62
7
  6
CONTINUOUS
 10
142.9668230165
 20
154.2859833826
 30
0.0
 11
-0.0
 21
23.2
 31
0.0
 40
0.4895828391
 41
-0.2341164979
 42
-0.2181184791
  0
ELLIPSE
  5
5CB
100
AcDbEntity
  8
0
100
AcDbEllipse
 62
7
  6
CONTINUOUS
 10
140.3318724207
 20
154.2859833826
 30
0.0
 11
-0.0
 21
24.0
 31
0.0
 40
0.9791666691
 41
-0.2377886497
 42
-0.2261742777
  0
ELLIPSE
  5
5CC
100
AcDbEntity
  8
KONSTRUKTIONSELEMENTE
100
AcDbEllipse
 62
7
  6
CONTINUOUS
 10
140.3318724207
 20
154.2859833826
 30
0.0
 11
-0.0
 21
23.2
 31
0.0
 40
0.9791666691
 41
-0.2461549604
 42
-0.2341164979
  0
ELLIPSE
  5
5CD
100
AcDbEntity
  8
0
100
AcDbEllipse
 62
7
  6
CONTINUOUS
 10
136.641528432
 20
154.2859833826
 30
0.0
 11
39.166652966
 21
-0.0
 31
0.0
 40
0.6127661718
 41
1.3213605164
 42
1.3330076771
  0
ELLIPSE
  5
5CE
100
AcDbEntity
  8
KONSTRUKTIONSELEMENTE
100
AcDbEllipse
 62
7
  6
CONTINUOUS
 10
136.641528432
 20
154.2859833826
 30
0.0
 11
37.8610978671
 21
-0.0
 31
0.0
 40
0.6127661718
 41
1.3148762974
 42
1.3246413664
  0
ELLIPSE
  5
5CF
100
AcDbEntity
  8
0
100
AcDbEllipse
 62
7
  6
CONTINUOUS
 10
111.5032253244
 20
154.2859833826
 30
0.0
 11
141.0000044648
 21
-0.0
 31
0.0
 40
0.1702127606
 41
1.3174705206
 42
1.3213605164
  0
ELLIPSE
  5
5D0
100
AcDbEntity
  8
0
100
AcDbEllipse
 62
7
  6
CONTINUOUS
 10
182.1794775624
 20
154.2859833826
 30
0.0
 11
141.0000044648
 21
0.0
 31
0.0
 40
0.1702127606
 41
1.8202321372
 42
1.824122133
  0
ELLIPSE
  5
5D1
100
AcDbEntity
  8
0
100
AcDbEllipse
 62
7
  6
CONTINUOUS
 10
157.0411855197
 20
154.2859833826
 30
0.0
 11
39.1666977887
 21
-0.0
 31
0.0
 40
0.6127654705
 41
1.8085849765
 42
1.8202321372
  0
ELLIPSE
  5
5D2
100
AcDbEntity
  8
KONSTRUKTIONSELEMENTE
100
AcDbEllipse
 62
7
  6
CONTINUOUS
 10
157.0411855197
 20
154.2859833826
 30
0.0
 11
37.8611411957
 21
-0.0
 31
0.0
 40
0.6127654705
 41
1.8169512872
 42
1.8267163562
  0
ELLIPSE
  5
5D3
100
AcDbEntity
  8
0
100
AcDbEllipse
 62
7
  6
CONTINUOUS
 10
153.3508309728
 20
154.2859833826
 30
0.0
 11
-0.0
 21
24.0
 31
0.0
 40
0.9791666691
 41
0.2261742777
 42
0.2377886497
  0
ELLIPSE
  5
5D4
100
AcDbEntity
  8
KONSTRUKTIONSELEMENTE
100
AcDbEllipse
 62
7
  6
CONTINUOUS
 10
153.3508309728
 20
154.2859833826
 30
0.0
 11
-0.0
 21
23.2
 31
0.0
 40
0.9791666691
 41
0.2341164979
 42
0.2461549604
  0
ELLIPSE
  5
5D5
100
AcDbEntity
  8
0
100
AcDbEllipse
 62
7
  6
CONTINUOUS
 10
150.7158879156
 20
154.2859833826
 30
0.0
 11
0.0
 21
24.0
 31
0.0
 40
0.4895842398
 41
0.2107362967
 42
0.2261742777
  0
ELLIPSE
  5
5D6
100
AcDbEntity
  8
KONSTRUKTIONSELEMENTE
100
AcDbEllipse
 62
7
  6
CONTINUOUS
 10
150.7158879156
 20
154.2859833826
 30
0.0
 11
0.0
 21
23.2
 31
0.0
 40
0.4895842398
 41
0.2181184791
 42
0.2341164979
  0
ELLIPSE
  5
5D7
100
AcDbEntity
  8
0
100
AcDbEllipse
 62
7
  6
CONTINUOUS
 10
149.8965891165
 20
154.2859833826
 30
0.0
 11
-0.0
 21
24.0
 31
0.0
 40
0.3263876827
 41
0.1991913898
 42
0.2107362967
  0
ELLIPSE
  5
5D8
100
AcDbEntity
  8
KONSTRUKTIONSELEMENTE
100
AcDbEllipse
 62
7
  6
CONTINUOUS
 10
149.8965891165
 20
154.2859833826
 30
0.0
 11
-0.0
 21
23.2
 31
0.0
 40
0.3263876827
 41
0.2061573209
 42
0.2181184791
  0
ELLIPSE
  5
5D9
100
AcDbEntity
  8
0
100
AcDbEllipse
 62
7
  6
CONTINUOUS
 10
149.2765772552
 20
154.2859833826
 30
0.0
 11
0.0
 21
24.0
 31
0.0
 40
0.1958325548
 41
0.1800086855
 42
0.1991913898
  0
ELLIPSE
  5
5DA
100
AcDbEntity
  8
KONSTRUKTIONSELEMENTE
100
AcDbEllipse
 62
7
  6
CONTINUOUS
 10
149.2765772552
 20
154.2859833826
 30
0.0
 11
-0.0
 21
23.2
 31
0.0
 40
0.1958325548
 41
0.1862874345
 42
0.2061573209
  0
ELLIPSE
  5
5DB
100
AcDbEntity
  8
KONSTRUKTIONSELEMENTE
100
AcDbEllipse
 62
7
  6
CONTINUOUS
 10
163.1719535575
 20
154.2859833826
 30
0.0
 11
-0.0
 21
23.2
 31
0.0
 40
0.5970530173
 41
-0.2556638591
 42
-0.0996282298
  0
ELLIPSE
  5
5DC
100
AcDbEntity
  8
0
100
AcDbEllipse
 62
7
  6
CONTINUOUS
 10
163.1719535575
 20
154.2859833826
 30
0.0
 11
0.0
 21
24.0
 31
0.0
 40
0.5970530173
 41
-0.2533258062
 42
-0.0962968059
  0
ELLIPSE
  5
5DD
100
AcDbEntity
  8
0
100
AcDbEllipse
 62
7
  6
CONTINUOUS
 10
146.2734883858
 20
154.2859833826
 30
0.0
 11
0.0
 21
24.0
 31
0.0
 40
0.1631947752
 41
0.1266280329
 42
0.1494520148
  0
ELLIPSE
  5
5DE
100
AcDbEntity
  8
0
100
AcDbEllipse
 62
7
  6
CONTINUOUS
 10
147.7573939391
 20
154.2859833826
 30
0.0
 11
-0.0
 21
24.0
 31
0.0
 40
0.6527778621
 41
6.3870554897
 42
6.4098133401
  0
ELLIPSE
  5
5DF
100
AcDbEntity
  8
0
100
AcDbEllipse
 62
7
  6
CONTINUOUS
 10
149.7878628446
 20
154.2859833826
 30
0.0
 11
35.2500042021
 21
0.0
 31
0.0
 40
0.6808509827
 41
1.6670931327
 42
1.6746665093
  0
ELLIPSE
  5
5E0
100
AcDbEntity
  8
0
100
AcDbEllipse
 62
7
  6
CONTINUOUS
 10
157.6960234106
 20
154.2859833826
 30
0.0
 11
117.4998347163
 21
0.0
 31
0.0
 40
0.2042556065
 41
1.6633085484
 42
1.6670931327
  0
ELLIPSE
  5
5E1
100
AcDbEntity
  8
0
100
AcDbEllipse
 62
7
  6
CONTINUOUS
 10
135.9866546318
 20
154.2859833826
 30
0.0
 11
117.5001036525
 21
-0.0
 31
0.0
 40
0.204255139
 41
1.4744995209
 42
1.4782841052
  0
ELLIPSE
  5
5E2
100
AcDbEntity
  8
0
100
AcDbEllipse
 62
7
  6
CONTINUOUS
 10
143.8948410555
 20
154.2859833826
 30
0.0
 11
35.2500042021
 21
-0.0
 31
0.0
 40
0.6808509827
 41
1.4669261443
 42
1.4744995209
  0
ELLIPSE
  5
5E3
100
AcDbEntity
  8
0
100
AcDbEllipse
 62
7
  6
CONTINUOUS
 10
145.9253122847
 20
154.2859833826
 30
0.0
 11
-0.0
 21
24.0
 31
0.0
 40
0.6527769283
 41
-0.1266280329
 42
-0.1038701825
  0
ELLIPSE
  5
5E4
100
AcDbEntity
  8
0
100
AcDbEllipse
 62
7
  6
CONTINUOUS
 10
147.4092121773
 20
154.2859833826
 30
0.0
 11
0.0
 21
24.0
 31
0.0
 40
0.163195709
 41
-0.1494520148
 42
-0.1266280329
  0
ELLIPSE
  5
5E5
100
AcDbEntity
  8
KONSTRUKTIONSELEMENTE
100
AcDbEllipse
 62
7
  6
CONTINUOUS
 10
160.1216630329
 20
154.2859833826
 30
0.0
 11
4.8260882054
 21
23.1814553719
 31
0.0
 40
0.1921701791
 41
0.5922362582
 42
0.8529669546
  0
ELLIPSE
  5
5E6
100
AcDbEntity
  8
0
100
AcDbEllipse
 62
7
  6
CONTINUOUS
 10
139.7886437999
 20
154.2859833826
 30
0.0
 11
0.0
 21
24.0
 31
0.0
 40
0.6527779334
 41
6.3870554897
 42
6.3984269152
  0
ELLIPSE
  5
5E7
100
AcDbEntity
  8
0
100
AcDbEllipse
 62
7
  6
CONTINUOUS
 10
179.2543048866
 20
154.2859833826
 30
0.0
 11
94.0001904965
 21
-0.0
 31
0.0
 40
0.2553186315
 41
1.7584696546
 42
1.7623061317
  0
ELLIPSE
  5
5E8
100
AcDbEntity
  8
0
100
AcDbEllipse
 62
7
  6
CONTINUOUS
 10
170.3081938109
 20
154.2859833826
 30
0.0
 11
46.999826312
 21
-0.0
 31
0.0
 40
0.5106401849
 41
1.7623061317
 42
1.7661454646
  0
ELLIPSE
  5
5E9
100
AcDbEntity
  8
0
100
AcDbEllipse
 62
7
  6
CONTINUOUS
 10
141.819112528
 20
154.2859833826
 30
0.0
 11
35.2500042021
 21
0.0
 31
0.0
 40
0.6808509827
 41
1.6670931327
 42
1.6746665093
  0
ELLIPSE
  5
5EA
100
AcDbEntity
  8
0
100
AcDbEllipse
 62
7
  6
CONTINUOUS
 10
165.7467003367
 20
154.2859833826
 30
0.0
 11
-0.0
 21
24.0
 31
0.0
 40
0.9791742538
 41
0.1953491378
 42
0.2030366242
  0
ELLIPSE
  5
5EB
100
AcDbEntity
  8
0
100
AcDbEllipse
 62
7
  6
CONTINUOUS
 10
162.5875424741
 20
154.2859833826
 30
0.0
 11
-0.0
 21
24.0
 31
0.0
 40
0.3263839475
 41
0.2030366242
 42
0.214590864
  0
ELLIPSE
  5
5EC
100
AcDbEntity
  8
0
100
AcDbEllipse
 62
7
  6
CONTINUOUS
 10
149.7272908711
 20
154.2859833826
 30
0.0
 11
117.5000196099
 21
0.0
 31
0.0
 40
0.2042552851
 41
1.6633085484
 42
1.6670931327
  0
ELLIPSE
  5
5ED
100
AcDbEntity
  8
0
100
AcDbEllipse
 62
7
  6
CONTINUOUS
 10
128.3720809107
 20
154.2859833826
 30
0.0
 11
117.5000028014
 21
0.0
 31
0.0
 40
0.2042553143
 41
1.4744995209
 42
1.4782841052
  0
ELLIPSE
  5
5EE
100
AcDbEntity
  8
0
100
AcDbEllipse
 62
7
  6
CONTINUOUS
 10
136.2802576377
 20
154.2859833826
 30
0.0
 11
35.2500042021
 21
-0.0
 31
0.0
 40
0.6808509827
 41
1.4669261443
 42
1.4744995209
  0
ELLIPSE
  5
5EF
100
AcDbEntity
  8
0
100
AcDbEllipse
 62
7
  6
CONTINUOUS
 10
148.3019593027
 20
154.2859833826
 30
0.0
 11
0.0
 21
24.0
 31
0.0
 40
0.1958325548
 41
-0.1991913898
 42
-0.1800086855
  0
ELLIPSE
  5
5F0
100
AcDbEntity
  8
KONSTRUKTIONSELEMENTE
100
AcDbEllipse
 62
7
  6
CONTINUOUS
 10
148.3019593027
 20
154.2859833826
 30
0.0
 11
0.0
 21
23.2
 31
0.0
 40
0.1958325548
 41
-0.2061573209
 42
-0.1862874345
  0
ELLIPSE
  5
5F1
100
AcDbEntity
  8
0
100
AcDbEllipse
 62
7
  6
CONTINUOUS
 10
147.6819297027
 20
154.2859833826
 30
0.0
 11
0.0
 21
24.0
 31
0.0
 40
0.3263914179
 41
-0.2107362967
 42
-0.1991913898
  0
ELLIPSE
  5
5F2
100
AcDbEntity
  8
KONSTRUKTIONSELEMENTE
100
AcDbEllipse
 62
7
  6
CONTINUOUS
 10
147.6819297027
 20
154.2859833826
 30
0.0
 11
-0.0
 21
23.2
 31
0.0
 40
0.3263914179
 41
-0.2181184791
 42
-0.2061573209
  0
ELLIPSE
  5
5F3
100
AcDbEntity
  8
0
100
AcDbEllipse
 62
7
  6
CONTINUOUS
 10
146.8626637196
 20
154.2859833826
 30
0.0
 11
-0.0
 21
24.0
 31
0.0
 40
0.4895814384
 41
-0.2261742777
 42
-0.2107362967
  0
ELLIPSE
  5
5F4
100
AcDbEntity
  8
KONSTRUKTIONSELEMENTE
100
AcDbEllipse
 62
7
  6
CONTINUOUS
 10
146.8626637196
 20
154.2859833826
 30
0.0
 11
-0.0
 21
23.2
 31
0.0
 40
0.4895814384
 41
-0.2341164979
 42
-0.2181184791
  0
ELLIPSE
  5
5F5
100
AcDbEntity
  8
0
100
AcDbEllipse
 62
7
  6
CONTINUOUS
 10
144.2277055851
 20
154.2859833826
 30
0.0
 11
0.0
 21
24.0
 31
0.0
 40
0.9791666691
 41
-0.2377886497
 42
-0.2261742777
  0
ELLIPSE
  5
5F6
100
AcDbEntity
  8
KONSTRUKTIONSELEMENTE
100
AcDbEllipse
 62
7
  6
CONTINUOUS
 10
144.2277055851
 20
154.2859833826
 30
0.0
 11
0.0
 21
23.2
 31
0.0
 40
0.9791666691
 41
-0.2461549604
 42
-0.2341164979
  0
ELLIPSE
  5
5F7
100
AcDbEntity
  8
0
100
AcDbEllipse
 62
7
  6
CONTINUOUS
 10
140.5373510382
 20
154.2859833826
 30
0.0
 11
39.1666977887
 21
0.0
 31
0.0
 40
0.6127654705
 41
1.3213605164
 42
1.3330076771
  0
ELLIPSE
  5
5F8
100
AcDbEntity
  8
KONSTRUKTIONSELEMENTE
100
AcDbEllipse
 62
7
  6
CONTINUOUS
 10
140.5373510382
 20
154.2859833826
 30
0.0
 11
37.8611411957
 21
0.0
 31
0.0
 40
0.6127654705
 41
1.3148762974
 42
1.3246413664
  0
ELLIPSE
  5
5F9
100
AcDbEntity
  8
0
100
AcDbEllipse
 62
7
  6
CONTINUOUS
 10
115.3990589955
 20
154.2859833826
 30
0.0
 11
141.0000044648
 21
-0.0
 31
0.0
 40
0.1702127606
 41
1.3174705206
 42
1.3213605164
  0
ELLIPSE
  5
5FA
100
AcDbEntity
  8
0
100
AcDbEllipse
 62
7
  6
CONTINUOUS
 10
186.0753112335
 20
154.2859833826
 30
0.0
 11
141.0000044648
 21
0.0
 31
0.0
 40
0.1702127606
 41
1.8202321372
 42
1.824122133
  0
ELLIPSE
  5
5FB
100
AcDbEntity
  8
0
100
AcDbEllipse
 62
7
  6
CONTINUOUS
 10
160.9370191908
 20
154.2859833826
 30
0.0
 11
39.1666977887
 21
-0.0
 31
0.0
 40
0.6127654705
 41
1.8085849765
 42
1.8202321372
  0
ELLIPSE
  5
5FC
100
AcDbEntity
  8
KONSTRUKTIONSELEMENTE
100
AcDbEllipse
 62
7
  6
CONTINUOUS
 10
160.9370191908
 20
154.2859833826
 30
0.0
 11
37.8611411957
 21
0.0
 31
0.0
 40
0.6127654705
 41
1.8169512872
 42
1.8267163562
  0
ELLIPSE
  5
5FD
100
AcDbEntity
  8
0
100
AcDbEllipse
 62
7
  6
CONTINUOUS
 10
157.2466646439
 20
154.2859833826
 30
0.0
 11
-0.0
 21
24.0
 31
0.0
 40
0.9791666691
 41
0.2261742777
 42
0.2377886497
  0
ELLIPSE
  5
5FE
100
AcDbEntity
  8
KONSTRUKTIONSELEMENTE
100
AcDbEllipse
 62
7
  6
CONTINUOUS
 10
157.2466646439
 20
154.2859833826
 30
0.0
 11
0.0
 21
23.2
 31
0.0
 40
0.9791666691
 41
0.2341164979
 42
0.2461549604
  0
ELLIPSE
  5
5FF
100
AcDbEntity
  8
0
100
AcDbEllipse
 62
7
  6
CONTINUOUS
 10
154.6117065094
 20
154.2859833826
 30
0.0
 11
0.0
 21
24.0
 31
0.0
 40
0.4895814384
 41
0.2107362967
 42
0.2261742777
  0
ELLIPSE
  5
600
100
AcDbEntity
  8
KONSTRUKTIONSELEMENTE
100
AcDbEllipse
 62
7
  6
CONTINUOUS
 10
154.6117065094
 20
154.2859833826
 30
0.0
 11
0.0
 21
23.2
 31
0.0
 40
0.4895814384
 41
0.2181184791
 42
0.2341164979
  0
ELLIPSE
  5
601
100
AcDbEntity
  8
0
100
AcDbEllipse
 62
7
  6
CONTINUOUS
 10
153.7924405263
 20
154.2859833826
 30
0.0
 11
0.0
 21
24.0
 31
0.0
 40
0.3263914179
 41
0.1991913898
 42
0.2107362967
  0
ELLIPSE
  5
602
100
AcDbEntity
  8
KONSTRUKTIONSELEMENTE
100
AcDbEllipse
 62
7
  6
CONTINUOUS
 10
153.7924405263
 20
154.2859833826
 30
0.0
 11
0.0
 21
23.2
 31
0.0
 40
0.3263914179
 41
0.2061573209
 42
0.2181184791
  0
ELLIPSE
  5
603
100
AcDbEntity
  8
0
100
AcDbEllipse
 62
7
  6
CONTINUOUS
 10
153.1724109263
 20
154.2859833826
 30
0.0
 11
0.0
 21
24.0
 31
0.0
 40
0.1958325548
 41
0.1800086855
 42
0.1991913898
  0
ELLIPSE
  5
604
100
AcDbEntity
  8
KONSTRUKTIONSELEMENTE
100
AcDbEllipse
 62
7
  6
CONTINUOUS
 10
153.1724109263
 20
154.2859833826
 30
0.0
 11
-0.0
 21
23.2
 31
0.0
 40
0.1958325548
 41
0.1862874345
 42
0.2061573209
  0
ELLIPSE
  5
605
100
AcDbEntity
  8
0
100
AcDbEllipse
 62
7
  6
CONTINUOUS
 10
138.3107257848
 20
154.2859833826
 30
0.0
 11
0.0
 21
24.0
 31
0.0
 40
0.6527781669
 41
-0.115241608
 42
-0.1038701825
  0
ELLIPSE
  5
606
100
AcDbEntity
  8
0
100
AcDbEllipse
 62
7
  6
CONTINUOUS
 10
160.1216630329
 20
154.2859833826
 30
0.0
 11
4.99250504
 21
23.980815902
 31
0.0
 40
0.1921701791
 41
0.600144462
 42
0.8520473097
  0
ELLIPSE
  5
607
100
AcDbEntity
  8
KONSTRUKTIONSELEMENTE
100
AcDbEllipse
 62
7
  6
CONTINUOUS
 10
159.9225938638
 20
154.2859833826
 30
0.0
 11
0.0
 21
23.2
 31
0.0
 40
0.4895758784
 41
-0.2559223109
 42
-0.2542007644
  0
ELLIPSE
  5
608
100
AcDbEntity
  8
0
100
AcDbEllipse
 62
7
  6
CONTINUOUS
 10
159.9225938638
 20
154.2859833826
 30
0.0
 11
0.0
 21
24.0
 31
0.0
 40
0.4895758784
 41
-0.2533258062
 42
-0.2455496656
  0
ELLIPSE
  5
609
100
AcDbEntity
  8
KONSTRUKTIONSELEMENTE
100
AcDbEllipse
 62
7
  6
CONTINUOUS
 10
160.8746366444
 20
154.2859833826
 30
0.0
 11
0.0
 21
23.2
 31
0.0
 40
0.3263913608
 41
-0.2542007644
 42
-0.242138183
  0
ELLIPSE
  5
60A
100
AcDbEntity
  8
0
100
AcDbEllipse
 62
7
  6
CONTINUOUS
 10
160.8746366444
 20
154.2859833826
 30
0.0
 11
-0.0
 21
24.0
 31
0.0
 40
0.3263913608
 41
-0.2455496656
 42
-0.2339136395
  0
ELLIPSE
  5
60B
100
AcDbEntity
  8
KONSTRUKTIONSELEMENTE
100
AcDbEllipse
 62
7
  6
CONTINUOUS
 10
165.4138203196
 20
154.2859833826
 30
0.0
 11
0.0
 21
23.2
 31
0.0
 40
0.4895870412
 41
0.242138183
 42
0.2501757943
  0
ELLIPSE
  5
60C
100
AcDbEntity
  8
0
100
AcDbEllipse
 62
7
  6
CONTINUOUS
 10
165.4138203196
 20
154.2859833826
 30
0.0
 11
-0.0
 21
24.0
 31
0.0
 40
0.4895870412
 41
0.2339136395
 42
0.2416673015
  0
ELLIPSE
  5
60D
100
AcDbEntity
  8
KONSTRUKTIONSELEMENTE
100
AcDbEllipse
 62
7
  6
CONTINUOUS
 10
171.0378614212
 20
154.2859833826
 30
0.0
 11
34.0749995874
 21
0.0
 31
0.0
 40
0.6808510721
 41
1.8209721211
 42
1.8267186128
  0
ELLIPSE
  5
60E
100
AcDbEntity
  8
0
100
AcDbEllipse
 62
7
  6
CONTINUOUS
 10
171.0378614212
 20
154.2859833826
 30
0.0
 11
35.2499995732
 21
0.0
 31
0.0
 40
0.6808510721
 41
1.8124636283
 42
1.8202321372
  0
ELLIPSE
  5
60F
100
AcDbEntity
  8
0
100
AcDbEllipse
 62
7
  6
CONTINUOUS
 10
191.3418286122
 20
154.2859833826
 30
0.0
 11
117.4998244299
 21
-0.0
 31
0.0
 40
0.2042556244
 41
1.8202321372
 42
1.824122133
  0
ELLIPSE
  5
610
100
AcDbEntity
  8
KONSTRUKTIONSELEMENTE
100
AcDbEllipse
 62
7
  6
CONTINUOUS
 10
158.6569049759
 20
154.2859833826
 30
0.0
 11
-3.6474013349
 21
23.1935471189
 31
0.0
 40
0.1500106415
 41
-0.8365670547
 42
-0.6426663088
  0
ELLIPSE
  5
611
100
AcDbEntity
  8
0
100
AcDbEllipse
 62
7
  6
CONTINUOUS
 10
158.6569049759
 20
154.2859833826
 30
0.0
 11
-3.7731737947
 21
23.9933246058
 31
0.0
 40
0.1500106415
 41
-0.8356474099
 42
-0.6482593376
  0
ELLIPSE
  5
612
100
AcDbEntity
  8
0
100
AcDbEllipse
 62
7
  6
CONTINUOUS
 10
137.8033894338
 20
154.2859833826
 30
0.0
 11
94.0001822673
 21
0.0
 31
0.0
 40
0.2553186539
 41
1.3174705206
 42
1.3213605164
  0
ELLIPSE
  5
613
100
AcDbEntity
  8
KONSTRUKTIONSELEMENTE
100
AcDbEllipse
 62
7
  6
CONTINUOUS
 10
149.4057699919
 20
154.2859833826
 30
0.0
 11
45.4331614576
 21
-0.0
 31
0.0
 40
0.5106402296
 41
1.3148734538
 42
1.3165955624
  0
ELLIPSE
  5
614
100
AcDbEntity
  8
0
100
AcDbEllipse
 62
7
  6
CONTINUOUS
 10
150.16931872
 20
154.2859833826
 30
0.0
 11
-0.0
 21
24.0
 31
0.0
 40
0.1631938414
 41
0.1266280329
 42
0.1494520148
  0
ELLIPSE
  5
615
100
AcDbEntity
  8
0
100
AcDbEllipse
 62
7
  6
CONTINUOUS
 10
149.4057699919
 20
154.2859833826
 30
0.0
 11
46.9998221975
 21
-0.0
 31
0.0
 40
0.5106402296
 41
1.3213605164
 42
1.3252466612
  0
ELLIPSE
  5
616
100
AcDbEntity
  8
0
100
AcDbEllipse
 62
7
  6
CONTINUOUS
 10
151.6532242732
 20
154.2859833826
 30
0.0
 11
-0.0
 21
24.0
 31
0.0
 40
0.6527769283
 41
6.3870554897
 42
6.4098133401
  0
ELLIPSE
  5
617
100
AcDbEntity
  8
0
100
AcDbEllipse
 62
7
  6
CONTINUOUS
 10
153.6836955024
 20
154.2859833826
 30
0.0
 11
35.2500042021
 21
0.0
 31
0.0
 40
0.6808509827
 41
1.6670931327
 42
1.6746665093
  0
ELLIPSE
  5
618
100
AcDbEntity
  8
0
100
AcDbEllipse
 62
7
  6
CONTINUOUS
 10
161.5918819261
 20
154.2859833826
 30
0.0
 11
117.5001036525
 21
-0.0
 31
0.0
 40
0.204255139
 41
1.6633085484
 42
1.6670931327
  0
ELLIPSE
  5
619
100
AcDbEntity
  8
0
100
AcDbEllipse
 62
7
  6
CONTINUOUS
 10
139.8824883029
 20
154.2859833826
 30
0.0
 11
117.5001036525
 21
-0.0
 31
0.0
 40
0.204255139
 41
1.4744995209
 42
1.4782841052
  0
ELLIPSE
  5
61A
100
AcDbEntity
  8
0
100
AcDbEllipse
 62
7
  6
CONTINUOUS
 10
147.7906747266
 20
154.2859833826
 30
0.0
 11
35.2500042021
 21
-0.0
 31
0.0
 40
0.6808509827
 41
1.4669261443
 42
1.4744995209
  0
ELLIPSE
  5
61B
100
AcDbEntity
  8
0
100
AcDbEllipse
 62
7
  6
CONTINUOUS
 10
149.8211459558
 20
154.2859833826
 30
0.0
 11
0.0
 21
24.0
 31
0.0
 40
0.6527769283
 41
-0.1266280329
 42
-0.1038701825
  0
ELLIPSE
  5
61C
100
AcDbEntity
  8
0
100
AcDbEllipse
 62
7
  6
CONTINUOUS
 10
151.305051509
 20
154.2859833826
 30
0.0
 11
0.0
 21
24.0
 31
0.0
 40
0.1631938414
 41
-0.1494520148
 42
-0.1266280329
  0
ELLIPSE
  5
61D
100
AcDbEntity
  8
KONSTRUKTIONSELEMENTE
100
AcDbEllipse
 62
7
  6
CONTINUOUS
 10
157.0437630627
 20
154.2859833826
 30
0.0
 11
3.3933128765
 21
23.1951073616
 31
0.0
 40
0.140405379
 41
0.6396177367
 42
0.8335184826
  0
ELLIPSE
  5
61E
100
AcDbEntity
  8
KONSTRUKTIONSELEMENTE
100
AcDbEllipse
 62
7
  6
CONTINUOUS
 10
155.1183312614
 20
154.2859833826
 30
0.0
 11
0.0
 21
23.2
 31
0.0
 40
0.979166612
 41
-0.2542007644
 42
-0.242138183
  0
ELLIPSE
  5
61F
100
AcDbEntity
  8
0
100
AcDbEllipse
 62
7
  6
CONTINUOUS
 10
157.0437630627
 20
154.2859833826
 30
0.0
 11
3.5103236653
 21
23.9949386499
 31
0.0
 40
0.140405379
 41
0.6452107655
 42
0.8325988378
  0
ELLIPSE
  5
620
100
AcDbEntity
  8
0
100
AcDbEllipse
 62
7
  6
CONTINUOUS
 10
155.1183312614
 20
154.2859833826
 30
0.0
 11
0.0
 21
24.0
 31
0.0
 40
0.979166612
 41
-0.2455496656
 42
-0.2339136395
  0
ELLIPSE
  5
621
100
AcDbEntity
  8
KONSTRUKTIONSELEMENTE
100
AcDbEllipse
 62
7
  6
CONTINUOUS
 10
159.203555012
 20
154.2859833826
 30
0.0
 11
-0.0
 21
23.2
 31
0.0
 40
0.2447935206
 41
-0.242138183
 42
-0.2261101273
  0
ELLIPSE
  5
622
100
AcDbEntity
  8
0
100
AcDbEllipse
 62
7
  6
CONTINUOUS
 10
159.203555012
 20
154.2859833826
 30
0.0
 11
0.0
 21
24.0
 31
0.0
 40
0.2447935206
 41
-0.2339136395
 42
-0.2184486723
  0
ELLIPSE
  5
623
100
AcDbEntity
  8
0
100
AcDbEllipse
 62
7
  6
CONTINUOUS
 10
134.2409351145
 20
152.0359833826
 30
0.0
 11
0.0
 21
4.0
 31
0.0
 40
1.0
 41
0.2635119117
 42
1.5707963268
  0
ELLIPSE
  5
624
100
AcDbEntity
  8
KONSTRUKTIONSELEMENTE
100
AcDbEllipse
 62
7
  6
CONTINUOUS
 10
155.5883130225
 20
154.2859833826
 30
0.0
 11
-4.826090387
 21
23.1814553408
 31
0.0
 40
0.1921702533
 41
-0.8529669881
 42
-0.5922362917
  0
ELLIPSE
  5
625
100
AcDbEntity
  8
0
100
AcDbEllipse
 62
7
  6
CONTINUOUS
 10
155.5883130225
 20
154.2859833826
 30
0.0
 11
-4.9925072969
 21
23.9808158698
 31
0.0
 40
0.1921702533
 41
-0.8520473432
 42
-0.6001444955
  0
ELLIPSE
  5
626
100
AcDbEntity
  8
0
100
AcDbEllipse
 62
7
  6
CONTINUOUS
 10
115.5761350425
 20
154.2859833826
 30
0.0
 11
141.0000504255
 21
-0.0
 31
0.0
 40
0.1702127051
 41
1.3984416023
 42
1.402264733
  0
ELLIPSE
  5
627
100
AcDbEntity
  8
0
100
AcDbEllipse
 62
7
  6
CONTINUOUS
 10
133.7125491012
 20
154.2859833826
 30
0.0
 11
35.2500042021
 21
-0.0
 31
0.0
 40
0.6808509827
 41
1.3907876413
 42
1.3984416023
  0
ELLIPSE
  5
628
100
AcDbEntity
  8
0
100
AcDbEllipse
 62
7
  6
CONTINUOUS
 10
160.8079517763
 20
154.2859833826
 30
0.0
 11
-0.0
 21
24.0
 31
0.0
 40
0.4895871269
 41
-0.1608927279
 42
-0.1532633207
  0
ELLIPSE
  5
629
100
AcDbEntity
  8
0
100
AcDbEllipse
 62
7
  6
CONTINUOUS
 10
137.9199481315
 20
154.2859833826
 30
0.0
 11
0.0
 21
24.0
 31
0.0
 40
0.4895827534
 41
-0.1953491378
 42
-0.1800086855
  0
ELLIPSE
  5
62A
100
AcDbEntity
  8
0
100
AcDbEllipse
 62
7
  6
CONTINUOUS
 10
155.4265859021
 20
154.2859833826
 30
0.0
 11
46.999826312
 21
-0.0
 31
0.0
 40
0.5106401849
 41
1.417533006
 42
1.421344312
  0
ELLIPSE
  5
62B
100
AcDbEntity
  8
0
100
AcDbEllipse
 62
7
  6
CONTINUOUS
 10
148.4284066025
 20
154.2859833826
 30
0.0
 11
94.0001904965
 21
-0.0
 31
0.0
 40
0.2553186315
 41
1.421344312
 42
1.4251534319
  0
ELLIPSE
  5
62C
100
AcDbEntity
  8
0
100
AcDbEllipse
 62
7
  6
CONTINUOUS
 10
152.1977929738
 20
154.2859833826
 30
0.0
 11
-0.0
 21
24.0
 31
0.0
 40
0.1958325548
 41
-0.1991913898
 42
-0.1800086855
  0
ELLIPSE
  5
62D
100
AcDbEntity
  8
KONSTRUKTIONSELEMENTE
100
AcDbEllipse
 62
7
  6
CONTINUOUS
 10
152.1977929738
 20
154.2859833826
 30
0.0
 11
0.0
 21
23.2
 31
0.0
 40
0.1958325548
 41
-0.2061573209
 42
-0.1862874345
  0
ELLIPSE
  5
62E
100
AcDbEntity
  8
0
100
AcDbEllipse
 62
7
  6
CONTINUOUS
 10
151.5777811125
 20
154.2859833826
 30
0.0
 11
0.0
 21
24.0
 31
0.0
 40
0.3263876827
 41
-0.2107362967
 42
-0.1991913898
  0
ELLIPSE
  5
62F
100
AcDbEntity
  8
KONSTRUKTIONSELEMENTE
100
AcDbEllipse
 62
7
  6
CONTINUOUS
 10
151.5777811125
 20
154.2859833826
 30
0.0
 11
0.0
 21
23.2
 31
0.0
 40
0.3263876827
 41
-0.2181184791
 42
-0.2061573209
  0
ELLIPSE
  5
630
100
AcDbEntity
  8
0
100
AcDbEllipse
 62
7
  6
CONTINUOUS
 10
150.7584823134
 20
154.2859833826
 30
0.0
 11
-0.0
 21
24.0
 31
0.0
 40
0.4895842398
 41
-0.2261742777
 42
-0.2107362967
  0
ELLIPSE
  5
631
100
AcDbEntity
  8
KONSTRUKTIONSELEMENTE
100
AcDbEllipse
 62
7
  6
CONTINUOUS
 10
150.7584823134
 20
154.2859833826
 30
0.0
 11
-0.0
 21
23.2
 31
0.0
 40
0.4895842398
 41
-0.2341164979
 42
-0.2181184791
  0
ELLIPSE
  5
632
100
AcDbEntity
  8
0
100
AcDbEllipse
 62
7
  6
CONTINUOUS
 10
148.1235392562
 20
154.2859833826
 30
0.0
 11
0.0
 21
24.0
 31
0.0
 40
0.9791666691
 41
-0.2377886497
 42
-0.2261742777
  0
ELLIPSE
  5
633
100
AcDbEntity
  8
KONSTRUKTIONSELEMENTE
100
AcDbEllipse
 62
7
  6
CONTINUOUS
 10
148.1235392562
 20
154.2859833826
 30
0.0
 11
-0.0
 21
23.2
 31
0.0
 40
0.9791666691
 41
-0.2461549604
 42
-0.2341164979
  0
ELLIPSE
  5
634
100
AcDbEntity
  8
0
100
AcDbEllipse
 62
7
  6
CONTINUOUS
 10
144.4331847093
 20
154.2859833826
 30
0.0
 11
39.1666977887
 21
-0.0
 31
0.0
 40
0.6127654705
 41
1.3213605164
 42
1.3330076771
  0
ELLIPSE
  5
635
100
AcDbEntity
  8
KONSTRUKTIONSELEMENTE
100
AcDbEllipse
 62
7
  6
CONTINUOUS
 10
144.4331847093
 20
154.2859833826
 30
0.0
 11
37.8611411957
 21
-0.0
 31
0.0
 40
0.6127654705
 41
1.3148762974
 42
1.3246413664
  0
ELLIPSE
  5
636
100
AcDbEntity
  8
0
100
AcDbEllipse
 62
7
  6
CONTINUOUS
 10
119.2949590555
 20
154.2859833826
 30
0.0
 11
140.9997355286
 21
-0.0
 31
0.0
 40
0.1702130852
 41
1.3174705206
 42
1.3213605164
  0
ELLIPSE
  5
637
100
AcDbEntity
  8
0
100
AcDbEllipse
 62
7
  6
CONTINUOUS
 10
189.9711438913
 20
154.2859833826
 30
0.0
 11
141.0000044648
 21
0.0
 31
0.0
 40
0.1702127606
 41
1.8202321372
 42
1.824122133
  0
ELLIPSE
  5
638
100
AcDbEntity
  8
0
100
AcDbEllipse
 62
7
  6
CONTINUOUS
 10
164.8328739782
 20
154.2859833826
 30
0.0
 11
39.1667874341
 21
0.0
 31
0.0
 40
0.612764068
 41
1.8085849765
 42
1.8202321372
  0
ELLIPSE
  5
639
100
AcDbEntity
  8
KONSTRUKTIONSELEMENTE
100
AcDbEllipse
 62
7
  6
CONTINUOUS
 10
164.8328739782
 20
154.2859833826
 30
0.0
 11
37.8612278529
 21
0.0
 31
0.0
 40
0.612764068
 41
1.8169512872
 42
1.8267163562
  0
ELLIPSE
  5
63A
100
AcDbEntity
  8
0
100
AcDbEllipse
 62
7
  6
CONTINUOUS
 10
161.142498315
 20
154.2859833826
 30
0.0
 11
-0.0
 21
24.0
 31
0.0
 40
0.9791666691
 41
0.2261742777
 42
0.2377886497
  0
ELLIPSE
  5
63B
100
AcDbEntity
  8
KONSTRUKTIONSELEMENTE
100
AcDbEllipse
 62
7
  6
CONTINUOUS
 10
161.142498315
 20
154.2859833826
 30
0.0
 11
-0.0
 21
23.2
 31
0.0
 40
0.9791666691
 41
0.2341164979
 42
0.2461549604
  0
ELLIPSE
  5
63C
100
AcDbEntity
  8
0
100
AcDbEllipse
 62
7
  6
CONTINUOUS
 10
158.5075401805
 20
154.2859833826
 30
0.0
 11
0.0
 21
24.0
 31
0.0
 40
0.4895814384
 41
0.2107362967
 42
0.2261742777
  0
ELLIPSE
  5
63D
100
AcDbEntity
  8
KONSTRUKTIONSELEMENTE
100
AcDbEllipse
 62
7
  6
CONTINUOUS
 10
158.5075401805
 20
154.2859833826
 30
0.0
 11
0.0
 21
23.2
 31
0.0
 40
0.4895814384
 41
0.2181184791
 42
0.2341164979
  0
ELLIPSE
  5
63E
100
AcDbEntity
  8
0
100
AcDbEllipse
 62
7
  6
CONTINUOUS
 10
157.6882741974
 20
154.2859833826
 30
0.0
 11
0.0
 21
24.0
 31
0.0
 40
0.3263914179
 41
0.1991913898
 42
0.2107362967
  0
ELLIPSE
  5
63F
100
AcDbEntity
  8
KONSTRUKTIONSELEMENTE
100
AcDbEllipse
 62
7
  6
CONTINUOUS
 10
157.6882741974
 20
154.2859833826
 30
0.0
 11
-0.0
 21
23.2
 31
0.0
 40
0.3263914179
 41
0.2061573209
 42
0.2181184791
  0
ELLIPSE
  5
640
100
AcDbEntity
  8
0
100
AcDbEllipse
 62
7
  6
CONTINUOUS
 10
157.0682339541
 20
154.2859833826
 30
0.0
 11
0.0
 21
24.0
 31
0.0
 40
0.1958303136
 41
0.1800086855
 42
0.1991913898
  0
ELLIPSE
  5
641
100
AcDbEntity
  8
KONSTRUKTIONSELEMENTE
100
AcDbEllipse
 62
7
  6
CONTINUOUS
 10
157.0682339541
 20
154.2859833826
 30
0.0
 11
-0.0
 21
23.2
 31
0.0
 40
0.1958303136
 41
0.1862874345
 42
0.2061573209
  0
ELLIPSE
  5
642
100
AcDbEntity
  8
0
100
AcDbEllipse
 62
7
  6
CONTINUOUS
 10
175.1813008815
 20
154.2859833826
 30
0.0
 11
93.9996526241
 21
0.0
 31
0.0
 40
0.2553200925
 41
1.7164392217
 42
1.7202483416
  0
ELLIPSE
  5
643
100
AcDbEntity
  8
0
100
AcDbEllipse
 62
7
  6
CONTINUOUS
 10
168.1832817563
 20
154.2859833826
 30
0.0
 11
47.0003641844
 21
-0.0
 31
0.0
 40
0.5106343412
 41
1.7202483416
 42
1.7240596475
  0
ELLIPSE
  5
644
100
AcDbEntity
  8
0
100
AcDbEllipse
 62
7
  6
CONTINUOUS
 10
162.8017927114
 20
154.2859833826
 30
0.0
 11
-0.0
 21
24.0
 31
0.0
 40
0.4895759212
 41
0.1532633207
 42
0.1608927279
  0
ELLIPSE
  5
645
100
AcDbEntity
  8
0
100
AcDbEllipse
 62
7
  6
CONTINUOUS
 10
171.2409351145
 20
152.0359833826
 30
0.0
 11
0.0
 21
4.0
 31
0.0
 40
1.0
 41
-1.5707963268
 42
-0.2635119117
  0
ELLIPSE
  5
646
100
AcDbEntity
  8
0
100
AcDbEllipse
 62
7
  6
CONTINUOUS
 10
154.0651580517
 20
154.2859833826
 30
0.0
 11
-0.0
 21
24.0
 31
0.0
 40
0.163195709
 41
0.1266280329
 42
0.1494520148
  0
ELLIPSE
  5
647
100
AcDbEntity
  8
0
100
AcDbEllipse
 62
7
  6
CONTINUOUS
 10
155.5490579443
 20
154.2859833826
 30
0.0
 11
-0.0
 21
24.0
 31
0.0
 40
0.6527769283
 41
6.3870554897
 42
6.4098133401
  0
ELLIPSE
  5
648
100
AcDbEntity
  8
0
100
AcDbEllipse
 62
7
  6
CONTINUOUS
 10
157.5795291735
 20
154.2859833826
 30
0.0
 11
35.2500042021
 21
0.0
 31
0.0
 40
0.6808509827
 41
1.6670931327
 42
1.6746665093
  0
ELLIPSE
  5
649
100
AcDbEntity
  8
0
100
AcDbEllipse
 62
7
  6
CONTINUOUS
 10
165.4876897395
 20
154.2859833826
 30
0.0
 11
117.4998347163
 21
0.0
 31
0.0
 40
0.2042556065
 41
1.6633085484
 42
1.6670931327
  0
ELLIPSE
  5
64A
100
AcDbEntity
  8
0
100
AcDbEllipse
 62
7
  6
CONTINUOUS
 10
143.7782961163
 20
154.2859833826
 30
0.0
 11
117.5003725887
 21
-0.0
 31
0.0
 40
0.2042546715
 41
1.4744995209
 42
1.4782841052
  0
ELLIPSE
  5
64B
100
AcDbEntity
  8
0
100
AcDbEllipse
 62
7
  6
CONTINUOUS
 10
151.6865083977
 20
154.2859833826
 30
0.0
 11
35.2500042021
 21
-0.0
 31
0.0
 40
0.6808509827
 41
1.4669261443
 42
1.4744995209
  0
ELLIPSE
  5
64C
100
AcDbEntity
  8
0
100
AcDbEllipse
 62
7
  6
CONTINUOUS
 10
153.7169842743
 20
154.2859833826
 30
0.0
 11
-0.0
 21
24.0
 31
0.0
 40
0.6527750607
 41
-0.1266280329
 42
-0.1038701825
  0
ELLIPSE
  5
64D
100
AcDbEntity
  8
0
100
AcDbEllipse
 62
7
  6
CONTINUOUS
 10
155.2008785062
 20
154.2859833826
 30
0.0
 11
0.0
 21
24.0
 31
0.0
 40
0.163195709
 41
-0.1494520148
 42
-0.1266280329
  0
ELLIPSE
  5
64E
100
AcDbEntity
  8
0
100
AcDbEllipse
 62
7
  6
CONTINUOUS
 10
156.6388316547
 20
154.2859833826
 30
0.0
 11
-0.0
 21
24.0
 31
0.0
 40
0.6527828359
 41
-0.1723547245
 42
-0.1608927279
  0
ELLIPSE
  5
64F
100
AcDbEntity
  8
0
100
AcDbEllipse
 62
7
  6
CONTINUOUS
 10
135.8173588666
 20
154.2859833826
 30
0.0
 11
-0.0
 21
24.0
 31
0.0
 40
0.3263888613
 41
-0.2223097899
 42
-0.2107362967
  0
ELLIPSE
  5
650
100
AcDbEntity
  8
KONSTRUKTIONSELEMENTE
100
AcDbEllipse
 62
7
  6
CONTINUOUS
 10
135.8173588666
 20
154.2859833826
 30
0.0
 11
0.0
 21
23.2
 31
0.0
 40
0.3263888613
 41
-0.2301114369
 42
-0.2181184791
  0
ELLIPSE
  5
651
100
AcDbEntity
  8
0
100
AcDbEllipse
 62
7
  6
CONTINUOUS
 10
153.5016108412
 20
154.2859833826
 30
0.0
 11
35.2500042021
 21
-0.0
 31
0.0
 40
0.6808509827
 41
1.4099035989
 42
1.417533006
  0
ELLIPSE
  5
652
100
AcDbEntity
  8
0
100
AcDbEllipse
 62
7
  6
CONTINUOUS
 10
144.5326540319
 20
154.2859833826
 30
0.0
 11
93.9996526241
 21
-0.0
 31
0.0
 40
0.2553200925
 41
1.417533006
 42
1.421344312
  0
ELLIPSE
  5
653
100
AcDbEntity
  8
0
100
AcDbEllipse
 62
7
  6
CONTINUOUS
 10
134.0902402974
 20
154.2859833826
 30
0.0
 11
0.0
 21
24.0
 31
0.0
 40
0.6527778459
 41
-0.2339136395
 42
-0.2223097899
  0
ELLIPSE
  5
654
100
AcDbEntity
  8
KONSTRUKTIONSELEMENTE
100
AcDbEllipse
 62
7
  6
CONTINUOUS
 10
134.0902402974
 20
154.2859833826
 30
0.0
 11
-0.0
 21
23.2
 31
0.0
 40
0.6527778459
 41
-0.242138183
 42
-0.2301114369
  0
ELLIPSE
  5
655
100
AcDbEntity
  8
0
100
AcDbEllipse
 62
7
  6
CONTINUOUS
 10
164.9957417127
 20
154.2859833826
 30
0.0
 11
47.0000952482
 21
-0.0
 31
0.0
 40
0.510637263
 41
1.7202483416
 42
1.7278731987
  0
ELLIPSE
  5
656
100
AcDbEntity
  8
0
100
AcDbEllipse
 62
7
  6
CONTINUOUS
 10
129.5510918349
 20
154.2859833826
 30
0.0
 11
35.2499980303
 21
-0.0
 31
0.0
 40
0.6808511019
 41
1.3291290253
 42
1.3368826873
  0
ELLIPSE
  5
657
100
AcDbEntity
  8
KONSTRUKTIONSELEMENTE
100
AcDbEllipse
 62
7
  6
CONTINUOUS
 10
129.5510918349
 20
154.2859833826
 30
0.0
 11
34.0749980959
 21
-0.0
 31
0.0
 40
0.6808511019
 41
1.3206205325
 42
1.3286581438
  0
ELLIPSE
  5
658
100
AcDbEntity
  8
0
100
AcDbEllipse
 62
7
  6
CONTINUOUS
 10
160.0941899572
 20
154.2859833826
 30
0.0
 11
-0.0
 21
24.0
 31
0.0
 40
0.6527753654
 41
0.1570768719
 42
0.1685315938
  0
ELLIPSE
  5
659
100
AcDbEntity
  8
0
100
AcDbEllipse
 62
7
  6
CONTINUOUS
 10
126.7390609198
 20
154.2859833826
 30
0.0
 11
46.9999966295
 21
-0.0
 31
0.0
 40
0.5106383345
 41
1.3213605164
 42
1.3291290253
  0
ELLIPSE
  5
65A
100
AcDbEntity
  8
0
100
AcDbEllipse
 62
7
  6
CONTINUOUS
 10
158.7802862436
 20
154.2859833826
 30
0.0
 11
-0.0
 21
24.0
 31
0.0
 40
0.3263914179
 41
0.1685315938
 42
0.1800086855
  0
ELLIPSE
  5
65B
100
AcDbEntity
  8
KONSTRUKTIONSELEMENTE
100
AcDbEllipse
 62
7
  6
CONTINUOUS
 10
126.7390609198
 20
154.2859833826
 30
0.0
 11
45.4333300752
 21
-0.0
 31
0.0
 40
0.5106383345
 41
1.3148740479
 42
1.3206205325
  0
ELLIPSE
  5
65C
100
AcDbEntity
  8
0
100
AcDbEllipse
 62
7
  6
CONTINUOUS
 10
115.1367690638
 20
154.2859833826
 30
0.0
 11
93.9999973737
 21
-0.0
 31
0.0
 40
0.2553191561
 41
1.3174705206
 42
1.3213605164
  0
ELLIPSE
  5
65D
100
AcDbEntity
  8
0
100
AcDbEllipse
 62
7
  6
CONTINUOUS
 10
162.9626053778
 20
154.2859833826
 30
0.0
 11
94.0000141822
 21
-0.0
 31
0.0
 40
0.2553191104
 41
1.8202321372
 42
1.824122133
  0
ELLIPSE
  5
65E
100
AcDbEntity
  8
0
100
AcDbEllipse
 62
7
  6
CONTINUOUS
 10
151.3603072979
 20
154.2859833826
 30
0.0
 11
46.9999882253
 21
-0.0
 31
0.0
 40
0.5106384258
 41
1.8124636283
 42
1.8202321372
  0
ELLIPSE
  5
65F
100
AcDbEntity
  8
KONSTRUKTIONSELEMENTE
100
AcDbEllipse
 62
7
  6
CONTINUOUS
 10
151.3603072979
 20
154.2859833826
 30
0.0
 11
45.4333219511
 21
-0.0
 31
0.0
 40
0.5106384258
 41
1.8209721211
 42
1.8267186057
  0
ELLIPSE
  5
660
100
AcDbEntity
  8
0
100
AcDbEllipse
 62
7
  6
CONTINUOUS
 10
148.5482783941
 20
154.2859833826
 30
0.0
 11
35.2499980303
 21
0.0
 31
0.0
 40
0.6808511019
 41
1.8047099663
 42
1.8124636283
  0
ELLIPSE
  5
661
100
AcDbEntity
  8
KONSTRUKTIONSELEMENTE
100
AcDbEllipse
 62
7
  6
CONTINUOUS
 10
148.5482783941
 20
154.2859833826
 30
0.0
 11
34.0749980959
 21
-0.0
 31
0.0
 40
0.6808511019
 41
1.8129345098
 42
1.8209721211
  0
ELLIPSE
  5
662
100
AcDbEntity
  8
KONSTRUKTIONSELEMENTE
100
AcDbEllipse
 62
7
  6
CONTINUOUS
 10
162.0049664985
 20
154.2859833826
 30
0.0
 11
0.0
 21
23.2
 31
0.0
 40
0.4895870412
 41
0.238125388
 42
0.2461549604
  0
ELLIPSE
  5
663
100
AcDbEntity
  8
0
100
AcDbEllipse
 62
7
  6
CONTINUOUS
 10
162.0049664985
 20
154.2859833826
 30
0.0
 11
-0.0
 21
24.0
 31
0.0
 40
0.4895870412
 41
0.2300422052
 42
0.2377886497
  0
ELLIPSE
  5
664
100
AcDbEntity
  8
KONSTRUKTIONSELEMENTE
100
AcDbEllipse
 62
7
  6
CONTINUOUS
 10
164.772685018
 20
154.2859833826
 30
0.0
 11
-0.0
 21
23.2
 31
0.0
 40
0.9791629624
 41
0.2461549604
 42
0.2542007644
  0
ELLIPSE
  5
665
100
AcDbEntity
  8
0
100
AcDbEllipse
 62
7
  6
CONTINUOUS
 10
164.772685018
 20
154.2859833826
 30
0.0
 11
0.0
 21
24.0
 31
0.0
 40
0.9791629624
 41
0.2377886497
 42
0.2455496656
  0
ELLIPSE
  5
666
100
AcDbEntity
  8
KONSTRUKTIONSELEMENTE
100
AcDbEllipse
 62
7
  6
CONTINUOUS
 10
170.4853983304
 20
154.2859833826
 30
0.0
 11
45.4336814008
 21
0.0
 31
0.0
 40
0.5106343859
 41
1.8249970911
 42
1.8267191998
  0
ELLIPSE
  5
667
100
AcDbEntity
  8
0
100
AcDbEllipse
 62
7
  6
CONTINUOUS
 10
170.4853983304
 20
154.2859833826
 30
0.0
 11
47.0003600698
 21
0.0
 31
0.0
 40
0.5106343859
 41
1.8163459924
 42
1.8202321372
  0
ELLIPSE
  5
668
100
AcDbEntity
  8
0
100
AcDbEllipse
 62
7
  6
CONTINUOUS
 10
155.7283240627
 20
154.2859833826
 30
0.0
 11
0.0
 21
24.0
 31
0.0
 40
0.2447879178
 41
-0.2223097899
 42
-0.206884905
  0
ELLIPSE
  5
669
100
AcDbEntity
  8
KONSTRUKTIONSELEMENTE
100
AcDbEllipse
 62
7
  6
CONTINUOUS
 10
155.7283240627
 20
154.2859833826
 30
0.0
 11
-0.0
 21
23.2
 31
0.0
 40
0.2447879178
 41
-0.2301114369
 42
-0.2141279905
  0
ELLIPSE
  5
66A
100
AcDbEntity
  8
0
100
AcDbEllipse
 62
7
  6
CONTINUOUS
 10
154.4329456036
 20
154.2859833826
 30
0.0
 11
-0.0
 21
24.0
 31
0.0
 40
0.4895871269
 41
-0.2300422052
 42
-0.2223097899
  0
ELLIPSE
  5
66B
100
AcDbEntity
  8
KONSTRUKTIONSELEMENTE
100
AcDbEllipse
 62
7
  6
CONTINUOUS
 10
154.4329456036
 20
154.2859833826
 30
0.0
 11
-0.0
 21
23.2
 31
0.0
 40
0.4895871269
 41
-0.238125388
 42
-0.2301114369
  0
ELLIPSE
  5
66C
100
AcDbEntity
  8
0
100
AcDbEllipse
 62
7
  6
CONTINUOUS
 10
151.7537475999
 20
154.2859833826
 30
0.0
 11
0.0
 21
24.0
 31
0.0
 40
0.9791666691
 41
-0.2416673015
 42
-0.2300422052
  0
ELLIPSE
  5
66D
100
AcDbEntity
  8
KONSTRUKTIONSELEMENTE
100
AcDbEllipse
 62
7
  6
CONTINUOUS
 10
151.7537475999
 20
154.2859833826
 30
0.0
 11
-0.0
 21
23.2
 31
0.0
 40
0.9791666691
 41
-0.2501757943
 42
-0.238125388
  0
ELLIPSE
  5
66E
100
AcDbEntity
  8
0
100
AcDbEllipse
 62
7
  6
CONTINUOUS
 10
148.9417164657
 20
154.2859833826
 30
0.0
 11
35.2499995732
 21
-0.0
 31
0.0
 40
0.6808510721
 41
1.3213605164
 42
1.3291290253
  0
ELLIPSE
  5
66F
100
AcDbEntity
  8
KONSTRUKTIONSELEMENTE
100
AcDbEllipse
 62
7
  6
CONTINUOUS
 10
148.9417164657
 20
154.2859833826
 30
0.0
 11
34.0749995874
 21
0.0
 31
0.0
 40
0.6808510721
 41
1.3148740408
 42
1.3206205325
  0
ELLIPSE
  5
670
100
AcDbEntity
  8
0
100
AcDbEllipse
 62
7
  6
CONTINUOUS
 10
134.438806776
 20
154.2859833826
 30
0.0
 11
94.0001822673
 21
0.0
 31
0.0
 40
0.2553186539
 41
1.3174705206
 42
1.3213605164
  0
ELLIPSE
  5
671
100
AcDbEntity
  8
0
100
AcDbEllipse
 62
7
  6
CONTINUOUS
 10
182.0875133332
 20
154.2859833826
 30
0.0
 11
93.999644395
 21
0.0
 31
0.0
 40
0.2553201148
 41
1.8202321372
 42
1.824122133
  0
ELLIPSE
  5
672
100
AcDbEntity
  8
0
100
AcDbEllipse
 62
7
  6
CONTINUOUS
 10
134.2409351145
 20
53.2154763305
 30
0.0
 11
4.0
 21
0.0
 31
0.0
 40
0.8390996312
 41
-3.1415926536
 42
-1.8343082385
  0
ELLIPSE
  5
673
100
AcDbEntity
  8
0
100
AcDbEllipse
 62
7
  6
CONTINUOUS
 10
134.2409351145
 20
94.6260122191
 30
0.0
 11
4.0
 21
-0.0
 31
0.0
 40
0.8390996312
 41
1.8343082385
 42
3.1415926536
  0
ELLIPSE
  5
674
100
AcDbEntity
  8
0
100
AcDbEllipse
 62
7
  6
CONTINUOUS
 10
171.2409351145
 20
94.6260122191
 30
0.0
 11
4.0
 21
-0.0
 31
0.0
 40
0.8390996312
 41
0.0
 42
1.3072844151
  0
ELLIPSE
  5
675
100
AcDbEntity
  8
0
100
AcDbEllipse
 62
7
  6
CONTINUOUS
 10
160.1216630329
 20
73.9207442748
 30
0.0
 11
4.99250504
 21
23.980815902
 31
0.0
 40
0.1921701791
 41
-2.3428714448
 42
-2.0909685971
  0
ELLIPSE
  5
676
100
AcDbEntity
  8
0
100
AcDbEllipse
 62
7
  6
CONTINUOUS
 10
158.6569049759
 20
73.9207442748
 30
0.0
 11
-3.7731737947
 21
23.9933246058
 31
0.0
 40
0.1500106415
 41
-4.1113020349
 42
-3.9239139626
  0
ELLIPSE
  5
677
100
AcDbEntity
  8
0
100
AcDbEllipse
 62
7
  6
CONTINUOUS
 10
157.0437630627
 20
73.9207442748
 30
0.0
 11
3.5103236653
 21
23.9949386499
 31
0.0
 40
0.140405379
 41
-2.3623199167
 42
-2.1749318444
  0
ELLIPSE
  5
678
100
AcDbEntity
  8
0
100
AcDbEllipse
 62
7
  6
CONTINUOUS
 10
155.5883130225
 20
73.9207442748
 30
0.0
 11
-4.9925072969
 21
23.9808158698
 31
0.0
 40
0.1921702533
 41
-4.1922167436
 42
-3.9403138959
  0
ELLIPSE
  5
679
100
AcDbEntity
  8
0
100
AcDbEllipse
 62
7
  6
CONTINUOUS
 10
171.2409351145
 20
53.2154763305
 30
0.0
 11
4.0
 21
0.0
 31
0.0
 40
0.8390996312
 41
-1.3072844151
 42
-0.0
  0
ELLIPSE
  5
67A
100
AcDbEntity
  8
0
100
AcDbEllipse
 62
7
  6
CONTINUOUS
 10
159.7713083677
 20
73.9207442748
 30
0.0
 11
-11.2409014557
 21
23.6900989833
 31
0.0
 40
0.3419987131
 41
-0.9402385126
 42
-0.8358475997
  0
ELLIPSE
  5
67B
100
AcDbEntity
  8
KONSTRUKTIONSELEMENTE
100
AcDbEllipse
 62
7
  6
CONTINUOUS
 10
158.3279326947
 20
73.9207442748
 30
0.0
 11
-10.8662047405
 21
22.9004290172
 31
0.0
 40
0.3419987131
 41
-0.9471611782
 42
-0.832023439
  0
ELLIPSE
  5
67C
100
AcDbEntity
  8
0
100
AcDbEllipse
 62
7
  6
CONTINUOUS
 10
158.3279326947
 20
73.9207442748
 30
0.0
 11
-11.2409014557
 21
23.6900989833
 31
0.0
 40
0.3419987131
 41
-0.9725681113
 42
-0.8358475997
  0
ELLIPSE
  5
67D
100
AcDbEntity
  8
KONSTRUKTIONSELEMENTE
100
AcDbEllipse
 62
7
  6
CONTINUOUS
 10
156.5654134279
 20
73.9207442748
 30
0.0
 11
-3.6140402123
 21
23.1937698967
 31
0.0
 40
0.14875942
 41
-4.1833142773
 42
-3.9961688576
  0
ELLIPSE
  5
67E
100
AcDbEntity
  8
0
100
AcDbEllipse
 62
7
  6
CONTINUOUS
 10
156.5654134279
 20
73.9207442748
 30
0.0
 11
-3.7386622885
 21
23.9935550655
 31
0.0
 40
0.14875942
 41
-4.1754060735
 42
-3.9946344092
  0
ELLIPSE
  5
67F
100
AcDbEntity
  8
KONSTRUKTIONSELEMENTE
100
AcDbEllipse
 62
7
  6
CONTINUOUS
 10
156.1210475552
 20
73.9207442748
 30
0.0
 11
3.3656847635
 21
23.1952587701
 31
0.0
 40
0.1393506098
 41
-2.2899745737
 42
-2.1028291539
  0
ELLIPSE
  5
680
100
AcDbEntity
  8
0
100
AcDbEllipse
 62
7
  6
CONTINUOUS
 10
156.1210475552
 20
73.9207442748
 30
0.0
 11
3.4817428588
 21
23.9950952794
 31
0.0
 40
0.1393506098
 41
-2.2915090221
 42
-2.1107373578
  0
ELLIPSE
  5
681
100
AcDbEntity
  8
KONSTRUKTIONSELEMENTE
100
AcDbEllipse
 62
7
  6
CONTINUOUS
 10
159.6107107451
 20
73.9207442748
 30
0.0
 11
-3.4364049802
 21
23.1948642963
 31
0.0
 40
0.142046519
 41
-4.1811804296
 42
-3.9968473607
  0
ELLIPSE
  5
682
100
AcDbEntity
  8
0
100
AcDbEllipse
 62
7
  6
CONTINUOUS
 10
159.6107107451
 20
73.9207442748
 30
0.0
 11
-3.5549017037
 21
23.994687203
 31
0.0
 40
0.142046519
 41
-4.1732722257
 42
-3.9952189666
  0
ELLIPSE
  5
683
100
AcDbEntity
  8
KONSTRUKTIONSELEMENTE
100
AcDbEllipse
 62
7
  6
CONTINUOUS
 10
159.1177533037
 20
73.9207442748
 30
0.0
 11
3.8759253911
 21
23.1918649255
 31
0.0
 40
0.1584989083
 41
-2.2808967236
 42
-2.0965636547
  0
ELLIPSE
  5
684
100
AcDbEntity
  8
0
100
AcDbEllipse
 62
7
  6
CONTINUOUS
 10
159.1177533037
 20
73.9207442748
 30
0.0
 11
4.0095779908
 21
23.9915844057
 31
0.0
 40
0.1584989083
 41
-2.2825251177
 42
-2.1044718585
  0
ENDSEC
  0
SECTION
  2
OBJECTS
  0
DICTIONARY
  5
C
100
AcDbDictionary
280
0
281
1
  3
ACAD_GROUP
350
D
  3
ACAD_MLINESTYLE
350
17
  3
ACAD_LAYOUT
350
1A
  3
ACAD_PLOTSETTINGS
350
19
  3
ACAD_PLOTSTYLENAME
350
E
  0
DICTIONARY
  5
D
102
{ACAD_REACTORS
330
C
102
}
100
AcDbDictionary
280
0
281
1
  0
ACDBDICTIONARYWDFLT
  5
E
102
{ACAD_REACTORS
330
C
102
}
100
AcDbDictionary
281
1
  3
Normal
350
F
100
AcDbDictionaryWithDefault
340
F
  0
DICTIONARY
  5
17
102
{ACAD_REACTORS
330
C
102
}
100
AcDbDictionary
280
0
281
1
  3
Standard
350
18
  0
DICTIONARY
  5
19
102
{ACAD_REACTORS
330
C
102
}
100
AcDbDictionary
281
1
  0
DICTIONARY
  5
1A
102
{ACAD_REACTORS
330
C
102
}
100
AcDbDictionary
281
1
  3
Model
350
685
  3
Layout1
350
686
  0
ACDBPLACEHOLDER
  5
F
102
{ACAD_REACTORS
330
E
102
}
  0
MLINESTYLE
  5
18
102
{ACAD_REACTORS
330
17
102
}
100
AcDbMlineStyle
  2
STANDARD
 70
0
  3

 62
256
 51
90.0
 52
90.0
 71
2
 49
0.5
 62
256
  6
BYLAYER
 49
-0.5
 62
256
  6
BYLAYER
  0
LAYOUT
  5
685
102
{ACAD_REACTORS
330
1A
102
}
100
AcDbPlotSettings
  1

  2
none_device
  4
ISO_A3_(420.00_x_297.00_MM)
  6

 40
0.0
 41
0.0
 42
0.0
 43
0.0
 44
420.0
 45
297.0
 46
0.0
 47
0.0
 48
0.0
 49
0.0
140
0.0
141
0.0
142
1.0
143
1.0
 70
1024
 72
1
 73
0
 74
0
  7

 75
0
147
1.0
148
0.0
149
0.0
100
AcDbLayout
  1
Model
 70
0
 71
0
 10
0.0
 20
0.0
 11
420.0
 21
297.0
 12
0.0
 22
0.0
 32
0.0
 14
0.0
 24
0.0
 34
0.0
 15
0.0
 25
0.0
 35
0.0
146
0.0
 13
0.0
 23
0.0
 33
0.0
 16
1.0
 26
0.0
 36
0.0
 17
0.0
 27
1.0
 37
0.0
 76
0
330
20D
345
0
346
0
  0
LAYOUT
  5
686
102
{ACAD_REACTORS
330
1A
102
}
100
AcDbPlotSettings
  1

  2
none_device
  4
ISO_A3_(420.00_x_297.00_MM)
  6

 40
0.0
 41
0.0
 42
0.0
 43
0.0
 44
420.0
 45
297.0
 46
0.0
 47
0.0
 48
0.0
 49
0.0
140
0.0
141
0.0
142
1.0
143
1.0
 70
0
 72
1
 73
0
 74
0
  7

 75
0
147
1.0
148
0.0
149
0.0
100
AcDbLayout
  1
Layout1
 70
0
 71
1
 10
0.0
 20
0.0
 11
420.0
 21
297.0
 12
0.0
 22
0.0
 32
0.0
 14
0.0
 24
0.0
 34
0.0
 15
0.0
 25
0.0
 35
0.0
146
0.0
 13
0.0
 23
0.0
 33
0.0
 16
1.0
 26
0.0
 36
0.0
 17
0.0
 27
1.0
 37
0.0
 76
0
330
20E
345
0
346
0
  0
ENDSEC
  0
EOF
