999
DXF file: 001-m31867-p6.dxf
999
Pro/ENGINEER 2011490 by Parametric Technology Corporation
  0
SECTION
  2
HEADER
  9
$ACADVER
  1
AC1015
  9
$DWGCODEPAGE
  3
ANSI_1252
  9
$EXTMAX
 10
420.0
 20
297.0
 30
0.0
  9
$EXTMIN
 10
0.0
 20
0.0
 30
0.0
  9
$LIMMIN
 10
0.0
 20
0.0
  9
$LIMMAX
 10
420.0
 20
297.0
  9
$VIEWCTR
 10
210.0
 20
148.5
  9
$VIEWSIZE
 40
297.0
  9
$CLAYER
  8
0
  9
$LTSCALE
 40
23.1
  9
$CELTYPE
  6
BYLAYER
  9
$DIMSCALE
 40
1.0
  9
$DIMASZ
 40
3.5
  9
$DIMEXO
 40
2.625
  9
$DIMDLI
 40
15.96
  9
$DIMEXE
 40
7.56
  9
$DIMCEN
 40
3.78
  9
$DIMLFAC
 40
1.0
  9
$DIMBLK
  1
_FILLED
  9
$DIMTXT
 40
3.5
  9
$DIMTOL
 70
1
  9
$DIMLIM
 70
0
  9
$DIMTFAC
 40
1.0
  9
$DIMTP
 40
0.005
  9
$DIMTM
 40
0.005
  9
$PDMODE
 70
3
  9
$PDSIZE
 40
0.3125
  9
$HANDSEED
  5
5CF
  9
$TILEMODE
 70
1
  9
$MEASUREMENT
 70
1
  9
$INSUNITS
 70
4
  0
ENDSEC
  0
SECTION
  2
CLASSES
  0
CLASS
  1
ACDBDICTIONARYWDFLT
  2
AcDbDictionaryWithDefault
  3
AutoCAD 2000
 90
0
280
0
281
0
  0
CLASS
  1
ACDBPLACEHOLDER
  2
AcDbPlaceHolder
  3
AutoCAD 2000
 90
0
280
0
281
0
  0
CLASS
  1
LAYOUT
  2
AcDbLayout
  3
AutoCAD 2000
 90
0
280
0
281
0
  0
ENDSEC
  0
SECTION
  2
TABLES
  0
TABLE
  2
VPORT
  5
8
100
AcDbSymbolTable
 70
2
  0
VPORT
  5
1F4
100
AcDbSymbolTableRecord
100
AcDbViewportTableRecord
  2
*ACTIVE
 70
0
 10
0.0
 20
0.0
 11
1.0
 21
1.0
 12
210.0
 22
148.5
 13
0.0
 23
0.0
 14
1.0
 24
1.0
 15
0.0
 25
0.0
 16
0.0
 26
0.0
 36
1.0
 17
0.0
 27
0.0
 37
0.0
 40
297.0
 41
1.4141414141
 42
50.0
 43
0.0
 44
0.0
 50
0.0
 51
0.0
 71
0
 72
100
 73
1
 74
1
 75
0
 76
0
 77
0
 78
0
  0
ENDTAB
  0
TABLE
  2
LTYPE
  5
5
100
AcDbSymbolTable
 70
6
  0
LTYPE
  5
14
100
AcDbSymbolTableRecord
100
AcDbLinetypeTableRecord
  2
BYBLOCK
 70
0
  3

 72
65
 73
0
 40
0.0
  0
LTYPE
  5
15
100
AcDbSymbolTableRecord
100
AcDbLinetypeTableRecord
  2
BYLAYER
 70
0
  3

 72
65
 73
0
 40
0.0
  0
LTYPE
  5
16
100
AcDbSymbolTableRecord
100
AcDbLinetypeTableRecord
  2
CONTINUOUS
 70
64
  3
Solid line
 72
65
 73
0
 40
0.0
  0
LTYPE
  5
1F5
100
AcDbSymbolTableRecord
100
AcDbLinetypeTableRecord
  2
CENTER
 70
64
  3
____ _ ____ _ ____ _ ____ _ ____ _ ____ _ ____
 72
65
 73
4
 40
0.6
 49
0.375
 74
0
 49
-0.075
 74
0
 49
0.075
 74
0
 49
-0.075
 74
0
  0
LTYPE
  5
1F6
100
AcDbSymbolTableRecord
100
AcDbLinetypeTableRecord
  2
HIDDEN
 70
64
  3
- - - - - - - - - - - - - - - - - - - -
 72
65
 73
2
 40
0.2
 49
0.1
 74
0
 49
-0.1
 74
0
  0
LTYPE
  5
1F7
100
AcDbSymbolTableRecord
100
AcDbLinetypeTableRecord
  2
PHANTOM
 70
64
  3
_____ _ _ _____ _ _ _____ _ _ _____
 72
65
 73
6
 40
0.8
 49
0.45
 74
0
 49
-0.05
 74
0
 49
0.1
 74
0
 49
-0.05
 74
0
 49
0.1
 74
0
 49
-0.05
 74
0
  0
LTYPE
  5
1F8
100
AcDbSymbolTableRecord
100
AcDbLinetypeTableRecord
  2
DOT
 70
64
  3
. . . . . . . . . . . . . . . . . . . .
 72
65
 73
2
 40
0.2
 49
0.1
 74
0
 49
-0.1
 74
0
  0
LTYPE
  5
1F9
100
AcDbSymbolTableRecord
100
AcDbLinetypeTableRecord
  2
DASHED
 70
64
  3
- - - - - - - - - - - - - - - - - - - -
 72
65
 73
2
 40
0.2
 49
0.1
 74
0
 49
-0.1
 74
0
  0
ENDTAB
  0
TABLE
  2
LAYER
  5
2
100
AcDbSymbolTable
 70
36
  0
LAYER
  5
10
100
AcDbSymbolTableRecord
100
AcDbLayerTableRecord
  2
0
 70
0
 62
7
  6
CONTINUOUS
370
-3
390
F
  0
LAYER
  5
1FA
100
AcDbSymbolTableRecord
100
AcDbLayerTableRecord
  2
DEFAULT_1
 70
0
 62
7
  6
CENTER
370
-3
390
F
  0
LAYER
  5
1FB
100
AcDbSymbolTableRecord
100
AcDbLayerTableRecord
  2
DEFAULT_2
 70
0
 62
8
  6
HIDDEN
370
-3
390
F
  0
LAYER
  5
1FC
100
AcDbSymbolTableRecord
100
AcDbLayerTableRecord
  2
DEFAULT_3
 70
0
 62
7
  6
PHANTOM
370
-3
390
F
  0
LAYER
  5
1FD
100
AcDbSymbolTableRecord
100
AcDbLayerTableRecord
  2
AUSFORMSCHRAEGEN
 70
0
 62
7
  6
CONTINUOUS
370
-3
390
F
  0
LAYER
  5
1FE
100
AcDbSymbolTableRecord
100
AcDbLayerTableRecord
  2
BEZUGSACHSEN
 70
0
 62
7
  6
CONTINUOUS
370
-3
390
F
  0
LAYER
  5
1FF
100
AcDbSymbolTableRecord
100
AcDbLayerTableRecord
  2
BEZUGSEBENEN
 70
0
 62
7
  6
CONTINUOUS
370
-3
390
F
  0
LAYER
  5
200
100
AcDbSymbolTableRecord
100
AcDbLayerTableRecord
  2
BG_STARTBEZUEGE
 70
0
 62
7
  6
CONTINUOUS
370
-3
390
F
  0
LAYER
  5
201
100
AcDbSymbolTableRecord
100
AcDbLayerTableRecord
  2
FASEN
 70
0
 62
7
  6
CONTINUOUS
370
-3
390
F
  0
LAYER
  5
202
100
AcDbSymbolTableRecord
100
AcDbLayerTableRecord
  2
HILFEN
 70
0
 62
7
  6
CONTINUOUS
370
-3
390
F
  0
LAYER
  5
203
100
AcDbSymbolTableRecord
100
AcDbLayerTableRecord
  2
KONSTRUKTIONSELEMENTE
 70
0
 62
7
  6
CONTINUOUS
370
-3
390
F
  0
LAYER
  5
204
100
AcDbSymbolTableRecord
100
AcDbLayerTableRecord
  2
KURVEN
 70
0
 62
7
  6
CONTINUOUS
370
-3
390
F
  0
LAYER
  5
205
100
AcDbSymbolTableRecord
100
AcDbLayerTableRecord
  2
NORM
 70
0
 62
7
  6
CONTINUOUS
370
-3
390
F
  0
LAYER
  5
206
100
AcDbSymbolTableRecord
100
AcDbLayerTableRecord
  2
PLATZIERUNG
 70
0
 62
7
  6
CONTINUOUS
370
-3
390
F
  0
LAYER
  5
207
100
AcDbSymbolTableRecord
100
AcDbLayerTableRecord
  2
RUNDUNGEN
 70
0
 62
7
  6
CONTINUOUS
370
-3
390
F
  0
LAYER
  5
208
100
AcDbSymbolTableRecord
100
AcDbLayerTableRecord
  2
TEIL_STARTBEZUEGE
 70
0
 62
7
  6
CONTINUOUS
370
-3
390
F
  0
LAYER
  5
209
100
AcDbSymbolTableRecord
100
AcDbLayerTableRecord
  2
T_STARTBEZUEGE
 70
0
 62
7
  6
CONTINUOUS
370
-3
390
F
  0
ENDTAB
  0
TABLE
  2
STYLE
  5
3
100
AcDbSymbolTable
 70
1
  0
STYLE
  5
11
100
AcDbSymbolTableRecord
100
AcDbTextStyleTableRecord
  2
STANDARD
 70
0
 40
0.0
 41
0.7
 50
0.0
 71
0
 42
0.2
  3
txt
  4

  0
STYLE
  5
20A
100
AcDbSymbolTableRecord
100
AcDbTextStyleTableRecord
  2
TEXTSTYLE_1
 70
0
 40
0.0
 41
0.8
 50
0.0
 71
0
 42
0.2
  3
gdt
  4

  0
ENDTAB
  0
TABLE
  2
VIEW
  5
6
100
AcDbSymbolTable
 70
0
  0
ENDTAB
  0
TABLE
  2
UCS
  5
7
100
AcDbSymbolTable
 70
0
  0
ENDTAB
  0
TABLE
  2
APPID
  5
9
100
AcDbSymbolTable
 70
1
  0
APPID
  5
20B
100
AcDbSymbolTableRecord
100
AcDbRegAppTableRecord
  2
ACAD
 70
0
  0
ENDTAB
  0
TABLE
  2
BLOCK_RECORD
  5
1
100
AcDbSymbolTable
 70
0
  0
BLOCK_RECORD
  5
20C
100
AcDbSymbolTableRecord
100
AcDbBlockTableRecord
  2
*Model_Space
  0
BLOCK_RECORD
  5
20D
100
AcDbSymbolTableRecord
100
AcDbBlockTableRecord
  2
*Paper_Space
  0
ENDTAB
  0
TABLE
  2
DIMSTYLE
  5
A
100
AcDbSymbolTable
 70
1
100
AcDbDimStyleTable
 71
0
  0
DIMSTYLE
105
20E
100
AcDbSymbolTableRecord
100
AcDbDimStyleTableRecord
  2
STANDARD
 70
0
  3

  4

 40
1.0
 41
3.5
 42
0.0625
 43
0.38
 44
0.18
 45
0.0
 46
0.0
 47
0.005
 48
0.005
140
3.5
141
0.09
142
0.0
143
25.4
144
1.0
145
0.0
146
1.0
147
0.09
 71
1.0
 72
0.0
 73
0
 74
0
 75
0
 76
0
 77
1
 78
8
170
0
171
2
172
0
173
0
174
0
175
0
176
0
177
0
178
5
270
2
271
3
272
3
273
2
274
2
275
0
280
0
281
0
282
0
283
1
284
8
285
0
286
0
287
3
288
0
340
11
  0
ENDTAB
  0
ENDSEC
  0
SECTION
  2
BLOCKS
  0
BLOCK
  5
20
100
AcDbEntity
  8
0
100
AcDbBlockBegin
  2
*Model_Space
 70
0
 10
0.0
 20
0.0
 30
0.0
  3
*Model_Space
  1

  0
ENDBLK
  5
21
100
AcDbEntity
  8
0
100
AcDbBlockEnd
  0
BLOCK
  5
1C
100
AcDbEntity
  8
0
100
AcDbBlockBegin
  2
*Paper_Space
 70
0
 10
0.0
 20
0.0
 30
0.0
  3
*Paper_Space
  1

  0
ENDBLK
  5
1D
100
AcDbEntity
  8
0
100
AcDbBlockEnd
  0
ENDSEC
  0
SECTION
  2
ENTITIES
  0
MTEXT
  5
20F
100
AcDbEntity
  8
0
100
AcDbMText
 62
5
  6
CONTINUOUS
  7
STANDARD
 71
1
 72
1
 10
114.5607709924
 20
111.5134274809
 30
0.0
 11
1.0
 21
0.0
 31
0.0
 44
0.9
  1
LPW-U-20000daN\PRUD
 40
5.0
 41
56.6666666667
  0
MTEXT
  5
210
100
AcDbEntity
  8
0
100
AcDbMText
 62
5
  6
CONTINUOUS
  7
STANDARD
 71
1
 72
1
 10
108.6257983876
 20
261.2654717649
 30
0.0
 11
1.0
 21
0.0
 31
0.0
 44
0.9
  1
LPW-U-20000daN\PRUD
 40
5.0
 41
56.6666666667
  0
MTEXT
  5
211
100
AcDbEntity
  8
0
100
AcDbMText
 62
5
  6
CONTINUOUS
  7
STANDARD
 71
1
 72
1
 10
256.3873467725
 20
209.8609681954
 30
0.0
 11
0.0
 21
1.0
 31
0.0
 44
0.9
  1
LPW-U-20000daN\PRUD
 40
5.0
 41
56.6666666667
  0
LINE
  5
212
100
AcDbEntity
  8
0
100
AcDbLine
 62
7
  6
CONTINUOUS
 10
0.0
 20
0.0
 11
0.0
 21
297.0
  0
LINE
  5
213
100
AcDbEntity
  8
0
100
AcDbLine
 62
7
  6
CONTINUOUS
 10
0.0
 20
0.0
 11
420.0
 21
0.0
  0
LINE
  5
214
100
AcDbEntity
  8
0
100
AcDbLine
 62
7
  6
CONTINUOUS
 10
0.0
 20
297.0
 11
420.0
 21
297.0
  0
LINE
  5
215
100
AcDbEntity
  8
0
100
AcDbLine
 62
7
  6
CONTINUOUS
 10
420.0
 20
0.0
 11
420.0
 21
297.0
  0
LINE
  5
216
100
AcDbEntity
  8
0
100
AcDbLine
 62
7
  6
CONTINUOUS
 10
118.3812836507
 20
166.1097885511
 11
157.780278163
 21
166.1097885511
  0
LINE
  5
217
100
AcDbEntity
  8
0
100
AcDbLine
 62
7
  6
CONTINUOUS
 10
158.5663426773
 20
168.2097885511
 11
117.0639178259
 21
168.2097885511
  0
LINE
  5
218
100
AcDbEntity
  8
BEZUGSACHSEN
100
AcDbLine
 62
7
  6
CONTINUOUS
 10
95.8876184669
 20
168.3847885511
 11
117.0102021991
 21
168.3847885511
  0
LINE
  5
219
100
AcDbEntity
  8
BEZUGSACHSEN
100
AcDbLine
 62
7
  6
CONTINUOUS
 10
158.5830342983
 20
168.3847885511
 11
179.3253423833
 21
168.3847885511
  0
LINE
  5
21A
100
AcDbEntity
  8
RUNDUNGEN
100
AcDbLine
 62
7
  6
CONTINUOUS
 10
134.772636103
 20
272.121096526
 11
110.3104630547
 21
261.9885326843
  0
LINE
  5
21B
100
AcDbEntity
  8
RUNDUNGEN
100
AcDbLine
 62
7
  6
CONTINUOUS
 10
95.4809428691
 20
218.7747027306
 11
92.3952472019
 21
172.1157494735
  0
LINE
  5
21C
100
AcDbEntity
  8
RUNDUNGEN
100
AcDbLine
 62
7
  6
CONTINUOUS
 10
96.694453003
 20
225.7217366072
 11
95.5273389632
 21
219.1563225147
  0
LINE
  5
21D
100
AcDbEntity
  8
RUNDUNGEN
100
AcDbLine
 62
7
  6
CONTINUOUS
 10
106.3027635011
 20
257.9808331307
 11
96.1701996594
 21
233.5186600824
  0
LINE
  5
21E
100
AcDbEntity
  8
0
100
AcDbLine
 62
7
  6
CONTINUOUS
 10
121.5065076343
 20
177.6597885511
 11
153.7065076343
 21
177.6597885511
  0
LINE
  5
21F
100
AcDbEntity
  8
RUNDUNGEN
100
AcDbLine
 62
7
  6
CONTINUOUS
 10
96.1701996594
 20
227.8509170199
 11
96.5670149187
 21
226.892920239
  0
LINE
  5
220
100
AcDbEntity
  8
KONSTRUKTIONSELEMENTE
100
AcDbLine
 62
7
  6
CONTINUOUS
 10
130.9565076343
 20
191.7672363752
 11
144.2565076343
 21
191.7672363752
  0
LINE
  5
221
100
AcDbEntity
  8
RUNDUNGEN
100
AcDbLine
 62
7
  6
CONTINUOUS
 10
114.1565076343
 20
194.6347885701
 11
114.1565076343
 21
204.0074334798
  0
LINE
  5
222
100
AcDbEntity
  8
BEZUGSACHSEN
100
AcDbLine
 62
7
  6
CONTINUOUS
 10
114.1565076343
 20
222.6110617823
 11
114.1565076343
 21
230.6847750152
  0
LINE
  5
223
100
AcDbEntity
  8
RUNDUNGEN
100
AcDbLine
 62
7
  6
CONTINUOUS
 10
114.1565076343
 20
222.6110617823
 11
114.1565076343
 21
230.6847750152
  0
LINE
  5
224
100
AcDbEntity
  8
KONSTRUKTIONSELEMENTE
100
AcDbLine
 62
7
  6
CONTINUOUS
 10
131.1665076343
 20
193.3957619574
 11
134.6315076343
 21
193.3957619574
  0
LINE
  5
225
100
AcDbEntity
  8
KONSTRUKTIONSELEMENTE
100
AcDbLine
 62
7
  6
CONTINUOUS
 10
135.4015077261
 20
193.3957619574
 11
135.9790074507
 21
193.3957619574
  0
LINE
  5
226
100
AcDbEntity
  8
KONSTRUKTIONSELEMENTE
100
AcDbLine
 62
7
  6
CONTINUOUS
 10
140.5027572671
 20
193.3957619574
 11
141.2727576343
 21
193.3957619574
  0
LINE
  5
227
100
AcDbEntity
  8
KONSTRUKTIONSELEMENTE
100
AcDbLine
 62
7
  6
CONTINUOUS
 10
142.8127572671
 20
193.3957619574
 11
143.5827576343
 21
193.3957619574
  0
LINE
  5
228
100
AcDbEntity
  8
KONSTRUKTIONSELEMENTE
100
AcDbLine
 62
7
  6
CONTINUOUS
 10
131.1665076343
 20
193.8840305579
 11
134.6315076343
 21
193.8840305579
  0
LINE
  5
229
100
AcDbEntity
  8
KONSTRUKTIONSELEMENTE
100
AcDbLine
 62
7
  6
CONTINUOUS
 10
135.4015077261
 20
193.8840305579
 11
135.9790074507
 21
193.8840305579
  0
LINE
  5
22A
100
AcDbEntity
  8
KONSTRUKTIONSELEMENTE
100
AcDbLine
 62
7
  6
CONTINUOUS
 10
140.5027572671
 20
193.8840305579
 11
141.2727576343
 21
193.8840305579
  0
LINE
  5
22B
100
AcDbEntity
  8
KONSTRUKTIONSELEMENTE
100
AcDbLine
 62
7
  6
CONTINUOUS
 10
142.8127572671
 20
193.8840305579
 11
143.5827576343
 21
193.8840305579
  0
LINE
  5
22C
100
AcDbEntity
  8
KONSTRUKTIONSELEMENTE
100
AcDbLine
 62
7
  6
CONTINUOUS
 10
131.7440076343
 20
194.3403238135
 11
134.6315076343
 21
194.3403238135
  0
LINE
  5
22D
100
AcDbEntity
  8
KONSTRUKTIONSELEMENTE
100
AcDbLine
 62
7
  6
CONTINUOUS
 10
135.9790074507
 20
194.9536747021
 11
137.7115074507
 21
194.9536747021
  0
LINE
  5
22E
100
AcDbEntity
  8
KONSTRUKTIONSELEMENTE
100
AcDbLine
 62
7
  6
CONTINUOUS
 10
135.9790074507
 20
195.4399581453
 11
137.7115074507
 21
195.4399581453
  0
LINE
  5
22F
100
AcDbEntity
  8
KONSTRUKTIONSELEMENTE
100
AcDbLine
 62
7
  6
CONTINUOUS
 10
135.9790074507
 20
195.8634365412
 11
137.8077576343
 21
195.8634365412
  0
LINE
  5
230
100
AcDbEntity
  8
0
100
AcDbLine
 62
7
  6
CONTINUOUS
 10
172.1649550088
 20
196.2399990307
 11
173.6460076448
 21
196.2399990307
  0
LINE
  5
231
100
AcDbEntity
  8
KONSTRUKTIONSELEMENTE
100
AcDbLine
 62
7
  6
CONTINUOUS
 10
135.9790074507
 20
196.3936816458
 11
137.8077576343
 21
196.3936816458
  0
LINE
  5
232
100
AcDbEntity
  8
0
100
AcDbLine
 62
7
  6
CONTINUOUS
 10
116.6065076343
 20
171.0585850346
 11
116.6065076343
 21
198.6109920677
  0
LINE
  5
233
100
AcDbEntity
  8
KONSTRUKTIONSELEMENTE
100
AcDbLine
 62
7
  6
CONTINUOUS
 10
135.9790074507
 20
196.88118385
 11
137.8077576343
 21
196.88118385
  0
LINE
  5
234
100
AcDbEntity
  8
KONSTRUKTIONSELEMENTE
100
AcDbLine
 62
7
  6
CONTINUOUS
 10
131.1665076343
 20
197.2073804354
 11
131.7440076343
 21
197.2073804354
  0
LINE
  5
235
100
AcDbEntity
  8
KONSTRUKTIONSELEMENTE
100
AcDbLine
 62
7
  6
CONTINUOUS
 10
135.4015077261
 20
197.2073804354
 11
137.7115074507
 21
197.2073804354
  0
LINE
  5
236
100
AcDbEntity
  8
KONSTRUKTIONSELEMENTE
100
AcDbLine
 62
7
  6
CONTINUOUS
 10
139.7327574507
 20
197.2073804354
 11
140.3102574507
 21
197.2073804354
  0
LINE
  5
237
100
AcDbEntity
  8
KONSTRUKTIONSELEMENTE
100
AcDbLine
 62
7
  6
CONTINUOUS
 10
141.6577572671
 20
197.2073804354
 11
142.4277576343
 21
197.2073804354
  0
LINE
  5
238
100
AcDbEntity
  8
KONSTRUKTIONSELEMENTE
100
AcDbLine
 62
7
  6
CONTINUOUS
 10
143.7752580014
 20
197.2073804354
 11
144.3527580014
 21
197.2073804354
  0
LINE
  5
239
100
AcDbEntity
  8
0
100
AcDbLine
 62
7
  6
CONTINUOUS
 10
173.5970076448
 20
197.3529990307
 11
172.21432343
 21
197.3529990307
  0
LINE
  5
23A
100
AcDbEntity
  8
KONSTRUKTIONSELEMENTE
100
AcDbLine
 62
7
  6
CONTINUOUS
 10
130.9565076343
 20
198.3212706678
 11
144.2565076343
 21
198.3212706678
  0
LINE
  5
23B
100
AcDbEntity
  8
KONSTRUKTIONSELEMENTE
100
AcDbLine
 62
7
  6
CONTINUOUS
 10
130.9565076343
 20
198.8167664185
 11
144.2565076343
 21
198.8167664185
  0
LINE
  5
23C
100
AcDbEntity
  8
0
100
AcDbLine
 62
7
  6
CONTINUOUS
 10
171.0541655318
 20
199.6711043041
 11
174.2014023833
 21
199.6711043041
  0
LINE
  5
23D
100
AcDbEntity
  8
0
100
AcDbLine
 62
7
  6
CONTINUOUS
 10
175.6824550193
 20
200.7818937811
 11
174.7567971218
 21
200.7818937811
  0
LINE
  5
23E
100
AcDbEntity
  8
0
100
AcDbLine
 62
7
  6
CONTINUOUS
 10
174.2014023833
 20
200.7818937811
 11
170.1285076343
 21
200.7818937811
  0
LINE
  5
23F
100
AcDbEntity
  8
0
100
AcDbLine
 62
7
  6
CONTINUOUS
 10
122.9065076343
 20
203.1675270486
 11
122.9065076343
 21
203.510907261
  0
LINE
  5
240
100
AcDbEntity
  8
0
100
AcDbLine
 62
7
  6
CONTINUOUS
 10
172.3500865883
 20
201.8926832581
 11
175.6824550193
 21
201.8926832581
  0
LINE
  5
241
100
AcDbEntity
  8
0
100
AcDbLine
 62
7
  6
CONTINUOUS
 10
124.3065076343
 20
202.8971561487
 11
150.9065076343
 21
202.8971561487
  0
LINE
  5
242
100
AcDbEntity
  8
0
100
AcDbLine
 62
7
  6
CONTINUOUS
 10
175.6824550193
 20
203.0034727351
 11
172.3500865883
 21
203.0034727351
  0
LINE
  5
243
100
AcDbEntity
  8
KONSTRUKTIONSELEMENTE
100
AcDbLine
 62
7
  6
CONTINUOUS
 10
124.3065076343
 20
203.1074254405
 11
127.1940076343
 21
203.1074254405
  0
LINE
  5
244
100
AcDbEntity
  8
KONSTRUKTIONSELEMENTE
100
AcDbLine
 62
7
  6
CONTINUOUS
 10
142.9148415795
 20
203.1074254405
 11
143.3960915795
 21
203.1074254405
  0
LINE
  5
245
100
AcDbEntity
  8
KONSTRUKTIONSELEMENTE
100
AcDbLine
 62
7
  6
CONTINUOUS
 10
144.1179665795
 20
203.1074254405
 11
144.5190076343
 21
203.1074254405
  0
LINE
  5
246
100
AcDbEntity
  8
KONSTRUKTIONSELEMENTE
100
AcDbLine
 62
7
  6
CONTINUOUS
 10
145.9627576343
 20
203.1074254405
 11
146.4440076343
 21
203.1074254405
  0
LINE
  5
247
100
AcDbEntity
  8
KONSTRUKTIONSELEMENTE
100
AcDbLine
 62
7
  6
CONTINUOUS
 10
147.326298689
 20
203.1074254405
 11
147.7273415795
 21
203.1074254405
  0
LINE
  5
248
100
AcDbEntity
  8
KONSTRUKTIONSELEMENTE
100
AcDbLine
 62
7
  6
CONTINUOUS
 10
148.3690076343
 20
203.1074254405
 11
148.8502576343
 21
203.1074254405
  0
LINE
  5
249
100
AcDbEntity
  8
KONSTRUKTIONSELEMENTE
100
AcDbLine
 62
7
  6
CONTINUOUS
 10
150.8554665795
 20
203.1074254405
 11
151.5773415795
 21
203.1074254405
  0
LINE
  5
24A
100
AcDbEntity
  8
KONSTRUKTIONSELEMENTE
100
AcDbLine
 62
7
  6
CONTINUOUS
 10
145.9627576343
 20
203.1638385138
 11
146.4440076343
 21
203.1638385138
  0
LINE
  5
24B
100
AcDbEntity
  8
KONSTRUKTIONSELEMENTE
100
AcDbLine
 62
7
  6
CONTINUOUS
 10
124.9481743201
 20
203.1772649103
 11
127.1940076343
 21
203.1772649103
  0
LINE
  5
24C
100
AcDbEntity
  8
KONSTRUKTIONSELEMENTE
100
AcDbLine
 62
7
  6
CONTINUOUS
 10
143.0752576343
 20
203.1772649103
 11
143.3960915795
 21
203.1772649103
  0
LINE
  5
24D
100
AcDbEntity
  8
KONSTRUKTIONSELEMENTE
100
AcDbLine
 62
7
  6
CONTINUOUS
 10
146.2835915795
 20
203.3174434047
 11
147.1658826343
 21
203.3174434047
  0
LINE
  5
24E
100
AcDbEntity
  8
KONSTRUKTIONSELEMENTE
100
AcDbLine
 62
7
  6
CONTINUOUS
 10
146.2835915795
 20
203.3556447852
 11
147.1658826343
 21
203.3556447852
  0
LINE
  5
24F
100
AcDbEntity
  8
KONSTRUKTIONSELEMENTE
100
AcDbLine
 62
7
  6
CONTINUOUS
 10
145.160673689
 20
203.3815195837
 11
145.5617165795
 21
203.3815195837
  0
LINE
  5
250
100
AcDbEntity
  8
KONSTRUKTIONSELEMENTE
100
AcDbLine
 62
7
  6
CONTINUOUS
 10
142.9148415795
 20
203.4050227928
 11
143.3960915795
 21
203.4050227928
  0
LINE
  5
251
100
AcDbEntity
  8
KONSTRUKTIONSELEMENTE
100
AcDbLine
 62
7
  6
CONTINUOUS
 10
146.123173689
 20
203.4123313171
 11
146.604423689
 21
203.4123313171
  0
LINE
  5
252
100
AcDbEntity
  8
KONSTRUKTIONSELEMENTE
100
AcDbLine
 62
7
  6
CONTINUOUS
 10
142.9148415795
 20
203.4389419307
 11
143.3960915795
 21
203.4389419307
  0
LINE
  5
253
100
AcDbEntity
  8
KONSTRUKTIONSELEMENTE
100
AcDbLine
 62
7
  6
CONTINUOUS
 10
146.123173689
 20
203.4389419307
 11
146.604423689
 21
203.4389419307
  0
LINE
  5
254
100
AcDbEntity
  8
KONSTRUKTIONSELEMENTE
100
AcDbLine
 62
7
  6
CONTINUOUS
 10
124.38671597
 20
203.4613644374
 11
124.7877576343
 21
203.4613644374
  0
LINE
  5
255
100
AcDbEntity
  8
KONSTRUKTIONSELEMENTE
100
AcDbLine
 62
7
  6
CONTINUOUS
 10
125.9106742627
 20
203.4871687486
 11
125.5898410058
 21
203.4871687486
  0
LINE
  5
256
100
AcDbEntity
  8
KONSTRUKTIONSELEMENTE
100
AcDbLine
 62
7
  6
CONTINUOUS
 10
125.6700492627
 20
203.5015130148
 11
125.9908826343
 21
203.5015130148
  0
LINE
  5
257
100
AcDbEntity
  8
KONSTRUKTIONSELEMENTE
100
AcDbLine
 62
7
  6
CONTINUOUS
 10
126.4065076343
 20
203.5015130148
 11
128.8641687196
 21
203.5015130148
  0
LINE
  5
258
100
AcDbEntity
  8
KONSTRUKTIONSELEMENTE
100
AcDbLine
 62
7
  6
CONTINUOUS
 10
130.5026094431
 20
203.5015130148
 11
131.1170247144
 21
203.5015130148
  0
LINE
  5
259
100
AcDbEntity
  8
KONSTRUKTIONSELEMENTE
100
AcDbLine
 62
7
  6
CONTINUOUS
 10
144.1179665795
 20
203.5015130148
 11
144.5190076343
 21
203.5015130148
  0
LINE
  5
25A
100
AcDbEntity
  8
KONSTRUKTIONSELEMENTE
100
AcDbLine
 62
7
  6
CONTINUOUS
 10
148.3690076343
 20
203.5015130148
 11
149.0908826343
 21
203.5015130148
  0
LINE
  5
25B
100
AcDbEntity
  8
KONSTRUKTIONSELEMENTE
100
AcDbLine
 62
7
  6
CONTINUOUS
 10
151.0960915795
 20
203.5015130148
 11
151.5773415795
 21
203.5015130148
  0
LINE
  5
25C
100
AcDbEntity
  8
KONSTRUKTIONSELEMENTE
100
AcDbLine
 62
7
  6
CONTINUOUS
 10
121.5065076343
 20
203.5109920677
 11
122.9065076343
 21
203.5109920677
  0
LINE
  5
25D
100
AcDbEntity
  8
KONSTRUKTIONSELEMENTE
100
AcDbLine
 62
7
  6
CONTINUOUS
 10
152.3065076343
 20
203.5109920677
 11
153.7065076343
 21
203.5109920677
  0
LINE
  5
25E
100
AcDbEntity
  8
0
100
AcDbLine
 62
7
  6
CONTINUOUS
 10
172.3500865883
 20
205.2250516891
 11
175.6824550193
 21
205.2250516891
  0
LINE
  5
25F
100
AcDbEntity
  8
KONSTRUKTIONSELEMENTE
100
AcDbLine
 62
7
  6
CONTINUOUS
 10
131.4583664016
 20
203.4991641697
 11
131.4454384315
 21
203.4992578651
  0
LINE
  5
260
100
AcDbEntity
  8
KONSTRUKTIONSELEMENTE
100
AcDbLine
 62
7
  6
CONTINUOUS
 10
124.3065076343
 20
202.8971561487
 11
124.3065076343
 21
203.1772649103
  0
LINE
  5
261
100
AcDbEntity
  8
KONSTRUKTIONSELEMENTE
100
AcDbLine
 62
7
  6
CONTINUOUS
 10
124.38671597
 20
203.1883862658
 11
124.38671597
 21
203.4613644374
  0
LINE
  5
262
100
AcDbEntity
  8
KONSTRUKTIONSELEMENTE
100
AcDbLine
 62
7
  6
CONTINUOUS
 10
124.7877576343
 20
203.243993041
 11
124.7877576343
 21
203.4613644374
  0
LINE
  5
263
100
AcDbEntity
  8
KONSTRUKTIONSELEMENTE
100
AcDbLine
 62
7
  6
CONTINUOUS
 10
124.9481743201
 20
203.2646970931
 11
124.9481743201
 21
203.4754394914
  0
LINE
  5
264
100
AcDbEntity
  8
KONSTRUKTIONSELEMENTE
100
AcDbLine
 62
7
  6
CONTINUOUS
 10
125.1887993201
 20
203.293589845
 11
125.1887993201
 21
203.4835194298
  0
LINE
  5
265
100
AcDbEntity
  8
KONSTRUKTIONSELEMENTE
100
AcDbLine
 62
7
  6
CONTINUOUS
 10
125.5898410058
 20
203.3387179983
 11
125.5898410058
 21
203.4871687486
  0
LINE
  5
266
100
AcDbEntity
  8
KONSTRUKTIONSELEMENTE
100
AcDbLine
 62
7
  6
CONTINUOUS
 10
125.9106742627
 20
203.3713165929
 11
125.9106742627
 21
203.4871687486
  0
LINE
  5
267
100
AcDbEntity
  8
KONSTRUKTIONSELEMENTE
100
AcDbLine
 62
7
  6
CONTINUOUS
 10
126.3117158911
 20
203.4061284905
 11
126.3117158911
 21
203.4835194298
  0
LINE
  5
268
100
AcDbEntity
  8
KONSTRUKTIONSELEMENTE
100
AcDbLine
 62
7
  6
CONTINUOUS
 10
126.5523408911
 20
203.4261609021
 11
126.5523408911
 21
203.4754394914
  0
LINE
  5
269
100
AcDbEntity
  8
KONSTRUKTIONSELEMENTE
100
AcDbLine
 62
7
  6
CONTINUOUS
 10
126.7127576343
 20
203.4506759615
 11
126.7127576343
 21
203.4613644374
  0
LINE
  5
26A
100
AcDbEntity
  8
KONSTRUKTIONSELEMENTE
100
AcDbLine
 62
7
  6
CONTINUOUS
 10
126.9533826343
 20
203.1772649103
 11
126.9533826343
 21
203.4050227928
  0
LINE
  5
26B
100
AcDbEntity
  8
KONSTRUKTIONSELEMENTE
100
AcDbLine
 62
7
  6
CONTINUOUS
 10
127.1137993774
 20
203.1772649103
 11
127.1137993774
 21
203.4261609021
  0
LINE
  5
26C
100
AcDbEntity
  8
KONSTRUKTIONSELEMENTE
100
AcDbLine
 62
7
  6
CONTINUOUS
 10
127.1940076343
 20
202.8971561487
 11
127.1940076343
 21
203.4506759615
  0
LINE
  5
26D
100
AcDbEntity
  8
KONSTRUKTIONSELEMENTE
100
AcDbLine
 62
7
  6
CONTINUOUS
 10
127.8356743774
 20
202.8971561487
 11
127.8356743774
 21
203.4123313171
  0
LINE
  5
26E
100
AcDbEntity
  8
KONSTRUKTIONSELEMENTE
100
AcDbLine
 62
7
  6
CONTINUOUS
 10
127.9158826343
 20
202.8971561487
 11
127.9158826343
 21
203.286005806
  0
LINE
  5
26F
100
AcDbEntity
  8
KONSTRUKTIONSELEMENTE
100
AcDbLine
 62
7
  6
CONTINUOUS
 10
127.9960908911
 20
202.8971561487
 11
127.9960908911
 21
203.2521699982
  0
LINE
  5
270
100
AcDbEntity
  8
KONSTRUKTIONSELEMENTE
100
AcDbLine
 62
7
  6
CONTINUOUS
 10
128.1565076343
 20
202.8971561487
 11
128.1565076343
 21
203.2033084623
  0
LINE
  5
271
100
AcDbEntity
  8
KONSTRUKTIONSELEMENTE
100
AcDbLine
 62
7
  6
CONTINUOUS
 10
128.2367161206
 20
203.3464916127
 11
128.2367161206
 21
203.4050227928
  0
LINE
  5
272
100
AcDbEntity
  8
KONSTRUKTIONSELEMENTE
100
AcDbLine
 62
7
  6
CONTINUOUS
 10
128.316924148
 20
203.286005806
 11
128.316924148
 21
203.4449397285
  0
LINE
  5
273
100
AcDbEntity
  8
KONSTRUKTIONSELEMENTE
100
AcDbLine
 62
7
  6
CONTINUOUS
 10
128.3971326343
 20
202.8971561487
 11
128.3971326343
 21
203.1638385138
  0
LINE
  5
274
100
AcDbEntity
  8
KONSTRUKTIONSELEMENTE
100
AcDbLine
 62
7
  6
CONTINUOUS
 10
128.6377576343
 20
203.2159264472
 11
128.6377576343
 21
203.4754394914
  0
LINE
  5
275
100
AcDbEntity
  8
KONSTRUKTIONSELEMENTE
100
AcDbLine
 62
7
  6
CONTINUOUS
 10
128.798174148
 20
202.8971561487
 11
128.798174148
 21
203.1219357252
  0
LINE
  5
276
100
AcDbEntity
  8
KONSTRUKTIONSELEMENTE
100
AcDbLine
 62
7
  6
CONTINUOUS
 10
128.8783826343
 20
203.1904214192
 11
128.8783826343
 21
203.4835194298
  0
LINE
  5
277
100
AcDbEntity
  8
BEZUGSACHSEN
100
AcDbLine
 62
7
  6
CONTINUOUS
 10
158.2565076343
 20
206.1147885511
 11
151.6892137509
 21
206.1147885511
  0
LINE
  5
278
100
AcDbEntity
  8
RUNDUNGEN
100
AcDbLine
 62
7
  6
CONTINUOUS
 10
116.9565076343
 20
206.1147885511
 11
123.5238015177
 21
206.1147885511
  0
LINE
  5
279
100
AcDbEntity
  8
0
100
AcDbLine
 62
7
  6
CONTINUOUS
 10
175.6824550193
 20
206.3358411661
 11
172.3500865883
 21
206.3358411661
  0
LINE
  5
27A
100
AcDbEntity
  8
KONSTRUKTIONSELEMENTE
100
AcDbLine
 62
7
  6
CONTINUOUS
 10
129.279424148
 20
202.8971561487
 11
129.279424148
 21
203.1074254405
  0
LINE
  5
27B
100
AcDbEntity
  8
KONSTRUKTIONSELEMENTE
100
AcDbLine
 62
7
  6
CONTINUOUS
 10
129.279424148
 20
203.1772649103
 11
129.279424148
 21
203.4871687486
  0
LINE
  5
27C
100
AcDbEntity
  8
KONSTRUKTIONSELEMENTE
100
AcDbLine
 62
7
  6
CONTINUOUS
 10
129.5565076343
 20
197.9698841201
 11
129.5565076343
 21
192.9345055177
  0
LINE
  5
27D
100
AcDbEntity
  8
KONSTRUKTIONSELEMENTE
100
AcDbLine
 62
7
  6
CONTINUOUS
 10
129.6804661206
 20
203.1904214192
 11
129.6804661206
 21
203.4835194298
  0
LINE
  5
27E
100
AcDbEntity
  8
KONSTRUKTIONSELEMENTE
100
AcDbLine
 62
7
  6
CONTINUOUS
 10
129.760674148
 20
202.8971561487
 11
129.760674148
 21
203.1219357252
  0
LINE
  5
27F
100
AcDbEntity
  8
KONSTRUKTIONSELEMENTE
100
AcDbLine
 62
7
  6
CONTINUOUS
 10
129.9210911206
 20
203.2159264472
 11
129.9210911206
 21
203.4754394914
  0
LINE
  5
280
100
AcDbEntity
  8
KONSTRUKTIONSELEMENTE
100
AcDbLine
 62
7
  6
CONTINUOUS
 10
130.1612677559
 20
203.4905577835
 11
130.1612677559
 21
203.4991641697
  0
LINE
  5
281
100
AcDbEntity
  8
KONSTRUKTIONSELEMENTE
100
AcDbLine
 62
7
  6
CONTINUOUS
 10
130.1617161206
 20
202.8971561487
 11
130.1617161206
 21
203.1638385138
  0
LINE
  5
282
100
AcDbEntity
  8
KONSTRUKTIONSELEMENTE
100
AcDbLine
 62
7
  6
CONTINUOUS
 10
130.241924148
 20
203.286005806
 11
130.241924148
 21
203.4449397285
  0
LINE
  5
283
100
AcDbEntity
  8
KONSTRUKTIONSELEMENTE
100
AcDbLine
 62
7
  6
CONTINUOUS
 10
130.3221326343
 20
203.3464916127
 11
130.3221326343
 21
203.4050227928
  0
LINE
  5
284
100
AcDbEntity
  8
KONSTRUKTIONSELEMENTE
100
AcDbLine
 62
7
  6
CONTINUOUS
 10
130.4023411206
 20
202.8971561487
 11
130.4023411206
 21
203.2033084623
  0
LINE
  5
285
100
AcDbEntity
  8
KONSTRUKTIONSELEMENTE
100
AcDbLine
 62
7
  6
CONTINUOUS
 10
130.5026094431
 20
203.4686618874
 11
130.5026094431
 21
203.5015130148
  0
LINE
  5
286
100
AcDbEntity
  8
KONSTRUKTIONSELEMENTE
100
AcDbLine
 62
7
  6
CONTINUOUS
 10
130.5627576343
 20
202.8971561487
 11
130.5627576343
 21
203.2521699982
  0
LINE
  5
287
100
AcDbEntity
  8
KONSTRUKTIONSELEMENTE
100
AcDbLine
 62
7
  6
CONTINUOUS
 10
130.6429661206
 20
202.8971561487
 11
130.6429661206
 21
203.286005806
  0
LINE
  5
288
100
AcDbEntity
  8
KONSTRUKTIONSELEMENTE
100
AcDbLine
 62
7
  6
CONTINUOUS
 10
130.723174148
 20
202.8971561487
 11
130.723174148
 21
203.4123313171
  0
LINE
  5
289
100
AcDbEntity
  8
KONSTRUKTIONSELEMENTE
100
AcDbLine
 62
7
  6
CONTINUOUS
 10
131.1170247144
 20
202.8971561487
 11
131.1170247144
 21
203.5015130148
  0
LINE
  5
28A
100
AcDbEntity
  8
KONSTRUKTIONSELEMENTE
100
AcDbLine
 62
7
  6
CONTINUOUS
 10
131.1665076343
 20
193.3957619574
 11
131.1665076343
 21
197.2073804354
  0
LINE
  5
28B
100
AcDbEntity
  8
KONSTRUKTIONSELEMENTE
100
AcDbLine
 62
7
  6
CONTINUOUS
 10
131.3648411206
 20
202.8971561487
 11
131.3648411206
 21
203.4123313171
  0
LINE
  5
28C
100
AcDbEntity
  8
KONSTRUKTIONSELEMENTE
100
AcDbLine
 62
7
  6
CONTINUOUS
 10
131.445049148
 20
202.8971561487
 11
131.445049148
 21
203.286005806
  0
LINE
  5
28D
100
AcDbEntity
  8
KONSTRUKTIONSELEMENTE
100
AcDbLine
 62
7
  6
CONTINUOUS
 10
131.4583664016
 20
203.4449397285
 11
131.4583664016
 21
203.4991641697
  0
LINE
  5
28E
100
AcDbEntity
  8
KONSTRUKTIONSELEMENTE
100
AcDbLine
 62
7
  6
CONTINUOUS
 10
131.5252576343
 20
202.8971561487
 11
131.5252576343
 21
203.2521699982
  0
LINE
  5
28F
100
AcDbEntity
  8
KONSTRUKTIONSELEMENTE
100
AcDbLine
 62
7
  6
CONTINUOUS
 10
131.685674148
 20
202.8971561487
 11
131.685674148
 21
203.2033084623
  0
LINE
  5
290
100
AcDbEntity
  8
KONSTRUKTIONSELEMENTE
100
AcDbLine
 62
7
  6
CONTINUOUS
 10
131.7314399858
 20
203.4796097169
 11
131.7314399858
 21
203.4936866359
  0
LINE
  5
291
100
AcDbEntity
  8
KONSTRUKTIONSELEMENTE
100
AcDbLine
 62
7
  6
CONTINUOUS
 10
131.7440076343
 20
197.2073804354
 11
131.7440076343
 21
194.3403238135
  0
LINE
  5
292
100
AcDbEntity
  8
KONSTRUKTIONSELEMENTE
100
AcDbLine
 62
7
  6
CONTINUOUS
 10
131.7658826343
 20
203.4050227928
 11
131.7658826343
 21
203.3464916127
  0
LINE
  5
293
100
AcDbEntity
  8
KONSTRUKTIONSELEMENTE
100
AcDbLine
 62
7
  6
CONTINUOUS
 10
131.8460911206
 20
203.286005806
 11
131.8460911206
 21
203.4449397285
  0
LINE
  5
294
100
AcDbEntity
  8
KONSTRUKTIONSELEMENTE
100
AcDbLine
 62
7
  6
CONTINUOUS
 10
131.926299148
 20
202.8971561487
 11
131.926299148
 21
203.1638385138
  0
LINE
  5
295
100
AcDbEntity
  8
KONSTRUKTIONSELEMENTE
100
AcDbLine
 62
7
  6
CONTINUOUS
 10
132.1669246069
 20
203.2159264472
 11
132.1669246069
 21
203.4754394914
  0
LINE
  5
296
100
AcDbEntity
  8
KONSTRUKTIONSELEMENTE
100
AcDbLine
 62
7
  6
CONTINUOUS
 10
132.3273406616
 20
202.8971561487
 11
132.3273406616
 21
203.1219357252
  0
LINE
  5
297
100
AcDbEntity
  8
KONSTRUKTIONSELEMENTE
100
AcDbLine
 62
7
  6
CONTINUOUS
 10
132.4075496069
 20
203.1904214192
 11
132.4075496069
 21
203.4835194298
  0
LINE
  5
298
100
AcDbEntity
  8
KONSTRUKTIONSELEMENTE
100
AcDbLine
 62
7
  6
CONTINUOUS
 10
132.8085906616
 20
202.8971561487
 11
132.8085906616
 21
203.1074254405
  0
LINE
  5
299
100
AcDbEntity
  8
KONSTRUKTIONSELEMENTE
100
AcDbLine
 62
7
  6
CONTINUOUS
 10
132.8085906616
 20
203.1772649103
 11
132.8085906616
 21
203.4871687486
  0
LINE
  5
29A
100
AcDbEntity
  8
KONSTRUKTIONSELEMENTE
100
AcDbLine
 62
7
  6
CONTINUOUS
 10
133.2096326343
 20
203.1904214192
 11
133.2096326343
 21
203.4835194298
  0
LINE
  5
29B
100
AcDbEntity
  8
KONSTRUKTIONSELEMENTE
100
AcDbLine
 62
7
  6
CONTINUOUS
 10
133.2898406616
 20
202.8971561487
 11
133.2898406616
 21
203.1219357252
  0
LINE
  5
29C
100
AcDbEntity
  8
KONSTRUKTIONSELEMENTE
100
AcDbLine
 62
7
  6
CONTINUOUS
 10
133.4502576343
 20
203.2159264472
 11
133.4502576343
 21
203.4754394914
  0
LINE
  5
29D
100
AcDbEntity
  8
0
100
AcDbLine
 62
7
  6
CONTINUOUS
 10
170.1285076343
 20
210.9641306536
 11
172.4488234307
 21
210.9641306536
  0
LINE
  5
29E
100
AcDbEntity
  8
0
100
AcDbLine
 62
7
  6
CONTINUOUS
 10
173.3744813282
 20
210.9641306536
 11
174.2014023833
 21
210.9641306536
  0
LINE
  5
29F
100
AcDbEntity
  8
0
100
AcDbLine
 62
7
  6
CONTINUOUS
 10
175.6824550193
 20
211.8897885511
 11
174.7567971218
 21
211.8897885511
  0
LINE
  5
2A0
100
AcDbEntity
  8
0
100
AcDbLine
 62
7
  6
CONTINUOUS
 10
174.2014023833
 20
211.8897885511
 11
170.1285076343
 21
211.8897885511
  0
LINE
  5
2A1
100
AcDbEntity
  8
KONSTRUKTIONSELEMENTE
100
AcDbLine
 62
7
  6
CONTINUOUS
 10
133.6908826343
 20
202.8971561487
 11
133.6908826343
 21
203.1638385138
  0
LINE
  5
2A2
100
AcDbEntity
  8
KONSTRUKTIONSELEMENTE
100
AcDbLine
 62
7
  6
CONTINUOUS
 10
133.7710906616
 20
203.286005806
 11
133.7710906616
 21
203.4449397285
  0
LINE
  5
2A3
100
AcDbEntity
  8
KONSTRUKTIONSELEMENTE
100
AcDbLine
 62
7
  6
CONTINUOUS
 10
133.8512996069
 20
203.4050227928
 11
133.8512996069
 21
203.3464916127
  0
LINE
  5
2A4
100
AcDbEntity
  8
KONSTRUKTIONSELEMENTE
100
AcDbLine
 62
7
  6
CONTINUOUS
 10
133.9315076343
 20
202.8971561487
 11
133.9315076343
 21
203.2033084623
  0
LINE
  5
2A5
100
AcDbEntity
  8
KONSTRUKTIONSELEMENTE
100
AcDbLine
 62
7
  6
CONTINUOUS
 10
134.0919246069
 20
202.8971561487
 11
134.0919246069
 21
203.2521699982
  0
LINE
  5
2A6
100
AcDbEntity
  8
KONSTRUKTIONSELEMENTE
100
AcDbLine
 62
7
  6
CONTINUOUS
 10
134.1721326343
 20
202.8971561487
 11
134.1721326343
 21
203.286005806
  0
LINE
  5
2A7
100
AcDbEntity
  8
KONSTRUKTIONSELEMENTE
100
AcDbLine
 62
7
  6
CONTINUOUS
 10
134.2523406616
 20
202.8971561487
 11
134.2523406616
 21
203.4123313171
  0
LINE
  5
2A8
100
AcDbEntity
  8
KONSTRUKTIONSELEMENTE
100
AcDbLine
 62
7
  6
CONTINUOUS
 10
134.6315076343
 20
193.3957619574
 11
134.6315076343
 21
194.3403238135
  0
LINE
  5
2A9
100
AcDbEntity
  8
KONSTRUKTIONSELEMENTE
100
AcDbLine
 62
7
  6
CONTINUOUS
 10
134.8940076343
 20
202.8971561487
 11
134.8940076343
 21
203.4123313171
  0
LINE
  5
2AA
100
AcDbEntity
  8
KONSTRUKTIONSELEMENTE
100
AcDbLine
 62
7
  6
CONTINUOUS
 10
134.9742156616
 20
202.8971561487
 11
134.9742156616
 21
203.286005806
  0
LINE
  5
2AB
100
AcDbEntity
  8
KONSTRUKTIONSELEMENTE
100
AcDbLine
 62
7
  6
CONTINUOUS
 10
135.0544246069
 20
202.8971561487
 11
135.0544246069
 21
203.2521699982
  0
LINE
  5
2AC
100
AcDbEntity
  8
KONSTRUKTIONSELEMENTE
100
AcDbLine
 62
7
  6
CONTINUOUS
 10
135.2148406616
 20
202.8971561487
 11
135.2148406616
 21
203.2033084623
  0
LINE
  5
2AD
100
AcDbEntity
  8
KONSTRUKTIONSELEMENTE
100
AcDbLine
 62
7
  6
CONTINUOUS
 10
135.2950496069
 20
203.4050227928
 11
135.2950496069
 21
203.3464916127
  0
LINE
  5
2AE
100
AcDbEntity
  8
KONSTRUKTIONSELEMENTE
100
AcDbLine
 62
7
  6
CONTINUOUS
 10
135.3752576343
 20
203.286005806
 11
135.3752576343
 21
203.4449397285
  0
LINE
  5
2AF
100
AcDbEntity
  8
KONSTRUKTIONSELEMENTE
100
AcDbLine
 62
7
  6
CONTINUOUS
 10
135.4015077261
 20
193.3957619574
 11
135.4015077261
 21
197.2073804354
  0
LINE
  5
2B0
100
AcDbEntity
  8
KONSTRUKTIONSELEMENTE
100
AcDbLine
 62
7
  6
CONTINUOUS
 10
135.4554656616
 20
202.8971561487
 11
135.4554656616
 21
203.1638385138
  0
LINE
  5
2B1
100
AcDbEntity
  8
KONSTRUKTIONSELEMENTE
100
AcDbLine
 62
7
  6
CONTINUOUS
 10
135.6960906616
 20
203.2159264472
 11
135.6960906616
 21
203.4754394914
  0
LINE
  5
2B2
100
AcDbEntity
  8
KONSTRUKTIONSELEMENTE
100
AcDbLine
 62
7
  6
CONTINUOUS
 10
135.8565076343
 20
202.8971561487
 11
135.8565076343
 21
203.1219357252
  0
LINE
  5
2B3
100
AcDbEntity
  8
KONSTRUKTIONSELEMENTE
100
AcDbLine
 62
7
  6
CONTINUOUS
 10
135.9367156616
 20
203.1904214192
 11
135.9367156616
 21
203.4835194298
  0
LINE
  5
2B4
100
AcDbEntity
  8
KONSTRUKTIONSELEMENTE
100
AcDbLine
 62
7
  6
CONTINUOUS
 10
135.9790074507
 20
196.88118385
 11
135.9790074507
 21
195.8634365412
  0
LINE
  5
2B5
100
AcDbEntity
  8
KONSTRUKTIONSELEMENTE
100
AcDbLine
 62
7
  6
CONTINUOUS
 10
135.9790074507
 20
193.3957619574
 11
135.9790074507
 21
195.4399581453
  0
LINE
  5
2B6
100
AcDbEntity
  8
KONSTRUKTIONSELEMENTE
100
AcDbLine
 62
7
  6
CONTINUOUS
 10
136.3377576343
 20
202.8971561487
 11
136.3377576343
 21
203.1074254405
  0
LINE
  5
2B7
100
AcDbEntity
  8
KONSTRUKTIONSELEMENTE
100
AcDbLine
 62
7
  6
CONTINUOUS
 10
136.3377576343
 20
203.1772649103
 11
136.3377576343
 21
203.4871687486
  0
LINE
  5
2B8
100
AcDbEntity
  8
KONSTRUKTIONSELEMENTE
100
AcDbLine
 62
7
  6
CONTINUOUS
 10
136.7387996069
 20
203.1904214192
 11
136.7387996069
 21
203.4835194298
  0
LINE
  5
2B9
100
AcDbEntity
  8
KONSTRUKTIONSELEMENTE
100
AcDbLine
 62
7
  6
CONTINUOUS
 10
136.8190076343
 20
202.8971561487
 11
136.8190076343
 21
203.1219357252
  0
LINE
  5
2BA
100
AcDbEntity
  8
KONSTRUKTIONSELEMENTE
100
AcDbLine
 62
7
  6
CONTINUOUS
 10
136.9794246069
 20
203.2159264472
 11
136.9794246069
 21
203.4754394914
  0
LINE
  5
2BB
100
AcDbEntity
  8
KONSTRUKTIONSELEMENTE
100
AcDbLine
 62
7
  6
CONTINUOUS
 10
137.2200496069
 20
202.8971561487
 11
137.2200496069
 21
203.1638385138
  0
LINE
  5
2BC
100
AcDbEntity
  8
KONSTRUKTIONSELEMENTE
100
AcDbLine
 62
7
  6
CONTINUOUS
 10
137.3002576343
 20
203.286005806
 11
137.3002576343
 21
203.4449397285
  0
LINE
  5
2BD
100
AcDbEntity
  8
KONSTRUKTIONSELEMENTE
100
AcDbLine
 62
7
  6
CONTINUOUS
 10
137.3804656616
 20
203.4050227928
 11
137.3804656616
 21
203.3464916127
  0
LINE
  5
2BE
100
AcDbEntity
  8
KONSTRUKTIONSELEMENTE
100
AcDbLine
 62
7
  6
CONTINUOUS
 10
137.4606746069
 20
202.8971561487
 11
137.4606746069
 21
203.2033084623
  0
LINE
  5
2BF
100
AcDbEntity
  8
BG_STARTBEZUEGE
100
AcDbLine
 62
7
  6
CENTER
 10
137.6065076343
 20
162.4671470808
 11
137.6065076343
 21
275.6847886211
  0
LINE
  5
2C0
100
AcDbEntity
  8
KONSTRUKTIONSELEMENTE
100
AcDbLine
 62
7
  6
CONTINUOUS
 10
137.6210906616
 20
202.8971561487
 11
137.6210906616
 21
203.2521699982
  0
LINE
  5
2C1
100
AcDbEntity
  8
KONSTRUKTIONSELEMENTE
100
AcDbLine
 62
7
  6
CONTINUOUS
 10
137.7012996069
 20
202.8971561487
 11
137.7012996069
 21
203.286005806
  0
LINE
  5
2C2
100
AcDbEntity
  8
KONSTRUKTIONSELEMENTE
100
AcDbLine
 62
7
  6
CONTINUOUS
 10
137.7115074507
 20
194.9536747021
 11
137.7115074507
 21
195.4399581453
  0
LINE
  5
2C3
100
AcDbEntity
  8
KONSTRUKTIONSELEMENTE
100
AcDbLine
 62
7
  6
CONTINUOUS
 10
137.7815076343
 20
202.8971561487
 11
137.7815076343
 21
203.4123313171
  0
LINE
  5
2C4
100
AcDbEntity
  8
KONSTRUKTIONSELEMENTE
100
AcDbLine
 62
7
  6
CONTINUOUS
 10
137.8077576343
 20
196.3936816458
 11
137.8077576343
 21
196.88118385
  0
LINE
  5
2C5
100
AcDbEntity
  8
KONSTRUKTIONSELEMENTE
100
AcDbLine
 62
7
  6
CONTINUOUS
 10
138.0965076343
 20
196.327787693
 11
138.0965076343
 21
196.8151588772
  0
LINE
  5
2C6
100
AcDbEntity
  8
KONSTRUKTIONSELEMENTE
100
AcDbLine
 62
7
  6
CONTINUOUS
 10
138.1927578179
 20
195.024918024
 11
138.1927578179
 21
195.5111870131
  0
LINE
  5
2C7
100
AcDbEntity
  8
KONSTRUKTIONSELEMENTE
100
AcDbLine
 62
7
  6
CONTINUOUS
 10
138.2890074507
 20
196.1951937322
 11
138.2890074507
 21
196.682324987
  0
LINE
  5
2C8
100
AcDbEntity
  8
KONSTRUKTIONSELEMENTE
100
AcDbLine
 62
7
  6
CONTINUOUS
 10
138.3852576343
 20
196.481117019
 11
138.3852576343
 21
196.2775640435
  0
LINE
  5
2C9
100
AcDbEntity
  8
KONSTRUKTIONSELEMENTE
100
AcDbLine
 62
7
  6
CONTINUOUS
 10
138.4231746069
 20
202.8971561487
 11
138.4231746069
 21
203.4123313171
  0
LINE
  5
2CA
100
AcDbEntity
  8
KONSTRUKTIONSELEMENTE
100
AcDbLine
 62
7
  6
CONTINUOUS
 10
138.5033826343
 20
202.8971561487
 11
138.5033826343
 21
203.286005806
  0
LINE
  5
2CB
100
AcDbEntity
  8
KONSTRUKTIONSELEMENTE
100
AcDbLine
 62
7
  6
CONTINUOUS
 10
138.5777574507
 20
195.2370467143
 11
138.5777574507
 21
195.7233157034
  0
LINE
  5
2CC
100
AcDbEntity
  8
KONSTRUKTIONSELEMENTE
100
AcDbLine
 62
7
  6
CONTINUOUS
 10
138.5835906616
 20
202.8971561487
 11
138.5835906616
 21
203.2521699982
  0
LINE
  5
2CD
100
AcDbEntity
  8
KONSTRUKTIONSELEMENTE
100
AcDbLine
 62
7
  6
CONTINUOUS
 10
138.7440076343
 20
202.8971561487
 11
138.7440076343
 21
203.2033084623
  0
LINE
  5
2CE
100
AcDbEntity
  8
KONSTRUKTIONSELEMENTE
100
AcDbLine
 62
7
  6
CONTINUOUS
 10
138.8242156616
 20
203.4050227928
 11
138.8242156616
 21
203.3464916127
  0
LINE
  5
2CF
100
AcDbEntity
  8
KONSTRUKTIONSELEMENTE
100
AcDbLine
 62
7
  6
CONTINUOUS
 10
138.8665074507
 20
195.5161483166
 11
138.8665074507
 21
196.0025185111
  0
LINE
  5
2D0
100
AcDbEntity
  8
KONSTRUKTIONSELEMENTE
100
AcDbLine
 62
7
  6
CONTINUOUS
 10
138.9044246069
 20
203.286005806
 11
138.9044246069
 21
203.4449397285
  0
LINE
  5
2D1
100
AcDbEntity
  8
KONSTRUKTIONSELEMENTE
100
AcDbLine
 62
7
  6
CONTINUOUS
 10
138.9627576343
 20
195.7226705307
 11
138.9627576343
 21
196.481117019
  0
LINE
  5
2D2
100
AcDbEntity
  8
KONSTRUKTIONSELEMENTE
100
AcDbLine
 62
7
  6
CONTINUOUS
 10
138.9846326343
 20
202.8971561487
 11
138.9846326343
 21
203.1638385138
  0
LINE
  5
2D3
100
AcDbEntity
  8
KONSTRUKTIONSELEMENTE
100
AcDbLine
 62
7
  6
CONTINUOUS
 10
139.2252576343
 20
203.2159264472
 11
139.2252576343
 21
203.4754394914
  0
LINE
  5
2D4
100
AcDbEntity
  8
KONSTRUKTIONSELEMENTE
100
AcDbLine
 62
7
  6
CONTINUOUS
 10
139.3856746069
 20
202.8971561487
 11
139.3856746069
 21
203.1219357252
  0
LINE
  5
2D5
100
AcDbEntity
  8
KONSTRUKTIONSELEMENTE
100
AcDbLine
 62
7
  6
CONTINUOUS
 10
139.4658826343
 20
203.1904214192
 11
139.4658826343
 21
203.4835194298
  0
LINE
  5
2D6
100
AcDbEntity
  8
KONSTRUKTIONSELEMENTE
100
AcDbLine
 62
7
  6
CONTINUOUS
 10
139.7327574507
 20
196.719111835
 11
139.7327574507
 21
197.2073804354
  0
LINE
  5
2D7
100
AcDbEntity
  8
KONSTRUKTIONSELEMENTE
100
AcDbLine
 62
7
  6
CONTINUOUS
 10
139.866923689
 20
202.8971561487
 11
139.866923689
 21
203.1074254405
  0
LINE
  5
2D8
100
AcDbEntity
  8
KONSTRUKTIONSELEMENTE
100
AcDbLine
 62
7
  6
CONTINUOUS
 10
139.866923689
 20
203.1772649103
 11
139.866923689
 21
203.4871687486
  0
LINE
  5
2D9
100
AcDbEntity
  8
KONSTRUKTIONSELEMENTE
100
AcDbLine
 62
7
  6
CONTINUOUS
 10
140.2679665795
 20
203.1904214192
 11
140.2679665795
 21
203.4835194298
  0
LINE
  5
2DA
100
AcDbEntity
  8
KONSTRUKTIONSELEMENTE
100
AcDbLine
 62
7
  6
CONTINUOUS
 10
140.348173689
 20
202.8971561487
 11
140.348173689
 21
203.1219357252
  0
LINE
  5
2DB
100
AcDbEntity
  8
KONSTRUKTIONSELEMENTE
100
AcDbLine
 62
7
  6
CONTINUOUS
 10
140.5027572671
 20
193.3957619574
 11
140.5027572671
 21
193.8840305579
  0
LINE
  5
2DC
100
AcDbEntity
  8
KONSTRUKTIONSELEMENTE
100
AcDbLine
 62
7
  6
CONTINUOUS
 10
140.5085915795
 20
203.2159264472
 11
140.5085915795
 21
203.4754394914
  0
LINE
  5
2DD
100
AcDbEntity
  8
KONSTRUKTIONSELEMENTE
100
AcDbLine
 62
7
  6
CONTINUOUS
 10
140.7492165795
 20
202.8971561487
 11
140.7492165795
 21
203.1638385138
  0
LINE
  5
2DE
100
AcDbEntity
  8
KONSTRUKTIONSELEMENTE
100
AcDbLine
 62
7
  6
CONTINUOUS
 10
140.829423689
 20
203.286005806
 11
140.829423689
 21
203.4449397285
  0
LINE
  5
2DF
100
AcDbEntity
  8
KONSTRUKTIONSELEMENTE
100
AcDbLine
 62
7
  6
CONTINUOUS
 10
140.9096326343
 20
203.4050227928
 11
140.9096326343
 21
203.3464916127
  0
LINE
  5
2E0
100
AcDbEntity
  8
KONSTRUKTIONSELEMENTE
100
AcDbLine
 62
7
  6
CONTINUOUS
 10
140.9898415795
 20
202.8971561487
 11
140.9898415795
 21
203.2033084623
  0
LINE
  5
2E1
100
AcDbEntity
  8
KONSTRUKTIONSELEMENTE
100
AcDbLine
 62
7
  6
CONTINUOUS
 10
141.1502576343
 20
202.8971561487
 11
141.1502576343
 21
203.2521699982
  0
LINE
  5
2E2
100
AcDbEntity
  8
KONSTRUKTIONSELEMENTE
100
AcDbLine
 62
7
  6
CONTINUOUS
 10
141.2304665795
 20
202.8971561487
 11
141.2304665795
 21
203.286005806
  0
LINE
  5
2E3
100
AcDbEntity
  8
KONSTRUKTIONSELEMENTE
100
AcDbLine
 62
7
  6
CONTINUOUS
 10
141.2727576343
 20
193.3957619574
 11
141.2727576343
 21
193.8840305579
  0
LINE
  5
2E4
100
AcDbEntity
  8
KONSTRUKTIONSELEMENTE
100
AcDbLine
 62
7
  6
CONTINUOUS
 10
141.310673689
 20
202.8971561487
 11
141.310673689
 21
203.4123313171
  0
LINE
  5
2E5
100
AcDbEntity
  8
KONSTRUKTIONSELEMENTE
100
AcDbLine
 62
7
  6
CONTINUOUS
 10
141.9523415795
 20
202.8971561487
 11
141.9523415795
 21
203.3464916127
  0
LINE
  5
2E6
100
AcDbEntity
  8
KONSTRUKTIONSELEMENTE
100
AcDbLine
 62
7
  6
CONTINUOUS
 10
142.032548689
 20
202.8971561487
 11
142.032548689
 21
203.2159264472
  0
LINE
  5
2E7
100
AcDbEntity
  8
KONSTRUKTIONSELEMENTE
100
AcDbLine
 62
7
  6
CONTINUOUS
 10
142.0427580014
 20
196.128494132
 11
142.0427580014
 21
196.615516445
  0
LINE
  5
2E8
100
AcDbEntity
  8
KONSTRUKTIONSELEMENTE
100
AcDbLine
 62
7
  6
CONTINUOUS
 10
142.1127576343
 20
202.8971561487
 11
142.1127576343
 21
203.1904214192
  0
LINE
  5
2E9
100
AcDbEntity
  8
KONSTRUKTIONSELEMENTE
100
AcDbLine
 62
7
  6
CONTINUOUS
 10
142.3533826343
 20
203.3370738564
 11
142.3533826343
 21
203.2749941265
  0
LINE
  5
2EA
100
AcDbEntity
  8
KONSTRUKTIONSELEMENTE
100
AcDbLine
 62
7
  6
CONTINUOUS
 10
142.3533826343
 20
202.8971561487
 11
142.3533826343
 21
203.1501418127
  0
LINE
  5
2EB
100
AcDbEntity
  8
KONSTRUKTIONSELEMENTE
100
AcDbLine
 62
7
  6
CONTINUOUS
 10
142.4335915795
 20
203.2462962623
 11
142.4335915795
 21
203.3645336566
  0
LINE
  5
2EC
100
AcDbEntity
  8
KONSTRUKTIONSELEMENTE
100
AcDbLine
 62
7
  6
CONTINUOUS
 10
142.5940076343
 20
202.8971561487
 11
142.5940076343
 21
203.1219357252
  0
LINE
  5
2ED
100
AcDbEntity
  8
KONSTRUKTIONSELEMENTE
100
AcDbLine
 62
7
  6
CONTINUOUS
 10
142.5940076343
 20
203.2075367955
 11
142.5940076343
 21
203.3896171622
  0
LINE
  5
2EE
100
AcDbEntity
  8
KONSTRUKTIONSELEMENTE
100
AcDbLine
 62
7
  6
CONTINUOUS
 10
142.8127572671
 20
193.3957619574
 11
142.8127572671
 21
193.8840305579
  0
LINE
  5
2EF
100
AcDbEntity
  8
KONSTRUKTIONSELEMENTE
100
AcDbLine
 62
7
  6
CONTINUOUS
 10
142.9148415795
 20
202.8971561487
 11
142.9148415795
 21
203.1074254405
  0
LINE
  5
2F0
100
AcDbEntity
  8
KONSTRUKTIONSELEMENTE
100
AcDbLine
 62
7
  6
CONTINUOUS
 10
142.9148415795
 20
203.1838768331
 11
142.9148415795
 21
203.4050227928
  0
LINE
  5
2F1
100
AcDbEntity
  8
KONSTRUKTIONSELEMENTE
100
AcDbLine
 62
7
  6
CONTINUOUS
 10
143.3960915795
 20
202.8971561487
 11
143.3960915795
 21
203.1074254405
  0
LINE
  5
2F2
100
AcDbEntity
  8
KONSTRUKTIONSELEMENTE
100
AcDbLine
 62
7
  6
CONTINUOUS
 10
143.3960915795
 20
203.1772649103
 11
143.3960915795
 21
203.4050227928
  0
LINE
  5
2F3
100
AcDbEntity
  8
KONSTRUKTIONSELEMENTE
100
AcDbLine
 62
7
  6
CONTINUOUS
 10
143.5827576343
 20
193.3957619574
 11
143.5827576343
 21
193.8840305579
  0
LINE
  5
2F4
100
AcDbEntity
  8
KONSTRUKTIONSELEMENTE
100
AcDbLine
 62
7
  6
CONTINUOUS
 10
143.716923689
 20
202.8971561487
 11
143.716923689
 21
203.1219357252
  0
LINE
  5
2F5
100
AcDbEntity
  8
KONSTRUKTIONSELEMENTE
100
AcDbLine
 62
7
  6
CONTINUOUS
 10
143.716923689
 20
203.1904214192
 11
143.716923689
 21
203.3974514851
  0
LINE
  5
2F6
100
AcDbEntity
  8
KONSTRUKTIONSELEMENTE
100
AcDbLine
 62
7
  6
CONTINUOUS
 10
143.8773415795
 20
202.8971561487
 11
143.8773415795
 21
203.1361743638
  0
LINE
  5
2F7
100
AcDbEntity
  8
KONSTRUKTIONSELEMENTE
100
AcDbLine
 62
7
  6
CONTINUOUS
 10
143.957548689
 20
203.2159264472
 11
143.957548689
 21
203.3815195837
  0
LINE
  5
2F8
100
AcDbEntity
  8
KONSTRUKTIONSELEMENTE
100
AcDbLine
 62
7
  6
CONTINUOUS
 10
144.0377576343
 20
202.8971561487
 11
144.0377576343
 21
203.1638385138
  0
LINE
  5
2F9
100
AcDbEntity
  8
KONSTRUKTIONSELEMENTE
100
AcDbLine
 62
7
  6
CONTINUOUS
 10
144.1179665795
 20
203.3556447852
 11
144.1179665795
 21
203.2521699982
  0
LINE
  5
2FA
100
AcDbEntity
  8
KONSTRUKTIONSELEMENTE
100
AcDbLine
 62
7
  6
CONTINUOUS
 10
144.1179665795
 20
203.5015130148
 11
144.1179665795
 21
203.3974514851
  0
LINE
  5
2FB
100
AcDbEntity
  8
KONSTRUKTIONSELEMENTE
100
AcDbLine
 62
7
  6
CONTINUOUS
 10
144.1179665795
 20
202.8971561487
 11
144.1179665795
 21
203.1904214192
  0
LINE
  5
2FC
100
AcDbEntity
  8
KONSTRUKTIONSELEMENTE
100
AcDbLine
 62
7
  6
CONTINUOUS
 10
144.3527580014
 20
196.719111835
 11
144.3527580014
 21
197.2073804354
  0
LINE
  5
2FD
100
AcDbEntity
  8
KONSTRUKTIONSELEMENTE
100
AcDbLine
 62
7
  6
CONTINUOUS
 10
144.5190076343
 20
202.8971561487
 11
144.5190076343
 21
203.5015130148
  0
LINE
  5
2FE
100
AcDbEntity
  8
KONSTRUKTIONSELEMENTE
100
AcDbLine
 62
7
  6
CONTINUOUS
 10
145.160673689
 20
202.8971561487
 11
145.160673689
 21
203.3974514851
  0
LINE
  5
2FF
100
AcDbEntity
  8
KONSTRUKTIONSELEMENTE
100
AcDbLine
 62
7
  6
CONTINUOUS
 10
145.2408826343
 20
202.8971561487
 11
145.2408826343
 21
203.1772649103
  0
LINE
  5
300
100
AcDbEntity
  8
KONSTRUKTIONSELEMENTE
100
AcDbLine
 62
7
  6
CONTINUOUS
 10
145.4815076343
 20
202.8971561487
 11
145.4815076343
 21
203.1361743638
  0
LINE
  5
301
100
AcDbEntity
  8
KONSTRUKTIONSELEMENTE
100
AcDbLine
 62
7
  6
CONTINUOUS
 10
145.5617165795
 20
203.2403568349
 11
145.5617165795
 21
203.2159264472
  0
LINE
  5
302
100
AcDbEntity
  8
KONSTRUKTIONSELEMENTE
100
AcDbLine
 62
7
  6
CONTINUOUS
 10
145.5617165795
 20
203.3322656905
 11
145.5617165795
 21
203.3815195837
  0
LINE
  5
303
100
AcDbEntity
  8
KONSTRUKTIONSELEMENTE
100
AcDbLine
 62
7
  6
CONTINUOUS
 10
145.641923689
 20
202.8971561487
 11
145.641923689
 21
203.1219357252
  0
LINE
  5
304
100
AcDbEntity
  8
KONSTRUKTIONSELEMENTE
100
AcDbLine
 62
7
  6
CONTINUOUS
 10
145.641923689
 20
203.1904214192
 11
145.641923689
 21
203.2749941265
  0
LINE
  5
305
100
AcDbEntity
  8
KONSTRUKTIONSELEMENTE
100
AcDbLine
 62
7
  6
CONTINUOUS
 10
145.641923689
 20
203.337073785
 11
145.641923689
 21
203.3974514851
  0
LINE
  5
306
100
AcDbEntity
  8
KONSTRUKTIONSELEMENTE
100
AcDbLine
 62
7
  6
CONTINUOUS
 10
145.6565076343
 20
192.9345055177
 11
145.6565076343
 21
197.9698841201
  0
LINE
  5
307
100
AcDbEntity
  8
KONSTRUKTIONSELEMENTE
100
AcDbLine
 62
7
  6
CONTINUOUS
 10
145.8023415795
 20
203.1772648078
 11
145.8023415795
 21
203.2967510237
  0
LINE
  5
308
100
AcDbEntity
  8
KONSTRUKTIONSELEMENTE
100
AcDbLine
 62
7
  6
CONTINUOUS
 10
145.8023415795
 20
203.3464916127
 11
145.8023415795
 21
203.4050227928
  0
LINE
  5
309
100
AcDbEntity
  8
KONSTRUKTIONSELEMENTE
100
AcDbLine
 62
7
  6
CONTINUOUS
 10
145.9627576343
 20
202.8971561487
 11
145.9627576343
 21
203.1074254405
  0
LINE
  5
30A
100
AcDbEntity
  8
KONSTRUKTIONSELEMENTE
100
AcDbLine
 62
7
  6
CONTINUOUS
 10
145.9627576343
 20
203.1638385138
 11
145.9627576343
 21
203.3072301146
  0
LINE
  5
30B
100
AcDbEntity
  8
KONSTRUKTIONSELEMENTE
100
AcDbLine
 62
7
  6
CONTINUOUS
 10
146.123173689
 20
203.3526212486
 11
146.123173689
 21
203.4123313171
  0
LINE
  5
30C
100
AcDbEntity
  8
KONSTRUKTIONSELEMENTE
100
AcDbLine
 62
7
  6
CONTINUOUS
 10
146.2835915795
 20
203.1638385138
 11
146.2835915795
 21
203.3174434047
  0
LINE
  5
30D
100
AcDbEntity
  8
KONSTRUKTIONSELEMENTE
100
AcDbLine
 62
7
  6
CONTINUOUS
 10
146.4440076343
 20
202.8971561487
 11
146.4440076343
 21
203.1074254405
  0
LINE
  5
30E
100
AcDbEntity
  8
KONSTRUKTIONSELEMENTE
100
AcDbLine
 62
7
  6
CONTINUOUS
 10
146.604423689
 20
203.3556447852
 11
146.604423689
 21
203.4123313171
  0
LINE
  5
30F
100
AcDbEntity
  8
KONSTRUKTIONSELEMENTE
100
AcDbLine
 62
7
  6
CONTINUOUS
 10
146.845048689
 20
202.8971561487
 11
146.845048689
 21
203.1219357252
  0
LINE
  5
310
100
AcDbEntity
  8
KONSTRUKTIONSELEMENTE
100
AcDbLine
 62
7
  6
CONTINUOUS
 10
146.9252576343
 20
203.3556447852
 11
146.9252576343
 21
203.4050227928
  0
LINE
  5
311
100
AcDbEntity
  8
KONSTRUKTIONSELEMENTE
100
AcDbLine
 62
7
  6
CONTINUOUS
 10
147.085673689
 20
202.8971561487
 11
147.085673689
 21
203.1501418127
  0
LINE
  5
312
100
AcDbEntity
  8
KONSTRUKTIONSELEMENTE
100
AcDbLine
 62
7
  6
CONTINUOUS
 10
147.085673689
 20
203.3556447852
 11
147.085673689
 21
203.3974514851
  0
LINE
  5
313
100
AcDbEntity
  8
KONSTRUKTIONSELEMENTE
100
AcDbLine
 62
7
  6
CONTINUOUS
 10
147.1658826343
 20
203.3174434047
 11
147.1658826343
 21
203.2521699982
  0
LINE
  5
314
100
AcDbEntity
  8
KONSTRUKTIONSELEMENTE
100
AcDbLine
 62
7
  6
CONTINUOUS
 10
147.1658826343
 20
203.3815195837
 11
147.1658826343
 21
203.3556447852
  0
LINE
  5
315
100
AcDbEntity
  8
KONSTRUKTIONSELEMENTE
100
AcDbLine
 62
7
  6
CONTINUOUS
 10
147.1658826343
 20
202.8971561487
 11
147.1658826343
 21
203.1772649103
  0
LINE
  5
316
100
AcDbEntity
  8
KONSTRUKTIONSELEMENTE
100
AcDbLine
 62
7
  6
CONTINUOUS
 10
147.2460915795
 20
202.8971561487
 11
147.2460915795
 21
203.1361743638
  0
LINE
  5
317
100
AcDbEntity
  8
KONSTRUKTIONSELEMENTE
100
AcDbLine
 62
7
  6
CONTINUOUS
 10
147.326298689
 20
202.8971561487
 11
147.326298689
 21
203.1074254405
  0
LINE
  5
318
100
AcDbEntity
  8
KONSTRUKTIONSELEMENTE
100
AcDbLine
 62
7
  6
CONTINUOUS
 10
147.566923689
 20
203.3815195837
 11
147.566923689
 21
203.2159264472
  0
LINE
  5
319
100
AcDbEntity
  8
KONSTRUKTIONSELEMENTE
100
AcDbLine
 62
7
  6
CONTINUOUS
 10
147.7273415795
 20
202.8971561487
 11
147.7273415795
 21
203.1074254405
  0
LINE
  5
31A
100
AcDbEntity
  8
KONSTRUKTIONSELEMENTE
100
AcDbLine
 62
7
  6
CONTINUOUS
 10
148.3690076343
 20
202.8971561487
 11
148.3690076343
 21
203.5015130148
  0
LINE
  5
31B
100
AcDbEntity
  8
KONSTRUKTIONSELEMENTE
100
AcDbLine
 62
7
  6
CONTINUOUS
 10
148.8502576343
 20
202.8971561487
 11
148.8502576343
 21
203.4835194298
  0
LINE
  5
31C
100
AcDbEntity
  8
KONSTRUKTIONSELEMENTE
100
AcDbLine
 62
7
  6
CONTINUOUS
 10
150.8554665795
 20
202.8971561487
 11
150.8554665795
 21
203.1074254405
  0
LINE
  5
31D
100
AcDbEntity
  8
KONSTRUKTIONSELEMENTE
100
AcDbLine
 62
7
  6
CONTINUOUS
 10
151.0960915795
 20
203.5015130148
 11
151.0960915795
 21
203.2033084623
  0
LINE
  5
31E
100
AcDbEntity
  8
KONSTRUKTIONSELEMENTE
100
AcDbLine
 62
7
  6
CONTINUOUS
 10
151.5773415795
 20
202.9346397836
 11
151.5773415795
 21
203.5015130148
  0
LINE
  5
31F
100
AcDbEntity
  8
0
100
AcDbLine
 62
7
  6
CONTINUOUS
 10
152.3065076343
 20
203.510907261
 11
152.3065076343
 21
203.1675270486
  0
LINE
  5
320
100
AcDbEntity
  8
0
100
AcDbLine
 62
7
  6
CONTINUOUS
 10
158.6065076343
 20
168.9585850346
 11
158.6065076343
 21
198.6109920677
  0
LINE
  5
321
100
AcDbEntity
  8
BEZUGSACHSEN
100
AcDbLine
 62
7
  6
CONTINUOUS
 10
161.0565076343
 20
194.6347885701
 11
161.0565076343
 21
204.0074334798
  0
LINE
  5
322
100
AcDbEntity
  8
BEZUGSACHSEN
100
AcDbLine
 62
7
  6
CONTINUOUS
 10
161.0565076343
 20
222.6110617823
 11
161.0565076343
 21
230.6847750152
  0
LINE
  5
323
100
AcDbEntity
  8
0
100
AcDbLine
 62
7
  6
CONTINUOUS
 10
171.9859944819
 20
209.2176456882
 11
170.1285076343
 21
208.1452251567
  0
LINE
  5
324
100
AcDbEntity
  8
0
100
AcDbLine
 62
7
  6
CONTINUOUS
 10
170.1285076343
 20
207.0763674841
 11
172.5581134973
 21
208.4791010832
  0
LINE
  5
325
100
AcDbEntity
  8
0
100
AcDbLine
 62
7
  6
CONTINUOUS
 10
170.1285076343
 20
211.8897885511
 11
170.1285076343
 21
210.9641306536
  0
LINE
  5
326
100
AcDbEntity
  8
0
100
AcDbLine
 62
7
  6
CONTINUOUS
 10
170.1285076343
 20
208.1452251567
 11
170.1285076343
 21
207.0763674841
  0
LINE
  5
327
100
AcDbEntity
  8
0
100
AcDbLine
 62
7
  6
CONTINUOUS
 10
170.1285076343
 20
200.7818937811
 11
170.1285076343
 21
198.2764464052
  0
LINE
  5
328
100
AcDbEntity
  8
0
100
AcDbLine
 62
7
  6
CONTINUOUS
 10
171.0541655318
 20
198.5131569289
 11
171.0541655318
 21
199.6711043041
  0
LINE
  5
329
100
AcDbEntity
  8
0
100
AcDbLine
 62
7
  6
CONTINUOUS
 10
172.4488234307
 20
210.9641306536
 11
172.4488234307
 21
210.0192889427
  0
LINE
  5
32A
100
AcDbEntity
  8
0
100
AcDbLine
 62
7
  6
CONTINUOUS
 10
173.3744813282
 20
209.4337095964
 11
173.3744813282
 21
210.9641306536
  0
LINE
  5
32B
100
AcDbEntity
  8
0
100
AcDbLine
 62
7
  6
CONTINUOUS
 10
174.2014023833
 20
199.6711043041
 11
174.2014023833
 21
200.7818937811
  0
LINE
  5
32C
100
AcDbEntity
  8
0
100
AcDbLine
 62
7
  6
CONTINUOUS
 10
174.2014023833
 20
210.9641306536
 11
174.2014023833
 21
211.8897885511
  0
LINE
  5
32D
100
AcDbEntity
  8
0
100
AcDbLine
 62
7
  6
CONTINUOUS
 10
174.7567971218
 20
211.8897885511
 11
174.7567971218
 21
209.4337095964
  0
LINE
  5
32E
100
AcDbEntity
  8
0
100
AcDbLine
 62
7
  6
CONTINUOUS
 10
174.7567971218
 20
200.7818937811
 11
174.7567971218
 21
198.5131568704
  0
LINE
  5
32F
100
AcDbEntity
  8
BEZUGSACHSEN
100
AcDbLine
 62
7
  6
CONTINUOUS
 10
179.0428156091
 20
227.8509170199
 11
178.6460003498
 21
226.892920239
  0
LINE
  5
330
100
AcDbEntity
  8
RUNDUNGEN
100
AcDbLine
 62
7
  6
CONTINUOUS
 10
182.8177680551
 20
172.115749648
 11
179.7320723995
 21
218.7747027306
  0
LINE
  5
331
100
AcDbEntity
  8
0
100
AcDbLine
 62
7
  6
CONTINUOUS
 10
175.6824550193
 20
198.2764464052
 11
175.6824550193
 21
200.7818937811
  0
LINE
  5
332
100
AcDbEntity
  8
0
100
AcDbLine
 62
7
  6
CONTINUOUS
 10
175.6824550193
 20
201.8926832581
 11
175.6824550193
 21
203.0034727351
  0
LINE
  5
333
100
AcDbEntity
  8
0
100
AcDbLine
 62
7
  6
CONTINUOUS
 10
175.6824550193
 20
205.2250516891
 11
175.6824550193
 21
206.3358411661
  0
LINE
  5
334
100
AcDbEntity
  8
0
100
AcDbLine
 62
7
  6
CONTINUOUS
 10
175.6824550193
 20
209.0634464374
 11
175.6824550193
 21
211.8897885511
  0
LINE
  5
335
100
AcDbEntity
  8
RUNDUNGEN
100
AcDbLine
 62
7
  6
CONTINUOUS
 10
178.5185622656
 20
225.7217366072
 11
179.6856763054
 21
219.1563225147
  0
LINE
  5
336
100
AcDbEntity
  8
BEZUGSACHSEN
100
AcDbLine
 62
7
  6
CONTINUOUS
 10
179.6856763054
 20
219.1563225147
 11
178.5185622656
 21
225.7217366072
  0
LINE
  5
337
100
AcDbEntity
  8
BEZUGSACHSEN
100
AcDbLine
 62
7
  6
CONTINUOUS
 10
168.9102517674
 20
257.9808331307
 11
179.0428156091
 21
233.5186600824
  0
LINE
  5
338
100
AcDbEntity
  8
BEZUGSACHSEN
100
AcDbLine
 62
7
  6
CONTINUOUS
 10
140.4403791656
 20
272.121096526
 11
164.9025522138
 21
261.9885326843
  0
LINE
  5
339
100
AcDbEntity
  8
KONSTRUKTIONSELEMENTE
100
AcDbLine
 62
7
  6
CONTINUOUS
 10
250.1205295551
 20
166.1097885511
 11
246.3626136378
 21
166.1097885511
  0
LINE
  5
33A
100
AcDbEntity
  8
0
100
AcDbLine
 62
7
  6
CONTINUOUS
 10
274.8068430307
 20
166.1097885511
 11
278.5647589481
 21
166.1097885511
  0
LINE
  5
33B
100
AcDbEntity
  8
KONSTRUKTIONSELEMENTE
100
AcDbLine
 62
7
  6
CONTINUOUS
 10
244.8921778075
 20
168.2097885511
 11
244.1431778075
 21
168.2097885511
  0
LINE
  5
33C
100
AcDbEntity
  8
0
100
AcDbLine
 62
7
  6
CONTINUOUS
 10
280.0351947783
 20
168.2097885511
 11
280.7841947783
 21
168.2097885511
  0
LINE
  5
33D
100
AcDbEntity
  8
KONSTRUKTIONSELEMENTE
100
AcDbLine
 62
7
  6
CONTINUOUS
 10
244.1431778075
 20
168.2097885511
 11
236.2136862929
 21
177.6597885511
  0
LINE
  5
33E
100
AcDbEntity
  8
KONSTRUKTIONSELEMENTE
100
AcDbLine
 62
7
  6
CONTINUOUS
 10
246.3626136378
 20
166.1097885511
 11
244.8921778075
 21
168.2097885511
  0
LINE
  5
33F
100
AcDbEntity
  8
KONSTRUKTIONSELEMENTE
100
AcDbLine
 62
7
  6
CONTINUOUS
 10
250.6833199321
 20
168.9531801475
 11
250.6353795343
 21
169.029647878
  0
LINE
  5
340
100
AcDbEntity
  8
KONSTRUKTIONSELEMENTE
100
AcDbLine
 62
7
  6
CONTINUOUS
 10
250.8167397835
 20
170.0581929622
 11
251.2764020361
 21
169.3250048616
  0
LINE
  5
341
100
AcDbEntity
  8
KONSTRUKTIONSELEMENTE
100
AcDbLine
 62
7
  6
CONTINUOUS
 10
237.0052206451
 20
182.1488029323
 11
236.2136862929
 21
177.6597885511
  0
LINE
  5
342
100
AcDbEntity
  8
0
100
AcDbLine
 62
7
  6
CONTINUOUS
 10
271.7386862929
 20
201.8926832581
 11
272.0886862929
 21
201.8926832581
  0
LINE
  5
343
100
AcDbEntity
  8
0
100
AcDbLine
 62
7
  6
CONTINUOUS
 10
271.7386862929
 20
206.3358411661
 11
272.0886862929
 21
206.3358411661
  0
LINE
  5
344
100
AcDbEntity
  8
0
100
AcDbLine
 62
7
  6
CONTINUOUS
 10
271.7386862929
 20
207.0763674841
 11
272.0886862929
 21
207.0763674841
  0
LINE
  5
345
100
AcDbEntity
  8
RUNDUNGEN
100
AcDbLine
 62
7
  6
CONTINUOUS
 10
253.1886862929
 20
177.6597894726
 11
253.1886862929
 21
226.9569999111
  0
LINE
  5
346
100
AcDbEntity
  8
BEZUGSACHSEN
100
AcDbLine
 62
7
  6
CONTINUOUS
 10
253.1886862929
 20
199.4373538665
 11
253.1886862929
 21
267.0847883032
  0
LINE
  5
347
100
AcDbEntity
  8
0
100
AcDbLine
 62
7
  6
CONTINUOUS
 10
271.7386862929
 20
208.1452251567
 11
272.0886862929
 21
208.1452251567
  0
LINE
  5
348
100
AcDbEntity
  8
0
100
AcDbLine
 62
7
  6
CONTINUOUS
 10
271.7386862929
 20
210.9641306536
 11
272.0886862929
 21
210.9641306536
  0
LINE
  5
349
100
AcDbEntity
  8
0
100
AcDbLine
 62
7
  6
CONTINUOUS
 10
271.7386862929
 20
211.8897885511
 11
272.0886862929
 21
211.8897885511
  0
LINE
  5
34A
100
AcDbEntity
  8
BG_STARTBEZUEGE
100
AcDbLine
 62
7
  6
CENTER
 10
262.4636862929
 20
162.4671470808
 11
262.4636862929
 21
275.6847886211
  0
LINE
  5
34B
100
AcDbEntity
  8
KONSTRUKTIONSELEMENTE
100
AcDbLine
 62
7
  6
CONTINUOUS
 10
250.1205295551
 20
166.1097885511
 11
252.4678875998
 21
179.4223175545
  0
LINE
  5
34C
100
AcDbEntity
  8
0
100
AcDbLine
 62
7
  6
CONTINUOUS
 10
274.8068430307
 20
166.1097885511
 11
272.459484986
 21
179.4223175545
  0
LINE
  5
34D
100
AcDbEntity
  8
BEZUGSACHSEN
100
AcDbLine
 62
7
  6
CONTINUOUS
 10
271.7386862929
 20
267.0847883032
 11
271.7386862929
 21
266.9473711439
  0
LINE
  5
34E
100
AcDbEntity
  8
RUNDUNGEN
100
AcDbLine
 62
7
  6
CONTINUOUS
 10
271.7386862929
 20
266.9473711439
 11
271.7386862929
 21
177.6597885511
  0
LINE
  5
34F
100
AcDbEntity
  8
0
100
AcDbLine
 62
7
  6
CONTINUOUS
 10
272.0886862929
 20
211.8897885511
 11
272.0886862929
 21
207.0763674841
  0
LINE
  5
350
100
AcDbEntity
  8
0
100
AcDbLine
 62
7
  6
CONTINUOUS
 10
272.0886862929
 20
206.3358411661
 11
272.0886862929
 21
201.8926832581
  0
LINE
  5
351
100
AcDbEntity
  8
0
100
AcDbLine
 62
7
  6
CONTINUOUS
 10
287.9221519407
 20
182.1488029323
 11
288.7136862929
 21
177.6597885511
  0
LINE
  5
352
100
AcDbEntity
  8
KONSTRUKTIONSELEMENTE
100
AcDbLine
 62
7
  6
CONTINUOUS
 10
273.6509705498
 20
169.3250048616
 11
274.1106328023
 21
170.0581929622
  0
LINE
  5
353
100
AcDbEntity
  8
KONSTRUKTIONSELEMENTE
100
AcDbLine
 62
7
  6
CONTINUOUS
 10
274.291987456
 20
169.0296389528
 11
274.2440526537
 21
168.9531801475
  0
LINE
  5
354
100
AcDbEntity
  8
0
100
AcDbLine
 62
7
  6
CONTINUOUS
 10
278.5647589481
 20
166.1097885511
 11
280.0351947783
 21
168.2097885511
  0
LINE
  5
355
100
AcDbEntity
  8
0
100
AcDbLine
 62
7
  6
CONTINUOUS
 10
280.7841947783
 20
168.2097885511
 11
288.7136862929
 21
177.6597885511
  0
LINE
  5
356
100
AcDbEntity
  8
0
100
AcDbLine
 62
7
  6
CONTINUOUS
 10
258.7886862929
 20
272.6847886211
 11
266.1386862929
 21
272.6847886211
  0
LINE
  5
357
100
AcDbEntity
  8
0
100
AcDbLine
 62
7
  6
CONTINUOUS
 10
95.6065075643
 20
108.705
 11
95.6065075643
 21
101.355
  0
LINE
  5
358
100
AcDbEntity
  8
0
100
AcDbLine
 62
7
  6
CONTINUOUS
 10
121.5065076343
 20
78.78
 11
153.7065076343
 21
78.78
  0
LINE
  5
359
100
AcDbEntity
  8
0
100
AcDbLine
 62
7
  6
CONTINUOUS
 10
116.6065076343
 20
82.8915881928
 11
116.6065076343
 21
95.755
  0
LINE
  5
35A
100
AcDbEntity
  8
0
100
AcDbLine
 62
7
  6
CONTINUOUS
 10
116.6065076343
 20
114.305
 11
116.6065076343
 21
125.6629076581
  0
LINE
  5
35B
100
AcDbEntity
  8
KONSTRUKTIONSELEMENTE
100
AcDbLine
 62
7
  6
CONTINUOUS
 10
116.6065076343
 20
125.6629076581
 11
116.6065076343
 21
127.1684118072
  0
LINE
  5
35C
100
AcDbEntity
  8
KONSTRUKTIONSELEMENTE
100
AcDbLine
 62
7
  6
CONTINUOUS
 10
130.9565076343
 20
83.3674830838
 11
144.2565076343
 21
83.3674830838
  0
LINE
  5
35D
100
AcDbEntity
  8
KONSTRUKTIONSELEMENTE
100
AcDbLine
 62
7
  6
CONTINUOUS
 10
130.9565076343
 20
83.880583954
 11
144.2565076343
 21
83.880583954
  0
LINE
  5
35E
100
AcDbEntity
  8
KONSTRUKTIONSELEMENTE
100
AcDbLine
 62
7
  6
CONTINUOUS
 10
131.1665076343
 20
84.9039299772
 11
134.6315076343
 21
84.9039299772
  0
LINE
  5
35F
100
AcDbEntity
  8
KONSTRUKTIONSELEMENTE
100
AcDbLine
 62
7
  6
CONTINUOUS
 10
135.4015077261
 20
84.9039299772
 11
135.9790074507
 21
84.9039299772
  0
LINE
  5
360
100
AcDbEntity
  8
KONSTRUKTIONSELEMENTE
100
AcDbLine
 62
7
  6
CONTINUOUS
 10
140.5027572671
 20
84.9039299772
 11
141.2727576343
 21
84.9039299772
  0
LINE
  5
361
100
AcDbEntity
  8
KONSTRUKTIONSELEMENTE
100
AcDbLine
 62
7
  6
CONTINUOUS
 10
142.8127572671
 20
84.9039299772
 11
143.5827576343
 21
84.9039299772
  0
LINE
  5
362
100
AcDbEntity
  8
KONSTRUKTIONSELEMENTE
100
AcDbLine
 62
7
  6
CONTINUOUS
 10
131.7440076343
 20
85.2804565467
 11
134.6315076343
 21
85.2804565467
  0
LINE
  5
363
100
AcDbEntity
  8
KONSTRUKTIONSELEMENTE
100
AcDbLine
 62
7
  6
CONTINUOUS
 10
131.7440076343
 20
85.7851441818
 11
134.6315076343
 21
85.7851441818
  0
LINE
  5
364
100
AcDbEntity
  8
KONSTRUKTIONSELEMENTE
100
AcDbLine
 62
7
  6
CONTINUOUS
 10
135.9790074507
 20
86.2643320807
 11
137.7115074507
 21
86.2643320807
  0
LINE
  5
365
100
AcDbEntity
  8
KONSTRUKTIONSELEMENTE
100
AcDbLine
 62
7
  6
CONTINUOUS
 10
135.9790074507
 20
86.674839333
 11
137.8077576343
 21
86.674839333
  0
LINE
  5
366
100
AcDbEntity
  8
KONSTRUKTIONSELEMENTE
100
AcDbLine
 62
7
  6
CONTINUOUS
 10
135.9790074507
 20
87.1784230334
 11
137.8077576343
 21
87.1784230334
  0
LINE
  5
367
100
AcDbEntity
  8
KONSTRUKTIONSELEMENTE
100
AcDbLine
 62
7
  6
CONTINUOUS
 10
135.9790074507
 20
87.7435114607
 11
137.8077576343
 21
87.7435114607
  0
LINE
  5
368
100
AcDbEntity
  8
KONSTRUKTIONSELEMENTE
100
AcDbLine
 62
7
  6
CONTINUOUS
 10
131.1665076343
 20
88.1132516487
 11
131.7440076343
 21
88.1132516487
  0
LINE
  5
369
100
AcDbEntity
  8
KONSTRUKTIONSELEMENTE
100
AcDbLine
 62
7
  6
CONTINUOUS
 10
135.4015077261
 20
88.1132516487
 11
137.7115074507
 21
88.1132516487
  0
LINE
  5
36A
100
AcDbEntity
  8
KONSTRUKTIONSELEMENTE
100
AcDbLine
 62
7
  6
CONTINUOUS
 10
139.7327574507
 20
88.1132516487
 11
140.3102574507
 21
88.1132516487
  0
LINE
  5
36B
100
AcDbEntity
  8
KONSTRUKTIONSELEMENTE
100
AcDbLine
 62
7
  6
CONTINUOUS
 10
141.6577572671
 20
88.1132516487
 11
142.4277576343
 21
88.1132516487
  0
LINE
  5
36C
100
AcDbEntity
  8
KONSTRUKTIONSELEMENTE
100
AcDbLine
 62
7
  6
CONTINUOUS
 10
143.7752580014
 20
88.1132516487
 11
144.3527580014
 21
88.1132516487
  0
LINE
  5
36D
100
AcDbEntity
  8
KONSTRUKTIONSELEMENTE
100
AcDbLine
 62
7
  6
CONTINUOUS
 10
131.1665076343
 20
88.6188685858
 11
131.7440076343
 21
88.6188685858
  0
LINE
  5
36E
100
AcDbEntity
  8
KONSTRUKTIONSELEMENTE
100
AcDbLine
 62
7
  6
CONTINUOUS
 10
135.4015077261
 20
88.6188685858
 11
137.7115074507
 21
88.6188685858
  0
LINE
  5
36F
100
AcDbEntity
  8
KONSTRUKTIONSELEMENTE
100
AcDbLine
 62
7
  6
CONTINUOUS
 10
139.7327574507
 20
88.6188685858
 11
140.3102574507
 21
88.6188685858
  0
LINE
  5
370
100
AcDbEntity
  8
KONSTRUKTIONSELEMENTE
100
AcDbLine
 62
7
  6
CONTINUOUS
 10
141.6577572671
 20
88.6188685858
 11
142.4277576343
 21
88.6188685858
  0
LINE
  5
371
100
AcDbEntity
  8
KONSTRUKTIONSELEMENTE
100
AcDbLine
 62
7
  6
CONTINUOUS
 10
143.7752580014
 20
88.6188685858
 11
144.3527580014
 21
88.6188685858
  0
LINE
  5
372
100
AcDbEntity
  8
KONSTRUKTIONSELEMENTE
100
AcDbLine
 62
7
  6
CONTINUOUS
 10
130.9565076343
 20
90.1751351143
 11
144.2565076343
 21
90.1751351143
  0
LINE
  5
373
100
AcDbEntity
  8
KONSTRUKTIONSELEMENTE
100
AcDbLine
 62
7
  6
CONTINUOUS
 10
129.5565076343
 20
89.0367282511
 11
129.5565076343
 21
84.1741196578
  0
LINE
  5
374
100
AcDbEntity
  8
KONSTRUKTIONSELEMENTE
100
AcDbLine
 62
7
  6
CONTINUOUS
 10
129.9065076343
 20
125.8858803422
 11
129.9065076343
 21
121.0232717489
  0
LINE
  5
375
100
AcDbEntity
  8
KONSTRUKTIONSELEMENTE
100
AcDbLine
 62
7
  6
CONTINUOUS
 10
130.7756746904
 20
122.5703528665
 11
130.7756746904
 21
124.1604550597
  0
LINE
  5
376
100
AcDbEntity
  8
KONSTRUKTIONSELEMENTE
100
AcDbLine
 62
7
  6
CONTINUOUS
 10
130.8777576343
 20
122.1926860925
 11
130.8777576343
 21
122.6968828705
  0
LINE
  5
377
100
AcDbEntity
  8
KONSTRUKTIONSELEMENTE
100
AcDbLine
 62
7
  6
CONTINUOUS
 10
131.0819246904
 20
121.8849353589
 11
131.0819246904
 21
122.3896229941
  0
LWPOLYLINE
  5
378
100
AcDbEntity
  8
RUNDUNGEN
100
AcDbPolyline
 62
7
  6
CONTINUOUS
 90
200
 70
0
 10
178.9434784115
 20
95.755000001
 10
178.9851602726
 20
95.755246425
 10
179.0617714971
 20
95.7569852625
 10
179.1383283429
 20
95.7603890061
 10
179.2147936719
 20
95.7654560369
 10
179.2911307661
 20
95.7721838865
 10
179.3673029371
 20
95.7805692286
 10
179.4432736352
 20
95.7906078889
 10
179.5190063184
 20
95.8022948273
 10
179.594464724
 20
95.8156241761
 10
179.6696123378
 20
95.8305891431
 10
179.7444129992
 20
95.8471821053
 10
179.8188305606
 20
95.8653945399
 10
179.892829235
 20
95.885217098
 10
179.966373261
 20
95.9066395171
 10
180.0394277959
 20
95.9296508858
 10
180.1119560943
 20
95.9542387287
 10
180.1839230546
 20
95.9803900699
 10
180.2552912113
 20
96.0080899843
 10
180.3260244213
 20
96.0373228218
 10
180.396086582
 20
96.0680717354
 10
180.4654426452
 20
96.100319107
 10
180.5340567654
 20
96.1340456811
 10
180.6018967282
 20
96.1692327377
 10
180.6689206876
 20
96.2058550768
 10
180.7350921112
 20
96.2438883657
 10
180.8003689215
 20
96.2833030492
 10
180.8647122476
 20
96.324069056
 10
180.9280837966
 20
96.3661543115
 10
180.9904483962
 20
96.4095264434
 10
181.0517666751
 20
96.454147628
 10
181.1120103401
 20
96.4999855517
 10
181.1711217577
 20
96.5469822046
 10
181.2290575946
 20
96.5950854455
 10
181.285764689
 20
96.6442297089
 10
181.3411982855
 20
96.6943504948
 10
181.3953121262
 20
96.7453758207
 10
181.4480689223
 20
96.7972357916
 10
181.4994219298
 20
96.8498444854
 10
181.5493340522
 20
96.9031180021
 10
181.5977684709
 20
96.9569650844
 10
181.6447143425
 20
97.0113166611
 10
181.6900880049
 20
97.0660096579
 10
181.7338582635
 20
97.120928458
 10
181.7759100101
 20
97.1758348647
 10
181.81615163
 20
97.23049325
 10
181.85456017
 20
97.2847394365
 10
181.8910853116
 20
97.3383541355
 10
181.9257747974
 20
97.3912488421
 10
181.9586495913
 20
97.4432919614
 10
181.9897636993
 20
97.4944008058
 10
182.0191553907
 20
97.5444668528
 10
182.0469026905
 20
97.5934507449
 10
182.0730690049
 20
97.6412938727
 10
182.0977304428
 20
97.6879668653
 10
182.1209548972
 20
97.7334326351
 10
182.1428178326
 20
97.7776768257
 10
182.1633743287
 20
97.8206516264
 10
182.182736654
 20
97.8624396846
 10
182.2009760406
 20
97.9030522833
 10
182.2182368387
 20
97.9426822327
 10
182.2346408346
 20
97.9815006335
 10
182.2502751925
 20
98.0196204732
 10
182.2652421578
 20
98.0572120308
 10
182.2795803505
 20
98.0943031572
 10
182.293342197
 20
98.1309653643
 10
182.3065705109
 20
98.1672546507
 10
182.3193066665
 20
98.2032317906
 10
182.3315929712
 20
98.238969403
 10
182.3434692257
 20
98.274542616
 10
182.3549705067
 20
98.3100218106
 10
182.3661276134
 20
98.3454726641
 10
182.3769816123
 20
98.3810031726
 10
182.3875678352
 20
98.4167148305
 10
182.3979208828
 20
98.4527185386
 10
182.4080849911
 20
98.4891731833
 10
182.4180545118
 20
98.5260688495
 10
182.4278467743
 20
98.5634812092
 10
182.4374394521
 20
98.6013344736
 10
182.4468220451
 20
98.6395888865
 10
182.4559889346
 20
98.6782175807
 10
182.4649310034
 20
98.7171719238
 10
182.4736576725
 20
98.7564791185
 10
182.4821661282
 20
98.7961100637
 10
182.4904864529
 20
98.8361906535
 10
182.4986383816
 20
98.8768096695
 10
182.5066434851
 20
98.9180752116
 10
182.5145227545
 20
98.9601042716
 10
182.5222908352
 20
99.0029908678
 10
182.5299646073
 20
99.0468510007
 10
182.537553353
 20
99.0917667708
 10
182.5450676969
 20
99.1378349844
 10
182.5525171162
 20
99.1851532911
 10
182.5599086917
 20
99.2338114331
 10
182.5672566733
 20
99.2839553645
 10
182.5745714357
 20
99.3357178426
 10
182.5818662374
 20
99.3892652772
 10
182.5891517486
 20
99.4447606856
 10
182.5964398912
 20
99.5023929888
 10
182.6037387924
 20
99.5623383406
 10
182.6110637734
 20
99.624852273
 10
182.6184241883
 20
99.6901649104
 10
182.6258373631
 20
99.7586056118
 10
182.6333084255
 20
99.8304237538
 10
182.6408721232
 20
99.9061974997
 10
182.6485696011
 20
99.9866557962
 10
182.6563672372
 20
100.0718029156
 10
182.6642899397
 20
100.1623017214
 10
182.672199653
 20
100.2569199025
 10
182.6800116284
 20
100.3548386129
 10
182.6876311934
 20
100.4549259114
 10
182.6949630497
 20
100.5558132294
 10
182.7019703334
 20
100.6567414627
 10
182.7085673622
 20
100.7560863763
 10
182.7148351153
 20
100.8546504748
 10
182.7208009686
 20
100.9525337326
 10
182.7265209767
 20
101.0503924362
 10
182.7320469267
 20
101.1489488408
 10
182.7373931777
 20
101.2483589406
 10
182.7425913832
 20
101.3491600485
 10
182.7476276551
 20
101.4510519619
 10
182.7525004144
 20
101.5539522325
 10
182.7572057094
 20
101.6577176196
 10
182.7617388549
 20
101.762169827
 10
182.7661030351
 20
101.8673002925
 10
182.7702980737
 20
101.9730223483
 10
182.7743292357
 20
102.079389381
 10
182.7782000043
 20
102.1864245549
 10
182.7819132673
 20
102.2941474458
 10
182.7854722361
 20
102.4026002934
 10
182.7888773271
 20
102.5117512075
 10
182.7921297694
 20
102.6215975715
 10
182.7952295027
 20
102.7320973647
 10
182.798176756
 20
102.8432185749
 10
182.8009717203
 20
102.9549282329
 10
182.8036145516
 20
103.067192926
 10
182.8061054604
 20
103.1799818782
 10
182.8084445676
 20
103.2932612655
 10
182.8106321715
 20
103.407007039
 10
182.8126684799
 20
103.5211929506
 10
182.8145536477
 20
103.6357925554
 10
182.8162878322
 20
103.7507816082
 10
182.8178710284
 20
103.8661278181
 10
182.8193032647
 20
103.9818015618
 10
182.8205845246
 20
104.0977706603
 10
182.8217147969
 20
104.2140041912
 10
182.8226940502
 20
104.3304687607
 10
182.8235222537
 20
104.4471317517
 10
182.8241993836
 20
104.563959871
 10
182.8247254153
 20
104.6809199984
 10
182.8251003312
 20
104.7979789587
 10
182.8253241207
 20
104.9151035694
 10
182.8253967722
 20
105.0322606987
 10
182.8253182881
 20
105.1494171996
 10
182.8250886663
 20
105.2665399209
 10
182.824707918
 20
105.383595728
 10
182.8241760548
 20
105.5005514383
 10
182.8234930935
 20
105.617373875
 10
182.8226590595
 20
105.7340299177
 10
182.8216739764
 20
105.8504862652
 10
182.8205378749
 20
105.9667103212
 10
182.8192507867
 20
106.0826687099
 10
182.8178127221
 20
106.1983305112
 10
182.8162236982
 20
106.3136635353
 10
182.8144836848
 20
106.4286382227
 10
182.8125926864
 20
106.5432223182
 10
182.8105505428
 20
106.6573916515
 10
182.8083570955
 20
106.7711198939
 10
182.8060121374
 20
106.8843806958
 10
182.8035153687
 20
106.9971499686
 10
182.8008666698
 20
107.10939381
 10
182.7980658317
 20
107.2210813373
 10
182.7951126968
 20
107.332179183
 10
182.7920070737
 20
107.442654368
 10
182.7887487299
 20
107.5524749438
 10
182.7853377359
 20
107.6615985793
 10
182.781772822
 20
107.7700237846
 10
182.7780535326
 20
107.8777196306
 10
182.774176639
 20
107.9847283885
 10
182.7701392173
 20
108.0910701477
 10
182.7659377893
 20
108.1967674733
 10
182.7615670414
 20
108.3018743984
 10
182.7570272781
 20
108.4063010352
 10
182.7523154486
 20
108.5100358676
 10
182.7474362425
 20
108.6129010747
 10
182.7423937354
 20
108.7147514597
 10
182.7371892957
 20
108.8155091905
 10
182.7318368772
 20
108.9148733298
 10
182.7263040218
 20
109.0133944564
 10
182.720575469
 20
109.1112417812
 10
182.7145994243
 20
109.2091331705
 10
182.7083190347
 20
109.307732886
 10
182.7017082974
 20
109.4071158524
 10
182.6946870189
 20
109.5080702357
 10
182.6873423831
 20
109.6089540928
 10
182.679713345
 20
109.7089854405
 10
182.6718949948
 20
109.8068068826
 10
182.6639827769
 20
109.9012848566
 10
182.6560606469
 20
109.991616856
 10
182.6482666842
 20
110.0765766047
  0
LWPOLYLINE
  5
379
100
AcDbEntity
  8
RUNDUNGEN
100
AcDbPolyline
 62
7
  6
CONTINUOUS
 90
106
 70
0
 10
182.6482666842
 20
110.0765766047
 10
182.6405739079
 20
110.1568505268
 10
182.6330133309
 20
110.232468956
 10
182.6255446318
 20
110.3041493016
 10
182.618132967
 20
110.3724683598
 10
182.6107734274
 20
110.4376719945
 10
182.6034489426
 20
110.5000860641
 10
182.5961500646
 20
110.5599405924
 10
182.5888614585
 20
110.6174903077
 10
182.5815750382
 20
110.6729103219
 10
182.574278959
 20
110.726388343
 10
182.5669624623
 20
110.7780874758
 10
182.5596121915
 20
110.8281742421
 10
182.5522178743
 20
110.8767801919
 10
182.5447653548
 20
110.924050249
 10
182.5372475229
 20
110.9700740505
 10
182.5296549363
 20
111.0149487436
 10
182.5219768879
 20
111.0587713503
 10
182.5142040597
 20
111.1016238948
 10
182.5063194552
 20
111.1436226657
 10
182.4983083122
 20
111.1848619456
 10
182.490149572
 20
111.2254586503
 10
182.4818214688
 20
111.2655213956
 10
182.4733044995
 20
111.3051374599
 10
182.4645686367
 20
111.3444321305
 10
182.4556171131
 20
111.3833743996
 10
182.4464410215
 20
111.4219893392
 10
182.4370494627
 20
111.4602286899
 10
182.4274482561
 20
111.4980650523
 10
182.4176478493
 20
111.5354591798
 10
182.4076709097
 20
111.5723343537
 10
182.3974991334
 20
111.6087698868
 10
182.3871371843
 20
111.6447592031
 10
182.3765408063
 20
111.6804607148
 10
182.3656749199
 20
111.7159864114
 10
182.3545044393
 20
111.7514364681
 10
182.3429884543
 20
111.7869179485
 10
182.3310960109
 20
111.8224966457
 10
182.3187919456
 20
111.8582428192
 10
182.3060363799
 20
111.8942314341
 10
182.2927869081
 20
111.930534997
 10
182.2790021046
 20
111.967214046
 10
182.2646392579
 20
112.0043239587
 10
182.2496453732
 20
112.0419373107
 10
182.233981589
 20
112.0800821309
 10
182.2175445738
 20
112.1189306157
 10
182.2002457221
 20
112.158598252
 10
182.1819635881
 20
112.1992542863
 10
182.1625532597
 20
112.2410916705
 10
182.1419447605
 20
112.2841181937
 10
182.1200272304
 20
112.3284129708
 10
182.0967451563
 20
112.3739287631
 10
182.0720231488
 20
112.4206507007
 10
182.0457933045
 20
112.4685414032
 10
182.0179794708
 20
112.5175712673
 10
181.9885185186
 20
112.5676809603
 10
181.9573325708
 20
112.6188306604
 10
181.9243839207
 20
112.670910886
 10
181.8896190989
 20
112.7238381288
 10
181.8530177321
 20
112.7774800935
 10
181.8145323594
 20
112.8317480598
 10
181.7742151411
 20
112.8864207088
 10
181.7320913591
 20
112.9413314942
 10
181.6882522638
 20
112.9962462814
 10
181.6428138839
 20
113.0509267371
 10
181.5958058243
 20
113.1052598748
 10
181.5473099646
 20
113.1590851967
 10
181.4973378585
 20
113.2123331037
 10
181.4459263601
 20
113.2649126254
 10
181.3931127217
 20
113.3167400062
 10
181.3389438266
 20
113.3677294935
 10
181.2834569882
 20
113.4178114389
 10
181.2266984449
 20
113.4669141363
 10
181.1687131388
 20
113.5149731645
 10
181.1095545128
 20
113.5619229803
 10
181.0492655559
 20
113.6077119324
 10
180.987903606
 20
113.6522824207
 10
180.9254969306
 20
113.6956022669
 10
180.8620847024
 20
113.7376338952
 10
180.7977022298
 20
113.7783449361
 10
180.7323878564
 20
113.8177033807
 10
180.6661804895
 20
113.8556792309
 10
180.5991222995
 20
113.8922429752
 10
180.5312496765
 20
113.9273704417
 10
180.4626043283
 20
113.9610365738
 10
180.393218497
 20
113.9932226906
 10
180.3231279887
 20
114.0239096082
 10
180.2523678928
 20
114.0530797396
 10
180.1809743333
 20
114.0807162792
 10
180.1089834641
 20
114.1068036216
 10
180.0364327723
 20
114.131326883
 10
179.9633573368
 20
114.15427314
 10
179.8897938784
 20
114.1756299676
 10
179.8157772536
 20
114.1953864896
 10
179.7413432248
 20
114.2135324825
 10
179.6665275849
 20
114.2300586341
 10
179.5913664849
 20
114.2449564588
 10
179.5158960869
 20
114.2582183701
 10
179.4401529053
 20
114.2698376125
 10
179.3641732033
 20
114.2798083538
 10
179.2879935211
 20
114.2881255895
 10
179.2116504088
 20
114.2947851799
 10
179.135180553
 20
114.2997838332
 10
179.05862067
 20
114.303119115
 10
178.9820078923
 20
114.3047894409
 10
178.9434784081
 20
114.3049999991
  0
LINE
  5
37A
100
AcDbEntity
  8
0
100
AcDbLine
 62
7
  6
CONTINUOUS
 10
175.6824550193
 20
95.405
 11
170.1285076343
 21
95.405
  0
LINE
  5
37B
100
AcDbEntity
  8
BEZUGSACHSEN
100
AcDbLine
 62
7
  6
CONTINUOUS
 10
177.5032635244
 20
95.755
 11
175.6824550193
 21
95.755
  0
LINE
  5
37C
100
AcDbEntity
  8
RUNDUNGEN
100
AcDbLine
 62
7
  6
CONTINUOUS
 10
136.9156633242
 20
95.755
 11
96.2695364949
 21
95.755
  0
LINE
  5
37D
100
AcDbEntity
  8
BEZUGSACHSEN
100
AcDbLine
 62
7
  6
CONTINUOUS
 10
136.9156633242
 20
95.755
 11
175.2896314297
 21
95.755
  0
LINE
  5
37E
100
AcDbEntity
  8
0
100
AcDbLine
 62
7
  6
CONTINUOUS
 10
174.0065073863
 20
95.755
 11
175.2896314297
 21
95.755
  0
LINE
  5
37F
100
AcDbEntity
  8
RUNDUNGEN
100
AcDbLine
 62
7
  6
CONTINUOUS
 10
175.6824550193
 20
95.755
 11
178.9434787718
 21
95.755
  0
LINE
  5
380
100
AcDbEntity
  8
KONSTRUKTIONSELEMENTE
100
AcDbLine
 62
7
  6
CONTINUOUS
 10
131.1665076343
 20
88.6188685858
 11
131.1665076343
 21
84.9039299772
  0
LINE
  5
381
100
AcDbEntity
  8
KONSTRUKTIONSELEMENTE
100
AcDbLine
 62
7
  6
CONTINUOUS
 10
131.3881746904
 20
124.1604550597
 11
131.3881746904
 21
123.0741276392
  0
LINE
  5
382
100
AcDbEntity
  8
KONSTRUKTIONSELEMENTE
100
AcDbLine
 62
7
  6
CONTINUOUS
 10
131.4902576343
 20
121.5721753275
 11
131.4902576343
 21
122.0774913159
  0
LINE
  5
383
100
AcDbEntity
  8
KONSTRUKTIONSELEMENTE
100
AcDbLine
 62
7
  6
CONTINUOUS
 10
131.4902576343
 20
123.9345451283
 11
131.4902576343
 21
124.4386405282
  0
LINE
  5
384
100
AcDbEntity
  8
KONSTRUKTIONSELEMENTE
100
AcDbLine
 62
7
  6
CONTINUOUS
 10
131.6944246904
 20
124.1396689843
 11
131.6944246904
 21
124.6440940863
  0
LINE
  5
385
100
AcDbEntity
  8
KONSTRUKTIONSELEMENTE
100
AcDbLine
 62
7
  6
CONTINUOUS
 10
131.7440076343
 20
88.6188685858
 11
131.7440076343
 21
85.2804565467
  0
LINE
  5
386
100
AcDbEntity
  8
KONSTRUKTIONSELEMENTE
100
AcDbLine
 62
7
  6
CONTINUOUS
 10
131.8985905782
 20
121.4139109732
 11
131.8985905782
 21
121.9195931658
  0
LINE
  5
387
100
AcDbEntity
  8
KONSTRUKTIONSELEMENTE
100
AcDbLine
 62
7
  6
CONTINUOUS
 10
132.0006746904
 20
124.2748558263
 11
132.0006746904
 21
124.7795434614
  0
LINE
  5
388
100
AcDbEntity
  8
KONSTRUKTIONSELEMENTE
100
AcDbLine
 62
7
  6
CONTINUOUS
 10
132.4090076343
 20
121.3343065257
 11
132.4090076343
 21
121.8401849221
  0
LINE
  5
389
100
AcDbEntity
  8
KONSTRUKTIONSELEMENTE
100
AcDbLine
 62
7
  6
CONTINUOUS
 10
132.4090076343
 20
124.3419797626
 11
132.4090076343
 21
124.8468115417
  0
LINE
  5
38A
100
AcDbEntity
  8
KONSTRUKTIONSELEMENTE
100
AcDbLine
 62
7
  6
CONTINUOUS
 10
134.2465076343
 20
124.8468115417
 11
134.2465076343
 21
122.3120474312
  0
LINE
  5
38B
100
AcDbEntity
  8
KONSTRUKTIONSELEMENTE
100
AcDbLine
 62
7
  6
CONTINUOUS
 10
134.6315076343
 20
85.7851441818
 11
134.6315076343
 21
84.9039299772
  0
LINE
  5
38C
100
AcDbEntity
  8
KONSTRUKTIONSELEMENTE
100
AcDbLine
 62
7
  6
CONTINUOUS
 10
134.8590076343
 20
121.3343065257
 11
134.8590076343
 21
125.2440109374
  0
LINE
  5
38D
100
AcDbEntity
  8
KONSTRUKTIONSELEMENTE
100
AcDbLine
 62
7
  6
CONTINUOUS
 10
135.4015077261
 20
88.6188685858
 11
135.4015077261
 21
84.9039299772
  0
LINE
  5
38E
100
AcDbEntity
  8
KONSTRUKTIONSELEMENTE
100
AcDbLine
 62
7
  6
CONTINUOUS
 10
135.6756741062
 20
121.3343065257
 11
135.6756741062
 21
124.1604550597
  0
LINE
  5
38F
100
AcDbEntity
  8
KONSTRUKTIONSELEMENTE
100
AcDbLine
 62
7
  6
CONTINUOUS
 10
135.9790074507
 20
87.7435114607
 11
135.9790074507
 21
86.674839333
  0
LINE
  5
390
100
AcDbEntity
  8
KONSTRUKTIONSELEMENTE
100
AcDbLine
 62
7
  6
CONTINUOUS
 10
135.9790074507
 20
86.2643320807
 11
135.9790074507
 21
84.9039299772
  0
LINE
  5
391
100
AcDbEntity
  8
KONSTRUKTIONSELEMENTE
100
AcDbLine
 62
7
  6
CONTINUOUS
 10
136.2881741062
 20
121.3343065257
 11
136.2881741062
 21
124.1604550597
  0
LINE
  5
392
100
AcDbEntity
  8
KONSTRUKTIONSELEMENTE
100
AcDbLine
 62
7
  6
CONTINUOUS
 10
136.3902576343
 20
123.9345451283
 11
136.3902576343
 21
124.4386405282
  0
LINE
  5
393
100
AcDbEntity
  8
KONSTRUKTIONSELEMENTE
100
AcDbLine
 62
7
  6
CONTINUOUS
 10
136.5944241062
 20
124.1396689843
 11
136.5944241062
 21
124.6440940863
  0
LINE
  5
394
100
AcDbEntity
  8
KONSTRUKTIONSELEMENTE
100
AcDbLine
 62
7
  6
CONTINUOUS
 10
136.9006741062
 20
124.2748558263
 11
136.9006741062
 21
124.7795434614
  0
LINE
  5
395
100
AcDbEntity
  8
KONSTRUKTIONSELEMENTE
100
AcDbLine
 62
7
  6
CONTINUOUS
 10
137.3090076343
 20
124.3419797626
 11
137.3090076343
 21
124.8468115417
  0
LINE
  5
396
100
AcDbEntity
  8
BG_STARTBEZUEGE
100
AcDbLine
 62
7
  6
CENTER
 10
137.6065076343
 20
75.066030203
 11
137.6065076343
 21
134.993969797
  0
LINE
  5
397
100
AcDbEntity
  8
KONSTRUKTIONSELEMENTE
100
AcDbLine
 62
7
  6
CONTINUOUS
 10
137.7115074507
 20
88.6188685858
 11
137.7115074507
 21
88.1132516487
  0
LINE
  5
398
100
AcDbEntity
  8
KONSTRUKTIONSELEMENTE
100
AcDbLine
 62
7
  6
CONTINUOUS
 10
137.7173411623
 20
124.3419797626
 11
137.7173411623
 21
124.8468115417
  0
LINE
  5
399
100
AcDbEntity
  8
KONSTRUKTIONSELEMENTE
100
AcDbLine
 62
7
  6
CONTINUOUS
 10
137.8077576343
 20
87.1784230334
 11
137.8077576343
 21
86.674839333
  0
LINE
  5
39A
100
AcDbEntity
  8
BG_STARTBEZUEGE
100
AcDbLine
 62
7
  6
CENTER
 10
89.1961914708
 20
105.03
 11
186.0168237978
 21
105.03
  0
LINE
  5
39B
100
AcDbEntity
  8
KONSTRUKTIONSELEMENTE
100
AcDbLine
 62
7
  6
CONTINUOUS
 10
138.0965076343
 20
87.2478120125
 11
138.0965076343
 21
86.7441983689
  0
LINE
  5
39C
100
AcDbEntity
  8
KONSTRUKTIONSELEMENTE
100
AcDbLine
 62
7
  6
CONTINUOUS
 10
138.1256741062
 20
124.2748558263
 11
138.1256741062
 21
124.7795434614
  0
LINE
  5
39D
100
AcDbEntity
  8
KONSTRUKTIONSELEMENTE
100
AcDbLine
 62
7
  6
CONTINUOUS
 10
138.1927578179
 20
88.5442031964
 11
138.1927578179
 21
88.0387604216
  0
LINE
  5
39E
100
AcDbEntity
  8
KONSTRUKTIONSELEMENTE
100
AcDbLine
 62
7
  6
CONTINUOUS
 10
138.2890074507
 20
87.3874194795
 11
138.2890074507
 21
86.8837234646
  0
LINE
  5
39F
100
AcDbEntity
  8
KONSTRUKTIONSELEMENTE
100
AcDbLine
 62
7
  6
CONTINUOUS
 10
138.3852576343
 20
87.3087608233
 11
138.3852576343
 21
87.0950297192
  0
LINE
  5
3A0
100
AcDbEntity
  8
KONSTRUKTIONSELEMENTE
100
AcDbLine
 62
7
  6
CONTINUOUS
 10
138.4319241062
 20
124.1396689843
 11
138.4319241062
 21
124.6440940863
  0
LINE
  5
3A1
100
AcDbEntity
  8
KONSTRUKTIONSELEMENTE
100
AcDbLine
 62
7
  6
CONTINUOUS
 10
138.5777574507
 20
88.3218834487
 11
138.5777574507
 21
87.8169168065
  0
LINE
  5
3A2
100
AcDbEntity
  8
KONSTRUKTIONSELEMENTE
100
AcDbLine
 62
7
  6
CONTINUOUS
 10
138.6360911623
 20
123.9345451283
 11
138.6360911623
 21
124.4386405282
  0
LINE
  5
3A3
100
AcDbEntity
  8
KONSTRUKTIONSELEMENTE
100
AcDbLine
 62
7
  6
CONTINUOUS
 10
138.7381741062
 20
121.3343065257
 11
138.7381741062
 21
124.1604550597
  0
LINE
  5
3A4
100
AcDbEntity
  8
KONSTRUKTIONSELEMENTE
100
AcDbLine
 62
7
  6
CONTINUOUS
 10
138.8665074507
 20
88.0293590384
 11
138.8665074507
 21
87.5249198573
  0
LINE
  5
3A5
100
AcDbEntity
  8
KONSTRUKTIONSELEMENTE
100
AcDbLine
 62
7
  6
CONTINUOUS
 10
138.9627576343
 20
87.8128843202
 11
138.9627576343
 21
87.0243250399
  0
LINE
  5
3A6
100
AcDbEntity
  8
KONSTRUKTIONSELEMENTE
100
AcDbLine
 62
7
  6
CONTINUOUS
 10
139.3506743983
 20
121.3343065257
 11
139.3506743983
 21
124.1604550597
  0
LINE
  5
3A7
100
AcDbEntity
  8
KONSTRUKTIONSELEMENTE
100
AcDbLine
 62
7
  6
CONTINUOUS
 10
139.7327574507
 20
88.6188685858
 11
139.7327574507
 21
88.1132516487
  0
LINE
  5
3A8
100
AcDbEntity
  8
KONSTRUKTIONSELEMENTE
100
AcDbLine
 62
7
  6
CONTINUOUS
 10
140.1673408702
 20
124.7381325409
 11
140.1673408702
 21
125.2440109374
  0
LINE
  5
3A9
100
AcDbEntity
  8
KONSTRUKTIONSELEMENTE
100
AcDbLine
 62
7
  6
CONTINUOUS
 10
140.2694243983
 20
122.1926860925
 11
140.2694243983
 21
122.9992849744
  0
LINE
  5
3AA
100
AcDbEntity
  8
KONSTRUKTIONSELEMENTE
100
AcDbLine
 62
7
  6
CONTINUOUS
 10
140.3102574507
 20
88.6188685858
 11
140.3102574507
 21
88.1132516487
  0
LINE
  5
3AB
100
AcDbEntity
  8
KONSTRUKTIONSELEMENTE
100
AcDbLine
 62
7
  6
CONTINUOUS
 10
140.3715076343
 20
121.9623420054
 11
140.3715076343
 21
122.4668940885
  0
LINE
  5
3AC
100
AcDbEntity
  8
KONSTRUKTIONSELEMENTE
100
AcDbLine
 62
7
  6
CONTINUOUS
 10
140.6777576343
 20
121.6508359372
 11
140.6777576343
 21
122.1559818689
  0
LINE
  5
3AD
100
AcDbEntity
  8
KONSTRUKTIONSELEMENTE
100
AcDbLine
 62
7
  6
CONTINUOUS
 10
140.8819243983
 20
122.9241393272
 11
140.8819243983
 21
122.6968828705
  0
LINE
  5
3AE
100
AcDbEntity
  8
KONSTRUKTIONSELEMENTE
100
AcDbLine
 62
7
  6
CONTINUOUS
 10
140.8877580014
 20
86.1057982364
 11
140.8877580014
 21
85.6016747396
  0
LINE
  5
3AF
100
AcDbEntity
  8
KONSTRUKTIONSELEMENTE
100
AcDbLine
 62
7
  6
CONTINUOUS
 10
140.9840076343
 20
122.6449516634
 11
140.9840076343
 21
123.14866744
  0
LINE
  5
3B0
100
AcDbEntity
  8
KONSTRUKTIONSELEMENTE
100
AcDbLine
 62
7
  6
CONTINUOUS
 10
141.0860908702
 20
121.4139109732
 11
141.0860908702
 21
121.9195931658
  0
LINE
  5
3B1
100
AcDbEntity
  8
KONSTRUKTIONSELEMENTE
100
AcDbLine
 62
7
  6
CONTINUOUS
 10
141.1881743983
 20
122.7932157385
 11
141.1881743983
 21
123.2968388487
  0
LINE
  5
3B2
100
AcDbEntity
  8
KONSTRUKTIONSELEMENTE
100
AcDbLine
 62
7
  6
CONTINUOUS
 10
141.4944243983
 20
122.8668811931
 11
141.4944243983
 21
123.3704706192
  0
LINE
  5
3B3
100
AcDbEntity
  8
KONSTRUKTIONSELEMENTE
100
AcDbLine
 62
7
  6
CONTINUOUS
 10
141.5965076343
 20
121.3343065257
 11
141.5965076343
 21
121.8401849221
  0
LINE
  5
3B4
100
AcDbEntity
  8
KONSTRUKTIONSELEMENTE
100
AcDbLine
 62
7
  6
CONTINUOUS
 10
141.6577572671
 20
88.6188685858
 11
141.6577572671
 21
88.1132516487
  0
LINE
  5
3B5
100
AcDbEntity
  8
KONSTRUKTIONSELEMENTE
100
AcDbLine
 62
7
  6
CONTINUOUS
 10
142.4277576343
 20
88.6188685858
 11
142.4277576343
 21
88.1132516487
  0
LINE
  5
3B6
100
AcDbEntity
  8
KONSTRUKTIONSELEMENTE
100
AcDbLine
 62
7
  6
CONTINUOUS
 10
143.1977580014
 20
86.1057982364
 11
143.1977580014
 21
85.6016747396
  0
LINE
  5
3B7
100
AcDbEntity
  8
KONSTRUKTIONSELEMENTE
100
AcDbLine
 62
7
  6
CONTINUOUS
 10
143.4340076343
 20
125.2440109374
 11
143.4340076343
 21
123.8059089581
  0
LINE
  5
3B8
100
AcDbEntity
  8
KONSTRUKTIONSELEMENTE
100
AcDbLine
 62
7
  6
CONTINUOUS
 10
143.4340076343
 20
123.3704706192
 11
143.4340076343
 21
122.2341671458
  0
LINE
  5
3B9
100
AcDbEntity
  8
KONSTRUKTIONSELEMENTE
100
AcDbLine
 62
7
  6
CONTINUOUS
 10
143.7752580014
 20
88.6188685858
 11
143.7752580014
 21
88.1132516487
  0
LINE
  5
3BA
100
AcDbEntity
  8
KONSTRUKTIONSELEMENTE
100
AcDbLine
 62
7
  6
CONTINUOUS
 10
144.0465076343
 20
121.3343065257
 11
144.0465076343
 21
125.2440109374
  0
LINE
  5
3BB
100
AcDbEntity
  8
KONSTRUKTIONSELEMENTE
100
AcDbLine
 62
7
  6
CONTINUOUS
 10
144.3527580014
 20
88.6188685858
 11
144.3527580014
 21
88.1132516487
  0
LINE
  5
3BC
100
AcDbEntity
  8
KONSTRUKTIONSELEMENTE
100
AcDbLine
 62
7
  6
CONTINUOUS
 10
145.3065076343
 20
121.0232717489
 11
145.3065076343
 21
125.8858803422
  0
LINE
  5
3BD
100
AcDbEntity
  8
KONSTRUKTIONSELEMENTE
100
AcDbLine
 62
7
  6
CONTINUOUS
 10
145.6565076343
 20
84.1741196578
 11
145.6565076343
 21
89.0367282511
  0
LWPOLYLINE
  5
3BE
100
AcDbEntity
  8
RUNDUNGEN
100
AcDbPolyline
 62
7
  6
CONTINUOUS
 90
200
 70
0
 10
96.2695368443
 20
114.3049999991
 10
96.2278546693
 20
114.3047535714
 10
96.1512424475
 20
114.3030146934
 10
96.0746845807
 20
114.2996108648
 10
95.9982182149
 20
114.294543703
 10
95.9218800739
 20
114.2878156758
 10
95.8457068518
 20
114.2794301092
 10
95.7697351041
 20
114.2693911777
 10
95.6940013786
 20
114.2577039218
 10
95.6185419437
 20
114.2443742102
 10
95.5433933192
 20
114.2294088364
 10
95.4685916712
 20
114.2128154252
 10
95.3941731527
 20
114.1946025015
 10
95.3201735561
 20
114.1747794168
 10
95.2466286475
 20
114.1533564364
 10
95.173573277
 20
114.1303444758
 10
95.1010441863
 20
114.1057560112
 10
95.0290764785
 20
114.079604021
 10
94.95770761
 20
114.0519034286
 10
94.8869737178
 20
114.022669883
 10
94.8169108984
 20
113.9919202288
 10
94.7475541923
 20
113.959672081
 10
94.6789394446
 20
113.9259446943
 10
94.61109887
 20
113.8907567886
 10
94.5440743044
 20
113.8541335578
 10
94.4779022713
 20
113.8160993275
 10
94.4126248495
 20
113.7766836517
 10
94.3482809087
 20
113.7359165982
 10
94.2849087411
 20
113.6938302382
 10
94.2225435152
 20
113.6504569383
 10
94.1612246123
 20
113.6058345258
 10
94.1009803138
 20
113.5599953018
 10
94.0418683139
 20
113.5129973219
 10
93.9839319798
 20
113.4648927577
 10
93.9272245263
 20
113.4157472274
 10
93.8717907696
 20
113.3656252997
 10
93.8176769548
 20
113.314598965
 10
93.7649204309
 20
113.2627381991
 10
93.7135677736
 20
113.2101287779
 10
93.6636559886
 20
113.1568545128
 10
93.6152217693
 20
113.1030065171
 10
93.5682757773
 20
113.0486536267
 10
93.5229018175
 20
112.993959046
 10
93.4791310662
 20
112.9390383394
 10
93.437078909
 20
112.8841300429
 10
93.3968371796
 20
112.8294701006
 10
93.3584288725
 20
112.7752227977
 10
93.321904428
 20
112.7216076652
 10
93.2872160186
 20
112.6687131577
 10
93.2543426979
 20
112.6166709727
 10
93.2232302792
 20
112.5655635716
 10
93.1938404105
 20
112.5154993806
 10
93.1660948653
 20
112.4665174259
 10
93.139930086
 20
112.418676029
 10
93.1152698317
 20
112.3720042698
 10
93.092046061
 20
112.3265388764
 10
93.0701832888
 20
112.2822940669
 10
93.0496263169
 20
112.2393173026
 10
93.0302630497
 20
112.1975261845
 10
93.0120221511
 20
112.1569090975
 10
92.9947599386
 20
112.1172746609
 10
92.9783551451
 20
112.0784530313
 10
92.9627206961
 20
112.0403315666
 10
92.9477547722
 20
112.0027412201
 10
92.933418149
 20
111.9656528138
 10
92.9196580995
 20
111.9289941539
 10
92.9064314995
 20
111.8927084385
 10
92.8936965388
 20
111.856733631
 10
92.8814111533
 20
111.8209977061
 10
92.869535575
 20
111.7854255662
 10
92.8580348851
 20
111.7499472639
 10
92.8468784752
 20
111.7144977259
 10
92.8360251414
 20
111.6789685324
 10
92.8254394604
 20
111.6432578666
 10
92.8150869279
 20
111.6072551297
 10
92.8049233836
 20
111.5708016999
 10
92.7949544087
 20
111.5339072775
 10
92.7851626284
 20
111.4964960168
 10
92.7755704055
 20
111.4586438295
 10
92.7661882609
 20
111.4203905458
 10
92.7570218046
 20
111.381763008
 10
92.7480801522
 20
111.3428098576
 10
92.7393538841
 20
111.3035038854
 10
92.7308458278
 20
111.2638742426
 10
92.7225258615
 20
111.2237948692
 10
92.7143741922
 20
111.1831766792
 10
92.7063693419
 20
111.1419119891
 10
92.6984904072
 20
111.0998842894
 10
92.6907226527
 20
111.0569991346
 10
92.6830491399
 20
111.0131401552
 10
92.6754606209
 20
110.9682254249
 10
92.6679464723
 20
110.9221581627
 10
92.66049725
 20
110.8748408717
 10
92.6531059084
 20
110.8261840847
 10
92.6457581664
 20
110.776041665
 10
92.6384436326
 20
110.7242807057
 10
92.6311490556
 20
110.6707349139
 10
92.6238637682
 20
110.6152412326
 10
92.61657585
 20
110.5576108252
 10
92.60927718
 20
110.4976675469
 10
92.6019524303
 20
110.4351558672
 10
92.5945922423
 20
110.3698456003
 10
92.5871792937
 20
110.3014074704
 10
92.579708451
 20
110.2295920101
 10
92.5721449941
 20
110.1538214243
 10
92.5644478122
 20
110.0733670977
 10
92.5566505025
 20
109.9882246796
 10
92.5487281759
 20
109.8977315591
 10
92.5408187977
 20
109.8031190427
 10
92.5330070564
 20
109.7052052313
 10
92.525387586
 20
109.6051213085
 10
92.5180556229
 20
109.5042346896
 10
92.5110480654
 20
109.4033046571
 10
92.5044505725
 20
109.3039546778
 10
92.49818228
 20
109.2053836756
 10
92.4922158764
 20
109.1074926983
 10
92.4864953841
 20
109.0096266476
 10
92.4809691023
 20
108.9110649899
 10
92.4756226544
 20
108.8116517848
 10
92.4704244292
 20
108.7108507053
 10
92.4653882277
 20
108.6089607434
 10
92.4605155867
 20
108.5060635858
 10
92.4558104112
 20
108.4023015598
 10
92.4512773301
 20
108.2978517961
 10
92.4469131668
 20
108.1927226837
 10
92.4427180739
 20
108.0870003262
 10
92.4386868076
 20
107.9806315577
 10
92.4348158935
 20
107.8735932328
 10
92.4311024496
 20
107.7658659242
 10
92.4275432762
 20
107.6574072895
 10
92.4241379719
 20
107.5482498146
 10
92.4208853256
 20
107.4383964158
 10
92.4177854157
 20
107.3278897721
 10
92.4148380238
 20
107.2167625045
 10
92.4120429761
 20
107.1050481491
 10
92.4094001208
 20
106.9927809861
 10
92.4069092458
 20
106.8799917807
 10
92.4045702342
 20
106.7667153135
 10
92.4023827404
 20
106.6529737577
 10
92.4003465329
 20
106.5387920585
 10
92.3984614344
 20
106.4241956992
 10
92.3967272724
 20
106.3092069452
 10
92.3951440752
 20
106.1938595827
 10
92.3937118315
 20
106.0781837467
 10
92.3924305705
 20
105.9622125553
 10
92.3913003106
 20
105.8459781851
 10
92.3903210834
 20
105.7295136685
 10
92.3894929077
 20
105.6128517921
 10
92.3888158105
 20
105.4960255808
 10
92.3882898072
 20
105.3790680109
 10
92.3879149137
 20
105.2620120951
 10
92.387691142
 20
105.1448908584
 10
92.387618495
 20
105.0277372726
 10
92.3876969795
 20
104.9105843239
 10
92.3879265888
 20
104.7934650001
 10
92.3883073192
 20
104.676412274
 10
92.3888391592
 20
104.5594591693
 10
92.3895220922
 20
104.4426386966
 10
92.3903561031
 20
104.3259838314
 10
92.3913411646
 20
104.2095275993
 10
92.3924772577
 20
104.0933027769
 10
92.3937643511
 20
103.9773423909
 10
92.3952024263
 20
103.8616786087
 10
92.3967914541
 20
103.7463445771
 10
92.3985314472
 20
103.6313703192
 10
92.4004223793
 20
103.5167895503
 10
92.4024644257
 20
103.4026244525
 10
92.4046577683
 20
103.2889003524
 10
92.407002638
 20
103.1756423522
 10
92.4094993806
 20
103.0628726883
 10
92.4121481119
 20
102.9506262484
 10
92.4149490412
 20
102.838933937
 10
92.4179023219
 20
102.7278299806
 10
92.4210081284
 20
102.6173479327
 10
92.4242666812
 20
102.5075203469
 10
92.4276778927
 20
102.3983902282
 10
92.4312430137
 20
102.2899593474
 10
92.434962485
 20
102.182259225
 10
92.4388395244
 20
102.0752474767
 10
92.4428770496
 20
101.9689041423
 10
92.4470785313
 20
101.8632066744
 10
92.4514492613
 20
101.7581012485
 10
92.4559889603
 20
101.6536771655
 10
92.4607006733
 20
101.5499457422
 10
92.4655797664
 20
101.4470836358
 10
92.470622212
 20
101.3452351371
 10
92.4758266832
 20
101.2444773182
 10
92.4811793146
 20
101.1451099004
 10
92.4867125198
 20
101.046583341
 10
92.4924415743
 20
100.9487285105
 10
92.4984181862
 20
100.8508292838
 10
92.5046991302
 20
100.7522225921
 10
92.5113103426
 20
100.6528345566
 10
92.5183318987
 20
100.5518784881
 10
92.5256766391
 20
100.4509955136
 10
92.5333055747
 20
100.3509677832
 10
92.5411236795
 20
100.2531515092
 10
92.549035551
 20
100.1586794474
 10
92.5569572929
 20
100.0683533634
 10
92.5647509171
 20
99.9833985372
  0
LWPOLYLINE
  5
3BF
100
AcDbEntity
  8
RUNDUNGEN
100
AcDbPolyline
 62
7
  6
CONTINUOUS
 90
106
 70
0
 10
92.5647509171
 20
99.9833985372
 10
92.5724433852
 20
99.9031287858
 10
92.5800037104
 20
99.8275136906
 10
92.5874721795
 20
99.7558361864
 10
92.5948836075
 20
99.687519844
 10
92.6022429103
 20
99.6223187145
 10
92.6095671547
 20
99.5599070125
 10
92.616865793
 20
99.5000546636
 10
92.6241541668
 20
99.442506935
 10
92.631440356
 20
99.3870887313
 10
92.6387362041
 20
99.3336124249
 10
92.6460524648
 20
99.2819148833
 10
92.653402485
 20
99.2318297234
 10
92.6607965567
 20
99.1832252174
 10
92.668248871
 20
99.1359562417
 10
92.6757665008
 20
99.0899334439
 10
92.6833588545
 20
99.0450598336
 10
92.6910366374
 20
99.0012384239
 10
92.6988091315
 20
98.9583873688
 10
92.7066933913
 20
98.9163900121
 10
92.7147042673
 20
98.8751516579
 10
92.7228627337
 20
98.8345558502
 10
92.731190469
 20
98.7944943617
 10
92.7397070286
 20
98.7548796427
 10
92.7484424714
 20
98.7155862732
 10
92.757393559
 20
98.6766452729
 10
92.7665692064
 20
98.6380315237
 10
92.7759603056
 20
98.5997933357
 10
92.7855610361
 20
98.5619581204
 10
92.7953609373
 20
98.5245651648
 10
92.8053373134
 20
98.4876912821
 10
92.815508508
 20
98.4512570084
 10
92.82586992
 20
98.41526872
 10
92.8364657316
 20
98.3795682621
 10
92.8473309246
 20
98.3440439489
 10
92.8585006799
 20
98.3085952722
 10
92.8700160556
 20
98.2731147135
 10
92.8819077948
 20
98.2375371452
 10
92.8942108811
 20
98.2017928016
 10
92.906965169
 20
98.1658067155
 10
92.9202128108
 20
98.1295069961
 10
92.9339957047
 20
98.0928317399
 10
92.9483569096
 20
98.055724675
 10
92.9633497279
 20
98.0181125375
 10
92.9790136598
 20
97.9799659012
 10
92.9954515725
 20
97.9411139063
 10
93.012751961
 20
97.9014414674
 10
93.0310357224
 20
97.8607806621
 10
93.050447052
 20
97.8189400686
 10
93.0710560519
 20
97.7759115095
 10
93.0929734169
 20
97.7316160967
 10
93.1162547763
 20
97.6861007188
 10
93.1409755356
 20
97.6393801103
 10
93.1672037599
 20
97.5914912618
 10
93.195015746
 20
97.5424634619
 10
93.2244747819
 20
97.492355742
 10
93.255658956
 20
97.4412075772
 10
93.288606069
 20
97.3891283374
 10
93.3233697892
 20
97.3362012827
 10
93.3599704697
 20
97.282558821
 10
93.3984556667
 20
97.228289614
 10
93.4387730774
 20
97.173615258
 10
93.4808973667
 20
97.1187024257
 10
93.5247370384
 20
97.063785602
 10
93.5701757459
 20
97.0091035039
 10
93.6171839173
 20
96.9547690417
 10
93.6656795225
 20
96.9009428449
 10
93.7156512155
 20
96.8476942453
 10
93.7670622906
 20
96.7951140437
 10
93.8198755963
 20
96.7432858983
 10
93.8740444419
 20
96.6922953954
 10
93.9295314414
 20
96.6422122789
 10
93.9862903679
 20
96.5931082671
 10
94.044276209
 20
96.5450478595
 10
94.1034354591
 20
96.4980966611
 10
94.1637250911
 20
96.4523063571
 10
94.2250876969
 20
96.4077345989
 10
94.2874950233
 20
96.3644135504
 10
94.350907886
 20
96.3223807907
 10
94.4152909807
 20
96.2816686828
 10
94.4806059641
 20
96.2423092316
 10
94.5468139297
 20
96.2043324313
 10
94.6138727041
 20
96.1677677918
 10
94.6817459101
 20
96.1326394754
 10
94.7503918526
 20
96.0989725309
 10
94.8197782896
 20
96.0667856382
 10
94.8898694156
 20
96.0360979807
 10
94.9606301519
 20
96.0069271401
 10
95.0320243834
 20
95.9792899192
 10
95.1040159651
 20
95.9532019211
 10
95.1765674224
 20
95.9286780273
 10
95.2496436746
 20
95.9057311643
 10
95.3232080062
 20
95.884373758
 10
95.3972255514
 20
95.8646166899
 10
95.4716605418
 20
95.8464701871
 10
95.5464771779
 20
95.829943565
 10
95.6216393018
 20
95.815045312
 10
95.6971107446
 20
95.8017830167
 10
95.7728549848
 20
95.7901634363
 10
95.848835752
 20
95.7801924041
 10
95.9250164989
 20
95.7718749253
 10
96.0013606681
 20
95.7652151396
 10
96.0778315656
 20
95.7602163382
 10
96.1543924681
 20
95.7568809546
 10
96.2310062328
 20
95.7552105717
 10
96.2695368617
 20
95.755000001
  0
LINE
  5
3C0
100
AcDbEntity
  8
RUNDUNGEN
100
AcDbLine
 62
7
  6
CONTINUOUS
 10
96.2695364928
 20
114.305
 11
101.2065075643
 21
114.305
  0
LINE
  5
3C1
100
AcDbEntity
  8
BEZUGSACHSEN
100
AcDbLine
 62
7
  6
CONTINUOUS
 10
97.7097517441
 20
114.305
 11
174.0065077043
 21
114.305
  0
LINE
  5
3C2
100
AcDbEntity
  8
RUNDUNGEN
100
AcDbLine
 62
7
  6
CONTINUOUS
 10
174.0065077043
 20
114.305
 11
178.9434788367
 21
114.305
  0
LINE
  5
3C3
100
AcDbEntity
  8
KONSTRUKTIONSELEMENTE
100
AcDbLine
 62
7
  6
CONTINUOUS
 10
131.3065076343
 20
119.8848648857
 11
143.9065076343
 21
119.8848648857
  0
LINE
  5
3C4
100
AcDbEntity
  8
KONSTRUKTIONSELEMENTE
100
AcDbLine
 62
7
  6
CONTINUOUS
 10
132.4090076343
 20
121.3343065257
 11
134.8590076343
 21
121.3343065257
  0
LINE
  5
3C5
100
AcDbEntity
  8
KONSTRUKTIONSELEMENTE
100
AcDbLine
 62
7
  6
CONTINUOUS
 10
135.6756741062
 20
121.3343065257
 11
136.2881741062
 21
121.3343065257
  0
LINE
  5
3C6
100
AcDbEntity
  8
KONSTRUKTIONSELEMENTE
100
AcDbLine
 62
7
  6
CONTINUOUS
 10
138.7381741062
 20
121.3343065257
 11
139.3506743983
 21
121.3343065257
  0
LINE
  5
3C7
100
AcDbEntity
  8
KONSTRUKTIONSELEMENTE
100
AcDbLine
 62
7
  6
CONTINUOUS
 10
141.5965076343
 20
121.3343065257
 11
144.0465076343
 21
121.3343065257
  0
LINE
  5
3C8
100
AcDbEntity
  8
KONSTRUKTIONSELEMENTE
100
AcDbLine
 62
7
  6
CONTINUOUS
 10
132.4090076343
 20
121.8401849221
 11
134.8590076343
 21
121.8401849221
  0
LINE
  5
3C9
100
AcDbEntity
  8
KONSTRUKTIONSELEMENTE
100
AcDbLine
 62
7
  6
CONTINUOUS
 10
135.6756741062
 20
121.8401849221
 11
136.2881741062
 21
121.8401849221
  0
LINE
  5
3CA
100
AcDbEntity
  8
KONSTRUKTIONSELEMENTE
100
AcDbLine
 62
7
  6
CONTINUOUS
 10
138.7381741062
 20
121.8401849221
 11
139.3506743983
 21
121.8401849221
  0
LINE
  5
3CB
100
AcDbEntity
  8
KONSTRUKTIONSELEMENTE
100
AcDbLine
 62
7
  6
CONTINUOUS
 10
141.5965076343
 20
121.8401849221
 11
144.0465076343
 21
121.8401849221
  0
LINE
  5
3CC
100
AcDbEntity
  8
KONSTRUKTIONSELEMENTE
100
AcDbLine
 62
7
  6
CONTINUOUS
 10
141.4944243983
 20
122.2341671458
 11
143.4340076343
 21
122.2341671458
  0
LINE
  5
3CD
100
AcDbEntity
  8
KONSTRUKTIONSELEMENTE
100
AcDbLine
 62
7
  6
CONTINUOUS
 10
132.4090076343
 20
122.3120474312
 11
134.2465076343
 21
122.3120474312
  0
LINE
  5
3CE
100
AcDbEntity
  8
KONSTRUKTIONSELEMENTE
100
AcDbLine
 62
7
  6
CONTINUOUS
 10
141.4944243983
 20
122.8668811931
 11
143.4340076343
 21
122.8668811931
  0
LINE
  5
3CF
100
AcDbEntity
  8
KONSTRUKTIONSELEMENTE
100
AcDbLine
 62
7
  6
CONTINUOUS
 10
158.6065076343
 20
127.1684118072
 11
158.6065076343
 21
125.6629076581
  0
LINE
  5
3D0
100
AcDbEntity
  8
0
100
AcDbLine
 62
7
  6
CONTINUOUS
 10
158.6065076343
 20
125.6629076581
 11
158.6065076343
 21
114.3050000001
  0
LINE
  5
3D1
100
AcDbEntity
  8
0
100
AcDbLine
 62
7
  6
CONTINUOUS
 10
158.6065076343
 20
95.755
 11
158.6065076343
 21
82.8915881928
  0
LINE
  5
3D2
100
AcDbEntity
  8
KONSTRUKTIONSELEMENTE
100
AcDbLine
 62
7
  6
CONTINUOUS
 10
141.4944243983
 20
123.3704706192
 11
143.4340076343
 21
123.3704706192
  0
LINE
  5
3D3
100
AcDbEntity
  8
KONSTRUKTIONSELEMENTE
100
AcDbLine
 62
7
  6
CONTINUOUS
 10
141.6985910163
 20
123.8059089581
 11
143.4340076343
 21
123.8059089581
  0
LINE
  5
3D4
100
AcDbEntity
  8
KONSTRUKTIONSELEMENTE
100
AcDbLine
 62
7
  6
CONTINUOUS
 10
132.4090076343
 20
124.3419797626
 11
134.2465076343
 21
124.3419797626
  0
LINE
  5
3D5
100
AcDbEntity
  8
KONSTRUKTIONSELEMENTE
100
AcDbLine
 62
7
  6
CONTINUOUS
 10
137.3090076343
 20
124.3419797626
 11
137.7173411623
 21
124.3419797626
  0
LINE
  5
3D6
100
AcDbEntity
  8
KONSTRUKTIONSELEMENTE
100
AcDbLine
 62
7
  6
CONTINUOUS
 10
132.4090076343
 20
124.8468115417
 11
134.2465076343
 21
124.8468115417
  0
LINE
  5
3D7
100
AcDbEntity
  8
KONSTRUKTIONSELEMENTE
100
AcDbLine
 62
7
  6
CONTINUOUS
 10
137.3090076343
 20
124.8468115417
 11
137.7173411623
 21
124.8468115417
  0
LINE
  5
3D8
100
AcDbEntity
  8
KONSTRUKTIONSELEMENTE
100
AcDbLine
 62
7
  6
CONTINUOUS
 10
132.4090076343
 20
125.2440109374
 11
134.8590076343
 21
125.2440109374
  0
LINE
  5
3D9
100
AcDbEntity
  8
KONSTRUKTIONSELEMENTE
100
AcDbLine
 62
7
  6
CONTINUOUS
 10
137.3090076343
 20
125.2440109374
 11
137.7173411623
 21
125.2440109374
  0
LINE
  5
3DA
100
AcDbEntity
  8
KONSTRUKTIONSELEMENTE
100
AcDbLine
 62
7
  6
CONTINUOUS
 10
140.1673408702
 20
125.2440109374
 11
140.8819243983
 21
125.2440109374
  0
LINE
  5
3DB
100
AcDbEntity
  8
KONSTRUKTIONSELEMENTE
100
AcDbLine
 62
7
  6
CONTINUOUS
 10
143.4340076343
 20
125.2440109374
 11
144.0465076343
 21
125.2440109374
  0
LINE
  5
3DC
100
AcDbEntity
  8
KONSTRUKTIONSELEMENTE
100
AcDbLine
 62
7
  6
CONTINUOUS
 10
131.3065076343
 20
126.179416046
 11
143.9065076343
 21
126.179416046
  0
LINE
  5
3DD
100
AcDbEntity
  8
KONSTRUKTIONSELEMENTE
100
AcDbLine
 62
7
  6
CONTINUOUS
 10
131.3065076343
 20
126.6925169162
 11
143.9065076343
 21
126.6925169162
  0
LINE
  5
3DE
100
AcDbEntity
  8
KONSTRUKTIONSELEMENTE
100
AcDbLine
 62
7
  6
CONTINUOUS
 10
121.5065076343
 20
131.28
 11
153.7065076343
 21
131.28
  0
LINE
  5
3DF
100
AcDbEntity
  8
0
100
AcDbLine
 62
7
  6
CONTINUOUS
 10
170.1285076343
 20
95.755
 11
170.1285076343
 21
95.405
  0
LINE
  5
3E0
100
AcDbEntity
  8
0
100
AcDbLine
 62
7
  6
CONTINUOUS
 10
174.2014023833
 20
95.755
 11
174.2014023833
 21
95.405
  0
LINE
  5
3E1
100
AcDbEntity
  8
0
100
AcDbLine
 62
7
  6
CONTINUOUS
 10
174.7567971218
 20
95.755
 11
174.7567971218
 21
95.405
  0
LINE
  5
3E2
100
AcDbEntity
  8
0
100
AcDbLine
 62
7
  6
CONTINUOUS
 10
175.6824550193
 20
95.7683716225
 11
175.6824550193
 21
95.405
  0
LINE
  5
3E3
100
AcDbEntity
  8
BEZUGSACHSEN
100
AcDbLine
 62
7
  6
CONTINUOUS
 10
179.6065077043
 20
101.355
 11
179.6065077043
 21
108.705
  0
ARC
  5
3E4
100
AcDbEntity
  8
RUNDUNGEN
100
AcDbCircle
 62
7
  6
CONTINUOUS
 10
121.8565076343
 20
194.6347885511
 40
7.7
100
AcDbArc
 50
179.9999998592
 51
227.0140432046
  0
ARC
  5
3E5
100
AcDbEntity
  8
0
100
AcDbCircle
 62
7
  6
CONTINUOUS
 10
121.5065076343
 20
198.6109920677
 40
4.9
100
AcDbArc
 50
90.0
 51
180.0
  0
ARC
  5
3E6
100
AcDbEntity
  8
RUNDUNGEN
100
AcDbCircle
 62
7
  6
CONTINUOUS
 10
95.8876184669
 20
171.8847885511
 40
3.5
100
AcDbArc
 50
176.2163688794
 51
270.0
  0
ARC
  5
3E7
100
AcDbEntity
  8
RUNDUNGEN
100
AcDbCircle
 62
7
  6
CONTINUOUS
 10
98.973314134
 20
218.5437418083
 40
3.5
100
AcDbArc
 50
169.92
 51
176.2163688794
  0
ARC
  5
3E8
100
AcDbEntity
  8
RUNDUNGEN
100
AcDbCircle
 62
7
  6
CONTINUOUS
 10
116.9565076343
 20
203.3147885511
 40
2.8
100
AcDbArc
 50
90.0
 51
180.0
  0
ARC
  5
3E9
100
AcDbEntity
  8
BEZUGSACHSEN
100
AcDbCircle
 62
7
  6
CONTINUOUS
 10
123.5238019283
 20
208.7397885511
 40
2.625
100
AcDbArc
 50
269.9999910368
 51
57.3106036703
  0
ARC
  5
3EA
100
AcDbEntity
  8
RUNDUNGEN
100
AcDbCircle
 62
7
  6
CONTINUOUS
 10
123.5238019283
 20
208.7397885511
 40
2.625
100
AcDbArc
 50
269.9999910368
 51
57.3106036703
  0
ARC
  5
3EB
100
AcDbEntity
  8
BEZUGSACHSEN
100
AcDbCircle
 62
7
  6
CONTINUOUS
 10
103.0117707443
 20
230.6847885511
 40
7.40526318
100
AcDbArc
 50
157.5
 51
202.5
  0
ARC
  5
3EC
100
AcDbEntity
  8
RUNDUNGEN
100
AcDbCircle
 62
7
  6
CONTINUOUS
 10
103.0117707443
 20
230.6847885511
 40
7.40526318
100
AcDbArc
 50
157.5
 51
202.5
  0
ARC
  5
3ED
100
AcDbEntity
  8
RUNDUNGEN
100
AcDbCircle
 62
7
  6
CONTINUOUS
 10
113.144334586
 20
255.1469615994
 40
7.40526318
100
AcDbArc
 50
112.5
 51
157.5
  0
ARC
  5
3EE
100
AcDbEntity
  8
BEZUGSACHSEN
100
AcDbCircle
 62
7
  6
CONTINUOUS
 10
94.6268679005
 20
226.0892850311
 40
2.1
100
AcDbArc
 50
349.92
 51
22.5
  0
ARC
  5
3EF
100
AcDbEntity
  8
RUNDUNGEN
100
AcDbCircle
 62
7
  6
CONTINUOUS
 10
94.6268679005
 20
226.0892850311
 40
2.1
100
AcDbArc
 50
349.92
 51
22.5
  0
ARC
  5
3F0
100
AcDbEntity
  8
BEZUGSACHSEN
100
AcDbCircle
 62
7
  6
CONTINUOUS
 10
153.3565076343
 20
194.6347885511
 40
7.7
100
AcDbArc
 50
312.9859567954
 51
0.0000001407
  0
ARC
  5
3F1
100
AcDbEntity
  8
0
100
AcDbCircle
 62
7
  6
CONTINUOUS
 10
153.7065076343
 20
198.6109920677
 40
4.9
100
AcDbArc
 50
0.0
 51
90.0
  0
ARC
  5
3F2
100
AcDbEntity
  8
RUNDUNGEN
100
AcDbCircle
 62
7
  6
CONTINUOUS
 10
179.3253968004
 20
171.8847885709
 40
3.5
100
AcDbArc
 50
269.999999973
 51
3.7836311206
  0
ARC
  5
3F3
100
AcDbEntity
  8
RUNDUNGEN
100
AcDbCircle
 62
7
  6
CONTINUOUS
 10
176.2397011345
 20
218.5437418083
 40
3.5
100
AcDbArc
 50
3.7836311206
 51
10.08
  0
ARC
  5
3F4
100
AcDbEntity
  8
BEZUGSACHSEN
100
AcDbCircle
 62
7
  6
CONTINUOUS
 10
158.2565076343
 20
203.3147885511
 40
2.8
100
AcDbArc
 50
0.0
 51
90.0
  0
ARC
  5
3F5
100
AcDbEntity
  8
BEZUGSACHSEN
100
AcDbCircle
 62
7
  6
CONTINUOUS
 10
151.6892133402
 20
208.7397885511
 40
2.625
100
AcDbArc
 50
122.6893963297
 51
270.0000089632
  0
ARC
  5
3F6
100
AcDbEntity
  8
0
100
AcDbCircle
 62
7
  6
CONTINUOUS
 10
172.3500865883
 20
204.1142622121
 40
2.221578954
100
AcDbArc
 50
90.0
 51
270.0
  0
ARC
  5
3F7
100
AcDbEntity
  8
0
100
AcDbCircle
 62
7
  6
CONTINUOUS
 10
172.1649550088
 20
198.2764464052
 40
2.0364473745
100
AcDbArc
 50
180.0
 51
270.0
  0
ARC
  5
3F8
100
AcDbEntity
  8
0
100
AcDbCircle
 62
7
  6
CONTINUOUS
 10
173.6460076448
 20
198.2764464052
 40
2.0364473745
100
AcDbArc
 50
270.0
 51
360.0
  0
ARC
  5
3F9
100
AcDbEntity
  8
0
100
AcDbCircle
 62
7
  6
CONTINUOUS
 10
174.065639225
 20
209.0634464374
 40
1.6168157943
100
AcDbArc
 50
201.1872687082
 51
360.0
  0
ARC
  5
3FA
100
AcDbEntity
  8
0
100
AcDbCircle
 62
7
  6
CONTINUOUS
 10
173.5966392236
 20
198.5131568704
 40
1.1601578982
100
AcDbArc
 50
270.0181949201
 51
360.0
  0
ARC
  5
3FB
100
AcDbEntity
  8
0
100
AcDbCircle
 62
7
  6
CONTINUOUS
 10
172.21432343
 20
198.5131569289
 40
1.1601578982
100
AcDbArc
 50
180.0
 51
270.0
  0
ARC
  5
3FC
100
AcDbEntity
  8
0
100
AcDbCircle
 62
7
  6
CONTINUOUS
 10
172.3500865883
 20
204.1142622121
 40
1.110789477
100
AcDbArc
 50
90.0
 51
270.0
  0
ARC
  5
3FD
100
AcDbEntity
  8
0
100
AcDbCircle
 62
7
  6
CONTINUOUS
 10
171.5231655332
 20
210.0192889427
 40
0.9256578975
100
AcDbArc
 50
300.0
 51
360.0
  0
ARC
  5
3FE
100
AcDbEntity
  8
0
100
AcDbCircle
 62
7
  6
CONTINUOUS
 10
174.065639225
 20
209.4337095964
 40
0.6911578968
100
AcDbArc
 50
180.0
 51
360.0
  0
ARC
  5
3FF
100
AcDbEntity
  8
RUNDUNGEN
100
AcDbCircle
 62
7
  6
CONTINUOUS
 10
137.6065076343
 20
230.6847885511
 40
23.45000007
100
AcDbArc
 50
180.0000330726
 51
237.3106023736
  0
ARC
  5
400
100
AcDbEntity
  8
BEZUGSACHSEN
100
AcDbCircle
 62
7
  6
CONTINUOUS
 10
137.6065076343
 20
230.6847885511
 40
23.45000007
100
AcDbArc
 50
302.6893976264
 51
179.999999909
  0
ARC
  5
401
100
AcDbEntity
  8
BEZUGSACHSEN
100
AcDbCircle
 62
7
  6
CONTINUOUS
 10
172.2012445243
 20
230.6847885511
 40
7.40526318
100
AcDbArc
 50
337.5
 51
22.5
  0
ARC
  5
402
100
AcDbEntity
  8
BEZUGSACHSEN
100
AcDbCircle
 62
7
  6
CONTINUOUS
 10
162.0686806826
 20
255.1469615994
 40
7.40526318
100
AcDbArc
 50
22.5
 51
67.5
  0
ARC
  5
403
100
AcDbEntity
  8
BEZUGSACHSEN
100
AcDbCircle
 62
7
  6
CONTINUOUS
 10
137.6065076343
 20
265.2795254411
 40
7.40526318
100
AcDbArc
 50
67.5
 51
112.5
  0
ARC
  5
404
100
AcDbEntity
  8
BEZUGSACHSEN
100
AcDbCircle
 62
7
  6
CONTINUOUS
 10
180.5861473681
 20
226.0892850311
 40
2.1
100
AcDbArc
 50
157.5
 51
190.08
  0
ARC
  5
405
100
AcDbEntity
  8
KONSTRUKTIONSELEMENTE
100
AcDbCircle
 62
7
  6
CONTINUOUS
 10
253.055648348
 20
170.4404790036
 40
2.8
100
AcDbArc
 50
212.0850931576
 51
17.9710790108
  0
ARC
  5
406
100
AcDbEntity
  8
KONSTRUKTIONSELEMENTE
100
AcDbCircle
 62
7
  6
CONTINUOUS
 10
253.055648348
 20
170.4404790036
 40
2.1
100
AcDbArc
 50
212.0850931576
 51
38.8186851384
  0
ARC
  5
407
100
AcDbEntity
  8
BEZUGSACHSEN
100
AcDbCircle
 62
7
  6
CONTINUOUS
 10
258.7886862929
 20
267.0847886211
 40
5.6
100
AcDbArc
 50
90.0
 51
180.0
  0
ARC
  5
408
100
AcDbEntity
  8
KONSTRUKTIONSELEMENTE
100
AcDbCircle
 62
7
  6
CONTINUOUS
 10
262.4636862929
 20
177.6597885511
 40
25.8512035166
100
AcDbArc
 50
45.9199132337
 51
49.1266480319
  0
ARC
  5
409
100
AcDbEntity
  8
KONSTRUKTIONSELEMENTE
100
AcDbCircle
 62
7
  6
CONTINUOUS
 10
262.4636862929
 20
177.6597885511
 40
25.8512035166
100
AcDbArc
 50
38.8733519681
 51
42.0800865074
  0
ARC
  5
40A
100
AcDbEntity
  8
KONSTRUKTIONSELEMENTE
100
AcDbCircle
 62
7
  6
CONTINUOUS
 10
262.4636862929
 20
177.6597885511
 40
25.8512035166
100
AcDbArc
 50
130.793805398
 51
133.6327823844
  0
ARC
  5
40B
100
AcDbEntity
  8
KONSTRUKTIONSELEMENTE
100
AcDbCircle
 62
7
  6
CONTINUOUS
 10
262.4636862929
 20
177.6597885511
 40
25.8512035166
100
AcDbArc
 50
138.0014058824
 51
139.8154438176
  0
ARC
  5
40C
100
AcDbEntity
  8
KONSTRUKTIONSELEMENTE
100
AcDbCircle
 62
7
  6
CONTINUOUS
 10
262.4636862929
 20
177.6597885511
 40
25.8512035166
100
AcDbArc
 50
140.908184892
 51
141.2061945816
  0
ARC
  5
40D
100
AcDbEntity
  8
0
100
AcDbCircle
 62
7
  6
CONTINUOUS
 10
262.4636862929
 20
177.6597885511
 40
25.8512035166
100
AcDbArc
 50
111.0328175292
 51
170.0
  0
ARC
  5
40E
100
AcDbEntity
  8
0
100
AcDbCircle
 62
7
  6
CONTINUOUS
 10
262.4636862929
 20
177.6597885511
 40
25.8512035166
100
AcDbArc
 50
10.0
 51
68.9671824708
  0
ARC
  5
40F
100
AcDbEntity
  8
0
100
AcDbCircle
 62
7
  6
CONTINUOUS
 10
262.4636862929
 20
177.6597885511
 40
10.15
100
AcDbArc
 50
10.0
 51
23.878933899
  0
ARC
  5
410
100
AcDbEntity
  8
0
100
AcDbCircle
 62
7
  6
CONTINUOUS
 10
262.4636862929
 20
177.6597885511
 40
10.15
100
AcDbArc
 50
156.121066101
 51
170.0
  0
ARC
  5
411
100
AcDbEntity
  8
KONSTRUKTIONSELEMENTE
100
AcDbCircle
 62
7
  6
CONTINUOUS
 10
262.4636862929
 20
178.0097885511
 40
9.975
100
AcDbArc
 50
158.5718843834
 51
218.8186851384
  0
ARC
  5
412
100
AcDbEntity
  8
KONSTRUKTIONSELEMENTE
100
AcDbCircle
 62
7
  6
CONTINUOUS
 10
262.4636862929
 20
178.0097885511
 40
9.975
100
AcDbArc
 50
321.1813148616
 51
21.4281156166
  0
ARC
  5
413
100
AcDbEntity
  8
KONSTRUKTIONSELEMENTE
100
AcDbCircle
 62
7
  6
CONTINUOUS
 10
262.4636862929
 20
178.0097885511
 40
9.275
100
AcDbArc
 50
321.1813148616
 51
357.8306166671
  0
ARC
  5
414
100
AcDbEntity
  8
RUNDUNGEN
100
AcDbCircle
 62
7
  6
CONTINUOUS
 10
262.4636862929
 20
177.6597885511
 40
9.275
100
AcDbArc
 50
179.999994308
 51
0.0000058911
  0
ARC
  5
415
100
AcDbEntity
  8
KONSTRUKTIONSELEMENTE
100
AcDbCircle
 62
7
  6
CONTINUOUS
 10
271.8717242379
 20
170.4404790036
 40
2.8
100
AcDbArc
 50
162.0289209889
 51
327.9149068424
  0
ARC
  5
416
100
AcDbEntity
  8
KONSTRUKTIONSELEMENTE
100
AcDbCircle
 62
7
  6
CONTINUOUS
 10
271.8717242379
 20
170.4404790036
 40
2.1
100
AcDbArc
 50
141.1813148616
 51
327.9149068424
  0
ARC
  5
417
100
AcDbEntity
  8
BEZUGSACHSEN
100
AcDbCircle
 62
7
  6
CONTINUOUS
 10
266.1386862929
 20
267.0847886211
 40
5.6
100
AcDbArc
 50
0.0
 51
90.0
  0
ARC
  5
418
100
AcDbEntity
  8
BEZUGSACHSEN
100
AcDbCircle
 62
7
  6
CONTINUOUS
 10
174.0065077043
 20
108.705
 40
5.6
100
AcDbArc
 50
0.0
 51
90.0
  0
ARC
  5
419
100
AcDbEntity
  8
BEZUGSACHSEN
100
AcDbCircle
 62
7
  6
CONTINUOUS
 10
101.2065075643
 20
108.705
 40
5.6
100
AcDbArc
 50
90.0
 51
180.0
  0
ARC
  5
41A
100
AcDbEntity
  8
BEZUGSACHSEN
100
AcDbCircle
 62
7
  6
CONTINUOUS
 10
174.0065077043
 20
101.355
 40
5.6
100
AcDbArc
 50
270.0
 51
360.0
  0
ARC
  5
41B
100
AcDbEntity
  8
RUNDUNGEN
100
AcDbCircle
 62
7
  6
CONTINUOUS
 10
101.2065075643
 20
101.355
 40
5.6
100
AcDbArc
 50
180.0
 51
270.0
  0
SPLINE
  5
41C
100
AcDbEntity
  8
KONSTRUKTIONSELEMENTE
100
AcDbSpline
 62
7
  6
CONTINUOUS
 70
0
 71
3
 72
9
 73
5
 74
0
 42
0.0000001
 43
0.0000001
 44
0.0000000001
 40
0.0
 40
0.0
 40
0.0
 40
0.0
 40
0.2464891064
 40
1.0
 40
1.0
 40
1.0
 40
1.0
 10
145.6565076343
 20
192.9345055177
 30
0.0
 10
145.6565076343
 20
192.897181881
 30
0.0
 10
145.6474329833
 20
192.7458198512
 30
0.0
 10
145.6012927369
 20
192.5973065569
 30
0.0
 10
145.5503932216
 20
192.4951916379
 30
0.0
  0
SPLINE
  5
41D
100
AcDbEntity
  8
KONSTRUKTIONSELEMENTE
100
AcDbSpline
 62
7
  6
CONTINUOUS
 70
0
 71
3
 72
11
 73
7
 74
0
 42
0.0000001
 43
0.0000001
 44
0.0000000001
 40
0.0
 40
0.0
 40
0.0
 40
0.0
 40
0.2316306777
 40
0.4774480781
 40
0.7352955117
 40
1.0
 40
1.0
 40
1.0
 40
1.0
 10
145.5503932216
 20
192.4951916379
 30
0.0
 10
145.49680183
 20
192.3876762603
 30
0.0
 10
145.348197376
 20
192.1837245794
 30
0.0
 10
145.0402079628
 20
191.9509397805
 30
0.0
 10
144.6660780733
 20
191.8014296828
 30
0.0
 10
144.3937924085
 20
191.7672363752
 30
0.0
 10
144.2565076343
 20
191.7672363752
 30
0.0
  0
SPLINE
  5
41E
100
AcDbEntity
  8
0
100
AcDbSpline
 62
7
  6
CONTINUOUS
 70
0
 71
3
 72
15
 73
11
 74
0
 42
0.0000001
 43
0.0000001
 44
0.0000000001
 40
0.0
 40
0.0
 40
0.0
 40
0.0
 40
0.0365745583
 40
0.064413766
 40
0.0997250396
 40
0.1930391839
 40
0.3150721512
 40
0.4622324454
 40
0.6296046138
 40
1.0
 40
1.0
 40
1.0
 40
1.0
 10
122.9065076343
 20
203.1675270486
 30
0.0
 10
122.9065076343
 20
203.1497456643
 30
0.0
 10
122.9291430791
 20
203.1215147933
 30
0.0
 10
122.9685787699
 20
203.0951581525
 30
0.0
 10
123.0370642952
 20
203.060574522
 30
0.0
 10
123.152731921
 20
203.0218390258
 30
0.0
 10
123.3243427021
 20
202.9807839789
 30
0.0
 10
123.5337667113
 20
202.945581666
 30
0.0
 10
123.864731825
 20
202.9079551744
 30
0.0
 10
124.126433205
 20
202.8971561487
 30
0.0
 10
124.3065076343
 20
202.8971561487
 30
0.0
  0
SPLINE
  5
41F
100
AcDbEntity
  8
0
100
AcDbSpline
 62
7
  6
CONTINUOUS
 70
0
 71
3
 72
15
 73
11
 74
0
 42
0.0000001
 43
0.0000001
 44
0.0000000001
 40
0.0
 40
0.0
 40
0.0
 40
0.0
 40
0.3703973905
 40
0.5377700149
 40
0.6849300893
 40
0.8069623689
 40
0.9002756697
 40
0.9355866387
 40
0.9634255974
 40
1.0
 40
1.0
 40
1.0
 40
1.0
 10
150.9065076343
 20
202.8971561487
 30
0.0
 10
151.0865830397
 20
202.8971561487
 30
0.0
 10
151.3482856254
 20
202.9079552542
 30
0.0
 10
151.6792517975
 20
202.9455821242
 30
0.0
 10
151.8886755609
 20
202.9807845904
 30
0.0
 10
152.0602854709
 20
203.0218396265
 30
0.0
 10
152.175952186
 20
203.0605750523
 30
0.0
 10
152.2444370345
 20
203.095158487
 30
0.0
 10
152.2838724287
 20
203.1215149933
 30
0.0
 10
152.3065076343
 20
203.1497457398
 30
0.0
 10
152.3065076343
 20
203.1675270486
 30
0.0
  0
SPLINE
  5
420
100
AcDbEntity
  8
KONSTRUKTIONSELEMENTE
100
AcDbSpline
 62
7
  6
CONTINUOUS
 70
0
 71
3
 72
11
 73
7
 74
0
 42
0.0000001
 43
0.0000001
 44
0.0000000001
 40
0.0
 40
0.0
 40
0.0
 40
0.0
 40
0.2647053055
 40
0.5225527611
 40
0.7683697675
 40
1.0
 40
1.0
 40
1.0
 40
1.0
 10
130.9565076343
 20
191.7672363752
 30
0.0
 10
130.8192203589
 20
191.7672363752
 30
0.0
 10
130.5469300814
 20
191.80143085
 30
0.0
 10
130.1727951981
 20
191.9509459378
 30
0.0
 10
129.864804054
 20
192.1837377124
 30
0.0
 10
129.7162011335
 20
192.387694964
 30
0.0
 10
129.6626114239
 20
192.4952129531
 30
0.0
  0
SPLINE
  5
421
100
AcDbEntity
  8
KONSTRUKTIONSELEMENTE
100
AcDbSpline
 62
7
  6
CONTINUOUS
 70
0
 71
3
 72
9
 73
5
 74
0
 42
0.0000001
 43
0.0000001
 44
0.0000000001
 40
0.0
 40
0.0
 40
0.0
 40
0.0
 40
0.2559957401
 40
1.0
 40
1.0
 40
1.0
 40
1.0
 10
129.6626114239
 20
192.4952129531
 30
0.0
 10
129.6453227598
 20
192.5298995078
 30
0.0
 10
129.5850594853
 20
192.6688622328
 30
0.0
 10
129.5565076343
 20
192.8218673444
 30
0.0
 10
129.5565076343
 20
192.9345055177
 30
0.0
  0
SPLINE
  5
422
100
AcDbEntity
  8
KONSTRUKTIONSELEMENTE
100
AcDbSpline
 62
7
  6
CONTINUOUS
 70
0
 71
3
 72
13
 73
9
 74
0
 42
0.0000001
 43
0.0000001
 44
0.0000000001
 40
0.0
 40
0.0
 40
0.0
 40
0.0
 40
0.3034524861
 40
0.5766017316
 40
0.6965510289
 40
0.8051138868
 40
0.9047551435
 40
1.0
 40
1.0
 40
1.0
 40
1.0
 10
130.9565076343
 20
198.3212706678
 30
0.0
 10
130.7756998174
 20
198.3212706678
 30
0.0
 10
130.4311023114
 20
198.2834672183
 30
0.0
 10
130.0355189717
 20
198.1372093561
 30
0.0
 10
129.7908588576
 20
197.9623911583
 30
0.0
 10
129.6585030709
 20
197.8159139999
 30
0.0
 10
129.5754071193
 20
197.6526333575
 30
0.0
 10
129.5565076343
 20
197.5357270232
 30
0.0
 10
129.5565076343
 20
197.4789767398
 30
0.0
  0
SPLINE
  5
423
100
AcDbEntity
  8
KONSTRUKTIONSELEMENTE
100
AcDbSpline
 62
7
  6
CONTINUOUS
 70
0
 71
3
 72
13
 73
9
 74
0
 42
0.0000001
 43
0.0000001
 44
0.0000000001
 40
0.0
 40
0.0
 40
0.0
 40
0.0
 40
0.3028865158
 40
0.5758137423
 40
0.6958314891
 40
0.8045730763
 40
0.9044726355
 40
1.0
 40
1.0
 40
1.0
 40
1.0
 10
144.2565076343
 20
198.8167664185
 30
0.0
 10
144.4372749248
 20
198.8167664185
 30
0.0
 10
144.781987274
 20
198.7786974317
 30
0.0
 10
145.1775360574
 20
198.6314767541
 30
0.0
 10
145.4221401639
 20
198.4556997676
 30
0.0
 10
145.5545212474
 20
198.3084041636
 30
0.0
 10
145.6376092117
 20
198.1443127669
 30
0.0
 10
145.6565076343
 20
198.0268963077
 30
0.0
 10
145.6565076343
 20
197.9698841201
 30
0.0
  0
SPLINE
  5
424
100
AcDbEntity
  8
KONSTRUKTIONSELEMENTE
100
AcDbSpline
 62
7
  6
CONTINUOUS
 70
0
 71
3
 72
13
 73
9
 74
0
 42
0.0000001
 43
0.0000001
 44
0.0000000001
 40
0.0
 40
0.0
 40
0.0
 40
0.0
 40
0.0952450224
 40
0.1948867032
 40
0.3034500013
 40
0.4233996185
 40
0.6965484298
 40
1.0
 40
1.0
 40
1.0
 40
1.0
 10
145.6565076343
 20
197.4789767398
 30
0.0
 10
145.6565076343
 20
197.5357271222
 30
0.0
 10
145.637608023
 20
197.6526338025
 30
0.0
 10
145.5545116575
 20
197.815914954
 30
0.0
 10
145.422155058
 20
197.9623923547
 30
0.0
 10
145.1774944843
 20
198.1372102287
 30
0.0
 10
144.7819115897
 20
198.2834673814
 30
0.0
 10
144.4373149061
 20
198.3212706678
 30
0.0
 10
144.2565076343
 20
198.3212706678
 30
0.0
  0
SPLINE
  5
425
100
AcDbEntity
  8
KONSTRUKTIONSELEMENTE
100
AcDbSpline
 62
7
  6
CONTINUOUS
 70
0
 71
3
 72
13
 73
9
 74
0
 42
0.0000001
 43
0.0000001
 44
0.0000000001
 40
0.0
 40
0.0
 40
0.0
 40
0.0
 40
0.0955273939
 40
0.1954269593
 40
0.304168563
 40
0.4241863035
 40
0.6971138059
 40
1.0
 40
1.0
 40
1.0
 40
1.0
 10
129.5565076343
 20
197.9698841201
 30
0.0
 10
129.5565076343
 20
198.0268963251
 30
0.0
 10
129.5754060715
 20
198.1443128047
 30
0.0
 10
129.6584940579
 20
198.3084042247
 30
0.0
 10
129.7908751669
 20
198.4556998199
 30
0.0
 10
130.0354794225
 20
198.63147689
 30
0.0
 10
130.4310282254
 20
198.7786974636
 30
0.0
 10
130.7757405359
 20
198.8167664185
 30
0.0
 10
130.9565076343
 20
198.8167664185
 30
0.0
  0
SPLINE
  5
426
100
AcDbEntity
  8
RUNDUNGEN
100
AcDbSpline
 62
7
  6
CONTINUOUS
 70
0
 71
3
 72
14
 73
10
 74
0
 42
0.0000001
 43
0.0000001
 44
0.0000000001
 40
0.0
 40
0.0
 40
0.0
 40
0.0
 40
0.1264472362
 40
0.2527254652
 40
0.3786575175
 40
0.504100607
 40
0.7531830254
 40
0.8768222634
 40
1.0
 40
1.0
 40
1.0
 40
1.0
 10
114.0287527202
 20
214.7749951105
 30
0.0
 10
114.0299495551
 20
215.1053272549
 30
0.0
 10
114.0351707153
 20
215.7655423617
 30
0.0
 10
114.0503336449
 20
216.7546481344
 30
0.0
 10
114.070987251
 20
217.7410279613
 30
0.0
 10
114.1024671581
 20
219.0480562279
 30
0.0
 10
114.1340902336
 20
220.3491057316
 30
0.0
 10
114.1530142359
 20
221.6444825778
 30
0.0
 10
114.1565047911
 20
222.2892777732
 30
0.0
 10
114.156507645
 20
222.6110707531
 30
0.0
  0
SPLINE
  5
427
100
AcDbEntity
  8
BEZUGSACHSEN
100
AcDbSpline
 62
7
  6
CONTINUOUS
 70
0
 71
3
 72
14
 73
10
 74
0
 42
0.0000001
 43
0.0000001
 44
0.0000000001
 40
0.0
 40
0.0
 40
0.0
 40
0.0
 40
0.1264472362
 40
0.2527254652
 40
0.3786575175
 40
0.504100607
 40
0.7531830254
 40
0.8768222634
 40
1.0
 40
1.0
 40
1.0
 40
1.0
 10
161.1842625484
 20
214.7749951105
 30
0.0
 10
161.1830657134
 20
215.1053272549
 30
0.0
 10
161.1778445532
 20
215.7655423617
 30
0.0
 10
161.1626816237
 20
216.7546481344
 30
0.0
 10
161.1420280176
 20
217.7410279613
 30
0.0
 10
161.1105481105
 20
219.0480562279
 30
0.0
 10
161.078925035
 20
220.3491057316
 30
0.0
 10
161.0600010327
 20
221.6444825778
 30
0.0
 10
161.0565104774
 20
222.2892777732
 30
0.0
 10
161.0565076235
 20
222.6110707531
 30
0.0
  0
LINE
  5
428
100
AcDbEntity
  8
BEZUGSACHSEN
100
AcDbLine
 62
7
  6
CONTINUOUS
 10
137.6065076321
 20
263.2347886207
 11
137.6065076343
 21
254.1347886213
  0
SPLINE
  5
429
100
AcDbEntity
  8
KONSTRUKTIONSELEMENTE
100
AcDbSpline
 62
7
  6
CONTINUOUS
 70
0
 71
3
 72
12
 73
8
 74
0
 42
0.0000001
 43
0.0000001
 44
0.0000000001
 40
0.0
 40
0.0
 40
0.0
 40
0.0
 40
0.2749908753
 40
0.5364783194
 40
0.7766955467
 40
0.8899366731
 40
1.0
 40
1.0
 40
1.0
 40
1.0
 10
131.3065076343
 20
119.8848648857
 30
0.0
 10
131.1245034282
 20
119.8848648857
 30
0.0
 10
130.7664881069
 20
119.9431816121
 30
0.0
 10
130.3056216962
 20
120.1921361697
 30
0.0
 10
130.0349945121
 20
120.5130163271
 30
0.0
 10
129.925168507
 20
120.8020385192
 30
0.0
 10
129.9065076343
 20
120.9504257376
 30
0.0
 10
129.9065076343
 20
121.0232717489
 30
0.0
  0
SPLINE
  5
42A
100
AcDbEntity
  8
KONSTRUKTIONSELEMENTE
100
AcDbSpline
 62
7
  6
CONTINUOUS
 70
0
 71
3
 72
12
 73
8
 74
0
 42
0.0000001
 43
0.0000001
 44
0.0000000001
 40
0.0
 40
0.0
 40
0.0
 40
0.0
 40
0.1100633607
 40
0.2233044932
 40
0.4635217268
 40
0.7250094209
 40
1.0
 40
1.0
 40
1.0
 40
1.0
 10
145.3065076343
 20
121.0232717489
 30
0.0
 10
145.3065076343
 20
120.9504257152
 30
0.0
 10
145.2878467476
 20
120.8020384709
 30
0.0
 10
145.1780207186
 20
120.5130162559
 30
0.0
 10
144.9073933938
 20
120.1921359824
 30
0.0
 10
144.4465269205
 20
119.9431815512
 30
0.0
 10
144.0885116442
 20
119.8848648857
 30
0.0
 10
143.9065076343
 20
119.8848648857
 30
0.0
  0
SPLINE
  5
42B
100
AcDbEntity
  8
KONSTRUKTIONSELEMENTE
100
AcDbSpline
 62
7
  6
CONTINUOUS
 70
0
 71
3
 72
12
 73
8
 74
0
 42
0.0000001
 43
0.0000001
 44
0.0000000001
 40
0.0
 40
0.0
 40
0.0
 40
0.0
 40
0.1100633607
 40
0.2233044932
 40
0.4635217268
 40
0.7250094209
 40
1.0
 40
1.0
 40
1.0
 40
1.0
 10
129.5565076343
 20
89.0367282511
 30
0.0
 10
129.5565076343
 20
89.1095742848
 30
0.0
 10
129.575168521
 20
89.2579615291
 30
0.0
 10
129.6849945499
 20
89.5469837441
 30
0.0
 10
129.9556218748
 20
89.8678640176
 30
0.0
 10
130.4164883481
 20
90.1168184488
 30
0.0
 10
130.7745036243
 20
90.1751351143
 30
0.0
 10
130.9565076343
 20
90.1751351143
 30
0.0
  0
SPLINE
  5
42C
100
AcDbEntity
  8
KONSTRUKTIONSELEMENTE
100
AcDbSpline
 62
7
  6
CONTINUOUS
 70
0
 71
3
 72
11
 73
7
 74
0
 42
0.0000001
 43
0.0000001
 44
0.0000000001
 40
0.0
 40
0.0
 40
0.0
 40
0.0
 40
0.2664425359
 40
0.5252266507
 40
0.7705562004
 40
1.0
 40
1.0
 40
1.0
 40
1.0
 10
144.2565076343
 20
90.1751351143
 30
0.0
 10
144.3937443744
 20
90.1751351143
 30
0.0
 10
144.665489179
 20
90.1418516252
 30
0.0
 10
145.0392342485
 20
89.9962406132
 30
0.0
 10
145.3471844233
 20
89.7695236992
 30
0.0
 10
145.4966081822
 20
89.569995038
 30
0.0
 10
145.5504038447
 20
89.4647691569
 30
0.0
  0
SPLINE
  5
42D
100
AcDbEntity
  8
KONSTRUKTIONSELEMENTE
100
AcDbSpline
 62
7
  6
CONTINUOUS
 70
0
 71
3
 72
9
 73
5
 74
0
 42
0.0000001
 43
0.0000001
 44
0.0000000001
 40
0.0
 40
0.0
 40
0.0
 40
0.0
 40
0.507132727
 40
1.0
 40
1.0
 40
1.0
 40
1.0
 10
145.5504038447
 20
89.4647691569
 30
0.0
 10
145.5845778956
 20
89.3979237189
 30
0.0
 10
145.6378495035
 20
89.2582441122
 30
0.0
 10
145.6565076343
 20
89.1096909191
 30
0.0
 10
145.6565076343
 20
89.0367282511
 30
0.0
  0
SPLINE
  5
42E
100
AcDbEntity
  8
KONSTRUKTIONSELEMENTE
100
AcDbSpline
 62
7
  6
CONTINUOUS
 70
0
 71
3
 72
13
 73
9
 74
0
 42
0.0000001
 43
0.0000001
 44
0.0000000001
 40
0.0
 40
0.0
 40
0.0
 40
0.0
 40
0.3072372932
 40
0.5824426718
 40
0.7022390378
 40
0.8096956559
 40
0.9073299097
 40
1.0
 40
1.0
 40
1.0
 40
1.0
 10
130.9565076343
 20
83.3674830838
 30
0.0
 10
130.7758603779
 20
83.3674830838
 30
0.0
 10
130.4325013926
 20
83.40344393
 30
0.0
 10
130.0370914015
 20
83.5426454219
 30
0.0
 10
129.7916613963
 20
83.7101609857
 30
0.0
 10
129.659108114
 20
83.8502782941
 30
0.0
 10
129.5755873823
 20
84.0069322035
 30
0.0
 10
129.5565076343
 20
84.1196321398
 30
0.0
 10
129.5565076343
 20
84.1741196578
 30
0.0
  0
SPLINE
  5
42F
100
AcDbEntity
  8
KONSTRUKTIONSELEMENTE
100
AcDbSpline
 62
7
  6
CONTINUOUS
 70
0
 71
3
 72
13
 73
9
 74
0
 42
0.0000001
 43
0.0000001
 44
0.0000000001
 40
0.0
 40
0.0
 40
0.0
 40
0.0
 40
0.3072372932
 40
0.5824426718
 40
0.7022390378
 40
0.8096956559
 40
0.9073299097
 40
1.0
 40
1.0
 40
1.0
 40
1.0
 10
143.9065076343
 20
126.6925169162
 30
0.0
 10
144.0871548906
 20
126.6925169162
 30
0.0
 10
144.4305138759
 20
126.65655607
 30
0.0
 10
144.825923867
 20
126.5173545781
 30
0.0
 10
145.0713538722
 20
126.3498390143
 30
0.0
 10
145.2039071546
 20
126.2097217059
 30
0.0
 10
145.2874278862
 20
126.0530677965
 30
0.0
 10
145.3065076343
 20
125.9403678602
 30
0.0
 10
145.3065076343
 20
125.8858803422
 30
0.0
  0
SPLINE
  5
430
100
AcDbEntity
  8
KONSTRUKTIONSELEMENTE
100
AcDbSpline
 62
7
  6
CONTINUOUS
 70
0
 71
3
 72
13
 73
9
 74
0
 42
0.0000001
 43
0.0000001
 44
0.0000000001
 40
0.0
 40
0.0
 40
0.0
 40
0.0
 40
0.3078276484
 40
0.5832708335
 40
0.7029997798
 40
0.8102715322
 40
0.9076328418
 40
1.0
 40
1.0
 40
1.0
 40
1.0
 10
144.2565076343
 20
83.880583954
 30
0.0
 10
144.4371955559
 20
83.880583954
 30
0.0
 10
144.7804410993
 20
83.9162734102
 30
0.0
 10
145.1758775226
 20
84.0544797229
 30
0.0
 10
145.4213638008
 20
84.2209945616
 30
0.0
 10
145.5538905041
 20
84.3602622905
 30
0.0
 10
145.6374241971
 20
84.5160754914
 30
0.0
 10
145.6565076343
 20
84.6282516824
 30
0.0
 10
145.6565076343
 20
84.6824691314
 30
0.0
  0
SPLINE
  5
431
100
AcDbEntity
  8
KONSTRUKTIONSELEMENTE
100
AcDbSpline
 62
7
  6
CONTINUOUS
 70
0
 71
3
 72
13
 73
9
 74
0
 42
0.0000001
 43
0.0000001
 44
0.0000000001
 40
0.0
 40
0.0
 40
0.0
 40
0.0
 40
0.0926701189
 40
0.190304379
 40
0.2977610139
 40
0.4175573741
 40
0.6927630327
 40
1.0
 40
1.0
 40
1.0
 40
1.0
 10
129.9065076343
 20
125.8858803422
 30
0.0
 10
129.9065076343
 20
125.9403678769
 30
0.0
 10
129.9255873971
 20
126.0530678329
 30
0.0
 10
130.0091081509
 20
126.2097217643
 30
0.0
 10
130.1416614586
 20
126.3498390638
 30
0.0
 10
130.3870916147
 20
126.5173547083
 30
0.0
 10
130.782501622
 20
126.6565560993
 30
0.0
 10
131.1258605698
 20
126.6925169162
 30
0.0
 10
131.3065076343
 20
126.6925169162
 30
0.0
  0
SPLINE
  5
432
100
AcDbEntity
  8
KONSTRUKTIONSELEMENTE
100
AcDbSpline
 62
7
  6
CONTINUOUS
 70
0
 71
3
 72
13
 73
9
 74
0
 42
0.0000001
 43
0.0000001
 44
0.0000000001
 40
0.0
 40
0.0
 40
0.0
 40
0.0
 40
0.0926701189
 40
0.190304379
 40
0.2977610139
 40
0.4175573741
 40
0.6927630327
 40
1.0
 40
1.0
 40
1.0
 40
1.0
 10
145.6565076343
 20
84.1741196578
 30
0.0
 10
145.6565076343
 20
84.1196321231
 30
0.0
 10
145.6374278714
 20
84.0069321671
 30
0.0
 10
145.5539071176
 20
83.8502782357
 30
0.0
 10
145.4213538099
 20
83.7101609362
 30
0.0
 10
145.1759236538
 20
83.5426452917
 30
0.0
 10
144.7805136466
 20
83.4034439007
 30
0.0
 10
144.4371546987
 20
83.3674830838
 30
0.0
 10
144.2565076343
 20
83.3674830838
 30
0.0
  0
SPLINE
  5
433
100
AcDbEntity
  8
KONSTRUKTIONSELEMENTE
100
AcDbSpline
 62
7
  6
CONTINUOUS
 70
0
 71
3
 72
13
 73
9
 74
0
 42
0.0000001
 43
0.0000001
 44
0.0000000001
 40
0.0
 40
0.0
 40
0.0
 40
0.0
 40
0.3078276484
 40
0.5832708335
 40
0.7029997798
 40
0.8102715322
 40
0.9076328418
 40
1.0
 40
1.0
 40
1.0
 40
1.0
 10
131.3065076343
 20
126.179416046
 30
0.0
 10
131.1258197126
 20
126.179416046
 30
0.0
 10
130.7825741692
 20
126.1437265898
 30
0.0
 10
130.3871377459
 20
126.0055202771
 30
0.0
 10
130.1416514678
 20
125.8390054384
 30
0.0
 10
130.0091247644
 20
125.6997377095
 30
0.0
 10
129.9255910714
 20
125.5439245086
 30
0.0
 10
129.9065076343
 20
125.4317483176
 30
0.0
 10
129.9065076343
 20
125.3775308686
 30
0.0
  0
SPLINE
  5
434
100
AcDbEntity
  8
KONSTRUKTIONSELEMENTE
100
AcDbSpline
 62
7
  6
CONTINUOUS
 70
0
 71
3
 72
13
 73
9
 74
0
 42
0.0000001
 43
0.0000001
 44
0.0000000001
 40
0.0
 40
0.0
 40
0.0
 40
0.0
 40
0.0923673195
 40
0.1897290468
 40
0.2970012439
 40
0.4167305199
 40
0.6921732792
 40
1.0
 40
1.0
 40
1.0
 40
1.0
 10
145.3065076343
 20
125.3775308686
 30
0.0
 10
145.3065076343
 20
125.4317484125
 30
0.0
 10
145.2874240695
 20
125.5439249374
 30
0.0
 10
145.2038899564
 20
125.699738626
 30
0.0
 10
145.0713624442
 20
125.8390065762
 30
0.0
 10
144.8258757164
 20
126.0055210993
 30
0.0
 10
144.430439745
 20
126.1437267418
 30
0.0
 10
144.087195012
 20
126.179416046
 30
0.0
 10
143.9065076343
 20
126.179416046
 30
0.0
  0
SPLINE
  5
435
100
AcDbEntity
  8
KONSTRUKTIONSELEMENTE
100
AcDbSpline
 62
7
  6
CONTINUOUS
 70
0
 71
3
 72
13
 73
9
 74
0
 42
0.0000001
 43
0.0000001
 44
0.0000000001
 40
0.0
 40
0.0
 40
0.0
 40
0.0
 40
0.0923673195
 40
0.1897290468
 40
0.2970012439
 40
0.4167305199
 40
0.6921732792
 40
1.0
 40
1.0
 40
1.0
 40
1.0
 10
129.5565076343
 20
84.6824691314
 30
0.0
 10
129.5565076343
 20
84.6282515875
 30
0.0
 10
129.575591199
 20
84.5160750626
 30
0.0
 10
129.6591253122
 20
84.360261374
 30
0.0
 10
129.7916528243
 20
84.2209934238
 30
0.0
 10
130.0371395522
 20
84.0544789007
 30
0.0
 10
130.4325755235
 20
83.9162732582
 30
0.0
 10
130.7758202565
 20
83.880583954
 30
0.0
 10
130.9565076343
 20
83.880583954
 30
0.0
  0
ELLIPSE
  5
436
100
AcDbEntity
  8
0
100
AcDbEllipse
 62
7
  6
CONTINUOUS
 10
151.6065076343
 20
168.9585850346
 30
0.0
 11
7.0
 21
0.0
 31
0.0
 40
1.0
 41
-0.1071759913
 42
-0.0
  0
ELLIPSE
  5
437
100
AcDbEntity
  8
0
100
AcDbEllipse
 62
7
  6
CONTINUOUS
 10
151.6065076343
 20
169.9317377084
 30
0.0
 11
-0.0
 21
8.1091915148
 31
0.0
 40
0.86321799
 41
-2.0615726852
 42
-1.7847707539
  0
ELLIPSE
  5
438
100
AcDbEntity
  8
0
100
AcDbEllipse
 62
7
  6
CONTINUOUS
 10
125.7065076343
 20
171.0585850346
 30
0.0
 11
-0.0
 21
9.1
 31
0.0
 40
1.0
 41
-4.7123889804
 42
-4.3939814239
  0
ELLIPSE
  5
439
100
AcDbEntity
  8
0
100
AcDbEllipse
 62
7
  6
CONTINUOUS
 10
125.7065076343
 20
172.3644951628
 30
0.0
 11
-0.0
 21
10.5419489692
 31
0.0
 40
0.86321799
 41
-4.3072877362
 42
-4.0772169981
  0
ELLIPSE
  5
43A
100
AcDbEntity
  8
KONSTRUKTIONSELEMENTE
100
AcDbEllipse
 62
7
  6
CONTINUOUS
 10
140.6872369778
 20
177.6597885511
 30
0.0
 11
-3.0734203447
 21
25.8489196715
 31
0.0
 40
0.1118039492
 41
-0.8636926142
 42
-0.7266672047
  0
ELLIPSE
  5
43B
100
AcDbEntity
  8
KONSTRUKTIONSELEMENTE
100
AcDbEllipse
 62
7
  6
CONTINUOUS
 10
141.1551188563
 20
177.6597885511
 30
0.0
 11
4.1373938669
 21
25.8440034488
 31
0.0
 40
0.1474573977
 41
0.7369767954
 42
0.8740022049
  0
ELLIPSE
  5
43C
100
AcDbEntity
  8
KONSTRUKTIONSELEMENTE
100
AcDbEllipse
 62
7
  6
CONTINUOUS
 10
142.9303967641
 20
177.6597885511
 30
0.0
 11
-4.137400042
 21
25.8440034077
 31
0.0
 40
0.1474575981
 41
-0.8740022722
 42
-0.7369768627
  0
ELLIPSE
  5
43D
100
AcDbEntity
  8
KONSTRUKTIONSELEMENTE
100
AcDbEllipse
 62
7
  6
CONTINUOUS
 10
143.3982788338
 20
177.6597885511
 30
0.0
 11
3.0734173405
 21
25.8489196802
 31
0.0
 40
0.1118038456
 41
0.7266671794
 42
0.8636925889
  0
ELLIPSE
  5
43E
100
AcDbEntity
  8
KONSTRUKTIONSELEMENTE
100
AcDbEllipse
 62
7
  6
CONTINUOUS
 10
136.7971326343
 20
177.6597885511
 30
0.0
 11
75.8127575332
 21
19.5957604492
 31
0.0
 40
0.222402253
 41
1.4962620797
 42
1.50006497
  0
ELLIPSE
  5
43F
100
AcDbEntity
  8
KONSTRUKTIONSELEMENTE
100
AcDbEllipse
 62
7
  6
CONTINUOUS
 10
137.6633830473
 20
177.6597885511
 30
0.0
 11
23.3718696328
 21
24.0659980243
 31
0.0
 40
0.4039017798
 41
1.1519424397
 42
1.159549018
  0
ELLIPSE
  5
440
100
AcDbEntity
  8
KONSTRUKTIONSELEMENTE
100
AcDbEllipse
 62
7
  6
CONTINUOUS
 10
138.0804653863
 20
177.6597885511
 30
0.0
 11
6.3705546415
 21
25.8151256863
 31
0.0
 40
0.2143121354
 41
0.8195582126
 42
0.8309709007
  0
ELLIPSE
  5
441
100
AcDbEntity
  8
KONSTRUKTIONSELEMENTE
100
AcDbEllipse
 62
7
  6
CONTINUOUS
 10
149.0208924272
 20
177.6597885511
 30
0.0
 11
126.5359050562
 21
-18.9653601253
 31
0.0
 40
0.1388302391
 41
1.6772611863
 42
1.6810782625
  0
ELLIPSE
  5
442
100
AcDbEntity
  8
KONSTRUKTIONSELEMENTE
100
AcDbEllipse
 62
7
  6
CONTINUOUS
 10
141.0802554236
 20
177.6597885511
 30
0.0
 11
32.6092463259
 21
-22.596876849
 31
0.0
 40
0.3850597265
 41
1.9057676931
 42
1.917211644
  0
ELLIPSE
  5
443
100
AcDbEntity
  8
KONSTRUKTIONSELEMENTE
100
AcDbEllipse
 62
7
  6
CONTINUOUS
 10
139.9854139029
 20
177.6597885511
 30
0.0
 11
-16.4310752559
 21
25.0898590135
 31
0.0
 40
0.3790169418
 41
-0.9871764018
 42
-0.9719326733
  0
ELLIPSE
  5
444
100
AcDbEntity
  8
KONSTRUKTIONSELEMENTE
100
AcDbEllipse
 62
7
  6
CONTINUOUS
 10
139.3638001557
 20
177.6597885511
 30
0.0
 11
-6.3705546415
 21
25.8151256863
 31
0.0
 40
0.2143121354
 41
-0.8081408036
 42
-0.7967171985
  0
ELLIPSE
  5
445
100
AcDbEntity
  8
KONSTRUKTIONSELEMENTE
100
AcDbEllipse
 62
7
  6
CONTINUOUS
 10
131.4645734783
 20
177.6597885511
 30
0.0
 11
43.0891160404
 21
0.0
 31
0.0
 40
0.5999474088
 41
1.6010476907
 42
1.6057480853
  0
ELLIPSE
  5
446
100
AcDbEntity
  8
KONSTRUKTIONSELEMENTE
100
AcDbEllipse
 62
7
  6
CONTINUOUS
 10
133.4195294079
 20
177.6597885511
 30
0.0
 11
107.7227023571
 21
-0.0
 31
0.0
 40
0.239979159
 41
1.5978776799
 42
1.6010476907
  0
ELLIPSE
  5
447
100
AcDbEntity
  8
KONSTRUKTIONSELEMENTE
100
AcDbEllipse
 62
7
  6
CONTINUOUS
 10
128.2001047497
 20
177.6597885511
 30
0.0
 11
107.7227023571
 21
0.0
 31
0.0
 40
0.239979159
 41
7.8238503364
 42
7.8269002809
  0
ELLIPSE
  5
448
100
AcDbEntity
  8
KONSTRUKTIONSELEMENTE
100
AcDbEllipse
 62
7
  6
CONTINUOUS
 10
130.1550606793
 20
177.6597885511
 30
0.0
 11
43.0891160404
 21
0.0
 31
0.0
 40
0.5999474088
 41
7.8173893039
 42
7.8237302701
  0
ELLIPSE
  5
449
100
AcDbEntity
  8
KONSTRUKTIONSELEMENTE
100
AcDbEllipse
 62
7
  6
CONTINUOUS
 10
130.943250298
 20
177.6597885511
 30
0.0
 11
0.0
 21
25.8512035166
 31
0.0
 40
0.8334064195
 41
6.2407218597
 42
6.2465929771
  0
ELLIPSE
  5
44A
100
AcDbEntity
  8
KONSTRUKTIONSELEMENTE
100
AcDbEllipse
 62
7
  6
CONTINUOUS
 10
126.8020809043
 20
177.6597885511
 30
0.0
 11
0.0
 21
25.8512035166
 31
0.0
 40
0.2447914624
 41
-0.0619734803
 42
-0.049278933
  0
ELLIPSE
  5
44B
100
AcDbEntity
  8
KONSTRUKTIONSELEMENTE
100
AcDbEllipse
 62
7
  6
CONTINUOUS
 10
125.8669237012
 20
177.6597885511
 30
0.0
 11
0.0
 21
25.8512035166
 31
0.0
 40
0.9791672503
 41
-0.049278933
 42
-0.036592329
  0
ELLIPSE
  5
44C
100
AcDbEntity
  8
KONSTRUKTIONSELEMENTE
100
AcDbEllipse
 62
7
  6
CONTINUOUS
 10
124.9408828359
 20
177.6597885511
 30
0.0
 11
50.6252675183
 21
0.0
 31
0.0
 40
0.5106383587
 41
1.5342039978
 42
1.5405449632
  0
ELLIPSE
  5
44D
100
AcDbEntity
  8
KONSTRUKTIONSELEMENTE
100
AcDbEllipse
 62
7
  6
CONTINUOUS
 10
121.878382144
 20
177.6597885511
 30
0.0
 11
151.8758387649
 21
-0.0
 31
0.0
 40
0.1702127457
 41
1.5405449632
 42
1.5437149737
  0
ELLIPSE
  5
44E
100
AcDbEntity
  8
KONSTRUKTIONSELEMENTE
100
AcDbEllipse
 62
7
  6
CONTINUOUS
 10
130.4679663379
 20
177.6597885511
 30
0.0
 11
177.188472524
 21
0.0
 31
0.0
 40
0.1458966441
 41
1.5978776799
 42
1.6010476904
  0
ELLIPSE
  5
44F
100
AcDbEntity
  8
KONSTRUKTIONSELEMENTE
100
AcDbEllipse
 62
7
  6
CONTINUOUS
 10
126.6398410206
 20
177.6597885511
 30
0.0
 11
50.6252765708
 21
-0.0
 31
0.0
 40
0.5106382674
 41
1.6010476904
 42
1.6073886558
  0
ELLIPSE
  5
450
100
AcDbEntity
  8
KONSTRUKTIONSELEMENTE
100
AcDbEllipse
 62
7
  6
CONTINUOUS
 10
125.7137993688
 20
177.6597885511
 30
0.0
 11
-0.0
 21
25.8512035166
 31
0.0
 40
0.9791667688
 41
0.036592329
 42
0.049278933
  0
ELLIPSE
  5
451
100
AcDbEntity
  8
KONSTRUKTIONSELEMENTE
100
AcDbEllipse
 62
7
  6
CONTINUOUS
 10
148.6624970883
 20
177.6597885511
 30
0.0
 11
-0.0
 21
25.8512035166
 31
0.0
 40
0.6119793514
 41
-0.1544395355
 42
-0.0270813531
  0
ELLIPSE
  5
452
100
AcDbEntity
  8
KONSTRUKTIONSELEMENTE
100
AcDbEllipse
 62
7
  6
CONTINUOUS
 10
124.7786430854
 20
177.6597885511
 30
0.0
 11
0.0
 21
25.8512035166
 31
0.0
 40
0.2447917031
 41
0.049278933
 42
0.0619734803
  0
ELLIPSE
  5
453
100
AcDbEntity
  8
KONSTRUKTIONSELEMENTE
100
AcDbEllipse
 62
7
  6
CONTINUOUS
 10
127.5768206995
 20
177.6597885511
 30
0.0
 11
-0.0
 21
25.8512035166
 31
0.0
 40
0.4895836251
 41
0.0683243865
 42
0.0810347255
  0
ELLIPSE
  5
454
100
AcDbEntity
  8
KONSTRUKTIONSELEMENTE
100
AcDbEllipse
 62
7
  6
CONTINUOUS
 10
128.8471742966
 20
177.6597885511
 30
0.0
 11
28.3501532212
 21
-0.0
 31
0.0
 40
0.9118541023
 41
7.9350163594
 42
8.0148381695
  0
ELLIPSE
  5
455
100
AcDbEntity
  8
KONSTRUKTIONSELEMENTE
100
AcDbEllipse
 62
7
  6
CONTINUOUS
 10
130.2813007723
 20
177.6597885511
 30
0.0
 11
0.0
 21
25.8512035166
 31
0.0
 40
0.1958326096
 41
-0.0873946892
 42
-0.0715008544
  0
ELLIPSE
  5
456
100
AcDbEntity
  8
KONSTRUKTIONSELEMENTE
100
AcDbEllipse
 62
7
  6
CONTINUOUS
 10
130.0401876538
 20
177.6597885511
 30
0.0
 11
-0.0
 21
25.8512035166
 31
0.0
 40
0.3263892456
 41
-0.0715008544
 42
-0.0619734803
  0
ELLIPSE
  5
457
100
AcDbEntity
  8
KONSTRUKTIONSELEMENTE
100
AcDbEllipse
 62
7
  6
CONTINUOUS
 10
129.7789041743
 20
177.6597885511
 30
0.0
 11
0.0
 21
25.8512035166
 31
0.0
 40
0.4895829248
 41
-0.0619734803
 42
-0.049278933
  0
ELLIPSE
  5
458
100
AcDbEntity
  8
KONSTRUKTIONSELEMENTE
100
AcDbEllipse
 62
7
  6
CONTINUOUS
 10
129.1554660389
 20
177.6597885511
 30
0.0
 11
0.0
 21
25.8512035166
 31
0.0
 40
0.9791667834
 41
-0.049278933
 42
-0.0397633477
  0
ELLIPSE
  5
459
100
AcDbEntity
  8
KONSTRUKTIONSELEMENTE
100
AcDbEllipse
 62
7
  6
CONTINUOUS
 10
128.4846313716
 20
177.6597885511
 30
0.0
 11
42.1877651769
 21
0.0
 31
0.0
 40
0.6127654169
 41
1.5310329791
 42
1.5405449632
  0
ELLIPSE
  5
45A
100
AcDbEntity
  8
KONSTRUKTIONSELEMENTE
100
AcDbEllipse
 62
7
  6
CONTINUOUS
 10
125.1669236577
 20
177.6597885511
 30
0.0
 11
151.8758387649
 21
-0.0
 31
0.0
 40
0.1702127457
 41
1.5405449632
 42
1.5437149737
  0
ELLIPSE
  5
45B
100
AcDbEntity
  8
KONSTRUKTIONSELEMENTE
100
AcDbEllipse
 62
7
  6
CONTINUOUS
 10
133.3919246382
 20
177.6597885511
 30
0.0
 11
151.8758387649
 21
-0.0
 31
0.0
 40
0.1702127457
 41
1.5978776799
 42
1.6010476904
  0
ELLIPSE
  5
45C
100
AcDbEntity
  8
KONSTRUKTIONSELEMENTE
100
AcDbEllipse
 62
7
  6
CONTINUOUS
 10
130.074215464
 20
177.6597885511
 30
0.0
 11
42.1877168969
 21
-0.0
 31
0.0
 40
0.6127661182
 41
1.6010476904
 42
1.6105596745
  0
ELLIPSE
  5
45D
100
AcDbEntity
  8
KONSTRUKTIONSELEMENTE
100
AcDbEllipse
 62
7
  6
CONTINUOUS
 10
143.6549746038
 20
177.6597885511
 30
0.0
 11
-0.0
 21
25.8512035166
 31
0.0
 40
0.4895759212
 41
-0.1576472173
 42
-0.1512334548
  0
ELLIPSE
  5
45E
100
AcDbEntity
  8
KONSTRUKTIONSELEMENTE
100
AcDbEllipse
 62
7
  6
CONTINUOUS
 10
129.403382716
 20
177.6597885511
 30
0.0
 11
-0.0
 21
25.8512035166
 31
0.0
 40
0.9791667834
 41
6.3229486549
 42
6.3324642401
  0
ELLIPSE
  5
45F
100
AcDbEntity
  8
KONSTRUKTIONSELEMENTE
100
AcDbEllipse
 62
7
  6
CONTINUOUS
 10
137.6939923046
 20
177.6597885511
 30
0.0
 11
50.6253672844
 21
-0.0
 31
0.0
 40
0.5106373524
 41
1.4067287999
 42
1.4131491095
  0
ELLIPSE
  5
460
100
AcDbEntity
  8
KONSTRUKTIONSELEMENTE
100
AcDbEllipse
 62
7
  6
CONTINUOUS
 10
128.7799454724
 20
177.6597885511
 30
0.0
 11
-0.0
 21
25.8512035166
 31
0.0
 40
0.4895836251
 41
0.049278933
 42
0.0619734803
  0
ELLIPSE
  5
461
100
AcDbEntity
  8
KONSTRUKTIONSELEMENTE
100
AcDbEllipse
 62
7
  6
CONTINUOUS
 10
156.7799288107
 20
177.6597885511
 30
0.0
 11
63.2814918454
 21
0.0
 31
0.0
 40
0.4085112845
 41
1.7284435441
 42
1.7348638537
  0
ELLIPSE
  5
462
100
AcDbEntity
  8
KONSTRUKTIONSELEMENTE
100
AcDbEllipse
 62
7
  6
CONTINUOUS
 10
150.8190065695
 20
177.6597885511
 30
0.0
 11
0.0
 21
25.8512035166
 31
0.0
 40
0.9791665548
 41
6.4312142448
 42
6.4408325244
  0
ELLIPSE
  5
463
100
AcDbEntity
  8
KONSTRUKTIONSELEMENTE
100
AcDbEllipse
 62
7
  6
CONTINUOUS
 10
128.5186593765
 20
177.6597885511
 30
0.0
 11
-0.0
 21
25.8512035166
 31
0.0
 40
0.3263883117
 41
0.0619734803
 42
0.0715008544
  0
ELLIPSE
  5
464
100
AcDbEntity
  8
KONSTRUKTIONSELEMENTE
100
AcDbEllipse
 62
7
  6
CONTINUOUS
 10
148.9523548066
 20
177.6597885511
 30
0.0
 11
0.0
 21
25.8512035166
 31
0.0
 40
0.4895871269
 41
0.1416244643
 42
0.1480289376
  0
ELLIPSE
  5
465
100
AcDbEntity
  8
KONSTRUKTIONSELEMENTE
100
AcDbEllipse
 62
7
  6
CONTINUOUS
 10
128.2775490173
 20
177.6597885511
 30
0.0
 11
0.0
 21
25.8512035166
 31
0.0
 40
0.1958331699
 41
0.0715008544
 42
0.0873946892
  0
ELLIPSE
  5
466
100
AcDbEntity
  8
KONSTRUKTIONSELEMENTE
100
AcDbEllipse
 62
7
  6
CONTINUOUS
 10
130.7973070918
 20
177.6597885511
 30
0.0
 11
0.0
 21
25.8512035166
 31
0.0
 40
0.1631947371
 41
0.112872653
 42
0.1320286233
  0
ELLIPSE
  5
467
100
AcDbEntity
  8
KONSTRUKTIONSELEMENTE
100
AcDbEllipse
 62
7
  6
CONTINUOUS
 10
132.463449827
 20
177.6597885511
 30
0.0
 11
0.0
 21
25.8512035166
 31
0.0
 40
0.6527771569
 41
0.1320286233
 42
0.1512334548
  0
ELLIPSE
  5
468
100
AcDbEntity
  8
KONSTRUKTIONSELEMENTE
100
AcDbEllipse
 62
7
  6
CONTINUOUS
 10
135.641404333
 20
177.6597885511
 30
0.0
 11
37.9689596912
 21
0.0
 31
0.0
 40
0.6808509827
 41
1.7220297816
 42
1.7284435441
  0
ELLIPSE
  5
469
100
AcDbEntity
  8
KONSTRUKTIONSELEMENTE
100
AcDbEllipse
 62
7
  6
CONTINUOUS
 10
149.5502753213
 20
177.6597885511
 30
0.0
 11
126.5632955308
 21
-0.0
 31
0.0
 40
0.204255139
 41
1.7284435441
 42
1.7316528623
  0
ELLIPSE
  5
46A
100
AcDbEntity
  8
KONSTRUKTIONSELEMENTE
100
AcDbEllipse
 62
7
  6
CONTINUOUS
 10
109.0085961727
 20
177.6597885511
 30
0.0
 11
126.5631506907
 21
0.0
 31
0.0
 40
0.2042553727
 41
1.4099397913
 42
1.4131491095
  0
ELLIPSE
  5
46B
100
AcDbEntity
  8
KONSTRUKTIONSELEMENTE
100
AcDbEllipse
 62
7
  6
CONTINUOUS
 10
122.9174444219
 20
177.6597885511
 30
0.0
 11
37.9689596912
 21
0.0
 31
0.0
 40
0.6808509827
 41
1.4131491095
 42
1.419562872
  0
ELLIPSE
  5
46C
100
AcDbEntity
  8
KONSTRUKTIONSELEMENTE
100
AcDbEllipse
 62
7
  6
CONTINUOUS
 10
126.095395291
 20
177.6597885511
 30
0.0
 11
-0.0
 21
25.8512035166
 31
0.0
 40
0.6527780907
 41
6.1319518524
 42
6.1511566839
  0
ELLIPSE
  5
46D
100
AcDbEntity
  8
KONSTRUKTIONSELEMENTE
100
AcDbEllipse
 62
7
  6
CONTINUOUS
 10
127.761544382
 20
177.6597885511
 30
0.0
 11
0.0
 21
25.8512035166
 31
0.0
 40
0.1631938033
 41
-0.1320286233
 42
-0.112872653
  0
ELLIPSE
  5
46E
100
AcDbEntity
  8
KONSTRUKTIONSELEMENTE
100
AcDbEllipse
 62
7
  6
CONTINUOUS
 10
133.810467286
 20
177.6597885511
 30
0.0
 11
-0.0
 21
25.8512035166
 31
0.0
 40
0.1958326096
 41
-0.0873946892
 42
-0.0715008544
  0
ELLIPSE
  5
46F
100
AcDbEntity
  8
KONSTRUKTIONSELEMENTE
100
AcDbEllipse
 62
7
  6
CONTINUOUS
 10
133.5693576166
 20
177.6597885511
 30
0.0
 11
-0.0
 21
25.8512035166
 31
0.0
 40
0.3263873779
 41
-0.0715008544
 42
-0.0619734803
  0
ELLIPSE
  5
470
100
AcDbEntity
  8
KONSTRUKTIONSELEMENTE
100
AcDbEllipse
 62
7
  6
CONTINUOUS
 10
133.3080689043
 20
177.6597885511
 30
0.0
 11
0.0
 21
25.8512035166
 31
0.0
 40
0.4895843255
 41
-0.0619734803
 42
-0.049278933
  0
ELLIPSE
  5
471
100
AcDbEntity
  8
KONSTRUKTIONSELEMENTE
100
AcDbEllipse
 62
7
  6
CONTINUOUS
 10
132.6846325526
 20
177.6597885511
 30
0.0
 11
0.0
 21
25.8512035166
 31
0.0
 40
0.9791667834
 41
-0.049278933
 42
-0.0397633477
  0
ELLIPSE
  5
472
100
AcDbEntity
  8
KONSTRUKTIONSELEMENTE
100
AcDbEllipse
 62
7
  6
CONTINUOUS
 10
132.0137978852
 20
177.6597885511
 30
0.0
 11
42.1877651769
 21
0.0
 31
0.0
 40
0.6127654169
 41
1.5310329791
 42
1.5405449632
  0
ELLIPSE
  5
473
100
AcDbEntity
  8
KONSTRUKTIONSELEMENTE
100
AcDbEllipse
 62
7
  6
CONTINUOUS
 10
146.9070413887
 20
177.6597885511
 30
0.0
 11
0.0
 21
25.8512035166
 31
0.0
 40
0.4895871269
 41
0.1256382383
 42
0.1384244362
  0
ELLIPSE
  5
474
100
AcDbEntity
  8
KONSTRUKTIONSELEMENTE
100
AcDbEllipse
 62
7
  6
CONTINUOUS
 10
148.4929526771
 20
177.6597885511
 30
0.0
 11
0.0
 21
25.8512035166
 31
0.0
 40
0.9791623624
 41
0.1192530026
 42
0.1256382383
  0
ELLIPSE
  5
475
100
AcDbEntity
  8
KONSTRUKTIONSELEMENTE
100
AcDbEllipse
 62
7
  6
CONTINUOUS
 10
128.6960901714
 20
177.6597885511
 30
0.0
 11
151.8758387649
 21
-0.0
 31
0.0
 40
0.1702127457
 41
1.5405449632
 42
1.5437149737
  0
ELLIPSE
  5
476
100
AcDbEntity
  8
KONSTRUKTIONSELEMENTE
100
AcDbEllipse
 62
7
  6
CONTINUOUS
 10
151.5044364015
 20
177.6597885511
 30
0.0
 11
50.6253761483
 21
0.0
 31
0.0
 40
0.510637263
 41
1.6836689798
 42
1.6900493294
  0
ELLIPSE
  5
477
100
AcDbEntity
  8
KONSTRUKTIONSELEMENTE
100
AcDbEllipse
 62
7
  6
CONTINUOUS
 10
162.908593418
 20
177.6597885511
 30
0.0
 11
151.8758387649
 21
0.0
 31
0.0
 40
0.1702127457
 41
1.680480551
 42
1.6836689798
  0
ELLIPSE
  5
478
100
AcDbEntity
  8
KONSTRUKTIONSELEMENTE
100
AcDbEllipse
 62
7
  6
CONTINUOUS
 10
136.9210911519
 20
177.6597885511
 30
0.0
 11
151.8758387649
 21
0.0
 31
0.0
 40
0.1702127457
 41
1.5978776799
 42
1.6010476904
  0
ELLIPSE
  5
479
100
AcDbEntity
  8
KONSTRUKTIONSELEMENTE
100
AcDbEllipse
 62
7
  6
CONTINUOUS
 10
133.6033819777
 20
177.6597885511
 30
0.0
 11
42.1877168969
 21
0.0
 31
0.0
 40
0.6127661182
 41
1.6010476904
 42
1.6105596745
  0
ELLIPSE
  5
47A
100
AcDbEntity
  8
KONSTRUKTIONSELEMENTE
100
AcDbEllipse
 62
7
  6
CONTINUOUS
 10
132.9325492297
 20
177.6597885511
 30
0.0
 11
-0.0
 21
25.8512035166
 31
0.0
 40
0.9791667834
 41
6.3229486549
 42
6.3324642401
  0
ELLIPSE
  5
47B
100
AcDbEntity
  8
KONSTRUKTIONSELEMENTE
100
AcDbEllipse
 62
7
  6
CONTINUOUS
 10
132.3091110942
 20
177.6597885511
 30
0.0
 11
-0.0
 21
25.8512035166
 31
0.0
 40
0.4895829248
 41
0.049278933
 42
0.0619734803
  0
ELLIPSE
  5
47C
100
AcDbEntity
  8
KONSTRUKTIONSELEMENTE
100
AcDbEllipse
 62
7
  6
CONTINUOUS
 10
132.0478276147
 20
177.6597885511
 30
0.0
 11
-0.0
 21
25.8512035166
 31
0.0
 40
0.3263892456
 41
0.0619734803
 42
0.0715008544
  0
ELLIPSE
  5
47D
100
AcDbEntity
  8
KONSTRUKTIONSELEMENTE
100
AcDbEllipse
 62
7
  6
CONTINUOUS
 10
131.8067144962
 20
177.6597885511
 30
0.0
 11
0.0
 21
25.8512035166
 31
0.0
 40
0.1958326096
 41
0.0715008544
 42
0.0873946892
  0
ELLIPSE
  5
47E
100
AcDbEntity
  8
KONSTRUKTIONSELEMENTE
100
AcDbEllipse
 62
7
  6
CONTINUOUS
 10
134.3264767834
 20
177.6597885511
 30
0.0
 11
0.0
 21
25.8512035166
 31
0.0
 40
0.1631956709
 41
0.112872653
 42
0.1320286233
  0
ELLIPSE
  5
47F
100
AcDbEntity
  8
KONSTRUKTIONSELEMENTE
100
AcDbEllipse
 62
7
  6
CONTINUOUS
 10
135.9926163407
 20
177.6597885511
 30
0.0
 11
0.0
 21
25.8512035166
 31
0.0
 40
0.6527771569
 41
6.4152139305
 42
6.434418762
  0
ELLIPSE
  5
480
100
AcDbEntity
  8
KONSTRUKTIONSELEMENTE
100
AcDbEllipse
 62
7
  6
CONTINUOUS
 10
139.1705708467
 20
177.6597885511
 30
0.0
 11
37.9689596912
 21
-0.0
 31
0.0
 40
0.6808509827
 41
1.7220297816
 42
1.7284435441
  0
ELLIPSE
  5
481
100
AcDbEntity
  8
KONSTRUKTIONSELEMENTE
100
AcDbEllipse
 62
7
  6
CONTINUOUS
 10
153.079441835
 20
177.6597885511
 30
0.0
 11
126.5632955308
 21
0.0
 31
0.0
 40
0.204255139
 41
1.7284435441
 42
1.7316528623
  0
ELLIPSE
  5
482
100
AcDbEntity
  8
KONSTRUKTIONSELEMENTE
100
AcDbEllipse
 62
7
  6
CONTINUOUS
 10
112.5377858845
 20
177.6597885511
 30
0.0
 11
126.5630058506
 21
-0.0
 31
0.0
 40
0.2042556065
 41
1.4099397913
 42
1.4131491095
  0
ELLIPSE
  5
483
100
AcDbEntity
  8
KONSTRUKTIONSELEMENTE
100
AcDbEllipse
 62
7
  6
CONTINUOUS
 10
126.4466113945
 20
177.6597885511
 30
0.0
 11
37.9689596912
 21
0.0
 31
0.0
 40
0.6808509827
 41
1.4131491095
 42
1.419562872
  0
ELLIPSE
  5
484
100
AcDbEntity
  8
KONSTRUKTIONSELEMENTE
100
AcDbEllipse
 62
7
  6
CONTINUOUS
 10
129.6245622636
 20
177.6597885511
 30
0.0
 11
-0.0
 21
25.8512035166
 31
0.0
 40
0.6527780907
 41
-0.1512334548
 42
-0.1320286233
  0
ELLIPSE
  5
485
100
AcDbEntity
  8
KONSTRUKTIONSELEMENTE
100
AcDbEllipse
 62
7
  6
CONTINUOUS
 10
146.3455787156
 20
177.6597885511
 30
0.0
 11
0.0
 21
25.8512035166
 31
0.0
 40
0.4895871269
 41
0.0873946892
 42
0.093758199
  0
ELLIPSE
  5
486
100
AcDbEntity
  8
KONSTRUKTIONSELEMENTE
100
AcDbEllipse
 62
7
  6
CONTINUOUS
 10
147.4502495126
 20
177.6597885511
 30
0.0
 11
0.0
 21
25.8512035166
 31
0.0
 40
0.9791630482
 41
0.0810347255
 42
0.0873946892
  0
ELLIPSE
  5
487
100
AcDbEntity
  8
KONSTRUKTIONSELEMENTE
100
AcDbEllipse
 62
7
  6
CONTINUOUS
 10
131.2907081767
 20
177.6597885511
 30
0.0
 11
-0.0
 21
25.8512035166
 31
0.0
 40
0.1631947371
 41
-0.1320286233
 42
-0.112872653
  0
ELLIPSE
  5
488
100
AcDbEntity
  8
KONSTRUKTIONSELEMENTE
100
AcDbEllipse
 62
7
  6
CONTINUOUS
 10
149.4992472331
 20
177.6597885511
 30
0.0
 11
50.6256658285
 21
0.0
 31
0.0
 40
0.5106343412
 41
1.648652318
 42
1.6518310523
  0
ELLIPSE
  5
489
100
AcDbEntity
  8
KONSTRUKTIONSELEMENTE
100
AcDbEllipse
 62
7
  6
CONTINUOUS
 10
159.3429386836
 20
177.6597885511
 30
0.0
 11
177.1880923188
 21
0.0
 31
0.0
 40
0.1458969572
 41
1.6454743719
 42
1.648652318
  0
ELLIPSE
  5
48A
100
AcDbEntity
  8
KONSTRUKTIONSELEMENTE
100
AcDbEllipse
 62
7
  6
CONTINUOUS
 10
135.2731718506
 20
177.6597885511
 30
0.0
 11
151.8758387649
 21
-0.0
 31
0.0
 40
0.1702127457
 41
1.4929403356
 42
1.4961182817
  0
ELLIPSE
  5
48B
100
AcDbEntity
  8
KONSTRUKTIONSELEMENTE
100
AcDbEllipse
 62
7
  6
CONTINUOUS
 10
144.1325482294
 20
177.6597885511
 30
0.0
 11
37.9689596912
 21
0.0
 31
0.0
 40
0.6808509827
 41
1.4865820463
 42
1.4929403356
  0
ELLIPSE
  5
48C
100
AcDbEntity
  8
KONSTRUKTIONSELEMENTE
100
AcDbEllipse
 62
7
  6
CONTINUOUS
 10
145.1971154717
 20
177.6597885511
 30
0.0
 11
0.0
 21
25.8512035166
 31
0.0
 40
0.9791742538
 41
-0.0905759844
 42
-0.0842142805
  0
ELLIPSE
  5
48D
100
AcDbEntity
  8
KONSTRUKTIONSELEMENTE
100
AcDbEllipse
 62
7
  6
CONTINUOUS
 10
146.7235336784
 20
177.6597885511
 30
0.0
 11
-0.0
 21
25.8512035166
 31
0.0
 40
0.3263839475
 41
-0.100125519
 42
-0.0905759844
  0
ELLIPSE
  5
48E
100
AcDbEntity
  8
KONSTRUKTIONSELEMENTE
100
AcDbEllipse
 62
7
  6
CONTINUOUS
 10
137.3396342586
 20
177.6597885511
 30
0.0
 11
-0.0
 21
25.8512035166
 31
0.0
 40
0.1958326096
 41
-0.0873946892
 42
-0.0715008544
  0
ELLIPSE
  5
48F
100
AcDbEntity
  8
KONSTRUKTIONSELEMENTE
100
AcDbEllipse
 62
7
  6
CONTINUOUS
 10
146.8042094951
 20
177.6597885511
 30
0.0
 11
0.0
 21
25.8512035166
 31
0.0
 40
0.1958348371
 41
-0.1672802251
 42
-0.1512334548
  0
ELLIPSE
  5
490
100
AcDbEntity
  8
KONSTRUKTIONSELEMENTE
100
AcDbEllipse
 62
7
  6
CONTINUOUS
 10
137.098517691
 20
177.6597885511
 30
0.0
 11
0.0
 21
25.8512035166
 31
0.0
 40
0.3263911132
 41
-0.0715008544
 42
-0.0619734803
  0
ELLIPSE
  5
491
100
AcDbEntity
  8
KONSTRUKTIONSELEMENTE
100
AcDbEllipse
 62
7
  6
CONTINUOUS
 10
146.2422608012
 20
177.6597885511
 30
0.0
 11
0.0
 21
25.8512035166
 31
0.0
 40
0.3263913798
 41
-0.1769289283
 42
-0.1672802251
  0
ELLIPSE
  5
492
100
AcDbEntity
  8
KONSTRUKTIONSELEMENTE
100
AcDbEllipse
 62
7
  6
CONTINUOUS
 10
136.8372394443
 20
177.6597885511
 30
0.0
 11
-0.0
 21
25.8512035166
 31
0.0
 40
0.4895815241
 41
-0.0619734803
 42
-0.049278933
  0
ELLIPSE
  5
493
100
AcDbEntity
  8
KONSTRUKTIONSELEMENTE
100
AcDbEllipse
 62
7
  6
CONTINUOUS
 10
136.2137995252
 20
177.6597885511
 30
0.0
 11
0.0
 21
25.8512035166
 31
0.0
 40
0.9791667834
 41
-0.049278933
 42
-0.0397633477
  0
ELLIPSE
  5
494
100
AcDbEntity
  8
KONSTRUKTIONSELEMENTE
100
AcDbEllipse
 62
7
  6
CONTINUOUS
 10
135.5429648579
 20
177.6597885511
 30
0.0
 11
42.1877651769
 21
0.0
 31
0.0
 40
0.6127654169
 41
1.5310329791
 42
1.5405449632
  0
ELLIPSE
  5
495
100
AcDbEntity
  8
KONSTRUKTIONSELEMENTE
100
AcDbEllipse
 62
7
  6
CONTINUOUS
 10
132.225257144
 20
177.6597885511
 30
0.0
 11
151.8758387649
 21
-0.0
 31
0.0
 40
0.1702127457
 41
1.5405449632
 42
1.5437149737
  0
ELLIPSE
  5
496
100
AcDbEntity
  8
KONSTRUKTIONSELEMENTE
100
AcDbEllipse
 62
7
  6
CONTINUOUS
 10
140.4502581245
 20
177.6597885511
 30
0.0
 11
151.8758387649
 21
0.0
 31
0.0
 40
0.1702127457
 41
1.5978776799
 42
1.6010476904
  0
ELLIPSE
  5
497
100
AcDbEntity
  8
KONSTRUKTIONSELEMENTE
100
AcDbEllipse
 62
7
  6
CONTINUOUS
 10
137.1325504107
 20
177.6597885511
 30
0.0
 11
42.1877651769
 21
-0.0
 31
0.0
 40
0.6127654169
 41
1.6010476904
 42
1.6105596745
  0
ELLIPSE
  5
498
100
AcDbEntity
  8
KONSTRUKTIONSELEMENTE
100
AcDbEllipse
 62
7
  6
CONTINUOUS
 10
136.4617157433
 20
177.6597885511
 30
0.0
 11
-0.0
 21
25.8512035166
 31
0.0
 40
0.9791667834
 41
6.3229486549
 42
6.3324642401
  0
ELLIPSE
  5
499
100
AcDbEntity
  8
KONSTRUKTIONSELEMENTE
100
AcDbEllipse
 62
7
  6
CONTINUOUS
 10
135.8382758243
 20
177.6597885511
 30
0.0
 11
0.0
 21
25.8512035166
 31
0.0
 40
0.4895815241
 41
0.049278933
 42
0.0619734803
  0
ELLIPSE
  5
49A
100
AcDbEntity
  8
KONSTRUKTIONSELEMENTE
100
AcDbEllipse
 62
7
  6
CONTINUOUS
 10
135.5769975775
 20
177.6597885511
 30
0.0
 11
0.0
 21
25.8512035166
 31
0.0
 40
0.3263911132
 41
0.0619734803
 42
0.0715008544
  0
ELLIPSE
  5
49B
100
AcDbEntity
  8
KONSTRUKTIONSELEMENTE
100
AcDbEllipse
 62
7
  6
CONTINUOUS
 10
135.3358810099
 20
177.6597885511
 30
0.0
 11
0.0
 21
25.8512035166
 31
0.0
 40
0.1958326096
 41
0.0715008544
 42
0.0873946892
  0
ELLIPSE
  5
49C
100
AcDbEntity
  8
KONSTRUKTIONSELEMENTE
100
AcDbEllipse
 62
7
  6
CONTINUOUS
 10
140.988387865
 20
177.6597885511
 30
0.0
 11
0.0
 21
25.8512035166
 31
0.0
 40
0.3916651644
 41
-0.1512334548
 42
-0.135225834
  0
ELLIPSE
  5
49D
100
AcDbEntity
  8
KONSTRUKTIONSELEMENTE
100
AcDbEllipse
 62
7
  6
CONTINUOUS
 10
136.7934854766
 20
177.6597885511
 30
0.0
 11
37.9689596912
 21
0.0
 31
0.0
 40
0.6808509827
 41
1.4131491095
 42
1.419562872
  0
ELLIPSE
  5
49E
100
AcDbEntity
  8
KONSTRUKTIONSELEMENTE
100
AcDbEllipse
 62
7
  6
CONTINUOUS
 10
137.8556374002
 20
177.6597885511
 30
0.0
 11
0.0
 21
25.8512035166
 31
0.0
 40
0.1631938033
 41
0.112872653
 42
0.1320286233
  0
ELLIPSE
  5
49F
100
AcDbEntity
  8
KONSTRUKTIONSELEMENTE
100
AcDbEllipse
 62
7
  6
CONTINUOUS
 10
126.8585581371
 20
177.6597885511
 30
0.0
 11
101.2507522967
 21
-0.0
 31
0.0
 40
0.2553186315
 41
1.4099397913
 42
1.4131491095
  0
ELLIPSE
  5
4A0
100
AcDbEntity
  8
KONSTRUKTIONSELEMENTE
100
AcDbEllipse
 62
7
  6
CONTINUOUS
 10
139.5217833133
 20
177.6597885511
 30
0.0
 11
0.0
 21
25.8512035166
 31
0.0
 40
0.6527771569
 41
6.4152139305
 42
6.434418762
  0
ELLIPSE
  5
4A1
100
AcDbEntity
  8
KONSTRUKTIONSELEMENTE
100
AcDbEllipse
 62
7
  6
CONTINUOUS
 10
159.6126982842
 20
177.6597885511
 30
0.0
 11
101.2501729363
 21
0.0
 31
0.0
 40
0.2553200925
 41
1.7284435441
 42
1.7316528623
  0
ELLIPSE
  5
4A2
100
AcDbEntity
  8
KONSTRUKTIONSELEMENTE
100
AcDbEllipse
 62
7
  6
CONTINUOUS
 10
149.6778619014
 20
177.6597885511
 30
0.0
 11
37.9689596912
 21
0.0
 31
0.0
 40
0.6808509827
 41
1.7220297816
 42
1.7284435441
  0
ELLIPSE
  5
4A3
100
AcDbEntity
  8
KONSTRUKTIONSELEMENTE
100
AcDbEllipse
 62
7
  6
CONTINUOUS
 10
142.6997378193
 20
177.6597885511
 30
0.0
 11
37.9689596912
 21
-0.0
 31
0.0
 40
0.6808509827
 41
1.7220297816
 42
1.7284435441
  0
ELLIPSE
  5
4A4
100
AcDbEntity
  8
KONSTRUKTIONSELEMENTE
100
AcDbEllipse
 62
7
  6
CONTINUOUS
 10
146.4999289199
 20
177.6597885511
 30
0.0
 11
-0.0
 21
25.8512035166
 31
0.0
 40
0.6527826835
 41
6.4248097715
 42
6.434418762
  0
ELLIPSE
  5
4A5
100
AcDbEntity
  8
KONSTRUKTIONSELEMENTE
100
AcDbEllipse
 62
7
  6
CONTINUOUS
 10
156.6086088077
 20
177.6597885511
 30
0.0
 11
126.5632955308
 21
0.0
 31
0.0
 40
0.204255139
 41
1.7284435441
 42
1.7316528623
  0
ELLIPSE
  5
4A6
100
AcDbEntity
  8
KONSTRUKTIONSELEMENTE
100
AcDbEllipse
 62
7
  6
CONTINUOUS
 10
116.0669064609
 20
177.6597885511
 30
0.0
 11
126.5632955308
 21
-0.0
 31
0.0
 40
0.204255139
 41
1.4099397913
 42
1.4131491095
  0
ELLIPSE
  5
4A7
100
AcDbEntity
  8
KONSTRUKTIONSELEMENTE
100
AcDbEllipse
 62
7
  6
CONTINUOUS
 10
129.9757774492
 20
177.6597885511
 30
0.0
 11
37.9689596912
 21
-0.0
 31
0.0
 40
0.6808509827
 41
1.4131491095
 42
1.419562872
  0
ELLIPSE
  5
4A8
100
AcDbEntity
  8
KONSTRUKTIONSELEMENTE
100
AcDbEllipse
 62
7
  6
CONTINUOUS
 10
133.1537319552
 20
177.6597885511
 30
0.0
 11
-0.0
 21
25.8512035166
 31
0.0
 40
0.6527771569
 41
-0.1512334548
 42
-0.1320286233
  0
ELLIPSE
  5
4A9
100
AcDbEntity
  8
KONSTRUKTIONSELEMENTE
100
AcDbEllipse
 62
7
  6
CONTINUOUS
 10
134.8198778683
 20
177.6597885511
 30
0.0
 11
0.0
 21
25.8512035166
 31
0.0
 40
0.1631938033
 41
-0.1320286233
 42
-0.112872653
  0
ELLIPSE
  5
4AA
100
AcDbEntity
  8
KONSTRUKTIONSELEMENTE
100
AcDbEllipse
 62
7
  6
CONTINUOUS
 10
140.8688053702
 20
177.6597885511
 30
0.0
 11
-0.0
 21
25.8512035166
 31
0.0
 40
0.1958303685
 41
-0.0873946892
 42
-0.0715008544
  0
ELLIPSE
  5
4AB
100
AcDbEntity
  8
KONSTRUKTIONSELEMENTE
100
AcDbEllipse
 62
7
  6
CONTINUOUS
 10
140.6276846637
 20
177.6597885511
 30
0.0
 11
-0.0
 21
25.8512035166
 31
0.0
 40
0.3263911132
 41
-0.0715008544
 42
-0.0619734803
  0
ELLIPSE
  5
4AC
100
AcDbEntity
  8
KONSTRUKTIONSELEMENTE
100
AcDbEllipse
 62
7
  6
CONTINUOUS
 10
140.3664064169
 20
177.6597885511
 30
0.0
 11
0.0
 21
25.8512035166
 31
0.0
 40
0.4895815241
 41
-0.0619734803
 42
-0.049278933
  0
ELLIPSE
  5
4AD
100
AcDbEntity
  8
KONSTRUKTIONSELEMENTE
100
AcDbEllipse
 62
7
  6
CONTINUOUS
 10
139.7429664978
 20
177.6597885511
 30
0.0
 11
0.0
 21
25.8512035166
 31
0.0
 40
0.9791667834
 41
-0.049278933
 42
-0.0397633477
  0
ELLIPSE
  5
4AE
100
AcDbEntity
  8
KONSTRUKTIONSELEMENTE
100
AcDbEllipse
 62
7
  6
CONTINUOUS
 10
139.072127992
 20
177.6597885511
 30
0.0
 11
42.187861737
 21
-0.0
 31
0.0
 40
0.6127640144
 41
1.5310329791
 42
1.5405449632
  0
ELLIPSE
  5
4AF
100
AcDbEntity
  8
KONSTRUKTIONSELEMENTE
100
AcDbEllipse
 62
7
  6
CONTINUOUS
 10
135.7544231987
 20
177.6597885511
 30
0.0
 11
151.8758387649
 21
-0.0
 31
0.0
 40
0.1702127457
 41
1.5405449632
 42
1.5437149737
  0
ELLIPSE
  5
4B0
100
AcDbEntity
  8
KONSTRUKTIONSELEMENTE
100
AcDbEllipse
 62
7
  6
CONTINUOUS
 10
143.9794163353
 20
177.6597885511
 30
0.0
 11
151.8755490847
 21
0.0
 31
0.0
 40
0.1702130703
 41
1.5978776799
 42
1.6010476904
  0
ELLIPSE
  5
4B1
100
AcDbEntity
  8
KONSTRUKTIONSELEMENTE
100
AcDbEllipse
 62
7
  6
CONTINUOUS
 10
140.6617173833
 20
177.6597885511
 30
0.0
 11
42.1877651769
 21
-0.0
 31
0.0
 40
0.6127654169
 41
1.6010476904
 42
1.6105596745
  0
ELLIPSE
  5
4B2
100
AcDbEntity
  8
KONSTRUKTIONSELEMENTE
100
AcDbEllipse
 62
7
  6
CONTINUOUS
 10
139.990882716
 20
177.6597885511
 30
0.0
 11
0.0
 21
25.8512035166
 31
0.0
 40
0.9791667834
 41
6.3229486549
 42
6.3324642401
  0
ELLIPSE
  5
4B3
100
AcDbEntity
  8
KONSTRUKTIONSELEMENTE
100
AcDbEllipse
 62
7
  6
CONTINUOUS
 10
139.3674463642
 20
177.6597885511
 30
0.0
 11
0.0
 21
25.8512035166
 31
0.0
 40
0.4895843255
 41
0.049278933
 42
0.0619734803
  0
ELLIPSE
  5
4B4
100
AcDbEntity
  8
KONSTRUKTIONSELEMENTE
100
AcDbEllipse
 62
7
  6
CONTINUOUS
 10
139.1061576519
 20
177.6597885511
 30
0.0
 11
0.0
 21
25.8512035166
 31
0.0
 40
0.3263873779
 41
0.0619734803
 42
0.0715008544
  0
ELLIPSE
  5
4B5
100
AcDbEntity
  8
KONSTRUKTIONSELEMENTE
100
AcDbEllipse
 62
7
  6
CONTINUOUS
 10
142.665091197
 20
177.6597885511
 30
0.0
 11
-0.0
 21
25.8512035166
 31
0.0
 40
0.2447879606
 41
0.100125519
 42
0.112872653
  0
ELLIPSE
  5
4B6
100
AcDbEntity
  8
KONSTRUKTIONSELEMENTE
100
AcDbEllipse
 62
7
  6
CONTINUOUS
 10
143.2976626608
 20
177.6597885511
 30
0.0
 11
0.0
 21
25.8512035166
 31
0.0
 40
0.4895871269
 41
0.093758199
 42
0.100125519
  0
ELLIPSE
  5
4B7
100
AcDbEntity
  8
KONSTRUKTIONSELEMENTE
100
AcDbEllipse
 62
7
  6
CONTINUOUS
 10
138.8650479826
 20
177.6597885511
 30
0.0
 11
0.0
 21
25.8512035166
 31
0.0
 40
0.1958326096
 41
0.0715008544
 42
0.0873946892
  0
ELLIPSE
  5
4B8
100
AcDbEntity
  8
KONSTRUKTIONSELEMENTE
100
AcDbEllipse
 62
7
  6
CONTINUOUS
 10
144.4825496073
 20
177.6597885511
 30
0.0
 11
0.0
 21
25.8512035166
 31
0.0
 40
0.9791667834
 41
0.0842142805
 42
0.093758199
  0
ELLIPSE
  5
4B9
100
AcDbEntity
  8
KONSTRUKTIONSELEMENTE
100
AcDbEllipse
 62
7
  6
CONTINUOUS
 10
145.5471330939
 20
177.6597885511
 30
0.0
 11
37.9689596912
 21
-0.0
 31
0.0
 40
0.6808509827
 41
1.648652318
 42
1.6550106073
  0
ELLIPSE
  5
4BA
100
AcDbEntity
  8
KONSTRUKTIONSELEMENTE
100
AcDbEllipse
 62
7
  6
CONTINUOUS
 10
150.4690238803
 20
177.6597885511
 30
0.0
 11
101.2507522967
 21
0.0
 31
0.0
 40
0.2553186315
 41
1.6454743719
 42
1.648652318
  0
ELLIPSE
  5
4BB
100
AcDbEntity
  8
KONSTRUKTIONSELEMENTE
100
AcDbEllipse
 62
7
  6
CONTINUOUS
 10
135.8419525041
 20
177.6597885511
 30
0.0
 11
101.2501729363
 21
-0.0
 31
0.0
 40
0.2553200925
 41
1.4929403356
 42
1.4961182817
  0
ELLIPSE
  5
4BC
100
AcDbEntity
  8
KONSTRUKTIONSELEMENTE
100
AcDbEllipse
 62
7
  6
CONTINUOUS
 10
141.3848098108
 20
177.6597885511
 30
0.0
 11
0.0
 21
25.8512035166
 31
0.0
 40
0.1631956709
 41
0.112872653
 42
0.1320286233
  0
ELLIPSE
  5
4BD
100
AcDbEntity
  8
KONSTRUKTIONSELEMENTE
100
AcDbEllipse
 62
7
  6
CONTINUOUS
 10
139.7793930354
 20
177.6597885511
 30
0.0
 11
50.6256658285
 21
0.0
 31
0.0
 40
0.5106343412
 41
1.4897616013
 42
1.4929403356
  0
ELLIPSE
  5
4BE
100
AcDbEntity
  8
KONSTRUKTIONSELEMENTE
100
AcDbEllipse
 62
7
  6
CONTINUOUS
 10
141.828390756
 20
177.6597885511
 30
0.0
 11
0.0
 21
25.8512035166
 31
0.0
 40
0.9791630482
 41
-0.0873946892
 42
-0.0810347255
  0
ELLIPSE
  5
4BF
100
AcDbEntity
  8
KONSTRUKTIONSELEMENTE
100
AcDbEllipse
 62
7
  6
CONTINUOUS
 10
143.0509430122
 20
177.6597885511
 30
0.0
 11
0.0
 21
25.8512035166
 31
0.0
 40
0.6527752892
 41
6.4152139305
 42
6.434418762
  0
ELLIPSE
  5
4C0
100
AcDbEntity
  8
KONSTRUKTIONSELEMENTE
100
AcDbEllipse
 62
7
  6
CONTINUOUS
 10
142.933061553
 20
177.6597885511
 30
0.0
 11
-0.0
 21
25.8512035166
 31
0.0
 40
0.4895871269
 41
-0.093758199
 42
-0.0873946892
  0
ELLIPSE
  5
4C1
100
AcDbEntity
  8
KONSTRUKTIONSELEMENTE
100
AcDbEllipse
 62
7
  6
CONTINUOUS
 10
146.2289047919
 20
177.6597885511
 30
0.0
 11
37.9689596912
 21
-0.0
 31
0.0
 40
0.6808509827
 41
1.7220297816
 42
1.7284435441
  0
ELLIPSE
  5
4C2
100
AcDbEntity
  8
KONSTRUKTIONSELEMENTE
100
AcDbEllipse
 62
7
  6
CONTINUOUS
 10
160.1378212587
 20
177.6597885511
 30
0.0
 11
126.5635852109
 21
0.0
 31
0.0
 40
0.2042546715
 41
1.7284435441
 42
1.7316528623
  0
ELLIPSE
  5
4C3
100
AcDbEntity
  8
KONSTRUKTIONSELEMENTE
100
AcDbEllipse
 62
7
  6
CONTINUOUS
 10
119.5961189119
 20
177.6597885511
 30
0.0
 11
126.5630058506
 21
-0.0
 31
0.0
 40
0.2042556065
 41
1.4099397913
 42
1.4131491095
  0
ELLIPSE
  5
4C4
100
AcDbEntity
  8
KONSTRUKTIONSELEMENTE
100
AcDbEllipse
 62
7
  6
CONTINUOUS
 10
138.3490384851
 20
177.6597885511
 30
0.0
 11
-0.0
 21
25.8512035166
 31
0.0
 40
0.1631956709
 41
-0.1320286233
 42
-0.112872653
  0
ELLIPSE
  5
4C5
100
AcDbEntity
  8
KONSTRUKTIONSELEMENTE
100
AcDbEllipse
 62
7
  6
CONTINUOUS
 10
136.6828989279
 20
177.6597885511
 30
0.0
 11
-0.0
 21
25.8512035166
 31
0.0
 40
0.6527771569
 41
-0.1512334548
 42
-0.1320286233
  0
ELLIPSE
  5
4C6
100
AcDbEntity
  8
KONSTRUKTIONSELEMENTE
100
AcDbEllipse
 62
7
  6
CONTINUOUS
 10
133.5049444219
 20
177.6597885511
 30
0.0
 11
37.9689596912
 21
-0.0
 31
0.0
 40
0.6808509827
 41
1.4131491095
 42
1.419562872
  0
ELLIPSE
  5
4C7
100
AcDbEntity
  8
KONSTRUKTIONSELEMENTE
100
AcDbEllipse
 62
7
  6
CONTINUOUS
 10
131.0221333401
 20
177.6597885511
 30
0.0
 11
126.5632050057
 21
0.0
 31
0.0
 40
0.2042552851
 41
1.6137310934
 42
1.6169029445
  0
ELLIPSE
  5
4C8
100
AcDbEntity
  8
KONSTRUKTIONSELEMENTE
100
AcDbEllipse
 62
7
  6
CONTINUOUS
 10
120.4783827055
 20
177.6597885511
 30
0.0
 11
126.5631869007
 21
0.0
 31
0.0
 40
0.2042553143
 41
1.5246897091
 42
1.5278615602
  0
ELLIPSE
  5
4C9
100
AcDbEntity
  8
KONSTRUKTIONSELEMENTE
100
AcDbEllipse
 62
7
  6
CONTINUOUS
 10
124.5617157685
 20
177.6597885511
 30
0.0
 11
37.9689596912
 21
-0.0
 31
0.0
 40
0.6808509827
 41
1.5183445821
 42
1.5246897091
  0
ELLIPSE
  5
4CA
100
AcDbEntity
  8
KONSTRUKTIONSELEMENTE
100
AcDbEllipse
 62
7
  6
CONTINUOUS
 10
125.6676181925
 20
177.6597885511
 30
0.0
 11
0.0
 21
25.8512035166
 31
0.0
 40
0.6527781669
 41
-0.0619734803
 42
-0.0524517447
  0
ELLIPSE
  5
4CB
100
AcDbEntity
  8
KONSTRUKTIONSELEMENTE
100
AcDbEllipse
 62
7
  6
CONTINUOUS
 10
148.1388753507
 20
177.6597885511
 30
0.0
 11
0.0
 21
25.8512035166
 31
0.0
 40
0.5970530173
 41
-0.1769289283
 42
-0.0461066177
  0
ELLIPSE
  5
4CC
100
AcDbEntity
  8
KONSTRUKTIONSELEMENTE
100
AcDbEllipse
 62
7
  6
CONTINUOUS
 10
127.2494250395
 20
177.6597885511
 30
0.0
 11
-0.0
 21
25.8512035166
 31
0.0
 40
0.1958331151
 41
-0.1320286233
 42
-0.1160622345
  0
ELLIPSE
  5
4CD
100
AcDbEntity
  8
KONSTRUKTIONSELEMENTE
100
AcDbEllipse
 62
7
  6
CONTINUOUS
 10
126.8051196651
 20
177.6597885511
 30
0.0
 11
-0.0
 21
25.8512035166
 31
0.0
 40
0.3263886165
 41
-0.1416244643
 42
-0.1320286233
  0
ELLIPSE
  5
4CE
100
AcDbEntity
  8
KONSTRUKTIONSELEMENTE
100
AcDbEllipse
 62
7
  6
CONTINUOUS
 10
126.2096318093
 20
177.6597885511
 30
0.0
 11
-0.0
 21
25.8512035166
 31
0.0
 40
0.4895835394
 41
-0.1544395355
 42
-0.1416244643
  0
ELLIPSE
  5
4CF
100
AcDbEntity
  8
KONSTRUKTIONSELEMENTE
100
AcDbEllipse
 62
7
  6
CONTINUOUS
 10
124.2627576138
 20
177.6597885511
 30
0.0
 11
0.0
 21
25.8512035166
 31
0.0
 40
0.9791666691
 41
-0.1640675269
 42
-0.1544395355
  0
ELLIPSE
  5
4D0
100
AcDbEntity
  8
KONSTRUKTIONSELEMENTE
100
AcDbEllipse
 62
7
  6
CONTINUOUS
 10
121.5065100277
 20
177.6597885511
 30
0.0
 11
42.1877132036
 21
0.0
 31
0.0
 40
0.6127661718
 41
1.3970854369
 42
1.4067287999
  0
ELLIPSE
  5
4D1
100
AcDbEntity
  8
KONSTRUKTIONSELEMENTE
100
AcDbEllipse
 62
7
  6
CONTINUOUS
 10
102.5481733015
 20
177.6597885511
 30
0.0
 11
151.875825469
 21
0.0
 31
0.0
 40
0.1702127606
 41
1.3938673985
 42
1.3970854369
  0
ELLIPSE
  5
4D2
100
AcDbEntity
  8
KONSTRUKTIONSELEMENTE
100
AcDbEllipse
 62
7
  6
CONTINUOUS
 10
156.0106749944
 20
177.6597885511
 30
0.0
 11
151.875825469
 21
0.0
 31
0.0
 40
0.1702127606
 41
1.7445072167
 42
1.7477252551
  0
ELLIPSE
  5
4D3
100
AcDbEntity
  8
KONSTRUKTIONSELEMENTE
100
AcDbEllipse
 62
7
  6
CONTINUOUS
 10
137.0523466128
 20
177.6597885511
 30
0.0
 11
42.1877614836
 21
0.0
 31
0.0
 40
0.6127654705
 41
1.7348638537
 42
1.7445072167
  0
ELLIPSE
  5
4D4
100
AcDbEntity
  8
KONSTRUKTIONSELEMENTE
100
AcDbEllipse
 62
7
  6
CONTINUOUS
 10
134.296091141
 20
177.6597885511
 30
0.0
 11
0.0
 21
25.8512035166
 31
0.0
 40
0.9791666691
 41
0.1544395355
 42
0.1640675269
  0
ELLIPSE
  5
4D5
100
AcDbEntity
  8
KONSTRUKTIONSELEMENTE
100
AcDbEllipse
 62
7
  6
CONTINUOUS
 10
132.3492141605
 20
177.6597885511
 30
0.0
 11
0.0
 21
25.8512035166
 31
0.0
 40
0.4895828391
 41
0.1416244643
 42
0.1544395355
  0
ELLIPSE
  5
4D6
100
AcDbEntity
  8
KONSTRUKTIONSELEMENTE
100
AcDbEllipse
 62
7
  6
CONTINUOUS
 10
131.7537322677
 20
177.6597885511
 30
0.0
 11
-0.0
 21
25.8512035166
 31
0.0
 40
0.3263895503
 41
0.1320286233
 42
0.1416244643
  0
ELLIPSE
  5
4D7
100
AcDbEntity
  8
KONSTRUKTIONSELEMENTE
100
AcDbEllipse
 62
7
  6
CONTINUOUS
 10
131.3094218086
 20
177.6597885511
 30
0.0
 11
0.0
 21
25.8512035166
 31
0.0
 40
0.1958325548
 41
0.1160622345
 42
0.1320286233
  0
ELLIPSE
  5
4D8
100
AcDbEntity
  8
KONSTRUKTIONSELEMENTE
100
AcDbEllipse
 62
7
  6
CONTINUOUS
 10
158.6502835088
 20
177.6597885511
 30
0.0
 11
101.2507522967
 21
0.0
 31
0.0
 40
0.2553186315
 41
1.6932413223
 42
1.6964345651
  0
ELLIPSE
  5
4D9
100
AcDbEntity
  8
KONSTRUKTIONSELEMENTE
100
AcDbEllipse
 62
7
  6
CONTINUOUS
 10
152.3064842723
 20
177.6597885511
 30
0.0
 11
50.6250864682
 21
0.0
 31
0.0
 40
0.5106401849
 41
1.6964345651
 42
1.6996290963
  0
ELLIPSE
  5
4DA
100
AcDbEntity
  8
KONSTRUKTIONSELEMENTE
100
AcDbEllipse
 62
7
  6
CONTINUOUS
 10
149.0544501431
 20
177.6597885511
 30
0.0
 11
-0.0
 21
25.8512035166
 31
0.0
 40
0.9791742538
 41
0.1288327695
 42
0.135225834
  0
ELLIPSE
  5
4DB
100
AcDbEntity
  8
KONSTRUKTIONSELEMENTE
100
AcDbEllipse
 62
7
  6
CONTINUOUS
 10
146.7794064717
 20
177.6597885511
 30
0.0
 11
0.0
 21
25.8512035166
 31
0.0
 40
0.3263839475
 41
6.4184111412
 42
6.4280112603
  0
ELLIPSE
  5
4DC
100
AcDbEntity
  8
KONSTRUKTIONSELEMENTE
100
AcDbEllipse
 62
7
  6
CONTINUOUS
 10
140.1177573589
 20
177.6597885511
 30
0.0
 11
-3.05545429
 21
25.1487865932
 31
0.0
 40
0.1141141758
 41
-0.9086890092
 42
-0.7247407521
  0
ELLIPSE
  5
4DD
100
AcDbEntity
  8
KONSTRUKTIONSELEMENTE
100
AcDbEllipse
 62
7
  6
CONTINUOUS
 10
140.1177573589
 20
177.6597885511
 30
0.0
 11
-3.140492686
 21
25.8487193262
 31
0.0
 40
0.1141141758
 41
-0.9061917684
 42
-0.7272379929
  0
ELLIPSE
  5
4DE
100
AcDbEntity
  8
KONSTRUKTIONSELEMENTE
100
AcDbEllipse
 62
7
  6
CONTINUOUS
 10
128.6183119382
 20
177.6597885511
 30
0.0
 11
0.0
 21
25.8512035166
 31
0.0
 40
0.1631938414
 41
0.0715008544
 42
0.0905759844
  0
ELLIPSE
  5
4DF
100
AcDbEntity
  8
KONSTRUKTIONSELEMENTE
100
AcDbEllipse
 62
7
  6
CONTINUOUS
 10
129.5224799198
 20
177.6597885511
 30
0.0
 11
-0.0
 21
25.8512035166
 31
0.0
 40
0.6527778621
 41
0.0524517447
 42
0.0715008544
  0
ELLIPSE
  5
4E0
100
AcDbEntity
  8
KONSTRUKTIONSELEMENTE
100
AcDbEllipse
 62
7
  6
CONTINUOUS
 10
130.6283827568
 20
177.6597885511
 30
0.0
 11
37.9689596912
 21
-0.0
 31
0.0
 40
0.6808509827
 41
1.6169029445
 42
1.6232480715
  0
ELLIPSE
  5
4E1
100
AcDbEntity
  8
KONSTRUKTIONSELEMENTE
100
AcDbEllipse
 62
7
  6
CONTINUOUS
 10
134.7117141509
 20
177.6597885511
 30
0.0
 11
126.5631506907
 21
0.0
 31
0.0
 40
0.2042553727
 41
1.6137310934
 42
1.6169029445
  0
ELLIPSE
  5
4E2
100
AcDbEntity
  8
KONSTRUKTIONSELEMENTE
100
AcDbEllipse
 62
7
  6
CONTINUOUS
 10
123.8471279282
 20
177.6597885511
 30
0.0
 11
126.5632955308
 21
0.0
 31
0.0
 40
0.204255139
 41
1.5246897091
 42
1.5278615602
  0
ELLIPSE
  5
4E3
100
AcDbEntity
  8
KONSTRUKTIONSELEMENTE
100
AcDbEllipse
 62
7
  6
CONTINUOUS
 10
127.930465998
 20
177.6597885511
 30
0.0
 11
37.9689596912
 21
-0.0
 31
0.0
 40
0.6808509827
 41
1.5183445821
 42
1.5246897091
  0
ELLIPSE
  5
4E4
100
AcDbEntity
  8
KONSTRUKTIONSELEMENTE
100
AcDbEllipse
 62
7
  6
CONTINUOUS
 10
129.0363701007
 20
177.6597885511
 30
0.0
 11
0.0
 21
25.8512035166
 31
0.0
 40
0.6527769283
 41
6.2116844528
 42
6.2307335625
  0
ELLIPSE
  5
4E5
100
AcDbEntity
  8
KONSTRUKTIONSELEMENTE
100
AcDbEllipse
 62
7
  6
CONTINUOUS
 10
129.9405346331
 20
177.6597885511
 30
0.0
 11
0.0
 21
25.8512035166
 31
0.0
 40
0.1631947752
 41
6.1926093228
 42
6.2116844528
  0
ELLIPSE
  5
4E6
100
AcDbEntity
  8
KONSTRUKTIONSELEMENTE
100
AcDbEllipse
 62
7
  6
CONTINUOUS
 10
145.0987284423
 20
177.6597885511
 30
0.0
 11
-0.0
 21
25.8512035166
 31
0.0
 40
0.4895758784
 41
-0.1769289283
 42
-0.1704946677
  0
ELLIPSE
  5
4E7
100
AcDbEntity
  8
KONSTRUKTIONSELEMENTE
100
AcDbEllipse
 62
7
  6
CONTINUOUS
 10
145.8144835134
 20
177.6597885511
 30
0.0
 11
0.0
 21
25.8512035166
 31
0.0
 40
0.3263913608
 41
-0.1704946677
 42
-0.1608565355
  0
ELLIPSE
  5
4E8
100
AcDbEntity
  8
KONSTRUKTIONSELEMENTE
100
AcDbEllipse
 62
7
  6
CONTINUOUS
 10
149.1929813156
 20
177.6597885511
 30
0.0
 11
0.0
 21
25.8512035166
 31
0.0
 40
0.4895870412
 41
6.4440418427
 42
6.4504655323
  0
ELLIPSE
  5
4E9
100
AcDbEntity
  8
KONSTRUKTIONSELEMENTE
100
AcDbEllipse
 62
7
  6
CONTINUOUS
 10
153.4075486134
 20
177.6597885511
 30
0.0
 11
37.9689547053
 21
0.0
 31
0.0
 40
0.6808510721
 41
8.0212618591
 42
8.0276925239
  0
ELLIPSE
  5
4EA
100
AcDbEntity
  8
KONSTRUKTIONSELEMENTE
100
AcDbEllipse
 62
7
  6
CONTINUOUS
 10
168.7200160158
 20
177.6597885511
 30
0.0
 11
126.5629947707
 21
0.0
 31
0.0
 40
0.2042556244
 41
1.7445072167
 42
1.7477252551
  0
ELLIPSE
  5
4EB
100
AcDbEntity
  8
KONSTRUKTIONSELEMENTE
100
AcDbEllipse
 62
7
  6
CONTINUOUS
 10
128.1418897461
 20
177.6597885511
 30
0.0
 11
101.2507434328
 21
-0.0
 31
0.0
 40
0.2553186539
 41
1.3938673985
 42
1.3970854369
  0
ELLIPSE
  5
4EC
100
AcDbEntity
  8
KONSTRUKTIONSELEMENTE
100
AcDbEllipse
 62
7
  6
CONTINUOUS
 10
130.7785934599
 20
177.6597885511
 30
0.0
 11
-0.0
 21
25.8512035166
 31
0.0
 40
0.1958325548
 41
-0.1320286233
 42
-0.1160622345
  0
ELLIPSE
  5
4ED
100
AcDbEntity
  8
KONSTRUKTIONSELEMENTE
100
AcDbEllipse
 62
7
  6
CONTINUOUS
 10
130.3342830009
 20
177.6597885511
 30
0.0
 11
0.0
 21
25.8512035166
 31
0.0
 40
0.3263895503
 41
-0.1416244643
 42
-0.1320286233
  0
ELLIPSE
  5
4EE
100
AcDbEntity
  8
KONSTRUKTIONSELEMENTE
100
AcDbEllipse
 62
7
  6
CONTINUOUS
 10
129.738801108
 20
177.6597885511
 30
0.0
 11
-0.0
 21
25.8512035166
 31
0.0
 40
0.4895828391
 41
-0.1544395355
 42
-0.1416244643
  0
ELLIPSE
  5
4EF
100
AcDbEntity
  8
KONSTRUKTIONSELEMENTE
100
AcDbEllipse
 62
7
  6
CONTINUOUS
 10
127.7919241275
 20
177.6597885511
 30
0.0
 11
0.0
 21
25.8512035166
 31
0.0
 40
0.9791666691
 41
-0.1640675269
 42
-0.1544395355
  0
ELLIPSE
  5
4F0
100
AcDbEntity
  8
KONSTRUKTIONSELEMENTE
100
AcDbEllipse
 62
7
  6
CONTINUOUS
 10
125.0356765414
 20
177.6597885511
 30
0.0
 11
42.1877132036
 21
0.0
 31
0.0
 40
0.6127661718
 41
1.3970854369
 42
1.4067287999
  0
ELLIPSE
  5
4F1
100
AcDbEntity
  8
KONSTRUKTIONSELEMENTE
100
AcDbEllipse
 62
7
  6
CONTINUOUS
 10
106.0773398152
 20
177.6597885511
 30
0.0
 11
151.875825469
 21
-0.0
 31
0.0
 40
0.1702127606
 41
1.3938673985
 42
1.3970854369
  0
ELLIPSE
  5
4F2
100
AcDbEntity
  8
KONSTRUKTIONSELEMENTE
100
AcDbEllipse
 62
7
  6
CONTINUOUS
 10
159.5398415081
 20
177.6597885511
 30
0.0
 11
151.875825469
 21
0.0
 31
0.0
 40
0.1702127606
 41
1.7445072167
 42
1.7477252551
  0
ELLIPSE
  5
4F3
100
AcDbEntity
  8
KONSTRUKTIONSELEMENTE
100
AcDbEllipse
 62
7
  6
CONTINUOUS
 10
140.5815131265
 20
177.6597885511
 30
0.0
 11
42.1877614836
 21
0.0
 31
0.0
 40
0.6127654705
 41
1.7348638537
 42
1.7445072167
  0
ELLIPSE
  5
4F4
100
AcDbEntity
  8
KONSTRUKTIONSELEMENTE
100
AcDbEllipse
 62
7
  6
CONTINUOUS
 10
137.8252576547
 20
177.6597885511
 30
0.0
 11
0.0
 21
25.8512035166
 31
0.0
 40
0.9791666691
 41
0.1544395355
 42
0.1640675269
  0
ELLIPSE
  5
4F5
100
AcDbEntity
  8
KONSTRUKTIONSELEMENTE
100
AcDbEllipse
 62
7
  6
CONTINUOUS
 10
135.8783862442
 20
177.6597885511
 30
0.0
 11
0.0
 21
25.8512035166
 31
0.0
 40
0.4895842398
 41
0.1416244643
 42
0.1544395355
  0
ELLIPSE
  5
4F6
100
AcDbEntity
  8
KONSTRUKTIONSELEMENTE
100
AcDbEllipse
 62
7
  6
CONTINUOUS
 10
135.2828924255
 20
177.6597885511
 30
0.0
 11
0.0
 21
25.8512035166
 31
0.0
 40
0.3263876827
 41
0.1320286233
 42
0.1416244643
  0
ELLIPSE
  5
4F7
100
AcDbEntity
  8
KONSTRUKTIONSELEMENTE
100
AcDbEllipse
 62
7
  6
CONTINUOUS
 10
134.8385883223
 20
177.6597885511
 30
0.0
 11
0.0
 21
25.8512035166
 31
0.0
 40
0.1958325548
 41
0.1160622345
 42
0.1320286233
  0
ELLIPSE
  5
4F8
100
AcDbEntity
  8
KONSTRUKTIONSELEMENTE
100
AcDbEllipse
 62
7
  6
CONTINUOUS
 10
136.8919567854
 20
177.6597885511
 30
0.0
 11
50.6250820362
 21
-0.0
 31
0.0
 40
0.5106402296
 41
1.3970854369
 42
1.4003016591
  0
ELLIPSE
  5
4F9
100
AcDbEntity
  8
KONSTRUKTIONSELEMENTE
100
AcDbEllipse
 62
7
  6
CONTINUOUS
 10
141.1867162025
 20
177.6597885511
 30
0.0
 11
0.0
 21
25.8512035166
 31
0.0
 40
0.979166612
 41
-0.1704946677
 42
-0.1608565355
  0
ELLIPSE
  5
4FA
100
AcDbEntity
  8
KONSTRUKTIONSELEMENTE
100
AcDbEllipse
 62
7
  6
CONTINUOUS
 10
144.2273332936
 20
177.6597885511
 30
0.0
 11
0.0
 21
25.8512035166
 31
0.0
 40
0.2447935206
 41
-0.1608565355
 42
-0.1480289376
  0
ELLIPSE
  5
4FB
100
AcDbEntity
  8
KONSTRUKTIONSELEMENTE
100
AcDbEllipse
 62
7
  6
CONTINUOUS
 10
143.9677578179
 20
177.6597885511
 30
0.0
 11
3.0554565323
 21
25.1487865863
 31
0.0
 40
0.1141142551
 41
0.7247407719
 42
0.908689029
  0
ELLIPSE
  5
4FC
100
AcDbEntity
  8
KONSTRUKTIONSELEMENTE
100
AcDbEllipse
 62
7
  6
CONTINUOUS
 10
143.9677578179
 20
177.6597885511
 30
0.0
 11
3.1404949906
 21
25.8487193191
 31
0.0
 40
0.1141142551
 41
0.7272380127
 42
0.9061917882
  0
ELLIPSE
  5
4FD
100
AcDbEntity
  8
KONSTRUKTIONSELEMENTE
100
AcDbEllipse
 62
7
  6
CONTINUOUS
 10
142.3365735241
 20
177.6597885511
 30
0.0
 11
-3.8050152195
 21
25.1455571874
 31
0.0
 40
0.1400543839
 41
-0.9160153833
 42
-0.7673408564
  0
ELLIPSE
  5
4FE
100
AcDbEntity
  8
KONSTRUKTIONSELEMENTE
100
AcDbEllipse
 62
7
  6
CONTINUOUS
 10
142.3365735241
 20
177.6597885511
 30
0.0
 11
-3.9109151479
 21
25.8454000406
 31
0.0
 40
0.1400543839
 41
-0.9135181426
 42
-0.7688777733
  0
ELLIPSE
  5
4FF
100
AcDbEntity
  8
KONSTRUKTIONSELEMENTE
100
AcDbEllipse
 62
7
  6
CONTINUOUS
 10
145.9007686624
 20
177.6597885511
 30
0.0
 11
0.0
 21
25.8512035166
 31
0.0
 40
0.4895871269
 41
-0.100125519
 42
-0.093758199
  0
ELLIPSE
  5
500
100
AcDbEntity
  8
KONSTRUKTIONSELEMENTE
100
AcDbEllipse
 62
7
  6
CONTINUOUS
 10
142.3461078229
 20
177.6597885511
 30
0.0
 11
50.6250864682
 21
-0.0
 31
0.0
 40
0.5106401849
 41
1.4770381278
 42
1.4802203424
  0
ELLIPSE
  5
501
100
AcDbEntity
  8
KONSTRUKTIONSELEMENTE
100
AcDbEllipse
 62
7
  6
CONTINUOUS
 10
137.7669056072
 20
177.6597885511
 30
0.0
 11
101.2507522967
 21
-0.0
 31
0.0
 40
0.2553186315
 41
1.4802203424
 42
1.4834016376
  0
ELLIPSE
  5
502
100
AcDbEntity
  8
KONSTRUKTIONSELEMENTE
100
AcDbEllipse
 62
7
  6
CONTINUOUS
 10
132.1474806354
 20
177.6597885511
 30
0.0
 11
0.0
 21
25.8512035166
 31
0.0
 40
0.1631947752
 41
0.0715008544
 42
0.0905759844
  0
ELLIPSE
  5
503
100
AcDbEntity
  8
KONSTRUKTIONSELEMENTE
100
AcDbEllipse
 62
7
  6
CONTINUOUS
 10
133.0516468924
 20
177.6597885511
 30
0.0
 11
-0.0
 21
25.8512035166
 31
0.0
 40
0.6527778621
 41
6.3356370518
 42
6.3546861616
  0
ELLIPSE
  5
504
100
AcDbEntity
  8
KONSTRUKTIONSELEMENTE
100
AcDbEllipse
 62
7
  6
CONTINUOUS
 10
134.1575497295
 20
177.6597885511
 30
0.0
 11
37.9689596912
 21
-0.0
 31
0.0
 40
0.6808509827
 41
1.6169029445
 42
1.6232480715
  0
ELLIPSE
  5
505
100
AcDbEntity
  8
KONSTRUKTIONSELEMENTE
100
AcDbEllipse
 62
7
  6
CONTINUOUS
 10
138.2408744478
 20
177.6597885511
 30
0.0
 11
126.5630058506
 21
0.0
 31
0.0
 40
0.2042556065
 41
1.6137310934
 42
1.6169029445
  0
ELLIPSE
  5
506
100
AcDbEntity
  8
KONSTRUKTIONSELEMENTE
100
AcDbEllipse
 62
7
  6
CONTINUOUS
 10
127.3762944419
 20
177.6597885511
 30
0.0
 11
126.5632955308
 21
-0.0
 31
0.0
 40
0.204255139
 41
1.5246897091
 42
1.5278615602
  0
ELLIPSE
  5
507
100
AcDbEntity
  8
KONSTRUKTIONSELEMENTE
100
AcDbEllipse
 62
7
  6
CONTINUOUS
 10
131.4596325117
 20
177.6597885511
 30
0.0
 11
37.9689596912
 21
-0.0
 31
0.0
 40
0.6808509827
 41
1.5183445821
 42
1.5246897091
  0
ELLIPSE
  5
508
100
AcDbEntity
  8
KONSTRUKTIONSELEMENTE
100
AcDbEllipse
 62
7
  6
CONTINUOUS
 10
132.5655366144
 20
177.6597885511
 30
0.0
 11
-0.0
 21
25.8512035166
 31
0.0
 40
0.6527769283
 41
-0.0715008544
 42
-0.0524517447
  0
ELLIPSE
  5
509
100
AcDbEntity
  8
KONSTRUKTIONSELEMENTE
100
AcDbEllipse
 62
7
  6
CONTINUOUS
 10
133.4696994223
 20
177.6597885511
 30
0.0
 11
0.0
 21
25.8512035166
 31
0.0
 40
0.163195709
 41
-0.0905759844
 42
-0.0715008544
  0
ELLIPSE
  5
50A
100
AcDbEntity
  8
KONSTRUKTIONSELEMENTE
100
AcDbEllipse
 62
7
  6
CONTINUOUS
 10
141.7489420584
 20
177.6597885511
 30
0.0
 11
3.8050208755
 21
25.1455571551
 31
0.0
 40
0.1400545753
 41
0.7673409169
 42
0.9160154438
  0
ELLIPSE
  5
50B
100
AcDbEntity
  8
KONSTRUKTIONSELEMENTE
100
AcDbEllipse
 62
7
  6
CONTINUOUS
 10
154.9606412022
 20
177.6597885511
 30
0.0
 11
101.2501729363
 21
0.0
 31
0.0
 40
0.2553200925
 41
7.9413763232
 42
7.9445576183
  0
ELLIPSE
  5
50C
100
AcDbEntity
  8
KONSTRUKTIONSELEMENTE
100
AcDbEllipse
 62
7
  6
CONTINUOUS
 10
141.7489420584
 20
177.6597885511
 30
0.0
 11
3.9109209614
 21
25.8454000075
 31
0.0
 40
0.1400545753
 41
0.7688778337
 42
0.913518203
  0
ELLIPSE
  5
50D
100
AcDbEntity
  8
KONSTRUKTIONSELEMENTE
100
AcDbEllipse
 62
7
  6
CONTINUOUS
 10
150.3815437953
 20
177.6597885511
 30
0.0
 11
50.6256658285
 21
0.0
 31
0.0
 40
0.5106343412
 41
7.9445576183
 42
7.947739833
  0
ELLIPSE
  5
50E
100
AcDbEntity
  8
KONSTRUKTIONSELEMENTE
100
AcDbEllipse
 62
7
  6
CONTINUOUS
 10
146.8268015955
 20
177.6597885511
 30
0.0
 11
-0.0
 21
25.8512035166
 31
0.0
 40
0.4895759212
 41
0.093758199
 42
0.100125519
  0
ELLIPSE
  5
50F
100
AcDbEntity
  8
0
100
AcDbEllipse
 62
7
  6
CONTINUOUS
 10
121.5065076343
 20
172.7597885511
 30
0.0
 11
0.0
 21
4.9
 31
0.0
 40
1.0
 41
0.0
 42
1.5707963268
  0
ELLIPSE
  5
510
100
AcDbEntity
  8
KONSTRUKTIONSELEMENTE
100
AcDbEllipse
 62
7
  6
CONTINUOUS
 10
138.7863001557
 20
177.6597885511
 30
0.0
 11
-6.1980524891
 21
25.1161026034
 31
0.0
 40
0.2143121354
 41
-0.7986405081
 42
-0.7950739198
  0
ELLIPSE
  5
511
100
AcDbEntity
  8
KONSTRUKTIONSELEMENTE
100
AcDbEllipse
 62
7
  6
CONTINUOUS
 10
138.7863001557
 20
177.6597885511
 30
0.0
 11
-6.3705546415
 21
25.8151256863
 31
0.0
 40
0.2143121354
 41
-0.8081408036
 42
-0.7967171985
  0
ELLIPSE
  5
512
100
AcDbEntity
  8
KONSTRUKTIONSELEMENTE
100
AcDbEllipse
 62
7
  6
CONTINUOUS
 10
139.7808812976
 20
177.6597885511
 30
0.0
 11
22.7390051423
 21
-23.4143378953
 31
0.0
 40
0.4039017798
 41
2.0255471948
 42
2.0333800718
  0
ELLIPSE
  5
513
100
AcDbEntity
  8
KONSTRUKTIONSELEMENTE
100
AcDbEllipse
 62
7
  6
CONTINUOUS
 10
139.7808812976
 20
177.6597885511
 30
0.0
 11
23.3718696328
 21
-24.0659980243
 31
0.0
 40
0.4039017798
 41
2.0239039161
 42
2.0315238431
  0
ELLIPSE
  5
514
100
AcDbEntity
  8
KONSTRUKTIONSELEMENTE
100
AcDbEllipse
 62
7
  6
CONTINUOUS
 10
134.3077599736
 20
177.6597885511
 30
0.0
 11
-0.0
 21
25.8512035166
 31
0.0
 40
0.1958325548
 41
-0.1320286233
 42
-0.1160622345
  0
ELLIPSE
  5
515
100
AcDbEntity
  8
KONSTRUKTIONSELEMENTE
100
AcDbEllipse
 62
7
  6
CONTINUOUS
 10
133.8634431587
 20
177.6597885511
 30
0.0
 11
-0.0
 21
25.8512035166
 31
0.0
 40
0.3263914179
 41
-0.1416244643
 42
-0.1320286233
  0
ELLIPSE
  5
516
100
AcDbEntity
  8
KONSTRUKTIONSELEMENTE
100
AcDbEllipse
 62
7
  6
CONTINUOUS
 10
133.2679731918
 20
177.6597885511
 30
0.0
 11
0.0
 21
25.8512035166
 31
0.0
 40
0.4895814384
 41
-0.1544395355
 42
-0.1416244643
  0
ELLIPSE
  5
517
100
AcDbEntity
  8
KONSTRUKTIONSELEMENTE
100
AcDbEllipse
 62
7
  6
CONTINUOUS
 10
131.3210906412
 20
177.6597885511
 30
0.0
 11
0.0
 21
25.8512035166
 31
0.0
 40
0.9791666691
 41
-0.1640675269
 42
-0.1544395355
  0
ELLIPSE
  5
518
100
AcDbEntity
  8
KONSTRUKTIONSELEMENTE
100
AcDbEllipse
 62
7
  6
CONTINUOUS
 10
128.5648351694
 20
177.6597885511
 30
0.0
 11
42.1877614836
 21
-0.0
 31
0.0
 40
0.6127654705
 41
1.3970854369
 42
1.4067287999
  0
ELLIPSE
  5
519
100
AcDbEntity
  8
KONSTRUKTIONSELEMENTE
100
AcDbEllipse
 62
7
  6
CONTINUOUS
 10
109.6065067878
 20
177.6597885511
 30
0.0
 11
151.875825469
 21
-0.0
 31
0.0
 40
0.1702127606
 41
1.3938673985
 42
1.3970854369
  0
ELLIPSE
  5
51A
100
AcDbEntity
  8
KONSTRUKTIONSELEMENTE
100
AcDbEllipse
 62
7
  6
CONTINUOUS
 10
163.0690084807
 20
177.6597885511
 30
0.0
 11
151.875825469
 21
-0.0
 31
0.0
 40
0.1702127606
 41
1.7445072167
 42
1.7477252551
  0
ELLIPSE
  5
51B
100
AcDbEntity
  8
KONSTRUKTIONSELEMENTE
100
AcDbEllipse
 62
7
  6
CONTINUOUS
 10
144.1106800992
 20
177.6597885511
 30
0.0
 11
42.1877614836
 21
0.0
 31
0.0
 40
0.6127654705
 41
1.7348638537
 42
1.7445072167
  0
ELLIPSE
  5
51C
100
AcDbEntity
  8
KONSTRUKTIONSELEMENTE
100
AcDbEllipse
 62
7
  6
CONTINUOUS
 10
141.3544246273
 20
177.6597885511
 30
0.0
 11
0.0
 21
25.8512035166
 31
0.0
 40
0.9791666691
 41
0.1544395355
 42
0.1640675269
  0
ELLIPSE
  5
51D
100
AcDbEntity
  8
KONSTRUKTIONSELEMENTE
100
AcDbEllipse
 62
7
  6
CONTINUOUS
 10
139.4075420768
 20
177.6597885511
 30
0.0
 11
-0.0
 21
25.8512035166
 31
0.0
 40
0.4895814384
 41
0.1416244643
 42
0.1544395355
  0
ELLIPSE
  5
51E
100
AcDbEntity
  8
KONSTRUKTIONSELEMENTE
100
AcDbEllipse
 62
7
  6
CONTINUOUS
 10
138.8120721098
 20
177.6597885511
 30
0.0
 11
0.0
 21
25.8512035166
 31
0.0
 40
0.3263914179
 41
0.1320286233
 42
0.1416244643
  0
ELLIPSE
  5
51F
100
AcDbEntity
  8
KONSTRUKTIONSELEMENTE
100
AcDbEllipse
 62
7
  6
CONTINUOUS
 10
138.367755295
 20
177.6597885511
 30
0.0
 11
0.0
 21
25.8512035166
 31
0.0
 40
0.1958325548
 41
0.1160622345
 42
0.1320286233
  0
ELLIPSE
  5
520
100
AcDbEntity
  8
KONSTRUKTIONSELEMENTE
100
AcDbEllipse
 62
7
  6
CONTINUOUS
 10
143.1496334432
 20
177.6597885511
 30
0.0
 11
73.759896426
 21
-19.0651456055
 31
0.0
 40
0.222402253
 41
1.6966670101
 42
1.7005849963
  0
ELLIPSE
  5
521
100
AcDbEntity
  8
KONSTRUKTIONSELEMENTE
100
AcDbEllipse
 62
7
  6
CONTINUOUS
 10
143.1496334432
 20
177.6597885511
 30
0.0
 11
75.8127575332
 21
-19.5957604492
 31
0.0
 40
0.222402253
 41
1.6948107814
 42
1.6986221698
  0
ELLIPSE
  5
522
100
AcDbEntity
  8
0
100
AcDbEllipse
 62
7
  6
CONTINUOUS
 10
153.7065076343
 20
172.7597885511
 30
0.0
 11
-0.0
 21
4.9
 31
0.0
 40
1.0
 41
-1.5707963268
 42
-0.0
  0
ELLIPSE
  5
523
100
AcDbEntity
  8
KONSTRUKTIONSELEMENTE
100
AcDbEllipse
 62
7
  6
CONTINUOUS
 10
142.2707300599
 20
177.6597885511
 30
0.0
 11
0.0
 21
25.8512035166
 31
0.0
 40
0.6527828359
 41
-0.1096842243
 42
-0.100125519
  0
ELLIPSE
  5
524
100
AcDbEntity
  8
KONSTRUKTIONSELEMENTE
100
AcDbEllipse
 62
7
  6
CONTINUOUS
 10
140.1622357294
 20
177.6597885511
 30
0.0
 11
37.9689596912
 21
-0.0
 31
0.0
 40
0.6808509827
 41
1.4706708078
 42
1.4770381278
  0
ELLIPSE
  5
525
100
AcDbEntity
  8
KONSTRUKTIONSELEMENTE
100
AcDbEllipse
 62
7
  6
CONTINUOUS
 10
134.2377919569
 20
177.6597885511
 30
0.0
 11
101.2501729363
 21
-0.0
 31
0.0
 40
0.2553200925
 41
1.4770381278
 42
1.4802203424
  0
ELLIPSE
  5
526
100
AcDbEntity
  8
KONSTRUKTIONSELEMENTE
100
AcDbEllipse
 62
7
  6
CONTINUOUS
 10
147.4940175931
 20
177.6597885511
 30
0.0
 11
50.6253761483
 21
0.0
 31
0.0
 40
0.510637263
 41
1.6613723112
 42
1.667737693
  0
ELLIPSE
  5
527
100
AcDbEntity
  8
KONSTRUKTIONSELEMENTE
100
AcDbEllipse
 62
7
  6
CONTINUOUS
 10
144.2273349412
 20
177.6597885511
 30
0.0
 11
0.0
 21
25.8512035166
 31
0.0
 40
0.6527753654
 41
0.0969413662
 42
0.1064969147
  0
ELLIPSE
  5
528
100
AcDbEntity
  8
KONSTRUKTIONSELEMENTE
100
AcDbEllipse
 62
7
  6
CONTINUOUS
 10
143.3304735243
 20
177.6597885511
 30
0.0
 11
-0.0
 21
25.8512035166
 31
0.0
 40
0.3263914179
 41
0.1064969147
 42
0.1160622345
  0
ELLIPSE
  5
529
100
AcDbEntity
  8
KONSTRUKTIONSELEMENTE
100
AcDbEllipse
 62
7
  6
CONTINUOUS
 10
135.6766454245
 20
177.6597885511
 30
0.0
 11
-0.0
 21
25.8512035166
 31
0.0
 40
0.1631938414
 41
0.0715008544
 42
0.0905759844
  0
ELLIPSE
  5
52A
100
AcDbEntity
  8
KONSTRUKTIONSELEMENTE
100
AcDbEllipse
 62
7
  6
CONTINUOUS
 10
136.5808116815
 20
177.6597885511
 30
0.0
 11
-0.0
 21
25.8512035166
 31
0.0
 40
0.6527769283
 41
6.3356370518
 42
6.3546861616
  0
ELLIPSE
  5
52B
100
AcDbEntity
  8
KONSTRUKTIONSELEMENTE
100
AcDbEllipse
 62
7
  6
CONTINUOUS
 10
137.6867157842
 20
177.6597885511
 30
0.0
 11
37.9689596912
 21
0.0
 31
0.0
 40
0.6808509827
 41
1.6169029445
 42
1.6232480715
  0
ELLIPSE
  5
52C
100
AcDbEntity
  8
KONSTRUKTIONSELEMENTE
100
AcDbEllipse
 62
7
  6
CONTINUOUS
 10
141.770053854
 20
177.6597885511
 30
0.0
 11
126.5632955308
 21
0.0
 31
0.0
 40
0.204255139
 41
1.6137310934
 42
1.6169029445
  0
ELLIPSE
  5
52D
100
AcDbEntity
  8
KONSTRUKTIONSELEMENTE
100
AcDbEllipse
 62
7
  6
CONTINUOUS
 10
130.9054614146
 20
177.6597885511
 30
0.0
 11
126.5632955308
 21
-0.0
 31
0.0
 40
0.204255139
 41
1.5246897091
 42
1.5278615602
  0
ELLIPSE
  5
52E
100
AcDbEntity
  8
KONSTRUKTIONSELEMENTE
100
AcDbEllipse
 62
7
  6
CONTINUOUS
 10
134.9887994843
 20
177.6597885511
 30
0.0
 11
37.9689596912
 21
0.0
 31
0.0
 40
0.6808509827
 41
1.5183445821
 42
1.5246897091
  0
ELLIPSE
  5
52F
100
AcDbEntity
  8
KONSTRUKTIONSELEMENTE
100
AcDbEllipse
 62
7
  6
CONTINUOUS
 10
136.094703587
 20
177.6597885511
 30
0.0
 11
-0.0
 21
25.8512035166
 31
0.0
 40
0.6527769283
 41
-0.0715008544
 42
-0.0524517447
  0
ELLIPSE
  5
530
100
AcDbEntity
  8
KONSTRUKTIONSELEMENTE
100
AcDbEllipse
 62
7
  6
CONTINUOUS
 10
136.998869844
 20
177.6597885511
 30
0.0
 11
0.0
 21
25.8512035166
 31
0.0
 40
0.1631938414
 41
-0.0905759844
 42
-0.0715008544
  0
ELLIPSE
  5
531
100
AcDbEntity
  8
KONSTRUKTIONSELEMENTE
100
AcDbEllipse
 62
7
  6
CONTINUOUS
 10
138.6900487808
 20
177.6597885511
 30
0.0
 11
6.1980524891
 21
25.1161026034
 31
0.0
 40
0.2143121354
 41
0.8224628661
 42
0.8341921536
  0
ELLIPSE
  5
532
100
AcDbEntity
  8
KONSTRUKTIONSELEMENTE
100
AcDbEllipse
 62
7
  6
CONTINUOUS
 10
129.5551819516
 20
177.6597885511
 30
0.0
 11
28.764360381
 21
-0.0
 31
0.0
 40
0.8987233915
 41
7.9445576183
 42
8.0148381695
  0
ELLIPSE
  5
533
100
AcDbEntity
  8
KONSTRUKTIONSELEMENTE
100
AcDbEllipse
 62
7
  6
CONTINUOUS
 10
138.6900487808
 20
177.6597885511
 30
0.0
 11
6.3705546415
 21
25.8151256863
 31
0.0
 40
0.2143121354
 41
0.8233628916
 42
0.8347743411
  0
ELLIPSE
  5
534
100
AcDbEntity
  8
KONSTRUKTIONSELEMENTE
100
AcDbEllipse
 62
7
  6
CONTINUOUS
 10
146.1049607952
 20
177.6597885511
 30
0.0
 11
0.0
 21
25.8512035166
 31
0.0
 40
0.4895870412
 41
6.4408325244
 42
6.4472528341
  0
ELLIPSE
  5
535
100
AcDbEntity
  8
KONSTRUKTIONSELEMENTE
100
AcDbEllipse
 62
7
  6
CONTINUOUS
 10
128.4797724553
 20
177.6597885511
 30
0.0
 11
0.0
 21
25.8512035166
 31
0.0
 40
0.6527781669
 41
0.0810347255
 42
0.0905759844
  0
ELLIPSE
  5
536
100
AcDbEntity
  8
KONSTRUKTIONSELEMENTE
100
AcDbEllipse
 62
7
  6
CONTINUOUS
 10
148.172117004
 20
177.6597885511
 30
0.0
 11
-0.0
 21
25.8512035166
 31
0.0
 40
0.9791629624
 41
0.1640675269
 42
0.1704946677
  0
ELLIPSE
  5
537
100
AcDbEntity
  8
KONSTRUKTIONSELEMENTE
100
AcDbEllipse
 62
7
  6
CONTINUOUS
 10
152.4669907283
 20
177.6597885511
 30
0.0
 11
50.6256613965
 21
0.0
 31
0.0
 40
0.5106343859
 41
1.7412909945
 42
1.7445072167
  0
ELLIPSE
  5
538
100
AcDbEntity
  8
KONSTRUKTIONSELEMENTE
100
AcDbEllipse
 62
7
  6
CONTINUOUS
 10
137.8369269462
 20
177.6597885511
 30
0.0
 11
-0.0
 21
25.8512035166
 31
0.0
 40
0.1958325548
 41
-0.1320286233
 42
-0.1160622345
  0
ELLIPSE
  5
539
100
AcDbEntity
  8
KONSTRUKTIONSELEMENTE
100
AcDbEllipse
 62
7
  6
CONTINUOUS
 10
127.6260385489
 20
177.6597885511
 30
0.0
 11
0.0
 21
25.8512035166
 31
0.0
 40
0.2447914624
 41
0.0683243865
 42
0.0810347255
  0
ELLIPSE
  5
53A
100
AcDbEntity
  8
KONSTRUKTIONSELEMENTE
100
AcDbEllipse
 62
7
  6
CONTINUOUS
 10
137.392622843
 20
177.6597885511
 30
0.0
 11
-0.0
 21
25.8512035166
 31
0.0
 40
0.3263876827
 41
-0.1416244643
 42
-0.1320286233
  0
ELLIPSE
  5
53B
100
AcDbEntity
  8
KONSTRUKTIONSELEMENTE
100
AcDbEllipse
 62
7
  6
CONTINUOUS
 10
136.7971290243
 20
177.6597885511
 30
0.0
 11
-0.0
 21
25.8512035166
 31
0.0
 40
0.4895842398
 41
-0.1544395355
 42
-0.1416244643
  0
ELLIPSE
  5
53C
100
AcDbEntity
  8
KONSTRUKTIONSELEMENTE
100
AcDbEllipse
 62
7
  6
CONTINUOUS
 10
134.8502576138
 20
177.6597885511
 30
0.0
 11
0.0
 21
25.8512035166
 31
0.0
 40
0.9791666691
 41
-0.1640675269
 42
-0.1544395355
  0
ELLIPSE
  5
53D
100
AcDbEntity
  8
KONSTRUKTIONSELEMENTE
100
AcDbEllipse
 62
7
  6
CONTINUOUS
 10
132.094002142
 20
177.6597885511
 30
0.0
 11
42.1877614836
 21
-0.0
 31
0.0
 40
0.6127654705
 41
1.3970854369
 42
1.4067287999
  0
ELLIPSE
  5
53E
100
AcDbEntity
  8
KONSTRUKTIONSELEMENTE
100
AcDbEllipse
 62
7
  6
CONTINUOUS
 10
113.1357238284
 20
177.6597885511
 30
0.0
 11
151.8755357888
 21
-0.0
 31
0.0
 40
0.1702130852
 41
1.3938673985
 42
1.3970854369
  0
ELLIPSE
  5
53F
100
AcDbEntity
  8
KONSTRUKTIONSELEMENTE
100
AcDbEllipse
 62
7
  6
CONTINUOUS
 10
166.5981745354
 20
177.6597885511
 30
0.0
 11
151.875825469
 21
0.0
 31
0.0
 40
0.1702127606
 41
1.7445072167
 42
1.7477252551
  0
ELLIPSE
  5
540
100
AcDbEntity
  8
KONSTRUKTIONSELEMENTE
100
AcDbEllipse
 62
7
  6
CONTINUOUS
 10
147.6398628432
 20
177.6597885511
 30
0.0
 11
42.1878580437
 21
-0.0
 31
0.0
 40
0.612764068
 41
1.7348638537
 42
1.7445072167
  0
ELLIPSE
  5
541
100
AcDbEntity
  8
KONSTRUKTIONSELEMENTE
100
AcDbEllipse
 62
7
  6
CONTINUOUS
 10
144.8835916
 20
177.6597885511
 30
0.0
 11
0.0
 21
25.8512035166
 31
0.0
 40
0.9791666691
 41
0.1544395355
 42
0.1640675269
  0
ELLIPSE
  5
542
100
AcDbEntity
  8
KONSTRUKTIONSELEMENTE
100
AcDbEllipse
 62
7
  6
CONTINUOUS
 10
142.9367090494
 20
177.6597885511
 30
0.0
 11
0.0
 21
25.8512035166
 31
0.0
 40
0.4895814384
 41
0.1416244643
 42
0.1544395355
  0
ELLIPSE
  5
543
100
AcDbEntity
  8
KONSTRUKTIONSELEMENTE
100
AcDbEllipse
 62
7
  6
CONTINUOUS
 10
142.3412390825
 20
177.6597885511
 30
0.0
 11
0.0
 21
25.8512035166
 31
0.0
 40
0.3263914179
 41
0.1320286233
 42
0.1416244643
  0
ELLIPSE
  5
544
100
AcDbEntity
  8
KONSTRUKTIONSELEMENTE
100
AcDbEllipse
 62
7
  6
CONTINUOUS
 10
141.8969146406
 20
177.6597885511
 30
0.0
 11
-0.0
 21
25.8512035166
 31
0.0
 40
0.1958303136
 41
0.1160622345
 42
0.1320286233
  0
ELLIPSE
  5
545
100
AcDbEntity
  8
KONSTRUKTIONSELEMENTE
100
AcDbEllipse
 62
7
  6
CONTINUOUS
 10
161.2168574961
 20
177.6597885511
 30
0.0
 11
101.2501640725
 21
0.0
 31
0.0
 40
0.2553201148
 41
1.7445072167
 42
1.7477252551
  0
ELLIPSE
  5
546
100
AcDbEntity
  8
KONSTRUKTIONSELEMENTE
100
AcDbEllipse
 62
7
  6
CONTINUOUS
 10
138.4694762007
 20
177.6597885511
 30
0.0
 11
15.9861538939
 21
24.4104747327
 31
0.0
 40
0.3790169418
 41
1.0246513568
 42
1.0402860854
  0
ELLIPSE
  5
547
100
AcDbEntity
  8
KONSTRUKTIONSELEMENTE
100
AcDbEllipse
 62
7
  6
CONTINUOUS
 10
138.4694762007
 20
177.6597885511
 30
0.0
 11
16.4310752559
 21
25.0898590135
 31
0.0
 40
0.3790169418
 41
1.0252335444
 42
1.0404448308
  0
ELLIPSE
  5
548
100
AcDbEntity
  8
KONSTRUKTIONSELEMENTE
100
AcDbEllipse
 62
7
  6
CONTINUOUS
 10
125.0939736914
 20
177.6597885511
 30
0.0
 11
101.2507434328
 21
-0.0
 31
0.0
 40
0.2553186539
 41
1.3938673985
 42
1.3970854369
  0
ELLIPSE
  5
549
100
AcDbEntity
  8
KONSTRUKTIONSELEMENTE
100
AcDbEllipse
 62
7
  6
CONTINUOUS
 10
136.0315077099
 20
177.6597885511
 30
0.0
 11
37.9689547053
 21
-0.0
 31
0.0
 40
0.6808510721
 41
1.3970854369
 42
1.4035161017
  0
ELLIPSE
  5
54A
100
AcDbEntity
  8
KONSTRUKTIONSELEMENTE
100
AcDbEllipse
 62
7
  6
CONTINUOUS
 10
138.3852576343
 20
177.6597885511
 30
0.0
 11
31.7262517523
 21
21.9849976464
 31
0.0
 40
0.3850597265
 41
1.3041783726
 42
1.3159032697
  0
ELLIPSE
  5
54B
100
AcDbEntity
  8
KONSTRUKTIONSELEMENTE
100
AcDbEllipse
 62
7
  6
CONTINUOUS
 10
138.1387992899
 20
177.6597885511
 30
0.0
 11
-0.0
 21
25.8512035166
 31
0.0
 40
0.9791666691
 41
-0.1672802251
 42
-0.1576472173
  0
ELLIPSE
  5
54C
100
AcDbEntity
  8
KONSTRUKTIONSELEMENTE
100
AcDbEllipse
 62
7
  6
CONTINUOUS
 10
140.1257630707
 20
177.6597885511
 30
0.0
 11
-0.0
 21
25.8512035166
 31
0.0
 40
0.4895871269
 41
-0.1576472173
 42
-0.1512334548
  0
ELLIPSE
  5
54D
100
AcDbEntity
  8
KONSTRUKTIONSELEMENTE
100
AcDbEllipse
 62
7
  6
CONTINUOUS
 10
138.3852576343
 20
177.6597885511
 30
0.0
 11
32.6092463259
 21
22.596876849
 31
0.0
 40
0.3850597265
 41
1.304337118
 42
1.3157445243
  0
ELLIPSE
  5
54E
100
AcDbEntity
  8
KONSTRUKTIONSELEMENTE
100
AcDbEllipse
 62
7
  6
CONTINUOUS
 10
138.9146333686
 20
177.6597885511
 30
0.0
 11
123.1095603801
 21
18.4518152886
 31
0.0
 40
0.1388302391
 41
1.5558537273
 42
1.5597621258
  0
ELLIPSE
  5
54F
100
AcDbEntity
  8
KONSTRUKTIONSELEMENTE
100
AcDbEllipse
 62
7
  6
CONTINUOUS
 10
141.079177868
 20
177.6597885511
 30
0.0
 11
0.0
 21
25.8512035166
 31
0.0
 40
0.2447879178
 41
-0.1512334548
 42
-0.1384244362
  0
ELLIPSE
  5
550
100
AcDbEntity
  8
KONSTRUKTIONSELEMENTE
100
AcDbEllipse
 62
7
  6
CONTINUOUS
 10
138.9146333686
 20
177.6597885511
 30
0.0
 11
126.5359050562
 21
18.9653601253
 31
0.0
 40
0.1388302391
 41
1.5556949819
 42
1.5594975423
  0
ELLIPSE
  5
551
100
AcDbEntity
  8
KONSTRUKTIONSELEMENTE
100
AcDbEllipse
 62
7
  6
CONTINUOUS
 10
139.2058158463
 20
177.6597885511
 30
0.0
 11
0.0
 21
25.8512035166
 31
0.0
 40
0.163195709
 41
0.0715008544
 42
0.0905759844
  0
ELLIPSE
  5
552
100
AcDbEntity
  8
KONSTRUKTIONSELEMENTE
100
AcDbEllipse
 62
7
  6
CONTINUOUS
 10
140.1099786541
 20
177.6597885511
 30
0.0
 11
0.0
 21
25.8512035166
 31
0.0
 40
0.6527769283
 41
6.3356370518
 42
6.3546861616
  0
ELLIPSE
  5
553
100
AcDbEntity
  8
KONSTRUKTIONSELEMENTE
100
AcDbEllipse
 62
7
  6
CONTINUOUS
 10
141.2158827568
 20
177.6597885511
 30
0.0
 11
37.9689596912
 21
0.0
 31
0.0
 40
0.6808509827
 41
1.6169029445
 42
1.6232480715
  0
ELLIPSE
  5
554
100
AcDbEntity
  8
KONSTRUKTIONSELEMENTE
100
AcDbEllipse
 62
7
  6
CONTINUOUS
 10
145.2992074752
 20
177.6597885511
 30
0.0
 11
126.5630058506
 21
0.0
 31
0.0
 40
0.2042556065
 41
1.6137310934
 42
1.6169029445
  0
ELLIPSE
  5
555
100
AcDbEntity
  8
KONSTRUKTIONSELEMENTE
100
AcDbEllipse
 62
7
  6
CONTINUOUS
 10
134.4346150357
 20
177.6597885511
 30
0.0
 11
126.5635852109
 21
0.0
 31
0.0
 40
0.2042546715
 41
1.5246897091
 42
1.5278615602
  0
ELLIPSE
  5
556
100
AcDbEntity
  8
KONSTRUKTIONSELEMENTE
100
AcDbEllipse
 62
7
  6
CONTINUOUS
 10
138.517966457
 20
177.6597885511
 30
0.0
 11
37.9689596912
 21
0.0
 31
0.0
 40
0.6808509827
 41
1.5183445821
 42
1.5246897091
  0
ELLIPSE
  5
557
100
AcDbEntity
  8
KONSTRUKTIONSELEMENTE
100
AcDbEllipse
 62
7
  6
CONTINUOUS
 10
139.6238730909
 20
177.6597885511
 30
0.0
 11
0.0
 21
25.8512035166
 31
0.0
 40
0.6527750607
 41
-0.0715008544
 42
-0.0524517447
  0
ELLIPSE
  5
558
100
AcDbEntity
  8
KONSTRUKTIONSELEMENTE
100
AcDbEllipse
 62
7
  6
CONTINUOUS
 10
140.5280324496
 20
177.6597885511
 30
0.0
 11
0.0
 21
25.8512035166
 31
0.0
 40
0.163195709
 41
-0.0905759844
 42
-0.0715008544
  0
ELLIPSE
  5
559
100
AcDbEntity
  8
KONSTRUKTIONSELEMENTE
100
AcDbEllipse
 62
7
  6
CONTINUOUS
 10
125.8328967022
 20
177.6597885511
 30
0.0
 11
-0.0
 21
25.8512035166
 31
0.0
 40
0.6527779334
 41
0.0524517447
 42
0.0619734803
  0
ELLIPSE
  5
55A
100
AcDbEntity
  8
KONSTRUKTIONSELEMENTE
100
AcDbEllipse
 62
7
  6
CONTINUOUS
 10
126.9387994426
 20
177.6597885511
 30
0.0
 11
37.9689596912
 21
-0.0
 31
0.0
 40
0.6808509827
 41
1.6169029445
 42
1.6232480715
  0
ELLIPSE
  5
55B
100
AcDbEntity
  8
0
100
AcDbEllipse
 62
7
  6
CONTINUOUS
 10
121.5065076343
 20
82.8915881928
 30
0.0
 11
4.9
 21
-0.0
 31
0.0
 40
0.8390996312
 41
-3.1415926536
 42
-1.5707963268
  0
ELLIPSE
  5
55C
100
AcDbEntity
  8
KONSTRUKTIONSELEMENTE
100
AcDbEllipse
 62
7
  6
CONTINUOUS
 10
121.5065076343
 20
127.1684118072
 30
0.0
 11
4.9
 21
0.0
 31
0.0
 40
0.8390996312
 41
1.5707963268
 42
3.1415926536
  0
ELLIPSE
  5
55D
100
AcDbEntity
  8
KONSTRUKTIONSELEMENTE
100
AcDbEllipse
 62
7
  6
CONTINUOUS
 10
140.1177573589
 20
105.03
 30
0.0
 11
-3.0357185721
 21
25.8487096796
 31
0.0
 40
0.1182816643
 41
-4.0129047285
 42
-3.833950953
  0
ELLIPSE
  5
55E
100
AcDbEntity
  8
KONSTRUKTIONSELEMENTE
100
AcDbEllipse
 62
7
  6
CONTINUOUS
 10
153.7065076343
 20
127.1684118072
 30
0.0
 11
4.9
 21
0.0
 31
0.0
 40
0.8390996312
 41
-0.0
 42
1.5707963268
  0
ELLIPSE
  5
55F
100
AcDbEntity
  8
KONSTRUKTIONSELEMENTE
100
AcDbEllipse
 62
7
  6
CONTINUOUS
 10
143.9677578179
 20
105.03
 30
0.0
 11
3.0357208042
 21
25.8487096725
 31
0.0
 40
0.1182817466
 41
-2.4492343343
 42
-2.2702805588
  0
ELLIPSE
  5
560
100
AcDbEntity
  8
KONSTRUKTIONSELEMENTE
100
AcDbEllipse
 62
7
  6
CONTINUOUS
 10
142.3365735241
 20
105.03
 30
0.0
 11
-3.7824408652
 21
25.8453655547
 31
0.0
 40
0.1452410374
 41
-3.985953672
 42
-3.8413133027
  0
ELLIPSE
  5
561
100
AcDbEntity
  8
KONSTRUKTIONSELEMENTE
100
AcDbEllipse
 62
7
  6
CONTINUOUS
 10
141.7489420584
 20
105.03
 30
0.0
 11
3.7824465043
 21
25.8453655212
 31
0.0
 40
0.1452412364
 41
-2.4418719437
 42
-2.2972315744
  0
ELLIPSE
  5
562
100
AcDbEntity
  8
KONSTRUKTIONSELEMENTE
100
AcDbEllipse
 62
7
  6
CONTINUOUS
 10
138.7863001557
 20
105.03
 30
0.0
 11
-6.1758431827
 21
25.8145893485
 31
0.0
 40
0.2227049523
 41
-4.021738922
 42
-4.0103153169
  0
ELLIPSE
  5
563
100
AcDbEntity
  8
KONSTRUKTIONSELEMENTE
100
AcDbEllipse
 62
7
  6
CONTINUOUS
 10
139.7808812976
 20
105.03
 30
0.0
 11
23.19122004
 21
-23.9048205301
 31
0.0
 40
0.4243394292
 41
-1.2250648408
 42
-1.2174449137
  0
ELLIPSE
  5
564
100
AcDbEntity
  8
KONSTRUKTIONSELEMENTE
100
AcDbEllipse
 62
7
  6
CONTINUOUS
 10
143.1496334432
 20
105.03
 30
0.0
 11
75.8107349488
 21
-19.0034883849
 31
0.0
 40
0.2311777724
 41
-1.583315144
 42
-1.5795037556
  0
ELLIPSE
  5
565
100
AcDbEntity
  8
KONSTRUKTIONSELEMENTE
100
AcDbEllipse
 62
7
  6
CONTINUOUS
 10
138.6900487808
 20
105.03
 30
0.0
 11
6.1758431827
 21
25.8145893485
 31
0.0
 40
0.2227049523
 41
-2.2995035278
 42
-2.2880920783
  0
ELLIPSE
  5
566
100
AcDbEntity
  8
KONSTRUKTIONSELEMENTE
100
AcDbEllipse
 62
7
  6
CONTINUOUS
 10
138.4694762007
 20
105.03
 30
0.0
 11
16.1679215731
 21
25.0401200104
 31
0.0
 40
0.3973749296
 41
-2.1167846489
 42
-2.1015733625
  0
ELLIPSE
  5
567
100
AcDbEntity
  8
KONSTRUKTIONSELEMENTE
100
AcDbEllipse
 62
7
  6
CONTINUOUS
 10
138.3852576343
 20
105.03
 30
0.0
 11
32.5301938299
 21
22.2631908832
 31
0.0
 40
0.4039037103
 41
-1.8461913276
 42
-1.8347839213
  0
ELLIPSE
  5
568
100
AcDbEntity
  8
KONSTRUKTIONSELEMENTE
100
AcDbEllipse
 62
7
  6
CONTINUOUS
 10
138.9146333686
 20
105.03
 30
0.0
 11
126.5357452586
 21
18.3418311751
 31
0.0
 40
0.1439678452
 41
-1.6011682411
 42
-1.5973656808
  0
ELLIPSE
  5
569
100
AcDbEntity
  8
0
100
AcDbEllipse
 62
7
  6
CONTINUOUS
 10
153.7065076343
 20
82.8915881928
 30
0.0
 11
4.9
 21
0.0
 31
0.0
 40
0.8390996312
 41
-1.5707963268
 42
-0.0
  0
ELLIPSE
  5
56A
100
AcDbEntity
  8
KONSTRUKTIONSELEMENTE
100
AcDbEllipse
 62
7
  6
CONTINUOUS
 10
131.1967691705
 20
105.03
 30
0.0
 11
-4.5303230511
 21
25.8395947426
 31
0.0
 40
0.170989966
 41
-0.8443096719
 42
-0.8281660452
  0
ELLIPSE
  5
56B
100
AcDbEntity
  8
KONSTRUKTIONSELEMENTE
100
AcDbEllipse
 62
7
  6
CONTINUOUS
 10
130.7076179834
 20
105.03
 30
0.0
 11
-13.9386976109
 21
25.3150807719
 31
0.0
 40
0.3757524832
 41
-1.0304693946
 42
-1.018353948
  0
ELLIPSE
  5
56C
100
AcDbEntity
  8
KONSTRUKTIONSELEMENTE
100
AcDbEllipse
 62
7
  6
CONTINUOUS
 10
129.4741117614
 20
105.03
 30
0.0
 11
37.0534268623
 21
-21.5837409522
 31
0.0
 40
0.3839774133
 41
1.7242506122
 42
1.7323322383
  0
ELLIPSE
  5
56D
100
AcDbEntity
  8
KONSTRUKTIONSELEMENTE
100
AcDbEllipse
 62
7
  6
CONTINUOUS
 10
125.2631799718
 20
105.03
 30
0.0
 11
101.1966578922
 21
-18.5543673356
 31
0.0
 40
0.1778770249
 41
1.5327639795
 42
1.5368063935
  0
ELLIPSE
  5
56E
100
AcDbEntity
  8
KONSTRUKTIONSELEMENTE
100
AcDbEllipse
 62
7
  6
CONTINUOUS
 10
130.6225502459
 20
105.03
 30
0.0
 11
3.585909274
 21
25.8464487921
 31
0.0
 40
0.1382607132
 41
0.7366920395
 42
0.7568732994
  0
ELLIPSE
  5
56F
100
AcDbEntity
  8
KONSTRUKTIONSELEMENTE
100
AcDbEllipse
 62
7
  6
CONTINUOUS
 10
130.2397356242
 20
105.03
 30
0.0
 11
9.8066094146
 21
25.6698707116
 31
0.0
 40
0.3116820319
 41
0.8198660873
 42
0.8360255184
  0
ELLIPSE
  5
570
100
AcDbEntity
  8
KONSTRUKTIONSELEMENTE
100
AcDbEllipse
 62
7
  6
CONTINUOUS
 10
129.3975512297
 20
105.03
 30
0.0
 11
23.1912175504
 21
23.9048209757
 31
0.0
 40
0.4243394281
 41
1.0757038141
 42
1.0918806792
  0
ELLIPSE
  5
571
100
AcDbEntity
  8
KONSTRUKTIONSELEMENTE
100
AcDbEllipse
 62
7
  6
CONTINUOUS
 10
127.3048450083
 20
105.03
 30
0.0
 11
50.2073015497
 21
20.1940044004
 31
0.0
 40
0.3214593567
 41
1.3513494589
 42
1.3594457737
  0
ELLIPSE
  5
572
100
AcDbEntity
  8
KONSTRUKTIONSELEMENTE
100
AcDbEllipse
 62
7
  6
CONTINUOUS
 10
120.4142064365
 20
105.03
 30
0.0
 11
126.5357341715
 21
18.3418312417
 31
0.0
 40
0.1439678573
 41
1.4550150707
 42
1.4590654354
  0
ELLIPSE
  5
573
100
AcDbEntity
  8
KONSTRUKTIONSELEMENTE
100
AcDbEllipse
 62
7
  6
CONTINUOUS
 10
135.5225487856
 20
105.03
 30
0.0
 11
3.5859305775
 21
25.8464486832
 31
0.0
 40
0.1382614744
 41
0.736692259
 42
0.756873519
  0
ELLIPSE
  5
574
100
AcDbEntity
  8
KONSTRUKTIONSELEMENTE
100
AcDbEllipse
 62
7
  6
CONTINUOUS
 10
135.1397374496
 20
105.03
 30
0.0
 11
9.806576089
 21
25.6698727244
 31
0.0
 40
0.3116813673
 41
0.8198654288
 42
0.8360248598
  0
ELLIPSE
  5
575
100
AcDbEntity
  8
KONSTRUKTIONSELEMENTE
100
AcDbEllipse
 62
7
  6
CONTINUOUS
 10
134.297548236
 20
105.03
 30
0.0
 11
23.191258232
 21
23.9048136935
 31
0.0
 40
0.4243394465
 41
1.0757045541
 42
1.0918814192
  0
ELLIPSE
  5
576
100
AcDbEntity
  8
KONSTRUKTIONSELEMENTE
100
AcDbEllipse
 62
7
  6
CONTINUOUS
 10
132.204839021
 20
105.03
 30
0.0
 11
50.2073756771
 21
20.1939986692
 31
0.0
 40
0.3214590249
 41
1.351349814
 42
1.3594461288
  0
ELLIPSE
  5
577
100
AcDbEntity
  8
KONSTRUKTIONSELEMENTE
100
AcDbEllipse
 62
7
  6
CONTINUOUS
 10
125.3142201634
 20
105.03
 30
0.0
 11
126.5355892368
 21
18.341832112
 31
0.0
 40
0.1439680153
 41
1.4550150229
 42
1.4590653876
  0
ELLIPSE
  5
578
100
AcDbEntity
  8
KONSTRUKTIONSELEMENTE
100
AcDbEllipse
 62
7
  6
CONTINUOUS
 10
149.7121286331
 20
105.03
 30
0.0
 11
126.5355892368
 21
-18.341832112
 31
0.0
 40
0.1439680153
 41
1.682527266
 42
1.6865776306
  0
ELLIPSE
  5
579
100
AcDbEntity
  8
KONSTRUKTIONSELEMENTE
100
AcDbEllipse
 62
7
  6
CONTINUOUS
 10
142.8215097756
 20
105.03
 30
0.0
 11
50.2073756771
 21
-20.1939986692
 31
0.0
 40
0.3214590249
 41
1.7821465248
 42
1.7902428396
  0
ELLIPSE
  5
57A
100
AcDbEntity
  8
KONSTRUKTIONSELEMENTE
100
AcDbEllipse
 62
7
  6
CONTINUOUS
 10
140.7287975669
 20
105.03
 30
0.0
 11
23.1912175504
 21
-23.9048209757
 31
0.0
 40
0.4243394281
 41
2.0497119744
 42
2.0658888395
  0
ELLIPSE
  5
57B
100
AcDbEntity
  8
KONSTRUKTIONSELEMENTE
100
AcDbEllipse
 62
7
  6
CONTINUOUS
 10
139.8866119676
 20
105.03
 30
0.0
 11
-9.8065927518
 21
25.669871718
 31
0.0
 40
0.3116816996
 41
-0.8360251891
 42
-0.819865758
  0
ELLIPSE
  5
57C
100
AcDbEntity
  8
KONSTRUKTIONSELEMENTE
100
AcDbEllipse
 62
7
  6
CONTINUOUS
 10
139.503799719
 20
105.03
 30
0.0
 11
-3.5859305775
 21
25.8464486832
 31
0.0
 40
0.1382614744
 41
-0.756873519
 42
-0.736692259
  0
ELLIPSE
  5
57D
100
AcDbEntity
  8
KONSTRUKTIONSELEMENTE
100
AcDbEllipse
 62
7
  6
CONTINUOUS
 10
140.4565774864
 20
105.03
 30
0.0
 11
-6.1758237692
 21
25.8145897658
 31
0.0
 40
0.2227043841
 41
-0.8837245682
 42
-0.8716064644
  0
ELLIPSE
  5
57E
100
AcDbEntity
  8
KONSTRUKTIONSELEMENTE
100
AcDbEllipse
 62
7
  6
CONTINUOUS
 10
139.4017149271
 20
105.03
 30
0.0
 11
23.1912607216
 21
-23.9048132479
 31
0.0
 40
0.4243394476
 41
1.9124846582
 42
1.9205683966
  0
ELLIPSE
  5
57F
100
AcDbEntity
  8
KONSTRUKTIONSELEMENTE
100
AcDbEllipse
 62
7
  6
CONTINUOUS
 10
135.8287985404
 20
105.03
 30
0.0
 11
75.8107349488
 21
-19.0034883849
 31
0.0
 40
0.2311777724
 41
1.5540029129
 42
1.5580464833
  0
ELLIPSE
  5
580
100
AcDbEntity
  8
KONSTRUKTIONSELEMENTE
100
AcDbEllipse
 62
7
  6
CONTINUOUS
 10
140.5586602336
 20
105.03
 30
0.0
 11
6.1758237692
 21
25.8145897658
 31
0.0
 40
0.2227043841
 41
0.8433565995
 42
0.8554601961
  0
ELLIPSE
  5
581
100
AcDbEntity
  8
KONSTRUKTIONSELEMENTE
100
AcDbEllipse
 62
7
  6
CONTINUOUS
 10
140.7926013843
 20
105.03
 30
0.0
 11
16.1679215731
 21
25.0401200104
 31
0.0
 40
0.3973749296
 41
1.0251536877
 42
1.0412870682
  0
ELLIPSE
  5
582
100
AcDbEntity
  8
KONSTRUKTIONSELEMENTE
100
AcDbEllipse
 62
7
  6
CONTINUOUS
 10
140.9840075613
 20
105.03
 30
0.0
 11
50.2073454181
 21
20.1940010087
 31
0.0
 40
0.3214591604
 41
1.4401984549
 42
1.4482642922
  0
ELLIPSE
  5
583
100
AcDbEntity
  8
KONSTRUKTIONSELEMENTE
100
AcDbEllipse
 62
7
  6
CONTINUOUS
 10
141.7958132197
 20
105.03
 30
0.0
 11
-7.1635260702
 21
25.7889422014
 31
0.0
 40
0.2503087486
 41
-0.8272802699
 42
-0.742447088
  0
ELLIPSE
  5
584
100
AcDbEntity
  8
KONSTRUKTIONSELEMENTE
100
AcDbEllipse
 62
7
  6
CONTINUOUS
 10
130.1631700356
 20
105.03
 30
0.0
 11
101.1968029629
 21
18.5543656576
 31
0.0
 40
0.177876787
 41
1.4675598225
 42
1.4716022364
  0
ELLIPSE
  5
585
100
AcDbEntity
  8
KONSTRUKTIONSELEMENTE
100
AcDbEllipse
 62
7
  6
CONTINUOUS
 10
134.3741121692
 20
105.03
 30
0.0
 11
36.0500788469
 21
20.999297386
 31
0.0
 40
0.3839774797
 41
1.2823015588
 42
1.290609034
  0
ELLIPSE
  5
586
100
AcDbEntity
  8
KONSTRUKTIONSELEMENTE
100
AcDbEllipse
 62
7
  6
CONTINUOUS
 10
134.3741121692
 20
105.03
 30
0.0
 11
37.05341275
 21
21.5837429041
 31
0.0
 40
0.3839774797
 41
1.2841577873
 42
1.2922394164
  0
ELLIPSE
  5
587
100
AcDbEntity
  8
KONSTRUKTIONSELEMENTE
100
AcDbEllipse
 62
7
  6
CONTINUOUS
 10
135.6076193964
 20
105.03
 30
0.0
 11
13.5612322281
 21
24.6296015574
 31
0.0
 40
0.375752096
 41
0.911817438
 42
0.9242710392
  0
ELLIPSE
  5
588
100
AcDbEntity
  8
KONSTRUKTIONSELEMENTE
100
AcDbEllipse
 62
7
  6
CONTINUOUS
 10
135.6076193964
 20
105.03
 30
0.0
 11
13.9386639702
 21
25.3150845038
 31
0.0
 40
0.375752096
 41
0.9134478204
 42
0.9255632557
  0
ELLIPSE
  5
589
100
AcDbEntity
  8
KONSTRUKTIONSELEMENTE
100
AcDbEllipse
 62
7
  6
CONTINUOUS
 10
136.0967674554
 20
105.03
 30
0.0
 11
4.4076774636
 21
25.139908827
 31
0.0
 40
0.1709908861
 41
0.7502278184
 42
0.7668214478
  0
ELLIPSE
  5
58A
100
AcDbEntity
  8
KONSTRUKTIONSELEMENTE
100
AcDbEllipse
 62
7
  6
CONTINUOUS
 10
136.0967674554
 20
105.03
 30
0.0
 11
4.5303504889
 21
25.8395944769
 31
0.0
 40
0.1709908861
 41
0.751520035
 42
0.7676636616
  0
ELLIPSE
  5
58B
100
AcDbEntity
  8
KONSTRUKTIONSELEMENTE
100
AcDbEllipse
 62
7
  6
CONTINUOUS
 10
142.9303967641
 20
105.03
 30
0.0
 11
-3.8938182456
 21
25.1441519904
 31
0.0
 40
0.1529430783
 41
-4.0251919596
 42
-3.8843449142
  0
ELLIPSE
  5
58C
100
AcDbEntity
  8
KONSTRUKTIONSELEMENTE
100
AcDbEllipse
 62
7
  6
CONTINUOUS
 10
142.9303967641
 20
105.03
 30
0.0
 11
-4.0021897106
 21
25.8439557346
 31
0.0
 40
0.1529430783
 41
-4.0226947188
 42
-3.8856693093
  0
ELLIPSE
  5
58D
100
AcDbEntity
  8
KONSTRUKTIONSELEMENTE
100
AcDbEllipse
 62
7
  6
CONTINUOUS
 10
143.3982788338
 20
105.03
 30
0.0
 11
2.8903169547
 21
25.1489732497
 31
0.0
 40
0.1158824589
 41
-2.4092033672
 42
-2.2683563218
  0
ELLIPSE
  5
58E
100
AcDbEntity
  8
KONSTRUKTIONSELEMENTE
100
AcDbEllipse
 62
7
  6
CONTINUOUS
 10
143.3982788338
 20
105.03
 30
0.0
 11
2.9707593028
 21
25.8489111776
 31
0.0
 40
0.1158824589
 41
-2.4078789721
 42
-2.2708535626
  0
ELLIPSE
  5
58F
100
AcDbEntity
  8
KONSTRUKTIONSELEMENTE
100
AcDbEllipse
 62
7
  6
CONTINUOUS
 10
142.5662993983
 20
105.03
 30
0.0
 11
73.7579286093
 21
18.4889111096
 31
0.0
 40
0.2311777724
 41
1.527420202
 42
1.5315659167
  0
ELLIPSE
  5
590
100
AcDbEntity
  8
KONSTRUKTIONSELEMENTE
100
AcDbEllipse
 62
7
  6
CONTINUOUS
 10
142.5662993983
 20
105.03
 30
0.0
 11
75.8107349488
 21
19.0034883849
 31
0.0
 40
0.2311777724
 41
1.5270273136
 42
1.5310607407
  0
ELLIPSE
  5
591
100
AcDbEntity
  8
KONSTRUKTIONSELEMENTE
100
AcDbEllipse
 62
7
  6
CONTINUOUS
 10
141.6475496173
 20
105.03
 30
0.0
 11
22.563286767
 21
23.2575176872
 31
0.0
 40
0.4243394476
 41
1.1771277418
 42
1.1854202046
  0
ELLIPSE
  5
592
100
AcDbEntity
  8
KONSTRUKTIONSELEMENTE
100
AcDbEllipse
 62
7
  6
CONTINUOUS
 10
141.6475496173
 20
105.03
 30
0.0
 11
23.1912607216
 21
23.9048132479
 31
0.0
 40
0.4243394476
 41
1.1766225658
 42
1.1846903717
  0
ELLIPSE
  5
593
100
AcDbEntity
  8
KONSTRUKTIONSELEMENTE
100
AcDbEllipse
 62
7
  6
CONTINUOUS
 10
141.2051879789
 20
105.03
 30
0.0
 11
6.0085945477
 21
25.1155811946
 31
0.0
 40
0.2227043841
 41
7.1313058231
 42
7.1361775947
  0
ELLIPSE
  5
594
100
AcDbEntity
  8
KONSTRUKTIONSELEMENTE
100
AcDbEllipse
 62
7
  6
CONTINUOUS
 10
141.2051879789
 20
105.03
 30
0.0
 11
6.1758237692
 21
25.8145897658
 31
0.0
 40
0.2227043841
 41
0.8473906829
 42
0.8594957575
  0
ELLIPSE
  5
595
100
AcDbEntity
  8
KONSTRUKTIONSELEMENTE
100
AcDbEllipse
 62
7
  6
CONTINUOUS
 10
136.7971326343
 20
105.03
 30
0.0
 11
73.7579286093
 21
18.4889111096
 31
0.0
 40
0.2311777724
 41
-1.6150015624
 42
-1.6110928056
  0
ELLIPSE
  5
596
100
AcDbEntity
  8
KONSTRUKTIONSELEMENTE
100
AcDbEllipse
 62
7
  6
CONTINUOUS
 10
125.2631802578
 20
105.03
 30
0.0
 11
98.45645044
 21
18.0519513794
 31
0.0
 40
0.1778770249
 41
1.4655904395
 42
1.4697459146
  0
ELLIPSE
  5
597
100
AcDbEntity
  8
KONSTRUKTIONSELEMENTE
100
AcDbEllipse
 62
7
  6
CONTINUOUS
 10
125.2631802578
 20
105.03
 30
0.0
 11
101.1966578922
 21
18.5543673356
 31
0.0
 40
0.1778770249
 41
1.4675597292
 42
1.4716021432
  0
ELLIPSE
  5
598
100
AcDbEntity
  8
KONSTRUKTIONSELEMENTE
100
AcDbEllipse
 62
7
  6
CONTINUOUS
 10
136.7971326343
 20
105.03
 30
0.0
 11
75.8107349488
 21
19.0034883849
 31
0.0
 40
0.2311777724
 41
-1.6153719958
 42
-1.6115691055
  0
ELLIPSE
  5
599
100
AcDbEntity
  8
KONSTRUKTIONSELEMENTE
100
AcDbEllipse
 62
7
  6
CONTINUOUS
 10
129.6017122499
 20
105.03
 30
0.0
 11
123.1093344045
 21
-17.8451707055
 31
0.0
 40
0.1439679242
 41
1.4940964413
 42
1.498260554
  0
ELLIPSE
  5
59A
100
AcDbEntity
  8
KONSTRUKTIONSELEMENTE
100
AcDbEllipse
 62
7
  6
CONTINUOUS
 10
129.4741127534
 20
105.03
 30
0.0
 11
36.0500788469
 21
20.999297386
 31
0.0
 40
0.3839774797
 41
1.2823015588
 42
1.290609034
  0
ELLIPSE
  5
59B
100
AcDbEntity
  8
KONSTRUKTIONSELEMENTE
100
AcDbEllipse
 62
7
  6
CONTINUOUS
 10
129.6017122499
 20
105.03
 30
0.0
 11
126.5356727913
 21
-18.3418316103
 31
0.0
 40
0.1439679242
 41
1.4967463999
 42
1.5007967642
  0
ELLIPSE
  5
59C
100
AcDbEntity
  8
KONSTRUKTIONSELEMENTE
100
AcDbEllipse
 62
7
  6
CONTINUOUS
 10
138.0235912191
 20
105.03
 30
0.0
 11
31.6493652958
 21
-21.6603431299
 31
0.0
 40
0.4039036057
 41
1.7470858552
 42
1.7595687469
  0
ELLIPSE
  5
59D
100
AcDbEntity
  8
KONSTRUKTIONSELEMENTE
100
AcDbEllipse
 62
7
  6
CONTINUOUS
 10
138.0235912191
 20
105.03
 30
0.0
 11
32.5302199909
 21
-22.2631866551
 31
0.0
 40
0.4039036057
 41
1.7496220653
 42
1.7617644642
  0
ELLIPSE
  5
59E
100
AcDbEntity
  8
KONSTRUKTIONSELEMENTE
100
AcDbEllipse
 62
7
  6
CONTINUOUS
 10
129.4741127534
 20
105.03
 30
0.0
 11
37.05341275
 21
21.5837429041
 31
0.0
 40
0.3839774797
 41
1.2841577873
 42
1.2922394164
  0
ELLIPSE
  5
59F
100
AcDbEntity
  8
KONSTRUKTIONSELEMENTE
100
AcDbEllipse
 62
7
  6
CONTINUOUS
 10
139.1847886698
 20
105.03
 30
0.0
 11
-15.7301258978
 21
24.3620825644
 31
0.0
 40
0.3973749296
 41
-1.1000228573
 42
-1.0833982985
  0
ELLIPSE
  5
5A0
100
AcDbEntity
  8
KONSTRUKTIONSELEMENTE
100
AcDbEllipse
 62
7
  6
CONTINUOUS
 10
139.1847886698
 20
105.03
 30
0.0
 11
-16.1679215731
 21
25.0401200104
 31
0.0
 40
0.3973749296
 41
-1.09782714
 42
-1.081655037
  0
ELLIPSE
  5
5A1
100
AcDbEntity
  8
KONSTRUKTIONSELEMENTE
100
AcDbEllipse
 62
7
  6
CONTINUOUS
 10
137.6633830473
 20
105.03
 30
0.0
 11
22.5632471869
 21
23.2575247723
 31
0.0
 40
0.4243394292
 41
-1.9655317205
 42
-1.9577133408
  0
ELLIPSE
  5
5A2
100
AcDbEntity
  8
KONSTRUKTIONSELEMENTE
100
AcDbEllipse
 62
7
  6
CONTINUOUS
 10
130.7076171573
 20
105.03
 30
0.0
 11
13.5612808166
 21
24.6295961673
 31
0.0
 40
0.3757526709
 41
0.9118184958
 42
0.924272097
  0
ELLIPSE
  5
5A3
100
AcDbEntity
  8
KONSTRUKTIONSELEMENTE
100
AcDbEllipse
 62
7
  6
CONTINUOUS
 10
139.8440774864
 20
105.03
 30
0.0
 11
-6.0085945477
 21
25.1155811946
 31
0.0
 40
0.2227043841
 41
-0.8854678297
 42
-0.8730113303
  0
ELLIPSE
  5
5A4
100
AcDbEntity
  8
KONSTRUKTIONSELEMENTE
100
AcDbEllipse
 62
7
  6
CONTINUOUS
 10
139.8440774864
 20
105.03
 30
0.0
 11
-6.1758237692
 21
25.8145897658
 31
0.0
 40
0.2227043841
 41
-0.8837245682
 42
-0.8716064644
  0
ELLIPSE
  5
5A5
100
AcDbEntity
  8
KONSTRUKTIONSELEMENTE
100
AcDbEllipse
 62
7
  6
CONTINUOUS
 10
130.7076171573
 20
105.03
 30
0.0
 11
13.938713911
 21
25.3150789636
 31
0.0
 40
0.3757526709
 41
0.9134488782
 42
0.9255643135
  0
ELLIPSE
  5
5A6
100
AcDbEntity
  8
KONSTRUKTIONSELEMENTE
100
AcDbEllipse
 62
7
  6
CONTINUOUS
 10
137.6633830473
 20
105.03
 30
0.0
 11
23.19122004
 21
23.9048205301
 31
0.0
 40
0.4243394292
 41
-1.9660080204
 42
-1.9584014421
  0
ELLIPSE
  5
5A7
100
AcDbEntity
  8
KONSTRUKTIONSELEMENTE
100
AcDbEllipse
 62
7
  6
CONTINUOUS
 10
131.1967691348
 20
105.03
 30
0.0
 11
4.4076507688
 21
25.1399090854
 31
0.0
 40
0.170989966
 41
0.7502274756
 42
0.766821105
  0
ELLIPSE
  5
5A8
100
AcDbEntity
  8
KONSTRUKTIONSELEMENTE
100
AcDbEllipse
 62
7
  6
CONTINUOUS
 10
131.1967691348
 20
105.03
 30
0.0
 11
4.5303230511
 21
25.8395947426
 31
0.0
 40
0.170989966
 41
0.7515196921
 42
0.7676633188
  0
ELLIPSE
  5
5A9
100
AcDbEntity
  8
KONSTRUKTIONSELEMENTE
100
AcDbEllipse
 62
7
  6
CONTINUOUS
 10
138.0804653863
 20
105.03
 30
0.0
 11
6.0086134355
 21
25.1155807886
 31
0.0
 40
0.2227049523
 41
-2.2950119862
 42
-2.2912405118
  0
ELLIPSE
  5
5AA
100
AcDbEntity
  8
KONSTRUKTIONSELEMENTE
100
AcDbEllipse
 62
7
  6
CONTINUOUS
 10
138.0804653863
 20
105.03
 30
0.0
 11
6.1758431827
 21
25.8145893485
 31
0.0
 40
0.2227049523
 41
-2.2957000874
 42
-2.2842873993
  0
ELLIPSE
  5
5AB
100
AcDbEntity
  8
KONSTRUKTIONSELEMENTE
100
AcDbEllipse
 62
7
  6
CONTINUOUS
 10
141.1060636939
 20
105.03
 30
0.0
 11
-7.1833427959
 21
25.0838354318
 31
0.0
 40
0.2560966398
 41
-0.8146669334
 42
-0.7435875057
  0
ELLIPSE
  5
5AC
100
AcDbEntity
  8
KONSTRUKTIONSELEMENTE
100
AcDbEllipse
 62
7
  6
CONTINUOUS
 10
141.1060636939
 20
105.03
 30
0.0
 11
-7.3832672231
 21
25.7819604655
 31
0.0
 40
0.2560966398
 41
-0.8391366148
 42
-0.7462374643
  0
ELLIPSE
  5
5AD
100
AcDbEntity
  8
KONSTRUKTIONSELEMENTE
100
AcDbEllipse
 62
7
  6
CONTINUOUS
 10
120.4142053864
 20
105.03
 30
0.0
 11
123.1094049095
 21
-17.8451702822
 31
0.0
 40
0.1439678452
 41
1.4940964174
 42
1.4982605302
  0
ELLIPSE
  5
5AE
100
AcDbEntity
  8
KONSTRUKTIONSELEMENTE
100
AcDbEllipse
 62
7
  6
CONTINUOUS
 10
120.4142053864
 20
105.03
 30
0.0
 11
126.5357452586
 21
-18.3418311751
 31
0.0
 40
0.1439678452
 41
1.496746376
 42
1.5007967403
  0
ELLIPSE
  5
5AF
100
AcDbEntity
  8
KONSTRUKTIONSELEMENTE
100
AcDbEllipse
 62
7
  6
CONTINUOUS
 10
127.3048443872
 20
105.03
 30
0.0
 11
48.8477927007
 21
-19.6471897694
 31
0.0
 40
0.3214593262
 41
1.6059764777
 42
1.6142999061
  0
ELLIPSE
  5
5B0
100
AcDbEntity
  8
KONSTRUKTIONSELEMENTE
100
AcDbEllipse
 62
7
  6
CONTINUOUS
 10
127.3048443872
 20
105.03
 30
0.0
 11
50.2073083544
 21
-20.1940038743
 31
0.0
 40
0.3214593262
 41
1.6085126878
 42
1.6166090016
  0
ELLIPSE
  5
5B1
100
AcDbEntity
  8
KONSTRUKTIONSELEMENTE
100
AcDbEllipse
 62
7
  6
CONTINUOUS
 10
129.3975510107
 20
105.03
 30
0.0
 11
22.5632471869
 21
-23.2575247723
 31
0.0
 40
0.4243394292
 41
1.898041853
 42
1.9146715835
  0
ELLIPSE
  5
5B2
100
AcDbEntity
  8
KONSTRUKTIONSELEMENTE
100
AcDbEllipse
 62
7
  6
CONTINUOUS
 10
129.3975510107
 20
105.03
 30
0.0
 11
23.19122004
 21
-23.9048205301
 31
0.0
 40
0.4243394292
 41
1.9003509485
 42
1.9165278122
  0
ELLIPSE
  5
5B3
100
AcDbEntity
  8
KONSTRUKTIONSELEMENTE
100
AcDbEllipse
 62
7
  6
CONTINUOUS
 10
130.239735441
 20
105.03
 30
0.0
 11
-9.5410676076
 21
24.9747807292
 31
0.0
 40
0.3116820725
 41
-0.9549064732
 42
-0.9382956821
  0
ELLIPSE
  5
5B4
100
AcDbEntity
  8
KONSTRUKTIONSELEMENTE
100
AcDbEllipse
 62
7
  6
CONTINUOUS
 10
130.239735441
 20
105.03
 30
0.0
 11
-9.8066114541
 21
25.6698705884
 31
0.0
 40
0.3116820725
 41
-0.9530502445
 42
-0.9368908163
  0
ELLIPSE
  5
5B5
100
AcDbEntity
  8
KONSTRUKTIONSELEMENTE
100
AcDbEllipse
 62
7
  6
CONTINUOUS
 10
130.6225503603
 20
105.03
 30
0.0
 11
-3.4888078391
 21
25.1465775511
 31
0.0
 40
0.1382606387
 41
-0.8389621414
 42
-0.818218218
  0
ELLIPSE
  5
5B6
100
AcDbEntity
  8
KONSTRUKTIONSELEMENTE
100
AcDbEllipse
 62
7
  6
CONTINUOUS
 10
130.6225503603
 20
105.03
 30
0.0
 11
-3.585907188
 21
25.8464488027
 31
0.0
 40
0.1382606387
 41
-0.8375572755
 42
-0.8173760043
  0
ELLIPSE
  5
5B7
100
AcDbEntity
  8
KONSTRUKTIONSELEMENTE
100
AcDbEllipse
 62
7
  6
CONTINUOUS
 10
140.6872369778
 20
105.03
 30
0.0
 11
-2.8903197852
 21
25.1489732412
 31
0.0
 40
0.1158825665
 41
-4.0148290107
 42
-3.8739819654
  0
ELLIPSE
  5
5B8
100
AcDbEntity
  8
KONSTRUKTIONSELEMENTE
100
AcDbEllipse
 62
7
  6
CONTINUOUS
 10
140.6872369778
 20
105.03
 30
0.0
 11
-2.9707622121
 21
25.8489111689
 31
0.0
 40
0.1158825665
 41
-4.01233177
 42
-3.8753063605
  0
ELLIPSE
  5
5B9
100
AcDbEntity
  8
KONSTRUKTIONSELEMENTE
100
AcDbEllipse
 62
7
  6
CONTINUOUS
 10
149.0208924272
 20
105.03
 30
0.0
 11
123.1094049095
 21
-17.8451702822
 31
0.0
 40
0.1439678452
 41
-1.6419048045
 42
-1.637980639
  0
ELLIPSE
  5
5BA
100
AcDbEntity
  8
KONSTRUKTIONSELEMENTE
100
AcDbEllipse
 62
7
  6
CONTINUOUS
 10
149.0208924272
 20
105.03
 30
0.0
 11
126.5357452586
 21
-18.3418311751
 31
0.0
 40
0.1439678452
 41
-1.6394075637
 42
-1.6355904875
  0
ELLIPSE
  5
5BB
100
AcDbEntity
  8
KONSTRUKTIONSELEMENTE
100
AcDbEllipse
 62
7
  6
CONTINUOUS
 10
141.0802554236
 20
105.03
 30
0.0
 11
31.6493398431
 21
-21.6603472435
 31
0.0
 40
0.4039037103
 41
-1.3891549921
 42
-1.3773904025
  0
ELLIPSE
  5
5BC
100
AcDbEntity
  8
KONSTRUKTIONSELEMENTE
100
AcDbEllipse
 62
7
  6
CONTINUOUS
 10
141.0802554236
 20
105.03
 30
0.0
 11
32.5301938299
 21
-22.2631908832
 31
0.0
 40
0.4039037103
 41
-1.3867648407
 42
-1.3753208898
  0
ELLIPSE
  5
5BD
100
AcDbEntity
  8
KONSTRUKTIONSELEMENTE
100
AcDbEllipse
 62
7
  6
CONTINUOUS
 10
139.9854139029
 20
105.03
 30
0.0
 11
-15.7301258978
 21
24.3620825644
 31
0.0
 40
0.3973749296
 41
-4.2369823285
 42
-4.221312366
  0
ELLIPSE
  5
5BE
100
AcDbEntity
  8
KONSTRUKTIONSELEMENTE
100
AcDbEllipse
 62
7
  6
CONTINUOUS
 10
139.9854139029
 20
105.03
 30
0.0
 11
-16.1679215731
 21
25.0401200104
 31
0.0
 40
0.3973749296
 41
-4.2349128158
 42
-4.2196690873
  0
ELLIPSE
  5
5BF
100
AcDbEntity
  8
KONSTRUKTIONSELEMENTE
100
AcDbEllipse
 62
7
  6
CONTINUOUS
 10
141.1551188563
 20
105.03
 30
0.0
 11
3.8938124149
 21
25.1441520307
 31
0.0
 40
0.1529428698
 41
-2.3988404607
 42
-2.2579934154
  0
ELLIPSE
  5
5C0
100
AcDbEntity
  8
KONSTRUKTIONSELEMENTE
100
AcDbEllipse
 62
7
  6
CONTINUOUS
 10
139.3638001557
 20
105.03
 30
0.0
 11
-6.0086134355
 21
25.1155807886
 31
0.0
 40
0.2227049523
 41
-4.0233822007
 42
-4.0116397122
  0
ELLIPSE
  5
5C1
100
AcDbEntity
  8
KONSTRUKTIONSELEMENTE
100
AcDbEllipse
 62
7
  6
CONTINUOUS
 10
138.9295796618
 20
105.03
 30
0.0
 11
-4.4076507688
 21
25.1399090854
 31
0.0
 40
0.170989966
 41
-0.766821105
 42
-0.7502274756
  0
ELLIPSE
  5
5C2
100
AcDbEntity
  8
KONSTRUKTIONSELEMENTE
100
AcDbEllipse
 62
7
  6
CONTINUOUS
 10
139.3638001557
 20
105.03
 30
0.0
 11
-6.1758431827
 21
25.8145893485
 31
0.0
 40
0.2227049523
 41
-4.021738922
 42
-4.0103153169
  0
ELLIPSE
  5
5C3
100
AcDbEntity
  8
KONSTRUKTIONSELEMENTE
100
AcDbEllipse
 62
7
  6
CONTINUOUS
 10
138.9295796618
 20
105.03
 30
0.0
 11
-4.5303230511
 21
25.8395947426
 31
0.0
 40
0.170989966
 41
-0.7676633188
 42
-0.7515196921
  0
ELLIPSE
  5
5C4
100
AcDbEntity
  8
KONSTRUKTIONSELEMENTE
100
AcDbEllipse
 62
7
  6
CONTINUOUS
 10
141.1551188563
 20
105.03
 30
0.0
 11
4.0021837176
 21
25.8439557761
 31
0.0
 40
0.1529428698
 41
-2.3975160656
 42
-2.2604906561
  0
ELLIPSE
  5
5C5
100
AcDbEntity
  8
KONSTRUKTIONSELEMENTE
100
AcDbEllipse
 62
7
  6
CONTINUOUS
 10
139.4187316393
 20
105.03
 30
0.0
 11
-13.5612808166
 21
24.6295961673
 31
0.0
 40
0.3757526709
 41
-0.924272097
 42
-0.9118184958
  0
ELLIPSE
  5
5C6
100
AcDbEntity
  8
KONSTRUKTIONSELEMENTE
100
AcDbEllipse
 62
7
  6
CONTINUOUS
 10
139.4187316393
 20
105.03
 30
0.0
 11
-13.938713911
 21
25.3150789636
 31
0.0
 40
0.3757526709
 41
-0.9255643135
 42
-0.9134488782
  0
ELLIPSE
  5
5C7
100
AcDbEntity
  8
KONSTRUKTIONSELEMENTE
100
AcDbEllipse
 62
7
  6
CONTINUOUS
 10
140.6522360432
 20
105.03
 30
0.0
 11
36.0500788469
 21
-20.999297386
 31
0.0
 40
0.3839774797
 41
1.8509836196
 42
1.8592910948
  0
ELLIPSE
  5
5C8
100
AcDbEntity
  8
KONSTRUKTIONSELEMENTE
100
AcDbEllipse
 62
7
  6
CONTINUOUS
 10
140.6522360432
 20
105.03
 30
0.0
 11
37.05341275
 21
-21.5837429041
 31
0.0
 40
0.3839774797
 41
1.8493532372
 42
1.8574348663
  0
ELLIPSE
  5
5C9
100
AcDbEntity
  8
KONSTRUKTIONSELEMENTE
100
AcDbEllipse
 62
7
  6
CONTINUOUS
 10
144.8631685388
 20
105.03
 30
0.0
 11
98.45645044
 21
-18.0519513794
 31
0.0
 40
0.1778770249
 41
1.671846739
 42
1.6760022141
  0
ELLIPSE
  5
5CA
100
AcDbEntity
  8
KONSTRUKTIONSELEMENTE
100
AcDbEllipse
 62
7
  6
CONTINUOUS
 10
144.8631685388
 20
105.03
 30
0.0
 11
101.1966578922
 21
-18.5543673356
 31
0.0
 40
0.1778770249
 41
1.6699905104
 42
1.6740329244
  0
ELLIPSE
  5
5CB
100
AcDbEntity
  8
KONSTRUKTIONSELEMENTE
100
AcDbEllipse
 62
7
  6
CONTINUOUS
 10
130.1631700356
 20
105.03
 30
0.0
 11
98.4565915825
 21
18.0519497467
 31
0.0
 40
0.177876787
 41
1.4655905328
 42
1.4697460078
  0
ELLIPSE
  5
5CC
100
AcDbEntity
  8
0
100
AcDbEllipse
 62
7
  6
CONTINUOUS
 10
175.2896314297
 20
101.355
 30
0.0
 11
-5.6877948993
 21
0.0
 31
0.0
 40
0.9845643345
 41
1.5707963268
 42
1.6399156526
  0
ENDSEC
  0
SECTION
  2
OBJECTS
  0
DICTIONARY
  5
C
100
AcDbDictionary
280
0
281
1
  3
ACAD_GROUP
350
D
  3
ACAD_MLINESTYLE
350
17
  3
ACAD_LAYOUT
350
1A
  3
ACAD_PLOTSETTINGS
350
19
  3
ACAD_PLOTSTYLENAME
350
E
  0
DICTIONARY
  5
D
102
{ACAD_REACTORS
330
C
102
}
100
AcDbDictionary
280
0
281
1
  0
ACDBDICTIONARYWDFLT
  5
E
102
{ACAD_REACTORS
330
C
102
}
100
AcDbDictionary
281
1
  3
Normal
350
F
100
AcDbDictionaryWithDefault
340
F
  0
DICTIONARY
  5
17
102
{ACAD_REACTORS
330
C
102
}
100
AcDbDictionary
280
0
281
1
  3
Standard
350
18
  0
DICTIONARY
  5
19
102
{ACAD_REACTORS
330
C
102
}
100
AcDbDictionary
281
1
  0
DICTIONARY
  5
1A
102
{ACAD_REACTORS
330
C
102
}
100
AcDbDictionary
281
1
  3
Model
350
5CD
  3
Layout1
350
5CE
  0
ACDBPLACEHOLDER
  5
F
102
{ACAD_REACTORS
330
E
102
}
  0
MLINESTYLE
  5
18
102
{ACAD_REACTORS
330
17
102
}
100
AcDbMlineStyle
  2
STANDARD
 70
0
  3

 62
256
 51
90.0
 52
90.0
 71
2
 49
0.5
 62
256
  6
BYLAYER
 49
-0.5
 62
256
  6
BYLAYER
  0
LAYOUT
  5
5CD
102
{ACAD_REACTORS
330
1A
102
}
100
AcDbPlotSettings
  1

  2
none_device
  4
ISO_A3_(420.00_x_297.00_MM)
  6

 40
0.0
 41
0.0
 42
0.0
 43
0.0
 44
420.0
 45
297.0
 46
0.0
 47
0.0
 48
0.0
 49
0.0
140
0.0
141
0.0
142
1.0
143
1.0
 70
1024
 72
1
 73
0
 74
0
  7

 75
0
147
1.0
148
0.0
149
0.0
100
AcDbLayout
  1
Model
 70
0
 71
0
 10
0.0
 20
0.0
 11
420.0
 21
297.0
 12
0.0
 22
0.0
 32
0.0
 14
0.0
 24
0.0
 34
0.0
 15
0.0
 25
0.0
 35
0.0
146
0.0
 13
0.0
 23
0.0
 33
0.0
 16
1.0
 26
0.0
 36
0.0
 17
0.0
 27
1.0
 37
0.0
 76
0
330
20C
345
0
346
0
  0
LAYOUT
  5
5CE
102
{ACAD_REACTORS
330
1A
102
}
100
AcDbPlotSettings
  1

  2
none_device
  4
ISO_A3_(420.00_x_297.00_MM)
  6

 40
0.0
 41
0.0
 42
0.0
 43
0.0
 44
420.0
 45
297.0
 46
0.0
 47
0.0
 48
0.0
 49
0.0
140
0.0
141
0.0
142
1.0
143
1.0
 70
0
 72
1
 73
0
 74
0
  7

 75
0
147
1.0
148
0.0
149
0.0
100
AcDbLayout
  1
Layout1
 70
0
 71
1
 10
0.0
 20
0.0
 11
420.0
 21
297.0
 12
0.0
 22
0.0
 32
0.0
 14
0.0
 24
0.0
 34
0.0
 15
0.0
 25
0.0
 35
0.0
146
0.0
 13
0.0
 23
0.0
 33
0.0
 16
1.0
 26
0.0
 36
0.0
 17
0.0
 27
1.0
 37
0.0
 76
0
330
20D
345
0
346
0
  0
ENDSEC
  0
EOF
