999
DXF file: 001-m31850-p6.dxf
999
Pro/ENGINEER 2011490 by Parametric Technology Corporation
  0
SECTION
  2
HEADER
  9
$ACADVER
  1
AC1015
  9
$DWGCODEPAGE
  3
ANSI_1252
  9
$EXTMAX
 10
420.0
 20
297.0
 30
0.0
  9
$EXTMIN
 10
0.0
 20
0.0
 30
0.0
  9
$LIMMIN
 10
0.0
 20
0.0
  9
$LIMMAX
 10
420.0
 20
297.0
  9
$VIEWCTR
 10
210.0
 20
148.5
  9
$VIEWSIZE
 40
297.0
  9
$CLAYER
  8
0
  9
$LTSCALE
 40
23.1
  9
$CELTYPE
  6
BYLAYER
  9
$DIMSCALE
 40
1.0
  9
$DIMASZ
 40
3.5
  9
$DIMEXO
 40
2.625
  9
$DIMDLI
 40
15.96
  9
$DIMEXE
 40
7.56
  9
$DIMCEN
 40
3.78
  9
$DIMLFAC
 40
1.0
  9
$DIMBLK
  1
_FILLED
  9
$DIMTXT
 40
3.5
  9
$DIMTOL
 70
1
  9
$DIMLIM
 70
0
  9
$DIMTFAC
 40
1.0
  9
$DIMTP
 40
0.005
  9
$DIMTM
 40
0.005
  9
$PDMODE
 70
3
  9
$PDSIZE
 40
0.3125
  9
$HANDSEED
  5
589
  9
$TILEMODE
 70
1
  9
$MEASUREMENT
 70
1
  9
$INSUNITS
 70
4
  0
ENDSEC
  0
SECTION
  2
CLASSES
  0
CLASS
  1
ACDBDICTIONARYWDFLT
  2
AcDbDictionaryWithDefault
  3
AutoCAD 2000
 90
0
280
0
281
0
  0
CLASS
  1
ACDBPLACEHOLDER
  2
AcDbPlaceHolder
  3
AutoCAD 2000
 90
0
280
0
281
0
  0
CLASS
  1
LAYOUT
  2
AcDbLayout
  3
AutoCAD 2000
 90
0
280
0
281
0
  0
ENDSEC
  0
SECTION
  2
TABLES
  0
TABLE
  2
VPORT
  5
8
100
AcDbSymbolTable
 70
2
  0
VPORT
  5
1F4
100
AcDbSymbolTableRecord
100
AcDbViewportTableRecord
  2
*ACTIVE
 70
0
 10
0.0
 20
0.0
 11
1.0
 21
1.0
 12
210.0
 22
148.5
 13
0.0
 23
0.0
 14
1.0
 24
1.0
 15
0.0
 25
0.0
 16
0.0
 26
0.0
 36
1.0
 17
0.0
 27
0.0
 37
0.0
 40
297.0
 41
1.4141414141
 42
50.0
 43
0.0
 44
0.0
 50
0.0
 51
0.0
 71
0
 72
100
 73
1
 74
1
 75
0
 76
0
 77
0
 78
0
  0
ENDTAB
  0
TABLE
  2
LTYPE
  5
5
100
AcDbSymbolTable
 70
6
  0
LTYPE
  5
14
100
AcDbSymbolTableRecord
100
AcDbLinetypeTableRecord
  2
BYBLOCK
 70
0
  3

 72
65
 73
0
 40
0.0
  0
LTYPE
  5
15
100
AcDbSymbolTableRecord
100
AcDbLinetypeTableRecord
  2
BYLAYER
 70
0
  3

 72
65
 73
0
 40
0.0
  0
LTYPE
  5
16
100
AcDbSymbolTableRecord
100
AcDbLinetypeTableRecord
  2
CONTINUOUS
 70
64
  3
Solid line
 72
65
 73
0
 40
0.0
  0
LTYPE
  5
1F5
100
AcDbSymbolTableRecord
100
AcDbLinetypeTableRecord
  2
CENTER
 70
64
  3
____ _ ____ _ ____ _ ____ _ ____ _ ____ _ ____
 72
65
 73
4
 40
0.6
 49
0.375
 74
0
 49
-0.075
 74
0
 49
0.075
 74
0
 49
-0.075
 74
0
  0
LTYPE
  5
1F6
100
AcDbSymbolTableRecord
100
AcDbLinetypeTableRecord
  2
HIDDEN
 70
64
  3
- - - - - - - - - - - - - - - - - - - -
 72
65
 73
2
 40
0.2
 49
0.1
 74
0
 49
-0.1
 74
0
  0
LTYPE
  5
1F7
100
AcDbSymbolTableRecord
100
AcDbLinetypeTableRecord
  2
PHANTOM
 70
64
  3
_____ _ _ _____ _ _ _____ _ _ _____
 72
65
 73
6
 40
0.8
 49
0.45
 74
0
 49
-0.05
 74
0
 49
0.1
 74
0
 49
-0.05
 74
0
 49
0.1
 74
0
 49
-0.05
 74
0
  0
LTYPE
  5
1F8
100
AcDbSymbolTableRecord
100
AcDbLinetypeTableRecord
  2
DOT
 70
64
  3
. . . . . . . . . . . . . . . . . . . .
 72
65
 73
2
 40
0.2
 49
0.1
 74
0
 49
-0.1
 74
0
  0
LTYPE
  5
1F9
100
AcDbSymbolTableRecord
100
AcDbLinetypeTableRecord
  2
DASHED
 70
64
  3
- - - - - - - - - - - - - - - - - - - -
 72
65
 73
2
 40
0.2
 49
0.1
 74
0
 49
-0.1
 74
0
  0
ENDTAB
  0
TABLE
  2
LAYER
  5
2
100
AcDbSymbolTable
 70
36
  0
LAYER
  5
10
100
AcDbSymbolTableRecord
100
AcDbLayerTableRecord
  2
0
 70
0
 62
7
  6
CONTINUOUS
370
-3
390
F
  0
LAYER
  5
1FA
100
AcDbSymbolTableRecord
100
AcDbLayerTableRecord
  2
DEFAULT_1
 70
0
 62
7
  6
CENTER
370
-3
390
F
  0
LAYER
  5
1FB
100
AcDbSymbolTableRecord
100
AcDbLayerTableRecord
  2
DEFAULT_2
 70
0
 62
8
  6
HIDDEN
370
-3
390
F
  0
LAYER
  5
1FC
100
AcDbSymbolTableRecord
100
AcDbLayerTableRecord
  2
DEFAULT_3
 70
0
 62
7
  6
PHANTOM
370
-3
390
F
  0
LAYER
  5
1FD
100
AcDbSymbolTableRecord
100
AcDbLayerTableRecord
  2
AUSFORMSCHRAEGEN
 70
0
 62
7
  6
CONTINUOUS
370
-3
390
F
  0
LAYER
  5
1FE
100
AcDbSymbolTableRecord
100
AcDbLayerTableRecord
  2
BEZUGSACHSEN
 70
0
 62
7
  6
CONTINUOUS
370
-3
390
F
  0
LAYER
  5
1FF
100
AcDbSymbolTableRecord
100
AcDbLayerTableRecord
  2
BEZUGSEBENEN
 70
0
 62
7
  6
CONTINUOUS
370
-3
390
F
  0
LAYER
  5
200
100
AcDbSymbolTableRecord
100
AcDbLayerTableRecord
  2
BG_STARTBEZUEGE
 70
0
 62
7
  6
CONTINUOUS
370
-3
390
F
  0
LAYER
  5
201
100
AcDbSymbolTableRecord
100
AcDbLayerTableRecord
  2
FASEN
 70
0
 62
7
  6
CONTINUOUS
370
-3
390
F
  0
LAYER
  5
202
100
AcDbSymbolTableRecord
100
AcDbLayerTableRecord
  2
HILFEN
 70
0
 62
7
  6
CONTINUOUS
370
-3
390
F
  0
LAYER
  5
203
100
AcDbSymbolTableRecord
100
AcDbLayerTableRecord
  2
KONSTRUKTIONSELEMENTE
 70
0
 62
7
  6
CONTINUOUS
370
-3
390
F
  0
LAYER
  5
204
100
AcDbSymbolTableRecord
100
AcDbLayerTableRecord
  2
KURVEN
 70
0
 62
7
  6
CONTINUOUS
370
-3
390
F
  0
LAYER
  5
205
100
AcDbSymbolTableRecord
100
AcDbLayerTableRecord
  2
NORM
 70
0
 62
7
  6
CONTINUOUS
370
-3
390
F
  0
LAYER
  5
206
100
AcDbSymbolTableRecord
100
AcDbLayerTableRecord
  2
PLATZIERUNG
 70
0
 62
7
  6
CONTINUOUS
370
-3
390
F
  0
LAYER
  5
207
100
AcDbSymbolTableRecord
100
AcDbLayerTableRecord
  2
RUNDUNGEN
 70
0
 62
7
  6
CONTINUOUS
370
-3
390
F
  0
LAYER
  5
208
100
AcDbSymbolTableRecord
100
AcDbLayerTableRecord
  2
TEIL_STARTBEZUEGE
 70
0
 62
7
  6
CONTINUOUS
370
-3
390
F
  0
LAYER
  5
209
100
AcDbSymbolTableRecord
100
AcDbLayerTableRecord
  2
T_STARTBEZUEGE
 70
0
 62
7
  6
CONTINUOUS
370
-3
390
F
  0
ENDTAB
  0
TABLE
  2
STYLE
  5
3
100
AcDbSymbolTable
 70
1
  0
STYLE
  5
11
100
AcDbSymbolTableRecord
100
AcDbTextStyleTableRecord
  2
STANDARD
 70
0
 40
0.0
 41
0.7
 50
0.0
 71
0
 42
0.2
  3
txt
  4

  0
STYLE
  5
20A
100
AcDbSymbolTableRecord
100
AcDbTextStyleTableRecord
  2
TEXTSTYLE_1
 70
0
 40
0.0
 41
0.8
 50
0.0
 71
0
 42
0.2
  3
gdt
  4

  0
ENDTAB
  0
TABLE
  2
VIEW
  5
6
100
AcDbSymbolTable
 70
0
  0
ENDTAB
  0
TABLE
  2
UCS
  5
7
100
AcDbSymbolTable
 70
0
  0
ENDTAB
  0
TABLE
  2
APPID
  5
9
100
AcDbSymbolTable
 70
1
  0
APPID
  5
20B
100
AcDbSymbolTableRecord
100
AcDbRegAppTableRecord
  2
ACAD
 70
0
  0
ENDTAB
  0
TABLE
  2
BLOCK_RECORD
  5
1
100
AcDbSymbolTable
 70
0
  0
BLOCK_RECORD
  5
20C
100
AcDbSymbolTableRecord
100
AcDbBlockTableRecord
  2
*Model_Space
  0
BLOCK_RECORD
  5
20D
100
AcDbSymbolTableRecord
100
AcDbBlockTableRecord
  2
*Paper_Space
  0
ENDTAB
  0
TABLE
  2
DIMSTYLE
  5
A
100
AcDbSymbolTable
 70
1
100
AcDbDimStyleTable
 71
0
  0
DIMSTYLE
105
20E
100
AcDbSymbolTableRecord
100
AcDbDimStyleTableRecord
  2
STANDARD
 70
0
  3

  4

 40
1.0
 41
3.5
 42
0.0625
 43
0.38
 44
0.18
 45
0.0
 46
0.0
 47
0.005
 48
0.005
140
3.5
141
0.09
142
0.0
143
25.4
144
1.0
145
0.0
146
1.0
147
0.09
 71
1.0
 72
0.0
 73
0
 74
0
 75
0
 76
0
 77
1
 78
8
170
0
171
2
172
0
173
0
174
0
175
0
176
0
177
0
178
5
270
2
271
3
272
3
273
2
274
2
275
0
280
0
281
0
282
0
283
1
284
8
285
0
286
0
287
3
288
0
340
11
  0
ENDTAB
  0
ENDSEC
  0
SECTION
  2
BLOCKS
  0
BLOCK
  5
20
100
AcDbEntity
  8
0
100
AcDbBlockBegin
  2
*Model_Space
 70
0
 10
0.0
 20
0.0
 30
0.0
  3
*Model_Space
  1

  0
ENDBLK
  5
21
100
AcDbEntity
  8
0
100
AcDbBlockEnd
  0
BLOCK
  5
1C
100
AcDbEntity
  8
0
100
AcDbBlockBegin
  2
*Paper_Space
 70
0
 10
0.0
 20
0.0
 30
0.0
  3
*Paper_Space
  1

  0
ENDBLK
  5
1D
100
AcDbEntity
  8
0
100
AcDbBlockEnd
  0
ENDSEC
  0
SECTION
  2
ENTITIES
  0
MTEXT
  5
20F
100
AcDbEntity
  8
0
100
AcDbMText
 62
5
  6
CONTINUOUS
  7
STANDARD
 71
1
 72
1
 10
110.5076757606
 20
81.4108817955
 30
0.0
 11
1.0
 21
0.0
 31
0.0
 44
0.9
  1
LPW-U 13400daN\PRUD
 40
6.0
 41
66.7142857143
  0
MTEXT
  5
210
100
AcDbEntity
  8
0
100
AcDbMText
 62
5
  6
CONTINUOUS
  7
STANDARD
 71
1
 72
1
 10
110.116055034
 20
260.385986738
 30
0.0
 11
1.0
 21
0.0
 31
0.0
 44
0.9
  1
LPW-U 13400daN\PRUD
 40
6.0
 41
66.7142857143
  0
MTEXT
  5
211
100
AcDbEntity
  8
0
100
AcDbMText
 62
5
  6
CONTINUOUS
  7
STANDARD
 71
1
 72
1
 10
254.8023770723
 20
195.9910163042
 30
0.0
 11
0.0
 21
1.0
 31
0.0
 44
0.9
  1
LPW-U 13400daN\PRUD
 40
6.0
 41
66.7142857143
  0
LINE
  5
212
100
AcDbEntity
  8
0
100
AcDbLine
 62
7
  6
CONTINUOUS
 10
0.0
 20
0.0
 11
0.0
 21
297.0
  0
LINE
  5
213
100
AcDbEntity
  8
0
100
AcDbLine
 62
7
  6
CONTINUOUS
 10
0.0
 20
0.0
 11
420.0
 21
0.0
  0
LINE
  5
214
100
AcDbEntity
  8
0
100
AcDbLine
 62
7
  6
CONTINUOUS
 10
0.0
 20
297.0
 11
420.0
 21
297.0
  0
LINE
  5
215
100
AcDbEntity
  8
0
100
AcDbLine
 62
7
  6
CONTINUOUS
 10
420.0
 20
0.0
 11
420.0
 21
297.0
  0
LINE
  5
216
100
AcDbEntity
  8
RUNDUNGEN
100
AcDbLine
 62
7
  6
CONTINUOUS
 10
140.6841619735
 20
274.2029072931
 11
107.5059674289
 21
260.4600491377
  0
LINE
  5
217
100
AcDbEntity
  8
KONSTRUKTIONSELEMENTE
100
AcDbLine
 62
7
  6
CONTINUOUS
 10
115.2720512796
 20
133.7581816147
 11
174.1930484711
 21
133.7581816147
  0
LINE
  5
218
100
AcDbEntity
  8
BEZUGSACHSEN
100
AcDbLine
 62
7
  6
CONTINUOUS
 10
92.2325497753
 20
136.5081816147
 11
114.8755491335
 21
136.5081816147
  0
LINE
  5
219
100
AcDbEntity
  8
BEZUGSACHSEN
100
AcDbLine
 62
7
  6
CONTINUOUS
 10
174.5895441428
 20
136.5081816147
 11
197.2325499753
 21
136.5081816147
  0
LINE
  5
21A
100
AcDbEntity
  8
KONSTRUKTIONSELEMENTE
100
AcDbLine
 62
7
  6
CONTINUOUS
 10
174.6152499217
 20
136.7581816147
 11
114.849849829
 21
136.7581816147
  0
LINE
  5
21B
100
AcDbEntity
  8
RUNDUNGEN
100
AcDbLine
 62
7
  6
CONTINUOUS
 10
87.2325497753
 20
217.5081816147
 11
87.2325497753
 21
147.7581816147
  0
LINE
  5
21C
100
AcDbEntity
  8
BEZUGSACHSEN
100
AcDbLine
 62
7
  6
CONTINUOUS
 10
87.2325497753
 20
141.508182064
 11
87.2325497753
 21
147.7581816147
  0
LINE
  5
21D
100
AcDbEntity
  8
RUNDUNGEN
100
AcDbLine
 62
7
  6
CONTINUOUS
 10
101.7806823524
 20
254.7347640611
 11
88.0378241969
 21
221.5565695166
  0
LINE
  5
21E
100
AcDbEntity
  8
0
100
AcDbLine
 62
7
  6
CONTINUOUS
 10
118.7325498753
 20
145.5556735331
 11
170.7325498753
 21
145.5556735331
  0
LINE
  5
21F
100
AcDbEntity
  8
KONSTRUKTIONSELEMENTE
100
AcDbLine
 62
7
  6
CONTINUOUS
 10
135.7325498753
 20
158.7564342099
 11
153.7325498753
 21
158.7564342099
  0
LINE
  5
220
100
AcDbEntity
  8
KONSTRUKTIONSELEMENTE
100
AcDbLine
 62
7
  6
CONTINUOUS
 10
135.3325498753
 20
161.6690356744
 11
140.2825498753
 21
161.6690356744
  0
LINE
  5
221
100
AcDbEntity
  8
KONSTRUKTIONSELEMENTE
100
AcDbLine
 62
7
  6
CONTINUOUS
 10
141.3825500064
 20
161.6690356744
 11
142.2075496131
 21
161.6690356744
  0
LINE
  5
222
100
AcDbEntity
  8
KONSTRUKTIONSELEMENTE
100
AcDbLine
 62
7
  6
CONTINUOUS
 10
148.6700493508
 20
161.6690356744
 11
149.7700498753
 21
161.6690356744
  0
LINE
  5
223
100
AcDbEntity
  8
KONSTRUKTIONSELEMENTE
100
AcDbLine
 62
7
  6
CONTINUOUS
 10
151.9700493508
 20
161.6690356744
 11
153.0700498753
 21
161.6690356744
  0
LINE
  5
224
100
AcDbEntity
  8
KONSTRUKTIONSELEMENTE
100
AcDbLine
 62
7
  6
CONTINUOUS
 10
135.3325498753
 20
162.2460177459
 11
140.2825498753
 21
162.2460177459
  0
LINE
  5
225
100
AcDbEntity
  8
KONSTRUKTIONSELEMENTE
100
AcDbLine
 62
7
  6
CONTINUOUS
 10
141.3825500064
 20
162.2460177459
 11
142.2075496131
 21
162.2460177459
  0
LINE
  5
226
100
AcDbEntity
  8
KONSTRUKTIONSELEMENTE
100
AcDbLine
 62
7
  6
CONTINUOUS
 10
148.6700493508
 20
162.2460177459
 11
149.7700498753
 21
162.2460177459
  0
LINE
  5
227
100
AcDbEntity
  8
KONSTRUKTIONSELEMENTE
100
AcDbLine
 62
7
  6
CONTINUOUS
 10
151.9700493508
 20
162.2460177459
 11
153.0700498753
 21
162.2460177459
  0
LINE
  5
228
100
AcDbEntity
  8
KONSTRUKTIONSELEMENTE
100
AcDbLine
 62
7
  6
CONTINUOUS
 10
136.1575498753
 20
162.9811570119
 11
140.2825498753
 21
162.9811570119
  0
LINE
  5
229
100
AcDbEntity
  8
KONSTRUKTIONSELEMENTE
100
AcDbLine
 62
7
  6
CONTINUOUS
 10
142.2075496131
 20
164.1856154928
 11
144.6825496131
 21
164.1856154928
  0
LINE
  5
22A
100
AcDbEntity
  8
KONSTRUKTIONSELEMENTE
100
AcDbLine
 62
7
  6
CONTINUOUS
 10
142.2075496131
 20
164.7592127086
 11
144.6825496131
 21
164.7592127086
  0
LINE
  5
22B
100
AcDbEntity
  8
KONSTRUKTIONSELEMENTE
100
AcDbLine
 62
7
  6
CONTINUOUS
 10
142.2075496131
 20
165.4466495316
 11
144.8200498753
 21
165.4466495316
  0
LINE
  5
22C
100
AcDbEntity
  8
KONSTRUKTIONSELEMENTE
100
AcDbLine
 62
7
  6
CONTINUOUS
 10
142.2075496131
 20
166.5297305128
 11
144.8200498753
 21
166.5297305128
  0
LINE
  5
22D
100
AcDbEntity
  8
KONSTRUKTIONSELEMENTE
100
AcDbLine
 62
7
  6
CONTINUOUS
 10
142.2075496131
 20
167.1057214171
 11
144.8200498753
 21
167.1057214171
  0
LINE
  5
22E
100
AcDbEntity
  8
KONSTRUKTIONSELEMENTE
100
AcDbLine
 62
7
  6
CONTINUOUS
 10
135.3325498753
 20
167.6397254415
 11
136.1575498753
 21
167.6397254415
  0
LINE
  5
22F
100
AcDbEntity
  8
KONSTRUKTIONSELEMENTE
100
AcDbLine
 62
7
  6
CONTINUOUS
 10
141.3825500064
 20
167.6397254415
 11
144.6825496131
 21
167.6397254415
  0
LINE
  5
230
100
AcDbEntity
  8
KONSTRUKTIONSELEMENTE
100
AcDbLine
 62
7
  6
CONTINUOUS
 10
147.5700496131
 20
167.6397254415
 11
148.3950496131
 21
167.6397254415
  0
LINE
  5
231
100
AcDbEntity
  8
KONSTRUKTIONSELEMENTE
100
AcDbLine
 62
7
  6
CONTINUOUS
 10
150.3200493508
 20
167.6397254415
 11
151.4200498753
 21
167.6397254415
  0
LINE
  5
232
100
AcDbEntity
  8
KONSTRUKTIONSELEMENTE
100
AcDbLine
 62
7
  6
CONTINUOUS
 10
153.3450503998
 20
167.6397254415
 11
154.1700503998
 21
167.6397254415
  0
LINE
  5
233
100
AcDbEntity
  8
0
100
AcDbLine
 62
7
  6
CONTINUOUS
 10
191.3817604103
 20
167.6813394427
 11
193.4975498903
 21
167.6813394427
  0
LINE
  5
234
100
AcDbEntity
  8
RUNDUNGEN
100
AcDbLine
 62
7
  6
CONTINUOUS
 10
111.2325497753
 20
217.5081816147
 11
111.2325497753
 21
208.9719869342
  0
LINE
  5
235
100
AcDbEntity
  8
RUNDUNGEN
100
AcDbLine
 62
7
  6
CONTINUOUS
 10
111.7325498753
 20
170.0081816453
 11
111.7325498753
 21
178.5972656538
  0
LINE
  5
236
100
AcDbEntity
  8
KONSTRUKTIONSELEMENTE
100
AcDbLine
 62
7
  6
CONTINUOUS
 10
114.7325498753
 20
141.6933619793
 11
114.7325498753
 21
137.96553505
  0
LINE
  5
237
100
AcDbEntity
  8
0
100
AcDbLine
 62
7
  6
CONTINUOUS
 10
114.7325498753
 20
141.6933619793
 11
114.7325498753
 21
173.7581816147
  0
LINE
  5
238
100
AcDbEntity
  8
0
100
AcDbLine
 62
7
  6
CONTINUOUS
 10
193.4275498903
 20
169.2713394427
 11
191.4522867263
 21
169.2713394427
  0
LINE
  5
239
100
AcDbEntity
  8
KONSTRUKTIONSELEMENTE
100
AcDbLine
 62
7
  6
CONTINUOUS
 10
135.7325498753
 20
169.6341176639
 11
153.7325498753
 21
169.6341176639
  0
LINE
  5
23A
100
AcDbEntity
  8
KONSTRUKTIONSELEMENTE
100
AcDbLine
 62
7
  6
CONTINUOUS
 10
135.7325498753
 20
170.2245628299
 11
153.7325498753
 21
170.2245628299
  0
LINE
  5
23B
100
AcDbEntity
  8
0
100
AcDbLine
 62
7
  6
CONTINUOUS
 10
189.7949183003
 20
172.5829184047
 11
194.2909709453
 21
172.5829184047
  0
LINE
  5
23C
100
AcDbEntity
  8
0
100
AcDbLine
 62
7
  6
CONTINUOUS
 10
196.4067604253
 20
174.1697605147
 11
195.0843920003
 21
174.1697605147
  0
LINE
  5
23D
100
AcDbEntity
  8
0
100
AcDbLine
 62
7
  6
CONTINUOUS
 10
194.2909709453
 20
174.1697605147
 11
188.4725498753
 21
174.1697605147
  0
LINE
  5
23E
100
AcDbEntity
  8
0
100
AcDbLine
 62
7
  6
CONTINUOUS
 10
191.6462340953
 20
175.7566026247
 11
196.4067604253
 21
175.7566026247
  0
LINE
  5
23F
100
AcDbEntity
  8
KONSTRUKTIONSELEMENTE
100
AcDbLine
 62
7
  6
CONTINUOUS
 10
126.7325498753
 20
176.3763576572
 11
162.7325498753
 21
176.3763576572
  0
LINE
  5
240
100
AcDbEntity
  8
KONSTRUKTIONSELEMENTE
100
AcDbLine
 62
7
  6
CONTINUOUS
 10
125.7666564333
 20
176.6718462043
 11
126.5007629912
 21
176.6718462043
  0
LINE
  5
241
100
AcDbEntity
  8
KONSTRUKTIONSELEMENTE
100
AcDbLine
 62
7
  6
CONTINUOUS
 10
129.1924869203
 20
176.6718462043
 11
130.171295781
 21
176.6718462043
  0
LINE
  5
242
100
AcDbEntity
  8
KONSTRUKTIONSELEMENTE
100
AcDbLine
 62
7
  6
CONTINUOUS
 10
135.7994462919
 20
176.6718462043
 11
136.5335528499
 21
176.6718462043
  0
LINE
  5
243
100
AcDbEntity
  8
KONSTRUKTIONSELEMENTE
100
AcDbLine
 62
7
  6
CONTINUOUS
 10
150.9709806561
 20
176.6718462043
 11
151.705087214
 21
176.6718462043
  0
LINE
  5
244
100
AcDbEntity
  8
KONSTRUKTIONSELEMENTE
100
AcDbLine
 62
7
  6
CONTINUOUS
 10
152.8062470509
 20
176.6718462043
 11
153.4180043828
 21
176.6718462043
  0
LINE
  5
245
100
AcDbEntity
  8
KONSTRUKTIONSELEMENTE
100
AcDbLine
 62
7
  6
CONTINUOUS
 10
155.6203240567
 20
176.6718462043
 11
156.3544306146
 21
176.6718462043
  0
LINE
  5
246
100
AcDbEntity
  8
KONSTRUKTIONSELEMENTE
100
AcDbLine
 62
7
  6
CONTINUOUS
 10
157.7002917041
 20
176.6718462043
 11
158.3120462356
 21
176.6718462043
  0
LINE
  5
247
100
AcDbEntity
  8
KONSTRUKTIONSELEMENTE
100
AcDbLine
 62
7
  6
CONTINUOUS
 10
159.2908568464
 20
176.6718462043
 11
160.0249634044
 21
176.6718462043
  0
LINE
  5
248
100
AcDbEntity
  8
KONSTRUKTIONSELEMENTE
100
AcDbLine
 62
7
  6
CONTINUOUS
 10
163.0837388622
 20
176.6718462043
 11
164.1848986992
 21
176.6718462043
  0
LINE
  5
249
100
AcDbEntity
  8
KONSTRUKTIONSELEMENTE
100
AcDbLine
 62
7
  6
CONTINUOUS
 10
124.2515451351
 20
176.7581816147
 11
125.0325498753
 21
176.7581816147
  0
LINE
  5
24A
100
AcDbEntity
  8
KONSTRUKTIONSELEMENTE
100
AcDbLine
 62
7
  6
CONTINUOUS
 10
126.5007629912
 20
176.7581816147
 11
127.4795716768
 21
176.7581816147
  0
LINE
  5
24B
100
AcDbEntity
  8
KONSTRUKTIONSELEMENTE
100
AcDbLine
 62
7
  6
CONTINUOUS
 10
131.8842108495
 20
176.7581816147
 11
132.8630200601
 21
176.7581816147
  0
LINE
  5
24C
100
AcDbEntity
  8
KONSTRUKTIONSELEMENTE
100
AcDbLine
 62
7
  6
CONTINUOUS
 10
137.7570640132
 20
176.7581816147
 11
138.7358718236
 21
176.7581816147
  0
LINE
  5
24D
100
AcDbEntity
  8
KONSTRUKTIONSELEMENTE
100
AcDbLine
 62
7
  6
CONTINUOUS
 10
143.1405111713
 20
176.7581816147
 11
144.119320382
 21
176.7581816147
  0
LINE
  5
24E
100
AcDbEntity
  8
KONSTRUKTIONSELEMENTE
100
AcDbLine
 62
7
  6
CONTINUOUS
 10
148.5239597297
 20
176.7581816147
 11
149.5027675402
 21
176.7581816147
  0
LINE
  5
24F
100
AcDbEntity
  8
KONSTRUKTIONSELEMENTE
100
AcDbLine
 62
7
  6
CONTINUOUS
 10
153.4180043828
 20
176.7581816147
 11
154.3968121933
 21
176.7581816147
  0
LINE
  5
250
100
AcDbEntity
  8
KONSTRUKTIONSELEMENTE
100
AcDbLine
 62
7
  6
CONTINUOUS
 10
158.2234477076
 20
176.7581816147
 11
159.2908568464
 21
176.7581816147
  0
LINE
  5
251
100
AcDbEntity
  8
KONSTRUKTIONSELEMENTE
100
AcDbLine
 62
7
  6
CONTINUOUS
 10
164.1848986992
 20
176.7581816147
 11
165.2135669962
 21
176.7581816147
  0
LINE
  5
252
100
AcDbEntity
  8
KONSTRUKTIONSELEMENTE
100
AcDbLine
 62
7
  6
CONTINUOUS
 10
155.6203240567
 20
176.8279408257
 11
156.3544306146
 21
176.8279408257
  0
LINE
  5
253
100
AcDbEntity
  8
KONSTRUKTIONSELEMENTE
100
AcDbLine
 62
7
  6
CONTINUOUS
 10
129.3148382467
 20
176.8649825829
 11
130.0489448046
 21
176.8649825829
  0
LINE
  5
254
100
AcDbEntity
  8
KONSTRUKTIONSELEMENTE
100
AcDbLine
 62
7
  6
CONTINUOUS
 10
151.215684709
 20
176.8649825829
 11
151.705087214
 21
176.8649825829
  0
LINE
  5
255
100
AcDbEntity
  8
KONSTRUKTIONSELEMENTE
100
AcDbLine
 62
7
  6
CONTINUOUS
 10
127.4795716768
 20
177.0708139879
 11
128.0913270834
 21
177.0708139879
  0
LINE
  5
256
100
AcDbEntity
  8
KONSTRUKTIONSELEMENTE
100
AcDbLine
 62
7
  6
CONTINUOUS
 10
135.7994462919
 20
177.1632962907
 11
132.8630200601
 21
177.1632962907
  0
LINE
  5
257
100
AcDbEntity
  8
KONSTRUKTIONSELEMENTE
100
AcDbLine
 62
7
  6
CONTINUOUS
 10
136.5335528499
 20
177.1632962907
 11
137.7570640132
 21
177.1632962907
  0
LINE
  5
258
100
AcDbEntity
  8
KONSTRUKTIONSELEMENTE
100
AcDbLine
 62
7
  6
CONTINUOUS
 10
156.1097265617
 20
177.2489118934
 11
157.4555904515
 21
177.2489118934
  0
LINE
  5
259
100
AcDbEntity
  8
KONSTRUKTIONSELEMENTE
100
AcDbLine
 62
7
  6
CONTINUOUS
 10
137.7570640132
 20
177.3277204766
 11
136.5335528499
 21
177.3277204766
  0
LINE
  5
25A
100
AcDbEntity
  8
KONSTRUKTIONSELEMENTE
100
AcDbLine
 62
7
  6
CONTINUOUS
 10
133.7194772443
 20
177.3277204766
 11
135.7994462919
 21
177.3277204766
  0
LINE
  5
25B
100
AcDbEntity
  8
0
100
AcDbLine
 62
7
  6
CONTINUOUS
 10
196.4067604253
 20
177.3434447347
 11
191.6462340953
 21
177.3434447347
  0
LINE
  5
25C
100
AcDbEntity
  8
KONSTRUKTIONSELEMENTE
100
AcDbLine
 62
7
  6
CONTINUOUS
 10
156.1097265617
 20
177.3524868472
 11
157.4555904515
 21
177.3524868472
  0
LINE
  5
25D
100
AcDbEntity
  8
KONSTRUKTIONSELEMENTE
100
AcDbLine
 62
7
  6
CONTINUOUS
 10
129.437189223
 20
177.3765048356
 11
129.9265934783
 21
177.3765048356
  0
LINE
  5
25E
100
AcDbEntity
  8
KONSTRUKTIONSELEMENTE
100
AcDbLine
 62
7
  6
CONTINUOUS
 10
154.3968121933
 20
177.4223028803
 11
155.0085667248
 21
177.4223028803
  0
LINE
  5
25F
100
AcDbEntity
  8
KONSTRUKTIONSELEMENTE
100
AcDbLine
 62
7
  6
CONTINUOUS
 10
129.9265934783
 20
177.4651284224
 11
129.437189223
 21
177.4651284224
  0
LINE
  5
260
100
AcDbEntity
  8
KONSTRUKTIONSELEMENTE
100
AcDbLine
 62
7
  6
CONTINUOUS
 10
150.9709806561
 20
177.4854305543
 11
151.705087214
 21
177.4854305543
  0
LINE
  5
261
100
AcDbEntity
  8
KONSTRUKTIONSELEMENTE
100
AcDbLine
 62
7
  6
CONTINUOUS
 10
155.8650253092
 20
177.5049943001
 11
156.5991318671
 21
177.5049943001
  0
LINE
  5
262
100
AcDbEntity
  8
KONSTRUKTIONSELEMENTE
100
AcDbLine
 62
7
  6
CONTINUOUS
 10
150.9709806561
 20
177.5758936654
 11
151.705087214
 21
177.5758936654
  0
LINE
  5
263
100
AcDbEntity
  8
KONSTRUKTIONSELEMENTE
100
AcDbLine
 62
7
  6
CONTINUOUS
 10
155.8650253092
 20
177.5758936654
 11
156.5991318671
 21
177.5758936654
  0
LINE
  5
264
100
AcDbEntity
  8
KONSTRUKTIONSELEMENTE
100
AcDbLine
 62
7
  6
CONTINUOUS
 10
127.6019228281
 20
177.6350849632
 11
128.2136784098
 21
177.6350849632
  0
LINE
  5
265
100
AcDbEntity
  8
KONSTRUKTIONSELEMENTE
100
AcDbLine
 62
7
  6
CONTINUOUS
 10
129.437189223
 20
177.7020672716
 11
129.9265934783
 21
177.7020672716
  0
LINE
  5
266
100
AcDbEntity
  8
KONSTRUKTIONSELEMENTE
100
AcDbLine
 62
7
  6
CONTINUOUS
 10
136.5335528499
 20
177.7380081652
 11
135.7994462919
 21
177.7380081652
  0
LINE
  5
267
100
AcDbEntity
  8
KONSTRUKTIONSELEMENTE
100
AcDbLine
 62
7
  6
CONTINUOUS
 10
125.7666564333
 20
177.7380081652
 11
126.5007629912
 21
177.7380081652
  0
LINE
  5
268
100
AcDbEntity
  8
KONSTRUKTIONSELEMENTE
100
AcDbLine
 62
7
  6
CONTINUOUS
 10
129.5595401993
 20
177.7380081652
 11
129.804242502
 21
177.7380081652
  0
LINE
  5
269
100
AcDbEntity
  8
KONSTRUKTIONSELEMENTE
100
AcDbLine
 62
7
  6
CONTINUOUS
 10
152.8062470509
 20
177.7380081652
 11
153.4180043828
 21
177.7380081652
  0
LINE
  5
26A
100
AcDbEntity
  8
KONSTRUKTIONSELEMENTE
100
AcDbLine
 62
7
  6
CONTINUOUS
 10
159.2908568464
 20
177.7380081652
 11
160.3920166833
 21
177.7380081652
  0
LINE
  5
26B
100
AcDbEntity
  8
KONSTRUKTIONSELEMENTE
100
AcDbLine
 62
7
  6
CONTINUOUS
 10
163.4507921412
 20
177.7380081652
 11
164.1848986992
 21
177.7380081652
  0
LINE
  5
26C
100
AcDbEntity
  8
KONSTRUKTIONSELEMENTE
100
AcDbLine
 62
7
  6
CONTINUOUS
 10
128.7325498753
 20
177.7415103158
 11
133.9825498753
 21
177.7415103158
  0
LINE
  5
26D
100
AcDbEntity
  8
KONSTRUKTIONSELEMENTE
100
AcDbLine
 62
7
  6
CONTINUOUS
 10
137.4825498753
 20
177.7415103158
 11
138.7950498753
 21
177.7415103158
  0
LINE
  5
26E
100
AcDbEntity
  8
KONSTRUKTIONSELEMENTE
100
AcDbLine
 62
7
  6
CONTINUOUS
 10
118.7325498753
 20
177.7581816147
 11
123.7325498753
 21
177.7581816147
  0
LINE
  5
26F
100
AcDbEntity
  8
KONSTRUKTIONSELEMENTE
100
AcDbLine
 62
7
  6
CONTINUOUS
 10
165.7325498753
 20
177.7581816147
 11
170.7325498753
 21
177.7581816147
  0
LINE
  5
270
100
AcDbEntity
  8
0
100
AcDbLine
 62
7
  6
CONTINUOUS
 10
191.6462340953
 20
180.5171289547
 11
196.4067604253
 21
180.5171289547
  0
LINE
  5
271
100
AcDbEntity
  8
KONSTRUKTIONSELEMENTE
100
AcDbLine
 62
7
  6
CONTINUOUS
 10
123.7325498753
 20
177.1520585281
 11
123.7325498753
 21
177.7581816147
  0
LINE
  5
272
100
AcDbEntity
  8
KONSTRUKTIONSELEMENTE
100
AcDbLine
 62
7
  6
CONTINUOUS
 10
125.0325498753
 20
176.5695674185
 11
125.0325498753
 21
177.6826375873
  0
LINE
  5
273
100
AcDbEntity
  8
KONSTRUKTIONSELEMENTE
100
AcDbLine
 62
7
  6
CONTINUOUS
 10
125.7666564333
 20
176.4264700099
 11
125.7666564333
 21
177.6718372851
  0
LINE
  5
274
100
AcDbEntity
  8
KONSTRUKTIONSELEMENTE
100
AcDbLine
 62
7
  6
CONTINUOUS
 10
126.5007629912
 20
176.3802823775
 11
126.5007629912
 21
177.7380081652
  0
LINE
  5
275
100
AcDbEntity
  8
BEZUGSACHSEN
100
AcDbLine
 62
7
  6
CONTINUOUS
 10
174.2373493737
 20
182.0972657159
 11
164.5325498753
 21
182.0972657159
  0
LINE
  5
276
100
AcDbEntity
  8
RUNDUNGEN
100
AcDbLine
 62
7
  6
CONTINUOUS
 10
115.2277503769
 20
182.0972657159
 11
124.9325498753
 21
182.0972657159
  0
LINE
  5
277
100
AcDbEntity
  8
0
100
AcDbLine
 62
7
  6
CONTINUOUS
 10
196.4067604253
 20
182.1039710647
 11
191.6462340953
 21
182.1039710647
  0
LINE
  5
278
100
AcDbEntity
  8
KONSTRUKTIONSELEMENTE
100
AcDbLine
 62
7
  6
CONTINUOUS
 10
127.4795716768
 20
176.3763576572
 11
127.4795716768
 21
177.0708139879
  0
LINE
  5
279
100
AcDbEntity
  8
KONSTRUKTIONSELEMENTE
100
AcDbLine
 62
7
  6
CONTINUOUS
 10
127.6019228281
 20
176.3763576572
 11
127.6019228281
 21
176.9713997457
  0
LINE
  5
27A
100
AcDbEntity
  8
KONSTRUKTIONSELEMENTE
100
AcDbLine
 62
7
  6
CONTINUOUS
 10
127.6019228281
 20
177.0708139879
 11
127.6019228281
 21
177.6350849632
  0
LINE
  5
27B
100
AcDbEntity
  8
KONSTRUKTIONSELEMENTE
100
AcDbLine
 62
7
  6
CONTINUOUS
 10
127.8466249558
 20
176.3763576572
 11
127.8466249558
 21
176.8649825829
  0
LINE
  5
27C
100
AcDbEntity
  8
KONSTRUKTIONSELEMENTE
100
AcDbLine
 62
7
  6
CONTINUOUS
 10
128.2136784098
 20
176.3763576572
 11
128.2136784098
 21
176.7901094502
  0
LINE
  5
27D
100
AcDbEntity
  8
KONSTRUKTIONSELEMENTE
100
AcDbLine
 62
7
  6
CONTINUOUS
 10
128.2136784098
 20
177.0053123173
 11
128.2136784098
 21
177.6350849632
  0
LINE
  5
27E
100
AcDbEntity
  8
KONSTRUKTIONSELEMENTE
100
AcDbLine
 62
7
  6
CONTINUOUS
 10
128.4583803624
 20
176.9367091429
 11
128.4583803624
 21
177.6718372851
  0
LINE
  5
27F
100
AcDbEntity
  8
KONSTRUKTIONSELEMENTE
100
AcDbLine
 62
7
  6
CONTINUOUS
 10
128.7030826651
 20
176.3763576572
 11
128.7030826651
 21
176.71206535
  0
LINE
  5
280
100
AcDbEntity
  8
KONSTRUKTIONSELEMENTE
100
AcDbLine
 62
7
  6
CONTINUOUS
 10
128.8254336414
 20
176.8940455354
 11
128.8254336414
 21
177.6927140059
  0
LINE
  5
281
100
AcDbEntity
  8
KONSTRUKTIONSELEMENTE
100
AcDbLine
 62
7
  6
CONTINUOUS
 10
129.1924869203
 20
176.3763576572
 11
129.1924869203
 21
176.6718462043
  0
LINE
  5
282
100
AcDbEntity
  8
KONSTRUKTIONSELEMENTE
100
AcDbLine
 62
7
  6
CONTINUOUS
 10
129.437189223
 20
176.8649825829
 11
129.437189223
 21
177.7020672716
  0
LINE
  5
283
100
AcDbEntity
  8
KONSTRUKTIONSELEMENTE
100
AcDbLine
 62
7
  6
CONTINUOUS
 10
129.9265934783
 20
176.8649825829
 11
129.9265934783
 21
177.3765048356
  0
LINE
  5
284
100
AcDbEntity
  8
KONSTRUKTIONSELEMENTE
100
AcDbLine
 62
7
  6
CONTINUOUS
 10
129.9265934783
 20
177.4651284224
 11
129.9265934783
 21
177.7020672716
  0
LINE
  5
285
100
AcDbEntity
  8
KONSTRUKTIONSELEMENTE
100
AcDbLine
 62
7
  6
CONTINUOUS
 10
130.171295781
 20
176.3763576572
 11
130.171295781
 21
176.6718462043
  0
LINE
  5
286
100
AcDbEntity
  8
KONSTRUKTIONSELEMENTE
100
AcDbLine
 62
7
  6
CONTINUOUS
 10
130.5383490599
 20
177.4985344573
 11
130.5383490599
 21
177.6927140059
  0
LINE
  5
287
100
AcDbEntity
  8
KONSTRUKTIONSELEMENTE
100
AcDbLine
 62
7
  6
CONTINUOUS
 10
130.6607000362
 20
176.3763576572
 11
130.6607000362
 21
176.71206535
  0
LINE
  5
288
100
AcDbEntity
  8
KONSTRUKTIONSELEMENTE
100
AcDbLine
 62
7
  6
CONTINUOUS
 10
130.6607000362
 20
176.9012377069
 11
130.6607000362
 21
177.3524868472
  0
LINE
  5
289
100
AcDbEntity
  8
KONSTRUKTIONSELEMENTE
100
AcDbLine
 62
7
  6
CONTINUOUS
 10
130.9054023389
 20
177.541912398
 11
130.9054023389
 21
177.6718372851
  0
LINE
  5
28A
100
AcDbEntity
  8
KONSTRUKTIONSELEMENTE
100
AcDbLine
 62
7
  6
CONTINUOUS
 10
131.0277536653
 20
176.9713997016
 11
131.0277536653
 21
177.3022038417
  0
LINE
  5
28B
100
AcDbEntity
  8
KONSTRUKTIONSELEMENTE
100
AcDbLine
 62
7
  6
CONTINUOUS
 10
131.1501042915
 20
177.6350849632
 11
131.1501042915
 21
177.6069481325
  0
LINE
  5
28C
100
AcDbEntity
  8
KONSTRUKTIONSELEMENTE
100
AcDbLine
 62
7
  6
CONTINUOUS
 10
131.1501042915
 20
176.3763576572
 11
131.1501042915
 21
176.7901094502
  0
LINE
  5
28D
100
AcDbEntity
  8
KONSTRUKTIONSELEMENTE
100
AcDbLine
 62
7
  6
CONTINUOUS
 10
131.2724556179
 20
177.1925947338
 11
131.2724556179
 21
177.0708139879
  0
LINE
  5
28E
100
AcDbEntity
  8
KONSTRUKTIONSELEMENTE
100
AcDbLine
 62
7
  6
CONTINUOUS
 10
131.3948069442
 20
177.385888036
 11
131.3948069442
 21
177.4854305543
  0
LINE
  5
28F
100
AcDbEntity
  8
KONSTRUKTIONSELEMENTE
100
AcDbLine
 62
7
  6
CONTINUOUS
 10
131.5171575705
 20
176.3763576572
 11
131.5171575705
 21
176.8649825829
  0
LINE
  5
290
100
AcDbEntity
  8
KONSTRUKTIONSELEMENTE
100
AcDbLine
 62
7
  6
CONTINUOUS
 10
131.6395088969
 20
177.3401969862
 11
131.6395088969
 21
177.541912398
  0
LINE
  5
291
100
AcDbEntity
  8
KONSTRUKTIONSELEMENTE
100
AcDbLine
 62
7
  6
CONTINUOUS
 10
131.7618602232
 20
176.3763576572
 11
131.7618602232
 21
176.9713997457
  0
LINE
  5
292
100
AcDbEntity
  8
KONSTRUKTIONSELEMENTE
100
AcDbLine
 62
7
  6
CONTINUOUS
 10
131.7618602232
 20
177.3022038417
 11
131.7618602232
 21
177.6350849632
  0
LINE
  5
293
100
AcDbEntity
  8
KONSTRUKTIONSELEMENTE
100
AcDbLine
 62
7
  6
CONTINUOUS
 10
131.8842108495
 20
176.3763576572
 11
131.8842108495
 21
177.1925947338
  0
LINE
  5
294
100
AcDbEntity
  8
KONSTRUKTIONSELEMENTE
100
AcDbLine
 62
7
  6
CONTINUOUS
 10
132.8630200601
 20
176.3763576572
 11
132.8630200601
 21
177.3277204766
  0
LINE
  5
295
100
AcDbEntity
  8
0
100
AcDbLine
 62
7
  6
CONTINUOUS
 10
188.4725498753
 20
188.7158131897
 11
191.7872867273
 21
188.7158131897
  0
LINE
  5
296
100
AcDbEntity
  8
0
100
AcDbLine
 62
7
  6
CONTINUOUS
 10
193.1096551523
 20
188.7158131897
 11
194.2909709453
 21
188.7158131897
  0
LINE
  5
297
100
AcDbEntity
  8
0
100
AcDbLine
 62
7
  6
CONTINUOUS
 10
196.4067604253
 20
190.0381816147
 11
195.0843920003
 21
190.0381816147
  0
LINE
  5
298
100
AcDbEntity
  8
0
100
AcDbLine
 62
7
  6
CONTINUOUS
 10
194.2909709453
 20
190.0381816147
 11
188.4725498753
 21
190.0381816147
  0
LINE
  5
299
100
AcDbEntity
  8
KONSTRUKTIONSELEMENTE
100
AcDbLine
 62
7
  6
CONTINUOUS
 10
133.7325498753
 20
168.8205616319
 11
133.7325498753
 21
160.6290411891
  0
LINE
  5
29A
100
AcDbEntity
  8
KONSTRUKTIONSELEMENTE
100
AcDbLine
 62
7
  6
CONTINUOUS
 10
133.9825498753
 20
177.5455188646
 11
133.9825498753
 21
177.7415103158
  0
LINE
  5
29B
100
AcDbEntity
  8
KONSTRUKTIONSELEMENTE
100
AcDbLine
 62
7
  6
CONTINUOUS
 10
135.3325498753
 20
161.6690356744
 11
135.3325498753
 21
167.6397254415
  0
LINE
  5
29C
100
AcDbEntity
  8
KONSTRUKTIONSELEMENTE
100
AcDbLine
 62
7
  6
CONTINUOUS
 10
135.7994462919
 20
176.3763576572
 11
135.7994462919
 21
177.1632962907
  0
LINE
  5
29D
100
AcDbEntity
  8
KONSTRUKTIONSELEMENTE
100
AcDbLine
 62
7
  6
CONTINUOUS
 10
135.7994462919
 20
177.3277204766
 11
135.7994462919
 21
177.6718372851
  0
LINE
  5
29E
100
AcDbEntity
  8
KONSTRUKTIONSELEMENTE
100
AcDbLine
 62
7
  6
CONTINUOUS
 10
136.1575498753
 20
167.6397254415
 11
136.1575498753
 21
162.9811570119
  0
LINE
  5
29F
100
AcDbEntity
  8
KONSTRUKTIONSELEMENTE
100
AcDbLine
 62
7
  6
CONTINUOUS
 10
136.5335528499
 20
176.3763576572
 11
136.5335528499
 21
177.1632962907
  0
LINE
  5
2A0
100
AcDbEntity
  8
KONSTRUKTIONSELEMENTE
100
AcDbLine
 62
7
  6
CONTINUOUS
 10
136.5335528499
 20
177.3277204766
 11
136.5335528499
 21
177.7380081652
  0
LINE
  5
2A1
100
AcDbEntity
  8
KONSTRUKTIONSELEMENTE
100
AcDbLine
 62
7
  6
CONTINUOUS
 10
136.7533834868
 20
177.3277204766
 11
136.7533834868
 21
177.7361726363
  0
LINE
  5
2A2
100
AcDbEntity
  8
KONSTRUKTIONSELEMENTE
100
AcDbLine
 62
7
  6
CONTINUOUS
 10
137.4825498753
 20
177.3277204766
 11
137.4825498753
 21
177.7415103158
  0
LINE
  5
2A3
100
AcDbEntity
  8
KONSTRUKTIONSELEMENTE
100
AcDbLine
 62
7
  6
CONTINUOUS
 10
137.7570640132
 20
176.3763576572
 11
137.7570640132
 21
177.3277204766
  0
LINE
  5
2A4
100
AcDbEntity
  8
KONSTRUKTIONSELEMENTE
100
AcDbLine
 62
7
  6
CONTINUOUS
 10
138.7358718236
 20
176.3763576572
 11
138.7358718236
 21
177.5049943001
  0
LINE
  5
2A5
100
AcDbEntity
  8
KONSTRUKTIONSELEMENTE
100
AcDbLine
 62
7
  6
CONTINUOUS
 10
138.7950498753
 20
177.5492287713
 11
138.7950498753
 21
177.7415103158
  0
LINE
  5
2A6
100
AcDbEntity
  8
KONSTRUKTIONSELEMENTE
100
AcDbLine
 62
7
  6
CONTINUOUS
 10
138.8582238501
 20
176.3763576572
 11
138.8582238501
 21
177.1632962907
  0
LINE
  5
2A7
100
AcDbEntity
  8
KONSTRUKTIONSELEMENTE
100
AcDbLine
 62
7
  6
CONTINUOUS
 10
138.9805744764
 20
176.3763576572
 11
138.9805744764
 21
177.0708139879
  0
LINE
  5
2A8
100
AcDbEntity
  8
KONSTRUKTIONSELEMENTE
100
AcDbLine
 62
7
  6
CONTINUOUS
 10
139.2252771291
 20
176.3763576572
 11
139.2252771291
 21
176.9367091429
  0
LINE
  5
2A9
100
AcDbEntity
  8
KONSTRUKTIONSELEMENTE
100
AcDbLine
 62
7
  6
CONTINUOUS
 10
139.3476277553
 20
177.4854305543
 11
139.3476277553
 21
177.3277204766
  0
LINE
  5
2AA
100
AcDbEntity
  8
KONSTRUKTIONSELEMENTE
100
AcDbLine
 62
7
  6
CONTINUOUS
 10
139.4699783816
 20
177.1632962907
 11
139.4699783816
 21
177.5917861576
  0
LINE
  5
2AB
100
AcDbEntity
  8
KONSTRUKTIONSELEMENTE
100
AcDbLine
 62
7
  6
CONTINUOUS
 10
139.5242162638
 20
177.7106980619
 11
139.5242162638
 21
177.7361726363
  0
LINE
  5
2AC
100
AcDbEntity
  8
KONSTRUKTIONSELEMENTE
100
AcDbLine
 62
7
  6
CONTINUOUS
 10
139.592330408
 20
176.3763576572
 11
139.592330408
 21
176.8279408257
  0
LINE
  5
2AD
100
AcDbEntity
  8
KONSTRUKTIONSELEMENTE
100
AcDbLine
 62
7
  6
CONTINUOUS
 10
139.959383687
 20
176.9713997457
 11
139.959383687
 21
177.6718372851
  0
LINE
  5
2AE
100
AcDbEntity
  8
KONSTRUKTIONSELEMENTE
100
AcDbLine
 62
7
  6
CONTINUOUS
 10
140.2040849395
 20
176.3763576572
 11
140.2040849395
 21
176.71206535
  0
LINE
  5
2AF
100
AcDbEntity
  8
KONSTRUKTIONSELEMENTE
100
AcDbLine
 62
7
  6
CONTINUOUS
 10
140.2825498753
 20
161.6690356744
 11
140.2825498753
 21
162.9811570119
  0
LINE
  5
2B0
100
AcDbEntity
  8
KONSTRUKTIONSELEMENTE
100
AcDbLine
 62
7
  6
CONTINUOUS
 10
140.326436966
 20
176.9012377069
 11
140.326436966
 21
177.6927140059
  0
LINE
  5
2B1
100
AcDbEntity
  8
KONSTRUKTIONSELEMENTE
100
AcDbLine
 62
7
  6
CONTINUOUS
 10
140.9381914975
 20
176.3763576572
 11
140.9381914975
 21
176.6718462043
  0
LINE
  5
2B2
100
AcDbEntity
  8
KONSTRUKTIONSELEMENTE
100
AcDbLine
 62
7
  6
CONTINUOUS
 10
140.9381914975
 20
176.8649825829
 11
140.9381914975
 21
177.7020672716
  0
LINE
  5
2B3
100
AcDbEntity
  8
KONSTRUKTIONSELEMENTE
100
AcDbLine
 62
7
  6
CONTINUOUS
 10
141.3825500064
 20
161.6690356744
 11
141.3825500064
 21
167.6397254415
  0
LINE
  5
2B4
100
AcDbEntity
  8
KONSTRUKTIONSELEMENTE
100
AcDbLine
 62
7
  6
CONTINUOUS
 10
141.5499474292
 20
176.9012377069
 11
141.5499474292
 21
177.6927140059
  0
LINE
  5
2B5
100
AcDbEntity
  8
KONSTRUKTIONSELEMENTE
100
AcDbLine
 62
7
  6
CONTINUOUS
 10
141.6722980554
 20
176.3763576572
 11
141.6722980554
 21
176.71206535
  0
LINE
  5
2B6
100
AcDbEntity
  8
KONSTRUKTIONSELEMENTE
100
AcDbLine
 62
7
  6
CONTINUOUS
 10
141.9170007082
 20
176.9713997457
 11
141.9170007082
 21
177.6718372851
  0
LINE
  5
2B7
100
AcDbEntity
  8
KONSTRUKTIONSELEMENTE
100
AcDbLine
 62
7
  6
CONTINUOUS
 10
142.2075496131
 20
167.1057214171
 11
142.2075496131
 21
165.4466495316
  0
LINE
  5
2B8
100
AcDbEntity
  8
KONSTRUKTIONSELEMENTE
100
AcDbLine
 62
7
  6
CONTINUOUS
 10
142.2075496131
 20
161.6690356744
 11
142.2075496131
 21
164.7592127086
  0
LINE
  5
2B9
100
AcDbEntity
  8
KONSTRUKTIONSELEMENTE
100
AcDbLine
 62
7
  6
CONTINUOUS
 10
142.2840539871
 20
176.3763576572
 11
142.2840539871
 21
176.8279408257
  0
LINE
  5
2BA
100
AcDbEntity
  8
KONSTRUKTIONSELEMENTE
100
AcDbLine
 62
7
  6
CONTINUOUS
 10
142.4064046134
 20
177.1632962907
 11
142.4064046134
 21
177.5917861576
  0
LINE
  5
2BB
100
AcDbEntity
  8
KONSTRUKTIONSELEMENTE
100
AcDbLine
 62
7
  6
CONTINUOUS
 10
142.5287566398
 20
177.4854305543
 11
142.5287566398
 21
177.3277204766
  0
LINE
  5
2BC
100
AcDbEntity
  8
KONSTRUKTIONSELEMENTE
100
AcDbLine
 62
7
  6
CONTINUOUS
 10
142.6511072661
 20
176.3763576572
 11
142.6511072661
 21
176.9367091429
  0
LINE
  5
2BD
100
AcDbEntity
  8
KONSTRUKTIONSELEMENTE
100
AcDbLine
 62
7
  6
CONTINUOUS
 10
142.8958099188
 20
176.3763576572
 11
142.8958099188
 21
177.0708139879
  0
LINE
  5
2BE
100
AcDbEntity
  8
KONSTRUKTIONSELEMENTE
100
AcDbLine
 62
7
  6
CONTINUOUS
 10
143.0181605451
 20
176.3763576572
 11
143.0181605451
 21
177.1632962907
  0
LINE
  5
2BF
100
AcDbEntity
  8
KONSTRUKTIONSELEMENTE
100
AcDbLine
 62
7
  6
CONTINUOUS
 10
143.1405111713
 20
176.3763576572
 11
143.1405111713
 21
177.5049943001
  0
LINE
  5
2C0
100
AcDbEntity
  8
KONSTRUKTIONSELEMENTE
100
AcDbLine
 62
7
  6
CONTINUOUS
 10
144.119320382
 20
176.3763576572
 11
144.119320382
 21
177.5049943001
  0
LINE
  5
2C1
100
AcDbEntity
  8
KONSTRUKTIONSELEMENTE
100
AcDbLine
 62
7
  6
CONTINUOUS
 10
144.2416710083
 20
176.3763576572
 11
144.2416710083
 21
177.1632962907
  0
LINE
  5
2C2
100
AcDbEntity
  8
KONSTRUKTIONSELEMENTE
100
AcDbLine
 62
7
  6
CONTINUOUS
 10
144.3640230347
 20
176.3763576572
 11
144.3640230347
 21
177.0708139879
  0
LINE
  5
2C3
100
AcDbEntity
  8
KONSTRUKTIONSELEMENTE
100
AcDbLine
 62
7
  6
CONTINUOUS
 10
144.6087242872
 20
176.3763576572
 11
144.6087242872
 21
176.9367091429
  0
LINE
  5
2C4
100
AcDbEntity
  8
KONSTRUKTIONSELEMENTE
100
AcDbLine
 62
7
  6
CONTINUOUS
 10
144.6825496131
 20
164.1856154928
 11
144.6825496131
 21
164.7592127086
  0
LINE
  5
2C5
100
AcDbEntity
  8
KONSTRUKTIONSELEMENTE
100
AcDbLine
 62
7
  6
CONTINUOUS
 10
144.7310763137
 20
177.4854305543
 11
144.7310763137
 21
177.3277204766
  0
LINE
  5
2C6
100
AcDbEntity
  8
BG_STARTBEZUEGE
100
AcDbLine
 62
7
  6
CENTER
 10
144.7325498753
 20
129.0097993164
 11
144.7325498753
 21
278.0081817147
  0
LINE
  5
2C7
100
AcDbEntity
  8
KONSTRUKTIONSELEMENTE
100
AcDbLine
 62
7
  6
CONTINUOUS
 10
144.8200498753
 20
166.5297305128
 11
144.8200498753
 21
167.1057214171
  0
LINE
  5
2C8
100
AcDbEntity
  8
KONSTRUKTIONSELEMENTE
100
AcDbLine
 62
7
  6
CONTINUOUS
 10
144.8534269399
 20
177.1632962907
 11
144.8534269399
 21
177.5917861576
  0
LINE
  5
2C9
100
AcDbEntity
  8
KONSTRUKTIONSELEMENTE
100
AcDbLine
 62
7
  6
CONTINUOUS
 10
144.9757775662
 20
176.3763576572
 11
144.9757775662
 21
176.8279408257
  0
LINE
  5
2CA
100
AcDbEntity
  8
KONSTRUKTIONSELEMENTE
100
AcDbLine
 62
7
  6
CONTINUOUS
 10
145.2325498753
 20
166.4220289081
 11
145.2325498753
 21
166.9977736149
  0
LINE
  5
2CB
100
AcDbEntity
  8
KONSTRUKTIONSELEMENTE
100
AcDbLine
 62
7
  6
CONTINUOUS
 10
145.3428308452
 20
176.9713997457
 11
145.3428308452
 21
177.6718372851
  0
LINE
  5
2CC
100
AcDbEntity
  8
KONSTRUKTIONSELEMENTE
100
AcDbLine
 62
7
  6
CONTINUOUS
 10
145.3700501376
 20
164.3011476486
 11
145.3700501376
 21
164.87472812
  0
LINE
  5
2CD
100
AcDbEntity
  8
KONSTRUKTIONSELEMENTE
100
AcDbLine
 62
7
  6
CONTINUOUS
 10
145.5075496131
 20
166.2054423473
 11
145.5075496131
 21
166.7807349542
  0
LINE
  5
2CE
100
AcDbEntity
  8
KONSTRUKTIONSELEMENTE
100
AcDbLine
 62
7
  6
CONTINUOUS
 10
145.5875334979
 20
176.3763576572
 11
145.5875334979
 21
176.71206535
  0
LINE
  5
2CF
100
AcDbEntity
  8
KONSTRUKTIONSELEMENTE
100
AcDbLine
 62
7
  6
CONTINUOUS
 10
145.6450498753
 20
166.4523256314
 11
145.6450498753
 21
166.1205031029
  0
LINE
  5
2D0
100
AcDbEntity
  8
KONSTRUKTIONSELEMENTE
100
AcDbLine
 62
7
  6
CONTINUOUS
 10
145.7098841242
 20
176.9012377069
 11
145.7098841242
 21
177.6927140059
  0
LINE
  5
2D1
100
AcDbEntity
  8
KONSTRUKTIONSELEMENTE
100
AcDbLine
 62
7
  6
CONTINUOUS
 10
145.9200496131
 20
164.6454039434
 11
145.9200496131
 21
165.2190121915
  0
LINE
  5
2D2
100
AcDbEntity
  8
KONSTRUKTIONSELEMENTE
100
AcDbLine
 62
7
  6
CONTINUOUS
 10
146.3216400558
 20
176.3763576572
 11
146.3216400558
 21
176.6718462043
  0
LINE
  5
2D3
100
AcDbEntity
  8
KONSTRUKTIONSELEMENTE
100
AcDbLine
 62
7
  6
CONTINUOUS
 10
146.3216400558
 20
176.8649825829
 11
146.3216400558
 21
177.7020672716
  0
LINE
  5
2D4
100
AcDbEntity
  8
KONSTRUKTIONSELEMENTE
100
AcDbLine
 62
7
  6
CONTINUOUS
 10
146.3325496131
 20
165.0989504358
 11
146.3325496131
 21
165.6727778868
  0
LINE
  5
2D5
100
AcDbEntity
  8
KONSTRUKTIONSELEMENTE
100
AcDbLine
 62
7
  6
CONTINUOUS
 10
146.4700498753
 20
165.4350098287
 11
146.4700498753
 21
166.4523256314
  0
LINE
  5
2D6
100
AcDbEntity
  8
KONSTRUKTIONSELEMENTE
100
AcDbLine
 62
7
  6
CONTINUOUS
 10
146.9333959875
 20
176.9012377069
 11
146.9333959875
 21
177.6927140059
  0
LINE
  5
2D7
100
AcDbEntity
  8
KONSTRUKTIONSELEMENTE
100
AcDbLine
 62
7
  6
CONTINUOUS
 10
147.0557466138
 20
176.3763576572
 11
147.0557466138
 21
176.71206535
  0
LINE
  5
2D8
100
AcDbEntity
  8
KONSTRUKTIONSELEMENTE
100
AcDbLine
 62
7
  6
CONTINUOUS
 10
147.3004492665
 20
176.9713997457
 11
147.3004492665
 21
177.6718372851
  0
LINE
  5
2D9
100
AcDbEntity
  8
KONSTRUKTIONSELEMENTE
100
AcDbLine
 62
7
  6
CONTINUOUS
 10
147.5700496131
 20
167.0622999322
 11
147.5700496131
 21
167.6397254415
  0
LINE
  5
2DA
100
AcDbEntity
  8
KONSTRUKTIONSELEMENTE
100
AcDbLine
 62
7
  6
CONTINUOUS
 10
147.6675025455
 20
176.3763576572
 11
147.6675025455
 21
176.8279408257
  0
LINE
  5
2DB
100
AcDbEntity
  8
KONSTRUKTIONSELEMENTE
100
AcDbLine
 62
7
  6
CONTINUOUS
 10
147.7898531717
 20
177.1632962907
 11
147.7898531717
 21
177.5917861576
  0
LINE
  5
2DC
100
AcDbEntity
  8
KONSTRUKTIONSELEMENTE
100
AcDbLine
 62
7
  6
CONTINUOUS
 10
147.912203798
 20
177.4854305543
 11
147.912203798
 21
177.3277204766
  0
LINE
  5
2DD
100
AcDbEntity
  8
KONSTRUKTIONSELEMENTE
100
AcDbLine
 62
7
  6
CONTINUOUS
 10
148.0345558245
 20
176.3763576572
 11
148.0345558245
 21
176.9367091429
  0
LINE
  5
2DE
100
AcDbEntity
  8
KONSTRUKTIONSELEMENTE
100
AcDbLine
 62
7
  6
CONTINUOUS
 10
148.279257077
 20
176.3763576572
 11
148.279257077
 21
177.0708139879
  0
LINE
  5
2DF
100
AcDbEntity
  8
KONSTRUKTIONSELEMENTE
100
AcDbLine
 62
7
  6
CONTINUOUS
 10
148.4016091034
 20
176.3763576572
 11
148.4016091034
 21
177.1632962907
  0
LINE
  5
2E0
100
AcDbEntity
  8
KONSTRUKTIONSELEMENTE
100
AcDbLine
 62
7
  6
CONTINUOUS
 10
148.5239597297
 20
176.3763576572
 11
148.5239597297
 21
177.5049943001
  0
LINE
  5
2E1
100
AcDbEntity
  8
KONSTRUKTIONSELEMENTE
100
AcDbLine
 62
7
  6
CONTINUOUS
 10
148.6700493508
 20
161.6690356744
 11
148.6700493508
 21
162.2460177459
  0
LINE
  5
2E2
100
AcDbEntity
  8
KONSTRUKTIONSELEMENTE
100
AcDbLine
 62
7
  6
CONTINUOUS
 10
149.5027675402
 20
176.3763576572
 11
149.5027675402
 21
177.3277204766
  0
LINE
  5
2E3
100
AcDbEntity
  8
KONSTRUKTIONSELEMENTE
100
AcDbLine
 62
7
  6
CONTINUOUS
 10
149.6251195666
 20
176.3763576572
 11
149.6251195666
 21
176.9713997457
  0
LINE
  5
2E4
100
AcDbEntity
  8
KONSTRUKTIONSELEMENTE
100
AcDbLine
 62
7
  6
CONTINUOUS
 10
149.7474715931
 20
176.3763576572
 11
149.7474715931
 21
176.9012377069
  0
LINE
  5
2E5
100
AcDbEntity
  8
KONSTRUKTIONSELEMENTE
100
AcDbLine
 62
7
  6
CONTINUOUS
 10
149.7700498753
 20
161.6690356744
 11
149.7700498753
 21
162.2460177459
  0
LINE
  5
2E6
100
AcDbEntity
  8
KONSTRUKTIONSELEMENTE
100
AcDbLine
 62
7
  6
CONTINUOUS
 10
150.1145248721
 20
177.3022038417
 11
150.1145248721
 21
177.1332349268
  0
LINE
  5
2E7
100
AcDbEntity
  8
KONSTRUKTIONSELEMENTE
100
AcDbLine
 62
7
  6
CONTINUOUS
 10
150.1145248721
 20
176.3763576572
 11
150.1145248721
 21
176.7901094502
  0
LINE
  5
2E8
100
AcDbEntity
  8
KONSTRUKTIONSELEMENTE
100
AcDbLine
 62
7
  6
CONTINUOUS
 10
150.2368740981
 20
177.054727228
 11
150.2368740981
 21
177.3765048356
  0
LINE
  5
2E9
100
AcDbEntity
  8
KONSTRUKTIONSELEMENTE
100
AcDbLine
 62
7
  6
CONTINUOUS
 10
150.481578151
 20
176.3763576572
 11
150.481578151
 21
176.71206535
  0
LINE
  5
2EA
100
AcDbEntity
  8
KONSTRUKTIONSELEMENTE
100
AcDbLine
 62
7
  6
CONTINUOUS
 10
150.481578151
 20
176.9483374426
 11
150.481578151
 21
177.4440863892
  0
LINE
  5
2EB
100
AcDbEntity
  8
KONSTRUKTIONSELEMENTE
100
AcDbLine
 62
7
  6
CONTINUOUS
 10
150.8700503998
 20
166.0965583522
 11
150.8700503998
 21
166.6716449627
  0
LINE
  5
2EC
100
AcDbEntity
  8
KONSTRUKTIONSELEMENTE
100
AcDbLine
 62
7
  6
CONTINUOUS
 10
150.9709806561
 20
176.3763576572
 11
150.9709806561
 21
176.6718462043
  0
LINE
  5
2ED
100
AcDbEntity
  8
KONSTRUKTIONSELEMENTE
100
AcDbLine
 62
7
  6
CONTINUOUS
 10
150.9709806561
 20
176.8832083686
 11
150.9709806561
 21
177.4854305543
  0
LINE
  5
2EE
100
AcDbEntity
  8
KONSTRUKTIONSELEMENTE
100
AcDbLine
 62
7
  6
CONTINUOUS
 10
151.705087214
 20
176.3763576572
 11
151.705087214
 21
176.6718462043
  0
LINE
  5
2EF
100
AcDbEntity
  8
KONSTRUKTIONSELEMENTE
100
AcDbLine
 62
7
  6
CONTINUOUS
 10
151.705087214
 20
176.8649825829
 11
151.705087214
 21
177.4854305543
  0
LINE
  5
2F0
100
AcDbEntity
  8
KONSTRUKTIONSELEMENTE
100
AcDbLine
 62
7
  6
CONTINUOUS
 10
151.9700493508
 20
161.6690356744
 11
151.9700493508
 21
162.2460177459
  0
LINE
  5
2F1
100
AcDbEntity
  8
KONSTRUKTIONSELEMENTE
100
AcDbLine
 62
7
  6
CONTINUOUS
 10
152.1944925194
 20
176.3763576572
 11
152.1944925194
 21
176.71206535
  0
LINE
  5
2F2
100
AcDbEntity
  8
KONSTRUKTIONSELEMENTE
100
AcDbLine
 62
7
  6
CONTINUOUS
 10
152.1944925194
 20
176.9012377069
 11
152.1944925194
 21
177.4651284224
  0
LINE
  5
2F3
100
AcDbEntity
  8
KONSTRUKTIONSELEMENTE
100
AcDbLine
 62
7
  6
CONTINUOUS
 10
152.439193772
 20
176.3763576572
 11
152.439193772
 21
176.7514853458
  0
LINE
  5
2F4
100
AcDbEntity
  8
KONSTRUKTIONSELEMENTE
100
AcDbLine
 62
7
  6
CONTINUOUS
 10
152.5615457984
 20
176.9713997457
 11
152.5615457984
 21
177.4223028803
  0
LINE
  5
2F5
100
AcDbEntity
  8
KONSTRUKTIONSELEMENTE
100
AcDbLine
 62
7
  6
CONTINUOUS
 10
152.6838978249
 20
176.3763576572
 11
152.6838978249
 21
176.8279408257
  0
LINE
  5
2F6
100
AcDbEntity
  8
KONSTRUKTIONSELEMENTE
100
AcDbLine
 62
7
  6
CONTINUOUS
 10
152.8062470509
 20
177.7380081652
 11
152.8062470509
 21
177.4651284224
  0
LINE
  5
2F7
100
AcDbEntity
  8
KONSTRUKTIONSELEMENTE
100
AcDbLine
 62
7
  6
CONTINUOUS
 10
152.8062470509
 20
177.3524868472
 11
152.8062470509
 21
177.0708139879
  0
LINE
  5
2F8
100
AcDbEntity
  8
KONSTRUKTIONSELEMENTE
100
AcDbLine
 62
7
  6
CONTINUOUS
 10
152.8062470509
 20
176.3763576572
 11
152.8062470509
 21
176.9012377069
  0
LINE
  5
2F9
100
AcDbEntity
  8
KONSTRUKTIONSELEMENTE
100
AcDbLine
 62
7
  6
CONTINUOUS
 10
153.0700498753
 20
161.6690356744
 11
153.0700498753
 21
162.2460177459
  0
LINE
  5
2FA
100
AcDbEntity
  8
KONSTRUKTIONSELEMENTE
100
AcDbLine
 62
7
  6
CONTINUOUS
 10
153.4180043828
 20
176.3763576572
 11
153.4180043828
 21
177.7380081652
  0
LINE
  5
2FB
100
AcDbEntity
  8
KONSTRUKTIONSELEMENTE
100
AcDbLine
 62
7
  6
CONTINUOUS
 10
154.1700503998
 20
167.0622999322
 11
154.1700503998
 21
167.6397254415
  0
LINE
  5
2FC
100
AcDbEntity
  8
KONSTRUKTIONSELEMENTE
100
AcDbLine
 62
7
  6
CONTINUOUS
 10
154.3968121933
 20
176.3763576572
 11
154.3968121933
 21
177.4651284224
  0
LINE
  5
2FD
100
AcDbEntity
  8
KONSTRUKTIONSELEMENTE
100
AcDbLine
 62
7
  6
CONTINUOUS
 10
154.5191642197
 20
176.3763576572
 11
154.5191642197
 21
176.8649825829
  0
LINE
  5
2FE
100
AcDbEntity
  8
KONSTRUKTIONSELEMENTE
100
AcDbLine
 62
7
  6
CONTINUOUS
 10
154.8862174987
 20
176.3763576572
 11
154.8862174987
 21
176.7514853458
  0
LINE
  5
2FF
100
AcDbEntity
  8
KONSTRUKTIONSELEMENTE
100
AcDbLine
 62
7
  6
CONTINUOUS
 10
155.0085667248
 20
177.0384495135
 11
155.0085667248
 21
176.9713997457
  0
LINE
  5
300
100
AcDbEntity
  8
KONSTRUKTIONSELEMENTE
100
AcDbLine
 62
7
  6
CONTINUOUS
 10
155.0085667248
 20
177.2891633806
 11
155.0085667248
 21
177.4223028803
  0
LINE
  5
301
100
AcDbEntity
  8
KONSTRUKTIONSELEMENTE
100
AcDbLine
 62
7
  6
CONTINUOUS
 10
155.1309187512
 20
176.3763576572
 11
155.1309187512
 21
176.71206535
  0
LINE
  5
302
100
AcDbEntity
  8
KONSTRUKTIONSELEMENTE
100
AcDbLine
 62
7
  6
CONTINUOUS
 10
155.1309187512
 20
176.9012377069
 11
155.1309187512
 21
177.1332349268
  0
LINE
  5
303
100
AcDbEntity
  8
KONSTRUKTIONSELEMENTE
100
AcDbLine
 62
7
  6
CONTINUOUS
 10
155.1309187512
 20
177.3022037295
 11
155.1309187512
 21
177.4651284224
  0
LINE
  5
304
100
AcDbEntity
  8
KONSTRUKTIONSELEMENTE
100
AcDbLine
 62
7
  6
CONTINUOUS
 10
155.3756200038
 20
176.8649826169
 11
155.3756200038
 21
177.1925947338
  0
LINE
  5
305
100
AcDbEntity
  8
KONSTRUKTIONSELEMENTE
100
AcDbLine
 62
7
  6
CONTINUOUS
 10
155.3756200038
 20
177.3277204766
 11
155.3756200038
 21
177.4854305543
  0
LINE
  5
306
100
AcDbEntity
  8
KONSTRUKTIONSELEMENTE
100
AcDbLine
 62
7
  6
CONTINUOUS
 10
155.6203240567
 20
176.3763576572
 11
155.6203240567
 21
176.6718462043
  0
LINE
  5
307
100
AcDbEntity
  8
KONSTRUKTIONSELEMENTE
100
AcDbLine
 62
7
  6
CONTINUOUS
 10
155.6203240567
 20
176.8279408257
 11
155.6203240567
 21
177.2211325319
  0
LINE
  5
308
100
AcDbEntity
  8
KONSTRUKTIONSELEMENTE
100
AcDbLine
 62
7
  6
CONTINUOUS
 10
155.7325498753
 20
160.6290411891
 11
155.7325498753
 21
168.8205616319
  0
LINE
  5
309
100
AcDbEntity
  8
KONSTRUKTIONSELEMENTE
100
AcDbLine
 62
7
  6
CONTINUOUS
 10
155.8650253092
 20
177.3443094629
 11
155.8650253092
 21
177.5049943001
  0
LINE
  5
30A
100
AcDbEntity
  8
KONSTRUKTIONSELEMENTE
100
AcDbLine
 62
7
  6
CONTINUOUS
 10
156.1097265617
 20
176.8279408257
 11
156.1097265617
 21
177.2489118934
  0
LINE
  5
30B
100
AcDbEntity
  8
KONSTRUKTIONSELEMENTE
100
AcDbLine
 62
7
  6
CONTINUOUS
 10
156.3544306146
 20
176.3763576572
 11
156.3544306146
 21
176.6718462043
  0
LINE
  5
30C
100
AcDbEntity
  8
KONSTRUKTIONSELEMENTE
100
AcDbLine
 62
7
  6
CONTINUOUS
 10
156.5991318671
 20
177.3524868472
 11
156.5991318671
 21
177.5049943001
  0
LINE
  5
30D
100
AcDbEntity
  8
KONSTRUKTIONSELEMENTE
100
AcDbLine
 62
7
  6
CONTINUOUS
 10
156.9661851461
 20
176.3763576572
 11
156.9661851461
 21
176.71206535
  0
LINE
  5
30E
100
AcDbEntity
  8
KONSTRUKTIONSELEMENTE
100
AcDbLine
 62
7
  6
CONTINUOUS
 10
157.0885371726
 20
177.3524868472
 11
157.0885371726
 21
177.4854305543
  0
LINE
  5
30F
100
AcDbEntity
  8
KONSTRUKTIONSELEMENTE
100
AcDbLine
 62
7
  6
CONTINUOUS
 10
157.3332384251
 20
176.3763576572
 11
157.3332384251
 21
176.7901094502
  0
LINE
  5
310
100
AcDbEntity
  8
KONSTRUKTIONSELEMENTE
100
AcDbLine
 62
7
  6
CONTINUOUS
 10
157.3332384251
 20
177.3524868472
 11
157.3332384251
 21
177.4651284224
  0
LINE
  5
311
100
AcDbEntity
  8
KONSTRUKTIONSELEMENTE
100
AcDbLine
 62
7
  6
CONTINUOUS
 10
157.4555904515
 20
177.2489118934
 11
157.4555904515
 21
177.0708139879
  0
LINE
  5
312
100
AcDbEntity
  8
KONSTRUKTIONSELEMENTE
100
AcDbLine
 62
7
  6
CONTINUOUS
 10
157.4555904515
 20
177.4223028803
 11
157.4555904515
 21
177.3524868472
  0
LINE
  5
313
100
AcDbEntity
  8
KONSTRUKTIONSELEMENTE
100
AcDbLine
 62
7
  6
CONTINUOUS
 10
157.4555904515
 20
176.3763576572
 11
157.4555904515
 21
176.8649825829
  0
LINE
  5
314
100
AcDbEntity
  8
KONSTRUKTIONSELEMENTE
100
AcDbLine
 62
7
  6
CONTINUOUS
 10
157.5779396776
 20
176.3763576572
 11
157.5779396776
 21
176.7514853458
  0
LINE
  5
315
100
AcDbEntity
  8
KONSTRUKTIONSELEMENTE
100
AcDbLine
 62
7
  6
CONTINUOUS
 10
157.7002917041
 20
176.3763576572
 11
157.7002917041
 21
176.6718462043
  0
LINE
  5
316
100
AcDbEntity
  8
KONSTRUKTIONSELEMENTE
100
AcDbLine
 62
7
  6
CONTINUOUS
 10
158.067344983
 20
177.4223028803
 11
158.067344983
 21
176.9713997457
  0
LINE
  5
317
100
AcDbEntity
  8
KONSTRUKTIONSELEMENTE
100
AcDbLine
 62
7
  6
CONTINUOUS
 10
158.3120462356
 20
176.3763576572
 11
158.3120462356
 21
176.6718462043
  0
LINE
  5
318
100
AcDbEntity
  8
KONSTRUKTIONSELEMENTE
100
AcDbLine
 62
7
  6
CONTINUOUS
 10
159.2908568464
 20
176.3763576572
 11
159.2908568464
 21
177.7380081652
  0
LINE
  5
319
100
AcDbEntity
  8
KONSTRUKTIONSELEMENTE
100
AcDbLine
 62
7
  6
CONTINUOUS
 10
160.0249634044
 20
176.3763576572
 11
160.0249634044
 21
177.6927140059
  0
LINE
  5
31A
100
AcDbEntity
  8
KONSTRUKTIONSELEMENTE
100
AcDbLine
 62
7
  6
CONTINUOUS
 10
163.0837388622
 20
176.3832526032
 11
163.0837388622
 21
176.6718462043
  0
LINE
  5
31B
100
AcDbEntity
  8
KONSTRUKTIONSELEMENTE
100
AcDbLine
 62
7
  6
CONTINUOUS
 10
163.4507921412
 20
177.7380081652
 11
163.4507921412
 21
176.9367091429
  0
LINE
  5
31C
100
AcDbEntity
  8
KONSTRUKTIONSELEMENTE
100
AcDbLine
 62
7
  6
CONTINUOUS
 10
164.1848986992
 20
176.4931641822
 11
164.1848986992
 21
177.7380081652
  0
LINE
  5
31D
100
AcDbEntity
  8
KONSTRUKTIONSELEMENTE
100
AcDbLine
 62
7
  6
CONTINUOUS
 10
165.7325498753
 20
177.7581816147
 11
165.7325498753
 21
177.1520585281
  0
LINE
  5
31E
100
AcDbEntity
  8
0
100
AcDbLine
 62
7
  6
CONTINUOUS
 10
174.7325498753
 20
173.7581816147
 11
174.7325498753
 21
141.6933619793
  0
LINE
  5
31F
100
AcDbEntity
  8
KONSTRUKTIONSELEMENTE
100
AcDbLine
 62
7
  6
CONTINUOUS
 10
174.7325498753
 20
141.6933619793
 11
174.7325498753
 21
137.96553505
  0
LINE
  5
320
100
AcDbEntity
  8
BEZUGSACHSEN
100
AcDbLine
 62
7
  6
CONTINUOUS
 10
177.7325498753
 20
170.0081816453
 11
177.7325498753
 21
178.5972656538
  0
LINE
  5
321
100
AcDbEntity
  8
BEZUGSACHSEN
100
AcDbLine
 62
7
  6
CONTINUOUS
 10
178.2325499753
 20
217.5081816785
 11
178.2325499753
 21
208.9719869342
  0
LINE
  5
322
100
AcDbEntity
  8
0
100
AcDbLine
 62
7
  6
CONTINUOUS
 10
191.1261025148
 20
186.2208346677
 11
188.4725498753
 21
184.688805337
  0
LINE
  5
323
100
AcDbEntity
  8
0
100
AcDbLine
 62
7
  6
CONTINUOUS
 10
188.4725498753
 20
183.1618658047
 11
191.9434153939
 21
185.1657709462
  0
LINE
  5
324
100
AcDbEntity
  8
0
100
AcDbLine
 62
7
  6
CONTINUOUS
 10
188.4725498753
 20
190.0381816147
 11
188.4725498753
 21
188.7158131897
  0
LINE
  5
325
100
AcDbEntity
  8
0
100
AcDbLine
 62
7
  6
CONTINUOUS
 10
188.4725498753
 20
184.688805337
 11
188.4725498753
 21
183.1618658047
  0
LINE
  5
326
100
AcDbEntity
  8
0
100
AcDbLine
 62
7
  6
CONTINUOUS
 10
188.4725498753
 20
174.1697605147
 11
188.4725498753
 21
170.5905499777
  0
LINE
  5
327
100
AcDbEntity
  8
0
100
AcDbLine
 62
7
  6
CONTINUOUS
 10
189.7949183003
 20
170.9287078687
 11
189.7949183003
 21
172.5829184047
  0
LINE
  5
328
100
AcDbEntity
  8
0
100
AcDbLine
 62
7
  6
CONTINUOUS
 10
191.7872867273
 20
188.7158131897
 11
191.7872867273
 21
187.3660393169
  0
LINE
  5
329
100
AcDbEntity
  8
0
100
AcDbLine
 62
7
  6
CONTINUOUS
 10
193.1096551523
 20
186.5294973937
 11
193.1096551523
 21
188.7158131897
  0
LINE
  5
32A
100
AcDbEntity
  8
0
100
AcDbLine
 62
7
  6
CONTINUOUS
 10
194.2909709453
 20
172.5829184047
 11
194.2909709453
 21
174.1697605147
  0
LINE
  5
32B
100
AcDbEntity
  8
0
100
AcDbLine
 62
7
  6
CONTINUOUS
 10
194.2909709453
 20
188.7158131897
 11
194.2909709453
 21
190.0381816147
  0
LINE
  5
32C
100
AcDbEntity
  8
0
100
AcDbLine
 62
7
  6
CONTINUOUS
 10
195.0843920003
 20
190.0381816147
 11
195.0843920003
 21
186.5294973937
  0
LINE
  5
32D
100
AcDbEntity
  8
0
100
AcDbLine
 62
7
  6
CONTINUOUS
 10
195.0843920003
 20
174.1697605147
 11
195.0843920003
 21
170.9287077851
  0
LINE
  5
32E
100
AcDbEntity
  8
0
100
AcDbLine
 62
7
  6
CONTINUOUS
 10
196.4067604253
 20
170.5905499777
 11
196.4067604253
 21
174.1697605147
  0
LINE
  5
32F
100
AcDbEntity
  8
0
100
AcDbLine
 62
7
  6
CONTINUOUS
 10
196.4067604253
 20
175.7566026247
 11
196.4067604253
 21
177.3434447347
  0
LINE
  5
330
100
AcDbEntity
  8
0
100
AcDbLine
 62
7
  6
CONTINUOUS
 10
196.4067604253
 20
180.5171289547
 11
196.4067604253
 21
182.1039710647
  0
LINE
  5
331
100
AcDbEntity
  8
0
100
AcDbLine
 62
7
  6
CONTINUOUS
 10
196.4067604253
 20
186.0005500237
 11
196.4067604253
 21
190.0381816147
  0
LINE
  5
332
100
AcDbEntity
  8
BEZUGSACHSEN
100
AcDbLine
 62
7
  6
CONTINUOUS
 10
202.2325499753
 20
217.5081816147
 11
202.2325499753
 21
141.508182064
  0
LINE
  5
333
100
AcDbEntity
  8
BEZUGSACHSEN
100
AcDbLine
 62
7
  6
CONTINUOUS
 10
187.6844173983
 20
254.7347640611
 11
201.4272755537
 21
221.5565695166
  0
LINE
  5
334
100
AcDbEntity
  8
BEZUGSACHSEN
100
AcDbLine
 62
7
  6
CONTINUOUS
 10
148.7809377772
 20
274.2029072931
 11
181.9591323217
 21
260.4600491377
  0
LINE
  5
335
100
AcDbEntity
  8
KONSTRUKTIONSELEMENTE
100
AcDbLine
 62
7
  6
CONTINUOUS
 10
285.7694028424
 20
133.7581816147
 11
280.3294028424
 21
133.7581816147
  0
LINE
  5
336
100
AcDbEntity
  8
KONSTRUKTIONSELEMENTE
100
AcDbLine
 62
7
  6
CONTINUOUS
 10
244.5979697435
 20
133.7581816147
 11
239.1579697435
 21
133.7581816147
  0
LINE
  5
337
100
AcDbEntity
  8
KONSTRUKTIONSELEMENTE
100
AcDbLine
 62
7
  6
CONTINUOUS
 10
231.2470165774
 20
145.5556735331
 11
238.6289888014
 21
136.7581816147
  0
LINE
  5
338
100
AcDbEntity
  8
KONSTRUKTIONSELEMENTE
100
AcDbLine
 62
7
  6
CONTINUOUS
 10
249.1387828373
 20
138.65631018
 11
248.9572717825
 21
139.0580889893
  0
LINE
  5
339
100
AcDbEntity
  8
KONSTRUKTIONSELEMENTE
100
AcDbLine
 62
7
  6
CONTINUOUS
 10
247.5000017029
 20
141.7314488938
 11
248.4849213751
 21
138.8941222466
  0
LINE
  5
33A
100
AcDbEntity
  8
KONSTRUKTIONSELEMENTE
100
AcDbLine
 62
7
  6
CONTINUOUS
 10
248.9572717825
 20
139.0580889893
 11
247.7709030032
 21
142.4757440993
  0
LINE
  5
33B
100
AcDbEntity
  8
KONSTRUKTIONSELEMENTE
100
AcDbLine
 62
7
  6
CONTINUOUS
 10
239.1579697435
 20
133.7581816147
 11
238.6289888014
 21
136.7581816147
  0
LINE
  5
33C
100
AcDbEntity
  8
0
100
AcDbLine
 62
7
  6
CONTINUOUS
 10
273.7136862929
 20
175.7566026247
 11
274.2136862929
 21
175.7566026247
  0
LINE
  5
33D
100
AcDbEntity
  8
0
100
AcDbLine
 62
7
  6
CONTINUOUS
 10
273.7136862929
 20
182.1039710647
 11
274.2136862929
 21
182.1039710647
  0
LINE
  5
33E
100
AcDbEntity
  8
0
100
AcDbLine
 62
7
  6
CONTINUOUS
 10
273.7136862929
 20
183.1618658047
 11
274.2136862929
 21
183.1618658047
  0
LINE
  5
33F
100
AcDbEntity
  8
KONSTRUKTIONSELEMENTE
100
AcDbLine
 62
7
  6
CONTINUOUS
 10
233.1748060793
 20
154.2513700329
 11
231.2470165774
 21
145.5556735331
  0
LINE
  5
340
100
AcDbEntity
  8
0
100
AcDbLine
 62
7
  6
CONTINUOUS
 10
273.7136862929
 20
184.688805337
 11
274.2136862929
 21
184.688805337
  0
LINE
  5
341
100
AcDbEntity
  8
0
100
AcDbLine
 62
7
  6
CONTINUOUS
 10
273.7136862929
 20
188.7158131897
 11
274.2136862929
 21
188.7158131897
  0
LINE
  5
342
100
AcDbEntity
  8
BEZUGSACHSEN
100
AcDbLine
 62
7
  6
CONTINUOUS
 10
251.2136862929
 20
270.0081817147
 11
251.2136862929
 21
147.7581816147
  0
LINE
  5
343
100
AcDbEntity
  8
0
100
AcDbLine
 62
7
  6
CONTINUOUS
 10
273.7136862929
 20
190.0381816147
 11
274.2136862929
 21
190.0381816147
  0
LINE
  5
344
100
AcDbEntity
  8
KONSTRUKTIONSELEMENTE
100
AcDbLine
 62
7
  6
CONTINUOUS
 10
273.7399977423
 20
151.8624233346
 11
280.3294028424
 21
133.7581816147
  0
LINE
  5
345
100
AcDbEntity
  8
BG_STARTBEZUEGE
100
AcDbLine
 62
7
  6
CENTER
 10
262.4636862929
 20
129.0097993164
 11
262.4636862929
 21
278.0081817147
  0
LINE
  5
346
100
AcDbEntity
  8
KONSTRUKTIONSELEMENTE
100
AcDbLine
 62
7
  6
CONTINUOUS
 10
244.5979697435
 20
133.7581816147
 11
251.1873748435
 21
151.8624233346
  0
LINE
  5
347
100
AcDbEntity
  8
BEZUGSACHSEN
100
AcDbLine
 62
7
  6
CONTINUOUS
 10
273.7136862929
 20
270.0081817147
 11
273.7136862929
 21
269.5835096305
  0
LINE
  5
348
100
AcDbEntity
  8
RUNDUNGEN
100
AcDbLine
 62
7
  6
CONTINUOUS
 10
273.7136862929
 20
269.5835096305
 11
273.7136862929
 21
147.7581816147
  0
LINE
  5
349
100
AcDbEntity
  8
0
100
AcDbLine
 62
7
  6
CONTINUOUS
 10
274.2136862929
 20
190.0381816147
 11
274.2136862929
 21
183.1618658047
  0
LINE
  5
34A
100
AcDbEntity
  8
0
100
AcDbLine
 62
7
  6
CONTINUOUS
 10
274.2136862929
 20
182.1039710647
 11
274.2136862929
 21
175.7566026247
  0
LINE
  5
34B
100
AcDbEntity
  8
0
100
AcDbLine
 62
7
  6
CONTINUOUS
 10
291.7525665065
 20
154.2513700329
 11
293.6803560085
 21
145.5556735331
  0
LINE
  5
34C
100
AcDbEntity
  8
KONSTRUKTIONSELEMENTE
100
AcDbLine
 62
7
  6
CONTINUOUS
 10
286.2983837845
 20
136.7581816147
 11
285.7694028424
 21
133.7581816147
  0
LINE
  5
34D
100
AcDbEntity
  8
KONSTRUKTIONSELEMENTE
100
AcDbLine
 62
7
  6
CONTINUOUS
 10
277.1564695826
 20
142.4757440993
 11
275.9701008034
 21
139.0580889893
  0
LINE
  5
34E
100
AcDbEntity
  8
KONSTRUKTIONSELEMENTE
100
AcDbLine
 62
7
  6
CONTINUOUS
 10
276.4424512107
 20
138.8941222466
 11
277.4273708829
 21
141.7314488938
  0
LINE
  5
34F
100
AcDbEntity
  8
KONSTRUKTIONSELEMENTE
100
AcDbLine
 62
7
  6
CONTINUOUS
 10
290.4394918082
 20
141.6933619793
 11
286.2983837845
 21
136.7581816147
  0
LINE
  5
350
100
AcDbEntity
  8
0
100
AcDbLine
 62
7
  6
CONTINUOUS
 10
290.4394918082
 20
141.6933619793
 11
293.6803560085
 21
145.5556735331
  0
LINE
  5
351
100
AcDbEntity
  8
AUSFORMSCHRAEGEN
100
AcDbLine
 62
7
  6
CONTINUOUS
 10
256.2136862929
 20
275.0081817147
 11
268.7136862929
 21
275.0081817147
  0
LINE
  5
352
100
AcDbEntity
  8
BEZUGSACHSEN
100
AcDbLine
 62
7
  6
CONTINUOUS
 10
87.2325497753
 20
80.3495137157
 11
87.2325497753
 21
67.8495137157
  0
LINE
  5
353
100
AcDbEntity
  8
0
100
AcDbLine
 62
7
  6
CONTINUOUS
 10
114.7325498753
 20
46.1237082005
 11
114.7325498753
 21
62.8495137157
  0
LINE
  5
354
100
AcDbEntity
  8
0
100
AcDbLine
 62
7
  6
CONTINUOUS
 10
114.7325498753
 20
85.3495137157
 11
114.7325498753
 21
99.4832099008
  0
LINE
  5
355
100
AcDbEntity
  8
KONSTRUKTIONSELEMENTE
100
AcDbLine
 62
7
  6
CONTINUOUS
 10
114.7325498753
 20
99.4832099008
 11
114.7325498753
 21
102.075319231
  0
LINE
  5
356
100
AcDbEntity
  8
0
100
AcDbLine
 62
7
  6
CONTINUOUS
 10
118.7325498753
 20
42.8828440002
 11
170.7325498753
 21
42.8828440002
  0
LINE
  5
357
100
AcDbEntity
  8
KONSTRUKTIONSELEMENTE
100
AcDbLine
 62
7
  6
CONTINUOUS
 10
135.7325498753
 20
46.188253625
 11
153.7325498753
 21
46.188253625
  0
LINE
  5
358
100
AcDbEntity
  8
KONSTRUKTIONSELEMENTE
100
AcDbLine
 62
7
  6
CONTINUOUS
 10
135.7325498753
 20
47.0314967119
 11
153.7325498753
 21
47.0314967119
  0
LINE
  5
359
100
AcDbEntity
  8
KONSTRUKTIONSELEMENTE
100
AcDbLine
 62
7
  6
CONTINUOUS
 10
135.3325498753
 20
47.8297096769
 11
140.2825498753
 21
47.8297096769
  0
LINE
  5
35A
100
AcDbEntity
  8
KONSTRUKTIONSELEMENTE
100
AcDbLine
 62
7
  6
CONTINUOUS
 10
141.3825500064
 20
47.8297096769
 11
142.2075496131
 21
47.8297096769
  0
LINE
  5
35B
100
AcDbEntity
  8
KONSTRUKTIONSELEMENTE
100
AcDbLine
 62
7
  6
CONTINUOUS
 10
148.6700493508
 20
47.8297096769
 11
149.7700498753
 21
47.8297096769
  0
LINE
  5
35C
100
AcDbEntity
  8
KONSTRUKTIONSELEMENTE
100
AcDbLine
 62
7
  6
CONTINUOUS
 10
151.9700493508
 20
47.8297096769
 11
153.0700498753
 21
47.8297096769
  0
LINE
  5
35D
100
AcDbEntity
  8
KONSTRUKTIONSELEMENTE
100
AcDbLine
 62
7
  6
CONTINUOUS
 10
136.1575498753
 20
48.2487686577
 11
140.2825498753
 21
48.2487686577
  0
LINE
  5
35E
100
AcDbEntity
  8
KONSTRUKTIONSELEMENTE
100
AcDbLine
 62
7
  6
CONTINUOUS
 10
136.1575498753
 20
49.0705496785
 11
140.2825498753
 21
49.0705496785
  0
LINE
  5
35F
100
AcDbEntity
  8
KONSTRUKTIONSELEMENTE
100
AcDbLine
 62
7
  6
CONTINUOUS
 10
142.2075496131
 20
49.3818086899
 11
144.6825496131
 21
49.3818086899
  0
LINE
  5
360
100
AcDbEntity
  8
KONSTRUKTIONSELEMENTE
100
AcDbLine
 62
7
  6
CONTINUOUS
 10
142.2075496131
 20
49.868993648
 11
144.8200498753
 21
49.868993648
  0
LINE
  5
361
100
AcDbEntity
  8
KONSTRUKTIONSELEMENTE
100
AcDbLine
 62
7
  6
CONTINUOUS
 10
142.2075496131
 20
50.6883104479
 11
144.8200498753
 21
50.6883104479
  0
LINE
  5
362
100
AcDbEntity
  8
KONSTRUKTIONSELEMENTE
100
AcDbLine
 62
7
  6
CONTINUOUS
 10
142.2075496131
 20
51.1719603444
 11
144.8200498753
 21
51.1719603444
  0
LINE
  5
363
100
AcDbEntity
  8
KONSTRUKTIONSELEMENTE
100
AcDbLine
 62
7
  6
CONTINUOUS
 10
135.3325498753
 20
51.6334456337
 11
136.1575498753
 21
51.6334456337
  0
LINE
  5
364
100
AcDbEntity
  8
KONSTRUKTIONSELEMENTE
100
AcDbLine
 62
7
  6
CONTINUOUS
 10
141.3825500064
 20
51.6334456337
 11
144.6825496131
 21
51.6334456337
  0
LINE
  5
365
100
AcDbEntity
  8
KONSTRUKTIONSELEMENTE
100
AcDbLine
 62
7
  6
CONTINUOUS
 10
147.5700496131
 20
51.6334456337
 11
148.3950496131
 21
51.6334456337
  0
LINE
  5
366
100
AcDbEntity
  8
KONSTRUKTIONSELEMENTE
100
AcDbLine
 62
7
  6
CONTINUOUS
 10
150.3200493508
 20
51.6334456337
 11
151.4200498753
 21
51.6334456337
  0
LINE
  5
367
100
AcDbEntity
  8
KONSTRUKTIONSELEMENTE
100
AcDbLine
 62
7
  6
CONTINUOUS
 10
153.3450503998
 20
51.6334456337
 11
154.1700503998
 21
51.6334456337
  0
LINE
  5
368
100
AcDbEntity
  8
KONSTRUKTIONSELEMENTE
100
AcDbLine
 62
7
  6
CONTINUOUS
 10
135.3325498753
 20
52.4580947238
 11
136.1575498753
 21
52.4580947238
  0
LINE
  5
369
100
AcDbEntity
  8
KONSTRUKTIONSELEMENTE
100
AcDbLine
 62
7
  6
CONTINUOUS
 10
141.3825500064
 20
52.4580947238
 11
144.6825496131
 21
52.4580947238
  0
LINE
  5
36A
100
AcDbEntity
  8
KONSTRUKTIONSELEMENTE
100
AcDbLine
 62
7
  6
CONTINUOUS
 10
147.5700496131
 20
52.4580947238
 11
148.3950496131
 21
52.4580947238
  0
LINE
  5
36B
100
AcDbEntity
  8
KONSTRUKTIONSELEMENTE
100
AcDbLine
 62
7
  6
CONTINUOUS
 10
150.3200493508
 20
52.4580947238
 11
151.4200498753
 21
52.4580947238
  0
LINE
  5
36C
100
AcDbEntity
  8
KONSTRUKTIONSELEMENTE
100
AcDbLine
 62
7
  6
CONTINUOUS
 10
153.3450503998
 20
52.4580947238
 11
154.1700503998
 21
52.4580947238
  0
LINE
  5
36D
100
AcDbEntity
  8
KONSTRUKTIONSELEMENTE
100
AcDbLine
 62
7
  6
CONTINUOUS
 10
135.7325498753
 20
54.2183237339
 11
153.7325498753
 21
54.2183237339
  0
LINE
  5
36E
100
AcDbEntity
  8
KONSTRUKTIONSELEMENTE
100
AcDbLine
 62
7
  6
CONTINUOUS
 10
133.7325498753
 20
101.19824014
 11
133.7325498753
 21
95.4624757765
  0
LINE
  5
36F
100
AcDbEntity
  8
KONSTRUKTIONSELEMENTE
100
AcDbLine
 62
7
  6
CONTINUOUS
 10
133.7325498753
 20
52.736551655
 11
133.7325498753
 21
47.0007872914
  0
LINE
  5
370
100
AcDbEntity
  8
KONSTRUKTIONSELEMENTE
100
AcDbLine
 62
7
  6
CONTINUOUS
 10
134.7742170983
 20
97.1965972852
 11
134.7742170983
 21
99.2977314948
  0
LINE
  5
371
100
AcDbEntity
  8
KONSTRUKTIONSELEMENTE
100
AcDbLine
 62
7
  6
CONTINUOUS
 10
134.9200498753
 20
96.7380933923
 11
134.9200498753
 21
97.5588820128
  0
LINE
  5
372
100
AcDbEntity
  8
KONSTRUKTIONSELEMENTE
100
AcDbLine
 62
7
  6
CONTINUOUS
 10
135.2117170983
 20
96.3599443615
 11
135.2117170983
 21
97.1819543427
  0
LINE
  5
373
100
AcDbEntity
  8
KONSTRUKTIONSELEMENTE
100
AcDbLine
 62
7
  6
CONTINUOUS
 10
135.3325498753
 20
52.4580947238
 11
135.3325498753
 21
47.8297096769
  0
LINE
  5
374
100
AcDbEntity
  8
KONSTRUKTIONSELEMENTE
100
AcDbLine
 62
7
  6
CONTINUOUS
 10
135.6492170983
 20
99.2977314948
 11
135.6492170983
 21
98.0163373679
  0
LINE
  5
375
100
AcDbEntity
  8
KONSTRUKTIONSELEMENTE
100
AcDbLine
 62
7
  6
CONTINUOUS
 10
135.7950498753
 20
95.9716602004
 11
135.7950498753
 21
96.7952364173
  0
LINE
  5
376
100
AcDbEntity
  8
KONSTRUKTIONSELEMENTE
100
AcDbLine
 62
7
  6
CONTINUOUS
 10
135.7950498753
 20
98.7958573205
 11
135.7950498753
 21
99.6163939247
  0
LINE
  5
377
100
AcDbEntity
  8
KONSTRUKTIONSELEMENTE
100
AcDbLine
 62
7
  6
CONTINUOUS
 10
136.0867170983
 20
99.0276446711
 11
136.0867170983
 21
99.8490011777
  0
LINE
  5
378
100
AcDbEntity
  8
KONSTRUKTIONSELEMENTE
100
AcDbLine
 62
7
  6
CONTINUOUS
 10
136.1575498753
 20
52.4580947238
 11
136.1575498753
 21
48.2487686577
  0
LINE
  5
379
100
AcDbEntity
  8
KONSTRUKTIONSELEMENTE
100
AcDbLine
 62
7
  6
CONTINUOUS
 10
136.3783826523
 20
95.7736991998
 11
136.3783826523
 21
96.5981896511
  0
LINE
  5
37A
100
AcDbEntity
  8
KONSTRUKTIONSELEMENTE
100
AcDbLine
 62
7
  6
CONTINUOUS
 10
136.5242170983
 20
99.1790116174
 11
136.5242170983
 21
100.0010215983
  0
LINE
  5
37B
100
AcDbEntity
  8
0
100
AcDbLine
 62
7
  6
CONTINUOUS
 10
196.4067604253
 20
62.3495137157
 11
188.4725498753
 21
62.3495137157
  0
LINE
  5
37C
100
AcDbEntity
  8
RUNDUNGEN
100
AcDbLine
 62
7
  6
CONTINUOUS
 10
142.5975791353
 20
62.8495137157
 11
92.2325497753
 21
62.8495137157
  0
LINE
  5
37D
100
AcDbEntity
  8
BEZUGSACHSEN
100
AcDbLine
 62
7
  6
CONTINUOUS
 10
142.5975791353
 20
62.8495137157
 11
197.2325499753
 21
62.8495137157
  0
LINE
  5
37E
100
AcDbEntity
  8
KONSTRUKTIONSELEMENTE
100
AcDbLine
 62
7
  6
CONTINUOUS
 10
137.1075498753
 20
95.6737602635
 11
137.1075498753
 21
96.4987409759
  0
LINE
  5
37F
100
AcDbEntity
  8
KONSTRUKTIONSELEMENTE
100
AcDbLine
 62
7
  6
CONTINUOUS
 10
137.1075498753
 20
99.2537453969
 11
137.1075498753
 21
100.0761143977
  0
LINE
  5
380
100
AcDbEntity
  8
KONSTRUKTIONSELEMENTE
100
AcDbLine
 62
7
  6
CONTINUOUS
 10
139.7325498753
 20
100.0761143977
 11
139.7325498753
 21
97.0861946065
  0
LINE
  5
381
100
AcDbEntity
  8
KONSTRUKTIONSELEMENTE
100
AcDbLine
 62
7
  6
CONTINUOUS
 10
140.2825498753
 20
49.0705496785
 11
140.2825498753
 21
47.8297096769
  0
LINE
  5
382
100
AcDbEntity
  8
KONSTRUKTIONSELEMENTE
100
AcDbLine
 62
7
  6
CONTINUOUS
 10
140.6075498753
 20
95.6737602635
 11
140.6075498753
 21
100.5137760304
  0
LINE
  5
383
100
AcDbEntity
  8
KONSTRUKTIONSELEMENTE
100
AcDbLine
 62
7
  6
CONTINUOUS
 10
141.3825500064
 20
52.4580947238
 11
141.3825500064
 21
47.8297096769
  0
LINE
  5
384
100
AcDbEntity
  8
KONSTRUKTIONSELEMENTE
100
AcDbLine
 62
7
  6
CONTINUOUS
 10
141.7742162638
 20
95.6737602635
 11
141.7742162638
 21
99.2977314948
  0
LINE
  5
385
100
AcDbEntity
  8
KONSTRUKTIONSELEMENTE
100
AcDbLine
 62
7
  6
CONTINUOUS
 10
142.2075496131
 20
51.1719603444
 11
142.2075496131
 21
49.868993648
  0
LINE
  5
386
100
AcDbEntity
  8
KONSTRUKTIONSELEMENTE
100
AcDbLine
 62
7
  6
CONTINUOUS
 10
142.2075496131
 20
49.3818086899
 11
142.2075496131
 21
47.8297096769
  0
LINE
  5
387
100
AcDbEntity
  8
KONSTRUKTIONSELEMENTE
100
AcDbLine
 62
7
  6
CONTINUOUS
 10
142.6492162638
 20
95.6737602635
 11
142.6492162638
 21
99.2977314948
  0
LINE
  5
388
100
AcDbEntity
  8
KONSTRUKTIONSELEMENTE
100
AcDbLine
 62
7
  6
CONTINUOUS
 10
142.7950498753
 20
98.7958573205
 11
142.7950498753
 21
99.6163939247
  0
LINE
  5
389
100
AcDbEntity
  8
KONSTRUKTIONSELEMENTE
100
AcDbLine
 62
7
  6
CONTINUOUS
 10
143.0867162638
 20
99.0276446711
 11
143.0867162638
 21
99.8490011777
  0
LINE
  5
38A
100
AcDbEntity
  8
KONSTRUKTIONSELEMENTE
100
AcDbLine
 62
7
  6
CONTINUOUS
 10
143.5242162638
 20
99.1790116174
 11
143.5242162638
 21
100.0010215983
  0
LINE
  5
38B
100
AcDbEntity
  8
KONSTRUKTIONSELEMENTE
100
AcDbLine
 62
7
  6
CONTINUOUS
 10
144.1075498753
 20
99.2537453969
 11
144.1075498753
 21
100.0761143977
  0
LINE
  5
38C
100
AcDbEntity
  8
KONSTRUKTIONSELEMENTE
100
AcDbLine
 62
7
  6
CONTINUOUS
 10
144.6825496131
 20
52.4580947238
 11
144.6825496131
 21
51.6334456337
  0
LINE
  5
38D
100
AcDbEntity
  8
KONSTRUKTIONSELEMENTE
100
AcDbLine
 62
7
  6
CONTINUOUS
 10
144.6908834868
 20
99.2537453969
 11
144.6908834868
 21
100.0761143977
  0
LINE
  5
38E
100
AcDbEntity
  8
BG_STARTBEZUEGE
100
AcDbLine
 62
7
  6
CENTER
 10
144.7325498753
 20
39.218524172
 11
144.7325498753
 21
108.9805032594
  0
LINE
  5
38F
100
AcDbEntity
  8
KONSTRUKTIONSELEMENTE
100
AcDbLine
 62
7
  6
CONTINUOUS
 10
144.8200498753
 20
50.6883104479
 11
144.8200498753
 21
49.868993648
  0
LINE
  5
390
100
AcDbEntity
  8
KONSTRUKTIONSELEMENTE
100
AcDbLine
 62
7
  6
CONTINUOUS
 10
145.2325498753
 20
50.7714805776
 11
145.2325498753
 21
49.9520762218
  0
LINE
  5
391
100
AcDbEntity
  8
KONSTRUKTIONSELEMENTE
100
AcDbLine
 62
7
  6
CONTINUOUS
 10
145.2742162638
 20
99.1790116174
 11
145.2742162638
 21
100.0010215983
  0
LINE
  5
392
100
AcDbEntity
  8
BG_STARTBEZUEGE
100
AcDbLine
 62
7
  6
CENTER
 10
84.2325497753
 20
74.0995137157
 11
205.2325499753
 21
74.0995137157
  0
LINE
  5
393
100
AcDbEntity
  8
KONSTRUKTIONSELEMENTE
100
AcDbLine
 62
7
  6
CONTINUOUS
 10
145.3700501376
 20
52.3642542274
 11
145.3700501376
 21
51.5400539554
  0
LINE
  5
394
100
AcDbEntity
  8
KONSTRUKTIONSELEMENTE
100
AcDbLine
 62
7
  6
CONTINUOUS
 10
145.5075496131
 20
50.9016158703
 11
145.5075496131
 21
50.1198583367
  0
LINE
  5
395
100
AcDbEntity
  8
KONSTRUKTIONSELEMENTE
100
AcDbLine
 62
7
  6
CONTINUOUS
 10
145.6450498753
 20
50.6361597466
 11
145.6450498753
 21
50.3755775001
  0
LINE
  5
396
100
AcDbEntity
  8
KONSTRUKTIONSELEMENTE
100
AcDbLine
 62
7
  6
CONTINUOUS
 10
145.7117162638
 20
99.0276446711
 11
145.7117162638
 21
99.8490011777
  0
LINE
  5
397
100
AcDbEntity
  8
KONSTRUKTIONSELEMENTE
100
AcDbLine
 62
7
  6
CONTINUOUS
 10
145.9200496131
 20
52.0861355066
 11
145.9200496131
 21
51.2631643594
  0
LINE
  5
398
100
AcDbEntity
  8
KONSTRUKTIONSELEMENTE
100
AcDbLine
 62
7
  6
CONTINUOUS
 10
146.0033834868
 20
98.7958573205
 11
146.0033834868
 21
99.6163939247
  0
LINE
  5
399
100
AcDbEntity
  8
KONSTRUKTIONSELEMENTE
100
AcDbLine
 62
7
  6
CONTINUOUS
 10
146.1492162638
 20
95.6737602635
 11
146.1492162638
 21
99.2977314948
  0
LINE
  5
39A
100
AcDbEntity
  8
KONSTRUKTIONSELEMENTE
100
AcDbLine
 62
7
  6
CONTINUOUS
 10
146.3325496131
 20
51.7232188601
 11
146.3325496131
 21
50.9016158703
  0
LINE
  5
39B
100
AcDbEntity
  8
KONSTRUKTIONSELEMENTE
100
AcDbLine
 62
7
  6
CONTINUOUS
 10
146.4700498753
 20
51.4569371307
 11
146.4700498753
 21
50.2897979364
  0
LINE
  5
39C
100
AcDbEntity
  8
KONSTRUKTIONSELEMENTE
100
AcDbLine
 62
7
  6
CONTINUOUS
 10
147.0242166811
 20
95.6737602635
 11
147.0242166811
 21
99.2977314948
  0
LINE
  5
39D
100
AcDbEntity
  8
KONSTRUKTIONSELEMENTE
100
AcDbLine
 62
7
  6
CONTINUOUS
 10
147.5700496131
 20
52.4580947238
 11
147.5700496131
 21
51.6334456337
  0
LINE
  5
39E
100
AcDbEntity
  8
KONSTRUKTIONSELEMENTE
100
AcDbLine
 62
7
  6
CONTINUOUS
 10
148.1908830696
 20
99.688795318
 11
148.1908830696
 21
100.5137760304
  0
LINE
  5
39F
100
AcDbEntity
  8
KONSTRUKTIONSELEMENTE
100
AcDbLine
 62
7
  6
CONTINUOUS
 10
148.3367166811
 20
96.7380933923
 11
148.3367166811
 21
97.926061816
  0
LINE
  5
3A0
100
AcDbEntity
  8
KONSTRUKTIONSELEMENTE
100
AcDbLine
 62
7
  6
CONTINUOUS
 10
148.3950496131
 20
52.4580947238
 11
148.3950496131
 21
51.6334456337
  0
LINE
  5
3A1
100
AcDbEntity
  8
KONSTRUKTIONSELEMENTE
100
AcDbLine
 62
7
  6
CONTINUOUS
 10
148.4825498753
 20
96.4554297373
 11
148.4825498753
 21
97.2771022468
  0
LINE
  5
3A2
100
AcDbEntity
  8
KONSTRUKTIONSELEMENTE
100
AcDbLine
 62
7
  6
CONTINUOUS
 10
148.9200498753
 20
96.0696844632
 11
148.9200498753
 21
96.8928364901
  0
LINE
  5
3A3
100
AcDbEntity
  8
KONSTRUKTIONSELEMENTE
100
AcDbLine
 62
7
  6
CONTINUOUS
 10
149.2117166811
 20
97.8351789585
 11
149.2117166811
 21
97.5588820128
  0
LINE
  5
3A4
100
AcDbEntity
  8
KONSTRUKTIONSELEMENTE
100
AcDbLine
 62
7
  6
CONTINUOUS
 10
149.2200503998
 20
49.4333829757
 11
149.2200503998
 21
48.6129379078
  0
LINE
  5
3A5
100
AcDbEntity
  8
KONSTRUKTIONSELEMENTE
100
AcDbLine
 62
7
  6
CONTINUOUS
 10
149.3575498753
 20
97.2864123658
 11
149.3575498753
 21
98.1060059739
  0
LINE
  5
3A6
100
AcDbEntity
  8
KONSTRUKTIONSELEMENTE
100
AcDbLine
 62
7
  6
CONTINUOUS
 10
149.5033830696
 20
95.7736991998
 11
149.5033830696
 21
96.5981896511
  0
LINE
  5
3A7
100
AcDbEntity
  8
KONSTRUKTIONSELEMENTE
100
AcDbLine
 62
7
  6
CONTINUOUS
 10
149.6492166811
 20
97.4641599686
 11
149.6492166811
 21
98.2835235608
  0
LINE
  5
3A8
100
AcDbEntity
  8
KONSTRUKTIONSELEMENTE
100
AcDbLine
 62
7
  6
CONTINUOUS
 10
150.0867166811
 20
97.5520930372
 11
150.0867166811
 21
98.3713730353
  0
LINE
  5
3A9
100
AcDbEntity
  8
KONSTRUKTIONSELEMENTE
100
AcDbLine
 62
7
  6
CONTINUOUS
 10
150.2325498753
 20
95.6737602635
 11
150.2325498753
 21
96.4987409759
  0
LINE
  5
3AA
100
AcDbEntity
  8
KONSTRUKTIONSELEMENTE
100
AcDbLine
 62
7
  6
CONTINUOUS
 10
150.3200493508
 20
52.4580947238
 11
150.3200493508
 21
51.6334456337
  0
LINE
  5
3AB
100
AcDbEntity
  8
KONSTRUKTIONSELEMENTE
100
AcDbLine
 62
7
  6
CONTINUOUS
 10
151.4200498753
 20
52.4580947238
 11
151.4200498753
 21
51.6334456337
  0
LINE
  5
3AC
100
AcDbEntity
  8
KONSTRUKTIONSELEMENTE
100
AcDbLine
 62
7
  6
CONTINUOUS
 10
152.5200503998
 20
49.4333829757
 11
152.5200503998
 21
48.6129379078
  0
LINE
  5
3AD
100
AcDbEntity
  8
KONSTRUKTIONSELEMENTE
100
AcDbLine
 62
7
  6
CONTINUOUS
 10
152.8575498753
 20
100.5137760304
 11
152.8575498753
 21
98.8857478891
  0
LINE
  5
3AE
100
AcDbEntity
  8
KONSTRUKTIONSELEMENTE
100
AcDbLine
 62
7
  6
CONTINUOUS
 10
152.8575498753
 20
98.3713730353
 11
152.8575498753
 21
96.9898222632
  0
LINE
  5
3AF
100
AcDbEntity
  8
KONSTRUKTIONSELEMENTE
100
AcDbLine
 62
7
  6
CONTINUOUS
 10
153.3450503998
 20
52.4580947238
 11
153.3450503998
 21
51.6334456337
  0
LINE
  5
3B0
100
AcDbEntity
  8
KONSTRUKTIONSELEMENTE
100
AcDbLine
 62
7
  6
CONTINUOUS
 10
153.7325498753
 20
95.6737602635
 11
153.7325498753
 21
100.5137760304
  0
LINE
  5
3B1
100
AcDbEntity
  8
KONSTRUKTIONSELEMENTE
100
AcDbLine
 62
7
  6
CONTINUOUS
 10
154.1700503998
 20
52.4580947238
 11
154.1700503998
 21
51.6334456337
  0
LINE
  5
3B2
100
AcDbEntity
  8
KONSTRUKTIONSELEMENTE
100
AcDbLine
 62
7
  6
CONTINUOUS
 10
155.7325498753
 20
47.0007872914
 11
155.7325498753
 21
52.736551655
  0
LINE
  5
3B3
100
AcDbEntity
  8
KONSTRUKTIONSELEMENTE
100
AcDbLine
 62
7
  6
CONTINUOUS
 10
155.7325498753
 20
95.4624757765
 11
155.7325498753
 21
101.19824014
  0
LINE
  5
3B4
100
AcDbEntity
  8
BEZUGSACHSEN
100
AcDbLine
 62
7
  6
CONTINUOUS
 10
92.2325497753
 20
85.3495137157
 11
197.2325499753
 21
85.3495137157
  0
LINE
  5
3B5
100
AcDbEntity
  8
KONSTRUKTIONSELEMENTE
100
AcDbLine
 62
7
  6
CONTINUOUS
 10
135.7325498753
 20
93.9807036975
 11
153.7325498753
 21
93.9807036975
  0
LINE
  5
3B6
100
AcDbEntity
  8
KONSTRUKTIONSELEMENTE
100
AcDbLine
 62
7
  6
CONTINUOUS
 10
137.1075498753
 20
95.6737602635
 11
140.6075498753
 21
95.6737602635
  0
LINE
  5
3B7
100
AcDbEntity
  8
KONSTRUKTIONSELEMENTE
100
AcDbLine
 62
7
  6
CONTINUOUS
 10
141.7742162638
 20
95.6737602635
 11
142.6492162638
 21
95.6737602635
  0
LINE
  5
3B8
100
AcDbEntity
  8
KONSTRUKTIONSELEMENTE
100
AcDbLine
 62
7
  6
CONTINUOUS
 10
146.1492162638
 20
95.6737602635
 11
147.0242166811
 21
95.6737602635
  0
LINE
  5
3B9
100
AcDbEntity
  8
KONSTRUKTIONSELEMENTE
100
AcDbLine
 62
7
  6
CONTINUOUS
 10
150.2325498753
 20
95.6737602635
 11
153.7325498753
 21
95.6737602635
  0
LINE
  5
3BA
100
AcDbEntity
  8
KONSTRUKTIONSELEMENTE
100
AcDbLine
 62
7
  6
CONTINUOUS
 10
137.1075498753
 20
96.4987409759
 11
140.6075498753
 21
96.4987409759
  0
LINE
  5
3BB
100
AcDbEntity
  8
KONSTRUKTIONSELEMENTE
100
AcDbLine
 62
7
  6
CONTINUOUS
 10
141.7742162638
 20
96.4987409759
 11
142.6492162638
 21
96.4987409759
  0
LINE
  5
3BC
100
AcDbEntity
  8
KONSTRUKTIONSELEMENTE
100
AcDbLine
 62
7
  6
CONTINUOUS
 10
146.1492162638
 20
96.4987409759
 11
147.0242166811
 21
96.4987409759
  0
LINE
  5
3BD
100
AcDbEntity
  8
KONSTRUKTIONSELEMENTE
100
AcDbLine
 62
7
  6
CONTINUOUS
 10
150.2325498753
 20
96.4987409759
 11
153.7325498753
 21
96.4987409759
  0
LINE
  5
3BE
100
AcDbEntity
  8
KONSTRUKTIONSELEMENTE
100
AcDbLine
 62
7
  6
CONTINUOUS
 10
150.0867166811
 20
96.9898222632
 11
152.8575498753
 21
96.9898222632
  0
LINE
  5
3BF
100
AcDbEntity
  8
KONSTRUKTIONSELEMENTE
100
AcDbLine
 62
7
  6
CONTINUOUS
 10
137.1075498753
 20
97.0861946065
 11
139.7325498753
 21
97.0861946065
  0
LINE
  5
3C0
100
AcDbEntity
  8
KONSTRUKTIONSELEMENTE
100
AcDbLine
 62
7
  6
CONTINUOUS
 10
150.0867166811
 20
97.5520930372
 11
152.8575498753
 21
97.5520930372
  0
LINE
  5
3C1
100
AcDbEntity
  8
KONSTRUKTIONSELEMENTE
100
AcDbLine
 62
7
  6
CONTINUOUS
 10
150.0867166811
 20
98.3713730353
 11
152.8575498753
 21
98.3713730353
  0
LINE
  5
3C2
100
AcDbEntity
  8
KONSTRUKTIONSELEMENTE
100
AcDbLine
 62
7
  6
CONTINUOUS
 10
150.3783832782
 20
98.8857478891
 11
152.8575498753
 21
98.8857478891
  0
LINE
  5
3C3
100
AcDbEntity
  8
KONSTRUKTIONSELEMENTE
100
AcDbLine
 62
7
  6
CONTINUOUS
 10
137.1075498753
 20
99.2537453969
 11
139.7325498753
 21
99.2537453969
  0
LINE
  5
3C4
100
AcDbEntity
  8
KONSTRUKTIONSELEMENTE
100
AcDbLine
 62
7
  6
CONTINUOUS
 10
144.1075498753
 20
99.2537453969
 11
144.6908834868
 21
99.2537453969
  0
LINE
  5
3C5
100
AcDbEntity
  8
KONSTRUKTIONSELEMENTE
100
AcDbLine
 62
7
  6
CONTINUOUS
 10
137.1075498753
 20
100.0761143977
 11
139.7325498753
 21
100.0761143977
  0
LINE
  5
3C6
100
AcDbEntity
  8
KONSTRUKTIONSELEMENTE
100
AcDbLine
 62
7
  6
CONTINUOUS
 10
144.1075498753
 20
100.0761143977
 11
144.6908834868
 21
100.0761143977
  0
LINE
  5
3C7
100
AcDbEntity
  8
KONSTRUKTIONSELEMENTE
100
AcDbLine
 62
7
  6
CONTINUOUS
 10
137.1075498753
 20
100.5137760304
 11
140.6075498753
 21
100.5137760304
  0
LINE
  5
3C8
100
AcDbEntity
  8
KONSTRUKTIONSELEMENTE
100
AcDbLine
 62
7
  6
CONTINUOUS
 10
144.1075498753
 20
100.5137760304
 11
144.6908834868
 21
100.5137760304
  0
LINE
  5
3C9
100
AcDbEntity
  8
KONSTRUKTIONSELEMENTE
100
AcDbLine
 62
7
  6
CONTINUOUS
 10
148.1908830696
 20
100.5137760304
 11
149.2117166811
 21
100.5137760304
  0
LINE
  5
3CA
100
AcDbEntity
  8
KONSTRUKTIONSELEMENTE
100
AcDbLine
 62
7
  6
CONTINUOUS
 10
152.8575498753
 20
100.5137760304
 11
153.7325498753
 21
100.5137760304
  0
LINE
  5
3CB
100
AcDbEntity
  8
KONSTRUKTIONSELEMENTE
100
AcDbLine
 62
7
  6
CONTINUOUS
 10
174.7325498753
 20
102.075319231
 11
174.7325498753
 21
99.4832099008
  0
LINE
  5
3CC
100
AcDbEntity
  8
0
100
AcDbLine
 62
7
  6
CONTINUOUS
 10
174.7325498753
 20
99.4832099008
 11
174.7325498753
 21
85.3495137157
  0
LINE
  5
3CD
100
AcDbEntity
  8
0
100
AcDbLine
 62
7
  6
CONTINUOUS
 10
174.7325498753
 20
62.8495137157
 11
174.7325498753
 21
46.1237082005
  0
LINE
  5
3CE
100
AcDbEntity
  8
KONSTRUKTIONSELEMENTE
100
AcDbLine
 62
7
  6
CONTINUOUS
 10
135.7325498753
 20
101.1675307195
 11
153.7325498753
 21
101.1675307195
  0
LINE
  5
3CF
100
AcDbEntity
  8
KONSTRUKTIONSELEMENTE
100
AcDbLine
 62
7
  6
CONTINUOUS
 10
135.7325498753
 20
102.0107738065
 11
153.7325498753
 21
102.0107738065
  0
LINE
  5
3D0
100
AcDbEntity
  8
KONSTRUKTIONSELEMENTE
100
AcDbLine
 62
7
  6
CONTINUOUS
 10
118.7325498753
 20
105.3161834313
 11
170.7325498753
 21
105.3161834313
  0
LINE
  5
3D1
100
AcDbEntity
  8
0
100
AcDbLine
 62
7
  6
CONTINUOUS
 10
188.4725498753
 20
62.8495137157
 11
188.4725498753
 21
62.3495137157
  0
LINE
  5
3D2
100
AcDbEntity
  8
0
100
AcDbLine
 62
7
  6
CONTINUOUS
 10
194.2909709453
 20
62.8495137157
 11
194.2909709453
 21
62.3495137157
  0
LINE
  5
3D3
100
AcDbEntity
  8
0
100
AcDbLine
 62
7
  6
CONTINUOUS
 10
195.0843920003
 20
62.8495137157
 11
195.0843920003
 21
62.3495137157
  0
LINE
  5
3D4
100
AcDbEntity
  8
0
100
AcDbLine
 62
7
  6
CONTINUOUS
 10
196.4067604253
 20
62.8495137157
 11
196.4067604253
 21
62.3495137157
  0
LINE
  5
3D5
100
AcDbEntity
  8
BEZUGSACHSEN
100
AcDbLine
 62
7
  6
CONTINUOUS
 10
202.2325499753
 20
67.8495137157
 11
202.2325499753
 21
80.3495137157
  0
ARC
  5
3D6
100
AcDbEntity
  8
RUNDUNGEN
100
AcDbCircle
 62
7
  6
CONTINUOUS
 10
122.7325498753
 20
170.0081816147
 40
11.0
100
AcDbArc
 50
179.9999998406
 51
223.3416421238
  0
ARC
  5
3D7
100
AcDbEntity
  8
BEZUGSACHSEN
100
AcDbCircle
 62
7
  6
CONTINUOUS
 10
92.2325497753
 20
141.5081816147
 40
5.0
100
AcDbArc
 50
180.0
 51
270.0
  0
ARC
  5
3D8
100
AcDbEntity
  8
0
100
AcDbCircle
 62
7
  6
CONTINUOUS
 10
118.7325498753
 20
173.7581816147
 40
4.0
100
AcDbArc
 50
90.0
 51
180.0
  0
ARC
  5
3D9
100
AcDbEntity
  8
BEZUGSACHSEN
100
AcDbCircle
 62
7
  6
CONTINUOUS
 10
124.9325498753
 20
185.8972657159
 40
3.8
100
AcDbArc
 50
270.0
 51
57.9383738092
  0
ARC
  5
3DA
100
AcDbEntity
  8
RUNDUNGEN
100
AcDbCircle
 62
7
  6
CONTINUOUS
 10
124.9325498753
 20
185.8972657159
 40
3.8
100
AcDbArc
 50
270.0
 51
57.9383738092
  0
ARC
  5
3DB
100
AcDbEntity
  8
RUNDUNGEN
100
AcDbCircle
 62
7
  6
CONTINUOUS
 10
115.2325498753
 20
178.5972657159
 40
3.5
100
AcDbArc
 50
90.0785646547
 51
180.0000010163
  0
ARC
  5
3DC
100
AcDbEntity
  8
RUNDUNGEN
100
AcDbCircle
 62
7
  6
CONTINUOUS
 10
143.0000425696
 20
217.5081816147
 40
46.265263296
100
AcDbArc
 50
225.202544058
 51
227.9615018408
  0
ARC
  5
3DD
100
AcDbEntity
  8
RUNDUNGEN
100
AcDbCircle
 62
7
  6
CONTINUOUS
 10
97.8114971753
 20
217.5081816147
 40
10.5789474
100
AcDbArc
 50
157.5
 51
180.0
  0
ARC
  5
3DE
100
AcDbEntity
  8
RUNDUNGEN
100
AcDbCircle
 62
7
  6
CONTINUOUS
 10
111.5543553307
 20
250.6863761593
 40
10.5789474
100
AcDbArc
 50
112.5
 51
157.5
  0
ARC
  5
3DF
100
AcDbEntity
  8
BEZUGSACHSEN
100
AcDbCircle
 62
7
  6
CONTINUOUS
 10
166.7325498753
 20
170.0081816147
 40
11.0
100
AcDbArc
 50
316.6583578761
 51
0.0000001594
  0
ARC
  5
3E0
100
AcDbEntity
  8
BEZUGSACHSEN
100
AcDbCircle
 62
7
  6
CONTINUOUS
 10
197.2325499753
 20
141.5081816147
 40
5.0
100
AcDbArc
 50
270.0
 51
360.0
  0
ARC
  5
3E1
100
AcDbEntity
  8
0
100
AcDbCircle
 62
7
  6
CONTINUOUS
 10
170.7325498753
 20
173.7581816147
 40
4.0
100
AcDbArc
 50
0.0
 51
90.0
  0
ARC
  5
3E2
100
AcDbEntity
  8
BEZUGSACHSEN
100
AcDbCircle
 62
7
  6
CONTINUOUS
 10
164.5325498753
 20
185.8972657159
 40
3.8
100
AcDbArc
 50
122.0616261908
 51
270.0
  0
ARC
  5
3E3
100
AcDbEntity
  8
BEZUGSACHSEN
100
AcDbCircle
 62
7
  6
CONTINUOUS
 10
174.2325498753
 20
178.5972657159
 40
3.5
100
AcDbArc
 50
359.9999989837
 51
89.9214353453
  0
ARC
  5
3E4
100
AcDbEntity
  8
0
100
AcDbCircle
 62
7
  6
CONTINUOUS
 10
191.6462340953
 20
178.9302868447
 40
3.17368422
100
AcDbArc
 50
90.0
 51
270.0
  0
ARC
  5
3E5
100
AcDbEntity
  8
0
100
AcDbCircle
 62
7
  6
CONTINUOUS
 10
191.3817604103
 20
170.5905499777
 40
2.909210535
100
AcDbArc
 50
180.0
 51
270.0
  0
ARC
  5
3E6
100
AcDbEntity
  8
0
100
AcDbCircle
 62
7
  6
CONTINUOUS
 10
193.4975498903
 20
170.5905499777
 40
2.909210535
100
AcDbArc
 50
270.0
 51
360.0
  0
ARC
  5
3E7
100
AcDbEntity
  8
0
100
AcDbCircle
 62
7
  6
CONTINUOUS
 10
194.0970235763
 20
186.0005500237
 40
2.309736849
100
AcDbArc
 50
201.1872687082
 51
360.0
  0
ARC
  5
3E8
100
AcDbEntity
  8
0
100
AcDbCircle
 62
7
  6
CONTINUOUS
 10
193.4270235743
 20
170.9287077851
 40
1.657368426
100
AcDbArc
 50
270.01819492
 51
360.0
  0
ARC
  5
3E9
100
AcDbEntity
  8
0
100
AcDbCircle
 62
7
  6
CONTINUOUS
 10
191.4522867263
 20
170.9287078687
 40
1.657368426
100
AcDbArc
 50
180.0
 51
270.0
  0
ARC
  5
3EA
100
AcDbEntity
  8
0
100
AcDbCircle
 62
7
  6
CONTINUOUS
 10
191.6462340953
 20
178.9302868447
 40
1.58684211
100
AcDbArc
 50
90.0
 51
270.0
  0
ARC
  5
3EB
100
AcDbEntity
  8
0
100
AcDbCircle
 62
7
  6
CONTINUOUS
 10
190.4649183023
 20
187.3660393169
 40
1.322368425
100
AcDbArc
 50
300.0
 51
360.0
  0
ARC
  5
3EC
100
AcDbEntity
  8
0
100
AcDbCircle
 62
7
  6
CONTINUOUS
 10
194.0970235763
 20
186.5294973937
 40
0.987368424
100
AcDbArc
 50
180.0
 51
360.0
  0
ARC
  5
3ED
100
AcDbEntity
  8
BEZUGSACHSEN
100
AcDbCircle
 62
7
  6
CONTINUOUS
 10
146.465057181
 20
217.5081816147
 40
46.265263296
100
AcDbArc
 50
312.0384981592
 51
314.797455942
  0
ARC
  5
3EE
100
AcDbEntity
  8
RUNDUNGEN
100
AcDbCircle
 62
7
  6
CONTINUOUS
 10
144.7325498753
 20
217.5081816147
 40
33.5000001
100
AcDbArc
 50
180.0
 51
237.9383740056
  0
ARC
  5
3EF
100
AcDbEntity
  8
BEZUGSACHSEN
100
AcDbCircle
 62
7
  6
CONTINUOUS
 10
144.7325498753
 20
217.5081816147
 40
33.5000001
100
AcDbArc
 50
302.0616259944
 51
179.9999998909
  0
ARC
  5
3F0
100
AcDbEntity
  8
BEZUGSACHSEN
100
AcDbCircle
 62
7
  6
CONTINUOUS
 10
191.6536025753
 20
217.5081816147
 40
10.5789474
100
AcDbArc
 50
0.0
 51
22.5
  0
ARC
  5
3F1
100
AcDbEntity
  8
BEZUGSACHSEN
100
AcDbCircle
 62
7
  6
CONTINUOUS
 10
177.9107444199
 20
250.6863761593
 40
10.5789474
100
AcDbArc
 50
22.5
 51
67.5
  0
ARC
  5
3F2
100
AcDbEntity
  8
BEZUGSACHSEN
100
AcDbCircle
 62
7
  6
CONTINUOUS
 10
144.7325498753
 20
264.4292343147
 40
10.5789474
100
AcDbArc
 50
67.5
 51
112.5
  0
ARC
  5
3F3
100
AcDbEntity
  8
KONSTRUKTIONSELEMENTE
100
AcDbCircle
 62
7
  6
CONTINUOUS
 10
262.4636862929
 20
147.7581816147
 40
30.0
100
AcDbArc
 50
38.0791874507
 51
41.5075035917
  0
ARC
  5
3F4
100
AcDbEntity
  8
KONSTRUKTIONSELEMENTE
100
AcDbCircle
 62
7
  6
CONTINUOUS
 10
262.4636862929
 20
147.7581816147
 40
30.0
100
AcDbArc
 50
28.8768011337
 51
32.9573634925
  0
ARC
  5
3F5
100
AcDbEntity
  8
KONSTRUKTIONSELEMENTE
100
AcDbCircle
 62
7
  6
CONTINUOUS
 10
262.4636862929
 20
147.7581816147
 40
30.0
100
AcDbArc
 50
138.5865548838
 51
138.9461125783
  0
ARC
  5
3F6
100
AcDbEntity
  8
0
100
AcDbCircle
 62
7
  6
CONTINUOUS
 10
262.4636862929
 20
147.7581816147
 40
30.0
100
AcDbArc
 50
112.0313925781
 51
167.5
  0
ARC
  5
3F7
100
AcDbEntity
  8
0
100
AcDbCircle
 62
7
  6
CONTINUOUS
 10
262.4636862929
 20
147.7581816147
 40
30.0
100
AcDbArc
 50
12.5
 51
67.9686074219
  0
ARC
  5
3F8
100
AcDbEntity
  8
KONSTRUKTIONSELEMENTE
100
AcDbCircle
 62
7
  6
CONTINUOUS
 10
262.4636862929
 20
147.7581816147
 40
30.0
100
AcDbArc
 50
150.2783122468
 51
150.8412797224
  0
ARC
  5
3F9
100
AcDbEntity
  8
KONSTRUKTIONSELEMENTE
100
AcDbCircle
 62
7
  6
CONTINUOUS
 10
262.4636862929
 20
147.7581816147
 40
30.0
100
AcDbArc
 50
151.1830210378
 51
151.4134450911
  0
ARC
  5
3FA
100
AcDbEntity
  8
KONSTRUKTIONSELEMENTE
100
AcDbCircle
 62
7
  6
CONTINUOUS
 10
262.4636862929
 20
147.7581816147
 40
12.0
100
AcDbArc
 50
159.6678648501
 51
160.0
  0
ARC
  5
3FB
100
AcDbEntity
  8
KONSTRUKTIONSELEMENTE
100
AcDbCircle
 62
7
  6
CONTINUOUS
 10
262.4636862929
 20
147.7581816147
 40
12.0
100
AcDbArc
 50
20.0
 51
20.3321247293
  0
ARC
  5
3FC
100
AcDbEntity
  8
KONSTRUKTIONSELEMENTE
100
AcDbCircle
 62
7
  6
CONTINUOUS
 10
262.4636862929
 20
148.7581816147
 40
11.75
100
AcDbArc
 50
327.9051612496
 51
12.8391678126
  0
ARC
  5
3FD
100
AcDbEntity
  8
KONSTRUKTIONSELEMENTE
100
AcDbCircle
 62
7
  6
CONTINUOUS
 10
262.4636862929
 20
148.7581816147
 40
11.75
100
AcDbArc
 50
167.1608321874
 51
212.0948387504
  0
ARC
  5
3FE
100
AcDbEntity
  8
BEZUGSACHSEN
100
AcDbCircle
 62
7
  6
CONTINUOUS
 10
262.4636862929
 20
147.7581816147
 40
11.25
100
AcDbArc
 50
180.0
 51
360.0
  0
ARC
  5
3FF
100
AcDbEntity
  8
BEZUGSACHSEN
100
AcDbCircle
 62
7
  6
CONTINUOUS
 10
256.2136862929
 20
270.0081817147
 40
5.0
100
AcDbArc
 50
90.0
 51
180.0
  0
ARC
  5
400
100
AcDbEntity
  8
BEZUGSACHSEN
100
AcDbCircle
 62
7
  6
CONTINUOUS
 10
268.7136862929
 20
270.0081817147
 40
5.0
100
AcDbArc
 50
0.0
 51
90.0
  0
ARC
  5
401
100
AcDbEntity
  8
KONSTRUKTIONSELEMENTE
100
AcDbCircle
 62
7
  6
CONTINUOUS
 10
251.319023819
 20
139.8779227028
 40
3.0
100
AcDbArc
 50
199.1433943708
 51
2.3466556399
  0
ARC
  5
402
100
AcDbEntity
  8
KONSTRUKTIONSELEMENTE
100
AcDbCircle
 62
7
  6
CONTINUOUS
 10
273.6083487668
 20
139.8779227028
 40
3.0
100
AcDbArc
 50
177.6533443601
 51
340.8566056292
  0
ARC
  5
403
100
AcDbEntity
  8
KONSTRUKTIONSELEMENTE
100
AcDbCircle
 62
7
  6
CONTINUOUS
 10
273.6083487668
 20
139.8779227028
 40
2.5
100
AcDbArc
 50
159.0028687061
 51
340.8566056292
  0
ARC
  5
404
100
AcDbEntity
  8
KONSTRUKTIONSELEMENTE
100
AcDbCircle
 62
7
  6
CONTINUOUS
 10
251.319023819
 20
139.8779227028
 40
2.5
100
AcDbArc
 50
209.2623799017
 51
20.9971312939
  0
ARC
  5
405
100
AcDbEntity
  8
RUNDUNGEN
100
AcDbCircle
 62
7
  6
CONTINUOUS
 10
92.2325497753
 20
67.8495137157
 40
5.0
100
AcDbArc
 50
180.0
 51
270.0
  0
ARC
  5
406
100
AcDbEntity
  8
BEZUGSACHSEN
100
AcDbCircle
 62
7
  6
CONTINUOUS
 10
197.2325499753
 20
67.8495137157
 40
5.0
100
AcDbArc
 50
270.0
 51
360.0
  0
ARC
  5
407
100
AcDbEntity
  8
BEZUGSACHSEN
100
AcDbCircle
 62
7
  6
CONTINUOUS
 10
197.2325499753
 20
80.3495137157
 40
5.0
100
AcDbArc
 50
0.0
 51
90.0
  0
ARC
  5
408
100
AcDbEntity
  8
BEZUGSACHSEN
100
AcDbCircle
 62
7
  6
CONTINUOUS
 10
92.2325497753
 20
80.3495137157
 40
5.0
100
AcDbArc
 50
90.0
 51
180.0
  0
SPLINE
  5
409
100
AcDbEntity
  8
KONSTRUKTIONSELEMENTE
100
AcDbSpline
 62
7
  6
CONTINUOUS
 70
0
 71
3
 72
11
 73
7
 74
0
 42
0.0000001
 43
0.0000001
 44
0.0000000001
 40
0.0
 40
0.0
 40
0.0
 40
0.0
 40
0.2603230715
 40
0.5153313651
 40
0.7617310231
 40
1.0
 40
1.0
 40
1.0
 40
1.0
 10
135.7325498753
 20
158.7564342099
 30
0.0
 10
135.4706725268
 20
158.7564342099
 30
0.0
 10
134.9469144355
 20
158.8559871597
 30
0.0
 10
134.2853923798
 20
159.2771827552
 30
0.0
 10
133.8405306832
 20
159.8966568927
 30
0.0
 10
133.7325498753
 20
160.3893496107
 30
0.0
 10
133.7325498753
 20
160.6290411891
 30
0.0
  0
SPLINE
  5
40A
100
AcDbEntity
  8
KONSTRUKTIONSELEMENTE
100
AcDbSpline
 62
7
  6
CONTINUOUS
 70
0
 71
3
 72
11
 73
7
 74
0
 42
0.0000001
 43
0.0000001
 44
0.0000000001
 40
0.0
 40
0.0
 40
0.0
 40
0.0
 40
0.2382695635
 40
0.4846698236
 40
0.7396778887
 40
1.0
 40
1.0
 40
1.0
 40
1.0
 10
155.7325498753
 20
160.6290411891
 30
0.0
 10
155.7325498753
 20
160.3893490209
 30
0.0
 10
155.6245685573
 20
159.8966550686
 30
0.0
 10
155.1797053023
 20
159.2771807075
 30
0.0
 10
154.5181830805
 20
158.8559865986
 30
0.0
 10
153.9944262574
 20
158.7564342099
 30
0.0
 10
153.7325498753
 20
158.7564342099
 30
0.0
  0
SPLINE
  5
40B
100
AcDbEntity
  8
KONSTRUKTIONSELEMENTE
100
AcDbSpline
 62
7
  6
CONTINUOUS
 70
0
 71
3
 72
16
 73
12
 74
0
 42
0.0000001
 43
0.0000001
 44
0.0000000001
 40
0.0
 40
0.0
 40
0.0
 40
0.0
 40
0.1857987078
 40
0.3643812493
 40
0.5290538651
 40
0.6742986919
 40
0.795744223
 40
0.8903401881
 40
0.9271558868
 40
0.9571520843
 40
1.0
 40
1.0
 40
1.0
 40
1.0
 10
126.7325498753
 20
176.3763576572
 30
0.0
 10
126.5344665271
 20
176.3763576572
 30
0.0
 10
126.1458812398
 20
176.3884120743
 30
0.0
 10
125.5839501381
 20
176.441201598
 30
0.0
 10
125.0693492652
 20
176.523808161
 30
0.0
 10
124.6211268733
 20
176.6288505338
 30
0.0
 10
124.2545654916
 20
176.7488211306
 30
0.0
 10
124.0082389404
 20
176.8604575853
 30
0.0
 10
123.8638804553
 20
176.9560981181
 30
0.0
 10
123.7769980952
 20
177.0323500154
 30
0.0
 10
123.7325498753
 20
177.1063775936
 30
0.0
 10
123.7325498753
 20
177.1520585281
 30
0.0
  0
SPLINE
  5
40C
100
AcDbEntity
  8
KONSTRUKTIONSELEMENTE
100
AcDbSpline
 62
7
  6
CONTINUOUS
 70
0
 71
3
 72
13
 73
9
 74
0
 42
0.0000001
 43
0.0000001
 44
0.0000000001
 40
0.0
 40
0.0
 40
0.0
 40
0.0
 40
0.1166014942
 40
0.207461782
 40
0.3222979126
 40
0.4606191953
 40
0.6210678066
 40
1.0
 40
1.0
 40
1.0
 40
1.0
 10
165.7325498753
 20
177.1520585281
 30
0.0
 10
165.7325498753
 20
177.0857558462
 30
0.0
 10
165.6423728279
 20
176.9820805839
 30
0.0
 10
165.4934149357
 20
176.8838742758
 30
0.0
 10
165.3165307419
 20
176.7955471064
 30
0.0
 10
165.0974443727
 20
176.7109755384
 30
0.0
 10
164.728851792
 20
176.5969630969
 30
0.0
 10
164.4282187382
 20
176.5330035718
 30
0.0
 10
164.2158101849
 20
176.4968057139
 30
0.0
  0
SPLINE
  5
40D
100
AcDbEntity
  8
KONSTRUKTIONSELEMENTE
100
AcDbSpline
 62
7
  6
CONTINUOUS
 70
0
 71
3
 72
9
 73
5
 74
0
 42
0.0000001
 43
0.0000001
 44
0.0000000001
 40
0.0
 40
0.0
 40
0.0
 40
0.0
 40
0.2354238087
 40
1.0
 40
1.0
 40
1.0
 40
1.0
 10
164.2158101849
 20
176.4968057139
 30
0.0
 10
164.1006130683
 20
176.4771742593
 30
0.0
 10
163.6093772722
 20
176.4053132062
 30
0.0
 10
163.1120644689
 20
176.3763576572
 30
0.0
 10
162.7325498753
 20
176.3763576572
 30
0.0
  0
SPLINE
  5
40E
100
AcDbEntity
  8
KONSTRUKTIONSELEMENTE
100
AcDbSpline
 62
7
  6
CONTINUOUS
 70
0
 71
3
 72
11
 73
7
 74
0
 42
0.0000001
 43
0.0000001
 44
0.0000000001
 40
0.0
 40
0.0
 40
0.0
 40
0.0
 40
0.2814667316
 40
0.546725264
 40
0.7860131571
 40
1.0
 40
1.0
 40
1.0
 40
1.0
 10
135.7325498753
 20
169.6341176639
 30
0.0
 10
135.520448848
 20
169.6341176639
 30
0.0
 10
135.1069322544
 20
169.5901984
 30
0.0
 10
134.5416467242
 20
169.3950803909
 30
0.0
 10
134.0880565756
 20
169.0855165506
 30
0.0
 10
133.8821788644
 20
168.8003655381
 30
0.0
 10
133.8185951044
 20
168.6521797318
 30
0.0
  0
SPLINE
  5
40F
100
AcDbEntity
  8
KONSTRUKTIONSELEMENTE
100
AcDbSpline
 62
7
  6
CONTINUOUS
 70
0
 71
3
 72
9
 73
5
 74
0
 42
0.0000001
 43
0.0000001
 44
0.0000000001
 40
0.0
 40
0.0
 40
0.0
 40
0.0
 40
0.2533492005
 40
1.0
 40
1.0
 40
1.0
 40
1.0
 10
133.8185951044
 20
168.6521797318
 30
0.0
 10
133.8044723101
 20
168.6192657038
 30
0.0
 10
133.7549648451
 20
168.48676517
 30
0.0
 10
133.7325498753
 20
168.344116232
 30
0.0
 10
133.7325498753
 20
168.2385621102
 30
0.0
  0
SPLINE
  5
410
100
AcDbEntity
  8
KONSTRUKTIONSELEMENTE
100
AcDbSpline
 62
7
  6
CONTINUOUS
 70
0
 71
3
 72
9
 73
5
 74
0
 42
0.0000001
 43
0.0000001
 44
0.0000000001
 40
0.0
 40
0.0
 40
0.0
 40
0.0
 40
0.7466376804
 40
1.0
 40
1.0
 40
1.0
 40
1.0
 10
155.7325498753
 20
168.2385621102
 30
0.0
 10
155.7325498753
 20
168.3442747807
 30
0.0
 10
155.7100649667
 20
168.4871438648
 30
0.0
 10
155.6604123326
 20
168.619819774
 30
0.0
 10
155.6462480435
 20
168.6527772389
 30
0.0
  0
SPLINE
  5
411
100
AcDbEntity
  8
KONSTRUKTIONSELEMENTE
100
AcDbSpline
 62
7
  6
CONTINUOUS
 70
0
 71
3
 72
11
 73
7
 74
0
 42
0.0000001
 43
0.0000001
 44
0.0000000001
 40
0.0
 40
0.0
 40
0.0
 40
0.0
 40
0.2140006867
 40
0.4532982319
 40
0.7185506568
 40
1.0
 40
1.0
 40
1.0
 40
1.0
 10
155.6462480435
 20
168.6527772389
 30
0.0
 10
155.5825914309
 20
168.8008934318
 30
0.0
 10
155.3766357179
 20
169.0858731758
 30
0.0
 10
154.9230930407
 20
169.3952382072
 30
0.0
 10
154.3579583413
 20
169.5902276627
 30
0.0
 10
153.9445777609
 20
169.6341176639
 30
0.0
 10
153.7325498753
 20
169.6341176639
 30
0.0
  0
SPLINE
  5
412
100
AcDbEntity
  8
KONSTRUKTIONSELEMENTE
100
AcDbSpline
 62
7
  6
CONTINUOUS
 70
0
 71
3
 72
13
 73
9
 74
0
 42
0.0000001
 43
0.0000001
 44
0.0000000001
 40
0.0
 40
0.0
 40
0.0
 40
0.0
 40
0.1045693391
 40
0.2115793397
 40
0.3243269195
 40
0.4449676375
 40
0.7106099309
 40
1.0
 40
1.0
 40
1.0
 40
1.0
 10
133.7325498753
 20
168.8205616319
 30
0.0
 10
133.7325498753
 20
168.9143664615
 30
0.0
 10
133.7587271827
 20
169.1051686271
 30
0.0
 10
133.8751390997
 20
169.3752228718
 30
0.0
 10
134.0625920087
 20
169.6198083816
 30
0.0
 10
134.4071451776
 20
169.9101132124
 30
0.0
 10
134.9726479327
 20
170.1596513448
 30
0.0
 10
135.4729500123
 20
170.2245628299
 30
0.0
 10
135.7325498753
 20
170.2245628299
 30
0.0
  0
SPLINE
  5
413
100
AcDbEntity
  8
KONSTRUKTIONSELEMENTE
100
AcDbSpline
 62
7
  6
CONTINUOUS
 70
0
 71
3
 72
13
 73
9
 74
0
 42
0.0000001
 43
0.0000001
 44
0.0000000001
 40
0.0
 40
0.0
 40
0.0
 40
0.0
 40
0.2893911208
 40
0.5550335481
 40
0.6756740073
 40
0.7884211905
 40
0.895430813
 40
1.0
 40
1.0
 40
1.0
 40
1.0
 10
153.7325498753
 20
170.2245628299
 30
0.0
 10
153.9921506804
 20
170.2245628299
 30
0.0
 10
154.4924538739
 20
170.1596510358
 30
0.0
 10
155.0579570702
 20
169.9101117242
 30
0.0
 10
155.402509411
 20
169.6198066321
 30
0.0
 10
155.5899612875
 20
169.3752215338
 30
0.0
 10
155.7063727148
 20
169.1051680203
 30
0.0
 10
155.7325498753
 20
168.9143663246
 30
0.0
 10
155.7325498753
 20
168.8205616319
 30
0.0
  0
SPLINE
  5
414
100
AcDbEntity
  8
RUNDUNGEN
100
AcDbSpline
 62
7
  6
CONTINUOUS
 70
0
 71
3
 72
13
 73
9
 74
0
 42
0.0000001
 43
0.0000001
 44
0.0000000001
 40
0.0
 40
0.0
 40
0.0
 40
0.0
 40
0.1250184937
 40
0.2500364737
 40
0.375054522
 40
0.5000722422
 40
0.750034192
 40
1.0
 40
1.0
 40
1.0
 40
1.0
 10
113.6962406908
 20
185.0972658168
 30
0.0
 10
113.6121890182
 20
185.0297976779
 30
0.0
 10
113.4465263796
 20
184.8917748811
 30
0.0
 10
113.2069711059
 20
184.6744553221
 30
0.0
 10
112.9776198405
 20
184.4463592446
 30
0.0
 10
112.6867544861
 20
184.1280356728
 30
0.0
 10
112.3527356071
 20
183.7041657717
 30
0.0
 10
112.1193746156
 20
183.3409280936
 30
0.0
 10
112.0114735989
 20
183.1543873411
 30
0.0
  0
SPLINE
  5
415
100
AcDbEntity
  8
RUNDUNGEN
100
AcDbSpline
 62
7
  6
CONTINUOUS
 70
0
 71
3
 72
13
 73
9
 74
0
 42
0.0000001
 43
0.0000001
 44
0.0000000001
 40
0.0
 40
0.0
 40
0.0
 40
0.0
 40
0.2499614452
 40
0.4999210931
 40
0.6249404298
 40
0.7499599699
 40
0.8749795415
 40
1.0
 40
1.0
 40
1.0
 40
1.0
 10
112.0194440766
 20
183.1471993112
 30
0.0
 10
112.1260497979
 20
183.3353822061
 30
0.0
 10
112.3580043001
 20
183.7014687623
 30
0.0
 10
112.6923046695
 20
184.1276941018
 30
0.0
 10
112.9842931995
 20
184.4471343779
 30
0.0
 10
113.2149293221
 20
184.6756296336
 30
0.0
 10
113.4562262692
 20
184.8928022467
 30
0.0
 10
113.6234085956
 20
185.0302425184
 30
0.0
 10
113.708319526
 20
185.0972646541
 30
0.0
  0
SPLINE
  5
416
100
AcDbEntity
  8
BEZUGSACHSEN
100
AcDbSpline
 62
7
  6
CONTINUOUS
 70
0
 71
3
 72
13
 73
9
 74
0
 42
0.0000001
 43
0.0000001
 44
0.0000000001
 40
0.0
 40
0.0
 40
0.0
 40
0.0
 40
0.1250184937
 40
0.2500364737
 40
0.375054522
 40
0.5000722422
 40
0.750034192
 40
1.0
 40
1.0
 40
1.0
 40
1.0
 10
175.7688590598
 20
185.0972658168
 30
0.0
 10
175.8529107325
 20
185.0297976779
 30
0.0
 10
176.018573371
 20
184.8917748811
 30
0.0
 10
176.2581286447
 20
184.6744553221
 30
0.0
 10
176.4874799101
 20
184.4463592446
 30
0.0
 10
176.7783452645
 20
184.1280356728
 30
0.0
 10
177.1123641435
 20
183.7041657717
 30
0.0
 10
177.345725135
 20
183.3409280936
 30
0.0
 10
177.4536261517
 20
183.1543873411
 30
0.0
  0
LINE
  5
417
100
AcDbEntity
  8
BEZUGSACHSEN
100
AcDbLine
 62
7
  6
CONTINUOUS
 10
144.7325498753
 20
261.0081817147
 11
144.7325498753
 21
251.0081817146
  0
SPLINE
  5
418
100
AcDbEntity
  8
BEZUGSACHSEN
100
AcDbSpline
 62
7
  6
CONTINUOUS
 70
0
 71
3
 72
13
 73
9
 74
0
 42
0.0000001
 43
0.0000001
 44
0.0000000001
 40
0.0
 40
0.0
 40
0.0
 40
0.0
 40
0.2499614452
 40
0.4999210931
 40
0.6249404298
 40
0.7499599699
 40
0.8749795415
 40
1.0
 40
1.0
 40
1.0
 40
1.0
 10
177.445655674
 20
183.1471993112
 30
0.0
 10
177.3390499527
 20
183.3353822061
 30
0.0
 10
177.1070954505
 20
183.7014687623
 30
0.0
 10
176.7727950811
 20
184.1276941018
 30
0.0
 10
176.4808065511
 20
184.4471343779
 30
0.0
 10
176.2501704285
 20
184.6756296336
 30
0.0
 10
176.0088734814
 20
184.8928022467
 30
0.0
 10
175.841691155
 20
185.0302425184
 30
0.0
 10
175.7567802246
 20
185.0972646541
 30
0.0
  0
SPLINE
  5
419
100
AcDbEntity
  8
KONSTRUKTIONSELEMENTE
100
AcDbSpline
 62
7
  6
CONTINUOUS
 70
0
 71
3
 72
13
 73
9
 74
0
 42
0.0000001
 43
0.0000001
 44
0.0000000001
 40
0.0
 40
0.0
 40
0.0
 40
0.0
 40
0.1028855733
 40
0.2105226749
 40
0.3251623459
 40
0.4477641698
 40
0.7142895513
 40
1.0
 40
1.0
 40
1.0
 40
1.0
 10
133.7325498753
 20
52.736551655
 30
0.0
 10
133.7325498753
 20
52.830261495
 30
0.0
 10
133.7596797625
 20
53.022858501
 30
0.0
 10
133.8760408746
 20
53.2982514709
 30
0.0
 10
134.0625576485
 20
53.5541270675
 30
0.0
 10
134.4041726402
 20
53.864364973
 30
0.0
 10
134.9661678139
 20
54.1428678261
 30
0.0
 10
135.4723201891
 20
54.2183237339
 30
0.0
 10
135.7325498753
 20
54.2183237339
 30
0.0
  0
SPLINE
  5
41A
100
AcDbEntity
  8
KONSTRUKTIONSELEMENTE
100
AcDbSpline
 62
7
  6
CONTINUOUS
 70
0
 71
3
 72
13
 73
9
 74
0
 42
0.0000001
 43
0.0000001
 44
0.0000000001
 40
0.0
 40
0.0
 40
0.0
 40
0.0
 40
0.1028855733
 40
0.2105226749
 40
0.3251623459
 40
0.4477641698
 40
0.7142895513
 40
1.0
 40
1.0
 40
1.0
 40
1.0
 10
155.7325498753
 20
95.4624757765
 30
0.0
 10
155.7325498753
 20
95.3687659364
 30
0.0
 10
155.7054199881
 20
95.1761689304
 30
0.0
 10
155.589058876
 20
94.9007759605
 30
0.0
 10
155.4025421022
 20
94.6449003639
 30
0.0
 10
155.0609271104
 20
94.3346624585
 30
0.0
 10
154.4989319367
 20
94.0561596053
 30
0.0
 10
153.9927795616
 20
93.9807036975
 30
0.0
 10
153.7325498753
 20
93.9807036975
 30
0.0
  0
SPLINE
  5
41B
100
AcDbEntity
  8
KONSTRUKTIONSELEMENTE
100
AcDbSpline
 62
7
  6
CONTINUOUS
 70
0
 71
3
 72
13
 73
9
 74
0
 42
0.0000001
 43
0.0000001
 44
0.0000000001
 40
0.0
 40
0.0
 40
0.0
 40
0.0
 40
0.2857114928
 40
0.5522370327
 40
0.6748385992
 40
0.7894778625
 40
0.8971145788
 40
1.0
 40
1.0
 40
1.0
 40
1.0
 10
135.7325498753
 20
93.9807036975
 30
0.0
 10
135.4723192403
 20
93.9807036975
 30
0.0
 10
134.9661657135
 20
94.0561599903
 30
0.0
 10
134.4041701575
 20
94.3346640987
 30
0.0
 10
134.0625559893
 20
94.6449022222
 30
0.0
 10
133.876040233
 20
94.9007773442
 30
0.0
 10
133.7596796111
 20
95.1761695536
 30
0.0
 10
133.7325498753
 20
95.3687660757
 30
0.0
 10
133.7325498753
 20
95.4624757765
 30
0.0
  0
SPLINE
  5
41C
100
AcDbEntity
  8
KONSTRUKTIONSELEMENTE
100
AcDbSpline
 62
7
  6
CONTINUOUS
 70
0
 71
3
 72
13
 73
9
 74
0
 42
0.0000001
 43
0.0000001
 44
0.0000000001
 40
0.0
 40
0.0
 40
0.0
 40
0.0
 40
0.2857114928
 40
0.5522370327
 40
0.6748385992
 40
0.7894778625
 40
0.8971145788
 40
1.0
 40
1.0
 40
1.0
 40
1.0
 10
153.7325498753
 20
54.2183237339
 30
0.0
 10
153.9927805103
 20
54.2183237339
 30
0.0
 10
154.4989340371
 20
54.1428674411
 30
0.0
 10
155.0609295932
 20
53.8643633328
 30
0.0
 10
155.4025437613
 20
53.5541252092
 30
0.0
 10
155.5890595176
 20
53.2982500872
 30
0.0
 10
155.7054201395
 20
53.0228578778
 30
0.0
 10
155.7325498753
 20
52.8302613557
 30
0.0
 10
155.7325498753
 20
52.736551655
 30
0.0
  0
SPLINE
  5
41D
100
AcDbEntity
  8
KONSTRUKTIONSELEMENTE
100
AcDbSpline
 62
7
  6
CONTINUOUS
 70
0
 71
3
 72
14
 73
10
 74
0
 42
0.0000001
 43
0.0000001
 44
0.0000000001
 40
0.0
 40
0.0
 40
0.0
 40
0.0
 40
0.3344391515
 40
0.4873426386
 40
0.6245199905
 40
0.7432390522
 40
0.8428988278
 40
0.9260816409
 40
1.0
 40
1.0
 40
1.0
 40
1.0
 10
135.7325498753
 20
46.188253625
 30
0.0
 10
135.474610317
 20
46.188253625
 30
0.0
 10
135.0975497044
 20
46.2144299331
 30
0.0
 10
134.6248813935
 20
46.3100202213
 30
0.0
 10
134.3234154685
 20
46.4048984742
 30
0.0
 10
134.0744774097
 20
46.5226458481
 30
0.0
 10
133.8854088745
 20
46.661447363
 30
0.0
 10
133.7622075101
 20
46.8213929857
 30
0.0
 10
133.7325498753
 20
46.9437770138
 30
0.0
 10
133.7325498753
 20
47.0007872914
 30
0.0
  0
SPLINE
  5
41E
100
AcDbEntity
  8
KONSTRUKTIONSELEMENTE
100
AcDbSpline
 62
7
  6
CONTINUOUS
 70
0
 71
3
 72
14
 73
10
 74
0
 42
0.0000001
 43
0.0000001
 44
0.0000000001
 40
0.0
 40
0.0
 40
0.0
 40
0.0
 40
0.0739184708
 40
0.1571016064
 40
0.2567618184
 40
0.3754812283
 40
0.512658758
 40
0.6655620451
 40
1.0
 40
1.0
 40
1.0
 40
1.0
 10
155.7325498753
 20
47.0007872914
 30
0.0
 10
155.7325498753
 20
46.9437769279
 30
0.0
 10
155.702892072
 20
46.8213925758
 30
0.0
 10
155.5796901355
 20
46.6614465095
 30
0.0
 10
155.3906206283
 20
46.5226448509
 30
0.0
 10
155.1416817575
 20
46.4048974858
 30
0.0
 10
154.840215487
 20
46.310019491
 30
0.0
 10
154.3675480222
 20
46.2144298144
 30
0.0
 10
153.9904885095
 20
46.188253625
 30
0.0
 10
153.7325498753
 20
46.188253625
 30
0.0
  0
SPLINE
  5
41F
100
AcDbEntity
  8
KONSTRUKTIONSELEMENTE
100
AcDbSpline
 62
7
  6
CONTINUOUS
 70
0
 71
3
 72
14
 73
10
 74
0
 42
0.0000001
 43
0.0000001
 44
0.0000000001
 40
0.0
 40
0.0
 40
0.0
 40
0.0
 40
0.3355489221
 40
0.488795533
 40
0.6261126459
 40
0.7447476311
 40
0.8440913046
 40
0.9267395548
 40
1.0
 40
1.0
 40
1.0
 40
1.0
 10
153.7325498753
 20
47.0314967119
 30
0.0
 10
153.9906139951
 20
47.0314967119
 30
0.0
 10
154.3676931886
 20
47.0571603753
 30
0.0
 10
154.8405379527
 20
47.1510976304
 30
0.0
 10
155.1418790936
 20
47.2443469946
 30
0.0
 10
155.3906318491
 20
47.3601473054
 30
0.0
 10
155.5795444479
 20
47.4967718796
 30
0.0
 10
155.7028137893
 20
47.6545020602
 30
0.0
 10
155.7325498753
 20
47.7756255715
 30
0.0
 10
155.7325498753
 20
47.8319687484
 30
0.0
  0
SPLINE
  5
420
100
AcDbEntity
  8
KONSTRUKTIONSELEMENTE
100
AcDbSpline
 62
7
  6
CONTINUOUS
 70
0
 71
3
 72
14
 73
10
 74
0
 42
0.0000001
 43
0.0000001
 44
0.0000000001
 40
0.0
 40
0.0
 40
0.0
 40
0.0
 40
0.0732607103
 40
0.1559096917
 40
0.2552542762
 40
0.3738900168
 40
0.5112071212
 40
0.6644530279
 40
1.0
 40
1.0
 40
1.0
 40
1.0
 10
133.7325498753
 20
47.8319687484
 30
0.0
 10
133.7325498753
 20
47.7756253684
 30
0.0
 10
133.7622863629
 20
47.6545011182
 30
0.0
 10
133.8855569737
 20
47.4967699896
 30
0.0
 10
134.0744716889
 20
47.3601451458
 30
0.0
 10
134.3232258953
 20
47.244344999
 30
0.0
 10
134.6245672684
 20
47.1510962896
 30
0.0
 10
135.0974101452
 20
47.05716017
 30
0.0
 10
135.474487259
 20
47.0314967119
 30
0.0
 10
135.7325498753
 20
47.0314967119
 30
0.0
  0
SPLINE
  5
421
100
AcDbEntity
  8
KONSTRUKTIONSELEMENTE
100
AcDbSpline
 62
7
  6
CONTINUOUS
 70
0
 71
3
 72
14
 73
10
 74
0
 42
0.0000001
 43
0.0000001
 44
0.0000000001
 40
0.0
 40
0.0
 40
0.0
 40
0.0
 40
0.3344391515
 40
0.4873426386
 40
0.6245199905
 40
0.7432390522
 40
0.8428988278
 40
0.9260816409
 40
1.0
 40
1.0
 40
1.0
 40
1.0
 10
153.7325498753
 20
102.0107738065
 30
0.0
 10
153.9904894336
 20
102.0107738065
 30
0.0
 10
154.3675500462
 20
101.9845974983
 30
0.0
 10
154.8402183571
 20
101.8890072101
 30
0.0
 10
155.1416842822
 20
101.7941289572
 30
0.0
 10
155.3906223409
 20
101.6763815833
 30
0.0
 10
155.5796908761
 20
101.5375800684
 30
0.0
 10
155.7028922405
 20
101.3776344457
 30
0.0
 10
155.7325498753
 20
101.2552504176
 30
0.0
 10
155.7325498753
 20
101.19824014
 30
0.0
  0
SPLINE
  5
422
100
AcDbEntity
  8
KONSTRUKTIONSELEMENTE
100
AcDbSpline
 62
7
  6
CONTINUOUS
 70
0
 71
3
 72
14
 73
10
 74
0
 42
0.0000001
 43
0.0000001
 44
0.0000000001
 40
0.0
 40
0.0
 40
0.0
 40
0.0
 40
0.3355489221
 40
0.488795533
 40
0.6261126459
 40
0.7447476311
 40
0.8440913046
 40
0.9267395548
 40
1.0
 40
1.0
 40
1.0
 40
1.0
 10
135.7325498753
 20
101.1675307195
 30
0.0
 10
135.4744857556
 20
101.1675307195
 30
0.0
 10
135.0974065621
 20
101.1418670561
 30
0.0
 10
134.6245617979
 20
101.047929801
 30
0.0
 10
134.323220657
 20
100.9546804369
 30
0.0
 10
134.0744679015
 20
100.8388801261
 30
0.0
 10
133.8855553027
 20
100.7022555518
 30
0.0
 10
133.7622859613
 20
100.5445253713
 30
0.0
 10
133.7325498753
 20
100.42340186
 30
0.0
 10
133.7325498753
 20
100.367058683
 30
0.0
  0
SPLINE
  5
423
100
AcDbEntity
  8
KONSTRUKTIONSELEMENTE
100
AcDbSpline
 62
7
  6
CONTINUOUS
 70
0
 71
3
 72
14
 73
10
 74
0
 42
0.0000001
 43
0.0000001
 44
0.0000000001
 40
0.0
 40
0.0
 40
0.0
 40
0.0
 40
0.0739184708
 40
0.1571016064
 40
0.2567618184
 40
0.3754812283
 40
0.512658758
 40
0.6655620451
 40
1.0
 40
1.0
 40
1.0
 40
1.0
 10
133.7325498753
 20
101.19824014
 30
0.0
 10
133.7325498753
 20
101.2552505035
 30
0.0
 10
133.7622076786
 20
101.3776348557
 30
0.0
 10
133.8854096152
 20
101.5375809219
 30
0.0
 10
134.0744791223
 20
101.6763825805
 30
0.0
 10
134.3234179931
 20
101.7941299456
 30
0.0
 10
134.6248842636
 20
101.8890079404
 30
0.0
 10
135.0975517284
 20
101.984597617
 30
0.0
 10
135.4746112412
 20
102.0107738065
 30
0.0
 10
135.7325498753
 20
102.0107738065
 30
0.0
  0
SPLINE
  5
424
100
AcDbEntity
  8
KONSTRUKTIONSELEMENTE
100
AcDbSpline
 62
7
  6
CONTINUOUS
 70
0
 71
3
 72
14
 73
10
 74
0
 42
0.0000001
 43
0.0000001
 44
0.0000000001
 40
0.0
 40
0.0
 40
0.0
 40
0.0
 40
0.0732607103
 40
0.1559096917
 40
0.2552542762
 40
0.3738900168
 40
0.5112071212
 40
0.6644530279
 40
1.0
 40
1.0
 40
1.0
 40
1.0
 10
155.7325498753
 20
100.367058683
 30
0.0
 10
155.7325498753
 20
100.423402063
 30
0.0
 10
155.7028133877
 20
100.5445263132
 30
0.0
 10
155.5795427769
 20
100.7022574418
 30
0.0
 10
155.3906280617
 20
100.8388822856
 30
0.0
 10
155.1418738553
 20
100.9546824324
 30
0.0
 10
154.8405324822
 20
101.0479311419
 30
0.0
 10
154.3676896054
 20
101.1418672614
 30
0.0
 10
153.9906124916
 20
101.1675307195
 30
0.0
 10
153.7325498753
 20
101.1675307195
 30
0.0
  0
ELLIPSE
  5
425
100
AcDbEntity
  8
KONSTRUKTIONSELEMENTE
100
AcDbEllipse
 62
7
  6
CONTINUOUS
 10
122.7325498753
 20
137.96553505
 30
0.0
 11
8.0
 21
0.0
 31
0.0
 40
0.8845519309
 41
-3.1415926536
 42
-2.9701373158
  0
ELLIPSE
  5
426
100
AcDbEntity
  8
KONSTRUKTIONSELEMENTE
100
AcDbEllipse
 62
7
  6
CONTINUOUS
 10
122.7325498753
 20
139.4465732899
 30
0.0
 11
-0.0
 21
15.7569240482
 31
0.0
 40
0.5077133059
 41
-4.5409336426
 42
-4.3430393289
  0
ELLIPSE
  5
427
100
AcDbEntity
  8
KONSTRUKTIONSELEMENTE
100
AcDbEllipse
 62
7
  6
CONTINUOUS
 10
166.7325498753
 20
137.96553505
 30
0.0
 11
8.0
 21
-0.0
 31
0.0
 40
0.8845519309
 41
-0.1714553378
 42
0.0
  0
ELLIPSE
  5
428
100
AcDbEntity
  8
KONSTRUKTIONSELEMENTE
100
AcDbEllipse
 62
7
  6
CONTINUOUS
 10
166.7325498753
 20
139.4465732899
 30
0.0
 11
0.0
 21
15.7569240482
 31
0.0
 40
0.5077133059
 41
-1.9401459783
 42
-1.7422516646
  0
ELLIPSE
  5
429
100
AcDbEntity
  8
KONSTRUKTIONSELEMENTE
100
AcDbEllipse
 62
7
  6
CONTINUOUS
 10
148.9499112547
 20
147.7581816147
 30
0.0
 11
-4.0449410066
 21
29.9976944931
 31
0.0
 40
0.0919471561
 41
-1.0275341081
 42
-0.8587514032
  0
ELLIPSE
  5
42A
100
AcDbEntity
  8
KONSTRUKTIONSELEMENTE
100
AcDbEllipse
 62
7
  6
CONTINUOUS
 10
149.5802352397
 20
147.7581816147
 30
0.0
 11
5.4278630043
 21
29.9928211802
 31
0.0
 40
0.1209058431
 41
0.868230815
 42
1.0370135199
  0
ELLIPSE
  5
42B
100
AcDbEntity
  8
KONSTRUKTIONSELEMENTE
100
AcDbEllipse
 62
7
  6
CONTINUOUS
 10
152.1598650447
 20
147.7581816147
 30
0.0
 11
-5.427870992
 21
29.9928211399
 31
0.0
 40
0.1209060051
 41
-1.0370135814
 42
-0.8682308765
  0
ELLIPSE
  5
42C
100
AcDbEntity
  8
KONSTRUKTIONSELEMENTE
100
AcDbEllipse
 62
7
  6
CONTINUOUS
 10
152.7901892873
 20
147.7581816147
 30
0.0
 11
4.0449370844
 21
29.9976945018
 31
0.0
 40
0.0919470715
 41
0.8587513797
 42
1.0275340847
  0
ELLIPSE
  5
42D
100
AcDbEntity
  8
KONSTRUKTIONSELEMENTE
100
AcDbEllipse
 62
7
  6
CONTINUOUS
 10
126.5524393229
 20
147.7581816147
 30
0.0
 11
0.0
 21
30.0
 31
0.0
 40
0.7143480815
 41
6.3198601949
 42
6.3541668793
  0
ELLIPSE
  5
42E
100
AcDbEntity
  8
KONSTRUKTIONSELEMENTE
100
AcDbEllipse
 62
7
  6
CONTINUOUS
 10
130.676220332
 20
147.7581816147
 30
0.0
 11
0.0
 21
30.0
 31
0.0
 40
0.208350656
 41
-0.1944861655
 42
-0.1745733017
  0
ELLIPSE
  5
42F
100
AcDbEntity
  8
KONSTRUKTIONSELEMENTE
100
AcDbEllipse
 62
7
  6
CONTINUOUS
 10
128.8668029339
 20
147.7581816147
 30
0.0
 11
0.0
 21
30.0
 31
0.0
 40
0.5556051231
 41
-0.1745733017
 42
-0.1596848675
  0
ELLIPSE
  5
430
100
AcDbEntity
  8
KONSTRUKTIONSELEMENTE
100
AcDbEllipse
 62
7
  6
CONTINUOUS
 10
121.5783504315
 20
147.7581816147
 30
0.0
 11
62.5054332878
 21
-0.0
 31
0.0
 40
0.479958276
 41
1.4111114593
 42
1.421017076
  0
ELLIPSE
  5
431
100
AcDbEntity
  8
KONSTRUKTIONSELEMENTE
100
AcDbEllipse
 62
7
  6
CONTINUOUS
 10
143.0825498403
 20
147.7581816147
 30
0.0
 11
88.0050479554
 21
25.4386467777
 31
0.0
 40
0.1806947684
 41
1.4942127255
 42
1.4988947193
  0
ELLIPSE
  5
432
100
AcDbEntity
  8
KONSTRUKTIONSELEMENTE
100
AcDbEllipse
 62
7
  6
CONTINUOUS
 10
131.1962069624
 20
147.7581816147
 30
0.0
 11
0.0
 21
30.0
 31
0.0
 40
0.2083519212
 41
-0.0906204267
 42
-0.0709815721
  0
ELLIPSE
  5
433
100
AcDbEntity
  8
KONSTRUKTIONSELEMENTE
100
AcDbEllipse
 62
7
  6
CONTINUOUS
 10
144.5158838804
 20
147.7581816147
 30
0.0
 11
27.9495550075
 21
28.6772129446
 31
0.0
 40
0.3152135
 41
1.2242288831
 42
1.2335945788
  0
ELLIPSE
  5
434
100
AcDbEntity
  8
KONSTRUKTIONSELEMENTE
100
AcDbEllipse
 62
7
  6
CONTINUOUS
 10
145.1769934231
 20
147.7581816147
 30
0.0
 11
8.281871324
 21
29.9652392346
 31
0.0
 40
0.174327528
 41
0.9602553205
 42
0.9743096793
  0
ELLIPSE
  5
435
100
AcDbEntity
  8
KONSTRUKTIONSELEMENTE
100
AcDbEllipse
 62
7
  6
CONTINUOUS
 10
129.8663036958
 20
147.7581816147
 30
0.0
 11
-0.0
 21
30.0
 31
0.0
 40
0.8334064925
 41
-0.0709815721
 42
-0.0513701063
  0
ELLIPSE
  5
436
100
AcDbEntity
  8
KONSTRUKTIONSELEMENTE
100
AcDbEllipse
 62
7
  6
CONTINUOUS
 10
128.5825049365
 20
147.7581816147
 30
0.0
 11
50.0043537834
 21
0.0
 31
0.0
 40
0.5999477591
 41
1.5194262205
 42
1.5292240702
  0
ELLIPSE
  5
437
100
AcDbEntity
  8
KONSTRUKTIONSELEMENTE
100
AcDbEllipse
 62
7
  6
CONTINUOUS
 10
123.3870164441
 20
147.7581816147
 30
0.0
 11
175.0152561249
 21
-0.0
 31
0.0
 40
0.171413628
 41
1.5292240702
 42
1.5341214391
  0
ELLIPSE
  5
438
100
AcDbEntity
  8
KONSTRUKTIONSELEMENTE
100
AcDbEllipse
 62
7
  6
CONTINUOUS
 10
135.9767662572
 20
147.7581816147
 30
0.0
 11
175.0152561249
 21
0.0
 31
0.0
 40
0.171413628
 41
1.6074712145
 42
1.6123685834
  0
ELLIPSE
  5
439
100
AcDbEntity
  8
KONSTRUKTIONSELEMENTE
100
AcDbEllipse
 62
7
  6
CONTINUOUS
 10
130.7812777648
 20
147.7581816147
 30
0.0
 11
50.0043537834
 21
-0.0
 31
0.0
 40
0.5999477591
 41
1.6123685834
 42
1.6221664331
  0
ELLIPSE
  5
43A
100
AcDbEntity
  8
KONSTRUKTIONSELEMENTE
100
AcDbEllipse
 62
7
  6
CONTINUOUS
 10
129.4974785464
 20
147.7581816147
 30
0.0
 11
-0.0
 21
30.0
 31
0.0
 40
0.8334061944
 41
0.0513701063
 42
0.0709815721
  0
ELLIPSE
  5
43B
100
AcDbEntity
  8
KONSTRUKTIONSELEMENTE
100
AcDbEllipse
 62
7
  6
CONTINUOUS
 10
128.1675752797
 20
147.7581816147
 30
0.0
 11
0.0
 21
30.0
 31
0.0
 40
0.2083516231
 41
0.0709815721
 42
0.0906204267
  0
ELLIPSE
  5
43C
100
AcDbEntity
  8
KONSTRUKTIONSELEMENTE
100
AcDbEllipse
 62
7
  6
CONTINUOUS
 10
132.4037587241
 20
147.7581816147
 30
0.0
 11
-0.0
 21
30.0
 31
0.0
 40
0.4167026501
 41
0.1004525485
 42
0.120147011
  0
ELLIPSE
  5
43D
100
AcDbEntity
  8
KONSTRUKTIONSELEMENTE
100
AcDbEllipse
 62
7
  6
CONTINUOUS
 10
133.9021193961
 20
147.7581816147
 30
0.0
 11
-0.0
 21
30.0
 31
0.0
 40
0.8334064925
 41
6.4033323182
 42
6.413196653
  0
ELLIPSE
  5
43E
100
AcDbEntity
  8
KONSTRUKTIONSELEMENTE
100
AcDbEllipse
 62
7
  6
CONTINUOUS
 10
140.3849534788
 20
147.7581816147
 30
0.0
 11
75.0065485581
 21
0.0
 31
0.0
 40
0.3999650774
 41
1.7008076726
 42
1.7106847469
  0
ELLIPSE
  5
43F
100
AcDbEntity
  8
KONSTRUKTIONSELEMENTE
100
AcDbEllipse
 62
7
  6
CONTINUOUS
 10
133.933153976
 20
147.7581816147
 30
0.0
 11
0.0
 21
30.0
 31
0.0
 40
0.4167038423
 41
0.2144774488
 42
0.2245053079
  0
ELLIPSE
  5
440
100
AcDbEntity
  8
KONSTRUKTIONSELEMENTE
100
AcDbEllipse
 62
7
  6
CONTINUOUS
 10
136.7161857866
 20
147.7581816147
 30
0.0
 11
0.0
 21
30.0
 31
0.0
 40
0.8334050085
 41
0.2245053079
 42
0.2345561871
  0
ELLIPSE
  5
441
100
AcDbEntity
  8
KONSTRUKTIONSELEMENTE
100
AcDbEllipse
 62
7
  6
CONTINUOUS
 10
142.5269899287
 20
147.7581816147
 30
0.0
 11
50.0043895493
 21
0.0
 31
0.0
 40
0.59994733
 41
1.8053525139
 42
1.8103869514
  0
ELLIPSE
  5
442
100
AcDbEntity
  8
KONSTRUKTIONSELEMENTE
100
AcDbEllipse
 62
7
  6
CONTINUOUS
 10
160.3263993051
 20
147.7581816147
 30
0.0
 11
125.0108665756
 21
0.0
 31
0.0
 40
0.239979138
 41
1.8103869514
 42
1.815427588
  0
ELLIPSE
  5
443
100
AcDbEntity
  8
KONSTRUKTIONSELEMENTE
100
AcDbEllipse
 62
7
  6
CONTINUOUS
 10
161.3283976305
 20
147.7581816147
 30
0.0
 11
146.8477283602
 21
-24.902343747
 31
0.0
 40
0.113923543
 41
1.6989804122
 42
1.7036903691
  0
ELLIPSE
  5
444
100
AcDbEntity
  8
KONSTRUKTIONSELEMENTE
100
AcDbEllipse
 62
7
  6
CONTINUOUS
 10
149.6256021639
 20
147.7581816147
 30
0.0
 11
38.2629734138
 21
-27.6825310644
 31
0.0
 40
0.3021693421
 41
1.8807756429
 42
1.8948914041
  0
ELLIPSE
  5
445
100
AcDbEntity
  8
KONSTRUKTIONSELEMENTE
100
AcDbEllipse
 62
7
  6
CONTINUOUS
 10
148.0044249107
 20
147.7581816147
 30
0.0
 11
-20.2165521597
 21
29.3891388128
 31
0.0
 40
0.2979323685
 41
-1.0861176171
 42
-1.0673255255
  0
ELLIPSE
  5
446
100
AcDbEntity
  8
KONSTRUKTIONSELEMENTE
100
AcDbEllipse
 62
7
  6
CONTINUOUS
 10
99.0373664214
 20
147.7581816147
 30
0.0
 11
125.0109381074
 21
0.0
 31
0.0
 40
0.2399790007
 41
1.3261650656
 42
1.3312057022
  0
ELLIPSE
  5
447
100
AcDbEntity
  8
KONSTRUKTIONSELEMENTE
100
AcDbEllipse
 62
7
  6
CONTINUOUS
 10
147.0756067182
 20
147.7581816147
 30
0.0
 11
-8.281871324
 21
29.9652392346
 31
0.0
 40
0.174327528
 41
-0.9461914885
 42
-0.9321154024
  0
ELLIPSE
  5
448
100
AcDbEntity
  8
KONSTRUKTIONSELEMENTE
100
AcDbEllipse
 62
7
  6
CONTINUOUS
 10
116.8367927726
 20
147.7581816147
 30
0.0
 11
50.0043895493
 21
-0.0
 31
0.0
 40
0.59994733
 41
1.3312057022
 42
1.3362401397
  0
ELLIPSE
  5
449
100
AcDbEntity
  8
KONSTRUKTIONSELEMENTE
100
AcDbEllipse
 62
7
  6
CONTINUOUS
 10
122.6475969147
 20
147.7581816147
 30
0.0
 11
-0.0
 21
30.0
 31
0.0
 40
0.8334050085
 41
-0.2345561871
 42
-0.2245053079
  0
ELLIPSE
  5
44A
100
AcDbEntity
  8
KONSTRUKTIONSELEMENTE
100
AcDbEllipse
 62
7
  6
CONTINUOUS
 10
125.4306287253
 20
147.7581816147
 30
0.0
 11
0.0
 21
30.0
 31
0.0
 40
0.4167038423
 41
-0.2245053079
 42
-0.2144774488
  0
ELLIPSE
  5
44B
100
AcDbEntity
  8
KONSTRUKTIONSELEMENTE
100
AcDbEllipse
 62
7
  6
CONTINUOUS
 10
136.614332167
 20
147.7581816147
 30
0.0
 11
0.0
 21
30.0
 31
0.0
 40
0.740805341
 41
0.0366748877
 42
0.1696063131
  0
ELLIPSE
  5
44C
100
AcDbEntity
  8
KONSTRUKTIONSELEMENTE
100
AcDbEllipse
 62
7
  6
CONTINUOUS
 10
142.4922300815
 20
147.7581816147
 30
0.0
 11
-0.0
 21
30.0
 31
0.0
 40
0.1666805832
 41
-0.1300113458
 42
-0.1053721988
  0
ELLIPSE
  5
44D
100
AcDbEntity
  8
KONSTRUKTIONSELEMENTE
100
AcDbEllipse
 62
7
  6
CONTINUOUS
 10
142.141610591
 20
147.7581816147
 30
0.0
 11
0.0
 21
30.0
 31
0.0
 40
0.2778007126
 41
-0.1053721988
 42
-0.0906204267
  0
ELLIPSE
  5
44E
100
AcDbEntity
  8
KONSTRUKTIONSELEMENTE
100
AcDbEllipse
 62
7
  6
CONTINUOUS
 10
141.7645033973
 20
147.7581816147
 30
0.0
 11
0.0
 21
30.0
 31
0.0
 40
0.4167038423
 41
-0.0906204267
 42
-0.0709815721
  0
ELLIPSE
  5
44F
100
AcDbEntity
  8
KONSTRUKTIONSELEMENTE
100
AcDbEllipse
 62
7
  6
CONTINUOUS
 10
140.8779029106
 20
147.7581816147
 30
0.0
 11
0.0
 21
30.0
 31
0.0
 40
0.8334060951
 41
-0.0709815721
 42
-0.0562708238
  0
ELLIPSE
  5
450
100
AcDbEntity
  8
KONSTRUKTIONSELEMENTE
100
AcDbEllipse
 62
7
  6
CONTINUOUS
 10
139.9404670715
 20
147.7581816147
 30
0.0
 11
41.6703365464
 21
-0.0
 31
0.0
 40
0.7199365901
 41
1.514525503
 42
1.5292240702
  0
ELLIPSE
  5
451
100
AcDbEntity
  8
KONSTRUKTIONSELEMENTE
100
AcDbEllipse
 62
7
  6
CONTINUOUS
 10
135.4377112699
 20
147.7581816147
 30
0.0
 11
150.0130971161
 21
-0.0
 31
0.0
 40
0.1999825387
 41
1.5292240702
 42
1.5341214391
  0
ELLIPSE
  5
452
100
AcDbEntity
  8
KONSTRUKTIONSELEMENTE
100
AcDbEllipse
 62
7
  6
CONTINUOUS
 10
146.4386717251
 20
147.7581816147
 30
0.0
 11
150.0130971161
 21
0.0
 31
0.0
 40
0.1999825387
 41
1.6074712145
 42
1.6123685834
  0
ELLIPSE
  5
453
100
AcDbEntity
  8
KONSTRUKTIONSELEMENTE
100
AcDbEllipse
 62
7
  6
CONTINUOUS
 10
141.9359119596
 20
147.7581816147
 30
0.0
 11
41.6702411706
 21
0.0
 31
0.0
 40
0.7199382379
 41
1.6123685834
 42
1.6270671506
  0
ELLIPSE
  5
454
100
AcDbEntity
  8
KONSTRUKTIONSELEMENTE
100
AcDbEllipse
 62
7
  6
CONTINUOUS
 10
140.9984814846
 20
147.7581816147
 30
0.0
 11
0.0
 21
30.0
 31
0.0
 40
0.8334060951
 41
6.3394561309
 42
6.3541668793
  0
ELLIPSE
  5
455
100
AcDbEntity
  8
KONSTRUKTIONSELEMENTE
100
AcDbEllipse
 62
7
  6
CONTINUOUS
 10
140.1118809979
 20
147.7581816147
 30
0.0
 11
-0.0
 21
30.0
 31
0.0
 40
0.4167038423
 41
0.0709815721
 42
0.0906204267
  0
ELLIPSE
  5
456
100
AcDbEntity
  8
KONSTRUKTIONSELEMENTE
100
AcDbEllipse
 62
7
  6
CONTINUOUS
 10
139.7347738042
 20
147.7581816147
 30
0.0
 11
-0.0
 21
30.0
 31
0.0
 40
0.2778007126
 41
0.0906204267
 42
0.1053721988
  0
ELLIPSE
  5
457
100
AcDbEntity
  8
KONSTRUKTIONSELEMENTE
100
AcDbEllipse
 62
7
  6
CONTINUOUS
 10
139.3841603325
 20
147.7581816147
 30
0.0
 11
-0.0
 21
30.0
 31
0.0
 40
0.1666824907
 41
0.1053721988
 42
0.1300113458
  0
ELLIPSE
  5
458
100
AcDbEntity
  8
KONSTRUKTIONSELEMENTE
100
AcDbEllipse
 62
7
  6
CONTINUOUS
 10
143.232132935
 20
147.7581816147
 30
0.0
 11
-0.0
 21
30.0
 31
0.0
 40
0.1389020432
 41
0.1696063131
 42
0.1994762867
  0
ELLIPSE
  5
459
100
AcDbEntity
  8
KONSTRUKTIONSELEMENTE
100
AcDbEllipse
 62
7
  6
CONTINUOUS
 10
145.7092899363
 20
147.7581816147
 30
0.0
 11
0.0
 21
30.0
 31
0.0
 40
0.5556034687
 41
0.1994762867
 42
0.2295277988
  0
ELLIPSE
  5
45A
100
AcDbEntity
  8
KONSTRUKTIONSELEMENTE
100
AcDbEllipse
 62
7
  6
CONTINUOUS
 10
150.4496606048
 20
147.7581816147
 30
0.0
 11
37.503274279
 21
0.0
 31
0.0
 40
0.7999301548
 41
1.8003241256
 42
1.8103869514
  0
ELLIPSE
  5
45B
100
AcDbEntity
  8
KONSTRUKTIONSELEMENTE
100
AcDbEllipse
 62
7
  6
CONTINUOUS
 10
171.2156806477
 20
147.7581816147
 30
0.0
 11
125.0110096392
 21
-0.0
 31
0.0
 40
0.2399788634
 41
1.8103869514
 42
1.815427588
  0
ELLIPSE
  5
45C
100
AcDbEntity
  8
KONSTRUKTIONSELEMENTE
100
AcDbEllipse
 62
7
  6
CONTINUOUS
 10
110.6607716469
 20
147.7581816147
 30
0.0
 11
125.0107235119
 21
-0.0
 31
0.0
 40
0.2399794126
 41
1.3261650656
 42
1.3312057022
  0
ELLIPSE
  5
45D
100
AcDbEntity
  8
KONSTRUKTIONSELEMENTE
100
AcDbEllipse
 62
7
  6
CONTINUOUS
 10
131.4267237904
 20
147.7581816147
 30
0.0
 11
37.503274279
 21
0.0
 31
0.0
 40
0.7999301548
 41
1.3312057022
 42
1.341268528
  0
ELLIPSE
  5
45E
100
AcDbEntity
  8
KONSTRUKTIONSELEMENTE
100
AcDbEllipse
 62
7
  6
CONTINUOUS
 10
136.1670836091
 20
147.7581816147
 30
0.0
 11
0.0
 21
30.0
 31
0.0
 40
0.5556050583
 41
-0.2295277988
 42
-0.1994762867
  0
ELLIPSE
  5
45F
100
AcDbEntity
  8
KONSTRUKTIONSELEMENTE
100
AcDbEllipse
 62
7
  6
CONTINUOUS
 10
138.6442595097
 20
147.7581816147
 30
0.0
 11
0.0
 21
30.0
 31
0.0
 40
0.1389004536
 41
-0.1994762867
 42
-0.1696063131
  0
ELLIPSE
  5
460
100
AcDbEntity
  8
KONSTRUKTIONSELEMENTE
100
AcDbEllipse
 62
7
  6
CONTINUOUS
 10
147.8756786399
 20
147.7581816147
 30
0.0
 11
-0.0
 21
30.0
 31
0.0
 40
0.1666805832
 41
-0.1300113458
 42
-0.1053721988
  0
ELLIPSE
  5
461
100
AcDbEntity
  8
KONSTRUKTIONSELEMENTE
100
AcDbEllipse
 62
7
  6
CONTINUOUS
 10
147.525049118
 20
147.7581816147
 30
0.0
 11
-0.0
 21
30.0
 31
0.0
 40
0.2778038917
 41
-0.1053721988
 42
-0.0906204267
  0
ELLIPSE
  5
462
100
AcDbEntity
  8
KONSTRUKTIONSELEMENTE
100
AcDbEllipse
 62
7
  6
CONTINUOUS
 10
147.1479570288
 20
147.7581816147
 30
0.0
 11
0.0
 21
30.0
 31
0.0
 40
0.4167014579
 41
-0.0906204267
 42
-0.0709815721
  0
ELLIPSE
  5
463
100
AcDbEntity
  8
KONSTRUKTIONSELEMENTE
100
AcDbEllipse
 62
7
  6
CONTINUOUS
 10
146.2613514689
 20
147.7581816147
 30
0.0
 11
0.0
 21
30.0
 31
0.0
 40
0.8334060951
 41
-0.0709815721
 42
-0.0562708238
  0
ELLIPSE
  5
464
100
AcDbEntity
  8
KONSTRUKTIONSELEMENTE
100
AcDbEllipse
 62
7
  6
CONTINUOUS
 10
145.3239156299
 20
147.7581816147
 30
0.0
 11
41.6703365464
 21
-0.0
 31
0.0
 40
0.7199365901
 41
1.514525503
 42
1.5292240702
  0
ELLIPSE
  5
465
100
AcDbEntity
  8
KONSTRUKTIONSELEMENTE
100
AcDbEllipse
 62
7
  6
CONTINUOUS
 10
140.8211598283
 20
147.7581816147
 30
0.0
 11
150.0130971161
 21
-0.0
 31
0.0
 40
0.1999825387
 41
1.5292240702
 42
1.5341214391
  0
ELLIPSE
  5
466
100
AcDbEntity
  8
KONSTRUKTIONSELEMENTE
100
AcDbEllipse
 62
7
  6
CONTINUOUS
 10
151.8221202834
 20
147.7581816147
 30
0.0
 11
150.0130971161
 21
0.0
 31
0.0
 40
0.1999825387
 41
1.6074712145
 42
1.6123685834
  0
ELLIPSE
  5
467
100
AcDbEntity
  8
KONSTRUKTIONSELEMENTE
100
AcDbEllipse
 62
7
  6
CONTINUOUS
 10
147.3193644818
 20
147.7581816147
 30
0.0
 11
41.6703365464
 21
0.0
 31
0.0
 40
0.7199365901
 41
1.6123685834
 42
1.6270671506
  0
ELLIPSE
  5
468
100
AcDbEntity
  8
KONSTRUKTIONSELEMENTE
100
AcDbEllipse
 62
7
  6
CONTINUOUS
 10
137.2742152274
 20
147.7581816147
 30
0.0
 11
58.7500273029
 21
0.0
 31
0.0
 40
0.5106380606
 41
7.8075353983
 42
7.8156743935
  0
ELLIPSE
  5
469
100
AcDbEntity
  8
KONSTRUKTIONSELEMENTE
100
AcDbEllipse
 62
7
  6
CONTINUOUS
 10
146.3819286428
 20
147.7581816147
 30
0.0
 11
0.0
 21
30.0
 31
0.0
 40
0.8334060951
 41
6.3394561309
 42
6.3541668793
  0
ELLIPSE
  5
46A
100
AcDbEntity
  8
KONSTRUKTIONSELEMENTE
100
AcDbEllipse
 62
7
  6
CONTINUOUS
 10
133.8992182546
 20
147.7581816147
 30
0.0
 11
146.8749486224
 21
0.0
 31
0.0
 40
0.2042553906
 41
7.8156743935
 42
7.8206421247
  0
ELLIPSE
  5
46B
100
AcDbEntity
  8
KONSTRUKTIONSELEMENTE
100
AcDbEllipse
 62
7
  6
CONTINUOUS
 10
145.4953230829
 20
147.7581816147
 30
0.0
 11
-0.0
 21
30.0
 31
0.0
 40
0.4167014579
 41
0.0709815721
 42
0.0906204267
  0
ELLIPSE
  5
46C
100
AcDbEntity
  8
KONSTRUKTIONSELEMENTE
100
AcDbEllipse
 62
7
  6
CONTINUOUS
 10
145.1182309937
 20
147.7581816147
 30
0.0
 11
0.0
 21
30.0
 31
0.0
 40
0.2778038917
 41
0.0906204267
 42
0.1053721988
  0
ELLIPSE
  5
46D
100
AcDbEntity
  8
KONSTRUKTIONSELEMENTE
100
AcDbEllipse
 62
7
  6
CONTINUOUS
 10
142.3783814961
 20
147.7581816147
 30
0.0
 11
146.8749486224
 21
-0.0
 31
0.0
 40
0.2042553906
 41
1.6041358361
 42
1.6091035673
  0
ELLIPSE
  5
46E
100
AcDbEntity
  8
KONSTRUKTIONSELEMENTE
100
AcDbEllipse
 62
7
  6
CONTINUOUS
 10
144.7676014718
 20
147.7581816147
 30
0.0
 11
0.0
 21
30.0
 31
0.0
 40
0.1666805832
 41
0.1053721988
 42
0.1300113458
  0
ELLIPSE
  5
46F
100
AcDbEntity
  8
KONSTRUKTIONSELEMENTE
100
AcDbEllipse
 62
7
  6
CONTINUOUS
 10
139.0033845232
 20
147.7581816147
 30
0.0
 11
58.7500273029
 21
0.0
 31
0.0
 40
0.5106380606
 41
1.6091035673
 42
1.6128483949
  0
ELLIPSE
  5
470
100
AcDbEntity
  8
KONSTRUKTIONSELEMENTE
100
AcDbEllipse
 62
7
  6
CONTINUOUS
 10
148.6155720437
 20
147.7581816147
 30
0.0
 11
0.0
 21
30.0
 31
0.0
 40
0.1389004536
 41
0.1696063131
 42
0.1994762867
  0
ELLIPSE
  5
471
100
AcDbEntity
  8
KONSTRUKTIONSELEMENTE
100
AcDbEllipse
 62
7
  6
CONTINUOUS
 10
151.0927384946
 20
147.7581816147
 30
0.0
 11
-0.0
 21
30.0
 31
0.0
 40
0.5556034687
 41
0.1994762867
 42
0.2295277988
  0
ELLIPSE
  5
472
100
AcDbEntity
  8
KONSTRUKTIONSELEMENTE
100
AcDbEllipse
 62
7
  6
CONTINUOUS
 10
155.8331091632
 20
147.7581816147
 30
0.0
 11
37.503274279
 21
0.0
 31
0.0
 40
0.7999301548
 41
1.8003241256
 42
1.8103869514
  0
ELLIPSE
  5
473
100
AcDbEntity
  8
KONSTRUKTIONSELEMENTE
100
AcDbEllipse
 62
7
  6
CONTINUOUS
 10
176.5991292061
 20
147.7581816147
 30
0.0
 11
125.0110096392
 21
0.0
 31
0.0
 40
0.2399788634
 41
1.8103869514
 42
1.815427588
  0
ELLIPSE
  5
474
100
AcDbEntity
  8
KONSTRUKTIONSELEMENTE
100
AcDbEllipse
 62
7
  6
CONTINUOUS
 10
116.0441509056
 20
147.7581816147
 30
0.0
 11
125.0110096392
 21
-0.0
 31
0.0
 40
0.2399788634
 41
1.3261650656
 42
1.3312057022
  0
ELLIPSE
  5
475
100
AcDbEntity
  8
KONSTRUKTIONSELEMENTE
100
AcDbEllipse
 62
7
  6
CONTINUOUS
 10
136.8101709485
 20
147.7581816147
 30
0.0
 11
37.503274279
 21
0.0
 31
0.0
 40
0.7999301548
 41
1.3312057022
 42
1.341268528
  0
ELLIPSE
  5
476
100
AcDbEntity
  8
KONSTRUKTIONSELEMENTE
100
AcDbEllipse
 62
7
  6
CONTINUOUS
 10
141.5505416171
 20
147.7581816147
 30
0.0
 11
0.0
 21
30.0
 31
0.0
 40
0.5556034687
 41
-0.2295277988
 42
-0.1994762867
  0
ELLIPSE
  5
477
100
AcDbEntity
  8
KONSTRUKTIONSELEMENTE
100
AcDbEllipse
 62
7
  6
CONTINUOUS
 10
144.027708068
 20
147.7581816147
 30
0.0
 11
-0.0
 21
30.0
 31
0.0
 40
0.1389004536
 41
-0.1994762867
 42
-0.1696063131
  0
ELLIPSE
  5
478
100
AcDbEntity
  8
KONSTRUKTIONSELEMENTE
100
AcDbEllipse
 62
7
  6
CONTINUOUS
 10
151.0632136478
 20
147.7581816147
 30
0.0
 11
-0.0
 21
30.0
 31
0.0
 40
0.4166966892
 41
-0.1398884201
 42
-0.1300113458
  0
ELLIPSE
  5
479
100
AcDbEntity
  8
KONSTRUKTIONSELEMENTE
100
AcDbEllipse
 62
7
  6
CONTINUOUS
 10
149.4424552806
 20
147.7581816147
 30
0.0
 11
-0.0
 21
30.0
 31
0.0
 40
0.8334124535
 41
-0.1300113458
 42
-0.120147011
  0
ELLIPSE
  5
47A
100
AcDbEntity
  8
KONSTRUKTIONSELEMENTE
100
AcDbEllipse
 62
7
  6
CONTINUOUS
 10
146.4457853787
 20
147.7581816147
 30
0.0
 11
50.0041749539
 21
0.0
 31
0.0
 40
0.5999499047
 41
1.4506493158
 42
1.4555770205
  0
ELLIPSE
  5
47B
100
AcDbEntity
  8
KONSTRUKTIONSELEMENTE
100
AcDbEllipse
 62
7
  6
CONTINUOUS
 10
140.6970124489
 20
147.7581816147
 30
0.0
 11
100.0089221623
 21
-0.0
 31
0.0
 40
0.2999732359
 41
1.4555770205
 42
1.4605019165
  0
ELLIPSE
  5
47C
100
AcDbEntity
  8
KONSTRUKTIONSELEMENTE
100
AcDbEllipse
 62
7
  6
CONTINUOUS
 10
159.8190504129
 20
147.7581816147
 30
0.0
 11
-0.0
 21
30.0
 31
0.0
 40
0.5208784277
 41
-0.2345561871
 42
-0.0366748877
  0
ELLIPSE
  5
47D
100
AcDbEntity
  8
KONSTRUKTIONSELEMENTE
100
AcDbEllipse
 62
7
  6
CONTINUOUS
 10
161.9789924326
 20
147.7581816147
 30
0.0
 11
100.0083499077
 21
0.0
 31
0.0
 40
0.2999749524
 41
1.6810907371
 42
1.6860156331
  0
ELLIPSE
  5
47E
100
AcDbEntity
  8
KONSTRUKTIONSELEMENTE
100
AcDbEllipse
 62
7
  6
CONTINUOUS
 10
154.7931249539
 20
147.7581816147
 30
0.0
 11
37.503274279
 21
0.0
 31
0.0
 40
0.7999301548
 41
1.6860156331
 42
1.6958739759
  0
ELLIPSE
  5
47F
100
AcDbEntity
  8
KONSTRUKTIONSELEMENTE
100
AcDbEllipse
 62
7
  6
CONTINUOUS
 10
153.2335915933
 20
147.7581816147
 30
0.0
 11
-0.0
 21
30.0
 31
0.0
 40
0.8334060951
 41
0.1250776491
 42
0.1398884201
  0
ELLIPSE
  5
480
100
AcDbEntity
  8
KONSTRUKTIONSELEMENTE
100
AcDbEllipse
 62
7
  6
CONTINUOUS
 10
151.4905448917
 20
147.7581816147
 30
0.0
 11
-0.0
 21
30.0
 31
0.0
 40
0.4167062267
 41
0.1398884201
 42
0.1497792508
  0
ELLIPSE
  5
481
100
AcDbEntity
  8
KONSTRUKTIONSELEMENTE
100
AcDbEllipse
 62
7
  6
CONTINUOUS
 10
150.5578322291
 20
147.7581816147
 30
0.0
 11
0.0
 21
30.0
 31
0.0
 40
0.2083531134
 41
0.1497792508
 42
0.1696063131
  0
ELLIPSE
  5
482
100
AcDbEntity
  8
KONSTRUKTIONSELEMENTE
100
AcDbEllipse
 62
7
  6
CONTINUOUS
 10
156.3538237341
 20
147.7581816147
 30
0.0
 11
0.0
 21
30.0
 31
0.0
 40
0.5556018142
 41
0.2144774488
 42
0.2295277988
  0
ELLIPSE
  5
483
100
AcDbEntity
  8
KONSTRUKTIONSELEMENTE
100
AcDbEllipse
 62
7
  6
CONTINUOUS
 10
161.0942056951
 20
147.7581816147
 30
0.0
 11
37.503274279
 21
0.0
 31
0.0
 40
0.7999301548
 41
1.8003241256
 42
1.8103869514
  0
ELLIPSE
  5
484
100
AcDbEntity
  8
KONSTRUKTIONSELEMENTE
100
AcDbEllipse
 62
7
  6
CONTINUOUS
 10
175.927106254
 20
147.7581816147
 30
0.0
 11
100.0089221623
 21
0.0
 31
0.0
 40
0.2999732359
 41
1.8103869514
 42
1.815427588
  0
ELLIPSE
  5
485
100
AcDbEntity
  8
KONSTRUKTIONSELEMENTE
100
AcDbEllipse
 62
7
  6
CONTINUOUS
 10
152.1643250596
 20
147.7581816147
 30
0.0
 11
-0.0
 21
30.0
 31
0.0
 40
0.4167062267
 41
-0.2395906246
 42
-0.2295277988
  0
ELLIPSE
  5
486
100
AcDbEntity
  8
KONSTRUKTIONSELEMENTE
100
AcDbEllipse
 62
7
  6
CONTINUOUS
 10
126.993665669
 20
147.7581816147
 30
0.0
 11
100.0089221623
 21
-0.0
 31
0.0
 40
0.2999732359
 41
1.3261650656
 42
1.3312057022
  0
ELLIPSE
  5
487
100
AcDbEntity
  8
KONSTRUKTIONSELEMENTE
100
AcDbEllipse
 62
7
  6
CONTINUOUS
 10
143.2646139616
 20
147.7581816147
 30
0.0
 11
50.0044523259
 21
-0.0
 31
0.0
 40
0.5999465768
 41
1.3211180765
 42
1.3312057022
  0
ELLIPSE
  5
488
100
AcDbEntity
  8
KONSTRUKTIONSELEMENTE
100
AcDbEllipse
 62
7
  6
CONTINUOUS
 10
141.8265662279
 20
147.7581816147
 30
0.0
 11
37.503274279
 21
0.0
 31
0.0
 40
0.7999301548
 41
1.3312057022
 42
1.341268528
  0
ELLIPSE
  5
489
100
AcDbEntity
  8
KONSTRUKTIONSELEMENTE
100
AcDbEllipse
 62
7
  6
CONTINUOUS
 10
171.7990152086
 20
147.7581816147
 30
0.0
 11
62.505350812
 21
0.0
 31
0.0
 40
0.4799589093
 41
1.8103869514
 42
1.8204745771
  0
ELLIPSE
  5
48A
100
AcDbEntity
  8
KONSTRUKTIONSELEMENTE
100
AcDbEllipse
 62
7
  6
CONTINUOUS
 10
162.8993258781
 20
147.7581816147
 30
0.0
 11
0.0
 21
30.0
 31
0.0
 40
0.8334059005
 41
0.2245053079
 42
0.2395906246
  0
ELLIPSE
  5
48B
100
AcDbEntity
  8
KONSTRUKTIONSELEMENTE
100
AcDbEllipse
 62
7
  6
CONTINUOUS
 10
148.0838591507
 20
147.7581816147
 30
0.0
 11
0.0
 21
30.0
 31
0.0
 40
0.3333611197
 41
-0.2295277988
 42
-0.2044714473
  0
ELLIPSE
  5
48C
100
AcDbEntity
  8
KONSTRUKTIONSELEMENTE
100
AcDbEllipse
 62
7
  6
CONTINUOUS
 10
160.1163040342
 20
147.7581816147
 30
0.0
 11
0.0
 21
30.0
 31
0.0
 40
0.4167062267
 41
0.2144774488
 42
0.2245053079
  0
ELLIPSE
  5
48D
100
AcDbEntity
  8
KONSTRUKTIONSELEMENTE
100
AcDbEllipse
 62
7
  6
CONTINUOUS
 10
156.0896641528
 20
147.7581816147
 30
0.0
 11
-0.0
 21
30.0
 31
0.0
 40
0.2777977603
 41
-0.2699327958
 42
-0.2547317415
  0
ELLIPSE
  5
48E
100
AcDbEntity
  8
KONSTRUKTIONSELEMENTE
100
AcDbEllipse
 62
7
  6
CONTINUOUS
 10
156.9296483966
 20
147.7581816147
 30
0.0
 11
0.0
 21
30.0
 31
0.0
 40
0.166682479
 41
-0.2547317415
 42
-0.2295277988
  0
ELLIPSE
  5
48F
100
AcDbEntity
  8
KONSTRUKTIONSELEMENTE
100
AcDbEllipse
 62
7
  6
CONTINUOUS
 10
156.8237280997
 20
147.7581816147
 30
0.0
 11
0.0
 21
30.0
 31
0.0
 40
0.2778041512
 41
-0.1497792508
 42
-0.1349482272
  0
ELLIPSE
  5
490
100
AcDbEntity
  8
KONSTRUKTIONSELEMENTE
100
AcDbEllipse
 62
7
  6
CONTINUOUS
 10
154.5812368812
 20
147.7581816147
 30
0.0
 11
0.0
 21
30.0
 31
0.0
 40
0.8334029159
 41
-0.1349482272
 42
-0.1250776491
  0
ELLIPSE
  5
491
100
AcDbEntity
  8
KONSTRUKTIONSELEMENTE
100
AcDbEllipse
 62
7
  6
CONTINUOUS
 10
153.0216916223
 20
147.7581816147
 30
0.0
 11
37.503274279
 21
-0.0
 31
0.0
 40
0.7999301548
 41
1.4457186777
 42
1.4555770205
  0
ELLIPSE
  5
492
100
AcDbEntity
  8
KONSTRUKTIONSELEMENTE
100
AcDbEllipse
 62
7
  6
CONTINUOUS
 10
140.0870512138
 20
147.7581816147
 30
0.0
 11
150.0130971161
 21
-0.0
 31
0.0
 40
0.1999825387
 41
1.4555770205
 42
1.4605019165
  0
ELLIPSE
  5
493
100
AcDbEntity
  8
KONSTRUKTIONSELEMENTE
100
AcDbEllipse
 62
7
  6
CONTINUOUS
 10
175.129140401
 20
147.7581816147
 30
0.0
 11
175.0154707203
 21
0.0
 31
0.0
 40
0.1714134178
 41
1.6810907371
 42
1.6860156331
  0
ELLIPSE
  5
494
100
AcDbEntity
  8
KONSTRUKTIONSELEMENTE
100
AcDbEllipse
 62
7
  6
CONTINUOUS
 10
160.7572738656
 20
147.7581816147
 30
0.0
 11
50.0041749539
 21
0.0
 31
0.0
 40
0.5999499047
 41
1.6860156331
 42
1.6909433378
  0
ELLIPSE
  5
495
100
AcDbEntity
  8
KONSTRUKTIONSELEMENTE
100
AcDbEllipse
 62
7
  6
CONTINUOUS
 10
157.7605696689
 20
147.7581816147
 30
0.0
 11
0.0
 21
30.0
 31
0.0
 40
0.8334029159
 41
0.120147011
 42
0.1300113458
  0
ELLIPSE
  5
496
100
AcDbEntity
  8
KONSTRUKTIONSELEMENTE
100
AcDbEllipse
 62
7
  6
CONTINUOUS
 10
156.1398854919
 20
147.7581816147
 30
0.0
 11
-0.0
 21
30.0
 31
0.0
 40
0.4167062267
 41
0.1300113458
 42
0.1398884201
  0
ELLIPSE
  5
497
100
AcDbEntity
  8
KONSTRUKTIONSELEMENTE
100
AcDbEllipse
 62
7
  6
CONTINUOUS
 10
180.6969793525
 20
147.7581816147
 30
0.0
 11
150.0130971161
 21
0.0
 31
0.0
 40
0.1999825387
 41
1.7354398728
 42
1.7404026399
  0
ELLIPSE
  5
498
100
AcDbEntity
  8
KONSTRUKTIONSELEMENTE
100
AcDbEllipse
 62
7
  6
CONTINUOUS
 10
163.8160409222
 20
147.7581816147
 30
0.0
 11
50.0041749539
 21
0.0
 31
0.0
 40
0.5999499047
 41
1.7404026399
 42
1.7503409721
  0
ELLIPSE
  5
499
100
AcDbEntity
  8
KONSTRUKTIONSELEMENTE
100
AcDbEllipse
 62
7
  6
CONTINUOUS
 10
156.9963200136
 20
147.7581816147
 30
0.0
 11
0.0
 21
30.0
 31
0.0
 40
0.4167014579
 41
0.1895009444
 42
0.2094717874
  0
ELLIPSE
  5
49A
100
AcDbEntity
  8
KONSTRUKTIONSELEMENTE
100
AcDbEllipse
 62
7
  6
CONTINUOUS
 10
159.3511771805
 20
147.7581816147
 30
0.0
 11
0.0
 21
30.0
 31
0.0
 40
0.8334118698
 41
0.1795446453
 42
0.1895009444
  0
ELLIPSE
  5
49B
100
AcDbEntity
  8
KONSTRUKTIONSELEMENTE
100
AcDbEllipse
 62
7
  6
CONTINUOUS
 10
153.603383463
 20
147.7581816147
 30
0.0
 11
3.9947384921
 21
28.9975775057
 31
0.0
 40
0.0938313485
 41
0.8553450341
 42
1.0834266691
  0
ELLIPSE
  5
49C
100
AcDbEntity
  8
KONSTRUKTIONSELEMENTE
100
AcDbEllipse
 62
7
  6
CONTINUOUS
 10
127.3914175961
 20
147.7581816147
 30
0.0
 11
0.0
 21
30.0
 31
0.0
 40
0.7143477956
 41
6.3590737253
 42
6.3934797174
  0
ELLIPSE
  5
49D
100
AcDbEntity
  8
KONSTRUKTIONSELEMENTE
100
AcDbEllipse
 62
7
  6
CONTINUOUS
 10
127.3914175961
 20
147.7581816147
 30
0.0
 11
0.0
 21
29.0
 31
0.0
 40
0.7143477956
 41
0.0785105596
 42
0.1141139803
  0
ELLIPSE
  5
49E
100
AcDbEntity
  8
KONSTRUKTIONSELEMENTE
100
AcDbEllipse
 62
7
  6
CONTINUOUS
 10
153.603383463
 20
147.7581816147
 30
0.0
 11
4.1324880953
 21
29.9974939714
 31
0.0
 40
0.0938313485
 41
0.8592793158
 42
1.0797266605
  0
ELLIPSE
  5
49F
100
AcDbEntity
  8
KONSTRUKTIONSELEMENTE
100
AcDbEllipse
 62
7
  6
CONTINUOUS
 10
137.4954697185
 20
147.7581816147
 30
0.0
 11
0.0
 21
30.0
 31
0.0
 40
0.7456791951
 41
0.0758884181
 42
0.1696063131
  0
ELLIPSE
  5
4A0
100
AcDbEntity
  8
KONSTRUKTIONSELEMENTE
100
AcDbEllipse
 62
7
  6
CONTINUOUS
 10
135.5541607438
 20
147.7581816147
 30
0.0
 11
-0.0
 21
30.0
 31
0.0
 40
0.5556051231
 41
0.2295277988
 42
0.2446312612
  0
ELLIPSE
  5
4A1
100
AcDbEntity
  8
KONSTRUKTIONSELEMENTE
100
AcDbEllipse
 62
7
  6
CONTINUOUS
 10
133.657999191
 20
147.7581816147
 30
0.0
 11
0.0
 21
30.0
 31
0.0
 40
0.2778009071
 41
0.2144774488
 42
0.2295277988
  0
ELLIPSE
  5
4A2
100
AcDbEntity
  8
KONSTRUKTIONSELEMENTE
100
AcDbEllipse
 62
7
  6
CONTINUOUS
 10
137.8673499105
 20
147.7581816147
 30
0.0
 11
-0.0
 21
30.0
 31
0.0
 40
0.166682444
 41
-0.1994762867
 42
-0.1745733017
  0
ELLIPSE
  5
4A3
100
AcDbEntity
  8
KONSTRUKTIONSELEMENTE
100
AcDbEllipse
 62
7
  6
CONTINUOUS
 10
137.2067857207
 20
147.7581816147
 30
0.0
 11
-0.0
 21
30.0
 31
0.0
 40
0.277800972
 41
-0.2144774488
 42
-0.1994762867
  0
ELLIPSE
  5
4A4
100
AcDbEntity
  8
KONSTRUKTIONSELEMENTE
100
AcDbEllipse
 62
7
  6
CONTINUOUS
 10
136.3198765841
 20
147.7581816147
 30
0.0
 11
0.0
 21
30.0
 31
0.0
 40
0.4167037694
 41
-0.2345561871
 42
-0.2144774488
  0
ELLIPSE
  5
4A5
100
AcDbEntity
  8
KONSTRUKTIONSELEMENTE
100
AcDbEllipse
 62
7
  6
CONTINUOUS
 10
133.4144867833
 20
147.7581816147
 30
0.0
 11
-0.0
 21
30.0
 31
0.0
 40
0.8334059978
 41
-0.2496782503
 42
-0.2345561871
  0
ELLIPSE
  5
4A6
100
AcDbEntity
  8
KONSTRUKTIONSELEMENTE
100
AcDbEllipse
 62
7
  6
CONTINUOUS
 10
129.2959397773
 20
147.7581816147
 30
0.0
 11
41.6702375226
 21
-0.0
 31
0.0
 40
0.7199383009
 41
1.3059374695
 42
1.3211180765
  0
ELLIPSE
  5
4A7
100
AcDbEntity
  8
KONSTRUKTIONSELEMENTE
100
AcDbEllipse
 62
7
  6
CONTINUOUS
 10
100.9347024353
 20
147.7581816147
 30
0.0
 11
150.0130839833
 21
-0.0
 31
0.0
 40
0.1999825562
 41
1.300863531
 42
1.3059374695
  0
ELLIPSE
  5
4A8
100
AcDbEntity
  8
KONSTRUKTIONSELEMENTE
100
AcDbEllipse
 62
7
  6
CONTINUOUS
 10
180.9416805597
 20
147.7581816147
 30
0.0
 11
150.0130839833
 21
0.0
 31
0.0
 40
0.1999825562
 41
1.8356551841
 42
1.8407291226
  0
ELLIPSE
  5
4A9
100
AcDbEntity
  8
KONSTRUKTIONSELEMENTE
100
AcDbEllipse
 62
7
  6
CONTINUOUS
 10
152.5804681844
 20
147.7581816147
 30
0.0
 11
41.6703328984
 21
-0.0
 31
0.0
 40
0.7199366531
 41
1.8204745771
 42
1.8356551841
  0
ELLIPSE
  5
4AA
100
AcDbEntity
  8
KONSTRUKTIONSELEMENTE
100
AcDbEllipse
 62
7
  6
CONTINUOUS
 10
148.4618976119
 20
147.7581816147
 30
0.0
 11
-0.0
 21
30.0
 31
0.0
 40
0.8334059978
 41
0.2345561871
 42
0.2496782503
  0
ELLIPSE
  5
4AB
100
AcDbEntity
  8
KONSTRUKTIONSELEMENTE
100
AcDbEllipse
 62
7
  6
CONTINUOUS
 10
145.556507811
 20
147.7581816147
 30
0.0
 11
0.0
 21
30.0
 31
0.0
 40
0.4167037694
 41
0.2144774488
 42
0.2345561871
  0
ELLIPSE
  5
4AC
100
AcDbEntity
  8
KONSTRUKTIONSELEMENTE
100
AcDbEllipse
 62
7
  6
CONTINUOUS
 10
144.6695986745
 20
147.7581816147
 30
0.0
 11
-0.0
 21
30.0
 31
0.0
 40
0.277800972
 41
0.1994762867
 42
0.2144774488
  0
ELLIPSE
  5
4AD
100
AcDbEntity
  8
KONSTRUKTIONSELEMENTE
100
AcDbEllipse
 62
7
  6
CONTINUOUS
 10
144.0090231451
 20
147.7581816147
 30
0.0
 11
-0.0
 21
30.0
 31
0.0
 40
0.1666805365
 41
0.1745733017
 42
0.1994762867
  0
ELLIPSE
  5
4AE
100
AcDbEntity
  8
KONSTRUKTIONSELEMENTE
100
AcDbEllipse
 62
7
  6
CONTINUOUS
 10
151.3104008757
 20
147.7581816147
 30
0.0
 11
-4.963435842
 21
28.9943903626
 31
0.0
 40
0.1149153315
 41
-1.0901704456
 42
-0.9058726323
  0
ELLIPSE
  5
4AF
100
AcDbEntity
  8
KONSTRUKTIONSELEMENTE
100
AcDbEllipse
 62
7
  6
CONTINUOUS
 10
151.3104008757
 20
147.7581816147
 30
0.0
 11
-5.134588802
 21
29.9941969269
 31
0.0
 40
0.1149153315
 41
-1.086470437
 42
-0.9083344678
  0
ELLIPSE
  5
4B0
100
AcDbEntity
  8
KONSTRUKTIONSELEMENTE
100
AcDbEllipse
 62
7
  6
CONTINUOUS
 10
150.429699294
 20
147.7581816147
 30
0.0
 11
4.9634431269
 21
28.994390331
 31
0.0
 40
0.1149154866
 41
0.9058726877
 42
1.090170501
  0
ELLIPSE
  5
4B1
100
AcDbEntity
  8
KONSTRUKTIONSELEMENTE
100
AcDbEllipse
 62
7
  6
CONTINUOUS
 10
135.8798342924
 20
147.7581816147
 30
0.0
 11
33.3362596995
 21
0.0
 31
0.0
 40
0.899920995
 41
7.9889298612
 42
8.0037608848
  0
ELLIPSE
  5
4B2
100
AcDbEntity
  8
KONSTRUKTIONSELEMENTE
100
AcDbEllipse
 62
7
  6
CONTINUOUS
 10
150.429699294
 20
147.7581816147
 30
0.0
 11
5.1345963381
 21
29.9941968942
 31
0.0
 40
0.1149154866
 41
0.9083345232
 42
1.0864704924
  0
ELLIPSE
  5
4B3
100
AcDbEntity
  8
KONSTRUKTIONSELEMENTE
100
AcDbEllipse
 62
7
  6
CONTINUOUS
 10
133.6373174104
 20
147.7581816147
 30
0.0
 11
0.0
 21
30.0
 31
0.0
 40
0.5556035335
 41
0.120147011
 42
0.1349482272
  0
ELLIPSE
  5
4B4
100
AcDbEntity
  8
KONSTRUKTIONSELEMENTE
100
AcDbEllipse
 62
7
  6
CONTINUOUS
 10
132.3886892329
 20
147.7581816147
 30
0.0
 11
0.0
 21
30.0
 31
0.0
 40
0.2083519212
 41
0.1004525485
 42
0.120147011
  0
ELLIPSE
  5
4B5
100
AcDbEntity
  8
KONSTRUKTIONSELEMENTE
100
AcDbEllipse
 62
7
  6
CONTINUOUS
 10
139.9082537679
 20
147.7581816147
 30
0.0
 11
0.0
 21
30.0
 31
0.0
 40
0.138900486
 41
0.1053721988
 42
0.1349482272
  0
ELLIPSE
  5
4B6
100
AcDbEntity
  8
KONSTRUKTIONSELEMENTE
100
AcDbEllipse
 62
7
  6
CONTINUOUS
 10
141.2230891397
 20
147.7581816147
 30
0.0
 11
0.0
 21
30.0
 31
0.0
 40
0.5556048637
 41
6.3590737253
 42
6.388557506
  0
ELLIPSE
  5
4B7
100
AcDbEntity
  8
KONSTRUKTIONSELEMENTE
100
AcDbEllipse
 62
7
  6
CONTINUOUS
 10
142.8027168598
 20
147.7581816147
 30
0.0
 11
37.503274279
 21
0.0
 31
0.0
 40
0.7999301548
 41
1.6368727643
 42
1.6466847449
  0
ELLIPSE
  5
4B8
100
AcDbEntity
  8
KONSTRUKTIONSELEMENTE
100
AcDbEllipse
 62
7
  6
CONTINUOUS
 10
148.5806906837
 20
147.7581816147
 30
0.0
 11
125.0107235119
 21
0.0
 31
0.0
 40
0.2399794126
 41
1.6319692213
 42
1.6368727643
  0
ELLIPSE
  5
4B9
100
AcDbEntity
  8
KONSTRUKTIONSELEMENTE
100
AcDbEllipse
 62
7
  6
CONTINUOUS
 10
133.2956748189
 20
147.7581816147
 30
0.0
 11
125.0110096392
 21
-0.0
 31
0.0
 40
0.2399788634
 41
1.5047198893
 42
1.5096234323
  0
ELLIPSE
  5
4BA
100
AcDbEntity
  8
KONSTRUKTIONSELEMENTE
100
AcDbEllipse
 62
7
  6
CONTINUOUS
 10
139.0736675354
 20
147.7581816147
 30
0.0
 11
37.503274279
 21
-0.0
 31
0.0
 40
0.7999301548
 41
1.4949079087
 42
1.5047198893
  0
ELLIPSE
  5
4BB
100
AcDbEntity
  8
KONSTRUKTIONSELEMENTE
100
AcDbEllipse
 62
7
  6
CONTINUOUS
 10
140.653298871
 20
147.7581816147
 30
0.0
 11
0.0
 21
30.0
 31
0.0
 40
0.5556032741
 41
-0.1053721988
 42
-0.0758884181
  0
ELLIPSE
  5
4BC
100
AcDbEntity
  8
KONSTRUKTIONSELEMENTE
100
AcDbEllipse
 62
7
  6
CONTINUOUS
 10
141.9681242114
 20
147.7581816147
 30
0.0
 11
0.0
 21
30.0
 31
0.0
 40
0.1389020756
 41
-0.1349482272
 42
-0.1053721988
  0
ELLIPSE
  5
4BD
100
AcDbEntity
  8
KONSTRUKTIONSELEMENTE
100
AcDbEllipse
 62
7
  6
CONTINUOUS
 10
146.2506067182
 20
147.7581816147
 30
0.0
 11
-8.0058089466
 21
28.9663979268
 31
0.0
 40
0.174327528
 41
-0.9387216021
 42
-0.929490793
  0
ELLIPSE
  5
4BE
100
AcDbEntity
  8
KONSTRUKTIONSELEMENTE
100
AcDbEllipse
 62
7
  6
CONTINUOUS
 10
146.2506067182
 20
147.7581816147
 30
0.0
 11
-8.281871324
 21
29.9652392346
 31
0.0
 40
0.174327528
 41
-0.9461914885
 42
-0.9321154024
  0
ELLIPSE
  5
4BF
100
AcDbEntity
  8
KONSTRUKTIONSELEMENTE
100
AcDbEllipse
 62
7
  6
CONTINUOUS
 10
147.7367145507
 20
147.7581816147
 30
0.0
 11
27.0179031739
 21
-27.7213058464
 31
0.0
 40
0.3152135
 41
1.9621826568
 42
1.9719010271
  0
ELLIPSE
  5
4C0
100
AcDbEntity
  8
KONSTRUKTIONSELEMENTE
100
AcDbEllipse
 62
7
  6
CONTINUOUS
 10
147.7367145507
 20
147.7581816147
 30
0.0
 11
27.9495550075
 21
-28.6772129446
 31
0.0
 40
0.3152135
 41
1.9595580474
 42
1.9689503162
  0
ELLIPSE
  5
4C1
100
AcDbEntity
  8
KONSTRUKTIONSELEMENTE
100
AcDbEllipse
 62
7
  6
CONTINUOUS
 10
152.7450510659
 20
147.7581816147
 30
0.0
 11
85.0715463569
 21
-24.5906918851
 31
0.0
 40
0.1806947684
 41
1.7112828803
 42
1.7161451451
  0
ELLIPSE
  5
4C2
100
AcDbEntity
  8
KONSTRUKTIONSELEMENTE
100
AcDbEllipse
 62
7
  6
CONTINUOUS
 10
152.7450510659
 20
147.7581816147
 30
0.0
 11
88.0050479554
 21
-25.4386467777
 31
0.0
 40
0.1806947684
 41
1.7083321695
 42
1.7130310836
  0
ELLIPSE
  5
4C3
100
AcDbEntity
  8
KONSTRUKTIONSELEMENTE
100
AcDbEllipse
 62
7
  6
CONTINUOUS
 10
129.7220827896
 20
147.7581816147
 30
0.0
 11
0.0
 21
30.0
 31
0.0
 40
0.5556035335
 41
6.3590737253
 42
6.3738057338
  0
ELLIPSE
  5
4C4
100
AcDbEntity
  8
KONSTRUKTIONSELEMENTE
100
AcDbEllipse
 62
7
  6
CONTINUOUS
 10
143.2508084082
 20
147.7581816147
 30
0.0
 11
0.0
 21
30.0
 31
0.0
 40
0.1666805365
 41
-0.1994762867
 42
-0.1745733017
  0
ELLIPSE
  5
4C5
100
AcDbEntity
  8
KONSTRUKTIONSELEMENTE
100
AcDbEllipse
 62
7
  6
CONTINUOUS
 10
142.5902139796
 20
147.7581816147
 30
0.0
 11
0.0
 21
30.0
 31
0.0
 40
0.2778041512
 41
-0.2144774488
 42
-0.1994762867
  0
ELLIPSE
  5
4C6
100
AcDbEntity
  8
KONSTRUKTIONSELEMENTE
100
AcDbEllipse
 62
7
  6
CONTINUOUS
 10
141.7033403671
 20
147.7581816147
 30
0.0
 11
0.0
 21
30.0
 31
0.0
 40
0.416701385
 41
-0.2345561871
 42
-0.2144774488
  0
ELLIPSE
  5
4C7
100
AcDbEntity
  8
KONSTRUKTIONSELEMENTE
100
AcDbEllipse
 62
7
  6
CONTINUOUS
 10
138.7979339414
 20
147.7581816147
 30
0.0
 11
0.0
 21
30.0
 31
0.0
 40
0.8334059978
 41
-0.2496782503
 42
-0.2345561871
  0
ELLIPSE
  5
4C8
100
AcDbEntity
  8
KONSTRUKTIONSELEMENTE
100
AcDbEllipse
 62
7
  6
CONTINUOUS
 10
134.6793633689
 20
147.7581816147
 30
0.0
 11
41.6703328984
 21
-0.0
 31
0.0
 40
0.7199366531
 41
1.3059374695
 42
1.3211180765
  0
ELLIPSE
  5
4C9
100
AcDbEntity
  8
KONSTRUKTIONSELEMENTE
100
AcDbEllipse
 62
7
  6
CONTINUOUS
 10
106.3181509936
 20
147.7581816147
 30
0.0
 11
150.0130839833
 21
-0.0
 31
0.0
 40
0.1999825562
 41
1.300863531
 42
1.3059374695
  0
ELLIPSE
  5
4CA
100
AcDbEntity
  8
KONSTRUKTIONSELEMENTE
100
AcDbEllipse
 62
7
  6
CONTINUOUS
 10
186.3251291181
 20
147.7581816147
 30
0.0
 11
150.0130839833
 21
0.0
 31
0.0
 40
0.1999825562
 41
1.8356551841
 42
1.8407291226
  0
ELLIPSE
  5
4CB
100
AcDbEntity
  8
KONSTRUKTIONSELEMENTE
100
AcDbEllipse
 62
7
  6
CONTINUOUS
 10
157.9639167428
 20
147.7581816147
 30
0.0
 11
41.6703328984
 21
0.0
 31
0.0
 40
0.7199366531
 41
1.8204745771
 42
1.8356551841
  0
ELLIPSE
  5
4CC
100
AcDbEntity
  8
KONSTRUKTIONSELEMENTE
100
AcDbEllipse
 62
7
  6
CONTINUOUS
 10
153.8453461703
 20
147.7581816147
 30
0.0
 11
0.0
 21
30.0
 31
0.0
 40
0.8334059978
 41
0.2345561871
 42
0.2496782503
  0
ELLIPSE
  5
4CD
100
AcDbEntity
  8
KONSTRUKTIONSELEMENTE
100
AcDbEllipse
 62
7
  6
CONTINUOUS
 10
150.9399397446
 20
147.7581816147
 30
0.0
 11
0.0
 21
30.0
 31
0.0
 40
0.416701385
 41
0.2144774488
 42
0.2345561871
  0
ELLIPSE
  5
4CE
100
AcDbEntity
  8
KONSTRUKTIONSELEMENTE
100
AcDbEllipse
 62
7
  6
CONTINUOUS
 10
150.0530661321
 20
147.7581816147
 30
0.0
 11
0.0
 21
30.0
 31
0.0
 40
0.2778041512
 41
0.1994762867
 42
0.2144774488
  0
ELLIPSE
  5
4CF
100
AcDbEntity
  8
KONSTRUKTIONSELEMENTE
100
AcDbEllipse
 62
7
  6
CONTINUOUS
 10
149.3924717035
 20
147.7581816147
 30
0.0
 11
-0.0
 21
30.0
 31
0.0
 40
0.1666805365
 41
0.1745733017
 42
0.1994762867
  0
ELLIPSE
  5
4D0
100
AcDbEntity
  8
KONSTRUKTIONSELEMENTE
100
AcDbEllipse
 62
7
  6
CONTINUOUS
 10
131.3017135352
 20
147.7581816147
 30
0.0
 11
37.503274279
 21
0.0
 31
0.0
 40
0.7999301548
 41
1.6368727643
 42
1.6466847449
  0
ELLIPSE
  5
4D1
100
AcDbEntity
  8
KONSTRUKTIONSELEMENTE
100
AcDbEllipse
 62
7
  6
CONTINUOUS
 10
137.0797015285
 20
147.7581816147
 30
0.0
 11
125.0109381074
 21
-0.0
 31
0.0
 40
0.2399790007
 41
1.6319692213
 42
1.6368727643
  0
ELLIPSE
  5
4D2
100
AcDbEntity
  8
KONSTRUKTIONSELEMENTE
100
AcDbEllipse
 62
7
  6
CONTINUOUS
 10
122.2840811728
 20
147.7581816147
 30
0.0
 11
125.0109381074
 21
-0.0
 31
0.0
 40
0.2399790007
 41
1.5047198893
 42
1.5096234323
  0
ELLIPSE
  5
4D3
100
AcDbEntity
  8
KONSTRUKTIONSELEMENTE
100
AcDbEllipse
 62
7
  6
CONTINUOUS
 10
128.0620691661
 20
147.7581816147
 30
0.0
 11
37.503274279
 21
0.0
 31
0.0
 40
0.7999301548
 41
1.4949079087
 42
1.5047198893
  0
ELLIPSE
  5
4D4
100
AcDbEntity
  8
KONSTRUKTIONSELEMENTE
100
AcDbEllipse
 62
7
  6
CONTINUOUS
 10
129.6416999117
 20
147.7581816147
 30
0.0
 11
0.0
 21
30.0
 31
0.0
 40
0.5556035335
 41
-0.0906204267
 42
-0.0758884181
  0
ELLIPSE
  5
4D5
100
AcDbEntity
  8
KONSTRUKTIONSELEMENTE
100
AcDbEllipse
 62
7
  6
CONTINUOUS
 10
146.0478268439
 20
147.7581816147
 30
0.0
 11
8.0058089466
 21
28.9663979268
 31
0.0
 40
0.174327528
 41
0.9634526711
 42
0.9779897171
  0
ELLIPSE
  5
4D6
100
AcDbEntity
  8
KONSTRUKTIONSELEMENTE
100
AcDbEllipse
 62
7
  6
CONTINUOUS
 10
146.0478268439
 20
147.7581816147
 30
0.0
 11
8.281871324
 21
29.9652392346
 31
0.0
 40
0.174327528
 41
0.9649410198
 42
0.9789928461
  0
ELLIPSE
  5
4D7
100
AcDbEntity
  8
KONSTRUKTIONSELEMENTE
100
AcDbEllipse
 62
7
  6
CONTINUOUS
 10
145.6919246043
 20
147.7581816147
 30
0.0
 11
19.5426670877
 21
28.4095008524
 31
0.0
 40
0.2979323685
 41
1.1319919319
 42
1.1513653018
  0
ELLIPSE
  5
4D8
100
AcDbEntity
  8
KONSTRUKTIONSELEMENTE
100
AcDbEllipse
 62
7
  6
CONTINUOUS
 10
145.6919246043
 20
147.7581816147
 30
0.0
 11
20.2165521597
 21
29.3891388128
 31
0.0
 40
0.2979323685
 41
1.1329950609
 42
1.1517223771
  0
ELLIPSE
  5
4D9
100
AcDbEntity
  8
KONSTRUKTIONSELEMENTE
100
AcDbEllipse
 62
7
  6
CONTINUOUS
 10
145.2917023263
 20
147.7581816147
 30
0.0
 11
0.0
 21
30.0
 31
0.0
 40
0.138900486
 41
0.1053721988
 42
0.1349482272
  0
ELLIPSE
  5
4DA
100
AcDbEntity
  8
KONSTRUKTIONSELEMENTE
100
AcDbEllipse
 62
7
  6
CONTINUOUS
 10
146.6065326823
 20
147.7581816147
 30
0.0
 11
0.0
 21
30.0
 31
0.0
 40
0.5556032741
 41
6.3590737253
 42
6.388557506
  0
ELLIPSE
  5
4DB
100
AcDbEntity
  8
KONSTRUKTIONSELEMENTE
100
AcDbEllipse
 62
7
  6
CONTINUOUS
 10
148.186164018
 20
147.7581816147
 30
0.0
 11
37.503274279
 21
0.0
 31
0.0
 40
0.7999301548
 41
1.6368727643
 42
1.6466847449
  0
ELLIPSE
  5
4DC
100
AcDbEntity
  8
KONSTRUKTIONSELEMENTE
100
AcDbEllipse
 62
7
  6
CONTINUOUS
 10
153.9641567344
 20
147.7581816147
 30
0.0
 11
125.0110096392
 21
0.0
 31
0.0
 40
0.2399788634
 41
1.6319692213
 42
1.6368727643
  0
ELLIPSE
  5
4DD
100
AcDbEntity
  8
KONSTRUKTIONSELEMENTE
100
AcDbEllipse
 62
7
  6
CONTINUOUS
 10
138.6791233773
 20
147.7581816147
 30
0.0
 11
125.0110096392
 21
-0.0
 31
0.0
 40
0.2399788634
 41
1.5047198893
 42
1.5096234323
  0
ELLIPSE
  5
4DE
100
AcDbEntity
  8
KONSTRUKTIONSELEMENTE
100
AcDbEllipse
 62
7
  6
CONTINUOUS
 10
144.4571160937
 20
147.7581816147
 30
0.0
 11
37.503274279
 21
-0.0
 31
0.0
 40
0.7999301548
 41
1.4949079087
 42
1.5047198893
  0
ELLIPSE
  5
4DF
100
AcDbEntity
  8
KONSTRUKTIONSELEMENTE
100
AcDbEllipse
 62
7
  6
CONTINUOUS
 10
146.0367474293
 20
147.7581816147
 30
0.0
 11
0.0
 21
30.0
 31
0.0
 40
0.5556032741
 41
-0.1053721988
 42
-0.0758884181
  0
ELLIPSE
  5
4E0
100
AcDbEntity
  8
KONSTRUKTIONSELEMENTE
100
AcDbEllipse
 62
7
  6
CONTINUOUS
 10
147.3515777854
 20
147.7581816147
 30
0.0
 11
0.0
 21
30.0
 31
0.0
 40
0.138900486
 41
-0.1349482272
 42
-0.1053721988
  0
ELLIPSE
  5
4E1
100
AcDbEntity
  8
KONSTRUKTIONSELEMENTE
100
AcDbEllipse
 62
7
  6
CONTINUOUS
 10
145.5144944287
 20
147.7581816147
 30
0.0
 11
36.9875409667
 21
26.7597800289
 31
0.0
 40
0.3021693421
 41
1.344856787
 42
1.3593837785
  0
ELLIPSE
  5
4E2
100
AcDbEntity
  8
KONSTRUKTIONSELEMENTE
100
AcDbEllipse
 62
7
  6
CONTINUOUS
 10
145.5144944287
 20
147.7581816147
 30
0.0
 11
38.2629734138
 21
27.6825310644
 31
0.0
 40
0.3021693421
 41
1.3452138622
 42
1.3592566072
  0
ELLIPSE
  5
4E3
100
AcDbEntity
  8
KONSTRUKTIONSELEMENTE
100
AcDbEllipse
 62
7
  6
CONTINUOUS
 10
145.9117171591
 20
147.7581816147
 30
0.0
 11
141.9528040815
 21
24.0722656221
 31
0.0
 40
0.113923543
 41
1.5552947704
 42
1.5601371284
  0
ELLIPSE
  5
4E4
100
AcDbEntity
  8
KONSTRUKTIONSELEMENTE
100
AcDbEllipse
 62
7
  6
CONTINUOUS
 10
145.9117171591
 20
147.7581816147
 30
0.0
 11
146.8477283602
 21
24.902343747
 31
0.0
 40
0.113923543
 41
1.555167599
 42
1.5598485389
  0
ELLIPSE
  5
4E5
100
AcDbEntity
  8
KONSTRUKTIONSELEMENTE
100
AcDbEllipse
 62
7
  6
CONTINUOUS
 10
106.0734472454
 20
147.7581816147
 30
0.0
 11
150.0130971161
 21
-0.0
 31
0.0
 40
0.1999825387
 41
1.4061527808
 42
1.4111114593
  0
ELLIPSE
  5
4E6
100
AcDbEntity
  8
KONSTRUKTIONSELEMENTE
100
AcDbEllipse
 62
7
  6
CONTINUOUS
 10
124.5138809765
 20
147.7581816147
 30
0.0
 11
37.5033100449
 21
-0.0
 31
0.0
 40
0.7999293919
 41
1.3962230251
 42
1.4061527808
  0
ELLIPSE
  5
4E7
100
AcDbEntity
  8
KONSTRUKTIONSELEMENTE
100
AcDbEllipse
 62
7
  6
CONTINUOUS
 10
128.8564676707
 20
147.7581816147
 30
0.0
 11
-0.0
 21
30.0
 31
0.0
 40
0.4167025042
 41
-0.1944861655
 42
-0.1745733017
  0
ELLIPSE
  5
4E8
100
AcDbEntity
  8
KONSTRUKTIONSELEMENTE
100
AcDbEllipse
 62
7
  6
CONTINUOUS
 10
148.1367161446
 20
147.7581816147
 30
0.0
 11
-3.994735585
 21
28.9975775125
 31
0.0
 40
0.0938312839
 41
-1.0834266508
 42
-0.8553450158
  0
ELLIPSE
  5
4E9
100
AcDbEntity
  8
0
100
AcDbEllipse
 62
7
  6
CONTINUOUS
 10
118.7325498753
 20
141.6933619793
 30
0.0
 11
4.0
 21
-0.0
 31
0.0
 40
0.9655778885
 41
1.5707963268
 42
3.1415926536
  0
ELLIPSE
  5
4EA
100
AcDbEntity
  8
0
100
AcDbEllipse
 62
7
  6
CONTINUOUS
 10
170.7325498753
 20
141.6933619793
 30
0.0
 11
4.0
 21
0.0
 31
0.0
 40
0.9655778885
 41
-0.0
 42
1.5707963268
  0
ELLIPSE
  5
4EB
100
AcDbEntity
  8
KONSTRUKTIONSELEMENTE
100
AcDbEllipse
 62
7
  6
CONTINUOUS
 10
148.1367161446
 20
147.7581816147
 30
0.0
 11
-4.132485088
 21
29.9974939785
 31
0.0
 40
0.0938312839
 41
-1.0797266422
 42
-0.8592792975
  0
ELLIPSE
  5
4EC
100
AcDbEntity
  8
KONSTRUKTIONSELEMENTE
100
AcDbEllipse
 62
7
  6
CONTINUOUS
 10
159.0183463133
 20
147.7581816147
 30
0.0
 11
-0.0
 21
29.0
 31
0.0
 40
0.5081740686
 41
-0.1615632977
 42
-0.0683584314
  0
ELLIPSE
  5
4ED
100
AcDbEntity
  8
KONSTRUKTIONSELEMENTE
100
AcDbEllipse
 62
7
  6
CONTINUOUS
 10
159.0183463133
 20
147.7581816147
 30
0.0
 11
-0.0
 21
30.0
 31
0.0
 40
0.5081740686
 41
-0.2699327958
 42
-0.0660764375
  0
ELLIPSE
  5
4EE
100
AcDbEntity
  8
KONSTRUKTIONSELEMENTE
100
AcDbEllipse
 62
7
  6
CONTINUOUS
 10
148.202998983
 20
147.7581816147
 30
0.0
 11
0.0
 21
30.0
 31
0.0
 40
0.2083530769
 41
-0.2295277988
 42
-0.2094717874
  0
ELLIPSE
  5
4EF
100
AcDbEntity
  8
KONSTRUKTIONSELEMENTE
100
AcDbEllipse
 62
7
  6
CONTINUOUS
 10
125.7057757229
 20
147.7581816147
 30
0.0
 11
0.0
 21
30.0
 31
0.0
 40
0.2778020993
 41
-0.2295277988
 42
-0.2144774488
  0
ELLIPSE
  5
4F0
100
AcDbEntity
  8
KONSTRUKTIONSELEMENTE
100
AcDbEllipse
 62
7
  6
CONTINUOUS
 10
146.7808779014
 20
147.7581816147
 30
0.0
 11
0.0
 21
30.0
 31
0.0
 40
0.4167062267
 41
-0.2395906246
 42
-0.2295277988
  0
ELLIPSE
  5
4F1
100
AcDbEntity
  8
KONSTRUKTIONSELEMENTE
100
AcDbEllipse
 62
7
  6
CONTINUOUS
 10
143.8143301686
 20
147.7581816147
 30
0.0
 11
0.0
 21
30.0
 31
0.0
 40
0.8334059978
 41
-0.2547317415
 42
-0.2395906246
  0
ELLIPSE
  5
4F2
100
AcDbEntity
  8
KONSTRUKTIONSELEMENTE
100
AcDbEllipse
 62
7
  6
CONTINUOUS
 10
140.6642329547
 20
147.7581816147
 30
0.0
 11
37.5032693542
 21
0.0
 31
0.0
 40
0.7999302599
 41
1.3059374695
 42
1.3160645853
  0
ELLIPSE
  5
4F3
100
AcDbEntity
  8
KONSTRUKTIONSELEMENTE
100
AcDbEllipse
 62
7
  6
CONTINUOUS
 10
124.3020896821
 20
147.7581816147
 30
0.0
 11
100.0083411526
 21
-0.0
 31
0.0
 40
0.2999749786
 41
1.300863531
 42
1.3059374695
  0
ELLIPSE
  5
4F4
100
AcDbEntity
  8
KONSTRUKTIONSELEMENTE
100
AcDbEllipse
 62
7
  6
CONTINUOUS
 10
178.3741307892
 20
147.7581816147
 30
0.0
 11
100.0089134071
 21
0.0
 31
0.0
 40
0.2999732622
 41
1.8356551841
 42
1.8407291226
  0
ELLIPSE
  5
4F5
100
AcDbEntity
  8
KONSTRUKTIONSELEMENTE
100
AcDbEllipse
 62
7
  6
CONTINUOUS
 10
165.2842367539
 20
147.7581816147
 30
0.0
 11
50.0041705763
 21
0.0
 31
0.0
 40
0.5999499573
 41
1.8305882189
 42
1.8356551841
  0
ELLIPSE
  5
4F6
100
AcDbEntity
  8
KONSTRUKTIONSELEMENTE
100
AcDbEllipse
 62
7
  6
CONTINUOUS
 10
158.8617887632
 20
147.7581816147
 30
0.0
 11
0.0
 21
30.0
 31
0.0
 40
0.8334123805
 41
0.2496782503
 42
0.2597918921
  0
ELLIPSE
  5
4F7
100
AcDbEntity
  8
KONSTRUKTIONSELEMENTE
100
AcDbEllipse
 62
7
  6
CONTINUOUS
 10
155.7727723238
 20
147.7581816147
 30
0.0
 11
0.0
 21
30.0
 31
0.0
 40
0.4166966162
 41
0.2395906246
 42
0.2496782503
  0
ELLIPSE
  5
4F8
100
AcDbEntity
  8
KONSTRUKTIONSELEMENTE
100
AcDbEllipse
 62
7
  6
CONTINUOUS
 10
174.4587765993
 20
147.7581816147
 30
0.0
 11
100.0083499077
 21
-0.0
 31
0.0
 40
0.2999749524
 41
1.7553168125
 42
1.7602972712
  0
ELLIPSE
  5
4F9
100
AcDbEntity
  8
KONSTRUKTIONSELEMENTE
100
AcDbEllipse
 62
7
  6
CONTINUOUS
 10
123.8096304449
 20
147.7581816147
 30
0.0
 11
-0.0
 21
30.0
 31
0.0
 40
0.5556039309
 41
-0.2446312612
 42
-0.2295277988
  0
ELLIPSE
  5
4FA
100
AcDbEntity
  8
KONSTRUKTIONSELEMENTE
100
AcDbEllipse
 62
7
  6
CONTINUOUS
 10
165.0396581229
 20
147.7581816147
 30
0.0
 11
50.0047472084
 21
-0.0
 31
0.0
 40
0.5999430389
 41
1.7602972712
 42
1.7652824923
  0
ELLIPSE
  5
4FB
100
AcDbEntity
  8
KONSTRUKTIONSELEMENTE
100
AcDbEllipse
 62
7
  6
CONTINUOUS
 10
160.2075837657
 20
147.7581816147
 30
0.0
 11
0.0
 21
30.0
 31
0.0
 40
0.8334029159
 41
0.1944861655
 42
0.2044714473
  0
ELLIPSE
  5
4FC
100
AcDbEntity
  8
KONSTRUKTIONSELEMENTE
100
AcDbEllipse
 62
7
  6
CONTINUOUS
 10
118.7633823998
 20
147.7581816147
 30
0.0
 11
37.5032855956
 21
-0.0
 31
0.0
 40
0.7999299134
 41
1.3160645853
 42
1.3261650656
  0
ELLIPSE
  5
4FD
100
AcDbEntity
  8
KONSTRUKTIONSELEMENTE
100
AcDbEllipse
 62
7
  6
CONTINUOUS
 10
156.8231597887
 20
147.7581816147
 30
0.0
 11
0.0
 21
30.0
 31
0.0
 40
0.2778041512
 41
0.2044714473
 42
0.2194885742
  0
ELLIPSE
  5
4FE
100
AcDbEntity
  8
KONSTRUKTIONSELEMENTE
100
AcDbEllipse
 62
7
  6
CONTINUOUS
 10
115.6132921908
 20
147.7581816147
 30
0.0
 11
50.004347217
 21
-0.0
 31
0.0
 40
0.5999478379
 41
1.3059374695
 42
1.3160645853
  0
ELLIPSE
  5
4FF
100
AcDbEntity
  8
KONSTRUKTIONSELEMENTE
100
AcDbEllipse
 62
7
  6
CONTINUOUS
 10
102.5235005706
 20
147.7581816147
 30
0.0
 11
100.0086988116
 21
-0.0
 31
0.0
 40
0.2999739058
 41
1.300863531
 42
1.3059374695
  0
ELLIPSE
  5
500
100
AcDbEntity
  8
KONSTRUKTIONSELEMENTE
100
AcDbEllipse
 62
7
  6
CONTINUOUS
 10
156.8402821307
 20
147.7581816147
 30
0.0
 11
100.0086988116
 21
-0.0
 31
0.0
 40
0.2999739058
 41
1.8356551841
 42
1.8407291226
  0
ELLIPSE
  5
501
100
AcDbEntity
  8
KONSTRUKTIONSELEMENTE
100
AcDbEllipse
 62
7
  6
CONTINUOUS
 10
151.5620286683
 20
147.7581816147
 30
0.0
 11
-0.0
 21
30.0
 31
0.0
 40
0.2777977928
 41
0.1596848675
 42
0.1745733017
  0
ELLIPSE
  5
502
100
AcDbEntity
  8
KONSTRUKTIONSELEMENTE
100
AcDbEllipse
 62
7
  6
CONTINUOUS
 10
152.8872439001
 20
147.7581816147
 30
0.0
 11
0.0
 21
30.0
 31
0.0
 40
0.5556083023
 41
0.1448320519
 42
0.1596848675
  0
ELLIPSE
  5
503
100
AcDbEntity
  8
KONSTRUKTIONSELEMENTE
100
AcDbEllipse
 62
7
  6
CONTINUOUS
 10
157.6984928069
 20
147.7581816147
 30
0.0
 11
50.0041749539
 21
-0.0
 31
0.0
 40
0.5999499047
 41
1.705744554
 42
1.7156283787
  0
ELLIPSE
  5
504
100
AcDbEntity
  8
KONSTRUKTIONSELEMENTE
100
AcDbEllipse
 62
7
  6
CONTINUOUS
 10
138.2499859217
 20
147.7581816147
 30
0.0
 11
100.0089221623
 21
0.0
 31
0.0
 40
0.2999732359
 41
1.4309079067
 42
1.4358480996
  0
ELLIPSE
  5
505
100
AcDbEntity
  8
KONSTRUKTIONSELEMENTE
100
AcDbEllipse
 62
7
  6
CONTINUOUS
 10
146.9653125192
 20
147.7581816147
 30
0.0
 11
37.503274279
 21
-0.0
 31
0.0
 40
0.7999301548
 41
1.421017076
 42
1.4309079067
  0
ELLIPSE
  5
506
100
AcDbEntity
  8
KONSTRUKTIONSELEMENTE
100
AcDbEllipse
 62
7
  6
CONTINUOUS
 10
150.0743404956
 20
147.7581816147
 30
0.0
 11
-0.0
 21
30.0
 31
0.0
 40
0.5556019439
 41
-0.164643546
 42
-0.1497792508
  0
ELLIPSE
  5
507
100
AcDbEntity
  8
KONSTRUKTIONSELEMENTE
100
AcDbEllipse
 62
7
  6
CONTINUOUS
 10
143.7504905105
 20
147.7581816147
 30
0.0
 11
50.004347217
 21
0.0
 31
0.0
 40
0.5999478379
 41
1.8255280683
 42
1.8356551841
  0
ELLIPSE
  5
508
100
AcDbEntity
  8
KONSTRUKTIONSELEMENTE
100
AcDbEllipse
 62
7
  6
CONTINUOUS
 10
154.366642182
 20
147.7581816147
 30
0.0
 11
-0.0
 21
30.0
 31
0.0
 40
0.4167061903
 41
-0.2699327958
 42
-0.2597918921
  0
ELLIPSE
  5
509
100
AcDbEntity
  8
KONSTRUKTIONSELEMENTE
100
AcDbEllipse
 62
7
  6
CONTINUOUS
 10
140.6003957952
 20
147.7581816147
 30
0.0
 11
37.5032677126
 21
0.0
 31
0.0
 40
0.7999302949
 41
1.815427588
 42
1.8255280683
  0
ELLIPSE
  5
50A
100
AcDbEntity
  8
KONSTRUKTIONSELEMENTE
100
AcDbEllipse
 62
7
  6
CONTINUOUS
 10
155.4371238681
 20
147.7581816147
 30
0.0
 11
0.0
 21
30.0
 31
0.0
 40
0.2777977441
 41
-0.2597918921
 42
-0.2446312612
  0
ELLIPSE
  5
50B
100
AcDbEntity
  8
KONSTRUKTIONSELEMENTE
100
AcDbEllipse
 62
7
  6
CONTINUOUS
 10
160.4833596263
 20
147.7581816147
 30
0.0
 11
0.0
 21
30.0
 31
0.0
 40
0.4167061538
 41
0.2446312612
 42
0.2547317415
  0
ELLIPSE
  5
50C
100
AcDbEntity
  8
KONSTRUKTIONSELEMENTE
100
AcDbEllipse
 62
7
  6
CONTINUOUS
 10
166.7835303425
 20
147.7581816147
 30
0.0
 11
37.5032693542
 21
-0.0
 31
0.0
 40
0.7999302599
 41
1.8255280683
 42
1.8356551841
  0
ELLIPSE
  5
50D
100
AcDbEntity
  8
KONSTRUKTIONSELEMENTE
100
AcDbEllipse
 62
7
  6
CONTINUOUS
 10
189.6906206327
 20
147.7581816147
 30
0.0
 11
125.0107125679
 21
0.0
 31
0.0
 40
0.2399794336
 41
1.8356551841
 42
1.8407291226
  0
ELLIPSE
  5
50E
100
AcDbEntity
  8
KONSTRUKTIONSELEMENTE
100
AcDbEllipse
 62
7
  6
CONTINUOUS
 10
128.9512804815
 20
147.7581816147
 30
0.0
 11
100.0089134071
 21
-0.0
 31
0.0
 40
0.2999732622
 41
1.300863531
 42
1.3059374695
  0
ELLIPSE
  5
50F
100
AcDbEntity
  8
KONSTRUKTIONSELEMENTE
100
AcDbEllipse
 62
7
  6
CONTINUOUS
 10
142.0411745168
 20
147.7581816147
 30
0.0
 11
50.0041705763
 21
0.0
 31
0.0
 40
0.5999499573
 41
1.3059374695
 42
1.3110044347
  0
ELLIPSE
  5
510
100
AcDbEntity
  8
KONSTRUKTIONSELEMENTE
100
AcDbEllipse
 62
7
  6
CONTINUOUS
 10
156.8739920498
 20
147.7581816147
 30
0.0
 11
0.0
 21
30.0
 31
0.0
 40
0.4167062267
 41
0.1398884201
 42
0.1497792508
  0
ELLIPSE
  5
511
100
AcDbEntity
  8
KONSTRUKTIONSELEMENTE
100
AcDbEllipse
 62
7
  6
CONTINUOUS
 10
162.1031321546
 20
147.7581816147
 30
0.0
 11
50.0041749539
 21
-0.0
 31
0.0
 40
0.5999499047
 41
1.705744554
 42
1.7106847469
  0
ELLIPSE
  5
512
100
AcDbEntity
  8
KONSTRUKTIONSELEMENTE
100
AcDbEllipse
 62
7
  6
CONTINUOUS
 10
168.830721296
 20
147.7581816147
 30
0.0
 11
100.0089221623
 21
0.0
 31
0.0
 40
0.2999732359
 41
1.7008076726
 42
1.705744554
  0
ELLIPSE
  5
513
100
AcDbEntity
  8
KONSTRUKTIONSELEMENTE
100
AcDbEllipse
 62
7
  6
CONTINUOUS
 10
143.6334358803
 20
147.7581816147
 30
0.0
 11
100.0089221623
 21
-0.0
 31
0.0
 40
0.2999732359
 41
1.4358480996
 42
1.440784981
  0
ELLIPSE
  5
514
100
AcDbEntity
  8
KONSTRUKTIONSELEMENTE
100
AcDbEllipse
 62
7
  6
CONTINUOUS
 10
150.3610250217
 20
147.7581816147
 30
0.0
 11
50.0041749539
 21
-0.0
 31
0.0
 40
0.5999499047
 41
1.4309079067
 42
1.4358480996
  0
ELLIPSE
  5
515
100
AcDbEntity
  8
KONSTRUKTIONSELEMENTE
100
AcDbEllipse
 62
7
  6
CONTINUOUS
 10
155.5901651265
 20
147.7581816147
 30
0.0
 11
0.0
 21
30.0
 31
0.0
 40
0.4167062267
 41
-0.1497792508
 42
-0.1398884201
  0
ELLIPSE
  5
516
100
AcDbEntity
  8
KONSTRUKTIONSELEMENTE
100
AcDbEllipse
 62
7
  6
CONTINUOUS
 10
148.4636720699
 20
147.7581816147
 30
0.0
 11
0.0
 21
30.0
 31
0.0
 40
0.8334059492
 41
-0.2597918921
 42
-0.2446312612
  0
ELLIPSE
  5
517
100
AcDbEntity
  8
KONSTRUKTIONSELEMENTE
100
AcDbEllipse
 62
7
  6
CONTINUOUS
 10
153.0052796324
 20
147.7581816147
 30
0.0
 11
0.0
 21
30.0
 31
0.0
 40
0.2083530769
 41
-0.2446312612
 42
-0.2245053079
  0
ELLIPSE
  5
518
100
AcDbEntity
  8
0
100
AcDbEllipse
 62
7
  6
CONTINUOUS
 10
118.7325498753
 20
46.1237082005
 30
0.0
 11
4.0
 21
0.0
 31
0.0
 40
0.8102160501
 41
3.1415926536
 42
4.7123889804
  0
ELLIPSE
  5
519
100
AcDbEntity
  8
KONSTRUKTIONSELEMENTE
100
AcDbEllipse
 62
7
  6
CONTINUOUS
 10
118.7325498753
 20
102.075319231
 30
0.0
 11
4.0
 21
-0.0
 31
0.0
 40
0.8102160501
 41
1.5707963268
 42
3.1415926536
  0
ELLIPSE
  5
51A
100
AcDbEntity
  8
KONSTRUKTIONSELEMENTE
100
AcDbEllipse
 62
7
  6
CONTINUOUS
 10
170.7325498753
 20
102.075319231
 30
0.0
 11
4.0
 21
0.0
 31
0.0
 40
0.8102160501
 41
-0.0
 42
1.5707963268
  0
ELLIPSE
  5
51B
100
AcDbEntity
  8
KONSTRUKTIONSELEMENTE
100
AcDbEllipse
 62
7
  6
CONTINUOUS
 10
148.1367161446
 20
74.0995137157
 30
0.0
 11
-2.9215862326
 21
29.9973969547
 31
0.0
 40
0.1352659089
 41
-3.8792086705
 42
-3.6587613257
  0
ELLIPSE
  5
51C
100
AcDbEntity
  8
KONSTRUKTIONSELEMENTE
100
AcDbEllipse
 62
7
  6
CONTINUOUS
 10
153.603383463
 20
74.0995137157
 30
0.0
 11
2.9215883994
 21
29.9973969472
 31
0.0
 40
0.1352660038
 41
-2.6244239624
 42
-2.4039766177
  0
ELLIPSE
  5
51D
100
AcDbEntity
  8
0
100
AcDbEllipse
 62
7
  6
CONTINUOUS
 10
170.7325498753
 20
46.1237082005
 30
0.0
 11
4.0
 21
-0.0
 31
0.0
 40
0.8102160501
 41
-1.5707963268
 42
-0.0
  0
ELLIPSE
  5
51E
100
AcDbEntity
  8
KONSTRUKTIONSELEMENTE
100
AcDbEllipse
 62
7
  6
CONTINUOUS
 10
151.3104008757
 20
74.0995137157
 30
0.0
 11
-3.6489567934
 21
29.9938499332
 31
0.0
 40
0.1664656234
 41
-3.8439727926
 42
-3.6658368234
  0
ELLIPSE
  5
51F
100
AcDbEntity
  8
KONSTRUKTIONSELEMENTE
100
AcDbEllipse
 62
7
  6
CONTINUOUS
 10
150.429699294
 20
74.0995137157
 30
0.0
 11
3.6489623065
 21
29.9938498975
 31
0.0
 40
0.1664658546
 41
-2.617348425
 42
-2.4392124558
  0
ELLIPSE
  5
520
100
AcDbEntity
  8
KONSTRUKTIONSELEMENTE
100
AcDbEllipse
 62
7
  6
CONTINUOUS
 10
146.2506067182
 20
74.0995137157
 30
0.0
 11
-6.0237326103
 21
29.9598228771
 31
0.0
 40
0.2576640932
 41
-3.8801772075
 42
-3.8661011214
  0
ELLIPSE
  5
521
100
AcDbEntity
  8
KONSTRUKTIONSELEMENTE
100
AcDbEllipse
 62
7
  6
CONTINUOUS
 10
147.7367145507
 20
74.0995137157
 30
0.0
 11
25.8491557755
 21
-26.8154809322
 31
0.0
 40
0.5203659929
 41
-1.1611550649
 42
-1.1517627961
  0
ELLIPSE
  5
522
100
AcDbEntity
  8
KONSTRUKTIONSELEMENTE
100
AcDbEllipse
 62
7
  6
CONTINUOUS
 10
152.7450510659
 20
74.0995137157
 30
0.0
 11
87.9846062745
 21
-18.5665321282
 31
0.0
 40
0.2678248312
 41
-1.6043906637
 42
-1.5996917496
  0
ELLIPSE
  5
523
100
AcDbEntity
  8
KONSTRUKTIONSELEMENTE
100
AcDbEllipse
 62
7
  6
CONTINUOUS
 10
146.0478268439
 20
74.0995137157
 30
0.0
 11
6.0237326103
 21
29.9598228771
 31
0.0
 40
0.2576640932
 41
-2.4498855434
 42
-2.435833717
  0
ELLIPSE
  5
524
100
AcDbEntity
  8
KONSTRUKTIONSELEMENTE
100
AcDbEllipse
 62
7
  6
CONTINUOUS
 10
145.6919246043
 20
74.0995137157
 30
0.0
 11
17.1041750114
 21
28.848152726
 31
0.0
 40
0.4813508412
 41
-2.2423684809
 42
-2.2236411646
  0
ELLIPSE
  5
525
100
AcDbEntity
  8
KONSTRUKTIONSELEMENTE
100
AcDbEllipse
 62
7
  6
CONTINUOUS
 10
145.5144944287
 20
74.0995137157
 30
0.0
 11
37.3953467959
 21
23.7357922795
 31
0.0
 40
0.4906223613
 41
-1.876376435
 42
-1.8623336901
  0
ELLIPSE
  5
526
100
AcDbEntity
  8
KONSTRUKTIONSELEMENTE
100
AcDbEllipse
 62
7
  6
CONTINUOUS
 10
145.9117171591
 20
74.0995137157
 30
0.0
 11
146.8461205354
 21
17.6922901756
 31
0.0
 40
0.1649871937
 41
-1.5990405599
 42
-1.59435962
  0
ELLIPSE
  5
527
100
AcDbEntity
  8
KONSTRUKTIONSELEMENTE
100
AcDbEllipse
 62
7
  6
CONTINUOUS
 10
135.3757806414
 20
74.0995137157
 30
0.0
 11
-4.3831463864
 21
29.9876352843
 31
0.0
 40
0.1964884212
 41
-0.6967003529
 42
-0.6768197469
  0
ELLIPSE
  5
528
100
AcDbEntity
  8
KONSTRUKTIONSELEMENTE
100
AcDbEllipse
 62
7
  6
CONTINUOUS
 10
134.6769932313
 20
74.0995137157
 30
0.0
 11
-14.4515383039
 21
29.2823962789
 31
0.0
 40
0.4513268155
 41
-0.9020758685
 42
-0.8871509837
  0
ELLIPSE
  5
529
100
AcDbEntity
  8
KONSTRUKTIONSELEMENTE
100
AcDbEllipse
 62
7
  6
CONTINUOUS
 10
132.9148414855
 20
74.0995137157
 30
0.0
 11
42.8116545681
 21
-22.532671617
 31
0.0
 40
0.4626316667
 41
1.7276344186
 42
1.7375930653
  0
ELLIPSE
  5
52A
100
AcDbEntity
  8
KONSTRUKTIONSELEMENTE
100
AcDbEllipse
 62
7
  6
CONTINUOUS
 10
126.8992246432
 20
74.0995137157
 30
0.0
 11
117.4424018002
 21
-17.9675839579
 31
0.0
 40
0.2045622151
 41
1.515093108
 42
1.5200754276
  0
ELLIPSE
  5
52B
100
AcDbEntity
  8
KONSTRUKTIONSELEMENTE
100
AcDbEllipse
 62
7
  6
CONTINUOUS
 10
134.5554678919
 20
74.0995137157
 30
0.0
 11
3.4570120564
 21
29.9950041043
 31
0.0
 40
0.1583665043
 41
0.5670187783
 42
0.5918727613
  0
ELLIPSE
  5
52C
100
AcDbEntity
  8
KONSTRUKTIONSELEMENTE
100
AcDbEllipse
 62
7
  6
CONTINUOUS
 10
134.008589861
 20
74.0995137157
 30
0.0
 11
9.8074052796
 21
29.7831827062
 31
0.0
 40
0.3670982831
 41
0.6491577961
 42
0.6690679401
  0
ELLIPSE
  5
52D
100
AcDbEntity
  8
KONSTRUKTIONSELEMENTE
100
AcDbEllipse
 62
7
  6
CONTINUOUS
 10
132.8054692973
 20
74.0995137157
 30
0.0
 11
25.8491526414
 21
26.8154817719
 31
0.0
 40
0.5203659912
 41
0.9738536159
 42
0.9937963987
  0
ELLIPSE
  5
52E
100
AcDbEntity
  8
KONSTRUKTIONSELEMENTE
100
AcDbEllipse
 62
7
  6
CONTINUOUS
 10
129.815888981
 20
74.0995137157
 30
0.0
 11
58.2434981108
 21
20.2787334346
 31
0.0
 40
0.3795824631
 41
1.3274622304
 42
1.3374483999
  0
ELLIPSE
  5
52F
100
AcDbEntity
  8
KONSTRUKTIONSELEMENTE
100
AcDbEllipse
 62
7
  6
CONTINUOUS
 10
119.9721195928
 20
74.0995137157
 30
0.0
 11
146.8461076695
 21
17.6922902611
 31
0.0
 40
0.1649872077
 41
1.4339880194
 42
1.4389852476
  0
ELLIPSE
  5
530
100
AcDbEntity
  8
KONSTRUKTIONSELEMENTE
100
AcDbEllipse
 62
7
  6
CONTINUOUS
 10
141.5554658057
 20
74.0995137157
 30
0.0
 11
3.4570328421
 21
29.9950039886
 31
0.0
 40
0.1583673867
 41
0.5670189897
 42
0.5918729727
  0
ELLIPSE
  5
531
100
AcDbEntity
  8
KONSTRUKTIONSELEMENTE
100
AcDbEllipse
 62
7
  6
CONTINUOUS
 10
141.0085924687
 20
74.0995137157
 30
0.0
 11
9.8073693351
 21
29.7831853028
 31
0.0
 40
0.3670974383
 41
0.6491570749
 42
0.6690672189
  0
ELLIPSE
  5
532
100
AcDbEntity
  8
KONSTRUKTIONSELEMENTE
100
AcDbEllipse
 62
7
  6
CONTINUOUS
 10
139.8054650207
 20
74.0995137157
 30
0.0
 11
25.8492038535
 21
26.8154680503
 31
0.0
 40
0.5203660185
 41
0.973854636
 42
0.9937974188
  0
ELLIPSE
  5
533
100
AcDbEntity
  8
KONSTRUKTIONSELEMENTE
100
AcDbEllipse
 62
7
  6
CONTINUOUS
 10
136.8158804278
 20
74.0995137157
 30
0.0
 11
58.2435844616
 21
20.278724724
 31
0.0
 40
0.3795820375
 41
1.3274626244
 42
1.3374487939
  0
ELLIPSE
  5
534
100
AcDbEntity
  8
KONSTRUKTIONSELEMENTE
100
AcDbEllipse
 62
7
  6
CONTINUOUS
 10
126.9721392027
 20
74.0995137157
 30
0.0
 11
146.8459394831
 21
17.692291378
 31
0.0
 40
0.1649873911
 41
1.4339879733
 42
1.4389852015
  0
ELLIPSE
  5
535
100
AcDbEntity
  8
KONSTRUKTIONSELEMENTE
100
AcDbEllipse
 62
7
  6
CONTINUOUS
 10
161.8262941594
 20
74.0995137157
 30
0.0
 11
146.8459394831
 21
-17.692291378
 31
0.0
 40
0.1649873911
 41
1.7026074521
 42
1.7076046803
  0
ELLIPSE
  5
536
100
AcDbEntity
  8
KONSTRUKTIONSELEMENTE
100
AcDbEllipse
 62
7
  6
CONTINUOUS
 10
151.9825529343
 20
74.0995137157
 30
0.0
 11
58.2435844616
 21
-20.278724724
 31
0.0
 40
0.3795820375
 41
1.8041438597
 42
1.8141300292
  0
ELLIPSE
  5
537
100
AcDbEntity
  8
KONSTRUKTIONSELEMENTE
100
AcDbEllipse
 62
7
  6
CONTINUOUS
 10
148.9929640648
 20
74.0995137157
 30
0.0
 11
25.8491526414
 21
-26.8154817719
 31
0.0
 40
0.5203659912
 41
2.1477962549
 42
2.1677390377
  0
ELLIPSE
  5
538
100
AcDbEntity
  8
KONSTRUKTIONSELEMENTE
100
AcDbEllipse
 62
7
  6
CONTINUOUS
 10
147.7898417801
 20
74.0995137157
 30
0.0
 11
-9.8073873073
 21
29.7831840045
 31
0.0
 40
0.3670978607
 41
-0.6690675795
 42
-0.6491574355
  0
ELLIPSE
  5
539
100
AcDbEntity
  8
KONSTRUKTIONSELEMENTE
100
AcDbEllipse
 62
7
  6
CONTINUOUS
 10
147.2429671391
 20
74.0995137157
 30
0.0
 11
-3.4570328421
 21
29.9950039886
 31
0.0
 40
0.1583673867
 41
-0.5918729727
 42
-0.5670189897
  0
ELLIPSE
  5
53A
100
AcDbEntity
  8
KONSTRUKTIONSELEMENTE
100
AcDbEllipse
 62
7
  6
CONTINUOUS
 10
148.6040782355
 20
74.0995137157
 30
0.0
 11
-6.0237130205
 21
29.9598233508
 31
0.0
 40
0.2576634133
 41
-0.7396511988
 42
-0.7247213384
  0
ELLIPSE
  5
53B
100
AcDbEntity
  8
KONSTRUKTIONSELEMENTE
100
AcDbEllipse
 62
7
  6
CONTINUOUS
 10
147.0971317223
 20
74.0995137157
 30
0.0
 11
25.8492069876
 21
-26.8154672106
 31
0.0
 40
0.5203660202
 41
1.9787992875
 42
1.9887618873
  0
ELLIPSE
  5
53C
100
AcDbEntity
  8
KONSTRUKTIONSELEMENTE
100
AcDbEllipse
 62
7
  6
CONTINUOUS
 10
141.9929654554
 20
74.0995137157
 30
0.0
 11
87.9846062745
 21
-18.5665321282
 31
0.0
 40
0.2678248312
 41
1.5352791376
 42
1.540263623
  0
ELLIPSE
  5
53D
100
AcDbEntity
  8
KONSTRUKTIONSELEMENTE
100
AcDbEllipse
 62
7
  6
CONTINUOUS
 10
148.7499107314
 20
74.0995137157
 30
0.0
 11
6.0237130205
 21
29.9598233508
 31
0.0
 40
0.2576634133
 41
0.68993305
 42
0.7048358052
  0
ELLIPSE
  5
53E
100
AcDbEntity
  8
KONSTRUKTIONSELEMENTE
100
AcDbEllipse
 62
7
  6
CONTINUOUS
 10
149.0841123753
 20
74.0995137157
 30
0.0
 11
17.1041750114
 21
28.848152726
 31
0.0
 40
0.4813508412
 41
0.896316255
 42
0.9161777339
  0
ELLIPSE
  5
53F
100
AcDbEntity
  8
KONSTRUKTIONSELEMENTE
100
AcDbEllipse
 62
7
  6
CONTINUOUS
 10
149.357549771
 20
74.0995137157
 30
0.0
 11
58.243549213
 21
20.2787282797
 31
0.0
 40
0.3795822112
 41
1.436915925
 42
1.4468450732
  0
ELLIPSE
  5
540
100
AcDbEntity
  8
KONSTRUKTIONSELEMENTE
100
AcDbEllipse
 62
7
  6
CONTINUOUS
 10
150.5172721403
 20
74.0995137157
 30
0.0
 11
-7.0284863584
 21
29.9302278364
 31
0.0
 40
0.2909392087
 41
-0.6666685404
 42
-0.5621472436
  0
ELLIPSE
  5
541
100
AcDbEntity
  8
KONSTRUKTIONSELEMENTE
100
AcDbEllipse
 62
7
  6
CONTINUOUS
 10
119.9721180927
 20
74.0995137157
 30
0.0
 11
141.9512498509
 21
-17.1025471698
 31
0.0
 40
0.1649871937
 41
1.4696870826
 42
1.4748590262
  0
ELLIPSE
  5
542
100
AcDbEntity
  8
KONSTRUKTIONSELEMENTE
100
AcDbEllipse
 62
7
  6
CONTINUOUS
 10
119.9721180927
 20
74.0995137157
 30
0.0
 11
146.8461205354
 21
-17.6922901756
 31
0.0
 40
0.1649871937
 41
1.4737387078
 42
1.4787359356
  0
ELLIPSE
  5
543
100
AcDbEntity
  8
KONSTRUKTIONSELEMENTE
100
AcDbEllipse
 62
7
  6
CONTINUOUS
 10
144.5158838804
 20
74.0995137157
 30
0.0
 11
24.9875172496
 21
25.9216315678
 31
0.0
 40
0.5203659929
 41
-2.0405482894
 42
-2.0319149139
  0
ELLIPSE
  5
544
100
AcDbEntity
  8
KONSTRUKTIONSELEMENTE
100
AcDbEllipse
 62
7
  6
CONTINUOUS
 10
129.8158880937
 20
74.0995137157
 30
0.0
 11
56.3020558363
 21
-19.6027748805
 31
0.0
 40
0.379582424
 41
1.5863820108
 42
1.5967167114
  0
ELLIPSE
  5
545
100
AcDbEntity
  8
KONSTRUKTIONSELEMENTE
100
AcDbEllipse
 62
7
  6
CONTINUOUS
 10
129.8158880937
 20
74.0995137157
 30
0.0
 11
58.2435060375
 21
-20.278732635
 31
0.0
 40
0.379582424
 41
1.5902589201
 42
1.6002450884
  0
ELLIPSE
  5
546
100
AcDbEntity
  8
KONSTRUKTIONSELEMENTE
100
AcDbEllipse
 62
7
  6
CONTINUOUS
 10
132.8054689845
 20
74.0995137157
 30
0.0
 11
24.9875172496
 21
-25.9216315678
 31
0.0
 40
0.5203659929
 41
1.9603114692
 42
1.9809481169
  0
ELLIPSE
  5
547
100
AcDbEntity
  8
KONSTRUKTIONSELEMENTE
100
AcDbEllipse
 62
7
  6
CONTINUOUS
 10
144.5158838804
 20
74.0995137157
 30
0.0
 11
25.8491557755
 21
26.8154809322
 31
0.0
 40
0.5203659929
 41
-2.0413898301
 42
-2.0320241344
  0
ELLIPSE
  5
548
100
AcDbEntity
  8
KONSTRUKTIONSELEMENTE
100
AcDbEllipse
 62
7
  6
CONTINUOUS
 10
132.8054689845
 20
74.0995137157
 30
0.0
 11
25.8491557755
 21
-26.8154809322
 31
0.0
 40
0.5203659929
 41
1.9638398462
 42
1.9837826273
  0
ELLIPSE
  5
549
100
AcDbEntity
  8
KONSTRUKTIONSELEMENTE
100
AcDbEllipse
 62
7
  6
CONTINUOUS
 10
134.0085895992
 20
74.0995137157
 30
0.0
 11
-9.4804938967
 21
28.7904097958
 31
0.0
 40
0.3670983348
 41
-0.8160059158
 42
-0.7954054295
  0
ELLIPSE
  5
54A
100
AcDbEntity
  8
KONSTRUKTIONSELEMENTE
100
AcDbEllipse
 62
7
  6
CONTINUOUS
 10
134.0085895992
 20
74.0995137157
 30
0.0
 11
-9.8074074793
 21
29.7831825473
 31
0.0
 40
0.3670983348
 41
-0.8131714054
 42
-0.7932612648
  0
ELLIPSE
  5
54B
100
AcDbEntity
  8
KONSTRUKTIONSELEMENTE
100
AcDbEllipse
 62
7
  6
CONTINUOUS
 10
145.1769934231
 20
74.0995137157
 30
0.0
 11
6.0237326103
 21
29.9598228771
 31
0.0
 40
0.2576640932
 41
-2.4452023766
 42
-2.4311480177
  0
ELLIPSE
  5
54C
100
AcDbEntity
  8
KONSTRUKTIONSELEMENTE
100
AcDbEllipse
 62
7
  6
CONTINUOUS
 10
134.5554680553
 20
74.0995137157
 30
0.0
 11
-3.3417763538
 21
28.9951706451
 31
0.0
 40
0.1583664179
 41
-0.6933562028
 42
-0.6676428957
  0
ELLIPSE
  5
54D
100
AcDbEntity
  8
KONSTRUKTIONSELEMENTE
100
AcDbEllipse
 62
7
  6
CONTINUOUS
 10
134.5554680553
 20
74.0995137157
 30
0.0
 11
-3.4570100211
 21
29.9950041156
 31
0.0
 40
0.1583664179
 41
-0.6912120382
 42
-0.6663580413
  0
ELLIPSE
  5
54E
100
AcDbEntity
  8
KONSTRUKTIONSELEMENTE
100
AcDbEllipse
 62
7
  6
CONTINUOUS
 10
161.3283976305
 20
74.0995137157
 30
0.0
 11
141.9512498509
 21
-17.1025471698
 31
0.0
 40
0.1649871937
 41
-1.6684326298
 42
-1.6635581271
  0
ELLIPSE
  5
54F
100
AcDbEntity
  8
KONSTRUKTIONSELEMENTE
100
AcDbEllipse
 62
7
  6
CONTINUOUS
 10
161.3283976305
 20
74.0995137157
 30
0.0
 11
146.8461205354
 21
-17.6922901756
 31
0.0
 40
0.1649871937
 41
-1.6644983481
 42
-1.6597883912
  0
ELLIPSE
  5
550
100
AcDbEntity
  8
KONSTRUKTIONSELEMENTE
100
AcDbEllipse
 62
7
  6
CONTINUOUS
 10
149.6256021639
 20
74.0995137157
 30
0.0
 11
36.1488352361
 21
-22.9445992036
 31
0.0
 40
0.4906223613
 41
-1.3815413121
 42
-1.3669334427
  0
ELLIPSE
  5
551
100
AcDbEntity
  8
KONSTRUKTIONSELEMENTE
100
AcDbEllipse
 62
7
  6
CONTINUOUS
 10
146.4226527718
 20
74.0995137157
 30
0.0
 11
-4.2370415068
 21
28.9880474415
 31
0.0
 40
0.1964884212
 41
-0.6010495916
 42
-0.5804818148
  0
ELLIPSE
  5
552
100
AcDbEntity
  8
KONSTRUKTIONSELEMENTE
100
AcDbEllipse
 62
7
  6
CONTINUOUS
 10
146.4226527718
 20
74.0995137157
 30
0.0
 11
-4.3831463864
 21
29.9876352843
 31
0.0
 40
0.1964884212
 41
-0.6023344462
 42
-0.5824538402
  0
ELLIPSE
  5
553
100
AcDbEntity
  8
KONSTRUKTIONSELEMENTE
100
AcDbEllipse
 62
7
  6
CONTINUOUS
 10
149.6256021639
 20
74.0995137157
 30
0.0
 11
37.3953467959
 21
-23.7357922795
 31
0.0
 40
0.4906223613
 41
-1.3777715763
 42
-1.3636558151
  0
ELLIPSE
  5
554
100
AcDbEntity
  8
KONSTRUKTIONSELEMENTE
100
AcDbEllipse
 62
7
  6
CONTINUOUS
 10
147.1214413111
 20
74.0995137157
 30
0.0
 11
-13.9698387723
 21
28.3063137543
 31
0.0
 40
0.4513270718
 41
-0.7709328658
 42
-0.7554910681
  0
ELLIPSE
  5
555
100
AcDbEntity
  8
KONSTRUKTIONSELEMENTE
100
AcDbEllipse
 62
7
  6
CONTINUOUS
 10
147.1214413111
 20
74.0995137157
 30
0.0
 11
-14.4515573506
 21
29.2823935389
 31
0.0
 40
0.4513270718
 41
-0.7729048911
 42
-0.7579800203
  0
ELLIPSE
  5
556
100
AcDbEntity
  8
KONSTRUKTIONSELEMENTE
100
AcDbEllipse
 62
7
  6
CONTINUOUS
 10
148.8835904595
 20
74.0995137157
 30
0.0
 11
41.3845832118
 21
-21.781585816
 31
0.0
 40
0.4626317584
 41
1.8841784556
 42
1.8944826639
  0
ELLIPSE
  5
557
100
AcDbEntity
  8
KONSTRUKTIONSELEMENTE
100
AcDbEllipse
 62
7
  6
CONTINUOUS
 10
148.8835904595
 20
74.0995137157
 30
0.0
 11
42.8116378053
 21
-22.5326749821
 31
0.0
 40
0.4626317584
 41
1.8816895034
 42
1.8916481536
  0
ELLIPSE
  5
558
100
AcDbEntity
  8
KONSTRUKTIONSELEMENTE
100
AcDbEllipse
 62
7
  6
CONTINUOUS
 10
148.0044249107
 20
74.0995137157
 30
0.0
 11
-16.5340358444
 21
27.8865476352
 31
0.0
 40
0.4813508412
 41
-4.1284913054
 42
-4.1090461957
  0
ELLIPSE
  5
559
100
AcDbEntity
  8
KONSTRUKTIONSELEMENTE
100
AcDbEllipse
 62
7
  6
CONTINUOUS
 10
154.8992083103
 20
74.0995137157
 30
0.0
 11
113.5276550736
 21
-17.3686644926
 31
0.0
 40
0.2045622151
 41
1.6869235031
 42
1.6920789247
  0
ELLIPSE
  5
55A
100
AcDbEntity
  8
KONSTRUKTIONSELEMENTE
100
AcDbEllipse
 62
7
  6
CONTINUOUS
 10
154.8992083103
 20
74.0995137157
 30
0.0
 11
117.4424018002
 21
-17.9675839579
 31
0.0
 40
0.2045622151
 41
1.6840889928
 42
1.6890713124
  0
ELLIPSE
  5
55B
100
AcDbEntity
  8
KONSTRUKTIONSELEMENTE
100
AcDbEllipse
 62
7
  6
CONTINUOUS
 10
148.0044249107
 20
74.0995137157
 30
0.0
 11
-17.1041750114
 21
28.848152726
 31
0.0
 40
0.4813508412
 41
-4.1252136779
 42
-4.1064215863
  0
ELLIPSE
  5
55C
100
AcDbEntity
  8
KONSTRUKTIONSELEMENTE
100
AcDbEllipse
 62
7
  6
CONTINUOUS
 10
133.8992104486
 20
74.0995137157
 30
0.0
 11
113.5278178008
 21
17.3686623721
 31
0.0
 40
0.2045619359
 41
1.4495138202
 42
1.4546692418
  0
ELLIPSE
  5
55D
100
AcDbEntity
  8
KONSTRUKTIONSELEMENTE
100
AcDbEllipse
 62
7
  6
CONTINUOUS
 10
133.8992104486
 20
74.0995137157
 30
0.0
 11
117.4425701387
 21
17.9675817642
 31
0.0
 40
0.2045619359
 41
1.4525214325
 42
1.4575037521
  0
ELLIPSE
  5
55E
100
AcDbEntity
  8
KONSTRUKTIONSELEMENTE
100
AcDbEllipse
 62
7
  6
CONTINUOUS
 10
147.0756067182
 20
74.0995137157
 30
0.0
 11
-5.8229415233
 21
28.9611621146
 31
0.0
 40
0.2576640932
 41
-3.882801817
 42
-3.8682379053
  0
ELLIPSE
  5
55F
100
AcDbEntity
  8
KONSTRUKTIONSELEMENTE
100
AcDbEllipse
 62
7
  6
CONTINUOUS
 10
139.9148420681
 20
74.0995137157
 30
0.0
 11
41.3845832118
 21
21.781585816
 31
0.0
 40
0.4626317584
 41
1.2471099897
 42
1.257414198
  0
ELLIPSE
  5
560
100
AcDbEntity
  8
KONSTRUKTIONSELEMENTE
100
AcDbEllipse
 62
7
  6
CONTINUOUS
 10
139.9148420681
 20
74.0995137157
 30
0.0
 11
42.8116378053
 21
22.5326749821
 31
0.0
 40
0.4626317584
 41
1.2499444999
 42
1.2599031502
  0
ELLIPSE
  5
561
100
AcDbEntity
  8
KONSTRUKTIONSELEMENTE
100
AcDbEllipse
 62
7
  6
CONTINUOUS
 10
147.0756067182
 20
74.0995137157
 30
0.0
 11
-6.0237326103
 21
29.9598228771
 31
0.0
 40
0.2576640932
 41
-3.8801772075
 42
-3.8661011214
  0
ELLIPSE
  5
562
100
AcDbEntity
  8
KONSTRUKTIONSELEMENTE
100
AcDbEllipse
 62
7
  6
CONTINUOUS
 10
141.6769952498
 20
74.0995137157
 30
0.0
 11
13.9697823615
 21
28.3063218692
 31
0.0
 40
0.4513262864
 41
0.7554897811
 42
0.7709315787
  0
ELLIPSE
  5
563
100
AcDbEntity
  8
KONSTRUKTIONSELEMENTE
100
AcDbEllipse
 62
7
  6
CONTINUOUS
 10
141.6769952498
 20
74.0995137157
 30
0.0
 11
14.4514989947
 21
29.2824019336
 31
0.0
 40
0.4513262864
 41
0.7579787332
 42
0.7729036041
  0
ELLIPSE
  5
564
100
AcDbEntity
  8
KONSTRUKTIONSELEMENTE
100
AcDbEllipse
 62
7
  6
CONTINUOUS
 10
142.3757781912
 20
74.0995137157
 30
0.0
 11
4.237067658
 21
28.9880471628
 31
0.0
 40
0.1964894985
 41
0.5804821496
 42
0.6010499263
  0
ELLIPSE
  5
565
100
AcDbEntity
  8
KONSTRUKTIONSELEMENTE
100
AcDbEllipse
 62
7
  6
CONTINUOUS
 10
142.3757781912
 20
74.0995137157
 30
0.0
 11
4.3831734393
 21
29.987634996
 31
0.0
 40
0.1964894985
 41
0.5824541749
 42
0.6023347809
  0
ELLIPSE
  5
566
100
AcDbEntity
  8
KONSTRUKTIONSELEMENTE
100
AcDbEllipse
 62
7
  6
CONTINUOUS
 10
148.9499112547
 20
74.0995137157
 30
0.0
 11
-2.7632611179
 21
28.9976886779
 31
0.0
 40
0.1324993218
 41
-3.8825950528
 42
-3.707972396
  0
ELLIPSE
  5
567
100
AcDbEntity
  8
KONSTRUKTIONSELEMENTE
100
AcDbEllipse
 62
7
  6
CONTINUOUS
 10
148.9499112547
 20
74.0995137157
 30
0.0
 11
-2.858545984
 21
29.9976089771
 31
0.0
 40
0.1324993218
 41
-3.8786607711
 42
-3.7098780662
  0
ELLIPSE
  5
568
100
AcDbEntity
  8
KONSTRUKTIONSELEMENTE
100
AcDbEllipse
 62
7
  6
CONTINUOUS
 10
149.5802352397
 20
74.0995137157
 30
0.0
 11
3.735236459
 21
28.9925967076
 31
0.0
 40
0.1754206143
 41
-2.5652421082
 42
-2.3906194514
  0
ELLIPSE
  5
569
100
AcDbEntity
  8
KONSTRUKTIONSELEMENTE
100
AcDbEllipse
 62
7
  6
CONTINUOUS
 10
151.6179666811
 20
74.0995137157
 30
0.0
 11
85.0517860653
 21
17.9476477239
 31
0.0
 40
0.2678248312
 41
1.5323159477
 42
1.5374527667
  0
ELLIPSE
  5
56A
100
AcDbEntity
  8
KONSTRUKTIONSELEMENTE
100
AcDbEllipse
 62
7
  6
CONTINUOUS
 10
151.6179666811
 20
74.0995137157
 30
0.0
 11
87.9846062745
 21
18.5665321282
 31
0.0
 40
0.2678248312
 41
1.5317166856
 42
1.5366822083
  0
ELLIPSE
  5
56B
100
AcDbEntity
  8
KONSTRUKTIONSELEMENTE
100
AcDbEllipse
 62
7
  6
CONTINUOUS
 10
149.5802352397
 20
74.0995137157
 30
0.0
 11
3.8640377163
 21
29.9923414217
 31
0.0
 40
0.1754206143
 41
-2.563336438
 42
-2.3945537331
  0
ELLIPSE
  5
56C
100
AcDbEntity
  8
KONSTRUKTIONSELEMENTE
100
AcDbEllipse
 62
7
  6
CONTINUOUS
 10
150.305466994
 20
74.0995137157
 30
0.0
 11
24.9875667547
 21
25.9216183035
 31
0.0
 40
0.5203660202
 41
1.0989171021
 42
1.1091927063
  0
ELLIPSE
  5
56D
100
AcDbEntity
  8
KONSTRUKTIONSELEMENTE
100
AcDbEllipse
 62
7
  6
CONTINUOUS
 10
150.305466994
 20
74.0995137157
 30
0.0
 11
25.8492069876
 21
26.8154672106
 31
0.0
 40
0.5203660202
 41
1.0981465437
 42
1.1080793649
  0
ELLIPSE
  5
56E
100
AcDbEntity
  8
KONSTRUKTIONSELEMENTE
100
AcDbEllipse
 62
7
  6
CONTINUOUS
 10
149.6735217962
 20
74.0995137157
 30
0.0
 11
6.0237130205
 21
29.9598233508
 31
0.0
 40
0.2576634133
 41
0.6948997974
 42
0.7098053117
  0
ELLIPSE
  5
56F
100
AcDbEntity
  8
KONSTRUKTIONSELEMENTE
100
AcDbEllipse
 62
7
  6
CONTINUOUS
 10
152.1598650447
 20
74.0995137157
 30
0.0
 11
-3.7352421361
 21
28.9925966646
 31
0.0
 40
0.1754208571
 41
-3.8925659214
 42
-3.7179432646
  0
ELLIPSE
  5
570
100
AcDbEntity
  8
KONSTRUKTIONSELEMENTE
100
AcDbEllipse
 62
7
  6
CONTINUOUS
 10
152.1598650447
 20
74.0995137157
 30
0.0
 11
-3.8640435891
 21
29.9923413772
 31
0.0
 40
0.1754208571
 41
-3.8886316397
 42
-3.7198489348
  0
ELLIPSE
  5
571
100
AcDbEntity
  8
KONSTRUKTIONSELEMENTE
100
AcDbEllipse
 62
7
  6
CONTINUOUS
 10
152.7901892873
 20
74.0995137157
 30
0.0
 11
2.7632583893
 21
28.9976886868
 31
0.0
 40
0.1324991977
 41
-2.5752129355
 42
-2.4005902787
  0
ELLIPSE
  5
572
100
AcDbEntity
  8
KONSTRUKTIONSELEMENTE
100
AcDbEllipse
 62
7
  6
CONTINUOUS
 10
152.7901892873
 20
74.0995137157
 30
0.0
 11
2.8585431613
 21
29.9976089863
 31
0.0
 40
0.1324991977
 41
-2.5733072653
 42
-2.4045245604
  0
ELLIPSE
  5
573
100
AcDbEntity
  8
KONSTRUKTIONSELEMENTE
100
AcDbEllipse
 62
7
  6
CONTINUOUS
 10
133.0971278976
 20
74.0995137157
 30
0.0
 11
141.9511685607
 21
-17.1025477096
 31
0.0
 40
0.1649872854
 41
1.4696871057
 42
1.4748590492
  0
ELLIPSE
  5
574
100
AcDbEntity
  8
KONSTRUKTIONSELEMENTE
100
AcDbEllipse
 62
7
  6
CONTINUOUS
 10
133.0971278976
 20
74.0995137157
 30
0.0
 11
146.8460364421
 21
-17.6922907341
 31
0.0
 40
0.1649872854
 41
1.4737387308
 42
1.4787359586
  0
ELLIPSE
  5
575
100
AcDbEntity
  8
KONSTRUKTIONSELEMENTE
100
AcDbEllipse
 62
7
  6
CONTINUOUS
 10
145.1283835679
 20
74.0995137157
 30
0.0
 11
36.1488657996
 21
-22.9445917864
 31
0.0
 40
0.4906222119
 41
1.7568754229
 42
1.7723731669
  0
ELLIPSE
  5
576
100
AcDbEntity
  8
KONSTRUKTIONSELEMENTE
100
AcDbEllipse
 62
7
  6
CONTINUOUS
 10
145.1283835679
 20
74.0995137157
 30
0.0
 11
37.3953784134
 21
-23.7357846066
 31
0.0
 40
0.4906222119
 41
1.7607523323
 42
1.7757276986
  0
ELLIPSE
  5
577
100
AcDbEntity
  8
KONSTRUKTIONSELEMENTE
100
AcDbEllipse
 62
7
  6
CONTINUOUS
 10
146.7872370689
 20
74.0995137157
 30
0.0
 11
-16.5340358444
 21
27.8865476352
 31
0.0
 40
0.4813508412
 41
-0.9891842776
 42
-0.968557511
  0
ELLIPSE
  5
578
100
AcDbEntity
  8
KONSTRUKTIONSELEMENTE
100
AcDbEllipse
 62
7
  6
CONTINUOUS
 10
146.7872370689
 20
74.0995137157
 30
0.0
 11
-17.1041750114
 21
28.848152726
 31
0.0
 40
0.4813508412
 41
-0.985829746
 42
-0.9658958827
  0
ELLIPSE
  5
579
100
AcDbEntity
  8
KONSTRUKTIONSELEMENTE
100
AcDbEllipse
 62
7
  6
CONTINUOUS
 10
147.7290782355
 20
74.0995137157
 30
0.0
 11
-5.8229225865
 21
28.9611625724
 31
0.0
 40
0.2576634133
 41
-0.7423128271
 42
-0.7268655031
  0
ELLIPSE
  5
57A
100
AcDbEntity
  8
KONSTRUKTIONSELEMENTE
100
AcDbEllipse
 62
7
  6
CONTINUOUS
 10
147.7290782355
 20
74.0995137157
 30
0.0
 11
-6.0237130205
 21
29.9598233508
 31
0.0
 40
0.2576634133
 41
-0.7396511988
 42
-0.7247213384
  0
ELLIPSE
  5
57B
100
AcDbEntity
  8
KONSTRUKTIONSELEMENTE
100
AcDbEllipse
 62
7
  6
CONTINUOUS
 10
126.8992250518
 20
74.0995137157
 30
0.0
 11
113.5276550736
 21
17.3686644926
 31
0.0
 40
0.2045622151
 41
1.4495137289
 42
1.4546691505
  0
ELLIPSE
  5
57C
100
AcDbEntity
  8
KONSTRUKTIONSELEMENTE
100
AcDbEllipse
 62
7
  6
CONTINUOUS
 10
126.8992250518
 20
74.0995137157
 30
0.0
 11
117.4424018002
 21
17.9675839579
 31
0.0
 40
0.2045622151
 41
1.4525213412
 42
1.4575036608
  0
ELLIPSE
  5
57D
100
AcDbEntity
  8
KONSTRUKTIONSELEMENTE
100
AcDbEllipse
 62
7
  6
CONTINUOUS
 10
149.5319156748
 20
74.0995137157
 30
0.0
 11
-7.0125241872
 21
28.9246177669
 31
0.0
 40
0.2979831559
 41
-0.6378843208
 42
-0.5619988083
  0
ELLIPSE
  5
57E
100
AcDbEntity
  8
KONSTRUKTIONSELEMENTE
100
AcDbEllipse
 62
7
  6
CONTINUOUS
 10
132.9148429026
 20
74.0995137157
 30
0.0
 11
41.3845832118
 21
21.781585816
 31
0.0
 40
0.4626317584
 41
1.2471099897
 42
1.257414198
  0
ELLIPSE
  5
57F
100
AcDbEntity
  8
KONSTRUKTIONSELEMENTE
100
AcDbEllipse
 62
7
  6
CONTINUOUS
 10
149.5319156748
 20
74.0995137157
 30
0.0
 11
-7.254335366
 21
29.9220183796
 31
0.0
 40
0.2979831559
 41
-0.6805011232
 42
-0.5660504335
  0
ELLIPSE
  5
580
100
AcDbEntity
  8
KONSTRUKTIONSELEMENTE
100
AcDbEllipse
 62
7
  6
CONTINUOUS
 10
132.9148429026
 20
74.0995137157
 30
0.0
 11
42.8116378053
 21
22.5326749821
 31
0.0
 40
0.4626317584
 41
1.2499444999
 42
1.2599031502
  0
ELLIPSE
  5
581
100
AcDbEntity
  8
KONSTRUKTIONSELEMENTE
100
AcDbEllipse
 62
7
  6
CONTINUOUS
 10
134.6769920511
 20
74.0995137157
 30
0.0
 11
13.9698387723
 21
28.3063137543
 31
0.0
 40
0.4513270718
 41
0.7554910681
 42
0.7709328658
  0
ELLIPSE
  5
582
100
AcDbEntity
  8
KONSTRUKTIONSELEMENTE
100
AcDbEllipse
 62
7
  6
CONTINUOUS
 10
134.6769920511
 20
74.0995137157
 30
0.0
 11
14.4515573506
 21
29.2823935389
 31
0.0
 40
0.4513270718
 41
0.7579800203
 42
0.7729048911
  0
ELLIPSE
  5
583
100
AcDbEntity
  8
KONSTRUKTIONSELEMENTE
100
AcDbEllipse
 62
7
  6
CONTINUOUS
 10
135.3757805903
 20
74.0995137157
 30
0.0
 11
4.2370415068
 21
28.9880474415
 31
0.0
 40
0.1964884212
 41
0.5804818148
 42
0.6010495916
  0
ELLIPSE
  5
584
100
AcDbEntity
  8
KONSTRUKTIONSELEMENTE
100
AcDbEllipse
 62
7
  6
CONTINUOUS
 10
135.3757805903
 20
74.0995137157
 30
0.0
 11
4.3831463864
 21
29.9876352843
 31
0.0
 40
0.1964884212
 41
0.5824538402
 42
0.6023344462
  0
ELLIPSE
  5
585
100
AcDbEntity
  8
KONSTRUKTIONSELEMENTE
100
AcDbEllipse
 62
7
  6
CONTINUOUS
 10
143.0825498403
 20
74.0995137157
 30
0.0
 11
85.0517860653
 21
17.9476477239
 31
0.0
 40
0.2678248312
 41
-1.6068551296
 42
-1.6020116047
  0
ELLIPSE
  5
586
100
AcDbEntity
  8
KONSTRUKTIONSELEMENTE
100
AcDbEllipse
 62
7
  6
CONTINUOUS
 10
143.0825498403
 20
74.0995137157
 30
0.0
 11
87.9846062745
 21
18.5665321282
 31
0.0
 40
0.2678248312
 41
-1.6075351392
 42
-1.6028531454
  0
ENDSEC
  0
SECTION
  2
OBJECTS
  0
DICTIONARY
  5
C
100
AcDbDictionary
280
0
281
1
  3
ACAD_GROUP
350
D
  3
ACAD_MLINESTYLE
350
17
  3
ACAD_LAYOUT
350
1A
  3
ACAD_PLOTSETTINGS
350
19
  3
ACAD_PLOTSTYLENAME
350
E
  0
DICTIONARY
  5
D
102
{ACAD_REACTORS
330
C
102
}
100
AcDbDictionary
280
0
281
1
  0
ACDBDICTIONARYWDFLT
  5
E
102
{ACAD_REACTORS
330
C
102
}
100
AcDbDictionary
281
1
  3
Normal
350
F
100
AcDbDictionaryWithDefault
340
F
  0
DICTIONARY
  5
17
102
{ACAD_REACTORS
330
C
102
}
100
AcDbDictionary
280
0
281
1
  3
Standard
350
18
  0
DICTIONARY
  5
19
102
{ACAD_REACTORS
330
C
102
}
100
AcDbDictionary
281
1
  0
DICTIONARY
  5
1A
102
{ACAD_REACTORS
330
C
102
}
100
AcDbDictionary
281
1
  3
Model
350
587
  3
Layout1
350
588
  0
ACDBPLACEHOLDER
  5
F
102
{ACAD_REACTORS
330
E
102
}
  0
MLINESTYLE
  5
18
102
{ACAD_REACTORS
330
17
102
}
100
AcDbMlineStyle
  2
STANDARD
 70
0
  3

 62
256
 51
90.0
 52
90.0
 71
2
 49
0.5
 62
256
  6
BYLAYER
 49
-0.5
 62
256
  6
BYLAYER
  0
LAYOUT
  5
587
102
{ACAD_REACTORS
330
1A
102
}
100
AcDbPlotSettings
  1

  2
none_device
  4
ISO_A3_(420.00_x_297.00_MM)
  6

 40
0.0
 41
0.0
 42
0.0
 43
0.0
 44
420.0
 45
297.0
 46
0.0
 47
0.0
 48
0.0
 49
0.0
140
0.0
141
0.0
142
1.0
143
1.0
 70
1024
 72
1
 73
0
 74
0
  7

 75
0
147
1.0
148
0.0
149
0.0
100
AcDbLayout
  1
Model
 70
0
 71
0
 10
0.0
 20
0.0
 11
420.0
 21
297.0
 12
0.0
 22
0.0
 32
0.0
 14
0.0
 24
0.0
 34
0.0
 15
0.0
 25
0.0
 35
0.0
146
0.0
 13
0.0
 23
0.0
 33
0.0
 16
1.0
 26
0.0
 36
0.0
 17
0.0
 27
1.0
 37
0.0
 76
0
330
20C
345
0
346
0
  0
LAYOUT
  5
588
102
{ACAD_REACTORS
330
1A
102
}
100
AcDbPlotSettings
  1

  2
none_device
  4
ISO_A3_(420.00_x_297.00_MM)
  6

 40
0.0
 41
0.0
 42
0.0
 43
0.0
 44
420.0
 45
297.0
 46
0.0
 47
0.0
 48
0.0
 49
0.0
140
0.0
141
0.0
142
1.0
143
1.0
 70
0
 72
1
 73
0
 74
0
  7

 75
0
147
1.0
148
0.0
149
0.0
100
AcDbLayout
  1
Layout1
 70
0
 71
1
 10
0.0
 20
0.0
 11
420.0
 21
297.0
 12
0.0
 22
0.0
 32
0.0
 14
0.0
 24
0.0
 34
0.0
 15
0.0
 25
0.0
 35
0.0
146
0.0
 13
0.0
 23
0.0
 33
0.0
 16
1.0
 26
0.0
 36
0.0
 17
0.0
 27
1.0
 37
0.0
 76
0
330
20D
345
0
346
0
  0
ENDSEC
  0
EOF
