999
DXF file: 001-m31757-p7.dxf
999
Pro/ENGINEER 2011490 by Parametric Technology Corporation
  0
SECTION
  2
HEADER
  9
$ACADVER
  1
AC1015
  9
$DWGCODEPAGE
  3
ANSI_1252
  9
$EXTMAX
 10
420.0
 20
297.0
 30
0.0
  9
$EXTMIN
 10
0.0
 20
0.0
 30
0.0
  9
$LIMMIN
 10
0.0
 20
0.0
  9
$LIMMAX
 10
420.0
 20
297.0
  9
$VIEWCTR
 10
210.0
 20
148.5
  9
$VIEWSIZE
 40
297.0
  9
$CLAYER
  8
0
  9
$LTSCALE
 40
23.1
  9
$CELTYPE
  6
BYLAYER
  9
$DIMSCALE
 40
1.0
  9
$DIMASZ
 40
3.5
  9
$DIMEXO
 40
2.625
  9
$DIMDLI
 40
15.96
  9
$DIMEXE
 40
7.56
  9
$DIMCEN
 40
3.78
  9
$DIMLFAC
 40
1.0
  9
$DIMBLK
  1
_FILLED
  9
$DIMTXT
 40
3.5
  9
$DIMTOL
 70
1
  9
$DIMLIM
 70
0
  9
$DIMTFAC
 40
1.0
  9
$DIMTP
 40
0.005
  9
$DIMTM
 40
0.005
  9
$PDMODE
 70
3
  9
$PDSIZE
 40
0.3125
  9
$HANDSEED
  5
555
  9
$TILEMODE
 70
1
  9
$MEASUREMENT
 70
1
  9
$INSUNITS
 70
4
  0
ENDSEC
  0
SECTION
  2
CLASSES
  0
CLASS
  1
ACDBDICTIONARYWDFLT
  2
AcDbDictionaryWithDefault
  3
AutoCAD 2000
 90
0
280
0
281
0
  0
CLASS
  1
ACDBPLACEHOLDER
  2
AcDbPlaceHolder
  3
AutoCAD 2000
 90
0
280
0
281
0
  0
CLASS
  1
LAYOUT
  2
AcDbLayout
  3
AutoCAD 2000
 90
0
280
0
281
0
  0
ENDSEC
  0
SECTION
  2
TABLES
  0
TABLE
  2
VPORT
  5
8
100
AcDbSymbolTable
 70
2
  0
VPORT
  5
1F4
100
AcDbSymbolTableRecord
100
AcDbViewportTableRecord
  2
*ACTIVE
 70
0
 10
0.0
 20
0.0
 11
1.0
 21
1.0
 12
210.0
 22
148.5
 13
0.0
 23
0.0
 14
1.0
 24
1.0
 15
0.0
 25
0.0
 16
0.0
 26
0.0
 36
1.0
 17
0.0
 27
0.0
 37
0.0
 40
297.0
 41
1.4141414141
 42
50.0
 43
0.0
 44
0.0
 50
0.0
 51
0.0
 71
0
 72
100
 73
1
 74
1
 75
0
 76
0
 77
0
 78
0
  0
ENDTAB
  0
TABLE
  2
LTYPE
  5
5
100
AcDbSymbolTable
 70
6
  0
LTYPE
  5
14
100
AcDbSymbolTableRecord
100
AcDbLinetypeTableRecord
  2
BYBLOCK
 70
0
  3

 72
65
 73
0
 40
0.0
  0
LTYPE
  5
15
100
AcDbSymbolTableRecord
100
AcDbLinetypeTableRecord
  2
BYLAYER
 70
0
  3

 72
65
 73
0
 40
0.0
  0
LTYPE
  5
16
100
AcDbSymbolTableRecord
100
AcDbLinetypeTableRecord
  2
CONTINUOUS
 70
64
  3
Solid line
 72
65
 73
0
 40
0.0
  0
LTYPE
  5
1F5
100
AcDbSymbolTableRecord
100
AcDbLinetypeTableRecord
  2
CENTER
 70
64
  3
____ _ ____ _ ____ _ ____ _ ____ _ ____ _ ____
 72
65
 73
4
 40
0.6
 49
0.375
 74
0
 49
-0.075
 74
0
 49
0.075
 74
0
 49
-0.075
 74
0
  0
LTYPE
  5
1F6
100
AcDbSymbolTableRecord
100
AcDbLinetypeTableRecord
  2
HIDDEN
 70
64
  3
- - - - - - - - - - - - - - - - - - - -
 72
65
 73
2
 40
0.2
 49
0.1
 74
0
 49
-0.1
 74
0
  0
LTYPE
  5
1F7
100
AcDbSymbolTableRecord
100
AcDbLinetypeTableRecord
  2
PHANTOM
 70
64
  3
_____ _ _ _____ _ _ _____ _ _ _____
 72
65
 73
6
 40
0.8
 49
0.45
 74
0
 49
-0.05
 74
0
 49
0.1
 74
0
 49
-0.05
 74
0
 49
0.1
 74
0
 49
-0.05
 74
0
  0
LTYPE
  5
1F8
100
AcDbSymbolTableRecord
100
AcDbLinetypeTableRecord
  2
DOT
 70
64
  3
. . . . . . . . . . . . . . . . . . . .
 72
65
 73
2
 40
0.2
 49
0.1
 74
0
 49
-0.1
 74
0
  0
LTYPE
  5
1F9
100
AcDbSymbolTableRecord
100
AcDbLinetypeTableRecord
  2
DASHED
 70
64
  3
- - - - - - - - - - - - - - - - - - - -
 72
65
 73
2
 40
0.2
 49
0.1
 74
0
 49
-0.1
 74
0
  0
ENDTAB
  0
TABLE
  2
LAYER
  5
2
100
AcDbSymbolTable
 70
36
  0
LAYER
  5
10
100
AcDbSymbolTableRecord
100
AcDbLayerTableRecord
  2
0
 70
0
 62
7
  6
CONTINUOUS
370
-3
390
F
  0
LAYER
  5
1FA
100
AcDbSymbolTableRecord
100
AcDbLayerTableRecord
  2
DEFAULT_1
 70
0
 62
7
  6
CENTER
370
-3
390
F
  0
LAYER
  5
1FB
100
AcDbSymbolTableRecord
100
AcDbLayerTableRecord
  2
DEFAULT_2
 70
0
 62
8
  6
HIDDEN
370
-3
390
F
  0
LAYER
  5
1FC
100
AcDbSymbolTableRecord
100
AcDbLayerTableRecord
  2
DEFAULT_3
 70
0
 62
7
  6
PHANTOM
370
-3
390
F
  0
LAYER
  5
1FD
100
AcDbSymbolTableRecord
100
AcDbLayerTableRecord
  2
AUSFORMSCHRAEGEN
 70
0
 62
7
  6
CONTINUOUS
370
-3
390
F
  0
LAYER
  5
1FE
100
AcDbSymbolTableRecord
100
AcDbLayerTableRecord
  2
BEZUGSACHSEN
 70
0
 62
7
  6
CONTINUOUS
370
-3
390
F
  0
LAYER
  5
1FF
100
AcDbSymbolTableRecord
100
AcDbLayerTableRecord
  2
BEZUGSEBENEN
 70
0
 62
7
  6
CONTINUOUS
370
-3
390
F
  0
LAYER
  5
200
100
AcDbSymbolTableRecord
100
AcDbLayerTableRecord
  2
BG_STARTBEZUEGE
 70
0
 62
7
  6
CONTINUOUS
370
-3
390
F
  0
LAYER
  5
201
100
AcDbSymbolTableRecord
100
AcDbLayerTableRecord
  2
FASEN
 70
0
 62
7
  6
CONTINUOUS
370
-3
390
F
  0
LAYER
  5
202
100
AcDbSymbolTableRecord
100
AcDbLayerTableRecord
  2
HILFEN
 70
0
 62
7
  6
CONTINUOUS
370
-3
390
F
  0
LAYER
  5
203
100
AcDbSymbolTableRecord
100
AcDbLayerTableRecord
  2
KONSTRUKTIONSELEMENTE
 70
0
 62
7
  6
CONTINUOUS
370
-3
390
F
  0
LAYER
  5
204
100
AcDbSymbolTableRecord
100
AcDbLayerTableRecord
  2
KURVEN
 70
0
 62
7
  6
CONTINUOUS
370
-3
390
F
  0
LAYER
  5
205
100
AcDbSymbolTableRecord
100
AcDbLayerTableRecord
  2
NORM
 70
0
 62
7
  6
CONTINUOUS
370
-3
390
F
  0
LAYER
  5
206
100
AcDbSymbolTableRecord
100
AcDbLayerTableRecord
  2
PLATZIERUNG
 70
0
 62
7
  6
CONTINUOUS
370
-3
390
F
  0
LAYER
  5
207
100
AcDbSymbolTableRecord
100
AcDbLayerTableRecord
  2
RUNDUNGEN
 70
0
 62
7
  6
CONTINUOUS
370
-3
390
F
  0
LAYER
  5
208
100
AcDbSymbolTableRecord
100
AcDbLayerTableRecord
  2
TEIL_STARTBEZUEGE
 70
0
 62
7
  6
CONTINUOUS
370
-3
390
F
  0
LAYER
  5
209
100
AcDbSymbolTableRecord
100
AcDbLayerTableRecord
  2
T_STARTBEZUEGE
 70
0
 62
7
  6
CONTINUOUS
370
-3
390
F
  0
ENDTAB
  0
TABLE
  2
STYLE
  5
3
100
AcDbSymbolTable
 70
1
  0
STYLE
  5
11
100
AcDbSymbolTableRecord
100
AcDbTextStyleTableRecord
  2
STANDARD
 70
0
 40
0.0
 41
0.7
 50
0.0
 71
0
 42
0.2
  3
txt
  4

  0
STYLE
  5
20A
100
AcDbSymbolTableRecord
100
AcDbTextStyleTableRecord
  2
TEXTSTYLE_1
 70
0
 40
0.0
 41
0.8
 50
0.0
 71
0
 42
0.2
  3
gdt
  4

  0
ENDTAB
  0
TABLE
  2
VIEW
  5
6
100
AcDbSymbolTable
 70
0
  0
ENDTAB
  0
TABLE
  2
UCS
  5
7
100
AcDbSymbolTable
 70
0
  0
ENDTAB
  0
TABLE
  2
APPID
  5
9
100
AcDbSymbolTable
 70
1
  0
APPID
  5
20B
100
AcDbSymbolTableRecord
100
AcDbRegAppTableRecord
  2
ACAD
 70
0
  0
ENDTAB
  0
TABLE
  2
BLOCK_RECORD
  5
1
100
AcDbSymbolTable
 70
0
  0
BLOCK_RECORD
  5
20C
100
AcDbSymbolTableRecord
100
AcDbBlockTableRecord
  2
*Model_Space
  0
BLOCK_RECORD
  5
20D
100
AcDbSymbolTableRecord
100
AcDbBlockTableRecord
  2
*Paper_Space
  0
ENDTAB
  0
TABLE
  2
DIMSTYLE
  5
A
100
AcDbSymbolTable
 70
1
100
AcDbDimStyleTable
 71
0
  0
DIMSTYLE
105
20E
100
AcDbSymbolTableRecord
100
AcDbDimStyleTableRecord
  2
STANDARD
 70
0
  3

  4

 40
1.0
 41
3.5
 42
0.0625
 43
0.38
 44
0.18
 45
0.0
 46
0.0
 47
0.005
 48
0.005
140
3.5
141
0.09
142
0.0
143
25.4
144
1.0
145
0.0
146
1.0
147
0.09
 71
1.0
 72
0.0
 73
0
 74
0
 75
0
 76
0
 77
1
 78
8
170
0
171
2
172
0
173
0
174
0
175
0
176
0
177
0
178
5
270
2
271
3
272
3
273
2
274
2
275
0
280
0
281
0
282
0
283
1
284
8
285
0
286
0
287
3
288
0
340
11
  0
ENDTAB
  0
ENDSEC
  0
SECTION
  2
BLOCKS
  0
BLOCK
  5
20
100
AcDbEntity
  8
0
100
AcDbBlockBegin
  2
*Model_Space
 70
0
 10
0.0
 20
0.0
 30
0.0
  3
*Model_Space
  1

  0
ENDBLK
  5
21
100
AcDbEntity
  8
0
100
AcDbBlockEnd
  0
BLOCK
  5
1C
100
AcDbEntity
  8
0
100
AcDbBlockBegin
  2
*Paper_Space
 70
0
 10
0.0
 20
0.0
 30
0.0
  3
*Paper_Space
  1

  0
ENDBLK
  5
1D
100
AcDbEntity
  8
0
100
AcDbBlockEnd
  0
ENDSEC
  0
SECTION
  2
ENTITIES
  0
MTEXT
  5
20F
100
AcDbEntity
  8
0
100
AcDbMText
 62
5
  6
CONTINUOUS
  7
STANDARD
 71
1
 72
1
 10
155.1787635749
 20
250.5867062279
 30
0.0
 11
1.0
 21
0.0
 31
0.0
 44
0.9
  1
LPW 3000daN\PRUD
 40
3.5
 41
31.6666666667
  0
MTEXT
  5
210
100
AcDbEntity
  8
0
100
AcDbMText
 62
5
  6
CONTINUOUS
  7
STANDARD
 71
1
 72
1
 10
155.1327171594
 20
109.8629399392
 30
0.0
 11
1.0
 21
0.0
 31
0.0
 44
0.9
  1
LPW 3000daN\PRUD
 40
3.5
 41
31.6666666667
  0
MTEXT
  5
211
100
AcDbEntity
  8
0
100
AcDbMText
 62
5
  6
CONTINUOUS
  7
STANDARD
 71
1
 72
1
 10
268.7111619558
 20
215.2843477708
 30
0.0
 11
0.0
 21
1.0
 31
0.0
 44
0.9
  1
LPW 3000daN\PRZD
 40
3.5
 41
31.6666666667
  0
LINE
  5
212
100
AcDbEntity
  8
0
100
AcDbLine
 62
7
  6
CONTINUOUS
 10
0.0
 20
0.0
 11
0.0
 21
297.0
  0
LINE
  5
213
100
AcDbEntity
  8
0
100
AcDbLine
 62
7
  6
CONTINUOUS
 10
0.0
 20
0.0
 11
420.0
 21
0.0
  0
LINE
  5
214
100
AcDbEntity
  8
0
100
AcDbLine
 62
7
  6
CONTINUOUS
 10
0.0
 20
297.0
 11
420.0
 21
297.0
  0
LINE
  5
215
100
AcDbEntity
  8
0
100
AcDbLine
 62
7
  6
CONTINUOUS
 10
420.0
 20
0.0
 11
420.0
 21
297.0
  0
LINE
  5
216
100
AcDbEntity
  8
0
100
AcDbLine
 62
7
  6
CONTINUOUS
 10
155.8930684389
 20
177.9542985259
 11
187.2322100502
 21
177.9542985259
  0
LINE
  5
217
100
AcDbEntity
  8
BEZUGSACHSEN
100
AcDbLine
 62
7
  6
CONTINUOUS
 10
202.0626392446
 20
179.9542985259
 11
187.581874146
 21
179.9542985259
  0
LINE
  5
218
100
AcDbEntity
  8
BEZUGSACHSEN
100
AcDbLine
 62
7
  6
CONTINUOUS
 10
155.5434675864
 20
179.9542985259
 11
141.0626392446
 21
179.9542985259
  0
LINE
  5
219
100
AcDbEntity
  8
RUNDUNGEN
100
AcDbLine
 62
7
  6
CONTINUOUS
 10
150.1746555583
 20
248.839458813
 11
169.2665386504
 21
256.747575721
  0
LINE
  5
21A
100
AcDbEntity
  8
BEZUGSACHSEN
100
AcDbLine
 62
7
  6
CONTINUOUS
 10
138.5626392446
 20
182.4542987858
 11
138.5626392446
 21
186.4542985259
  0
LINE
  5
21B
100
AcDbEntity
  8
RUNDUNGEN
100
AcDbLine
 62
7
  6
CONTINUOUS
 10
138.5626392446
 20
186.4542985259
 11
138.5626392446
 21
224.2042985259
  0
LINE
  5
21C
100
AcDbEntity
  8
RUNDUNGEN
100
AcDbLine
 62
7
  6
CONTINUOUS
 10
139.0193620495
 20
226.5003991201
 11
146.9274789575
 21
245.5922822122
  0
LINE
  5
21D
100
AcDbEntity
  8
0
100
AcDbLine
 62
7
  6
CONTINUOUS
 10
156.5626392446
 20
187.022100516
 11
186.5626392446
 21
187.022100516
  0
LINE
  5
21E
100
AcDbEntity
  8
KONSTRUKTIONSELEMENTE
100
AcDbLine
 62
7
  6
CONTINUOUS
 10
159.8126392446
 20
195.781677579
 11
167.8126392446
 21
195.781677579
  0
LINE
  5
21F
100
AcDbEntity
  8
KONSTRUKTIONSELEMENTE
100
AcDbLine
 62
7
  6
CONTINUOUS
 10
175.3126392446
 20
195.781677579
 11
183.3126392446
 21
195.781677579
  0
LINE
  5
220
100
AcDbEntity
  8
0
100
AcDbLine
 62
7
  6
CONTINUOUS
 10
198.5136607733
 20
196.2908098214
 11
199.7136607733
 21
196.2908098214
  0
LINE
  5
221
100
AcDbEntity
  8
0
100
AcDbLine
 62
7
  6
CONTINUOUS
 10
199.6761607733
 20
197.1908098214
 11
198.5536607733
 21
197.1908098214
  0
LINE
  5
222
100
AcDbEntity
  8
RUNDUNGEN
100
AcDbLine
 62
7
  6
CONTINUOUS
 10
152.5626392446
 20
198.9542985476
 11
152.5626392446
 21
203.3961877154
  0
LINE
  5
223
100
AcDbEntity
  8
RUNDUNGEN
100
AcDbLine
 62
7
  6
CONTINUOUS
 10
152.5626392446
 20
219.1050126673
 11
152.5626392446
 21
224.2042984946
  0
LINE
  5
224
100
AcDbEntity
  8
KONSTRUKTIONSELEMENTE
100
AcDbLine
 62
7
  6
CONTINUOUS
 10
164.3126392446
 20
198.2335428676
 11
167.8126392446
 21
198.2335428676
  0
LINE
  5
225
100
AcDbEntity
  8
KONSTRUKTIONSELEMENTE
100
AcDbLine
 62
7
  6
CONTINUOUS
 10
159.8126392446
 20
198.4917735852
 11
163.3126392446
 21
198.4917735852
  0
LINE
  5
226
100
AcDbEntity
  8
KONSTRUKTIONSELEMENTE
100
AcDbLine
 62
7
  6
CONTINUOUS
 10
181.126468409
 20
198.8275773835
 11
181.4243407139
 21
198.8275773835
  0
LINE
  5
227
100
AcDbEntity
  8
0
100
AcDbLine
 62
7
  6
CONTINUOUS
 10
197.6136607733
 20
199.0708098214
 11
200.1636607733
 21
199.0708098214
  0
LINE
  5
228
100
AcDbEntity
  8
KONSTRUKTIONSELEMENTE
100
AcDbLine
 62
7
  6
CONTINUOUS
 10
164.3126392446
 20
199.2679864127
 11
167.8126392446
 21
199.2679864127
  0
LINE
  5
229
100
AcDbEntity
  8
KONSTRUKTIONSELEMENTE
100
AcDbLine
 62
7
  6
CONTINUOUS
 10
159.8126392446
 20
199.5057660987
 11
163.3126392446
 21
199.5057660987
  0
LINE
  5
22A
100
AcDbEntity
  8
KONSTRUKTIONSELEMENTE
100
AcDbLine
 62
7
  6
CONTINUOUS
 10
180.3817874381
 20
199.5354281569
 11
180.5307237992
 21
199.5354281569
  0
LINE
  5
22B
100
AcDbEntity
  8
KONSTRUKTIONSELEMENTE
100
AcDbLine
 62
7
  6
CONTINUOUS
 10
181.9456173518
 20
199.581491417
 11
182.2434896568
 21
199.581491417
  0
LINE
  5
22C
100
AcDbEntity
  8
KONSTRUKTIONSELEMENTE
100
AcDbLine
 62
7
  6
CONTINUOUS
 10
164.3126392446
 20
199.600193163
 11
167.365830735
 21
199.600193163
  0
LINE
  5
22D
100
AcDbEntity
  8
KONSTRUKTIONSELEMENTE
100
AcDbLine
 62
7
  6
CONTINUOUS
 10
181.126468409
 20
199.8161108913
 11
181.4243407139
 21
199.8161108913
  0
LINE
  5
22E
100
AcDbEntity
  8
KONSTRUKTIONSELEMENTE
100
AcDbLine
 62
7
  6
CONTINUOUS
 10
160.1849796257
 20
199.8219274986
 11
161.3020009778
 21
199.8219274986
  0
LINE
  5
22F
100
AcDbEntity
  8
KONSTRUKTIONSELEMENTE
100
AcDbLine
 62
7
  6
CONTINUOUS
 10
161.7488094351
 20
199.8219274986
 11
163.3126392446
 21
199.8219274986
  0
LINE
  5
230
100
AcDbEntity
  8
0
100
AcDbLine
 62
7
  6
CONTINUOUS
 10
201.3636607733
 20
199.9708098214
 11
200.6136607733
 21
199.9708098214
  0
LINE
  5
231
100
AcDbEntity
  8
0
100
AcDbLine
 62
7
  6
CONTINUOUS
 10
200.1636607733
 20
199.9708098214
 11
196.8636607733
 21
199.9708098214
  0
LINE
  5
232
100
AcDbEntity
  8
KONSTRUKTIONSELEMENTE
100
AcDbLine
 62
7
  6
CONTINUOUS
 10
160.6317880831
 20
200.0165941543
 11
160.8551925204
 21
200.0165941543
  0
LINE
  5
233
100
AcDbEntity
  8
KONSTRUKTIONSELEMENTE
100
AcDbLine
 62
7
  6
CONTINUOUS
 10
164.3126392446
 20
200.3504537721
 11
167.365830735
 21
200.3504537721
  0
LINE
  5
234
100
AcDbEntity
  8
KONSTRUKTIONSELEMENTE
100
AcDbLine
 62
7
  6
CONTINUOUS
 10
180.3817874381
 20
200.4741399095
 11
180.5307237992
 21
200.4741399095
  0
LINE
  5
235
100
AcDbEntity
  8
KONSTRUKTIONSELEMENTE
100
AcDbLine
 62
7
  6
CONTINUOUS
 10
181.9456173518
 20
200.5171287247
 11
182.2434896568
 21
200.5171287247
  0
LINE
  5
236
100
AcDbEntity
  8
KONSTRUKTIONSELEMENTE
100
AcDbLine
 62
7
  6
CONTINUOUS
 10
180.3817874381
 20
200.6840499762
 11
180.5307237992
 21
200.6840499762
  0
LINE
  5
237
100
AcDbEntity
  8
KONSTRUKTIONSELEMENTE
100
AcDbLine
 62
7
  6
CONTINUOUS
 10
181.9456173518
 20
200.7245437499
 11
182.2434896568
 21
200.7245437499
  0
LINE
  5
238
100
AcDbEntity
  8
0
100
AcDbLine
 62
7
  6
CONTINUOUS
 10
155.0626392446
 20
183.6538596276
 11
155.0626392446
 21
200.9542985259
  0
LINE
  5
239
100
AcDbEntity
  8
KONSTRUKTIONSELEMENTE
100
AcDbLine
 62
7
  6
CONTINUOUS
 10
182.9885430783
 20
202.7542985245
 11
182.9881705168
 21
202.754298379
  0
LINE
  5
23A
100
AcDbEntity
  8
0
100
AcDbLine
 62
7
  6
CONTINUOUS
 10
198.6636607733
 20
200.8708098214
 11
201.3636607733
 21
200.8708098214
  0
LINE
  5
23B
100
AcDbEntity
  8
KONSTRUKTIONSELEMENTE
100
AcDbLine
 62
7
  6
CONTINUOUS
 10
160.6317880831
 20
200.9241244651
 11
160.8551925204
 21
200.9241244651
  0
LINE
  5
23C
100
AcDbEntity
  8
KONSTRUKTIONSELEMENTE
100
AcDbLine
 62
7
  6
CONTINUOUS
 10
167.365830735
 20
200.952301873
 11
167.8126392446
 21
200.952301873
  0
LINE
  5
23D
100
AcDbEntity
  8
KONSTRUKTIONSELEMENTE
100
AcDbLine
 62
7
  6
CONTINUOUS
 10
180.9775322565
 20
201.0313241289
 11
181.6477449426
 21
201.0313241289
  0
LINE
  5
23E
100
AcDbEntity
  8
KONSTRUKTIONSELEMENTE
100
AcDbLine
 62
7
  6
CONTINUOUS
 10
160.6317880831
 20
201.1427530647
 11
160.9296605966
 21
201.1427530647
  0
LINE
  5
23F
100
AcDbEntity
  8
KONSTRUKTIONSELEMENTE
100
AcDbLine
 62
7
  6
CONTINUOUS
 10
181.0520003328
 20
201.2081180827
 11
181.5732768664
 21
201.2081180827
  0
LINE
  5
240
100
AcDbEntity
  8
KONSTRUKTIONSELEMENTE
100
AcDbLine
 62
7
  6
CONTINUOUS
 10
164.3126392446
 20
201.2375028682
 11
167.8126392446
 21
201.2375028682
  0
LINE
  5
241
100
AcDbEntity
  8
KONSTRUKTIONSELEMENTE
100
AcDbLine
 62
7
  6
CONTINUOUS
 10
164.6849796257
 20
201.4329428159
 11
165.8020009778
 21
201.4329428159
  0
LINE
  5
242
100
AcDbEntity
  8
KONSTRUKTIONSELEMENTE
100
AcDbLine
 62
7
  6
CONTINUOUS
 10
166.2488094351
 20
201.4329428159
 11
167.8126392446
 21
201.4329428159
  0
LINE
  5
243
100
AcDbEntity
  8
KONSTRUKTIONSELEMENTE
100
AcDbLine
 62
7
  6
CONTINUOUS
 10
159.8126392446
 20
201.440798262
 11
162.1211499206
 21
201.440798262
  0
LINE
  5
244
100
AcDbEntity
  8
KONSTRUKTIONSELEMENTE
100
AcDbLine
 62
7
  6
CONTINUOUS
 10
159.8126392446
 20
201.6204773329
 11
162.1211499206
 21
201.6204773329
  0
LINE
  5
245
100
AcDbEntity
  8
KONSTRUKTIONSELEMENTE
100
AcDbLine
 62
7
  6
CONTINUOUS
 10
175.3126392446
 20
201.699297706
 11
178.8126392446
 21
201.699297706
  0
LINE
  5
246
100
AcDbEntity
  8
0
100
AcDbLine
 62
7
  6
CONTINUOUS
 10
201.3636607733
 20
201.7708098214
 11
198.6636607733
 21
201.7708098214
  0
LINE
  5
247
100
AcDbEntity
  8
KONSTRUKTIONSELEMENTE
100
AcDbLine
 62
7
  6
CONTINUOUS
 10
158.8126392446
 20
201.9542985259
 11
159.8126392446
 21
201.9542985259
  0
LINE
  5
248
100
AcDbEntity
  8
KONSTRUKTIONSELEMENTE
100
AcDbLine
 62
7
  6
CONTINUOUS
 10
163.3126392446
 20
201.9542985259
 11
164.3126392446
 21
201.9542985259
  0
LINE
  5
249
100
AcDbEntity
  8
KONSTRUKTIONSELEMENTE
100
AcDbLine
 62
7
  6
CONTINUOUS
 10
167.8126392446
 20
201.9542985259
 11
168.8126392446
 21
201.9542985259
  0
LINE
  5
24A
100
AcDbEntity
  8
KONSTRUKTIONSELEMENTE
100
AcDbLine
 62
7
  6
CONTINUOUS
 10
174.3126392446
 20
201.9542985259
 11
175.3126392446
 21
201.9542985259
  0
LINE
  5
24B
100
AcDbEntity
  8
KONSTRUKTIONSELEMENTE
100
AcDbLine
 62
7
  6
CONTINUOUS
 10
178.8126392446
 20
201.9542985259
 11
179.5626385996
 21
201.9542985259
  0
LINE
  5
24C
100
AcDbEntity
  8
KONSTRUKTIONSELEMENTE
100
AcDbLine
 62
7
  6
CONTINUOUS
 10
183.0626385996
 20
201.9542985259
 11
184.3126392446
 21
201.9542985259
  0
LINE
  5
24D
100
AcDbEntity
  8
KONSTRUKTIONSELEMENTE
100
AcDbLine
 62
7
  6
CONTINUOUS
 10
181.0520003328
 20
201.9576689729
 11
181.5732768664
 21
201.9576689729
  0
LINE
  5
24E
100
AcDbEntity
  8
KONSTRUKTIONSELEMENTE
100
AcDbLine
 62
7
  6
CONTINUOUS
 10
180.9775322565
 20
202.0713337312
 11
181.6477449426
 21
202.0713337312
  0
LINE
  5
24F
100
AcDbEntity
  8
KONSTRUKTIONSELEMENTE
100
AcDbLine
 62
7
  6
CONTINUOUS
 10
165.1317880831
 20
202.0900046398
 11
165.3551925204
 21
202.0900046398
  0
LINE
  5
250
100
AcDbEntity
  8
KONSTRUKTIONSELEMENTE
100
AcDbLine
 62
7
  6
CONTINUOUS
 10
159.8126392446
 20
202.1977436692
 11
162.1211499206
 21
202.1977436692
  0
LINE
  5
251
100
AcDbEntity
  8
KONSTRUKTIONSELEMENTE
100
AcDbLine
 62
7
  6
CONTINUOUS
 10
165.1317880831
 20
202.212283739
 11
165.4296605966
 21
202.212283739
  0
LINE
  5
252
100
AcDbEntity
  8
KONSTRUKTIONSELEMENTE
100
AcDbLine
 62
7
  6
CONTINUOUS
 10
180.9775322565
 20
202.2339851878
 11
181.6477449426
 21
202.2339851878
  0
LINE
  5
253
100
AcDbEntity
  8
KONSTRUKTIONSELEMENTE
100
AcDbLine
 62
7
  6
CONTINUOUS
 10
159.8126392446
 20
202.3086293246
 11
162.1211499206
 21
202.3086293246
  0
LINE
  5
254
100
AcDbEntity
  8
KONSTRUKTIONSELEMENTE
100
AcDbLine
 62
7
  6
CONTINUOUS
 10
181.0520003328
 20
202.3239114846
 11
181.5732768664
 21
202.3239114846
  0
LINE
  5
255
100
AcDbEntity
  8
KONSTRUKTIONSELEMENTE
100
AcDbLine
 62
7
  6
CONTINUOUS
 10
159.8126392446
 20
202.436662917
 11
163.3126392446
 21
202.436662917
  0
LINE
  5
256
100
AcDbEntity
  8
KONSTRUKTIONSELEMENTE
100
AcDbLine
 62
7
  6
CONTINUOUS
 10
156.5626392446
 20
202.4542985259
 11
158.8126392446
 21
202.4542985259
  0
LINE
  5
257
100
AcDbEntity
  8
KONSTRUKTIONSELEMENTE
100
AcDbLine
 62
7
  6
CONTINUOUS
 10
168.8126392446
 20
202.4542985259
 11
174.3126392446
 21
202.4542985259
  0
LINE
  5
258
100
AcDbEntity
  8
KONSTRUKTIONSELEMENTE
100
AcDbLine
 62
7
  6
CONTINUOUS
 10
184.3126392446
 20
202.4542985259
 11
186.5626392446
 21
202.4542985259
  0
LINE
  5
259
100
AcDbEntity
  8
KONSTRUKTIONSELEMENTE
100
AcDbLine
 62
7
  6
CONTINUOUS
 10
175.3126392446
 20
202.5120069552
 11
178.8126392446
 21
202.5120069552
  0
LINE
  5
25A
100
AcDbEntity
  8
KONSTRUKTIONSELEMENTE
100
AcDbLine
 62
7
  6
CONTINUOUS
 10
160.2594477019
 20
202.5181238044
 11
162.865830735
 21
202.5181238044
  0
LINE
  5
25B
100
AcDbEntity
  8
KONSTRUKTIONSELEMENTE
100
AcDbLine
 62
7
  6
CONTINUOUS
 10
175.3126392446
 20
202.5821810202
 11
178.365830735
 21
202.5821810202
  0
LINE
  5
25C
100
AcDbEntity
  8
KONSTRUKTIONSELEMENTE
100
AcDbLine
 62
7
  6
CONTINUOUS
 10
181.0520003328
 20
202.6517980721
 11
181.5732768664
 21
202.6517980721
  0
LINE
  5
25D
100
AcDbEntity
  8
KONSTRUKTIONSELEMENTE
100
AcDbLine
 62
7
  6
CONTINUOUS
 10
180.9775322565
 20
202.6887333693
 11
181.6477449426
 21
202.6887333693
  0
LINE
  5
25E
100
AcDbEntity
  8
KONSTRUKTIONSELEMENTE
100
AcDbLine
 62
7
  6
CONTINUOUS
 10
180.9775322565
 20
202.730678346
 11
181.6477449426
 21
202.730678346
  0
LINE
  5
25F
100
AcDbEntity
  8
KONSTRUKTIONSELEMENTE
100
AcDbLine
 62
7
  6
CONTINUOUS
 10
161.0041286728
 20
202.7382548979
 11
162.1211499206
 21
202.7382548979
  0
LINE
  5
260
100
AcDbEntity
  8
KONSTRUKTIONSELEMENTE
100
AcDbLine
 62
7
  6
CONTINUOUS
 10
181.0520003328
 20
202.7462362885
 11
181.5732768664
 21
202.7462362885
  0
LINE
  5
261
100
AcDbEntity
  8
KONSTRUKTIONSELEMENTE
100
AcDbLine
 62
7
  6
CONTINUOUS
 10
176.5041286728
 20
202.7491831169
 11
177.6211499206
 21
202.7491831169
  0
LINE
  5
262
100
AcDbEntity
  8
KONSTRUKTIONSELEMENTE
100
AcDbLine
 62
7
  6
CONTINUOUS
 10
161.0041286728
 20
202.7517975851
 11
162.1211499206
 21
202.7517975851
  0
LINE
  5
263
100
AcDbEntity
  8
KONSTRUKTIONSELEMENTE
100
AcDbLine
 62
7
  6
CONTINUOUS
 10
178.365830735
 20
202.7533590817
 11
178.8126392446
 21
202.7533590817
  0
LINE
  5
264
100
AcDbEntity
  8
0
100
AcDbLine
 62
7
  6
CONTINUOUS
 10
198.6636607733
 20
203.5708098214
 11
201.3636607733
 21
203.5708098214
  0
LINE
  5
265
100
AcDbEntity
  8
KONSTRUKTIONSELEMENTE
100
AcDbLine
 62
7
  6
CONTINUOUS
 10
179.6367341144
 20
202.7542985245
 11
179.6371066758
 21
202.754298379
  0
LINE
  5
266
100
AcDbEntity
  8
KONSTRUKTIONSELEMENTE
100
AcDbLine
 62
7
  6
CONTINUOUS
 10
158.8126392446
 20
202.4540280509
 11
158.8126392446
 21
196.5759422164
  0
LINE
  5
267
100
AcDbEntity
  8
KONSTRUKTIONSELEMENTE
100
AcDbLine
 62
7
  6
CONTINUOUS
 10
159.8126392446
 20
202.6894807153
 11
159.8126392446
 21
198.4917735852
  0
LINE
  5
268
100
AcDbEntity
  8
KONSTRUKTIONSELEMENTE
100
AcDbLine
 62
7
  6
CONTINUOUS
 10
160.1849796257
 20
200.688701084
 11
160.1849796257
 21
199.8219274986
  0
LINE
  5
269
100
AcDbEntity
  8
KONSTRUKTIONSELEMENTE
100
AcDbLine
 62
7
  6
CONTINUOUS
 10
160.2594477019
 20
202.6894807153
 11
160.2594477019
 21
202.5181238044
  0
LINE
  5
26A
100
AcDbEntity
  8
KONSTRUKTIONSELEMENTE
100
AcDbLine
 62
7
  6
CONTINUOUS
 10
160.2594477019
 20
200.8085623876
 11
160.2594477019
 21
199.8932304407
  0
LINE
  5
26B
100
AcDbEntity
  8
KONSTRUKTIONSELEMENTE
100
AcDbLine
 62
7
  6
CONTINUOUS
 10
160.3339157782
 20
202.7129326065
 11
160.3339157782
 21
202.5181238044
  0
LINE
  5
26C
100
AcDbEntity
  8
KONSTRUKTIONSELEMENTE
100
AcDbLine
 62
7
  6
CONTINUOUS
 10
160.4083838544
 20
200.8860750467
 11
160.4083838544
 21
199.9759912286
  0
LINE
  5
26D
100
AcDbEntity
  8
KONSTRUKTIONSELEMENTE
100
AcDbLine
 62
7
  6
CONTINUOUS
 10
160.4828519306
 20
202.7270690401
 11
160.4828519306
 21
202.5181238044
  0
LINE
  5
26E
100
AcDbEntity
  8
KONSTRUKTIONSELEMENTE
100
AcDbLine
 62
7
  6
CONTINUOUS
 10
160.6317880831
 20
200.9241244651
 11
160.6317880831
 21
200.0165941543
  0
LINE
  5
26F
100
AcDbEntity
  8
KONSTRUKTIONSELEMENTE
100
AcDbLine
 62
7
  6
CONTINUOUS
 10
160.7062563679
 20
202.7348537256
 11
160.7062563679
 21
202.5181238044
  0
LINE
  5
270
100
AcDbEntity
  8
KONSTRUKTIONSELEMENTE
100
AcDbLine
 62
7
  6
CONTINUOUS
 10
160.8551925204
 20
200.9241244651
 11
160.8551925204
 21
200.0165941543
  0
LINE
  5
271
100
AcDbEntity
  8
KONSTRUKTIONSELEMENTE
100
AcDbLine
 62
7
  6
CONTINUOUS
 10
161.0041286728
 20
202.7382548979
 11
161.0041286728
 21
202.5181238044
  0
LINE
  5
272
100
AcDbEntity
  8
KONSTRUKTIONSELEMENTE
100
AcDbLine
 62
7
  6
CONTINUOUS
 10
161.0785967491
 20
200.8860750467
 11
161.0785967491
 21
199.9759912286
  0
LINE
  5
273
100
AcDbEntity
  8
KONSTRUKTIONSELEMENTE
100
AcDbLine
 62
7
  6
CONTINUOUS
 10
161.2275329015
 20
200.8085623876
 11
161.2275329015
 21
199.8932304407
  0
LINE
  5
274
100
AcDbEntity
  8
KONSTRUKTIONSELEMENTE
100
AcDbLine
 62
7
  6
CONTINUOUS
 10
161.3020009778
 20
200.688701084
 11
161.3020009778
 21
199.8219274986
  0
LINE
  5
275
100
AcDbEntity
  8
0
100
AcDbLine
 62
7
  6
CONTINUOUS
 10
201.3636607733
 20
204.4708098214
 11
198.6636607733
 21
204.4708098214
  0
LINE
  5
276
100
AcDbEntity
  8
BEZUGSACHSEN
100
AcDbLine
 62
7
  6
CONTINUOUS
 10
188.5626392446
 20
204.9542985259
 11
183.139078203
 21
204.9542985259
  0
LINE
  5
277
100
AcDbEntity
  8
RUNDUNGEN
100
AcDbLine
 62
7
  6
CONTINUOUS
 10
154.5626392446
 20
204.9542985259
 11
159.9862002861
 21
204.9542985259
  0
LINE
  5
278
100
AcDbEntity
  8
KONSTRUKTIONSELEMENTE
100
AcDbLine
 62
7
  6
CONTINUOUS
 10
161.7488094351
 20
200.6063513262
 11
161.7488094351
 21
199.8219274986
  0
LINE
  5
279
100
AcDbEntity
  8
KONSTRUKTIONSELEMENTE
100
AcDbLine
 62
7
  6
CONTINUOUS
 10
162.1211499206
 20
202.7382548979
 11
162.1211499206
 21
202.5181238044
  0
LINE
  5
27A
100
AcDbEntity
  8
KONSTRUKTIONSELEMENTE
100
AcDbLine
 62
7
  6
CONTINUOUS
 10
162.1211499206
 20
202.1977436692
 11
162.1211499206
 21
201.6204773329
  0
LINE
  5
27B
100
AcDbEntity
  8
KONSTRUKTIONSELEMENTE
100
AcDbLine
 62
7
  6
CONTINUOUS
 10
162.1211499206
 20
201.440798262
 11
162.1211499206
 21
200.9517487127
  0
LINE
  5
27C
100
AcDbEntity
  8
KONSTRUKTIONSELEMENTE
100
AcDbLine
 62
7
  6
CONTINUOUS
 10
162.4190222255
 20
202.7348537256
 11
162.4190222255
 21
202.5181238044
  0
LINE
  5
27D
100
AcDbEntity
  8
KONSTRUKTIONSELEMENTE
100
AcDbLine
 62
7
  6
CONTINUOUS
 10
162.4190222255
 20
202.1780032173
 11
162.4190222255
 21
201.6489925189
  0
LINE
  5
27E
100
AcDbEntity
  8
KONSTRUKTIONSELEMENTE
100
AcDbLine
 62
7
  6
CONTINUOUS
 10
162.4934903017
 20
201.4717792545
 11
162.4934903017
 21
201.0242724802
  0
LINE
  5
27F
100
AcDbEntity
  8
KONSTRUKTIONSELEMENTE
100
AcDbLine
 62
7
  6
CONTINUOUS
 10
162.6424264542
 20
202.7270690401
 11
162.6424264542
 21
202.5181238044
  0
LINE
  5
280
100
AcDbEntity
  8
KONSTRUKTIONSELEMENTE
100
AcDbLine
 62
7
  6
CONTINUOUS
 10
162.6424264542
 20
202.137430874
 11
162.6424264542
 21
201.7048174094
  0
LINE
  5
281
100
AcDbEntity
  8
KONSTRUKTIONSELEMENTE
100
AcDbLine
 62
7
  6
CONTINUOUS
 10
162.7913626588
 20
202.7129326065
 11
162.7913626588
 21
202.5181238044
  0
LINE
  5
282
100
AcDbEntity
  8
KONSTRUKTIONSELEMENTE
100
AcDbLine
 62
7
  6
CONTINUOUS
 10
162.7913626588
 20
202.0738219625
 11
162.7913626588
 21
201.7855727619
  0
LINE
  5
283
100
AcDbEntity
  8
KONSTRUKTIONSELEMENTE
100
AcDbLine
 62
7
  6
CONTINUOUS
 10
162.7913626588
 20
201.532492379
 11
162.7913626588
 21
201.0808711251
  0
LINE
  5
284
100
AcDbEntity
  8
KONSTRUKTIONSELEMENTE
100
AcDbLine
 62
7
  6
CONTINUOUS
 10
162.865830735
 20
202.6894807153
 11
162.865830735
 21
202.5181238044
  0
LINE
  5
285
100
AcDbEntity
  8
KONSTRUKTIONSELEMENTE
100
AcDbLine
 62
7
  6
CONTINUOUS
 10
162.865830735
 20
201.9838124377
 11
162.865830735
 21
201.8877671326
  0
LINE
  5
286
100
AcDbEntity
  8
KONSTRUKTIONSELEMENTE
100
AcDbLine
 62
7
  6
CONTINUOUS
 10
163.0892349898
 20
201.6489925189
 11
163.0892349898
 21
201.1363520802
  0
LINE
  5
287
100
AcDbEntity
  8
KONSTRUKTIONSELEMENTE
100
AcDbLine
 62
7
  6
CONTINUOUS
 10
163.2381711618
 20
201.7590490082
 11
163.2381711618
 21
201.1638585462
  0
LINE
  5
288
100
AcDbEntity
  8
KONSTRUKTIONSELEMENTE
100
AcDbLine
 62
7
  6
CONTINUOUS
 10
163.3126392446
 20
202.6894807153
 11
163.3126392446
 21
200.0165941543
  0
LINE
  5
289
100
AcDbEntity
  8
KONSTRUKTIONSELEMENTE
100
AcDbLine
 62
7
  6
CONTINUOUS
 10
163.3126392446
 20
199.8219274986
 11
163.3126392446
 21
198.4917735852
  0
LINE
  5
28A
100
AcDbEntity
  8
KONSTRUKTIONSELEMENTE
100
AcDbLine
 62
7
  6
CONTINUOUS
 10
164.3126392446
 20
202.7459184979
 11
164.3126392446
 21
200.3504537721
  0
LINE
  5
28B
100
AcDbEntity
  8
KONSTRUKTIONSELEMENTE
100
AcDbLine
 62
7
  6
CONTINUOUS
 10
164.3126392446
 20
199.600193163
 11
164.3126392446
 21
198.2335428676
  0
LINE
  5
28C
100
AcDbEntity
  8
KONSTRUKTIONSELEMENTE
100
AcDbLine
 62
7
  6
CONTINUOUS
 10
164.6849796257
 20
201.9544179087
 11
164.6849796257
 21
201.4329428159
  0
LINE
  5
28D
100
AcDbEntity
  8
KONSTRUKTIONSELEMENTE
100
AcDbLine
 62
7
  6
CONTINUOUS
 10
164.7594477019
 20
202.0238956576
 11
164.7594477019
 21
201.4329428159
  0
LINE
  5
28E
100
AcDbEntity
  8
KONSTRUKTIONSELEMENTE
100
AcDbLine
 62
7
  6
CONTINUOUS
 10
164.9083838544
 20
202.0683398919
 11
164.9083838544
 21
201.4329428159
  0
LINE
  5
28F
100
AcDbEntity
  8
KONSTRUKTIONSELEMENTE
100
AcDbLine
 62
7
  6
CONTINUOUS
 10
165.1317880831
 20
202.0900046398
 11
165.1317880831
 21
201.4329428159
  0
LINE
  5
290
100
AcDbEntity
  8
0
100
AcDbLine
 62
7
  6
CONTINUOUS
 10
196.8636607733
 20
208.2208098214
 11
198.7436607733
 21
208.2208098214
  0
LINE
  5
291
100
AcDbEntity
  8
0
100
AcDbLine
 62
7
  6
CONTINUOUS
 10
199.4936607733
 20
208.2208098214
 11
200.1636607733
 21
208.2208098214
  0
LINE
  5
292
100
AcDbEntity
  8
0
100
AcDbLine
 62
7
  6
CONTINUOUS
 10
201.3636607733
 20
208.9708098214
 11
200.6136607733
 21
208.9708098214
  0
LINE
  5
293
100
AcDbEntity
  8
0
100
AcDbLine
 62
7
  6
CONTINUOUS
 10
200.1636607733
 20
208.9708098214
 11
196.8636607733
 21
208.9708098214
  0
LINE
  5
294
100
AcDbEntity
  8
KONSTRUKTIONSELEMENTE
100
AcDbLine
 62
7
  6
CONTINUOUS
 10
165.3551925204
 20
202.0900046398
 11
165.3551925204
 21
201.4329428159
  0
LINE
  5
295
100
AcDbEntity
  8
KONSTRUKTIONSELEMENTE
100
AcDbLine
 62
7
  6
CONTINUOUS
 10
165.5785967491
 20
202.0683398919
 11
165.5785967491
 21
201.4329428159
  0
LINE
  5
296
100
AcDbEntity
  8
KONSTRUKTIONSELEMENTE
100
AcDbLine
 62
7
  6
CONTINUOUS
 10
165.7275329015
 20
202.0238956576
 11
165.7275329015
 21
201.4329428159
  0
LINE
  5
297
100
AcDbEntity
  8
KONSTRUKTIONSELEMENTE
100
AcDbLine
 62
7
  6
CONTINUOUS
 10
165.8020009778
 20
201.9544179087
 11
165.8020009778
 21
201.4329428159
  0
LINE
  5
298
100
AcDbEntity
  8
KONSTRUKTIONSELEMENTE
100
AcDbLine
 62
7
  6
CONTINUOUS
 10
166.2488094351
 20
201.9305022198
 11
166.2488094351
 21
201.4329428159
  0
LINE
  5
299
100
AcDbEntity
  8
KONSTRUKTIONSELEMENTE
100
AcDbLine
 62
7
  6
CONTINUOUS
 10
167.365830735
 20
200.952301873
 11
167.365830735
 21
199.600193163
  0
LINE
  5
29A
100
AcDbEntity
  8
KONSTRUKTIONSELEMENTE
100
AcDbLine
 62
7
  6
CONTINUOUS
 10
167.8126392446
 20
202.740586819
 11
167.8126392446
 21
201.6608546118
  0
LINE
  5
29B
100
AcDbEntity
  8
KONSTRUKTIONSELEMENTE
100
AcDbLine
 62
7
  6
CONTINUOUS
 10
167.8126392446
 20
201.4329428159
 11
167.8126392446
 21
198.2335428676
  0
LINE
  5
29C
100
AcDbEntity
  8
KONSTRUKTIONSELEMENTE
100
AcDbLine
 62
7
  6
CONTINUOUS
 10
168.8126392446
 20
202.4540280509
 11
168.8126392446
 21
196.5759422164
  0
LINE
  5
29D
100
AcDbEntity
  8
BG_STARTBEZUEGE
100
AcDbLine
 62
7
  6
CENTER
 10
171.5626392446
 20
174.4412683109
 11
171.5626392446
 21
260.2042985259
  0
LINE
  5
29E
100
AcDbEntity
  8
KONSTRUKTIONSELEMENTE
100
AcDbLine
 62
7
  6
CONTINUOUS
 10
174.3126392446
 20
202.4540280509
 11
174.3126392446
 21
196.5759422164
  0
LINE
  5
29F
100
AcDbEntity
  8
KONSTRUKTIONSELEMENTE
100
AcDbLine
 62
7
  6
CONTINUOUS
 10
175.3126392446
 20
202.6780272897
 11
175.3126392446
 21
201.699297706
  0
LINE
  5
2A0
100
AcDbEntity
  8
KONSTRUKTIONSELEMENTE
100
AcDbLine
 62
7
  6
CONTINUOUS
 10
175.3871073208
 20
202.7092944089
 11
175.3871073208
 21
202.5821810202
  0
LINE
  5
2A1
100
AcDbEntity
  8
KONSTRUKTIONSELEMENTE
100
AcDbLine
 62
7
  6
CONTINUOUS
 10
175.5360434732
 20
202.7283852419
 11
175.5360434732
 21
202.5821810202
  0
LINE
  5
2A2
100
AcDbEntity
  8
KONSTRUKTIONSELEMENTE
100
AcDbLine
 62
7
  6
CONTINUOUS
 10
175.8339157782
 20
202.7422316792
 11
175.8339157782
 21
202.5821810202
  0
LINE
  5
2A3
100
AcDbEntity
  8
KONSTRUKTIONSELEMENTE
100
AcDbLine
 62
7
  6
CONTINUOUS
 10
176.1317880831
 20
202.7471926346
 11
176.1317880831
 21
202.5821810202
  0
LINE
  5
2A4
100
AcDbEntity
  8
KONSTRUKTIONSELEMENTE
100
AcDbLine
 62
7
  6
CONTINUOUS
 10
176.5041286728
 20
202.7491831169
 11
176.5041286728
 21
202.5821810202
  0
LINE
  5
2A5
100
AcDbEntity
  8
KONSTRUKTIONSELEMENTE
100
AcDbLine
 62
7
  6
CONTINUOUS
 10
177.6211499206
 20
202.7491831169
 11
177.6211499206
 21
202.5821810202
  0
LINE
  5
2A6
100
AcDbEntity
  8
KONSTRUKTIONSELEMENTE
100
AcDbLine
 62
7
  6
CONTINUOUS
 10
177.9934903017
 20
202.7471926346
 11
177.9934903017
 21
202.5821810202
  0
LINE
  5
2A7
100
AcDbEntity
  8
KONSTRUKTIONSELEMENTE
100
AcDbLine
 62
7
  6
CONTINUOUS
 10
178.2913626588
 20
202.7422316792
 11
178.2913626588
 21
202.5821810202
  0
LINE
  5
2A8
100
AcDbEntity
  8
KONSTRUKTIONSELEMENTE
100
AcDbLine
 62
7
  6
CONTINUOUS
 10
178.365830735
 20
202.7533590817
 11
178.365830735
 21
202.5821810202
  0
LINE
  5
2A9
100
AcDbEntity
  8
KONSTRUKTIONSELEMENTE
100
AcDbLine
 62
7
  6
CONTINUOUS
 10
178.8126392446
 20
202.7533590817
 11
178.8126392446
 21
201.699297706
  0
LINE
  5
2AA
100
AcDbEntity
  8
KONSTRUKTIONSELEMENTE
100
AcDbLine
 62
7
  6
CONTINUOUS
 10
179.5626385996
 20
202.7484847296
 11
179.5626385996
 21
201.7042279507
  0
LINE
  5
2AB
100
AcDbEntity
  8
KONSTRUKTIONSELEMENTE
100
AcDbLine
 62
7
  6
CONTINUOUS
 10
179.5626385996
 20
201.6171935907
 11
179.5626385996
 21
200.7537176311
  0
LINE
  5
2AC
100
AcDbEntity
  8
KONSTRUKTIONSELEMENTE
100
AcDbLine
 62
7
  6
CONTINUOUS
 10
179.5626385996
 20
199.9663105516
 11
179.5626385996
 21
198.8822565981
  0
LINE
  5
2AD
100
AcDbEntity
  8
KONSTRUKTIONSELEMENTE
100
AcDbLine
 62
7
  6
CONTINUOUS
 10
179.6371066758
 20
202.754298379
 11
179.6371066758
 21
202.5861098223
  0
LINE
  5
2AE
100
AcDbEntity
  8
KONSTRUKTIONSELEMENTE
100
AcDbLine
 62
7
  6
CONTINUOUS
 10
179.6371066758
 20
202.4349914621
 11
179.6371066758
 21
201.7825621762
  0
LINE
  5
2AF
100
AcDbEntity
  8
KONSTRUKTIONSELEMENTE
100
AcDbLine
 62
7
  6
CONTINUOUS
 10
179.6371066758
 20
201.4372319656
 11
179.6371066758
 21
200.5627461535
  0
LINE
  5
2B0
100
AcDbEntity
  8
KONSTRUKTIONSELEMENTE
100
AcDbLine
 62
7
  6
CONTINUOUS
 10
179.6371066758
 20
199.4995290988
 11
179.6371066758
 21
198.4850109197
  0
LINE
  5
2B1
100
AcDbEntity
  8
KONSTRUKTIONSELEMENTE
100
AcDbLine
 62
7
  6
CONTINUOUS
 10
179.7860428283
 20
199.2758445364
 11
179.7860428283
 21
198.2420906049
  0
LINE
  5
2B2
100
AcDbEntity
  8
KONSTRUKTIONSELEMENTE
100
AcDbLine
 62
7
  6
CONTINUOUS
 10
179.8605109045
 20
202.7501715648
 11
179.8605109045
 21
202.6347002757
  0
LINE
  5
2B3
100
AcDbEntity
  8
KONSTRUKTIONSELEMENTE
100
AcDbLine
 62
7
  6
CONTINUOUS
 10
179.8605109045
 20
202.3573995091
 11
179.8605109045
 21
201.9095611577
  0
LINE
  5
2B4
100
AcDbEntity
  8
KONSTRUKTIONSELEMENTE
100
AcDbLine
 62
7
  6
CONTINUOUS
 10
179.8605109045
 20
201.2757343502
 11
179.8605109045
 21
200.5171281798
  0
LINE
  5
2B5
100
AcDbEntity
  8
KONSTRUKTIONSELEMENTE
100
AcDbLine
 62
7
  6
CONTINUOUS
 10
179.9349789807
 20
200.0152232779
 11
179.9349789807
 21
199.8161108913
  0
LINE
  5
2B6
100
AcDbEntity
  8
KONSTRUKTIONSELEMENTE
100
AcDbLine
 62
7
  6
CONTINUOUS
 10
180.009447057
 20
202.5753848169
 11
180.009447057
 21
202.4494676258
  0
LINE
  5
2B7
100
AcDbEntity
  8
KONSTRUKTIONSELEMENTE
100
AcDbLine
 62
7
  6
CONTINUOUS
 10
180.009447057
 20
201.7559936573
 11
180.009447057
 21
201.4682607769
  0
LINE
  5
2B8
100
AcDbEntity
  8
KONSTRUKTIONSELEMENTE
100
AcDbLine
 62
7
  6
CONTINUOUS
 10
180.009447057
 20
200.2514082374
 11
180.009447057
 21
199.553838858
  0
LINE
  5
2B9
100
AcDbEntity
  8
KONSTRUKTIONSELEMENTE
100
AcDbLine
 62
7
  6
CONTINUOUS
 10
180.0839151332
 20
202.7437786792
 11
180.0839151332
 21
202.6598480348
  0
LINE
  5
2BA
100
AcDbEntity
  8
KONSTRUKTIONSELEMENTE
100
AcDbLine
 62
7
  6
CONTINUOUS
 10
180.0839151332
 20
202.3066378068
 11
180.0839151332
 21
201.9811534198
  0
LINE
  5
2BB
100
AcDbEntity
  8
KONSTRUKTIONSELEMENTE
100
AcDbLine
 62
7
  6
CONTINUOUS
 10
180.0839151332
 20
201.1736515659
 11
180.0839151332
 21
200.6430658055
  0
LINE
  5
2BC
100
AcDbEntity
  8
KONSTRUKTIONSELEMENTE
100
AcDbLine
 62
7
  6
CONTINUOUS
 10
180.0839151332
 20
199.0414310173
 11
180.0839151332
 21
197.9866835505
  0
LINE
  5
2BD
100
AcDbEntity
  8
KONSTRUKTIONSELEMENTE
100
AcDbLine
 62
7
  6
CONTINUOUS
 10
180.1583832094
 20
202.6065511105
 11
180.1583832094
 21
202.4050001018
  0
LINE
  5
2BE
100
AcDbEntity
  8
KONSTRUKTIONSELEMENTE
100
AcDbLine
 62
7
  6
CONTINUOUS
 10
180.1583832094
 20
201.8345247927
 11
180.1583832094
 21
201.3739118837
  0
LINE
  5
2BF
100
AcDbEntity
  8
KONSTRUKTIONSELEMENTE
100
AcDbLine
 62
7
  6
CONTINUOUS
 10
180.1583832094
 20
200.3866194509
 11
180.1583832094
 21
199.4415833213
  0
LINE
  5
2C0
100
AcDbEntity
  8
KONSTRUKTIONSELEMENTE
100
AcDbLine
 62
7
  6
CONTINUOUS
 10
180.3817874381
 20
202.7378828914
 11
180.3817874381
 21
202.6749527496
  0
LINE
  5
2C1
100
AcDbEntity
  8
KONSTRUKTIONSELEMENTE
100
AcDbLine
 62
7
  6
CONTINUOUS
 10
180.3817874381
 20
202.2710255335
 11
180.3817874381
 21
202.026991712
  0
LINE
  5
2C2
100
AcDbEntity
  8
KONSTRUKTIONSELEMENTE
100
AcDbLine
 62
7
  6
CONTINUOUS
 10
180.3817874381
 20
201.1033865703
 11
180.3817874381
 21
200.6840499762
  0
LINE
  5
2C3
100
AcDbEntity
  8
KONSTRUKTIONSELEMENTE
100
AcDbLine
 62
7
  6
CONTINUOUS
 10
180.3817874381
 20
200.4741399095
 11
180.3817874381
 21
199.5354281569
  0
LINE
  5
2C4
100
AcDbEntity
  8
KONSTRUKTIONSELEMENTE
100
AcDbLine
 62
7
  6
CONTINUOUS
 10
180.3817874381
 20
199.2758445364
 11
180.3817874381
 21
197.9207838485
  0
LINE
  5
2C5
100
AcDbEntity
  8
KONSTRUKTIONSELEMENTE
100
AcDbLine
 62
7
  6
CONTINUOUS
 10
180.5307237992
 20
200.4741399095
 11
180.5307237992
 21
199.5354281569
  0
LINE
  5
2C6
100
AcDbEntity
  8
KONSTRUKTIONSELEMENTE
100
AcDbLine
 62
7
  6
CONTINUOUS
 10
180.6051918754
 20
202.7344442902
 11
180.6051918754
 21
202.6820083417
  0
LINE
  5
2C7
100
AcDbEntity
  8
KONSTRUKTIONSELEMENTE
100
AcDbLine
 62
7
  6
CONTINUOUS
 10
180.6051918754
 20
202.6434155939
 11
180.6051918754
 21
202.3408317073
  0
LINE
  5
2C8
100
AcDbEntity
  8
KONSTRUKTIONSELEMENTE
100
AcDbLine
 62
7
  6
CONTINUOUS
 10
180.6051918754
 20
202.2526844354
 11
180.6051918754
 21
202.0493490114
  0
LINE
  5
2C9
100
AcDbEntity
  8
KONSTRUKTIONSELEMENTE
100
AcDbLine
 62
7
  6
CONTINUOUS
 10
180.6051918754
 20
201.9338054243
 11
180.6051918754
 21
201.2421445379
  0
LINE
  5
2CA
100
AcDbEntity
  8
KONSTRUKTIONSELEMENTE
100
AcDbLine
 62
7
  6
CONTINUOUS
 10
180.6051918754
 20
201.0675816892
 11
180.6051918754
 21
200.6738500281
  0
LINE
  5
2CB
100
AcDbEntity
  8
KONSTRUKTIONSELEMENTE
100
AcDbLine
 62
7
  6
CONTINUOUS
 10
180.8285961041
 20
200.3866194509
 11
180.8285961041
 21
199.4415833213
  0
LINE
  5
2CC
100
AcDbEntity
  8
KONSTRUKTIONSELEMENTE
100
AcDbLine
 62
7
  6
CONTINUOUS
 10
180.9775322565
 20
202.730678346
 11
180.9775322565
 21
202.6887333693
  0
LINE
  5
2CD
100
AcDbEntity
  8
KONSTRUKTIONSELEMENTE
100
AcDbLine
 62
7
  6
CONTINUOUS
 10
180.9775322565
 20
202.2339851878
 11
180.9775322565
 21
202.0713337312
  0
LINE
  5
2CE
100
AcDbEntity
  8
KONSTRUKTIONSELEMENTE
100
AcDbLine
 62
7
  6
CONTINUOUS
 10
180.9775322565
 20
201.0313241289
 11
180.9775322565
 21
200.5876364897
  0
LINE
  5
2CF
100
AcDbEntity
  8
KONSTRUKTIONSELEMENTE
100
AcDbLine
 62
7
  6
CONTINUOUS
 10
180.9775322565
 20
200.2970095725
 11
180.9775322565
 21
199.3454058919
  0
LINE
  5
2D0
100
AcDbEntity
  8
KONSTRUKTIONSELEMENTE
100
AcDbLine
 62
7
  6
CONTINUOUS
 10
181.0520003328
 20
202.6517980721
 11
181.0520003328
 21
202.3239114846
  0
LINE
  5
2D1
100
AcDbEntity
  8
KONSTRUKTIONSELEMENTE
100
AcDbLine
 62
7
  6
CONTINUOUS
 10
181.0520003328
 20
201.9576689729
 11
181.0520003328
 21
201.2081180827
  0
LINE
  5
2D2
100
AcDbEntity
  8
KONSTRUKTIONSELEMENTE
100
AcDbLine
 62
7
  6
CONTINUOUS
 10
181.126468409
 20
200.0152232779
 11
181.126468409
 21
198.8275773835
  0
LINE
  5
2D3
100
AcDbEntity
  8
KONSTRUKTIONSELEMENTE
100
AcDbLine
 62
7
  6
CONTINUOUS
 10
181.4243407139
 20
200.0152232779
 11
181.4243407139
 21
198.8275773835
  0
LINE
  5
2D4
100
AcDbEntity
  8
KONSTRUKTIONSELEMENTE
100
AcDbLine
 62
7
  6
CONTINUOUS
 10
181.4988087902
 20
200.2970095725
 11
181.4988087902
 21
199.3454058919
  0
LINE
  5
2D5
100
AcDbEntity
  8
KONSTRUKTIONSELEMENTE
100
AcDbLine
 62
7
  6
CONTINUOUS
 10
181.5732768664
 20
202.6517980721
 11
181.5732768664
 21
202.3239114846
  0
LINE
  5
2D6
100
AcDbEntity
  8
KONSTRUKTIONSELEMENTE
100
AcDbLine
 62
7
  6
CONTINUOUS
 10
181.5732768664
 20
201.9576689729
 11
181.5732768664
 21
201.2081180827
  0
LINE
  5
2D7
100
AcDbEntity
  8
KONSTRUKTIONSELEMENTE
100
AcDbLine
 62
7
  6
CONTINUOUS
 10
181.6477449426
 20
202.730678346
 11
181.6477449426
 21
202.6887333693
  0
LINE
  5
2D8
100
AcDbEntity
  8
KONSTRUKTIONSELEMENTE
100
AcDbLine
 62
7
  6
CONTINUOUS
 10
181.6477449426
 20
202.2339851878
 11
181.6477449426
 21
202.0713337312
  0
LINE
  5
2D9
100
AcDbEntity
  8
KONSTRUKTIONSELEMENTE
100
AcDbLine
 62
7
  6
CONTINUOUS
 10
181.6477449426
 20
201.0313241289
 11
181.6477449426
 21
200.6840499762
  0
LINE
  5
2DA
100
AcDbEntity
  8
KONSTRUKTIONSELEMENTE
100
AcDbLine
 62
7
  6
CONTINUOUS
 10
181.6477449426
 20
200.4306384611
 11
181.6477449426
 21
199.4887942194
  0
LINE
  5
2DB
100
AcDbEntity
  8
KONSTRUKTIONSELEMENTE
100
AcDbLine
 62
7
  6
CONTINUOUS
 10
181.9456173518
 20
200.5171287247
 11
181.9456173518
 21
199.581491417
  0
LINE
  5
2DC
100
AcDbEntity
  8
KONSTRUKTIONSELEMENTE
100
AcDbLine
 62
7
  6
CONTINUOUS
 10
182.0200854281
 20
202.7344442902
 11
182.0200854281
 21
202.6820083417
  0
LINE
  5
2DD
100
AcDbEntity
  8
KONSTRUKTIONSELEMENTE
100
AcDbLine
 62
7
  6
CONTINUOUS
 10
182.0200854281
 20
202.6434155939
 11
182.0200854281
 21
202.3408317073
  0
LINE
  5
2DE
100
AcDbEntity
  8
KONSTRUKTIONSELEMENTE
100
AcDbLine
 62
7
  6
CONTINUOUS
 10
182.0200854281
 20
202.2526844354
 11
182.0200854281
 21
202.0493490114
  0
LINE
  5
2DF
100
AcDbEntity
  8
KONSTRUKTIONSELEMENTE
100
AcDbLine
 62
7
  6
CONTINUOUS
 10
182.0200854281
 20
201.9338054243
 11
182.0200854281
 21
201.2421445379
  0
LINE
  5
2E0
100
AcDbEntity
  8
KONSTRUKTIONSELEMENTE
100
AcDbLine
 62
7
  6
CONTINUOUS
 10
182.0200854281
 20
201.0675816892
 11
182.0200854281
 21
200.7245437499
  0
LINE
  5
2E1
100
AcDbEntity
  8
KONSTRUKTIONSELEMENTE
100
AcDbLine
 62
7
  6
CONTINUOUS
 10
182.2434896568
 20
202.7378828914
 11
182.2434896568
 21
202.6749527496
  0
LINE
  5
2E2
100
AcDbEntity
  8
KONSTRUKTIONSELEMENTE
100
AcDbLine
 62
7
  6
CONTINUOUS
 10
182.2434896568
 20
202.2710255335
 11
182.2434896568
 21
202.026991712
  0
LINE
  5
2E3
100
AcDbEntity
  8
KONSTRUKTIONSELEMENTE
100
AcDbLine
 62
7
  6
CONTINUOUS
 10
182.2434896568
 20
201.1033865703
 11
182.2434896568
 21
200.7245437499
  0
LINE
  5
2E4
100
AcDbEntity
  8
KONSTRUKTIONSELEMENTE
100
AcDbLine
 62
7
  6
CONTINUOUS
 10
182.2434896568
 20
200.5171287247
 11
182.2434896568
 21
199.581491417
  0
LINE
  5
2E5
100
AcDbEntity
  8
KONSTRUKTIONSELEMENTE
100
AcDbLine
 62
7
  6
CONTINUOUS
 10
182.2434896568
 20
199.2182696158
 11
182.2434896568
 21
197.8540368241
  0
LINE
  5
2E6
100
AcDbEntity
  8
KONSTRUKTIONSELEMENTE
100
AcDbLine
 62
7
  6
CONTINUOUS
 10
182.3924258092
 20
200.4741399095
 11
182.3924258092
 21
199.5354281569
  0
LINE
  5
2E7
100
AcDbEntity
  8
KONSTRUKTIONSELEMENTE
100
AcDbLine
 62
7
  6
CONTINUOUS
 10
182.4668939376
 20
202.6065511105
 11
182.4668939376
 21
202.4050001018
  0
LINE
  5
2E8
100
AcDbEntity
  8
KONSTRUKTIONSELEMENTE
100
AcDbLine
 62
7
  6
CONTINUOUS
 10
182.4668939376
 20
201.8345247927
 11
182.4668939376
 21
201.3739118837
  0
LINE
  5
2E9
100
AcDbEntity
  8
KONSTRUKTIONSELEMENTE
100
AcDbLine
 62
7
  6
CONTINUOUS
 10
182.4668939376
 20
198.9810812594
 11
182.4668939376
 21
197.9207838485
  0
LINE
  5
2EA
100
AcDbEntity
  8
KONSTRUKTIONSELEMENTE
100
AcDbLine
 62
7
  6
CONTINUOUS
 10
182.5413620138
 20
202.7437786792
 11
182.5413620138
 21
202.6598480348
  0
LINE
  5
2EB
100
AcDbEntity
  8
KONSTRUKTIONSELEMENTE
100
AcDbLine
 62
7
  6
CONTINUOUS
 10
182.5413620138
 20
202.3066378068
 11
182.5413620138
 21
201.9811534198
  0
LINE
  5
2EC
100
AcDbEntity
  8
KONSTRUKTIONSELEMENTE
100
AcDbLine
 62
7
  6
CONTINUOUS
 10
182.5413620138
 20
201.1736515659
 11
182.5413620138
 21
200.6567682506
  0
LINE
  5
2ED
100
AcDbEntity
  8
KONSTRUKTIONSELEMENTE
100
AcDbLine
 62
7
  6
CONTINUOUS
 10
182.5413620138
 20
200.3866194509
 11
182.5413620138
 21
199.4415833213
  0
LINE
  5
2EE
100
AcDbEntity
  8
KONSTRUKTIONSELEMENTE
100
AcDbLine
 62
7
  6
CONTINUOUS
 10
182.61583009
 20
202.5753848169
 11
182.61583009
 21
202.4494676258
  0
LINE
  5
2EF
100
AcDbEntity
  8
KONSTRUKTIONSELEMENTE
100
AcDbLine
 62
7
  6
CONTINUOUS
 10
182.61583009
 20
201.7559936573
 11
182.61583009
 21
201.4682607769
  0
LINE
  5
2F0
100
AcDbEntity
  8
KONSTRUKTIONSELEMENTE
100
AcDbLine
 62
7
  6
CONTINUOUS
 10
182.61583009
 20
200.2970095725
 11
182.61583009
 21
199.4995290988
  0
LINE
  5
2F1
100
AcDbEntity
  8
KONSTRUKTIONSELEMENTE
100
AcDbLine
 62
7
  6
CONTINUOUS
 10
182.6902981663
 20
200.0635696117
 11
182.6902981663
 21
199.7648688333
  0
LINE
  5
2F2
100
AcDbEntity
  8
KONSTRUKTIONSELEMENTE
100
AcDbLine
 62
7
  6
CONTINUOUS
 10
182.6902981663
 20
199.101072393
 11
182.6902981663
 21
198.0517503687
  0
LINE
  5
2F3
100
AcDbEntity
  8
KONSTRUKTIONSELEMENTE
100
AcDbLine
 62
7
  6
CONTINUOUS
 10
182.7647662686
 20
202.7501715648
 11
182.7647662686
 21
202.6347002757
  0
LINE
  5
2F4
100
AcDbEntity
  8
KONSTRUKTIONSELEMENTE
100
AcDbLine
 62
7
  6
CONTINUOUS
 10
182.7647662686
 20
202.3573995091
 11
182.7647662686
 21
201.9095611577
  0
LINE
  5
2F5
100
AcDbEntity
  8
KONSTRUKTIONSELEMENTE
100
AcDbLine
 62
7
  6
CONTINUOUS
 10
182.7647662686
 20
201.2757343502
 11
182.7647662686
 21
200.5384315748
  0
LINE
  5
2F6
100
AcDbEntity
  8
KONSTRUKTIONSELEMENTE
100
AcDbLine
 62
7
  6
CONTINUOUS
 10
182.8392343448
 20
199.2758445364
 11
182.8392343448
 21
198.2420906049
  0
LINE
  5
2F7
100
AcDbEntity
  8
KONSTRUKTIONSELEMENTE
100
AcDbLine
 62
7
  6
CONTINUOUS
 10
182.9881705168
 20
202.754298379
 11
182.9881705168
 21
202.5861098223
  0
LINE
  5
2F8
100
AcDbEntity
  8
KONSTRUKTIONSELEMENTE
100
AcDbLine
 62
7
  6
CONTINUOUS
 10
182.9881705168
 20
202.4349914621
 11
182.9881705168
 21
201.7825621762
  0
LINE
  5
2F9
100
AcDbEntity
  8
KONSTRUKTIONSELEMENTE
100
AcDbLine
 62
7
  6
CONTINUOUS
 10
182.9881705168
 20
201.4372319656
 11
182.9881705168
 21
200.5627461535
  0
LINE
  5
2FA
100
AcDbEntity
  8
KONSTRUKTIONSELEMENTE
100
AcDbLine
 62
7
  6
CONTINUOUS
 10
182.9881705168
 20
199.4995290988
 11
182.9881705168
 21
198.4850109197
  0
LINE
  5
2FB
100
AcDbEntity
  8
KONSTRUKTIONSELEMENTE
100
AcDbLine
 62
7
  6
CONTINUOUS
 10
183.0626385996
 20
202.7484847296
 11
183.0626385996
 21
201.7042279507
  0
LINE
  5
2FC
100
AcDbEntity
  8
KONSTRUKTIONSELEMENTE
100
AcDbLine
 62
7
  6
CONTINUOUS
 10
183.0626385996
 20
201.6171935907
 11
183.0626385996
 21
200.7537176311
  0
LINE
  5
2FD
100
AcDbEntity
  8
KONSTRUKTIONSELEMENTE
100
AcDbLine
 62
7
  6
CONTINUOUS
 10
183.0626385996
 20
200.1113554986
 11
183.0626385996
 21
198.7161866528
  0
LINE
  5
2FE
100
AcDbEntity
  8
KONSTRUKTIONSELEMENTE
100
AcDbLine
 62
7
  6
CONTINUOUS
 10
184.3126392446
 20
202.4540280509
 11
184.3126392446
 21
196.5759422164
  0
LINE
  5
2FF
100
AcDbEntity
  8
0
100
AcDbLine
 62
7
  6
CONTINUOUS
 10
188.0626392446
 20
183.6538596276
 11
188.0626392446
 21
200.9542985259
  0
LINE
  5
300
100
AcDbEntity
  8
BEZUGSACHSEN
100
AcDbLine
 62
7
  6
CONTINUOUS
 10
190.5626392446
 20
198.9542985476
 11
190.5626392446
 21
203.3961877154
  0
LINE
  5
301
100
AcDbEntity
  8
BEZUGSACHSEN
100
AcDbLine
 62
7
  6
CONTINUOUS
 10
190.5626392446
 20
219.1050126673
 11
190.5626392446
 21
224.2042984946
  0
LINE
  5
302
100
AcDbEntity
  8
0
100
AcDbLine
 62
7
  6
CONTINUOUS
 10
198.3686607733
 20
206.8057473803
 11
196.8636607733
 21
205.9368352251
  0
LINE
  5
303
100
AcDbEntity
  8
0
100
AcDbLine
 62
7
  6
CONTINUOUS
 10
196.8636607733
 20
205.0708098214
 11
198.8322113601
 21
206.2073530325
  0
LINE
  5
304
100
AcDbEntity
  8
0
100
AcDbLine
 62
7
  6
CONTINUOUS
 10
196.8636607733
 20
208.9708098214
 11
196.8636607733
 21
208.2208098214
  0
LINE
  5
305
100
AcDbEntity
  8
0
100
AcDbLine
 62
7
  6
CONTINUOUS
 10
196.8636607733
 20
205.9368352251
 11
196.8636607733
 21
205.0708098214
  0
LINE
  5
306
100
AcDbEntity
  8
0
100
AcDbLine
 62
7
  6
CONTINUOUS
 10
196.8636607733
 20
199.9708098214
 11
196.8636607733
 21
197.9408098214
  0
LINE
  5
307
100
AcDbEntity
  8
0
100
AcDbLine
 62
7
  6
CONTINUOUS
 10
197.6136607733
 20
198.1308098214
 11
197.6136607733
 21
199.0708098214
  0
LINE
  5
308
100
AcDbEntity
  8
0
100
AcDbLine
 62
7
  6
CONTINUOUS
 10
198.7436607733
 20
208.2208098214
 11
198.7436607733
 21
207.4552664331
  0
LINE
  5
309
100
AcDbEntity
  8
0
100
AcDbLine
 62
7
  6
CONTINUOUS
 10
199.4936607733
 20
206.9808098214
 11
199.4936607733
 21
208.2208098214
  0
LINE
  5
30A
100
AcDbEntity
  8
0
100
AcDbLine
 62
7
  6
CONTINUOUS
 10
200.1636607733
 20
199.0708098214
 11
200.1636607733
 21
199.9708098214
  0
LINE
  5
30B
100
AcDbEntity
  8
0
100
AcDbLine
 62
7
  6
CONTINUOUS
 10
200.1636607733
 20
208.2208098214
 11
200.1636607733
 21
208.9708098214
  0
LINE
  5
30C
100
AcDbEntity
  8
0
100
AcDbLine
 62
7
  6
CONTINUOUS
 10
200.6136607733
 20
208.9708098214
 11
200.6136607733
 21
206.9808098214
  0
LINE
  5
30D
100
AcDbEntity
  8
0
100
AcDbLine
 62
7
  6
CONTINUOUS
 10
200.6136607733
 20
199.9708098214
 11
200.6136607733
 21
198.1308064969
  0
LINE
  5
30E
100
AcDbEntity
  8
0
100
AcDbLine
 62
7
  6
CONTINUOUS
 10
201.3636607733
 20
197.9408098214
 11
201.3636607733
 21
199.9708098214
  0
LINE
  5
30F
100
AcDbEntity
  8
0
100
AcDbLine
 62
7
  6
CONTINUOUS
 10
201.3636607733
 20
200.8708098214
 11
201.3636607733
 21
201.7708098214
  0
LINE
  5
310
100
AcDbEntity
  8
0
100
AcDbLine
 62
7
  6
CONTINUOUS
 10
201.3636607733
 20
203.5708098214
 11
201.3636607733
 21
204.4708098214
  0
LINE
  5
311
100
AcDbEntity
  8
0
100
AcDbLine
 62
7
  6
CONTINUOUS
 10
201.3636607733
 20
206.6808098214
 11
201.3636607733
 21
208.9708098214
  0
LINE
  5
312
100
AcDbEntity
  8
BEZUGSACHSEN
100
AcDbLine
 62
7
  6
CONTINUOUS
 10
204.5626392446
 20
224.2042985259
 11
204.5626392446
 21
182.4542987858
  0
LINE
  5
313
100
AcDbEntity
  8
BEZUGSACHSEN
100
AcDbLine
 62
7
  6
CONTINUOUS
 10
196.1977995317
 20
245.5922822122
 11
204.1059164396
 21
226.5003991201
  0
LINE
  5
314
100
AcDbEntity
  8
BEZUGSACHSEN
100
AcDbLine
 62
7
  6
CONTINUOUS
 10
192.9506229308
 20
248.839458813
 11
173.8587398387
 21
256.747575721
  0
LINE
  5
315
100
AcDbEntity
  8
KONSTRUKTIONSELEMENTE
100
AcDbLine
 62
7
  6
CONTINUOUS
 10
264.1256558313
 20
177.9542985259
 11
261.1256558313
 21
177.9542985259
  0
LINE
  5
316
100
AcDbEntity
  8
0
100
AcDbLine
 62
7
  6
CONTINUOUS
 10
282.3546136816
 20
177.9542985259
 11
285.3546136816
 21
177.9542985259
  0
LINE
  5
317
100
AcDbEntity
  8
KONSTRUKTIONSELEMENTE
100
AcDbLine
 62
7
  6
CONTINUOUS
 10
260.5085113988
 20
181.1070021706
 11
257.0934277768
 21
187.022100516
  0
LINE
  5
318
100
AcDbEntity
  8
KONSTRUKTIONSELEMENTE
100
AcDbLine
 62
7
  6
CONTINUOUS
 10
261.1256558313
 20
177.9542985259
 11
260.627293748
 21
180.7806503483
  0
LINE
  5
319
100
AcDbEntity
  8
KONSTRUKTIONSELEMENTE
100
AcDbLine
 62
7
  6
CONTINUOUS
 10
262.1589906434
 20
198.4083039277
 11
262.1589906434
 21
197.9790316819
  0
LINE
  5
31A
100
AcDbEntity
  8
0
100
AcDbLine
 62
7
  6
CONTINUOUS
 10
279.7401347564
 20
204.4708098214
 11
280.2401347564
 21
204.4708098214
  0
LINE
  5
31B
100
AcDbEntity
  8
0
100
AcDbLine
 62
7
  6
CONTINUOUS
 10
279.7401347564
 20
205.0708098214
 11
280.2401347564
 21
205.0708098214
  0
LINE
  5
31C
100
AcDbEntity
  8
0
100
AcDbLine
 62
7
  6
CONTINUOUS
 10
279.7401347564
 20
205.9368352251
 11
280.2401347564
 21
205.9368352251
  0
LINE
  5
31D
100
AcDbEntity
  8
KONSTRUKTIONSELEMENTE
100
AcDbLine
 62
7
  6
CONTINUOUS
 10
262.5964906434
 20
198.7994530407
 11
262.5964906434
 21
198.3985018789
  0
LINE
  5
31E
100
AcDbEntity
  8
KONSTRUKTIONSELEMENTE
100
AcDbLine
 62
7
  6
CONTINUOUS
 10
264.4194061974
 20
200.161404263
 11
264.4194061974
 21
199.7865362233
  0
LINE
  5
31F
100
AcDbEntity
  8
KONSTRUKTIONSELEMENTE
100
AcDbLine
 62
7
  6
CONTINUOUS
 10
257.4832107082
 20
189.2326693686
 11
257.0934277768
 21
187.022100516
  0
LINE
  5
320
100
AcDbEntity
  8
0
100
AcDbLine
 62
7
  6
CONTINUOUS
 10
279.7401347564
 20
208.2208098214
 11
280.2401347564
 21
208.2208098214
  0
LINE
  5
321
100
AcDbEntity
  8
0
100
AcDbLine
 62
7
  6
CONTINUOUS
 10
279.7401347564
 20
208.9708098214
 11
280.2401347564
 21
208.9708098214
  0
LINE
  5
322
100
AcDbEntity
  8
KONSTRUKTIONSELEMENTE
100
AcDbLine
 62
7
  6
CONTINUOUS
 10
265.0756561974
 20
200.5621435017
 11
265.0756561974
 21
200.1996459906
  0
LINE
  5
323
100
AcDbEntity
  8
KONSTRUKTIONSELEMENTE
100
AcDbLine
 62
7
  6
CONTINUOUS
 10
265.6589906434
 20
200.8839989364
 11
265.6589906434
 21
200.5399981135
  0
LINE
  5
324
100
AcDbEntity
  8
KONSTRUKTIONSELEMENTE
100
AcDbLine
 62
7
  6
CONTINUOUS
 10
265.7319061974
 20
200.9220731961
 11
265.7319061974
 21
200.579605435
  0
LINE
  5
325
100
AcDbEntity
  8
KONSTRUKTIONSELEMENTE
100
AcDbLine
 62
7
  6
CONTINUOUS
 10
265.8048234204
 20
200.9596818485
 11
265.8048234204
 21
200.6212062682
  0
LINE
  5
326
100
AcDbEntity
  8
KONSTRUKTIONSELEMENTE
100
AcDbLine
 62
7
  6
CONTINUOUS
 10
265.8777406434
 20
200.9968276362
 11
265.8777406434
 21
200.6503685742
  0
LINE
  5
327
100
AcDbEntity
  8
KONSTRUKTIONSELEMENTE
100
AcDbLine
 62
7
  6
CONTINUOUS
 10
266.0235734204
 20
201.0697438658
 11
266.0235734204
 21
200.7323177085
  0
LINE
  5
328
100
AcDbEntity
  8
KONSTRUKTIONSELEMENTE
100
AcDbLine
 62
7
  6
CONTINUOUS
 10
266.2423234204
 20
201.1757331199
 11
266.2423234204
 21
200.8338867334
  0
LINE
  5
329
100
AcDbEntity
  8
KONSTRUKTIONSELEMENTE
100
AcDbLine
 62
7
  6
CONTINUOUS
 10
266.6798234204
 20
201.3758371589
 11
266.6798234204
 21
201.0286742832
  0
LINE
  5
32A
100
AcDbEntity
  8
BEZUGSACHSEN
100
AcDbLine
 62
7
  6
CONTINUOUS
 10
266.7401347564
 20
186.4542985259
 11
266.7401347564
 21
254.7042985259
  0
LINE
  5
32B
100
AcDbEntity
  8
BG_STARTBEZUEGE
100
AcDbLine
 62
7
  6
CENTER
 10
273.2401347564
 20
174.4412683109
 11
273.2401347564
 21
260.2042985259
  0
LINE
  5
32C
100
AcDbEntity
  8
KONSTRUKTIONSELEMENTE
100
AcDbLine
 62
7
  6
CONTINUOUS
 10
264.1256558313
 20
177.9542985259
 11
265.8540766088
 21
187.7566598584
  0
LINE
  5
32D
100
AcDbEntity
  8
0
100
AcDbLine
 62
7
  6
CONTINUOUS
 10
282.3546136816
 20
177.9542985259
 11
280.626192904
 21
187.7566598584
  0
LINE
  5
32E
100
AcDbEntity
  8
BEZUGSACHSEN
100
AcDbLine
 62
7
  6
CONTINUOUS
 10
279.7401347564
 20
254.7042985259
 11
279.7401347564
 21
254.4378768897
  0
LINE
  5
32F
100
AcDbEntity
  8
RUNDUNGEN
100
AcDbLine
 62
7
  6
CONTINUOUS
 10
279.7401347564
 20
186.4542985259
 11
279.7401347564
 21
254.4378768897
  0
LINE
  5
330
100
AcDbEntity
  8
KONSTRUKTIONSELEMENTE
100
AcDbLine
 62
7
  6
CONTINUOUS
 10
280.1064925518
 20
201.2375028682
 11
280.1064925518
 21
200.8924136205
  0
LINE
  5
331
100
AcDbEntity
  8
KONSTRUKTIONSELEMENTE
100
AcDbLine
 62
7
  6
CONTINUOUS
 10
280.2339925518
 20
201.1776117787
 11
280.2339925518
 21
200.8356469631
  0
LINE
  5
332
100
AcDbEntity
  8
0
100
AcDbLine
 62
7
  6
CONTINUOUS
 10
280.2401347564
 20
208.9708098214
 11
280.2401347564
 21
205.0708098214
  0
LINE
  5
333
100
AcDbEntity
  8
0
100
AcDbLine
 62
7
  6
CONTINUOUS
 10
280.2401347564
 20
204.4708098214
 11
280.2401347564
 21
201.1746511251
  0
LINE
  5
334
100
AcDbEntity
  8
KONSTRUKTIONSELEMENTE
100
AcDbLine
 62
7
  6
CONTINUOUS
 10
280.3069093576
 20
201.1427530647
 11
280.3069093576
 21
200.8031823096
  0
LINE
  5
335
100
AcDbEntity
  8
KONSTRUKTIONSELEMENTE
100
AcDbLine
 62
7
  6
CONTINUOUS
 10
280.3798259547
 20
201.1074486853
 11
280.3798259547
 21
200.7707177489
  0
LINE
  5
336
100
AcDbEntity
  8
KONSTRUKTIONSELEMENTE
100
AcDbLine
 62
7
  6
CONTINUOUS
 10
280.5985759547
 20
200.9988281894
 11
280.5985759547
 21
200.6525898714
  0
LINE
  5
337
100
AcDbEntity
  8
KONSTRUKTIONSELEMENTE
100
AcDbLine
 62
7
  6
CONTINUOUS
 10
280.8902425518
 20
200.8475556528
 11
280.8902425518
 21
200.5067871166
  0
LINE
  5
338
100
AcDbEntity
  8
KONSTRUKTIONSELEMENTE
100
AcDbLine
 62
7
  6
CONTINUOUS
 10
281.2548259547
 20
200.6477732589
 11
281.2548259547
 21
200.2838173601
  0
LINE
  5
339
100
AcDbEntity
  8
KONSTRUKTIONSELEMENTE
100
AcDbLine
 62
7
  6
CONTINUOUS
 10
283.0048259547
 20
199.5057660987
 11
283.0048259547
 21
199.1246486002
  0
LINE
  5
33A
100
AcDbEntity
  8
KONSTRUKTIONSELEMENTE
100
AcDbLine
 62
7
  6
CONTINUOUS
 10
283.3148259547
 20
199.2679864127
 11
283.3148259547
 21
198.8645277145
  0
LINE
  5
33B
100
AcDbEntity
  8
KONSTRUKTIONSELEMENTE
100
AcDbLine
 62
7
  6
CONTINUOUS
 10
283.5964900827
 20
199.0414310173
 11
283.5964900827
 21
198.6444308755
  0
LINE
  5
33C
100
AcDbEntity
  8
KONSTRUKTIONSELEMENTE
100
AcDbLine
 62
7
  6
CONTINUOUS
 10
283.6694067516
 20
198.9810812594
 11
283.6694067516
 21
198.5776718713
  0
LINE
  5
33D
100
AcDbEntity
  8
KONSTRUKTIONSELEMENTE
100
AcDbLine
 62
7
  6
CONTINUOUS
 10
283.7423234204
 20
198.9200128362
 11
283.7423234204
 21
198.5181232664
  0
LINE
  5
33E
100
AcDbEntity
  8
0
100
AcDbLine
 62
7
  6
CONTINUOUS
 10
288.9970588046
 20
189.2326693686
 11
289.3868417361
 21
187.022100516
  0
LINE
  5
33F
100
AcDbEntity
  8
0
100
AcDbLine
 62
7
  6
CONTINUOUS
 10
285.3546136816
 20
177.9542985259
 11
285.8529757648
 21
180.7806503483
  0
LINE
  5
340
100
AcDbEntity
  8
0
100
AcDbLine
 62
7
  6
CONTINUOUS
 10
285.9717581141
 20
181.1070021706
 11
289.3868417361
 21
187.022100516
  0
LINE
  5
341
100
AcDbEntity
  8
0
100
AcDbLine
 62
7
  6
CONTINUOUS
 10
269.2401347564
 20
257.2042985259
 11
277.2401347564
 21
257.2042985259
  0
LINE
  5
342
100
AcDbEntity
  8
BEZUGSACHSEN
100
AcDbLine
 62
7
  6
CONTINUOUS
 10
138.5626392446
 20
109.03
 11
138.5626392446
 21
101.03
  0
LINE
  5
343
100
AcDbEntity
  8
0
100
AcDbLine
 62
7
  6
CONTINUOUS
 10
155.0626392446
 20
90.0500858905
 11
155.0626392446
 21
98.53
  0
LINE
  5
344
100
AcDbEntity
  8
0
100
AcDbLine
 62
7
  6
CONTINUOUS
 10
155.0626392446
 20
111.53
 11
155.0626392446
 21
119.3097124187
  0
LINE
  5
345
100
AcDbEntity
  8
KONSTRUKTIONSELEMENTE
100
AcDbLine
 62
7
  6
CONTINUOUS
 10
155.0626392446
 20
119.3097124187
 11
155.0626392446
 21
120.0099141095
  0
LINE
  5
346
100
AcDbEntity
  8
0
100
AcDbLine
 62
7
  6
CONTINUOUS
 10
156.5626392446
 20
88.8832930204
 11
186.5626392446
 21
88.8832930204
  0
LINE
  5
347
100
AcDbEntity
  8
KONSTRUKTIONSELEMENTE
100
AcDbLine
 62
7
  6
CONTINUOUS
 10
158.8126392446
 20
117.4216233401
 11
158.8126392446
 21
111.53
  0
LINE
  5
348
100
AcDbEntity
  8
KONSTRUKTIONSELEMENTE
100
AcDbLine
 62
7
  6
CONTINUOUS
 10
158.8126392446
 20
98.53
 11
158.8126392446
 21
92.6383766599
  0
LINE
  5
349
100
AcDbEntity
  8
KONSTRUKTIONSELEMENTE
100
AcDbLine
 62
7
  6
CONTINUOUS
 10
159.8126392446
 20
92.03
 11
167.8126392446
 21
92.03
  0
LINE
  5
34A
100
AcDbEntity
  8
KONSTRUKTIONSELEMENTE
100
AcDbLine
 62
7
  6
CONTINUOUS
 10
175.3126392446
 20
92.03
 11
183.3126392446
 21
92.03
  0
LINE
  5
34B
100
AcDbEntity
  8
KONSTRUKTIONSELEMENTE
100
AcDbLine
 62
7
  6
CONTINUOUS
 10
159.8126392446
 20
92.43625
 11
167.8126392446
 21
92.43625
  0
LINE
  5
34C
100
AcDbEntity
  8
KONSTRUKTIONSELEMENTE
100
AcDbLine
 62
7
  6
CONTINUOUS
 10
175.3126392446
 20
92.43625
 11
183.3126392446
 21
92.43625
  0
LINE
  5
34D
100
AcDbEntity
  8
KONSTRUKTIONSELEMENTE
100
AcDbLine
 62
7
  6
CONTINUOUS
 10
161.0785967491
 20
97.4528088017
 11
161.2275329015
 21
97.3069753989
  0
LINE
  5
34E
100
AcDbEntity
  8
KONSTRUKTIONSELEMENTE
100
AcDbLine
 62
7
  6
CONTINUOUS
 10
161.4509371302
 20
97.6715588017
 11
161.5998732827
 21
97.3798922046
  0
LINE
  5
34F
100
AcDbEntity
  8
KONSTRUKTIONSELEMENTE
100
AcDbLine
 62
7
  6
CONTINUOUS
 10
161.2275329015
 20
97.3069753989
 11
161.3020009778
 21
97.0882253989
  0
LINE
  5
350
100
AcDbEntity
  8
KONSTRUKTIONSELEMENTE
100
AcDbLine
 62
7
  6
CONTINUOUS
 10
159.8126392446
 20
97.0153088017
 11
159.8126392446
 21
95.2653088017
  0
LINE
  5
351
100
AcDbEntity
  8
KONSTRUKTIONSELEMENTE
100
AcDbLine
 62
7
  6
CONTINUOUS
 10
160.1849796257
 20
97.0882253989
 11
160.1849796257
 21
95.7028088017
  0
LINE
  5
352
100
AcDbEntity
  8
KONSTRUKTIONSELEMENTE
100
AcDbLine
 62
7
  6
CONTINUOUS
 10
161.3020009778
 20
97.0882253989
 11
161.3020009778
 21
95.7028088017
  0
LINE
  5
353
100
AcDbEntity
  8
KONSTRUKTIONSELEMENTE
100
AcDbLine
 62
7
  6
CONTINUOUS
 10
161.7488094351
 20
96.9423921003
 11
161.7488094351
 21
95.7028088017
  0
LINE
  5
354
100
AcDbEntity
  8
KONSTRUKTIONSELEMENTE
100
AcDbLine
 62
7
  6
CONTINUOUS
 10
159.8871073208
 20
97.3798922046
 11
159.8126392446
 21
97.0153088017
  0
LINE
  5
355
100
AcDbEntity
  8
KONSTRUKTIONSELEMENTE
100
AcDbLine
 62
7
  6
CONTINUOUS
 10
181.9456173518
 20
97.152811336
 11
181.6477449426
 21
97.0798947389
  0
LINE
  5
356
100
AcDbEntity
  8
KONSTRUKTIONSELEMENTE
100
AcDbLine
 62
7
  6
CONTINUOUS
 10
180.3817874381
 20
97.0798947389
 11
180.0839151332
 21
97.0069779332
  0
LINE
  5
357
100
AcDbEntity
  8
KONSTRUKTIONSELEMENTE
100
AcDbLine
 62
7
  6
CONTINUOUS
 10
164.3126392446
 20
94.9553088017
 11
167.8126392446
 21
94.9553088017
  0
LINE
  5
358
100
AcDbEntity
  8
KONSTRUKTIONSELEMENTE
100
AcDbLine
 62
7
  6
CONTINUOUS
 10
159.8126392446
 20
95.2653088017
 11
163.3126392446
 21
95.2653088017
  0
LINE
  5
359
100
AcDbEntity
  8
KONSTRUKTIONSELEMENTE
100
AcDbLine
 62
7
  6
CONTINUOUS
 10
164.3126392446
 20
95.3928088017
 11
167.365830735
 21
95.3928088017
  0
LINE
  5
35A
100
AcDbEntity
  8
KONSTRUKTIONSELEMENTE
100
AcDbLine
 62
7
  6
CONTINUOUS
 10
160.8551925204
 20
97.5257253989
 11
161.0785967491
 21
97.4528088017
  0
LINE
  5
35B
100
AcDbEntity
  8
KONSTRUKTIONSELEMENTE
100
AcDbLine
 62
7
  6
CONTINUOUS
 10
160.9296605966
 20
97.9632253989
 11
161.1530648253
 21
97.8903088017
  0
LINE
  5
35C
100
AcDbEntity
  8
KONSTRUKTIONSELEMENTE
100
AcDbLine
 62
7
  6
CONTINUOUS
 10
161.1530648253
 20
97.8903088017
 11
161.4509371302
 21
97.6715588017
  0
LINE
  5
35D
100
AcDbEntity
  8
KONSTRUKTIONSELEMENTE
100
AcDbLine
 62
7
  6
CONTINUOUS
 10
163.3126392446
 20
98.0361422046
 11
163.3126392446
 21
97.5257253989
  0
LINE
  5
35E
100
AcDbEntity
  8
KONSTRUKTIONSELEMENTE
100
AcDbLine
 62
7
  6
CONTINUOUS
 10
163.3126392446
 20
95.7028088017
 11
163.3126392446
 21
95.2653088017
  0
LINE
  5
35F
100
AcDbEntity
  8
KONSTRUKTIONSELEMENTE
100
AcDbLine
 62
7
  6
CONTINUOUS
 10
164.3126392446
 20
98.53
 11
164.3126392446
 21
98.1636422046
  0
LINE
  5
360
100
AcDbEntity
  8
KONSTRUKTIONSELEMENTE
100
AcDbLine
 62
7
  6
CONTINUOUS
 10
164.3126392446
 20
95.3928088017
 11
164.3126392446
 21
94.9553088017
  0
LINE
  5
361
100
AcDbEntity
  8
KONSTRUKTIONSELEMENTE
100
AcDbLine
 62
7
  6
CONTINUOUS
 10
160.2594477019
 20
97.3069753989
 11
160.1849796257
 21
97.0882253989
  0
LINE
  5
362
100
AcDbEntity
  8
KONSTRUKTIONSELEMENTE
100
AcDbLine
 62
7
  6
CONTINUOUS
 10
182.0200854281
 20
97.809061336
 11
181.6477449426
 21
97.7361447389
  0
LINE
  5
363
100
AcDbEntity
  8
KONSTRUKTIONSELEMENTE
100
AcDbLine
 62
7
  6
CONTINUOUS
 10
182.0200854281
 20
98.1736445303
 11
181.5732768664
 21
98.1007281418
  0
LINE
  5
364
100
AcDbEntity
  8
KONSTRUKTIONSELEMENTE
100
AcDbLine
 62
7
  6
CONTINUOUS
 10
181.126468409
 20
95.6944780375
 11
181.4243407139
 21
95.6944780375
  0
LINE
  5
365
100
AcDbEntity
  8
KONSTRUKTIONSELEMENTE
100
AcDbLine
 62
7
  6
CONTINUOUS
 10
160.1849796257
 20
95.7028088017
 11
161.3020009778
 21
95.7028088017
  0
LINE
  5
366
100
AcDbEntity
  8
KONSTRUKTIONSELEMENTE
100
AcDbLine
 62
7
  6
CONTINUOUS
 10
161.7488094351
 20
95.7028088017
 11
163.3126392446
 21
95.7028088017
  0
LINE
  5
367
100
AcDbEntity
  8
KONSTRUKTIONSELEMENTE
100
AcDbLine
 62
7
  6
CONTINUOUS
 10
180.3817874381
 20
96.715311336
 11
180.5307237992
 21
96.715311336
  0
LINE
  5
368
100
AcDbEntity
  8
KONSTRUKTIONSELEMENTE
100
AcDbLine
 62
7
  6
CONTINUOUS
 10
181.9456173518
 20
96.7882279332
 11
182.2434896568
 21
96.7882279332
  0
LINE
  5
369
100
AcDbEntity
  8
KONSTRUKTIONSELEMENTE
100
AcDbLine
 62
7
  6
CONTINUOUS
 10
180.3817874381
 20
97.0798947389
 11
180.5307237992
 21
97.0798947389
  0
LINE
  5
36A
100
AcDbEntity
  8
KONSTRUKTIONSELEMENTE
100
AcDbLine
 62
7
  6
CONTINUOUS
 10
181.9456173518
 20
97.152811336
 11
182.2434896568
 21
97.152811336
  0
LINE
  5
36B
100
AcDbEntity
  8
KONSTRUKTIONSELEMENTE
100
AcDbLine
 62
7
  6
CONTINUOUS
 10
160.6317880831
 20
97.5257253989
 11
160.8551925204
 21
97.5257253989
  0
LINE
  5
36C
100
AcDbEntity
  8
KONSTRUKTIONSELEMENTE
100
AcDbLine
 62
7
  6
CONTINUOUS
 10
167.365830735
 20
97.5803088017
 11
167.8126392446
 21
97.5803088017
  0
LINE
  5
36D
100
AcDbEntity
  8
KONSTRUKTIONSELEMENTE
100
AcDbLine
 62
7
  6
CONTINUOUS
 10
180.9775322565
 20
97.7361447389
 11
181.6477449426
 21
97.7361447389
  0
LINE
  5
36E
100
AcDbEntity
  8
KONSTRUKTIONSELEMENTE
100
AcDbLine
 62
7
  6
CONTINUOUS
 10
160.6317880831
 20
97.9632253989
 11
160.9296605966
 21
97.9632253989
  0
LINE
  5
36F
100
AcDbEntity
  8
KONSTRUKTIONSELEMENTE
100
AcDbLine
 62
7
  6
CONTINUOUS
 10
180.0839151332
 20
94.6736446737
 11
180.3817874381
 21
94.6007280049
  0
LINE
  5
370
100
AcDbEntity
  8
KONSTRUKTIONSELEMENTE
100
AcDbLine
 62
7
  6
CONTINUOUS
 10
160.1105115495
 20
97.6715588017
 11
159.8871073208
 21
97.3798922046
  0
LINE
  5
371
100
AcDbEntity
  8
0
100
AcDbLine
 62
7
  6
CONTINUOUS
 10
201.3636607733
 20
98.03
 11
196.8636607733
 21
98.03
  0
LINE
  5
372
100
AcDbEntity
  8
KONSTRUKTIONSELEMENTE
100
AcDbLine
 62
7
  6
CONTINUOUS
 10
181.0520003328
 20
98.1007281418
 11
181.5732768664
 21
98.1007281418
  0
LINE
  5
373
100
AcDbEntity
  8
KONSTRUKTIONSELEMENTE
100
AcDbLine
 62
7
  6
CONTINUOUS
 10
164.3126392446
 20
98.1636422046
 11
167.8126392446
 21
98.1636422046
  0
LINE
  5
374
100
AcDbEntity
  8
BEZUGSACHSEN
100
AcDbLine
 62
7
  6
CONTINUOUS
 10
202.0626392446
 20
98.53
 11
170.2232472313
 21
98.53
  0
LINE
  5
375
100
AcDbEntity
  8
RUNDUNGEN
100
AcDbLine
 62
7
  6
CONTINUOUS
 10
141.0626392446
 20
98.53
 11
170.2232472313
 21
98.53
  0
LINE
  5
376
100
AcDbEntity
  8
KONSTRUKTIONSELEMENTE
100
AcDbLine
 62
7
  6
CONTINUOUS
 10
180.6051918754
 20
98.1736445303
 11
181.0520003328
 21
98.1007281418
  0
LINE
  5
377
100
AcDbEntity
  8
KONSTRUKTIONSELEMENTE
100
AcDbLine
 62
7
  6
CONTINUOUS
 10
180.6051918754
 20
97.809061336
 11
180.9775322565
 21
97.7361447389
  0
LINE
  5
378
100
AcDbEntity
  8
KONSTRUKTIONSELEMENTE
100
AcDbLine
 62
7
  6
CONTINUOUS
 10
180.5307237992
 20
97.0798947389
 11
180.8285961041
 21
97.0069779332
  0
LINE
  5
379
100
AcDbEntity
  8
KONSTRUKTIONSELEMENTE
100
AcDbLine
 62
7
  6
CONTINUOUS
 10
167.365830735
 20
97.5803088017
 11
167.365830735
 21
95.3928088017
  0
LINE
  5
37A
100
AcDbEntity
  8
KONSTRUKTIONSELEMENTE
100
AcDbLine
 62
7
  6
CONTINUOUS
 10
167.8126392446
 20
98.53
 11
167.8126392446
 21
98.1636422046
  0
LINE
  5
37B
100
AcDbEntity
  8
KONSTRUKTIONSELEMENTE
100
AcDbLine
 62
7
  6
CONTINUOUS
 10
167.8126392446
 20
97.5803088017
 11
167.8126392446
 21
94.9553088017
  0
LINE
  5
37C
100
AcDbEntity
  8
KONSTRUKTIONSELEMENTE
100
AcDbLine
 62
7
  6
CONTINUOUS
 10
168.8126392446
 20
117.4216233401
 11
168.8126392446
 21
111.53
  0
LINE
  5
37D
100
AcDbEntity
  8
KONSTRUKTIONSELEMENTE
100
AcDbLine
 62
7
  6
CONTINUOUS
 10
168.8126392446
 20
98.53
 11
168.8126392446
 21
92.6383766599
  0
LINE
  5
37E
100
AcDbEntity
  8
KONSTRUKTIONSELEMENTE
100
AcDbLine
 62
7
  6
CONTINUOUS
 10
160.4083838544
 20
97.4528088017
 11
160.2594477019
 21
97.3069753989
  0
LINE
  5
37F
100
AcDbEntity
  8
KONSTRUKTIONSELEMENTE
100
AcDbLine
 62
7
  6
CONTINUOUS
 10
182.5413620138
 20
115.6736441131
 11
179.5626385996
 21
113.850728559
  0
LINE
  5
380
100
AcDbEntity
  8
KONSTRUKTIONSELEMENTE
100
AcDbLine
 62
7
  6
CONTINUOUS
 10
183.0626385996
 20
115.4548941131
 11
180.009447057
 21
113.631978559
  0
LINE
  5
381
100
AcDbEntity
  8
KONSTRUKTIONSELEMENTE
100
AcDbLine
 62
7
  6
CONTINUOUS
 10
181.2754045615
 20
112.465311336
 11
181.0520003328
 21
112.3923941131
  0
LINE
  5
382
100
AcDbEntity
  8
KONSTRUKTIONSELEMENTE
100
AcDbLine
 62
7
  6
CONTINUOUS
 10
183.0626385996
 20
112.6111441131
 11
182.8392343448
 21
112.538228559
  0
LINE
  5
383
100
AcDbEntity
  8
KONSTRUKTIONSELEMENTE
100
AcDbLine
 62
7
  6
CONTINUOUS
 10
182.9137024341
 20
112.1736441131
 11
182.6902981663
 21
112.100728559
  0
LINE
  5
384
100
AcDbEntity
  8
KONSTRUKTIONSELEMENTE
100
AcDbLine
 62
7
  6
CONTINUOUS
 10
182.2434896568
 20
97.152811336
 11
182.4668939376
 21
97.0798947389
  0
LINE
  5
385
100
AcDbEntity
  8
KONSTRUKTIONSELEMENTE
100
AcDbLine
 62
7
  6
CONTINUOUS
 10
180.3817874381
 20
97.8819779332
 11
180.6051918754
 21
97.809061336
  0
LINE
  5
386
100
AcDbEntity
  8
KONSTRUKTIONSELEMENTE
100
AcDbLine
 62
7
  6
CONTINUOUS
 10
180.5307237992
 20
96.715311336
 11
180.8285961041
 21
96.5694779332
  0
LINE
  5
387
100
AcDbEntity
  8
KONSTRUKTIONSELEMENTE
100
AcDbLine
 62
7
  6
CONTINUOUS
 10
182.2434896568
 20
96.7882279332
 11
182.3924258092
 21
96.715311336
  0
LINE
  5
388
100
AcDbEntity
  8
KONSTRUKTIONSELEMENTE
100
AcDbLine
 62
7
  6
CONTINUOUS
 10
180.0839151332
 20
98.027811336
 11
180.3817874381
 21
97.8819779332
  0
LINE
  5
389
100
AcDbEntity
  8
KONSTRUKTIONSELEMENTE
100
AcDbLine
 62
7
  6
CONTINUOUS
 10
180.1583832094
 20
95.1111446868
 11
180.3817874381
 21
94.965311336
  0
LINE
  5
38A
100
AcDbEntity
  8
BG_STARTBEZUEGE
100
AcDbLine
 62
7
  6
CENTER
 10
171.5626392446
 20
85.572874261
 11
171.5626392446
 21
124.487125739
  0
LINE
  5
38B
100
AcDbEntity
  8
KONSTRUKTIONSELEMENTE
100
AcDbLine
 62
7
  6
CONTINUOUS
 10
160.4083838544
 20
97.8903088017
 11
160.1105115495
 21
97.6715588017
  0
LINE
  5
38C
100
AcDbEntity
  8
KONSTRUKTIONSELEMENTE
100
AcDbLine
 62
7
  6
CONTINUOUS
 10
181.2754045615
 20
112.100728559
 11
181.126468409
 21
112.027811336
  0
LINE
  5
38D
100
AcDbEntity
  8
KONSTRUKTIONSELEMENTE
100
AcDbLine
 62
7
  6
CONTINUOUS
 10
183.0626385996
 20
112.246561336
 11
182.9137024341
 21
112.1736441131
  0
LINE
  5
38E
100
AcDbEntity
  8
BG_STARTBEZUEGE
100
AcDbLine
 62
7
  6
CENTER
 10
135.5626392446
 20
105.03
 11
207.5626392446
 21
105.03
  0
LINE
  5
38F
100
AcDbEntity
  8
KONSTRUKTIONSELEMENTE
100
AcDbLine
 62
7
  6
CONTINUOUS
 10
180.8285961041
 20
97.0069779332
 11
181.0520003328
 21
96.8611447389
  0
LINE
  5
390
100
AcDbEntity
  8
KONSTRUKTIONSELEMENTE
100
AcDbLine
 62
7
  6
CONTINUOUS
 10
180.1583832094
 20
98.465311336
 11
180.6051918754
 21
98.1736445303
  0
LINE
  5
391
100
AcDbEntity
  8
KONSTRUKTIONSELEMENTE
100
AcDbLine
 62
7
  6
CONTINUOUS
 10
182.4668939376
 20
97.0798947389
 11
182.6902981663
 21
96.934061336
  0
LINE
  5
392
100
AcDbEntity
  8
KONSTRUKTIONSELEMENTE
100
AcDbLine
 62
7
  6
CONTINUOUS
 10
179.7860428283
 20
94.965311336
 11
180.0839151332
 21
94.6736446737
  0
LINE
  5
393
100
AcDbEntity
  8
KONSTRUKTIONSELEMENTE
100
AcDbLine
 62
7
  6
CONTINUOUS
 10
174.3126392446
 20
117.4216233401
 11
174.3126392446
 21
111.53
  0
LINE
  5
394
100
AcDbEntity
  8
KONSTRUKTIONSELEMENTE
100
AcDbLine
 62
7
  6
CONTINUOUS
 10
174.3126392446
 20
98.53
 11
174.3126392446
 21
92.6383766599
  0
LINE
  5
395
100
AcDbEntity
  8
KONSTRUKTIONSELEMENTE
100
AcDbLine
 62
7
  6
CONTINUOUS
 10
181.0520003328
 20
112.3923941131
 11
180.9030641803
 21
112.246561336
  0
LINE
  5
396
100
AcDbEntity
  8
KONSTRUKTIONSELEMENTE
100
AcDbLine
 62
7
  6
CONTINUOUS
 10
180.8285961041
 20
96.5694779332
 11
180.9775322565
 21
96.4236447389
  0
LINE
  5
397
100
AcDbEntity
  8
KONSTRUKTIONSELEMENTE
100
AcDbLine
 62
7
  6
CONTINUOUS
 10
179.8605109045
 20
98.246561336
 11
180.0839151332
 21
98.027811336
  0
LINE
  5
398
100
AcDbEntity
  8
KONSTRUKTIONSELEMENTE
100
AcDbLine
 62
7
  6
CONTINUOUS
 10
182.3924258092
 20
96.715311336
 11
182.5413620138
 21
96.5694779332
  0
LINE
  5
399
100
AcDbEntity
  8
KONSTRUKTIONSELEMENTE
100
AcDbLine
 62
7
  6
CONTINUOUS
 10
181.0520003328
 20
96.8611447389
 11
181.2754045615
 21
96.5694779332
  0
LINE
  5
39A
100
AcDbEntity
  8
KONSTRUKTIONSELEMENTE
100
AcDbLine
 62
7
  6
CONTINUOUS
 10
180.009447057
 20
95.3298946868
 11
180.1583832094
 21
95.1111446868
  0
LINE
  5
39B
100
AcDbEntity
  8
KONSTRUKTIONSELEMENTE
100
AcDbLine
 62
7
  6
CONTINUOUS
 10
179.6371066758
 20
95.2569779853
 11
179.7860428283
 21
94.965311336
  0
LINE
  5
39C
100
AcDbEntity
  8
KONSTRUKTIONSELEMENTE
100
AcDbLine
 62
7
  6
CONTINUOUS
 10
180.9030641803
 20
112.246561336
 11
180.7541280279
 21
112.027811336
  0
LINE
  5
39D
100
AcDbEntity
  8
KONSTRUKTIONSELEMENTE
100
AcDbLine
 62
7
  6
CONTINUOUS
 10
163.3126392446
 20
98.0361422046
 11
161.5998732827
 21
97.3798922046
  0
LINE
  5
39E
100
AcDbEntity
  8
KONSTRUKTIONSELEMENTE
100
AcDbLine
 62
7
  6
CONTINUOUS
 10
163.3126392446
 20
97.5257253989
 11
161.7488094351
 21
96.9423921003
  0
LINE
  5
39F
100
AcDbEntity
  8
KONSTRUKTIONSELEMENTE
100
AcDbLine
 62
7
  6
CONTINUOUS
 10
160.6317880831
 20
97.9632253989
 11
160.4083838544
 21
97.8903088017
  0
LINE
  5
3A0
100
AcDbEntity
  8
KONSTRUKTIONSELEMENTE
100
AcDbLine
 62
7
  6
CONTINUOUS
 10
160.6317880831
 20
97.5257253989
 11
160.4083838544
 21
97.4528088017
  0
LINE
  5
3A1
100
AcDbEntity
  8
KONSTRUKTIONSELEMENTE
100
AcDbLine
 62
7
  6
CONTINUOUS
 10
182.8392343448
 20
112.538228559
 11
182.4668939376
 21
112.465311336
  0
LINE
  5
3A2
100
AcDbEntity
  8
KONSTRUKTIONSELEMENTE
100
AcDbLine
 62
7
  6
CONTINUOUS
 10
180.114339869
 20
98.53
 11
180.1583832094
 21
98.465311336
  0
LINE
  5
3A3
100
AcDbEntity
  8
KONSTRUKTIONSELEMENTE
100
AcDbLine
 62
7
  6
CONTINUOUS
 10
182.6902981663
 20
96.934061336
 11
182.8392343448
 21
96.715311336
  0
LINE
  5
3A4
100
AcDbEntity
  8
KONSTRUKTIONSELEMENTE
100
AcDbLine
 62
7
  6
CONTINUOUS
 10
179.6868292946
 20
98.53
 11
179.8605109045
 21
98.246561336
  0
LINE
  5
3A5
100
AcDbEntity
  8
KONSTRUKTIONSELEMENTE
100
AcDbLine
 62
7
  6
CONTINUOUS
 10
181.0520003328
 20
111.881978559
 11
180.9775322565
 21
111.590311336
  0
LINE
  5
3A6
100
AcDbEntity
  8
KONSTRUKTIONSELEMENTE
100
AcDbLine
 62
7
  6
CONTINUOUS
 10
181.126468409
 20
112.027811336
 11
181.0520003328
 21
111.881978559
  0
LINE
  5
3A7
100
AcDbEntity
  8
BEZUGSACHSEN
100
AcDbLine
 62
7
  6
CONTINUOUS
 10
141.0626392446
 20
111.53
 11
202.0626392446
 21
111.53
  0
LINE
  5
3A8
100
AcDbEntity
  8
KONSTRUKTIONSELEMENTE
100
AcDbLine
 62
7
  6
CONTINUOUS
 10
181.2754045615
 20
112.100728559
 11
181.4988087902
 21
112.100728559
  0
LINE
  5
3A9
100
AcDbEntity
  8
KONSTRUKTIONSELEMENTE
100
AcDbLine
 62
7
  6
CONTINUOUS
 10
181.7966811994
 20
112.100728559
 11
182.2434896568
 21
112.100728559
  0
LINE
  5
3AA
100
AcDbEntity
  8
KONSTRUKTIONSELEMENTE
100
AcDbLine
 62
7
  6
CONTINUOUS
 10
181.2754045615
 20
112.465311336
 11
182.4668939376
 21
112.465311336
  0
LINE
  5
3AB
100
AcDbEntity
  8
KONSTRUKTIONSELEMENTE
100
AcDbLine
 62
7
  6
CONTINUOUS
 10
182.5413620138
 20
96.5694779332
 11
182.61583009
 21
96.4236447389
  0
LINE
  5
3AC
100
AcDbEntity
  8
KONSTRUKTIONSELEMENTE
100
AcDbLine
 62
7
  6
CONTINUOUS
 10
182.8392343448
 20
96.715311336
 11
182.9881705168
 21
96.4236447389
  0
LINE
  5
3AD
100
AcDbEntity
  8
KONSTRUKTIONSELEMENTE
100
AcDbLine
 62
7
  6
CONTINUOUS
 10
180.9775322565
 20
96.4236447389
 11
181.126468409
 21
95.9861446346
  0
LINE
  5
3AE
100
AcDbEntity
  8
KONSTRUKTIONSELEMENTE
100
AcDbLine
 62
7
  6
CONTINUOUS
 10
179.9349789807
 20
95.6944780375
 11
180.009447057
 21
95.3298946868
  0
LINE
  5
3AF
100
AcDbEntity
  8
KONSTRUKTIONSELEMENTE
100
AcDbLine
 62
7
  6
CONTINUOUS
 10
179.5626385996
 20
95.7673946346
 11
179.6371066758
 21
95.2569779853
  0
LINE
  5
3B0
100
AcDbEntity
  8
KONSTRUKTIONSELEMENTE
100
AcDbLine
 62
7
  6
CONTINUOUS
 10
179.5626385996
 20
116.1111441131
 11
179.5626385996
 21
115.6736441131
  0
LINE
  5
3B1
100
AcDbEntity
  8
KONSTRUKTIONSELEMENTE
100
AcDbLine
 62
7
  6
CONTINUOUS
 10
179.5626385996
 20
113.850728559
 11
179.5626385996
 21
113.194478559
  0
LINE
  5
3B2
100
AcDbEntity
  8
KONSTRUKTIONSELEMENTE
100
AcDbLine
 62
7
  6
CONTINUOUS
 10
179.5626385996
 20
95.9132280375
 11
179.5626385996
 21
95.7673946346
  0
LINE
  5
3B3
100
AcDbEntity
  8
KONSTRUKTIONSELEMENTE
100
AcDbLine
 62
7
  6
CONTINUOUS
 10
179.9349789807
 20
95.9861446346
 11
179.9349789807
 21
95.6944780375
  0
LINE
  5
3B4
100
AcDbEntity
  8
KONSTRUKTIONSELEMENTE
100
AcDbLine
 62
7
  6
CONTINUOUS
 10
180.3817874381
 20
94.965311336
 11
180.3817874381
 21
94.6007280049
  0
LINE
  5
3B5
100
AcDbEntity
  8
KONSTRUKTIONSELEMENTE
100
AcDbLine
 62
7
  6
CONTINUOUS
 10
180.6796599516
 20
111.590311336
 11
180.6796599516
 21
111.53
  0
LINE
  5
3B6
100
AcDbEntity
  8
KONSTRUKTIONSELEMENTE
100
AcDbLine
 62
7
  6
CONTINUOUS
 10
180.9775322565
 20
111.590311336
 11
180.9775322565
 21
111.53
  0
LINE
  5
3B7
100
AcDbEntity
  8
KONSTRUKTIONSELEMENTE
100
AcDbLine
 62
7
  6
CONTINUOUS
 10
181.126468409
 20
95.9861446346
 11
181.126468409
 21
95.6944780375
  0
LINE
  5
3B8
100
AcDbEntity
  8
KONSTRUKTIONSELEMENTE
100
AcDbLine
 62
7
  6
CONTINUOUS
 10
181.4243407139
 20
95.9861446346
 11
181.4243407139
 21
95.6944780375
  0
LINE
  5
3B9
100
AcDbEntity
  8
KONSTRUKTIONSELEMENTE
100
AcDbLine
 62
7
  6
CONTINUOUS
 10
181.4988087902
 20
112.100728559
 11
181.4988087902
 21
111.53
  0
LINE
  5
3BA
100
AcDbEntity
  8
KONSTRUKTIONSELEMENTE
100
AcDbLine
 62
7
  6
CONTINUOUS
 10
179.6371066758
 20
96.4236447389
 11
179.5626385996
 21
95.9132280375
  0
LINE
  5
3BB
100
AcDbEntity
  8
KONSTRUKTIONSELEMENTE
100
AcDbLine
 62
7
  6
CONTINUOUS
 10
180.7541280279
 20
112.027811336
 11
180.6796599516
 21
111.590311336
  0
LINE
  5
3BC
100
AcDbEntity
  8
KONSTRUKTIONSELEMENTE
100
AcDbLine
 62
7
  6
CONTINUOUS
 10
180.009447057
 20
96.3507279332
 11
179.9349789807
 21
95.9861446346
  0
LINE
  5
3BD
100
AcDbEntity
  8
KONSTRUKTIONSELEMENTE
100
AcDbLine
 62
7
  6
CONTINUOUS
 10
182.2434896568
 20
97.8819779332
 11
182.0200854281
 21
97.809061336
  0
LINE
  5
3BE
100
AcDbEntity
  8
KONSTRUKTIONSELEMENTE
100
AcDbLine
 62
7
  6
CONTINUOUS
 10
179.5626385996
 20
113.194478559
 11
183.0626385996
 21
113.194478559
  0
LINE
  5
3BF
100
AcDbEntity
  8
KONSTRUKTIONSELEMENTE
100
AcDbLine
 62
7
  6
CONTINUOUS
 10
180.009447057
 20
113.631978559
 11
183.0626385996
 21
113.631978559
  0
LINE
  5
3C0
100
AcDbEntity
  8
KONSTRUKTIONSELEMENTE
100
AcDbLine
 62
7
  6
CONTINUOUS
 10
182.9881705168
 20
96.4236447389
 11
183.0626385996
 21
96.1319780375
  0
LINE
  5
3C1
100
AcDbEntity
  8
KONSTRUKTIONSELEMENTE
100
AcDbLine
 62
7
  6
CONTINUOUS
 10
182.61583009
 20
96.4236447389
 11
182.6902981663
 21
96.059061336
  0
LINE
  5
3C2
100
AcDbEntity
  8
KONSTRUKTIONSELEMENTE
100
AcDbLine
 62
7
  6
CONTINUOUS
 10
181.7966811994
 20
112.100728559
 11
181.7966811994
 21
111.53
  0
LINE
  5
3C3
100
AcDbEntity
  8
KONSTRUKTIONSELEMENTE
100
AcDbLine
 62
7
  6
CONTINUOUS
 10
182.2434896568
 20
94.8923946607
 11
182.2434896568
 21
94.527811336
  0
LINE
  5
3C4
100
AcDbEntity
  8
KONSTRUKTIONSELEMENTE
100
AcDbLine
 62
7
  6
CONTINUOUS
 10
182.6902981663
 20
96.059061336
 11
182.6902981663
 21
95.621561336
  0
LINE
  5
3C5
100
AcDbEntity
  8
KONSTRUKTIONSELEMENTE
100
AcDbLine
 62
7
  6
CONTINUOUS
 10
183.0626385996
 20
116.1111441131
 11
183.0626385996
 21
115.4548941131
  0
LINE
  5
3C6
100
AcDbEntity
  8
KONSTRUKTIONSELEMENTE
100
AcDbLine
 62
7
  6
CONTINUOUS
 10
183.0626385996
 20
113.631978559
 11
183.0626385996
 21
113.194478559
  0
LINE
  5
3C7
100
AcDbEntity
  8
KONSTRUKTIONSELEMENTE
100
AcDbLine
 62
7
  6
CONTINUOUS
 10
183.0626385996
 20
112.6111441131
 11
183.0626385996
 21
112.246561336
  0
LINE
  5
3C8
100
AcDbEntity
  8
KONSTRUKTIONSELEMENTE
100
AcDbLine
 62
7
  6
CONTINUOUS
 10
183.0626385996
 20
96.1319780375
 11
183.0626385996
 21
95.5486446346
  0
LINE
  5
3C9
100
AcDbEntity
  8
KONSTRUKTIONSELEMENTE
100
AcDbLine
 62
7
  6
CONTINUOUS
 10
181.4988087902
 20
96.4236447389
 11
181.4243407139
 21
95.9861446346
  0
LINE
  5
3CA
100
AcDbEntity
  8
KONSTRUKTIONSELEMENTE
100
AcDbLine
 62
7
  6
CONTINUOUS
 10
181.4243407139
 20
96.934061336
 11
181.2754045615
 21
96.5694779332
  0
LINE
  5
3CB
100
AcDbEntity
  8
KONSTRUKTIONSELEMENTE
100
AcDbLine
 62
7
  6
CONTINUOUS
 10
179.7860428283
 20
96.715311336
 11
179.6371066758
 21
96.4236447389
  0
LINE
  5
3CC
100
AcDbEntity
  8
KONSTRUKTIONSELEMENTE
100
AcDbLine
 62
7
  6
CONTINUOUS
 10
180.1583832094
 20
96.5694779332
 11
180.009447057
 21
96.3507279332
  0
LINE
  5
3CD
100
AcDbEntity
  8
KONSTRUKTIONSELEMENTE
100
AcDbLine
 62
7
  6
CONTINUOUS
 10
180.0839151332
 20
97.0069779332
 11
179.7860428283
 21
96.715311336
  0
LINE
  5
3CE
100
AcDbEntity
  8
KONSTRUKTIONSELEMENTE
100
AcDbLine
 62
7
  6
CONTINUOUS
 10
182.4668939376
 20
98.465311336
 11
182.0200854281
 21
98.1736445303
  0
LINE
  5
3CF
100
AcDbEntity
  8
KONSTRUKTIONSELEMENTE
100
AcDbLine
 62
7
  6
CONTINUOUS
 10
180.3817874381
 20
96.715311336
 11
180.1583832094
 21
96.5694779332
  0
LINE
  5
3D0
100
AcDbEntity
  8
KONSTRUKTIONSELEMENTE
100
AcDbLine
 62
7
  6
CONTINUOUS
 10
181.6477449426
 20
97.0798947389
 11
181.4243407139
 21
96.934061336
  0
LINE
  5
3D1
100
AcDbEntity
  8
KONSTRUKTIONSELEMENTE
100
AcDbLine
 62
7
  6
CONTINUOUS
 10
182.5413620138
 20
98.027811336
 11
182.2434896568
 21
97.8819779332
  0
LINE
  5
3D2
100
AcDbEntity
  8
KONSTRUKTIONSELEMENTE
100
AcDbLine
 62
7
  6
CONTINUOUS
 10
181.9456173518
 20
96.7882279332
 11
181.6477449426
 21
96.6423947389
  0
LINE
  5
3D3
100
AcDbEntity
  8
KONSTRUKTIONSELEMENTE
100
AcDbLine
 62
7
  6
CONTINUOUS
 10
179.5626385996
 20
115.6736441131
 11
182.5413620138
 21
115.6736441131
  0
LINE
  5
3D4
100
AcDbEntity
  8
KONSTRUKTIONSELEMENTE
100
AcDbLine
 62
7
  6
CONTINUOUS
 10
179.5626385996
 20
116.1111441131
 11
183.0626385996
 21
116.1111441131
  0
LINE
  5
3D5
100
AcDbEntity
  8
KONSTRUKTIONSELEMENTE
100
AcDbLine
 62
7
  6
CONTINUOUS
 10
182.2434896568
 20
112.100728559
 11
182.3924258092
 21
112.027811336
  0
LINE
  5
3D6
100
AcDbEntity
  8
KONSTRUKTIONSELEMENTE
100
AcDbLine
 62
7
  6
CONTINUOUS
 10
182.6902981663
 20
112.100728559
 11
182.8392343448
 21
112.027811336
  0
LINE
  5
3D7
100
AcDbEntity
  8
KONSTRUKTIONSELEMENTE
100
AcDbLine
 62
7
  6
CONTINUOUS
 10
182.9881705168
 20
111.809061336
 11
183.0451703643
 21
111.53
  0
LINE
  5
3D8
100
AcDbEntity
  8
KONSTRUKTIONSELEMENTE
100
AcDbLine
 62
7
  6
CONTINUOUS
 10
184.3126392446
 20
117.4216233401
 11
184.3126392446
 21
111.53
  0
LINE
  5
3D9
100
AcDbEntity
  8
KONSTRUKTIONSELEMENTE
100
AcDbLine
 62
7
  6
CONTINUOUS
 10
184.3126392446
 20
98.53
 11
184.3126392446
 21
92.6383766599
  0
LINE
  5
3DA
100
AcDbEntity
  8
KONSTRUKTIONSELEMENTE
100
AcDbLine
 62
7
  6
CONTINUOUS
 10
182.6902981663
 20
95.621561336
 11
182.61583009
 21
95.2569779853
  0
LINE
  5
3DB
100
AcDbEntity
  8
KONSTRUKTIONSELEMENTE
100
AcDbLine
 62
7
  6
CONTINUOUS
 10
183.0626385996
 20
95.5486446346
 11
182.9881705168
 21
95.2569779853
  0
LINE
  5
3DC
100
AcDbEntity
  8
KONSTRUKTIONSELEMENTE
100
AcDbLine
 62
7
  6
CONTINUOUS
 10
182.61583009
 20
95.2569779853
 11
182.5413620138
 21
95.1111446868
  0
LINE
  5
3DD
100
AcDbEntity
  8
KONSTRUKTIONSELEMENTE
100
AcDbLine
 62
7
  6
CONTINUOUS
 10
182.9881705168
 20
95.2569779853
 11
182.8392343448
 21
94.965311336
  0
LINE
  5
3DE
100
AcDbEntity
  8
KONSTRUKTIONSELEMENTE
100
AcDbLine
 62
7
  6
CONTINUOUS
 10
182.9384478936
 20
98.53
 11
182.7647662686
 21
98.246561336
  0
LINE
  5
3DF
100
AcDbEntity
  8
KONSTRUKTIONSELEMENTE
100
AcDbLine
 62
7
  6
CONTINUOUS
 10
182.510937278
 20
98.53
 11
182.4668939376
 21
98.465311336
  0
LINE
  5
3E0
100
AcDbEntity
  8
KONSTRUKTIONSELEMENTE
100
AcDbLine
 62
7
  6
CONTINUOUS
 10
181.6477449426
 20
96.6423947389
 11
181.4988087902
 21
96.4236447389
  0
LINE
  5
3E1
100
AcDbEntity
  8
KONSTRUKTIONSELEMENTE
100
AcDbLine
 62
7
  6
CONTINUOUS
 10
182.8392343448
 20
94.965311336
 11
182.6902981663
 21
94.746561336
  0
LINE
  5
3E2
100
AcDbEntity
  8
KONSTRUKTIONSELEMENTE
100
AcDbLine
 62
7
  6
CONTINUOUS
 10
182.7647662686
 20
98.246561336
 11
182.5413620138
 21
98.027811336
  0
LINE
  5
3E3
100
AcDbEntity
  8
KONSTRUKTIONSELEMENTE
100
AcDbLine
 62
7
  6
CONTINUOUS
 10
182.5413620138
 20
95.1111446868
 11
182.3924258092
 21
94.965311336
  0
LINE
  5
3E4
100
AcDbEntity
  8
KONSTRUKTIONSELEMENTE
100
AcDbLine
 62
7
  6
CONTINUOUS
 10
182.6902981663
 20
94.746561336
 11
182.4668939376
 21
94.6007280049
  0
LINE
  5
3E5
100
AcDbEntity
  8
KONSTRUKTIONSELEMENTE
100
AcDbLine
 62
7
  6
CONTINUOUS
 10
182.3924258092
 20
94.965311336
 11
182.2434896568
 21
94.8923946607
  0
LINE
  5
3E6
100
AcDbEntity
  8
KONSTRUKTIONSELEMENTE
100
AcDbLine
 62
7
  6
CONTINUOUS
 10
182.4668939376
 20
94.6007280049
 11
182.2434896568
 21
94.527811336
  0
LINE
  5
3E7
100
AcDbEntity
  8
KONSTRUKTIONSELEMENTE
100
AcDbLine
 62
7
  6
CONTINUOUS
 10
159.8126392446
 20
117.62375
 11
167.8126392446
 21
117.62375
  0
LINE
  5
3E8
100
AcDbEntity
  8
KONSTRUKTIONSELEMENTE
100
AcDbLine
 62
7
  6
CONTINUOUS
 10
175.3126392446
 20
117.62375
 11
183.3126392446
 21
117.62375
  0
LINE
  5
3E9
100
AcDbEntity
  8
KONSTRUKTIONSELEMENTE
100
AcDbLine
 62
7
  6
CONTINUOUS
 10
159.8126392446
 20
118.03
 11
167.8126392446
 21
118.03
  0
LINE
  5
3EA
100
AcDbEntity
  8
KONSTRUKTIONSELEMENTE
100
AcDbLine
 62
7
  6
CONTINUOUS
 10
175.3126392446
 20
118.03
 11
183.3126392446
 21
118.03
  0
LINE
  5
3EB
100
AcDbEntity
  8
KONSTRUKTIONSELEMENTE
100
AcDbLine
 62
7
  6
CONTINUOUS
 10
182.3924258092
 20
112.027811336
 11
182.61583009
 21
111.809061336
  0
LINE
  5
3EC
100
AcDbEntity
  8
KONSTRUKTIONSELEMENTE
100
AcDbLine
 62
7
  6
CONTINUOUS
 10
182.8392343448
 20
112.027811336
 11
182.9881705168
 21
111.809061336
  0
LINE
  5
3ED
100
AcDbEntity
  8
KONSTRUKTIONSELEMENTE
100
AcDbLine
 62
7
  6
CONTINUOUS
 10
182.61583009
 20
111.809061336
 11
182.7298297949
 21
111.53
  0
LINE
  5
3EE
100
AcDbEntity
  8
KONSTRUKTIONSELEMENTE
100
AcDbLine
 62
7
  6
CONTINUOUS
 10
188.0626392446
 20
120.0099141095
 11
188.0626392446
 21
119.3097124187
  0
LINE
  5
3EF
100
AcDbEntity
  8
0
100
AcDbLine
 62
7
  6
CONTINUOUS
 10
188.0626392446
 20
119.3097124187
 11
188.0626392446
 21
111.53
  0
LINE
  5
3F0
100
AcDbEntity
  8
0
100
AcDbLine
 62
7
  6
CONTINUOUS
 10
188.0626392446
 20
90.0500858905
 11
188.0626392446
 21
98.53
  0
LINE
  5
3F1
100
AcDbEntity
  8
KONSTRUKTIONSELEMENTE
100
AcDbLine
 62
7
  6
CONTINUOUS
 10
156.5626392446
 20
121.1767069796
 11
186.5626392446
 21
121.1767069796
  0
LINE
  5
3F2
100
AcDbEntity
  8
0
100
AcDbLine
 62
7
  6
CONTINUOUS
 10
196.8636607733
 20
98.53
 11
196.8636607733
 21
98.03
  0
LINE
  5
3F3
100
AcDbEntity
  8
0
100
AcDbLine
 62
7
  6
CONTINUOUS
 10
200.1636607733
 20
98.53
 11
200.1636607733
 21
98.03
  0
LINE
  5
3F4
100
AcDbEntity
  8
0
100
AcDbLine
 62
7
  6
CONTINUOUS
 10
200.6136607733
 20
98.53
 11
200.6136607733
 21
98.03
  0
LINE
  5
3F5
100
AcDbEntity
  8
0
100
AcDbLine
 62
7
  6
CONTINUOUS
 10
201.3636607733
 20
98.53
 11
201.3636607733
 21
98.03
  0
LINE
  5
3F6
100
AcDbEntity
  8
BEZUGSACHSEN
100
AcDbLine
 62
7
  6
CONTINUOUS
 10
204.5626392446
 20
101.03
 11
204.5626392446
 21
109.03
  0
ARC
  5
3F7
100
AcDbEntity
  8
BEZUGSACHSEN
100
AcDbCircle
 62
7
  6
CONTINUOUS
 10
158.5626392446
 20
198.9542985259
 40
6.0
100
AcDbArc
 50
179.9999997934
 51
234.3146003216
  0
ARC
  5
3F8
100
AcDbEntity
  8
0
100
AcDbCircle
 62
7
  6
CONTINUOUS
 10
152.5417790508
 20
180.4132289498
 40
2.9103266646
100
AcDbArc
 50
7.2528017002
 51
13.7911399611
  0
ARC
  5
3F9
100
AcDbEntity
  8
BEZUGSACHSEN
100
AcDbCircle
 62
7
  6
CONTINUOUS
 10
141.0626392446
 20
182.4542985259
 40
2.5
100
AcDbArc
 50
180.0
 51
270.0
  0
ARC
  5
3FA
100
AcDbEntity
  8
BEZUGSACHSEN
100
AcDbCircle
 62
7
  6
CONTINUOUS
 10
159.9862002861
 20
206.9542985259
 40
2.0
100
AcDbArc
 50
270.0
 51
55.9054014985
  0
ARC
  5
3FB
100
AcDbEntity
  8
RUNDUNGEN
100
AcDbCircle
 62
7
  6
CONTINUOUS
 10
159.9862002861
 20
206.9542985259
 40
2.0
100
AcDbArc
 50
270.0
 51
57.2949767509
  0
ARC
  5
3FC
100
AcDbEntity
  8
RUNDUNGEN
100
AcDbCircle
 62
7
  6
CONTINUOUS
 10
154.5626392446
 20
202.9542985259
 40
2.0
100
AcDbArc
 50
90.0
 51
180.0
  0
ARC
  5
3FD
100
AcDbEntity
  8
0
100
AcDbCircle
 62
7
  6
CONTINUOUS
 10
156.5626392446
 20
200.9542985259
 40
1.5
100
AcDbArc
 50
90.0
 51
180.0
  0
ARC
  5
3FE
100
AcDbEntity
  8
RUNDUNGEN
100
AcDbCircle
 62
7
  6
CONTINUOUS
 10
171.0626392446
 20
224.2042985259
 40
18.5
100
AcDbArc
 50
180.0
 51
237.2949767509
  0
ARC
  5
3FF
100
AcDbEntity
  8
BEZUGSACHSEN
100
AcDbCircle
 62
7
  6
CONTINUOUS
 10
144.5626392446
 20
224.2042985259
 40
6.0
100
AcDbArc
 50
157.5
 51
180.0
  0
ARC
  5
400
100
AcDbEntity
  8
BEZUGSACHSEN
100
AcDbCircle
 62
7
  6
CONTINUOUS
 10
152.4707561525
 20
243.296181618
 40
6.0
100
AcDbArc
 50
156.4523294213
 51
157.5
  0
ARC
  5
401
100
AcDbEntity
  8
RUNDUNGEN
100
AcDbCircle
 62
7
  6
CONTINUOUS
 10
144.5626392446
 20
224.2042985259
 40
6.0
100
AcDbArc
 50
157.5
 51
180.0
  0
ARC
  5
402
100
AcDbEntity
  8
RUNDUNGEN
100
AcDbCircle
 62
7
  6
CONTINUOUS
 10
152.4707561525
 20
243.296181618
 40
6.0
100
AcDbArc
 50
112.5
 51
157.5
  0
ARC
  5
403
100
AcDbEntity
  8
BEZUGSACHSEN
100
AcDbCircle
 62
7
  6
CONTINUOUS
 10
184.5626392446
 20
198.9542985259
 40
6.0
100
AcDbArc
 50
305.6853996783
 51
0.0000002065
  0
ARC
  5
404
100
AcDbEntity
  8
0
100
AcDbCircle
 62
7
  6
CONTINUOUS
 10
190.5617839727
 20
180.4172622872
 40
2.8882760251
100
AcDbArc
 50
166.1838740261
 51
172.7721843126
  0
ARC
  5
405
100
AcDbEntity
  8
BEZUGSACHSEN
100
AcDbCircle
 62
7
  6
CONTINUOUS
 10
202.0626392446
 20
182.4542985259
 40
2.5
100
AcDbArc
 50
270.0
 51
360.0
  0
ARC
  5
406
100
AcDbEntity
  8
BEZUGSACHSEN
100
AcDbCircle
 62
7
  6
CONTINUOUS
 10
183.139078203
 20
206.9542985259
 40
2.0
100
AcDbArc
 50
122.7050232491
 51
270.0
  0
ARC
  5
407
100
AcDbEntity
  8
BEZUGSACHSEN
100
AcDbCircle
 62
7
  6
CONTINUOUS
 10
188.5626392446
 20
202.9542985259
 40
2.0
100
AcDbArc
 50
0.0
 51
90.0
  0
ARC
  5
408
100
AcDbEntity
  8
0
100
AcDbCircle
 62
7
  6
CONTINUOUS
 10
198.6636607733
 20
202.6708098214
 40
1.8
100
AcDbArc
 50
90.0
 51
270.0
  0
ARC
  5
409
100
AcDbEntity
  8
0
100
AcDbCircle
 62
7
  6
CONTINUOUS
 10
198.5136607733
 20
197.9408098214
 40
1.65
100
AcDbArc
 50
180.0
 51
270.0
  0
ARC
  5
40A
100
AcDbEntity
  8
0
100
AcDbCircle
 62
7
  6
CONTINUOUS
 10
199.7136607733
 20
197.9408098214
 40
1.65
100
AcDbArc
 50
270.0
 51
360.0
  0
ARC
  5
40B
100
AcDbEntity
  8
0
100
AcDbCircle
 62
7
  6
CONTINUOUS
 10
186.5626392446
 20
200.9542985259
 40
1.5
100
AcDbArc
 50
0.0
 51
90.0
  0
ARC
  5
40C
100
AcDbEntity
  8
0
100
AcDbCircle
 62
7
  6
CONTINUOUS
 10
200.0536607733
 20
206.6808098214
 40
1.31
100
AcDbArc
 50
201.1872687082
 51
360.0
  0
ARC
  5
40D
100
AcDbEntity
  8
0
100
AcDbCircle
 62
7
  6
CONTINUOUS
 10
199.6736607733
 20
198.1308064969
 40
0.94
100
AcDbArc
 50
270.152382572
 51
360.0
  0
ARC
  5
40E
100
AcDbEntity
  8
0
100
AcDbCircle
 62
7
  6
CONTINUOUS
 10
198.5536607733
 20
198.1308098214
 40
0.94
100
AcDbArc
 50
180.0
 51
270.0
  0
ARC
  5
40F
100
AcDbEntity
  8
0
100
AcDbCircle
 62
7
  6
CONTINUOUS
 10
198.6636607733
 20
202.6708098214
 40
0.9
100
AcDbArc
 50
90.0
 51
270.0
  0
ARC
  5
410
100
AcDbEntity
  8
0
100
AcDbCircle
 62
7
  6
CONTINUOUS
 10
197.9936607733
 20
207.4552664331
 40
0.75
100
AcDbArc
 50
300.0
 51
360.0
  0
ARC
  5
411
100
AcDbEntity
  8
0
100
AcDbCircle
 62
7
  6
CONTINUOUS
 10
200.0536607733
 20
206.9808098214
 40
0.56
100
AcDbArc
 50
180.0
 51
360.0
  0
ARC
  5
412
100
AcDbEntity
  8
BEZUGSACHSEN
100
AcDbCircle
 62
7
  6
CONTINUOUS
 10
171.5626392446
 20
224.2042985259
 40
19.0
100
AcDbArc
 50
359.9999999055
 51
180.0000000945
  0
ARC
  5
413
100
AcDbEntity
  8
BEZUGSACHSEN
100
AcDbCircle
 62
7
  6
CONTINUOUS
 10
172.0626392446
 20
224.2042985259
 40
18.5
100
AcDbArc
 50
302.7050232491
 51
360.0
  0
ARC
  5
414
100
AcDbEntity
  8
BEZUGSACHSEN
100
AcDbCircle
 62
7
  6
CONTINUOUS
 10
198.5626392446
 20
224.2042985259
 40
6.0
100
AcDbArc
 50
0.0
 51
22.5
  0
ARC
  5
415
100
AcDbEntity
  8
BEZUGSACHSEN
100
AcDbCircle
 62
7
  6
CONTINUOUS
 10
190.6545223366
 20
243.296181618
 40
6.0
100
AcDbArc
 50
22.5
 51
67.5
  0
ARC
  5
416
100
AcDbEntity
  8
BEZUGSACHSEN
100
AcDbCircle
 62
7
  6
CONTINUOUS
 10
171.5626392446
 20
251.2042985259
 40
6.0
100
AcDbArc
 50
67.5
 51
112.5
  0
ARC
  5
417
100
AcDbEntity
  8
KONSTRUKTIONSELEMENTE
100
AcDbCircle
 62
7
  6
CONTINUOUS
 10
259.642485995
 20
180.6070021706
 40
1.0
100
AcDbArc
 50
10.0
 51
30.0
  0
ARC
  5
418
100
AcDbEntity
  8
BEZUGSACHSEN
100
AcDbCircle
 62
7
  6
CONTINUOUS
 10
269.2401347564
 20
254.7042985259
 40
2.5
100
AcDbArc
 50
90.0
 51
180.0
  0
ARC
  5
419
100
AcDbEntity
  8
KONSTRUKTIONSELEMENTE
100
AcDbCircle
 62
7
  6
CONTINUOUS
 10
273.2401347564
 20
186.4542985259
 40
16.3
100
AcDbArc
 50
120.0587839085
 51
132.829953206
  0
ARC
  5
41A
100
AcDbEntity
  8
KONSTRUKTIONSELEMENTE
100
AcDbCircle
 62
7
  6
CONTINUOUS
 10
273.2401347564
 20
186.4542985259
 40
16.3
100
AcDbArc
 50
113.5016535952
 51
117.7167501072
  0
ARC
  5
41B
100
AcDbEntity
  8
KONSTRUKTIONSELEMENTE
100
AcDbCircle
 62
7
  6
CONTINUOUS
 10
273.2401347564
 20
186.4542985259
 40
16.3
100
AcDbArc
 50
49.8863343715
 51
66.4972942871
  0
ARC
  5
41C
100
AcDbEntity
  8
0
100
AcDbCircle
 62
7
  6
CONTINUOUS
 10
273.2401347564
 20
186.4542985259
 40
16.0
100
AcDbArc
 50
113.9905471464
 51
170.0
  0
ARC
  5
41D
100
AcDbEntity
  8
0
100
AcDbCircle
 62
7
  6
CONTINUOUS
 10
273.2401347564
 20
186.4542985259
 40
16.0
100
AcDbArc
 50
10.0
 51
66.0094528536
  0
ARC
  5
41E
100
AcDbEntity
  8
KONSTRUKTIONSELEMENTE
100
AcDbCircle
 62
7
  6
CONTINUOUS
 10
273.2401347564
 20
186.4542985259
 40
16.0
100
AcDbArc
 50
135.9022142657
 51
139.1448941618
  0
ARC
  5
41F
100
AcDbEntity
  8
KONSTRUKTIONSELEMENTE
100
AcDbCircle
 62
7
  6
CONTINUOUS
 10
273.2401347564
 20
186.4542985259
 40
16.0
100
AcDbArc
 50
40.8548930863
 51
44.0976621571
  0
ARC
  5
420
100
AcDbEntity
  8
0
100
AcDbCircle
 62
7
  6
CONTINUOUS
 10
273.2401347564
 20
186.4542985259
 40
7.5
100
AcDbArc
 50
10.0
 51
29.9180854986
  0
ARC
  5
421
100
AcDbEntity
  8
0
100
AcDbCircle
 62
7
  6
CONTINUOUS
 10
273.2401347564
 20
186.4542985259
 40
7.5
100
AcDbArc
 50
150.0819145014
 51
170.0
  0
ARC
  5
422
100
AcDbEntity
  8
BEZUGSACHSEN
100
AcDbCircle
 62
7
  6
CONTINUOUS
 10
273.2401347564
 20
186.4542985259
 40
6.5
100
AcDbArc
 50
180.0
 51
360.0
  0
ARC
  5
423
100
AcDbEntity
  8
0
100
AcDbCircle
 62
7
  6
CONTINUOUS
 10
286.8377835179
 20
180.6070021706
 40
1.0
100
AcDbArc
 50
150.0
 51
170.0
  0
ARC
  5
424
100
AcDbEntity
  8
BEZUGSACHSEN
100
AcDbCircle
 62
7
  6
CONTINUOUS
 10
277.2401347564
 20
254.7042985259
 40
2.5
100
AcDbArc
 50
0.0
 51
90.0
  0
ARC
  5
425
100
AcDbEntity
  8
RUNDUNGEN
100
AcDbCircle
 62
7
  6
CONTINUOUS
 10
141.0626392446
 20
101.03
 40
2.5
100
AcDbArc
 50
180.0
 51
270.0
  0
ARC
  5
426
100
AcDbEntity
  8
BEZUGSACHSEN
100
AcDbCircle
 62
7
  6
CONTINUOUS
 10
202.0626392446
 20
101.03
 40
2.5
100
AcDbArc
 50
270.0
 51
360.0
  0
ARC
  5
427
100
AcDbEntity
  8
BEZUGSACHSEN
100
AcDbCircle
 62
7
  6
CONTINUOUS
 10
141.0626392446
 20
109.03
 40
2.5
100
AcDbArc
 50
90.0
 51
180.0
  0
ARC
  5
428
100
AcDbEntity
  8
BEZUGSACHSEN
100
AcDbCircle
 62
7
  6
CONTINUOUS
 10
202.0626392446
 20
109.03
 40
2.5
100
AcDbArc
 50
0.0
 51
90.0
  0
SPLINE
  5
429
100
AcDbEntity
  8
KONSTRUKTIONSELEMENTE
100
AcDbSpline
 62
7
  6
CONTINUOUS
 70
0
 71
3
 72
11
 73
7
 74
0
 42
0.0000001
 43
0.0000001
 44
0.0000000001
 40
0.0
 40
0.0
 40
0.0
 40
0.0
 40
0.2765416172
 40
0.5393237411
 40
0.7797155935
 40
1.0
 40
1.0
 40
1.0
 40
1.0
 10
159.8126392446
 20
195.781677579
 30
0.0
 10
159.6833672829
 20
195.781677579
 30
0.0
 10
159.4292644991
 20
195.8215460196
 30
0.0
 10
159.100377243
 20
195.9941854804
 30
0.0
 10
158.8712393794
 20
196.2552365478
 30
0.0
 10
158.8126392446
 20
196.4729682133
 30
0.0
 10
158.8126392446
 20
196.5759422164
 30
0.0
  0
SPLINE
  5
42A
100
AcDbEntity
  8
KONSTRUKTIONSELEMENTE
100
AcDbSpline
 62
7
  6
CONTINUOUS
 70
0
 71
3
 72
11
 73
7
 74
0
 42
0.0000001
 43
0.0000001
 44
0.0000000001
 40
0.0
 40
0.0
 40
0.0
 40
0.0
 40
0.2202844065
 40
0.4606762589
 40
0.7234583828
 40
1.0
 40
1.0
 40
1.0
 40
1.0
 10
168.8126392446
 20
196.5759422164
 30
0.0
 10
168.8126392446
 20
196.4729682133
 30
0.0
 10
168.7540391097
 20
196.2552365478
 30
0.0
 10
168.5249012461
 20
195.9941854804
 30
0.0
 10
168.19601399
 20
195.8215460196
 30
0.0
 10
167.9419112063
 20
195.781677579
 30
0.0
 10
167.8126392446
 20
195.781677579
 30
0.0
  0
SPLINE
  5
42B
100
AcDbEntity
  8
KONSTRUKTIONSELEMENTE
100
AcDbSpline
 62
7
  6
CONTINUOUS
 70
0
 71
3
 72
11
 73
7
 74
0
 42
0.0000001
 43
0.0000001
 44
0.0000000001
 40
0.0
 40
0.0
 40
0.0
 40
0.0
 40
0.2765416172
 40
0.5393237411
 40
0.7797155935
 40
1.0
 40
1.0
 40
1.0
 40
1.0
 10
175.3126392446
 20
195.781677579
 30
0.0
 10
175.1833672829
 20
195.781677579
 30
0.0
 10
174.9292644991
 20
195.8215460196
 30
0.0
 10
174.600377243
 20
195.9941854804
 30
0.0
 10
174.3712393794
 20
196.2552365478
 30
0.0
 10
174.3126392446
 20
196.4729682133
 30
0.0
 10
174.3126392446
 20
196.5759422164
 30
0.0
  0
SPLINE
  5
42C
100
AcDbEntity
  8
KONSTRUKTIONSELEMENTE
100
AcDbSpline
 62
7
  6
CONTINUOUS
 70
0
 71
3
 72
11
 73
7
 74
0
 42
0.0000001
 43
0.0000001
 44
0.0000000001
 40
0.0
 40
0.0
 40
0.0
 40
0.0
 40
0.2202844065
 40
0.4606762589
 40
0.7234583828
 40
1.0
 40
1.0
 40
1.0
 40
1.0
 10
184.3126392446
 20
196.5759422164
 30
0.0
 10
184.3126392446
 20
196.4729682133
 30
0.0
 10
184.2540391097
 20
196.2552365478
 30
0.0
 10
184.0249012461
 20
195.9941854804
 30
0.0
 10
183.69601399
 20
195.8215460196
 30
0.0
 10
183.4419112063
 20
195.781677579
 30
0.0
 10
183.3126392446
 20
195.781677579
 30
0.0
  0
SPLINE
  5
42D
100
AcDbEntity
  8
RUNDUNGEN
100
AcDbSpline
 62
7
  6
CONTINUOUS
 70
0
 71
3
 72
15
 73
11
 74
0
 42
0.0000001
 43
0.0000001
 44
0.0000000001
 40
0.0
 40
0.0
 40
0.0
 40
0.0
 40
0.1266141638
 40
0.2530239698
 40
0.3790442528
 40
0.5045098792
 40
0.6293024646
 40
0.7533921567
 40
0.8768782411
 40
1.0
 40
1.0
 40
1.0
 40
1.0
 10
152.4193044179
 20
212.3940607906
 30
0.0
 10
152.4190609771
 20
212.6773739416
 30
0.0
 10
152.4222887743
 20
213.2435521813
 30
0.0
 10
152.4373255892
 20
214.0915885287
 30
0.0
 10
152.4604641265
 20
214.9368645011
 30
0.0
 10
152.4884811961
 20
215.7783643872
 30
0.0
 10
152.517216181
 20
216.6155160322
 30
0.0
 10
152.5420596291
 20
217.4483680811
 30
0.0
 10
152.5587906225
 20
218.2776941481
 30
0.0
 10
152.5626362963
 20
218.8295141196
 30
0.0
 10
152.5626392446
 20
219.1050127313
 30
0.0
  0
SPLINE
  5
42E
100
AcDbEntity
  8
BEZUGSACHSEN
100
AcDbSpline
 62
7
  6
CONTINUOUS
 70
0
 71
3
 72
15
 73
11
 74
0
 42
0.0000001
 43
0.0000001
 44
0.0000000001
 40
0.0
 40
0.0
 40
0.0
 40
0.0
 40
0.1266141638
 40
0.2530239698
 40
0.3790442528
 40
0.5045098792
 40
0.6293024646
 40
0.7533921567
 40
0.8768782411
 40
1.0
 40
1.0
 40
1.0
 40
1.0
 10
190.7059740712
 20
212.3940607906
 30
0.0
 10
190.706217512
 20
212.6773739416
 30
0.0
 10
190.7029897148
 20
213.2435521813
 30
0.0
 10
190.6879528999
 20
214.0915885287
 30
0.0
 10
190.6648143626
 20
214.9368645011
 30
0.0
 10
190.636797293
 20
215.7783643872
 30
0.0
 10
190.6080623081
 20
216.6155160322
 30
0.0
 10
190.58321886
 20
217.4483680811
 30
0.0
 10
190.5664878666
 20
218.2776941481
 30
0.0
 10
190.5626421928
 20
218.8295141196
 30
0.0
 10
190.5626392445
 20
219.1050127313
 30
0.0
  0
LINE
  5
42F
100
AcDbEntity
  8
BEZUGSACHSEN
100
AcDbLine
 62
7
  6
CONTINUOUS
 10
171.5626392446
 20
249.2042988635
 11
171.5626392446
 21
243.2042985259
  0
SPLINE
  5
430
100
AcDbEntity
  8
KONSTRUKTIONSELEMENTE
100
AcDbSpline
 62
7
  6
CONTINUOUS
 70
0
 71
3
 72
9
 73
5
 74
0
 42
0.0000001
 43
0.0000001
 44
0.0000000001
 40
0.0
 40
0.0
 40
0.0
 40
0.0
 40
0.484685334
 40
1.0
 40
1.0
 40
1.0
 40
1.0
 10
158.8126392446
 20
93.0454481985
 30
0.0
 10
158.8126392446
 20
92.9956205053
 30
0.0
 10
158.832621638
 20
92.8919666878
 30
0.0
 10
158.8879075204
 20
92.8028100078
 30
0.0
 10
158.9218416706
 20
92.7621285028
 30
0.0
  0
SPLINE
  5
431
100
AcDbEntity
  8
KONSTRUKTIONSELEMENTE
100
AcDbSpline
 62
7
  6
CONTINUOUS
 70
0
 71
3
 72
10
 73
6
 74
0
 42
0.0000001
 43
0.0000001
 44
0.0000000001
 40
0.0
 40
0.0
 40
0.0
 40
0.0
 40
0.4525882724
 40
0.7196290274
 40
1.0
 40
1.0
 40
1.0
 40
1.0
 10
158.9218416706
 20
92.7621285028
 30
0.0
 10
159.0156566267
 20
92.6496596897
 30
0.0
 10
159.2306708589
 20
92.5280535219
 30
0.0
 10
159.5439844868
 20
92.4503632355
 30
0.0
 10
159.7219097987
 20
92.43625
 30
0.0
 10
159.8126392446
 20
92.43625
 30
0.0
  0
SPLINE
  5
432
100
AcDbEntity
  8
KONSTRUKTIONSELEMENTE
100
AcDbSpline
 62
7
  6
CONTINUOUS
 70
0
 71
3
 72
13
 73
9
 74
0
 42
0.0000001
 43
0.0000001
 44
0.0000000001
 40
0.0
 40
0.0
 40
0.0
 40
0.0
 40
0.3006399175
 40
0.5728128425
 40
0.6930951578
 40
0.8024332773
 40
0.903341803
 40
1.0
 40
1.0
 40
1.0
 40
1.0
 10
159.8126392446
 20
92.03
 30
0.0
 10
159.6841576093
 20
92.03
 30
0.0
 10
159.4386197231
 20
92.0568288637
 30
0.0
 10
159.1562888171
 20
92.1613286716
 30
0.0
 10
158.9809600127
 20
92.2870566963
 30
0.0
 10
158.8857183984
 20
92.3932678888
 30
0.0
 10
158.8261894083
 20
92.5120857697
 30
0.0
 10
158.8126392446
 20
92.5970687614
 30
0.0
 10
158.8126392446
 20
92.6383766599
 30
0.0
  0
SPLINE
  5
433
100
AcDbEntity
  8
KONSTRUKTIONSELEMENTE
100
AcDbSpline
 62
7
  6
CONTINUOUS
 70
0
 71
3
 72
13
 73
9
 74
0
 42
0.0000001
 43
0.0000001
 44
0.0000000001
 40
0.0
 40
0.0
 40
0.0
 40
0.0
 40
0.096658197
 40
0.1975667227
 40
0.3069048422
 40
0.4271871575
 40
0.6993600825
 40
1.0
 40
1.0
 40
1.0
 40
1.0
 10
168.8126392446
 20
92.6383766599
 30
0.0
 10
168.8126392446
 20
92.5970687614
 30
0.0
 10
168.7990890808
 20
92.5120857697
 30
0.0
 10
168.7395600907
 20
92.3932678888
 30
0.0
 10
168.6443184764
 20
92.2870566963
 30
0.0
 10
168.468989672
 20
92.1613286716
 30
0.0
 10
168.186658766
 20
92.0568288637
 30
0.0
 10
167.9411208798
 20
92.03
 30
0.0
 10
167.8126392446
 20
92.03
 30
0.0
  0
SPLINE
  5
434
100
AcDbEntity
  8
KONSTRUKTIONSELEMENTE
100
AcDbSpline
 62
7
  6
CONTINUOUS
 70
0
 71
3
 72
10
 73
6
 74
0
 42
0.0000001
 43
0.0000001
 44
0.0000000001
 40
0.0
 40
0.0
 40
0.0
 40
0.0
 40
0.2803709726
 40
0.5474117276
 40
1.0
 40
1.0
 40
1.0
 40
1.0
 10
167.8126392446
 20
92.43625
 30
0.0
 10
167.9033686904
 20
92.43625
 30
0.0
 10
168.0812940023
 20
92.4503632355
 30
0.0
 10
168.3946076302
 20
92.5280535219
 30
0.0
 10
168.6096218624
 20
92.6496596897
 30
0.0
 10
168.7034368185
 20
92.7621285028
 30
0.0
  0
SPLINE
  5
435
100
AcDbEntity
  8
KONSTRUKTIONSELEMENTE
100
AcDbSpline
 62
7
  6
CONTINUOUS
 70
0
 71
3
 72
9
 73
5
 74
0
 42
0.0000001
 43
0.0000001
 44
0.0000000001
 40
0.0
 40
0.0
 40
0.0
 40
0.0
 40
0.515314666
 40
1.0
 40
1.0
 40
1.0
 40
1.0
 10
168.7034368185
 20
92.7621285028
 30
0.0
 10
168.7373709687
 20
92.8028100078
 30
0.0
 10
168.7926568511
 20
92.8919666878
 30
0.0
 10
168.8126392446
 20
92.9956205053
 30
0.0
 10
168.8126392446
 20
93.0454481985
 30
0.0
  0
SPLINE
  5
436
100
AcDbEntity
  8
KONSTRUKTIONSELEMENTE
100
AcDbSpline
 62
7
  6
CONTINUOUS
 70
0
 71
3
 72
9
 73
5
 74
0
 42
0.0000001
 43
0.0000001
 44
0.0000000001
 40
0.0
 40
0.0
 40
0.0
 40
0.0
 40
0.484685334
 40
1.0
 40
1.0
 40
1.0
 40
1.0
 10
174.3126392446
 20
93.0454481985
 30
0.0
 10
174.3126392446
 20
92.9956205053
 30
0.0
 10
174.332621638
 20
92.8919666878
 30
0.0
 10
174.3879075204
 20
92.8028100078
 30
0.0
 10
174.4218416706
 20
92.7621285028
 30
0.0
  0
SPLINE
  5
437
100
AcDbEntity
  8
KONSTRUKTIONSELEMENTE
100
AcDbSpline
 62
7
  6
CONTINUOUS
 70
0
 71
3
 72
10
 73
6
 74
0
 42
0.0000001
 43
0.0000001
 44
0.0000000001
 40
0.0
 40
0.0
 40
0.0
 40
0.0
 40
0.4525882724
 40
0.7196290274
 40
1.0
 40
1.0
 40
1.0
 40
1.0
 10
174.4218416706
 20
92.7621285028
 30
0.0
 10
174.5156566267
 20
92.6496596897
 30
0.0
 10
174.7306708589
 20
92.5280535219
 30
0.0
 10
175.0439844868
 20
92.4503632355
 30
0.0
 10
175.2219097987
 20
92.43625
 30
0.0
 10
175.3126392446
 20
92.43625
 30
0.0
  0
SPLINE
  5
438
100
AcDbEntity
  8
KONSTRUKTIONSELEMENTE
100
AcDbSpline
 62
7
  6
CONTINUOUS
 70
0
 71
3
 72
13
 73
9
 74
0
 42
0.0000001
 43
0.0000001
 44
0.0000000001
 40
0.0
 40
0.0
 40
0.0
 40
0.0
 40
0.3006399175
 40
0.5728128425
 40
0.6930951578
 40
0.8024332773
 40
0.903341803
 40
1.0
 40
1.0
 40
1.0
 40
1.0
 10
175.3126392446
 20
92.03
 30
0.0
 10
175.1841576093
 20
92.03
 30
0.0
 10
174.9386197231
 20
92.0568288637
 30
0.0
 10
174.6562888171
 20
92.1613286716
 30
0.0
 10
174.4809600127
 20
92.2870566963
 30
0.0
 10
174.3857183984
 20
92.3932678888
 30
0.0
 10
174.3261894083
 20
92.5120857697
 30
0.0
 10
174.3126392446
 20
92.5970687614
 30
0.0
 10
174.3126392446
 20
92.6383766599
 30
0.0
  0
SPLINE
  5
439
100
AcDbEntity
  8
KONSTRUKTIONSELEMENTE
100
AcDbSpline
 62
7
  6
CONTINUOUS
 70
0
 71
3
 72
13
 73
9
 74
0
 42
0.0000001
 43
0.0000001
 44
0.0000000001
 40
0.0
 40
0.0
 40
0.0
 40
0.0
 40
0.096658197
 40
0.1975667227
 40
0.3069048422
 40
0.4271871575
 40
0.6993600825
 40
1.0
 40
1.0
 40
1.0
 40
1.0
 10
184.3126392446
 20
92.6383766599
 30
0.0
 10
184.3126392446
 20
92.5970687614
 30
0.0
 10
184.2990890808
 20
92.5120857697
 30
0.0
 10
184.2395600907
 20
92.3932678888
 30
0.0
 10
184.1443184764
 20
92.2870566963
 30
0.0
 10
183.968989672
 20
92.1613286716
 30
0.0
 10
183.686658766
 20
92.0568288637
 30
0.0
 10
183.4411208798
 20
92.03
 30
0.0
 10
183.3126392446
 20
92.03
 30
0.0
  0
SPLINE
  5
43A
100
AcDbEntity
  8
KONSTRUKTIONSELEMENTE
100
AcDbSpline
 62
7
  6
CONTINUOUS
 70
0
 71
3
 72
10
 73
6
 74
0
 42
0.0000001
 43
0.0000001
 44
0.0000000001
 40
0.0
 40
0.0
 40
0.0
 40
0.0
 40
0.2803709726
 40
0.5474117276
 40
1.0
 40
1.0
 40
1.0
 40
1.0
 10
183.3126392446
 20
92.43625
 30
0.0
 10
183.4033686904
 20
92.43625
 30
0.0
 10
183.5812940023
 20
92.4503632355
 30
0.0
 10
183.8946076302
 20
92.5280535219
 30
0.0
 10
184.1096218624
 20
92.6496596897
 30
0.0
 10
184.2034368185
 20
92.7621285028
 30
0.0
  0
SPLINE
  5
43B
100
AcDbEntity
  8
KONSTRUKTIONSELEMENTE
100
AcDbSpline
 62
7
  6
CONTINUOUS
 70
0
 71
3
 72
9
 73
5
 74
0
 42
0.0000001
 43
0.0000001
 44
0.0000000001
 40
0.0
 40
0.0
 40
0.0
 40
0.0
 40
0.515314666
 40
1.0
 40
1.0
 40
1.0
 40
1.0
 10
184.2034368185
 20
92.7621285028
 30
0.0
 10
184.2373709687
 20
92.8028100078
 30
0.0
 10
184.2926568511
 20
92.8919666878
 30
0.0
 10
184.3126392446
 20
92.9956205053
 30
0.0
 10
184.3126392446
 20
93.0454481985
 30
0.0
  0
SPLINE
  5
43C
100
AcDbEntity
  8
KONSTRUKTIONSELEMENTE
100
AcDbSpline
 62
7
  6
CONTINUOUS
 70
0
 71
3
 72
9
 73
5
 74
0
 42
0.0000001
 43
0.0000001
 44
0.0000000001
 40
0.0
 40
0.0
 40
0.0
 40
0.0
 40
0.484685334
 40
1.0
 40
1.0
 40
1.0
 40
1.0
 10
184.3126392446
 20
117.0145518015
 30
0.0
 10
184.3126392446
 20
117.0643794947
 30
0.0
 10
184.2926568511
 20
117.1680333122
 30
0.0
 10
184.2373709687
 20
117.2571899922
 30
0.0
 10
184.2034368185
 20
117.2978714972
 30
0.0
  0
SPLINE
  5
43D
100
AcDbEntity
  8
KONSTRUKTIONSELEMENTE
100
AcDbSpline
 62
7
  6
CONTINUOUS
 70
0
 71
3
 72
10
 73
6
 74
0
 42
0.0000001
 43
0.0000001
 44
0.0000000001
 40
0.0
 40
0.0
 40
0.0
 40
0.0
 40
0.4525882724
 40
0.7196290274
 40
1.0
 40
1.0
 40
1.0
 40
1.0
 10
184.2034368185
 20
117.2978714972
 30
0.0
 10
184.1096218624
 20
117.4103403103
 30
0.0
 10
183.8946076302
 20
117.5319464781
 30
0.0
 10
183.5812940023
 20
117.6096367645
 30
0.0
 10
183.4033686904
 20
117.62375
 30
0.0
 10
183.3126392446
 20
117.62375
 30
0.0
  0
SPLINE
  5
43E
100
AcDbEntity
  8
KONSTRUKTIONSELEMENTE
100
AcDbSpline
 62
7
  6
CONTINUOUS
 70
0
 71
3
 72
13
 73
9
 74
0
 42
0.0000001
 43
0.0000001
 44
0.0000000001
 40
0.0
 40
0.0
 40
0.0
 40
0.0
 40
0.3006399175
 40
0.5728128425
 40
0.6930951578
 40
0.8024332773
 40
0.903341803
 40
1.0
 40
1.0
 40
1.0
 40
1.0
 10
183.3126392446
 20
118.03
 30
0.0
 10
183.4411208798
 20
118.03
 30
0.0
 10
183.686658766
 20
118.0031711363
 30
0.0
 10
183.968989672
 20
117.8986713284
 30
0.0
 10
184.1443184764
 20
117.7729433037
 30
0.0
 10
184.2395600907
 20
117.6667321112
 30
0.0
 10
184.2990890808
 20
117.5479142303
 30
0.0
 10
184.3126392446
 20
117.4629312386
 30
0.0
 10
184.3126392446
 20
117.4216233401
 30
0.0
  0
SPLINE
  5
43F
100
AcDbEntity
  8
KONSTRUKTIONSELEMENTE
100
AcDbSpline
 62
7
  6
CONTINUOUS
 70
0
 71
3
 72
13
 73
9
 74
0
 42
0.0000001
 43
0.0000001
 44
0.0000000001
 40
0.0
 40
0.0
 40
0.0
 40
0.0
 40
0.096658197
 40
0.1975667227
 40
0.3069048422
 40
0.4271871575
 40
0.6993600825
 40
1.0
 40
1.0
 40
1.0
 40
1.0
 10
174.3126392446
 20
117.4216233401
 30
0.0
 10
174.3126392446
 20
117.4629312386
 30
0.0
 10
174.3261894083
 20
117.5479142303
 30
0.0
 10
174.3857183984
 20
117.6667321112
 30
0.0
 10
174.4809600127
 20
117.7729433037
 30
0.0
 10
174.6562888171
 20
117.8986713284
 30
0.0
 10
174.9386197231
 20
118.0031711363
 30
0.0
 10
175.1841576093
 20
118.03
 30
0.0
 10
175.3126392446
 20
118.03
 30
0.0
  0
SPLINE
  5
440
100
AcDbEntity
  8
KONSTRUKTIONSELEMENTE
100
AcDbSpline
 62
7
  6
CONTINUOUS
 70
0
 71
3
 72
10
 73
6
 74
0
 42
0.0000001
 43
0.0000001
 44
0.0000000001
 40
0.0
 40
0.0
 40
0.0
 40
0.0
 40
0.2803709726
 40
0.5474117276
 40
1.0
 40
1.0
 40
1.0
 40
1.0
 10
175.3126392446
 20
117.62375
 30
0.0
 10
175.2219097987
 20
117.62375
 30
0.0
 10
175.0439844868
 20
117.6096367645
 30
0.0
 10
174.7306708589
 20
117.5319464781
 30
0.0
 10
174.5156566267
 20
117.4103403103
 30
0.0
 10
174.4218416706
 20
117.2978714972
 30
0.0
  0
SPLINE
  5
441
100
AcDbEntity
  8
KONSTRUKTIONSELEMENTE
100
AcDbSpline
 62
7
  6
CONTINUOUS
 70
0
 71
3
 72
9
 73
5
 74
0
 42
0.0000001
 43
0.0000001
 44
0.0000000001
 40
0.0
 40
0.0
 40
0.0
 40
0.0
 40
0.515314666
 40
1.0
 40
1.0
 40
1.0
 40
1.0
 10
174.4218416706
 20
117.2978714972
 30
0.0
 10
174.3879075204
 20
117.2571899922
 30
0.0
 10
174.332621638
 20
117.1680333122
 30
0.0
 10
174.3126392446
 20
117.0643794947
 30
0.0
 10
174.3126392446
 20
117.0145518015
 30
0.0
  0
SPLINE
  5
442
100
AcDbEntity
  8
KONSTRUKTIONSELEMENTE
100
AcDbSpline
 62
7
  6
CONTINUOUS
 70
0
 71
3
 72
9
 73
5
 74
0
 42
0.0000001
 43
0.0000001
 44
0.0000000001
 40
0.0
 40
0.0
 40
0.0
 40
0.0
 40
0.484685334
 40
1.0
 40
1.0
 40
1.0
 40
1.0
 10
168.8126392446
 20
117.0145518015
 30
0.0
 10
168.8126392446
 20
117.0643794947
 30
0.0
 10
168.7926568511
 20
117.1680333122
 30
0.0
 10
168.7373709687
 20
117.2571899922
 30
0.0
 10
168.7034368185
 20
117.2978714972
 30
0.0
  0
SPLINE
  5
443
100
AcDbEntity
  8
KONSTRUKTIONSELEMENTE
100
AcDbSpline
 62
7
  6
CONTINUOUS
 70
0
 71
3
 72
10
 73
6
 74
0
 42
0.0000001
 43
0.0000001
 44
0.0000000001
 40
0.0
 40
0.0
 40
0.0
 40
0.0
 40
0.4525882724
 40
0.7196290274
 40
1.0
 40
1.0
 40
1.0
 40
1.0
 10
168.7034368185
 20
117.2978714972
 30
0.0
 10
168.6096218624
 20
117.4103403103
 30
0.0
 10
168.3946076302
 20
117.5319464781
 30
0.0
 10
168.0812940023
 20
117.6096367645
 30
0.0
 10
167.9033686904
 20
117.62375
 30
0.0
 10
167.8126392446
 20
117.62375
 30
0.0
  0
SPLINE
  5
444
100
AcDbEntity
  8
KONSTRUKTIONSELEMENTE
100
AcDbSpline
 62
7
  6
CONTINUOUS
 70
0
 71
3
 72
13
 73
9
 74
0
 42
0.0000001
 43
0.0000001
 44
0.0000000001
 40
0.0
 40
0.0
 40
0.0
 40
0.0
 40
0.3006399175
 40
0.5728128425
 40
0.6930951578
 40
0.8024332773
 40
0.903341803
 40
1.0
 40
1.0
 40
1.0
 40
1.0
 10
167.8126392446
 20
118.03
 30
0.0
 10
167.9411208798
 20
118.03
 30
0.0
 10
168.186658766
 20
118.0031711363
 30
0.0
 10
168.468989672
 20
117.8986713284
 30
0.0
 10
168.6443184764
 20
117.7729433037
 30
0.0
 10
168.7395600907
 20
117.6667321112
 30
0.0
 10
168.7990890808
 20
117.5479142303
 30
0.0
 10
168.8126392446
 20
117.4629312386
 30
0.0
 10
168.8126392446
 20
117.4216233401
 30
0.0
  0
SPLINE
  5
445
100
AcDbEntity
  8
KONSTRUKTIONSELEMENTE
100
AcDbSpline
 62
7
  6
CONTINUOUS
 70
0
 71
3
 72
13
 73
9
 74
0
 42
0.0000001
 43
0.0000001
 44
0.0000000001
 40
0.0
 40
0.0
 40
0.0
 40
0.0
 40
0.096658197
 40
0.1975667227
 40
0.3069048422
 40
0.4271871575
 40
0.6993600825
 40
1.0
 40
1.0
 40
1.0
 40
1.0
 10
158.8126392446
 20
117.4216233401
 30
0.0
 10
158.8126392446
 20
117.4629312386
 30
0.0
 10
158.8261894083
 20
117.5479142303
 30
0.0
 10
158.8857183984
 20
117.6667321112
 30
0.0
 10
158.9809600127
 20
117.7729433037
 30
0.0
 10
159.1562888171
 20
117.8986713284
 30
0.0
 10
159.4386197231
 20
118.0031711363
 30
0.0
 10
159.6841576093
 20
118.03
 30
0.0
 10
159.8126392446
 20
118.03
 30
0.0
  0
SPLINE
  5
446
100
AcDbEntity
  8
KONSTRUKTIONSELEMENTE
100
AcDbSpline
 62
7
  6
CONTINUOUS
 70
0
 71
3
 72
10
 73
6
 74
0
 42
0.0000001
 43
0.0000001
 44
0.0000000001
 40
0.0
 40
0.0
 40
0.0
 40
0.0
 40
0.2803709726
 40
0.5474117276
 40
1.0
 40
1.0
 40
1.0
 40
1.0
 10
159.8126392446
 20
117.62375
 30
0.0
 10
159.7219097987
 20
117.62375
 30
0.0
 10
159.5439844868
 20
117.6096367645
 30
0.0
 10
159.2306708589
 20
117.5319464781
 30
0.0
 10
159.0156566267
 20
117.4103403103
 30
0.0
 10
158.9218416706
 20
117.2978714972
 30
0.0
  0
SPLINE
  5
447
100
AcDbEntity
  8
KONSTRUKTIONSELEMENTE
100
AcDbSpline
 62
7
  6
CONTINUOUS
 70
0
 71
3
 72
9
 73
5
 74
0
 42
0.0000001
 43
0.0000001
 44
0.0000000001
 40
0.0
 40
0.0
 40
0.0
 40
0.0
 40
0.515314666
 40
1.0
 40
1.0
 40
1.0
 40
1.0
 10
158.9218416706
 20
117.2978714972
 30
0.0
 10
158.8879075204
 20
117.2571899922
 30
0.0
 10
158.832621638
 20
117.1680333122
 30
0.0
 10
158.8126392446
 20
117.0643794947
 30
0.0
 10
158.8126392446
 20
117.0145518015
 30
0.0
  0
ELLIPSE
  5
448
100
AcDbEntity
  8
KONSTRUKTIONSELEMENTE
100
AcDbEllipse
 62
7
  6
CONTINUOUS
 10
182.5676750493
 20
186.4542985259
 30
0.0
 11
-0.0
 21
16.3
 31
0.0
 40
0.6808509827
 41
6.2831853274
 42
6.2922665532
  0
ELLIPSE
  5
449
100
AcDbEntity
  8
KONSTRUKTIONSELEMENTE
100
AcDbEllipse
 62
7
  6
CONTINUOUS
 10
180.0576020977
 20
186.4542985259
 30
0.0
 11
0.0
 21
16.3
 31
0.0
 40
0.6808509827
 41
-0.009081246
 42
-0.0000000203
  0
ELLIPSE
  5
44A
100
AcDbEntity
  8
0
100
AcDbEllipse
 62
7
  6
CONTINUOUS
 10
161.0626392446
 20
183.6538596276
 30
0.0
 11
-0.0
 21
8.083778132
 31
0.0
 40
0.742227199
 41
1.5707963268
 42
1.8913138952
  0
ELLIPSE
  5
44B
100
AcDbEntity
  8
0
100
AcDbEllipse
 62
7
  6
CONTINUOUS
 10
161.0626392446
 20
186.7236872459
 30
0.0
 11
0.0
 21
17.2763114494
 31
0.0
 40
0.3472963553
 41
-4.3612162784
 42
-4.1799965208
  0
ELLIPSE
  5
44C
100
AcDbEntity
  8
0
100
AcDbEllipse
 62
7
  6
CONTINUOUS
 10
182.0626392446
 20
186.7236872459
 30
0.0
 11
0.0
 21
17.2763114494
 31
0.0
 40
0.3472963553
 41
-2.1031887864
 42
-1.9219690288
  0
ELLIPSE
  5
44D
100
AcDbEntity
  8
0
100
AcDbEllipse
 62
7
  6
CONTINUOUS
 10
182.0626392446
 20
183.6538596276
 30
0.0
 11
0.0
 21
8.083778132
 31
0.0
 40
0.742227199
 41
-1.8913138952
 42
-1.5707963268
  0
ELLIPSE
  5
44E
100
AcDbEntity
  8
KONSTRUKTIONSELEMENTE
100
AcDbEllipse
 62
7
  6
CONTINUOUS
 10
181.5661121195
 20
186.4542985259
 30
0.0
 11
42.5418440819
 21
-0.0
 31
0.0
 40
0.3831521729
 41
2.0142604013
 42
2.059330195
  0
ELLIPSE
  5
44F
100
AcDbEntity
  8
KONSTRUKTIONSELEMENTE
100
AcDbEllipse
 62
7
  6
CONTINUOUS
 10
157.6934347938
 20
186.4542985259
 30
0.0
 11
0.0
 21
16.3
 31
0.0
 40
0.5106383587
 41
-0.4885338682
 42
-0.4683763681
  0
ELLIPSE
  5
450
100
AcDbEntity
  8
KONSTRUKTIONSELEMENTE
100
AcDbEllipse
 62
7
  6
CONTINUOUS
 10
151.4309332888
 20
186.4542985259
 30
0.0
 11
22.1957420349
 21
0.0
 31
0.0
 40
0.7343750875
 41
1.1024199587
 42
1.1174037457
  0
ELLIPSE
  5
451
100
AcDbEntity
  8
KONSTRUKTIONSELEMENTE
100
AcDbEllipse
 62
7
  6
CONTINUOUS
 10
139.2782480067
 20
186.4542985259
 30
0.0
 11
49.9404672055
 21
0.0
 31
0.0
 40
0.3263886165
 41
1.1174037457
 42
1.1223739202
  0
ELLIPSE
  5
452
100
AcDbEntity
  8
KONSTRUKTIONSELEMENTE
100
AcDbEllipse
 62
7
  6
CONTINUOUS
 10
182.283200673
 20
186.4542985259
 30
0.0
 11
49.9404672055
 21
-0.0
 31
0.0
 40
0.3263886165
 41
2.0192187334
 42
2.0241889079
  0
ELLIPSE
  5
453
100
AcDbEntity
  8
KONSTRUKTIONSELEMENTE
100
AcDbEllipse
 62
7
  6
CONTINUOUS
 10
170.1305153909
 20
186.4542985259
 30
0.0
 11
22.1957420349
 21
0.0
 31
0.0
 40
0.7343750875
 41
2.0241889079
 42
2.0391726949
  0
ELLIPSE
  5
454
100
AcDbEntity
  8
KONSTRUKTIONSELEMENTE
100
AcDbEllipse
 62
7
  6
CONTINUOUS
 10
165.7467650541
 20
186.4542985259
 30
0.0
 11
-0.0
 21
16.3
 31
0.0
 40
0.7659575381
 41
0.4683763681
 42
0.4885338682
  0
ELLIPSE
  5
455
100
AcDbEntity
  8
KONSTRUKTIONSELEMENTE
100
AcDbEllipse
 62
7
  6
CONTINUOUS
 10
161.4496820457
 20
186.4542985259
 30
0.0
 11
0.0
 21
16.3
 31
0.0
 40
0.2042552558
 41
0.4885338682
 42
0.5140396616
  0
ELLIPSE
  5
456
100
AcDbEntity
  8
KONSTRUKTIONSELEMENTE
100
AcDbEllipse
 62
7
  6
CONTINUOUS
 10
164.204689215
 20
186.4542985259
 30
0.0
 11
-0.0
 21
16.3
 31
0.0
 40
0.255319362
 41
0.3275339735
 42
0.3464944864
  0
ELLIPSE
  5
457
100
AcDbEntity
  8
KONSTRUKTIONSELEMENTE
100
AcDbEllipse
 62
7
  6
CONTINUOUS
 10
166.5602312008
 20
186.4542985259
 30
0.0
 11
0.0
 21
16.3
 31
0.0
 40
0.6808512211
 41
0.3464944864
 42
0.3608001399
  0
ELLIPSE
  5
458
100
AcDbEntity
  8
KONSTRUKTIONSELEMENTE
100
AcDbEllipse
 62
7
  6
CONTINUOUS
 10
171.4574672338
 20
186.4542985259
 30
0.0
 11
24.9701621625
 21
-0.0
 31
0.0
 40
0.6527791007
 41
1.9315964667
 42
1.9411764619
  0
ELLIPSE
  5
459
100
AcDbEntity
  8
KONSTRUKTIONSELEMENTE
100
AcDbEllipse
 62
7
  6
CONTINUOUS
 10
186.521680164
 20
186.4542985259
 30
0.0
 11
66.5874801158
 21
0.0
 31
0.0
 40
0.244790762
 41
1.9411764619
 42
1.9459797657
  0
ELLIPSE
  5
45A
100
AcDbEntity
  8
KONSTRUKTIONSELEMENTE
100
AcDbEllipse
 62
7
  6
CONTINUOUS
 10
162.301127497
 20
186.4542985259
 30
0.0
 11
-0.0
 21
16.3
 31
0.0
 40
0.2042553906
 41
-0.3086948207
 42
-0.2853031333
  0
ELLIPSE
  5
45B
100
AcDbEntity
  8
KONSTRUKTIONSELEMENTE
100
AcDbEllipse
 62
7
  6
CONTINUOUS
 10
160.895563908
 20
186.4542985259
 30
0.0
 11
0.0
 21
16.3
 31
0.0
 40
0.5106380606
 41
-0.2853031333
 42
-0.2667053166
  0
ELLIPSE
  5
45C
100
AcDbEntity
  8
KONSTRUKTIONSELEMENTE
100
AcDbEllipse
 62
7
  6
CONTINUOUS
 10
158.7018930183
 20
186.4542985259
 30
0.0
 11
16.6468000457
 21
-0.0
 31
0.0
 40
0.9791671646
 41
1.3040910102
 42
1.3225947911
  0
ELLIPSE
  5
45D
100
AcDbEntity
  8
KONSTRUKTIONSELEMENTE
100
AcDbEllipse
 62
7
  6
CONTINUOUS
 10
154.6124109617
 20
186.4542985259
 30
0.0
 11
33.293650633
 21
-0.0
 31
0.0
 40
0.4895828391
 41
1.3225947911
 42
1.3318138095
  0
ELLIPSE
  5
45E
100
AcDbEntity
  8
KONSTRUKTIONSELEMENTE
100
AcDbEllipse
 62
7
  6
CONTINUOUS
 10
142.7908517711
 20
186.4542985259
 30
0.0
 11
83.2338738749
 21
-0.0
 31
0.0
 40
0.1958337302
 41
1.3318138095
 42
1.3364155265
  0
ELLIPSE
  5
45F
100
AcDbEntity
  8
KONSTRUKTIONSELEMENTE
100
AcDbEllipse
 62
7
  6
CONTINUOUS
 10
163.0160217036
 20
186.4542985259
 30
0.0
 11
0.0
 21
16.3
 31
0.0
 40
0.2042551568
 41
-0.089209765
 42
-0.0667740024
  0
ELLIPSE
  5
460
100
AcDbEntity
  8
KONSTRUKTIONSELEMENTE
100
AcDbEllipse
 62
7
  6
CONTINUOUS
 10
184.7143584652
 20
186.4542985259
 30
0.0
 11
99.8812434911
 21
-0.0
 31
0.0
 40
0.1631938033
 41
7.880959671
 42
7.8854349826
  0
ELLIPSE
  5
461
100
AcDbEntity
  8
KONSTRUKTIONSELEMENTE
100
AcDbEllipse
 62
7
  6
CONTINUOUS
 10
162.6827965386
 20
186.4542985259
 30
0.0
 11
-0.0
 21
16.3
 31
0.0
 40
0.510638791
 41
-0.0667740024
 42
-0.0488501749
  0
ELLIPSE
  5
462
100
AcDbEntity
  8
KONSTRUKTIONSELEMENTE
100
AcDbEllipse
 62
7
  6
CONTINUOUS
 10
182.6936516816
 20
186.4542985259
 30
0.0
 11
24.9702365174
 21
-0.0
 31
0.0
 40
0.6527771569
 41
7.86306288
 42
7.880959671
  0
ELLIPSE
  5
463
100
AcDbEntity
  8
KONSTRUKTIONSELEMENTE
100
AcDbEllipse
 62
7
  6
CONTINUOUS
 10
162.2763581229
 20
186.4542985259
 30
0.0
 11
16.6468238592
 21
0.0
 31
0.0
 40
0.9791657639
 41
1.5219461519
 42
1.5398542848
  0
ELLIPSE
  5
464
100
AcDbEntity
  8
KONSTRUKTIONSELEMENTE
100
AcDbEllipse
 62
7
  6
CONTINUOUS
 10
161.7613564438
 20
186.4542985259
 30
0.0
 11
33.2935553793
 21
-0.0
 31
0.0
 40
0.4895842398
 41
1.5398542848
 42
1.5488042965
  0
ELLIPSE
  5
465
100
AcDbEntity
  8
KONSTRUKTIONSELEMENTE
100
AcDbEllipse
 62
7
  6
CONTINUOUS
 10
160.6631455041
 20
186.4542985259
 30
0.0
 11
83.2343501448
 21
-0.0
 31
0.0
 40
0.1958326096
 41
1.5488042965
 42
1.5532785714
  0
ELLIPSE
  5
466
100
AcDbEntity
  8
KONSTRUKTIONSELEMENTE
100
AcDbEllipse
 62
7
  6
CONTINUOUS
 10
162.4621339062
 20
186.4542985259
 30
0.0
 11
83.2343967796
 21
-0.0
 31
0.0
 40
0.1958324999
 41
1.5883140822
 42
1.5927883571
  0
ELLIPSE
  5
467
100
AcDbEntity
  8
KONSTRUKTIONSELEMENTE
100
AcDbEllipse
 62
7
  6
CONTINUOUS
 10
161.3639218128
 20
186.4542985259
 30
0.0
 11
33.29354955
 21
0.0
 31
0.0
 40
0.4895843255
 41
1.5927883571
 42
1.6017383688
  0
ELLIPSE
  5
468
100
AcDbEntity
  8
KONSTRUKTIONSELEMENTE
100
AcDbEllipse
 62
7
  6
CONTINUOUS
 10
160.8489202689
 20
186.4542985259
 30
0.0
 11
16.6468224018
 21
0.0
 31
0.0
 40
0.9791658496
 41
7.884923676
 42
7.9028318089
  0
ELLIPSE
  5
469
100
AcDbEntity
  8
KONSTRUKTIONSELEMENTE
100
AcDbEllipse
 62
7
  6
CONTINUOUS
 10
160.4424818711
 20
186.4542985259
 30
0.0
 11
-0.0
 21
16.3
 31
0.0
 40
0.510638724
 41
0.0488501749
 42
0.0667740024
  0
ELLIPSE
  5
46A
100
AcDbEntity
  8
KONSTRUKTIONSELEMENTE
100
AcDbEllipse
 62
7
  6
CONTINUOUS
 10
160.1092567596
 20
186.4542985259
 30
0.0
 11
-0.0
 21
16.3
 31
0.0
 40
0.204255139
 41
0.0667740024
 42
0.089209765
  0
ELLIPSE
  5
46B
100
AcDbEntity
  8
KONSTRUKTIONSELEMENTE
100
AcDbEllipse
 62
7
  6
CONTINUOUS
 10
179.931625386
 20
186.4542985259
 30
0.0
 11
24.9702452614
 21
-0.0
 31
0.0
 40
0.6527769283
 41
1.5438182898
 42
1.5617150808
  0
ELLIPSE
  5
46C
100
AcDbEntity
  8
KONSTRUKTIONSELEMENTE
100
AcDbEllipse
 62
7
  6
CONTINUOUS
 10
177.9109194672
 20
186.4542985259
 30
0.0
 11
99.8812201737
 21
-0.0
 31
0.0
 40
0.1631938414
 41
1.5393429781
 42
1.5438182898
  0
ELLIPSE
  5
46D
100
AcDbEntity
  8
KONSTRUKTIONSELEMENTE
100
AcDbEllipse
 62
7
  6
CONTINUOUS
 10
177.9031565107
 20
186.4542985259
 30
0.0
 11
49.9403243249
 21
-0.0
 31
0.0
 40
0.3263895503
 41
1.8294017413
 42
1.8340318857
  0
ELLIPSE
  5
46E
100
AcDbEntity
  8
KONSTRUKTIONSELEMENTE
100
AcDbEllipse
 62
7
  6
CONTINUOUS
 10
179.6367341373
 20
186.4542985259
 30
0.0
 11
-0.0
 21
16.3
 31
0.0
 40
0.1702127457
 41
0.0000000083
 42
0.0267093925
  0
ELLIPSE
  5
46F
100
AcDbEntity
  8
KONSTRUKTIONSELEMENTE
100
AcDbEllipse
 62
7
  6
CONTINUOUS
 10
170.6838493841
 20
186.4542985259
 30
0.0
 11
22.1957420349
 21
-0.0
 31
0.0
 40
0.7343750875
 41
8.1172171929
 42
8.1311427959
  0
ELLIPSE
  5
470
100
AcDbEntity
  8
KONSTRUKTIONSELEMENTE
100
AcDbEllipse
 62
7
  6
CONTINUOUS
 10
182.9885430554
 20
186.4542985259
 30
0.0
 11
-0.0
 21
16.3
 31
0.0
 40
0.1702127606
 41
-0.0267093925
 42
-0.0000000083
  0
ELLIPSE
  5
471
100
AcDbEntity
  8
KONSTRUKTIONSELEMENTE
100
AcDbEllipse
 62
7
  6
CONTINUOUS
 10
168.0267673395
 20
186.4542985259
 30
0.0
 11
0.0
 21
16.3
 31
0.0
 40
0.765958086
 41
0.277161162
 42
0.2958153702
  0
ELLIPSE
  5
472
100
AcDbEntity
  8
KONSTRUKTIONSELEMENTE
100
AcDbEllipse
 62
7
  6
CONTINUOUS
 10
165.3576816597
 20
186.4542985259
 30
0.0
 11
0.0
 21
16.3
 31
0.0
 40
0.204255139
 41
0.2958153702
 42
0.3192841755
  0
ELLIPSE
  5
473
100
AcDbEntity
  8
KONSTRUKTIONSELEMENTE
100
AcDbEllipse
 62
7
  6
CONTINUOUS
 10
165.20376702
 20
186.4542985259
 30
0.0
 11
-0.0
 21
16.3
 31
0.0
 40
0.204255139
 41
-0.3192841755
 42
-0.2958153702
  0
ELLIPSE
  5
474
100
AcDbEntity
  8
KONSTRUKTIONSELEMENTE
100
AcDbEllipse
 62
7
  6
CONTINUOUS
 10
162.5346813402
 20
186.4542985259
 30
0.0
 11
-0.0
 21
16.3
 31
0.0
 40
0.765958086
 41
-0.2958153702
 42
-0.277161162
  0
ELLIPSE
  5
475
100
AcDbEntity
  8
KONSTRUKTIONSELEMENTE
100
AcDbEllipse
 62
7
  6
CONTINUOUS
 10
159.8775992956
 20
186.4542985259
 30
0.0
 11
22.1957420349
 21
-0.0
 31
0.0
 40
0.7343750875
 41
1.2936351648
 42
1.3075607678
  0
ELLIPSE
  5
476
100
AcDbEntity
  8
KONSTRUKTIONSELEMENTE
100
AcDbEllipse
 62
7
  6
CONTINUOUS
 10
152.658292169
 20
186.4542985259
 30
0.0
 11
49.9403243249
 21
-0.0
 31
0.0
 40
0.3263895503
 41
1.3075607678
 42
1.3121909123
  0
ELLIPSE
  5
477
100
AcDbEntity
  8
KONSTRUKTIONSELEMENTE
100
AcDbEllipse
 62
7
  6
CONTINUOUS
 10
204.3738814127
 20
186.4542985259
 30
0.0
 11
99.8806719672
 21
0.0
 31
0.0
 40
0.1631947371
 41
1.7965131112
 42
1.8011053988
  0
ELLIPSE
  5
478
100
AcDbEntity
  8
KONSTRUKTIONSELEMENTE
100
AcDbEllipse
 62
7
  6
CONTINUOUS
 10
187.6085417662
 20
186.4542985259
 30
0.0
 11
24.9702007972
 21
-0.0
 31
0.0
 40
0.6527780907
 41
8.0613765604
 42
8.0796984184
  0
ELLIPSE
  5
479
100
AcDbEntity
  8
KONSTRUKTIONSELEMENTE
100
AcDbEllipse
 62
7
  6
CONTINUOUS
 10
184.7520715732
 20
186.4542985259
 30
0.0
 11
-0.0
 21
16.3
 31
0.0
 40
0.6808509827
 41
0.1937000998
 42
0.2073949264
  0
ELLIPSE
  5
47A
100
AcDbEntity
  8
KONSTRUKTIONSELEMENTE
100
AcDbEllipse
 62
7
  6
CONTINUOUS
 10
183.2567035129
 20
186.4542985259
 30
0.0
 11
0.0
 21
16.3
 31
0.0
 40
0.2042556065
 41
6.4541408762
 42
6.4768854069
  0
ELLIPSE
  5
47B
100
AcDbEntity
  8
KONSTRUKTIONSELEMENTE
100
AcDbEllipse
 62
7
  6
CONTINUOUS
 10
156.0806318863
 20
186.4542985259
 30
0.0
 11
79.0723049534
 21
0.0
 31
0.0
 40
0.2061404434
 41
1.4218758688
 42
1.4579738403
  0
ELLIPSE
  5
47C
100
AcDbEntity
  8
KONSTRUKTIONSELEMENTE
100
AcDbEllipse
 62
7
  6
CONTINUOUS
 10
163.8019939675
 20
186.4542985259
 30
0.0
 11
97.7999533653
 21
-0.0
 31
0.0
 40
0.1666667461
 41
1.5297761615
 42
1.5655749787
  0
ELLIPSE
  5
47D
100
AcDbEntity
  8
KONSTRUKTIONSELEMENTE
100
AcDbEllipse
 62
7
  6
CONTINUOUS
 10
171.4058975217
 20
186.4542985259
 30
0.0
 11
74.9106023917
 21
-0.0
 31
0.0
 40
0.2175926969
 41
7.9129180533
 42
7.9488133519
  0
ELLIPSE
  5
47E
100
AcDbEntity
  8
KONSTRUKTIONSELEMENTE
100
AcDbEllipse
 62
7
  6
CONTINUOUS
 10
183.6000911251
 20
186.4542985259
 30
0.0
 11
99.8807555621
 21
0.0
 31
0.0
 40
0.1631946005
 41
1.7378363145
 42
1.7651218382
  0
ELLIPSE
  5
47F
100
AcDbEntity
  8
KONSTRUKTIONSELEMENTE
100
AcDbEllipse
 62
7
  6
CONTINUOUS
 10
179.3685736341
 20
186.4542985259
 30
0.0
 11
0.0
 21
16.3
 31
0.0
 40
0.2042556065
 41
-0.1937000998
 42
-0.170955569
  0
ELLIPSE
  5
480
100
AcDbEntity
  8
KONSTRUKTIONSELEMENTE
100
AcDbEllipse
 62
7
  6
CONTINUOUS
 10
177.8732055738
 20
186.4542985259
 30
0.0
 11
0.0
 21
16.3
 31
0.0
 40
0.6808509827
 41
-0.2073949264
 42
-0.1937000998
  0
ELLIPSE
  5
481
100
AcDbEntity
  8
KONSTRUKTIONSELEMENTE
100
AcDbEllipse
 62
7
  6
CONTINUOUS
 10
175.0167335803
 20
186.4542985259
 30
0.0
 11
24.9702095412
 21
-0.0
 31
0.0
 40
0.6527778621
 41
1.3450795424
 42
1.3634014003
  0
ELLIPSE
  5
482
100
AcDbEntity
  8
KONSTRUKTIONSELEMENTE
100
AcDbEllipse
 62
7
  6
CONTINUOUS
 10
158.2514011093
 20
186.4542985259
 30
0.0
 11
99.8806486499
 21
-0.0
 31
0.0
 40
0.1631947752
 41
1.3404872548
 42
1.3450795424
  0
ELLIPSE
  5
483
100
AcDbEntity
  8
KONSTRUKTIONSELEMENTE
100
AcDbEllipse
 62
7
  6
CONTINUOUS
 10
180.0346423349
 20
186.4542985259
 30
0.0
 11
0.0
 21
16.3
 31
0.0
 40
0.1702127457
 41
0.1437784337
 42
0.170955569
  0
ELLIPSE
  5
484
100
AcDbEntity
  8
KONSTRUKTIONSELEMENTE
100
AcDbEllipse
 62
7
  6
CONTINUOUS
 10
181.0682339566
 20
186.4542985259
 30
0.0
 11
0.0
 21
16.3
 31
0.0
 40
0.6127654169
 41
0.1212130873
 42
0.1437784337
  0
ELLIPSE
  5
485
100
AcDbEntity
  8
KONSTRUKTIONSELEMENTE
100
AcDbEllipse
 62
7
  6
CONTINUOUS
 10
181.8733841937
 20
186.4542985259
 30
0.0
 11
16.6468065262
 21
-0.0
 31
0.0
 40
0.9791667834
 41
1.6785006756
 42
1.6920094141
  0
ELLIPSE
  5
486
100
AcDbEntity
  8
KONSTRUKTIONSELEMENTE
100
AcDbEllipse
 62
7
  6
CONTINUOUS
 10
183.6628464279
 20
186.4542985259
 30
0.0
 11
33.29354955
 21
-0.0
 31
0.0
 40
0.4895843255
 41
7.9526912432
 42
7.9616859828
  0
ELLIPSE
  5
487
100
AcDbEntity
  8
KONSTRUKTIONSELEMENTE
100
AcDbEllipse
 62
7
  6
CONTINUOUS
 10
185.3034086804
 20
186.4542985259
 30
0.0
 11
49.9406567217
 21
-0.0
 31
0.0
 40
0.3263873779
 41
1.6650116407
 42
1.6695059361
  0
ELLIPSE
  5
488
100
AcDbEntity
  8
KONSTRUKTIONSELEMENTE
100
AcDbEllipse
 62
7
  6
CONTINUOUS
 10
188.435545905
 20
186.4542985259
 30
0.0
 11
83.2343501448
 21
0.0
 31
0.0
 40
0.1958326096
 41
1.6605192532
 42
1.6650116407
  0
ELLIPSE
  5
489
100
AcDbEntity
  8
KONSTRUKTIONSELEMENTE
100
AcDbEllipse
 62
7
  6
CONTINUOUS
 10
174.1897292049
 20
186.4542985259
 30
0.0
 11
83.2343734622
 21
0.0
 31
0.0
 40
0.1958325548
 41
1.4765810129
 42
1.4810734004
  0
ELLIPSE
  5
48A
100
AcDbEntity
  8
KONSTRUKTIONSELEMENTE
100
AcDbEllipse
 62
7
  6
CONTINUOUS
 10
177.3218730103
 20
186.4542985259
 30
0.0
 11
49.9406100869
 21
-0.0
 31
0.0
 40
0.3263876827
 41
1.4720867175
 42
1.4765810129
  0
ELLIPSE
  5
48B
100
AcDbEntity
  8
KONSTRUKTIONSELEMENTE
100
AcDbEllipse
 62
7
  6
CONTINUOUS
 10
178.9624300924
 20
186.4542985259
 30
0.0
 11
33.2935553793
 21
0.0
 31
0.0
 40
0.4895842398
 41
1.463091978
 42
1.4720867175
  0
ELLIPSE
  5
48C
100
AcDbEntity
  8
KONSTRUKTIONSELEMENTE
100
AcDbEllipse
 62
7
  6
CONTINUOUS
 10
180.7518927444
 20
186.4542985259
 30
0.0
 11
16.6468084693
 21
-0.0
 31
0.0
 40
0.9791666691
 41
1.4495832395
 42
1.463091978
  0
ELLIPSE
  5
48D
100
AcDbEntity
  8
KONSTRUKTIONSELEMENTE
100
AcDbEllipse
 62
7
  6
CONTINUOUS
 10
181.5570431108
 20
186.4542985259
 30
0.0
 11
0.0
 21
16.3
 31
0.0
 40
0.6127654705
 41
-0.1437784337
 42
-0.1212130873
  0
ELLIPSE
  5
48E
100
AcDbEntity
  8
KONSTRUKTIONSELEMENTE
100
AcDbEllipse
 62
7
  6
CONTINUOUS
 10
182.590634823
 20
186.4542985259
 30
0.0
 11
0.0
 21
16.3
 31
0.0
 40
0.1702127606
 41
-0.170955569
 42
-0.1437784337
  0
ELLIPSE
  5
48F
100
AcDbEntity
  8
KONSTRUKTIONSELEMENTE
100
AcDbEllipse
 62
7
  6
CONTINUOUS
 10
224.0336627368
 20
186.4542985259
 30
0.0
 11
99.8812434911
 21
0.0
 31
0.0
 40
0.1631938033
 41
2.0049418022
 42
2.0098783039
  0
ELLIPSE
  5
490
100
AcDbEntity
  8
KONSTRUKTIONSELEMENTE
100
AcDbEllipse
 62
7
  6
CONTINUOUS
 10
192.5234334536
 20
186.4542985259
 30
0.0
 11
24.9702007972
 21
0.0
 31
0.0
 40
0.6527780907
 41
1.9853065025
 42
2.0049418022
  0
ELLIPSE
  5
491
100
AcDbEntity
  8
KONSTRUKTIONSELEMENTE
100
AcDbEllipse
 62
7
  6
CONTINUOUS
 10
186.9364686653
 20
186.4542985259
 30
0.0
 11
-0.0
 21
16.3
 31
0.0
 40
0.6808509827
 41
0.3998947413
 42
0.4145101757
  0
ELLIPSE
  5
492
100
AcDbEntity
  8
KONSTRUKTIONSELEMENTE
100
AcDbEllipse
 62
7
  6
CONTINUOUS
 10
183.9120221571
 20
186.4542985259
 30
0.0
 11
0.0
 21
16.3
 31
0.0
 40
0.2042553727
 41
0.3757328179
 42
0.3998947413
  0
ELLIPSE
  5
493
100
AcDbEntity
  8
KONSTRUKTIONSELEMENTE
100
AcDbEllipse
 62
7
  6
CONTINUOUS
 10
175.6343414566
 20
186.4542985259
 30
0.0
 11
-0.0
 21
16.3
 31
0.0
 40
0.2042553727
 41
0.0743271178
 42
0.0967767605
  0
ELLIPSE
  5
494
100
AcDbEntity
  8
KONSTRUKTIONSELEMENTE
100
AcDbEllipse
 62
7
  6
CONTINUOUS
 10
176.0051921298
 20
186.4542985259
 30
0.0
 11
0.0
 21
16.3
 31
0.0
 40
0.5106379935
 41
0.0563949189
 42
0.0743271178
  0
ELLIPSE
  5
495
100
AcDbEntity
  8
KONSTRUKTIONSELEMENTE
100
AcDbEllipse
 62
7
  6
CONTINUOUS
 10
176.4743414574
 20
186.4542985259
 30
0.0
 11
16.6468104951
 21
0.0
 31
0.0
 40
0.9791665499
 41
1.6092771974
 42
1.6271912457
  0
ELLIPSE
  5
496
100
AcDbEntity
  8
KONSTRUKTIONSELEMENTE
100
AcDbEllipse
 62
7
  6
CONTINUOUS
 10
177.1147662206
 20
186.4542985259
 30
0.0
 11
33.2935971767
 21
-0.0
 31
0.0
 40
0.4895836251
 41
1.6003251578
 42
1.6092771974
  0
ELLIPSE
  5
497
100
AcDbEntity
  8
KONSTRUKTIONSELEMENTE
100
AcDbEllipse
 62
7
  6
CONTINUOUS
 10
178.5892383191
 20
186.4542985259
 30
0.0
 11
83.2341586439
 21
-0.0
 31
0.0
 40
0.1958330602
 41
1.5958500767
 42
1.6003251578
  0
ELLIPSE
  5
498
100
AcDbEntity
  8
KONSTRUKTIONSELEMENTE
100
AcDbEllipse
 62
7
  6
CONTINUOUS
 10
175.5360414426
 20
186.4542985259
 30
0.0
 11
83.2341120092
 21
0.0
 31
0.0
 40
0.1958331699
 41
1.5412674958
 42
1.5457425769
  0
ELLIPSE
  5
499
100
AcDbEntity
  8
KONSTRUKTIONSELEMENTE
100
AcDbEllipse
 62
7
  6
CONTINUOUS
 10
177.0105119921
 20
186.4542985259
 30
0.0
 11
33.2936030061
 21
-0.0
 31
0.0
 40
0.4895835394
 41
1.5323154562
 42
1.5412674958
  0
ELLIPSE
  5
49A
100
AcDbEntity
  8
KONSTRUKTIONSELEMENTE
100
AcDbEllipse
 62
7
  6
CONTINUOUS
 10
177.6509369235
 20
186.4542985259
 30
0.0
 11
16.6468119524
 21
-0.0
 31
0.0
 40
0.9791664642
 41
1.5278720901
 42
1.5323154562
  0
ELLIPSE
  5
49B
100
AcDbEntity
  8
KONSTRUKTIONSELEMENTE
100
AcDbEllipse
 62
7
  6
CONTINUOUS
 10
178.7132549899
 20
186.4542985259
 30
0.0
 11
-0.0
 21
16.3
 31
0.0
 40
0.2042553727
 41
-0.3998947413
 42
-0.3757328179
  0
ELLIPSE
  5
49C
100
AcDbEntity
  8
KONSTRUKTIONSELEMENTE
100
AcDbEllipse
 62
7
  6
CONTINUOUS
 10
175.6888084817
 20
186.4542985259
 30
0.0
 11
0.0
 21
16.3
 31
0.0
 40
0.6808509827
 41
-0.4145101757
 42
-0.3998947413
  0
ELLIPSE
  5
49D
100
AcDbEntity
  8
KONSTRUKTIONSELEMENTE
100
AcDbEllipse
 62
7
  6
CONTINUOUS
 10
170.2880165415
 20
186.4542985259
 30
0.0
 11
24.9701978826
 21
0.0
 31
0.0
 40
0.6527781669
 41
1.0510230693
 42
1.0613012461
  0
ELLIPSE
  5
49E
100
AcDbEntity
  8
KONSTRUKTIONSELEMENTE
100
AcDbEllipse
 62
7
  6
CONTINUOUS
 10
170.1018401719
 20
186.4542985259
 30
0.0
 11
24.9702095412
 21
0.0
 31
0.0
 40
0.6527778621
 41
1.1366508513
 42
1.1562861511
  0
ELLIPSE
  5
49F
100
AcDbEntity
  8
KONSTRUKTIONSELEMENTE
100
AcDbEllipse
 62
7
  6
CONTINUOUS
 10
138.5916243748
 20
186.4542985259
 30
0.0
 11
99.8812201737
 21
0.0
 31
0.0
 40
0.1631938414
 41
1.1317143497
 42
1.1366508513
  0
ELLIPSE
  5
4A0
100
AcDbEntity
  8
KONSTRUKTIONSELEMENTE
100
AcDbEllipse
 62
7
  6
CONTINUOUS
 10
158.1090986149
 20
186.4542985259
 30
0.0
 11
49.9404788642
 21
0.0
 31
0.0
 40
0.3263885403
 41
1.0613012461
 42
1.0664181898
  0
ELLIPSE
  5
4A1
100
AcDbEntity
  8
KONSTRUKTIONSELEMENTE
100
AcDbEllipse
 62
7
  6
CONTINUOUS
 10
214.1248091637
 20
186.4542985259
 30
0.0
 11
66.5873129247
 21
-0.0
 31
0.0
 40
0.2447913767
 41
2.0751744638
 42
2.0802914074
  0
ELLIPSE
  5
4A2
100
AcDbEntity
  8
KONSTRUKTIONSELEMENTE
100
AcDbEllipse
 62
7
  6
CONTINUOUS
 10
193.8266223387
 20
186.4542985259
 30
0.0
 11
24.9701978826
 21
-0.0
 31
0.0
 40
0.6527781669
 41
2.0802914074
 42
2.0905695843
  0
ELLIPSE
  5
4A3
100
AcDbEntity
  8
KONSTRUKTIONSELEMENTE
100
AcDbEllipse
 62
7
  6
CONTINUOUS
 10
184.7316167601
 20
186.4542985259
 30
0.0
 11
0.0
 21
16.3
 31
0.0
 40
0.4085105117
 41
0.5197732575
 42
0.5457396383
  0
ELLIPSE
  5
4A4
100
AcDbEntity
  8
KONSTRUKTIONSELEMENTE
100
AcDbEllipse
 62
7
  6
CONTINUOUS
 10
174.7950085431
 20
186.4542985259
 30
0.0
 11
0.0
 21
16.3
 31
0.0
 40
0.7659569903
 41
-0.5457396383
 42
-0.524935008
  0
ELLIPSE
  5
4A5
100
AcDbEntity
  8
KONSTRUKTIONSELEMENTE
100
AcDbEllipse
 62
7
  6
CONTINUOUS
 10
168.537998852
 20
186.4542985259
 30
0.0
 11
24.9702336027
 21
0.0
 31
0.0
 40
0.6527772331
 41
1.0458613188
 42
1.0561696173
  0
ELLIPSE
  5
4A6
100
AcDbEntity
  8
KONSTRUKTIONSELEMENTE
100
AcDbEllipse
 62
7
  6
CONTINUOUS
 10
148.0537638682
 20
186.4542985259
 30
0.0
 11
66.5870990999
 21
-0.0
 31
0.0
 40
0.2447921628
 41
1.0561696173
 42
1.0613012461
  0
ELLIPSE
  5
4A7
100
AcDbEntity
  8
KONSTRUKTIONSELEMENTE
100
AcDbEllipse
 62
7
  6
CONTINUOUS
 10
212.8587473691
 20
186.4542985259
 30
0.0
 11
66.5870990999
 21
-0.0
 31
0.0
 40
0.2447921628
 41
2.0802914074
 42
2.0854230363
  0
ELLIPSE
  5
4A8
100
AcDbEntity
  8
KONSTRUKTIONSELEMENTE
100
AcDbEllipse
 62
7
  6
CONTINUOUS
 10
180.5807415369
 20
186.4542985259
 30
0.0
 11
0.0
 21
16.3
 31
0.0
 40
0.1702127457
 41
0.3470379438
 42
0.3757328179
  0
ELLIPSE
  5
4A9
100
AcDbEntity
  8
KONSTRUKTIONSELEMENTE
100
AcDbEllipse
 62
7
  6
CONTINUOUS
 10
183.0341895839
 20
186.4542985259
 30
0.0
 11
0.0
 21
16.3
 31
0.0
 40
0.6127654169
 41
0.3233521215
 42
0.3470379438
  0
ELLIPSE
  5
4AA
100
AcDbEntity
  8
KONSTRUKTIONSELEMENTE
100
AcDbEllipse
 62
7
  6
CONTINUOUS
 10
188.277640774
 20
186.4542985259
 30
0.0
 11
16.6468104951
 21
0.0
 31
0.0
 40
0.9791665499
 41
2.0854230363
 42
2.1061015609
  0
ELLIPSE
  5
4AB
100
AcDbEntity
  8
KONSTRUKTIONSELEMENTE
100
AcDbEllipse
 62
7
  6
CONTINUOUS
 10
185.1499794057
 20
186.4542985259
 30
0.0
 11
16.6468065262
 21
-0.0
 31
0.0
 40
0.9791667834
 41
1.8800276339
 42
1.8941484483
  0
ELLIPSE
  5
4AC
100
AcDbEntity
  8
KONSTRUKTIONSELEMENTE
100
AcDbEllipse
 62
7
  6
CONTINUOUS
 10
190.2160533411
 20
186.4542985259
 30
0.0
 11
33.2936448037
 21
-0.0
 31
0.0
 40
0.4895829248
 41
1.8706492259
 42
1.8800276339
  0
ELLIPSE
  5
4AD
100
AcDbEntity
  8
KONSTRUKTIONSELEMENTE
100
AcDbEllipse
 62
7
  6
CONTINUOUS
 10
184.0318418011
 20
186.4542985259
 30
0.0
 11
0.0
 21
16.3
 31
0.0
 40
0.5106383587
 41
0.5353052341
 42
0.5562405698
  0
ELLIPSE
  5
4AE
100
AcDbEntity
  8
KONSTRUKTIONSELEMENTE
100
AcDbEllipse
 62
7
  6
CONTINUOUS
 10
195.1331578634
 20
186.4542985259
 30
0.0
 11
49.9403709595
 21
-0.0
 31
0.0
 40
0.3263892456
 41
1.8659702428
 42
1.8706492259
  0
ELLIPSE
  5
4AF
100
AcDbEntity
  8
KONSTRUKTIONSELEMENTE
100
AcDbEllipse
 62
7
  6
CONTINUOUS
 10
204.8185844615
 20
186.4542985259
 30
0.0
 11
83.2343501448
 21
0.0
 31
0.0
 40
0.1958326096
 41
1.8612979337
 42
1.8659702428
  0
ELLIPSE
  5
4B0
100
AcDbEntity
  8
KONSTRUKTIONSELEMENTE
100
AcDbEllipse
 62
7
  6
CONTINUOUS
 10
180.8927448981
 20
186.4542985259
 30
0.0
 11
-0.0
 21
16.3
 31
0.0
 40
0.1458966292
 41
0.5562405698
 42
0.5935545997
  0
ELLIPSE
  5
4B1
100
AcDbEntity
  8
KONSTRUKTIONSELEMENTE
100
AcDbEllipse
 62
7
  6
CONTINUOUS
 10
157.8066860588
 20
186.4542985259
 30
0.0
 11
83.2343734622
 21
-0.0
 31
0.0
 40
0.1958325548
 41
1.2756224107
 42
1.2802947198
  0
ELLIPSE
  5
4B2
100
AcDbEntity
  8
KONSTRUKTIONSELEMENTE
100
AcDbEllipse
 62
7
  6
CONTINUOUS
 10
167.4921330063
 20
186.4542985259
 30
0.0
 11
49.9403243249
 21
0.0
 31
0.0
 40
0.3263895503
 41
1.2709434277
 42
1.2756224107
  0
ELLIPSE
  5
4B3
100
AcDbEntity
  8
KONSTRUKTIONSELEMENTE
100
AcDbEllipse
 62
7
  6
CONTINUOUS
 10
172.4092220319
 20
186.4542985259
 30
0.0
 11
33.293650633
 21
-0.0
 31
0.0
 40
0.4895828391
 41
1.2615650197
 42
1.2709434277
  0
ELLIPSE
  5
4B4
100
AcDbEntity
  8
KONSTRUKTIONSELEMENTE
100
AcDbEllipse
 62
7
  6
CONTINUOUS
 10
177.4752971499
 20
186.4542985259
 30
0.0
 11
16.6468084693
 21
-0.0
 31
0.0
 40
0.9791666691
 41
1.2474442053
 42
1.2615650197
  0
ELLIPSE
  5
4B5
100
AcDbEntity
  8
KONSTRUKTIONSELEMENTE
100
AcDbEllipse
 62
7
  6
CONTINUOUS
 10
164.9635446502
 20
186.4542985259
 30
0.0
 11
24.9702068126
 21
0.0
 31
0.0
 40
0.6527779334
 41
0.9052797387
 42
0.9166037357
  0
ELLIPSE
  5
4B6
100
AcDbEntity
  8
KONSTRUKTIONSELEMENTE
100
AcDbEllipse
 62
7
  6
CONTINUOUS
 10
179.5910873113
 20
186.4542985259
 30
0.0
 11
0.0
 21
16.3
 31
0.0
 40
0.6127654705
 41
-0.3470379438
 42
-0.3233521215
  0
ELLIPSE
  5
4B7
100
AcDbEntity
  8
KONSTRUKTIONSELEMENTE
100
AcDbEllipse
 62
7
  6
CONTINUOUS
 10
173.4051208225
 20
186.4542985259
 30
0.0
 11
-0.0
 21
16.3
 31
0.0
 40
0.6808509827
 41
-0.6541925911
 42
-0.6373881904
  0
ELLIPSE
  5
4B8
100
AcDbEntity
  8
KONSTRUKTIONSELEMENTE
100
AcDbEllipse
 62
7
  6
CONTINUOUS
 10
182.0445355731
 20
186.4542985259
 30
0.0
 11
0.0
 21
16.3
 31
0.0
 40
0.1702127606
 41
-0.3757328179
 42
-0.3470379438
  0
ELLIPSE
  5
4B9
100
AcDbEntity
  8
KONSTRUKTIONSELEMENTE
100
AcDbEllipse
 62
7
  6
CONTINUOUS
 10
178.0281492811
 20
186.4542985259
 30
0.0
 11
-0.0
 21
16.3
 31
0.0
 40
0.2042552851
 41
-0.6373881904
 42
-0.6098340221
  0
ELLIPSE
  5
4BA
100
AcDbEntity
  8
KONSTRUKTIONSELEMENTE
100
AcDbEllipse
 62
7
  6
CONTINUOUS
 10
184.6120214876
 20
186.4542985259
 30
0.0
 11
-0.0
 21
16.3
 31
0.0
 40
0.2042552851
 41
0.6153015891
 42
0.6429660945
  0
ELLIPSE
  5
4BB
100
AcDbEntity
  8
KONSTRUKTIONSELEMENTE
100
AcDbEllipse
 62
7
  6
CONTINUOUS
 10
187.6063100116
 20
186.4542985259
 30
0.0
 11
-0.0
 21
16.3
 31
0.0
 40
0.5106383587
 41
0.6429660945
 42
0.6541925911
  0
ELLIPSE
  5
4BC
100
AcDbEntity
  8
KONSTRUKTIONSELEMENTE
100
AcDbEllipse
 62
7
  6
CONTINUOUS
 10
192.6712579339
 20
186.4542985259
 30
0.0
 11
16.6468103711
 21
0.0
 31
0.0
 40
0.9791665572
 41
2.2249889179
 42
2.2363129149
  0
ELLIPSE
  5
4BD
100
AcDbEntity
  8
KONSTRUKTIONSELEMENTE
100
AcDbEllipse
 62
7
  6
CONTINUOUS
 10
202.9500828598
 20
186.4542985259
 30
0.0
 11
33.2936090835
 21
0.0
 31
0.0
 40
0.4895834501
 41
2.2363129149
 42
2.2420127393
  0
ELLIPSE
  5
4BE
100
AcDbEntity
  8
KONSTRUKTIONSELEMENTE
100
AcDbEllipse
 62
7
  6
CONTINUOUS
 10
177.1781694062
 20
186.4542985259
 30
0.0
 11
0.0
 21
16.3
 31
0.0
 40
0.6808511019
 41
-0.5353052341
 42
-0.5197732575
  0
ELLIPSE
  5
4BF
100
AcDbEntity
  8
KONSTRUKTIONSELEMENTE
100
AcDbEllipse
 62
7
  6
CONTINUOUS
 10
178.5934348144
 20
186.4542985259
 30
0.0
 11
-0.0
 21
16.3
 31
0.0
 40
0.5106384258
 41
-0.5562405698
 42
-0.5353052341
  0
ELLIPSE
  5
4C0
100
AcDbEntity
  8
KONSTRUKTIONSELEMENTE
100
AcDbEllipse
 62
7
  6
CONTINUOUS
 10
180.7908035477
 20
186.4542985259
 30
0.0
 11
-0.0
 21
16.3
 31
0.0
 40
0.2553191104
 41
-0.5774520772
 42
-0.5562405698
  0
ELLIPSE
  5
4C1
100
AcDbEntity
  8
KONSTRUKTIONSELEMENTE
100
AcDbEllipse
 62
7
  6
CONTINUOUS
 10
160.6302202322
 20
186.4542985259
 30
0.0
 11
0.0
 21
16.3
 31
0.0
 40
0.255319362
 41
0.0712581306
 42
0.089209765
  0
ELLIPSE
  5
4C2
100
AcDbEntity
  8
KONSTRUKTIONSELEMENTE
100
AcDbEllipse
 62
7
  6
CONTINUOUS
 10
176.4982544406
 20
186.4542985259
 30
0.0
 11
83.2343501448
 21
-0.0
 31
0.0
 40
0.1958326096
 41
1.5169550619
 42
1.521434426
  0
ELLIPSE
  5
4C3
100
AcDbEntity
  8
KONSTRUKTIONSELEMENTE
100
AcDbEllipse
 62
7
  6
CONTINUOUS
 10
161.1240602353
 20
186.4542985259
 30
0.0
 11
0.0
 21
16.3
 31
0.0
 40
0.6808509827
 41
0.0578097901
 42
0.0712581306
  0
ELLIPSE
  5
4C4
100
AcDbEntity
  8
KONSTRUKTIONSELEMENTE
100
AcDbEllipse
 62
7
  6
CONTINUOUS
 10
161.9255692116
 20
186.4542985259
 30
0.0
 11
24.9701854798
 21
0.0
 31
0.0
 40
0.6527784911
 41
1.6196465017
 42
1.6286061169
  0
ELLIPSE
  5
4C5
100
AcDbEntity
  8
KONSTRUKTIONSELEMENTE
100
AcDbEllipse
 62
7
  6
CONTINUOUS
 10
163.9577728533
 20
186.4542985259
 30
0.0
 11
66.5874801158
 21
-0.0
 31
0.0
 40
0.244790762
 41
1.615168236
 42
1.6196465017
  0
ELLIPSE
  5
4C6
100
AcDbEntity
  8
KONSTRUKTIONSELEMENTE
100
AcDbEllipse
 62
7
  6
CONTINUOUS
 10
159.1675057401
 20
186.4542985259
 30
0.0
 11
66.5874801158
 21
-0.0
 31
0.0
 40
0.244790762
 41
1.5219461519
 42
1.5264244175
  0
ELLIPSE
  5
4C7
100
AcDbEntity
  8
KONSTRUKTIONSELEMENTE
100
AcDbEllipse
 62
7
  6
CONTINUOUS
 10
161.1997105205
 20
186.4542985259
 30
0.0
 11
24.9701621625
 21
-0.0
 31
0.0
 40
0.6527791007
 41
1.5129865367
 42
1.5219461519
  0
ELLIPSE
  5
4C8
100
AcDbEntity
  8
KONSTRUKTIONSELEMENTE
100
AcDbEllipse
 62
7
  6
CONTINUOUS
 10
162.001217925
 20
186.4542985259
 30
0.0
 11
-0.0
 21
16.3
 31
0.0
 40
0.6808512211
 41
-0.0712581306
 42
-0.0578097901
  0
ELLIPSE
  5
4C9
100
AcDbEntity
  8
KONSTRUKTIONSELEMENTE
100
AcDbEllipse
 62
7
  6
CONTINUOUS
 10
162.4950582048
 20
186.4542985259
 30
0.0
 11
-0.0
 21
16.3
 31
0.0
 40
0.255319362
 41
-0.089209765
 42
-0.0712581306
  0
ELLIPSE
  5
4CA
100
AcDbEntity
  8
KONSTRUKTIONSELEMENTE
100
AcDbEllipse
 62
7
  6
CONTINUOUS
 10
178.1410553134
 20
186.4542985259
 30
0.0
 11
49.9400852006
 21
-0.0
 31
0.0
 40
0.3263911132
 41
1.521434426
 42
1.5259128504
  0
ELLIPSE
  5
4CB
100
AcDbEntity
  8
KONSTRUKTIONSELEMENTE
100
AcDbEllipse
 62
7
  6
CONTINUOUS
 10
178.8879503211
 20
186.4542985259
 30
0.0
 11
33.2937400579
 21
0.0
 31
0.0
 40
0.4895815241
 41
1.5259128504
 42
1.534866985
  0
ELLIPSE
  5
4CC
100
AcDbEntity
  8
KONSTRUKTIONSELEMENTE
100
AcDbEllipse
 62
7
  6
CONTINUOUS
 10
179.4859350083
 20
186.4542985259
 30
0.0
 11
16.6468065262
 21
-0.0
 31
0.0
 40
0.9791667834
 41
1.534866985
 42
1.548293061
  0
ELLIPSE
  5
4CD
100
AcDbEntity
  8
KONSTRUKTIONSELEMENTE
100
AcDbEllipse
 62
7
  6
CONTINUOUS
 10
179.6357655382
 20
186.4542985259
 30
0.0
 11
0.0
 21
16.3
 31
0.0
 40
0.6127654169
 41
-0.0225032658
 42
-0.0001342739
  0
ELLIPSE
  5
4CE
100
AcDbEntity
  8
KONSTRUKTIONSELEMENTE
100
AcDbEllipse
 62
7
  6
CONTINUOUS
 10
182.9895116545
 20
186.4542985259
 30
0.0
 11
0.0
 21
16.3
 31
0.0
 40
0.6127654705
 41
6.283319581
 42
6.305688573
  0
ELLIPSE
  5
4CF
100
AcDbEntity
  8
KONSTRUKTIONSELEMENTE
100
AcDbEllipse
 62
7
  6
CONTINUOUS
 10
183.1393422085
 20
186.4542985259
 30
0.0
 11
16.6468084693
 21
0.0
 31
0.0
 40
0.9791666691
 41
7.8764848998
 42
7.8899109758
  0
ELLIPSE
  5
4D0
100
AcDbEntity
  8
KONSTRUKTIONSELEMENTE
100
AcDbEllipse
 62
7
  6
CONTINUOUS
 10
183.7373270353
 20
186.4542985259
 30
0.0
 11
33.2937458873
 21
-0.0
 31
0.0
 40
0.4895814384
 41
7.8899109758
 42
7.8988651104
  0
ELLIPSE
  5
4D1
100
AcDbEntity
  8
KONSTRUKTIONSELEMENTE
100
AcDbEllipse
 62
7
  6
CONTINUOUS
 10
184.484219689
 20
186.4542985259
 30
0.0
 11
49.9400385663
 21
-0.0
 31
0.0
 40
0.3263914179
 41
7.8988651104
 42
7.9033435348
  0
ELLIPSE
  5
4D2
100
AcDbEntity
  8
KONSTRUKTIONSELEMENTE
100
AcDbEllipse
 62
7
  6
CONTINUOUS
 10
186.1270240134
 20
186.4542985259
 30
0.0
 11
83.2343734622
 21
0.0
 31
0.0
 40
0.1958325548
 41
7.9033435348
 42
7.9078228989
  0
ELLIPSE
  5
4D3
100
AcDbEntity
  8
KONSTRUKTIONSELEMENTE
100
AcDbEllipse
 62
7
  6
CONTINUOUS
 10
162.8885621463
 20
186.4542985259
 30
0.0
 11
0.0
 21
16.3
 31
0.0
 40
0.3404254913
 41
0.4936067682
 42
0.5089097367
  0
ELLIPSE
  5
4D4
100
AcDbEntity
  8
KONSTRUKTIONSELEMENTE
100
AcDbEllipse
 62
7
  6
CONTINUOUS
 10
162.8885621463
 20
186.4542985259
 30
0.0
 11
-0.0
 21
15.5
 31
0.0
 40
0.3404254913
 41
0.5215903576
 42
0.5307473446
  0
ELLIPSE
  5
4D5
100
AcDbEntity
  8
KONSTRUKTIONSELEMENTE
100
AcDbEllipse
 62
7
  6
CONTINUOUS
 10
168.1467872742
 20
186.4542985259
 30
0.0
 11
16.6467985884
 21
-0.0
 31
0.0
 40
0.9791672503
 41
2.0542709509
 42
2.064403095
  0
ELLIPSE
  5
4D6
100
AcDbEntity
  8
KONSTRUKTIONSELEMENTE
100
AcDbEllipse
 62
7
  6
CONTINUOUS
 10
182.1238941161
 20
186.4542985259
 30
0.0
 11
0.0
 21
16.3
 31
0.0
 40
0.204255139
 41
-0.170955569
 42
-0.1482999664
  0
ELLIPSE
  5
4D7
100
AcDbEntity
  8
KONSTRUKTIONSELEMENTE
100
AcDbEllipse
 62
7
  6
CONTINUOUS
 10
166.4018955736
 20
186.4542985259
 30
0.0
 11
0.0
 21
16.3
 31
0.0
 40
0.3404254913
 41
0.3004952754
 42
0.3145762784
  0
ELLIPSE
  5
4D8
100
AcDbEntity
  8
KONSTRUKTIONSELEMENTE
100
AcDbEllipse
 62
7
  6
CONTINUOUS
 10
169.6867960161
 20
186.4542985259
 30
0.0
 11
16.6468224018
 21
-0.0
 31
0.0
 40
0.9791658496
 41
1.8619384838
 42
1.8712916022
  0
ELLIPSE
  5
4D9
100
AcDbEntity
  8
KONSTRUKTIONSELEMENTE
100
AcDbEllipse
 62
7
  6
CONTINUOUS
 10
179.2435793262
 20
186.4542985259
 30
0.0
 11
49.9403243249
 21
0.0
 31
0.0
 40
0.3263895503
 41
1.857271779
 42
1.8619384838
  0
ELLIPSE
  5
4DA
100
AcDbEntity
  8
KONSTRUKTIONSELEMENTE
100
AcDbEllipse
 62
7
  6
CONTINUOUS
 10
151.2434012773
 20
186.4542985259
 30
0.0
 11
49.9403243249
 21
-0.0
 31
0.0
 40
0.3263895503
 41
1.2796541698
 42
1.2843208746
  0
ELLIPSE
  5
4DB
100
AcDbEntity
  8
KONSTRUKTIONSELEMENTE
100
AcDbEllipse
 62
7
  6
CONTINUOUS
 10
160.8001845874
 20
186.4542985259
 30
0.0
 11
16.6468224018
 21
0.0
 31
0.0
 40
0.9791658496
 41
1.2703010514
 42
1.2796541698
  0
ELLIPSE
  5
4DC
100
AcDbEntity
  8
KONSTRUKTIONSELEMENTE
100
AcDbEllipse
 62
7
  6
CONTINUOUS
 10
164.0850850298
 20
186.4542985259
 30
0.0
 11
-0.0
 21
16.3
 31
0.0
 40
0.3404254913
 41
-0.3145762784
 42
-0.3004952754
  0
ELLIPSE
  5
4DD
100
AcDbEntity
  8
KONSTRUKTIONSELEMENTE
100
AcDbEllipse
 62
7
  6
CONTINUOUS
 10
168.1467872742
 20
186.4542985259
 30
0.0
 11
15.8297777988
 21
0.0
 31
0.0
 40
0.9791672503
 41
2.0815685388
 42
2.0923866843
  0
ELLIPSE
  5
4DE
100
AcDbEntity
  8
KONSTRUKTIONSELEMENTE
100
AcDbEllipse
 62
7
  6
CONTINUOUS
 10
180.976042259
 20
186.4542985259
 30
0.0
 11
-0.0
 21
16.3
 31
0.0
 40
0.6808509827
 41
-0.1482999664
 42
-0.1347440928
  0
ELLIPSE
  5
4DF
100
AcDbEntity
  8
KONSTRUKTIONSELEMENTE
100
AcDbEllipse
 62
7
  6
CONTINUOUS
 10
173.8850847097
 20
186.4542985259
 30
0.0
 11
79.0724180674
 21
-0.0
 31
0.0
 40
0.2061401485
 41
7.9308533213
 42
7.9668041205
  0
ELLIPSE
  5
4E0
100
AcDbEntity
  8
KONSTRUKTIONSELEMENTE
100
AcDbEllipse
 62
7
  6
CONTINUOUS
 10
179.1124740702
 20
186.4542985259
 30
0.0
 11
24.9702365174
 21
0.0
 31
0.0
 40
0.6527771569
 41
1.436052234
 42
1.454088482
  0
ELLIPSE
  5
4E1
100
AcDbEntity
  8
KONSTRUKTIONSELEMENTE
100
AcDbEllipse
 62
7
  6
CONTINUOUS
 10
183.6236273235
 20
186.4542985259
 30
0.0
 11
49.9404672055
 21
0.0
 31
0.0
 40
0.3263886165
 41
2.0492251101
 42
2.0542709509
  0
ELLIPSE
  5
4E2
100
AcDbEntity
  8
KONSTRUKTIONSELEMENTE
100
AcDbEllipse
 62
7
  6
CONTINUOUS
 10
183.6236273235
 20
186.4542985259
 30
0.0
 11
47.4894013304
 21
0.0
 31
0.0
 40
0.3263886165
 41
2.0761840718
 42
2.0815685388
  0
ELLIPSE
  5
4E3
100
AcDbEntity
  8
KONSTRUKTIONSELEMENTE
100
AcDbEllipse
 62
7
  6
CONTINUOUS
 10
170.3897384632
 20
186.4542985259
 30
0.0
 11
99.8801004497
 21
-0.0
 31
0.0
 40
0.1631956709
 41
1.454088482
 42
1.4585913975
  0
ELLIPSE
  5
4E4
100
AcDbEntity
  8
KONSTRUKTIONSELEMENTE
100
AcDbEllipse
 62
7
  6
CONTINUOUS
 10
161.1102778698
 20
186.4542985259
 30
0.0
 11
99.8808508158
 21
-0.0
 31
0.0
 40
0.1631944448
 41
1.5118599075
 42
1.5387290161
  0
ELLIPSE
  5
4E5
100
AcDbEntity
  8
KONSTRUKTIONSELEMENTE
100
AcDbEllipse
 62
7
  6
CONTINUOUS
 10
154.5385159283
 20
186.4542985259
 30
0.0
 11
74.9107095522
 21
0.0
 31
0.0
 40
0.2175923856
 41
1.4037563391
 42
1.4399462674
  0
ELLIPSE
  5
4E6
100
AcDbEntity
  8
KONSTRUKTIONSELEMENTE
100
AcDbEllipse
 62
7
  6
CONTINUOUS
 10
137.86335328
 20
186.4542985259
 30
0.0
 11
49.9404672055
 21
-0.0
 31
0.0
 40
0.3263886165
 41
1.0873217027
 42
1.0923675435
  0
ELLIPSE
  5
4E7
100
AcDbEntity
  8
KONSTRUKTIONSELEMENTE
100
AcDbEllipse
 62
7
  6
CONTINUOUS
 10
137.86335328
 20
186.4542985259
 30
0.0
 11
47.4894013304
 21
0.0
 31
0.0
 40
0.3263886165
 41
1.0600241148
 42
1.0654085818
  0
ELLIPSE
  5
4E8
100
AcDbEntity
  8
KONSTRUKTIONSELEMENTE
100
AcDbEllipse
 62
7
  6
CONTINUOUS
 10
192.2355361252
 20
186.4542985259
 30
0.0
 11
99.8800771326
 21
0.0
 31
0.0
 40
0.163195709
 41
1.6830012561
 42
1.6875041716
  0
ELLIPSE
  5
4E9
100
AcDbEntity
  8
KONSTRUKTIONSELEMENTE
100
AcDbEllipse
 62
7
  6
CONTINUOUS
 10
183.5128042515
 20
186.4542985259
 30
0.0
 11
24.9702452614
 21
-0.0
 31
0.0
 40
0.6527769283
 41
7.9706894788
 42
7.9887257268
  0
ELLIPSE
  5
4EA
100
AcDbEntity
  8
KONSTRUKTIONSELEMENTE
100
AcDbEllipse
 62
7
  6
CONTINUOUS
 10
185.8232923971
 20
186.4542985259
 30
0.0
 11
97.8000233173
 21
0.0
 31
0.0
 40
0.1666666269
 41
8.039196739
 42
8.0757400067
  0
ELLIPSE
  5
4EB
100
AcDbEntity
  8
KONSTRUKTIONSELEMENTE
100
AcDbEllipse
 62
7
  6
CONTINUOUS
 10
185.8232923971
 20
186.4542985259
 30
0.0
 11
93.0000221729
 21
0.0
 31
0.0
 40
0.1666666269
 41
1.7656906816
 42
1.7828605297
  0
ELLIPSE
  5
4EC
100
AcDbEntity
  8
KONSTRUKTIONSELEMENTE
100
AcDbEllipse
 62
7
  6
CONTINUOUS
 10
153.3401933293
 20
186.4542985259
 30
0.0
 11
16.6467985884
 21
-0.0
 31
0.0
 40
0.9791672503
 41
1.0771895586
 42
1.0873217027
  0
ELLIPSE
  5
4ED
100
AcDbEntity
  8
KONSTRUKTIONSELEMENTE
100
AcDbEllipse
 62
7
  6
CONTINUOUS
 10
153.3401933293
 20
186.4542985259
 30
0.0
 11
15.8297777988
 21
0.0
 31
0.0
 40
0.9791672503
 41
1.0492059692
 42
1.0600241148
  0
ELLIPSE
  5
4EE
100
AcDbEntity
  8
KONSTRUKTIONSELEMENTE
100
AcDbEllipse
 62
7
  6
CONTINUOUS
 10
158.5984184571
 20
186.4542985259
 30
0.0
 11
-0.0
 21
16.3
 31
0.0
 40
0.3404254913
 41
-0.5089097367
 42
-0.4936067682
  0
ELLIPSE
  5
4EF
100
AcDbEntity
  8
KONSTRUKTIONSELEMENTE
100
AcDbEllipse
 62
7
  6
CONTINUOUS
 10
158.5984184571
 20
186.4542985259
 30
0.0
 11
0.0
 21
15.5
 31
0.0
 40
0.3404254913
 41
-0.5307473446
 42
-0.5215903576
  0
ELLIPSE
  5
4F0
100
AcDbEntity
  8
KONSTRUKTIONSELEMENTE
100
AcDbEllipse
 62
7
  6
CONTINUOUS
 10
181.649234888
 20
186.4542985259
 30
0.0
 11
-0.0
 21
16.3
 31
0.0
 40
0.6808509827
 41
0.1347440928
 42
0.1482999664
  0
ELLIPSE
  5
4F1
100
AcDbEntity
  8
KONSTRUKTIONSELEMENTE
100
AcDbEllipse
 62
7
  6
CONTINUOUS
 10
180.501383031
 20
186.4542985259
 30
0.0
 11
-0.0
 21
16.3
 31
0.0
 40
0.204255139
 41
6.4314852735
 42
6.4541408762
  0
ELLIPSE
  5
4F2
100
AcDbEntity
  8
KONSTRUKTIONSELEMENTE
100
AcDbEllipse
 62
7
  6
CONTINUOUS
 10
160.1152158841
 20
186.4542985259
 30
0.0
 11
83.2343501448
 21
0.0
 31
0.0
 40
0.1958326096
 41
1.3174493315
 42
1.3220674892
  0
ELLIPSE
  5
4F3
100
AcDbEntity
  8
KONSTRUKTIONSELEMENTE
100
AcDbEllipse
 62
7
  6
CONTINUOUS
 10
144.8696809804
 20
186.4542985259
 30
0.0
 11
66.5870990999
 21
-0.0
 31
0.0
 40
0.2447921628
 41
1.3040910102
 42
1.3087254735
  0
ELLIPSE
  5
4F4
100
AcDbEntity
  8
KONSTRUKTIONSELEMENTE
100
AcDbEllipse
 62
7
  6
CONTINUOUS
 10
168.3112651471
 20
186.4542985259
 30
0.0
 11
49.9403709595
 21
-0.0
 31
0.0
 40
0.3263892456
 41
1.3220674892
 42
1.3266802626
  0
ELLIPSE
  5
4F5
100
AcDbEntity
  8
KONSTRUKTIONSELEMENTE
100
AcDbEllipse
 62
7
  6
CONTINUOUS
 10
172.3347570691
 20
186.4542985259
 30
0.0
 11
33.2936448037
 21
0.0
 31
0.0
 40
0.4895829248
 41
1.3266802626
 42
1.3358900171
  0
ELLIPSE
  5
4F6
100
AcDbEntity
  8
KONSTRUKTIONSELEMENTE
100
AcDbEllipse
 62
7
  6
CONTINUOUS
 10
176.2093397962
 20
186.4542985259
 30
0.0
 11
16.6468065262
 21
-0.0
 31
0.0
 40
0.9791667834
 41
1.3358900171
 42
1.3496669661
  0
ELLIPSE
  5
4F7
100
AcDbEntity
  8
KONSTRUKTIONSELEMENTE
100
AcDbEllipse
 62
7
  6
CONTINUOUS
 10
177.6698074038
 20
186.4542985259
 30
0.0
 11
0.0
 21
16.3
 31
0.0
 40
0.6127661182
 41
-0.2211293607
 42
-0.1982608585
  0
ELLIPSE
  5
4F8
100
AcDbEntity
  8
KONSTRUKTIONSELEMENTE
100
AcDbEllipse
 62
7
  6
CONTINUOUS
 10
155.8380004302
 20
186.4542985259
 30
0.0
 11
24.9702336027
 21
-0.0
 31
0.0
 40
0.6527772331
 41
1.2948043606
 42
1.3040910102
  0
ELLIPSE
  5
4F9
100
AcDbEntity
  8
KONSTRUKTIONSELEMENTE
100
AcDbEllipse
 62
7
  6
CONTINUOUS
 10
179.0906348643
 20
186.4542985259
 30
0.0
 11
0.0
 21
15.5
 31
0.0
 40
0.1702127457
 41
-0.1870655666
 42
-0.1798730397
  0
ELLIPSE
  5
4FA
100
AcDbEntity
  8
KONSTRUKTIONSELEMENTE
100
AcDbEllipse
 62
7
  6
CONTINUOUS
 10
179.0906348643
 20
186.4542985259
 30
0.0
 11
0.0
 21
16.3
 31
0.0
 40
0.1702127457
 41
-0.1982608585
 42
-0.170955569
  0
ELLIPSE
  5
4FB
100
AcDbEntity
  8
KONSTRUKTIONSELEMENTE
100
AcDbEllipse
 62
7
  6
CONTINUOUS
 10
159.6182389353
 20
186.4542985259
 30
0.0
 11
0.0
 21
16.3
 31
0.0
 40
0.6808512211
 41
-0.2899681886
 42
-0.2759919662
  0
ELLIPSE
  5
4FC
100
AcDbEntity
  8
KONSTRUKTIONSELEMENTE
100
AcDbEllipse
 62
7
  6
CONTINUOUS
 10
161.6014422466
 20
186.4542985259
 30
0.0
 11
-0.0
 21
16.3
 31
0.0
 40
0.2553189968
 41
-0.3086948207
 42
-0.2899681886
  0
ELLIPSE
  5
4FD
100
AcDbEntity
  8
KONSTRUKTIONSELEMENTE
100
AcDbEllipse
 62
7
  6
CONTINUOUS
 10
183.5346423762
 20
186.4542985259
 30
0.0
 11
0.0
 21
15.5
 31
0.0
 40
0.1702127606
 41
0.1798730397
 42
0.1870655666
  0
ELLIPSE
  5
4FE
100
AcDbEntity
  8
KONSTRUKTIONSELEMENTE
100
AcDbEllipse
 62
7
  6
CONTINUOUS
 10
183.5346423762
 20
186.4542985259
 30
0.0
 11
-0.0
 21
16.3
 31
0.0
 40
0.1702127606
 41
0.170955569
 42
0.1982608585
  0
ELLIPSE
  5
4FF
100
AcDbEntity
  8
KONSTRUKTIONSELEMENTE
100
AcDbEllipse
 62
7
  6
CONTINUOUS
 10
184.955469961
 20
186.4542985259
 30
0.0
 11
0.0
 21
16.3
 31
0.0
 40
0.6127661718
 41
0.1982608585
 42
0.2211293607
  0
ELLIPSE
  5
500
100
AcDbEntity
  8
KONSTRUKTIONSELEMENTE
100
AcDbEllipse
 62
7
  6
CONTINUOUS
 10
186.415937803
 20
186.4542985259
 30
0.0
 11
16.6468084693
 21
0.0
 31
0.0
 40
0.9791666691
 41
1.7919256875
 42
1.8057026365
  0
ELLIPSE
  5
501
100
AcDbEntity
  8
KONSTRUKTIONSELEMENTE
100
AcDbEllipse
 62
7
  6
CONTINUOUS
 10
190.2905214347
 20
186.4542985259
 30
0.0
 11
33.293650633
 21
0.0
 31
0.0
 40
0.4895828391
 41
8.0888879437
 42
8.0980976982
  0
ELLIPSE
  5
502
100
AcDbEntity
  8
KONSTRUKTIONSELEMENTE
100
AcDbEllipse
 62
7
  6
CONTINUOUS
 10
194.3140006762
 20
186.4542985259
 30
0.0
 11
49.9403243249
 21
0.0
 31
0.0
 40
0.3263895503
 41
1.814912391
 42
1.8195251644
  0
ELLIPSE
  5
503
100
AcDbEntity
  8
KONSTRUKTIONSELEMENTE
100
AcDbEllipse
 62
7
  6
CONTINUOUS
 10
202.5100671595
 20
186.4542985259
 30
0.0
 11
83.2343734622
 21
0.0
 31
0.0
 40
0.1958325548
 41
1.8195251644
 42
1.8241433221
  0
ELLIPSE
  5
504
100
AcDbEntity
  8
KONSTRUKTIONSELEMENTE
100
AcDbEllipse
 62
7
  6
CONTINUOUS
 10
181.4685755736
 20
186.4542985259
 30
0.0
 11
0.0
 21
16.3
 31
0.0
 40
0.204255139
 41
-0.3757328179
 42
-0.3517990505
  0
ELLIPSE
  5
505
100
AcDbEntity
  8
0
100
AcDbEllipse
 62
7
  6
CONTINUOUS
 10
186.5626392446
 20
185.001155983
 30
0.0
 11
0.0
 21
2.020944533
 31
0.0
 40
0.742227199
 41
-1.5707963268
 42
0.0
  0
ELLIPSE
  5
506
100
AcDbEntity
  8
KONSTRUKTIONSELEMENTE
100
AcDbEllipse
 62
7
  6
CONTINUOUS
 10
178.791645451
 20
186.4542985259
 30
0.0
 11
-0.0
 21
16.3
 31
0.0
 40
0.6808509827
 41
-0.3517990505
 42
-0.3375400808
  0
ELLIPSE
  5
507
100
AcDbEntity
  8
KONSTRUKTIONSELEMENTE
100
AcDbEllipse
 62
7
  6
CONTINUOUS
 10
174.1975759912
 20
186.4542985259
 30
0.0
 11
24.9702365174
 21
-0.0
 31
0.0
 40
0.6527771569
 41
1.233256246
 42
1.2521583994
  0
ELLIPSE
  5
508
100
AcDbEntity
  8
KONSTRUKTIONSELEMENTE
100
AcDbEllipse
 62
7
  6
CONTINUOUS
 10
194.85567729
 20
186.4542985259
 30
0.0
 11
83.2338738749
 21
0.0
 31
0.0
 40
0.1958337302
 41
1.9701362583
 42
1.9749967242
  0
ELLIPSE
  5
509
100
AcDbEntity
  8
KONSTRUKTIONSELEMENTE
100
AcDbEllipse
 62
7
  6
CONTINUOUS
 10
150.7301335497
 20
186.4542985259
 30
0.0
 11
99.8806719672
 21
-0.0
 31
0.0
 40
0.1631947371
 41
1.2521583994
 42
1.2568653005
  0
ELLIPSE
  5
50A
100
AcDbEntity
  8
KONSTRUKTIONSELEMENTE
100
AcDbEllipse
 62
7
  6
CONTINUOUS
 10
175.4383858813
 20
186.4542985259
 30
0.0
 11
33.2936030061
 21
-0.0
 31
0.0
 40
0.4895835394
 41
1.9604450144
 42
1.9701362583
  0
ELLIPSE
  5
50B
100
AcDbEntity
  8
KONSTRUKTIONSELEMENTE
100
AcDbEllipse
 62
7
  6
CONTINUOUS
 10
211.8951364491
 20
186.4542985259
 30
0.0
 11
99.8806486499
 21
0.0
 31
0.0
 40
0.1631947752
 41
1.884727353
 42
1.8894342542
  0
ELLIPSE
  5
50C
100
AcDbEntity
  8
KONSTRUKTIONSELEMENTE
100
AcDbEllipse
 62
7
  6
CONTINUOUS
 10
188.4277040515
 20
186.4542985259
 30
0.0
 11
24.9702452614
 21
-0.0
 31
0.0
 40
0.6527769283
 41
8.1726195614
 42
8.1915217148
  0
ELLIPSE
  5
50D
100
AcDbEntity
  8
KONSTRUKTIONSELEMENTE
100
AcDbEllipse
 62
7
  6
CONTINUOUS
 10
183.833631696
 20
186.4542985259
 30
0.0
 11
-0.0
 21
16.3
 31
0.0
 40
0.6808509827
 41
0.3375400808
 42
0.3517990505
  0
ELLIPSE
  5
50E
100
AcDbEntity
  8
KONSTRUKTIONSELEMENTE
100
AcDbEllipse
 62
7
  6
CONTINUOUS
 10
181.1567015734
 20
186.4542985259
 30
0.0
 11
0.0
 21
16.3
 31
0.0
 40
0.204255139
 41
0.3517990505
 42
0.3757328179
  0
ELLIPSE
  5
50F
100
AcDbEntity
  8
KONSTRUKTIONSELEMENTE
100
AcDbEllipse
 62
7
  6
CONTINUOUS
 10
169.1148827623
 20
186.4542985259
 30
0.0
 11
16.6468238592
 21
0.0
 31
0.0
 40
0.9791657639
 41
1.9411764619
 42
1.9604450144
  0
ELLIPSE
  5
510
100
AcDbEntity
  8
KONSTRUKTIONSELEMENTE
100
AcDbEllipse
 62
7
  6
CONTINUOUS
 10
166.1020546981
 20
186.4542985259
 30
0.0
 11
0.0
 21
16.3
 31
0.0
 40
0.5106380606
 41
0.3512546776
 42
0.3703801351
  0
ELLIPSE
  5
511
100
AcDbEntity
  8
KONSTRUKTIONSELEMENTE
100
AcDbEllipse
 62
7
  6
CONTINUOUS
 10
143.7322828222
 20
186.4542985259
 30
0.0
 11
83.2341120092
 21
-0.0
 31
0.0
 40
0.1958331699
 41
1.1068555619
 42
1.1118514971
  0
ELLIPSE
  5
512
100
AcDbEntity
  8
KONSTRUKTIONSELEMENTE
100
AcDbEllipse
 62
7
  6
CONTINUOUS
 10
158.4814257842
 20
186.4542985259
 30
0.0
 11
49.9405138402
 21
-0.0
 31
0.0
 40
0.3263883117
 41
1.1118514971
 42
1.1168351292
  0
ELLIPSE
  5
513
100
AcDbEntity
  8
KONSTRUKTIONSELEMENTE
100
AcDbEllipse
 62
7
  6
CONTINUOUS
 10
164.3837255094
 20
186.4542985259
 30
0.0
 11
-0.0
 21
16.3
 31
0.0
 40
0.2042553906
 41
0.3275339735
 42
0.3512546776
  0
ELLIPSE
  5
514
100
AcDbEntity
  8
KONSTRUKTIONSELEMENTE
100
AcDbEllipse
 62
7
  6
CONTINUOUS
 10
165.781580855
 20
186.4542985259
 30
0.0
 11
33.2935971767
 21
-0.0
 31
0.0
 40
0.4895836251
 41
1.1168351292
 42
1.1267663478
  0
ELLIPSE
  5
515
100
AcDbEntity
  8
KONSTRUKTIONSELEMENTE
100
AcDbEllipse
 62
7
  6
CONTINUOUS
 10
172.9327445842
 20
186.4542985259
 30
0.0
 11
16.6468065262
 21
0.0
 31
0.0
 40
0.9791667834
 41
1.1267663478
 42
1.1415761081
  0
ELLIPSE
  5
516
100
AcDbEntity
  8
KONSTRUKTIONSELEMENTE
100
AcDbEllipse
 62
7
  6
CONTINUOUS
 10
175.7038495267
 20
186.4542985259
 30
0.0
 11
-0.0
 21
15.5
 31
0.0
 40
0.6127661182
 41
-0.4427979723
 42
-0.4269754722
  0
ELLIPSE
  5
517
100
AcDbEntity
  8
KONSTRUKTIONSELEMENTE
100
AcDbEllipse
 62
7
  6
CONTINUOUS
 10
175.7038495267
 20
186.4542985259
 30
0.0
 11
-0.0
 21
16.3
 31
0.0
 40
0.6127661182
 41
-0.4292202187
 42
-0.4047563551
  0
ELLIPSE
  5
518
100
AcDbEntity
  8
0
100
AcDbEllipse
 62
7
  6
CONTINUOUS
 10
156.5626392446
 20
185.001155983
 30
0.0
 11
-0.0
 21
2.020944533
 31
0.0
 40
0.742227199
 41
0.0
 42
1.5707963268
  0
ELLIPSE
  5
519
100
AcDbEntity
  8
KONSTRUKTIONSELEMENTE
100
AcDbEllipse
 62
7
  6
CONTINUOUS
 10
178.5445356623
 20
186.4542985259
 30
0.0
 11
-0.0
 21
15.5
 31
0.0
 40
0.1702127457
 41
-0.4269754722
 42
-0.3961765797
  0
ELLIPSE
  5
51A
100
AcDbEntity
  8
KONSTRUKTIONSELEMENTE
100
AcDbEllipse
 62
7
  6
CONTINUOUS
 10
178.5445356623
 20
186.4542985259
 30
0.0
 11
-0.0
 21
16.3
 31
0.0
 40
0.1702127457
 41
-0.4047563551
 42
-0.3757328179
  0
ELLIPSE
  5
51B
100
AcDbEntity
  8
KONSTRUKTIONSELEMENTE
100
AcDbEllipse
 62
7
  6
CONTINUOUS
 10
178.211255561
 20
186.4542985259
 30
0.0
 11
0.0
 21
16.3
 31
0.0
 40
0.1458966441
 41
-0.6429660945
 42
-0.6043872701
  0
ELLIPSE
  5
51C
100
AcDbEntity
  8
KONSTRUKTIONSELEMENTE
100
AcDbEllipse
 62
7
  6
CONTINUOUS
 10
178.211255561
 20
186.4542985259
 30
0.0
 11
-0.0
 21
15.5
 31
0.0
 40
0.1458966441
 41
-0.6822198258
 42
-0.6404888106
  0
ELLIPSE
  5
51D
100
AcDbEntity
  8
KONSTRUKTIONSELEMENTE
100
AcDbEllipse
 62
7
  6
CONTINUOUS
 10
174.6466276466
 20
186.4542985259
 30
0.0
 11
0.0
 21
16.3
 31
0.0
 40
0.5106382674
 41
-0.6655165881
 42
-0.6429660945
  0
ELLIPSE
  5
51E
100
AcDbEntity
  8
KONSTRUKTIONSELEMENTE
100
AcDbEllipse
 62
7
  6
CONTINUOUS
 10
174.6466276466
 20
186.4542985259
 30
0.0
 11
0.0
 21
15.5
 31
0.0
 40
0.5106382674
 41
-0.7067093627
 42
-0.6822198258
  0
ELLIPSE
  5
51F
100
AcDbEntity
  8
KONSTRUKTIONSELEMENTE
100
AcDbEllipse
 62
7
  6
CONTINUOUS
 10
169.5072129245
 20
186.4542985259
 30
0.0
 11
16.6468067742
 21
0.0
 31
0.0
 40
0.9791667688
 41
0.8823227122
 42
0.9052797387
  0
ELLIPSE
  5
520
100
AcDbEntity
  8
KONSTRUKTIONSELEMENTE
100
AcDbEllipse
 62
7
  6
CONTINUOUS
 10
169.5072129245
 20
186.4542985259
 30
0.0
 11
15.8297855829
 21
0.0
 31
0.0
 40
0.9791667688
 41
0.8390741647
 42
0.8640869641
  0
ELLIPSE
  5
521
100
AcDbEntity
  8
KONSTRUKTIONSELEMENTE
100
AcDbEllipse
 62
7
  6
CONTINUOUS
 10
137.7771081896
 20
186.4542985259
 30
0.0
 11
66.5872241203
 21
0.0
 31
0.0
 40
0.2447917031
 41
0.8765158547
 42
0.8823227122
  0
ELLIPSE
  5
522
100
AcDbEntity
  8
KONSTRUKTIONSELEMENTE
100
AcDbEllipse
 62
7
  6
CONTINUOUS
 10
137.7771081896
 20
186.4542985259
 30
0.0
 11
63.3191395009
 21
0.0
 31
0.0
 40
0.2447917031
 41
0.8327332947
 42
0.8390741647
  0
ELLIPSE
  5
523
100
AcDbEntity
  8
KONSTRUKTIONSELEMENTE
100
AcDbEllipse
 62
7
  6
CONTINUOUS
 10
184.080741626
 20
186.4542985259
 30
0.0
 11
-0.0
 21
15.5
 31
0.0
 40
0.1702127606
 41
0.3961765797
 42
0.4269754722
  0
ELLIPSE
  5
524
100
AcDbEntity
  8
KONSTRUKTIONSELEMENTE
100
AcDbEllipse
 62
7
  6
CONTINUOUS
 10
184.080741626
 20
186.4542985259
 30
0.0
 11
-0.0
 21
16.3
 31
0.0
 40
0.1702127606
 41
0.3757328179
 42
0.4047563551
  0
ELLIPSE
  5
525
100
AcDbEntity
  8
KONSTRUKTIONSELEMENTE
100
AcDbEllipse
 62
7
  6
CONTINUOUS
 10
186.9214280103
 20
186.4542985259
 30
0.0
 11
0.0
 21
15.5
 31
0.0
 40
0.6127661718
 41
6.7101607794
 42
6.7259832799
  0
ELLIPSE
  5
526
100
AcDbEntity
  8
KONSTRUKTIONSELEMENTE
100
AcDbEllipse
 62
7
  6
CONTINUOUS
 10
181.7822345007
 20
186.4542985259
 30
0.0
 11
0.0
 21
16.3
 31
0.0
 40
0.2042553143
 41
0.5615167717
 42
0.5881679347
  0
ELLIPSE
  5
527
100
AcDbEntity
  8
KONSTRUKTIONSELEMENTE
100
AcDbEllipse
 62
7
  6
CONTINUOUS
 10
186.9214280103
 20
186.4542985259
 30
0.0
 11
0.0
 21
16.3
 31
0.0
 40
0.6127661718
 41
0.4047563551
 42
0.4292202187
  0
ELLIPSE
  5
528
100
AcDbEntity
  8
KONSTRUKTIONSELEMENTE
100
AcDbEllipse
 62
7
  6
CONTINUOUS
 10
185.9187379725
 20
186.4542985259
 30
0.0
 11
0.0
 21
16.3
 31
0.0
 40
0.6808509827
 41
0.5457396383
 42
0.5615167717
  0
ELLIPSE
  5
529
100
AcDbEntity
  8
KONSTRUKTIONSELEMENTE
100
AcDbEllipse
 62
7
  6
CONTINUOUS
 10
185.9187379725
 20
186.4542985259
 30
0.0
 11
0.0
 21
15.5
 31
0.0
 40
0.6808509827
 41
0.5773914658
 42
0.5802508286
  0
ELLIPSE
  5
52A
100
AcDbEntity
  8
KONSTRUKTIONSELEMENTE
100
AcDbEllipse
 62
7
  6
CONTINUOUS
 10
193.1191752461
 20
186.4542985259
 30
0.0
 11
24.9701978826
 21
0.0
 31
0.0
 40
0.6527781669
 41
2.1061015609
 42
2.1165359651
  0
ELLIPSE
  5
52B
100
AcDbEntity
  8
KONSTRUKTIONSELEMENTE
100
AcDbEllipse
 62
7
  6
CONTINUOUS
 10
193.1191752461
 20
186.4542985259
 30
0.0
 11
23.7446666981
 21
0.0
 31
0.0
 40
0.6527781669
 41
2.1369993959
 42
2.1481877926
  0
ELLIPSE
  5
52C
100
AcDbEntity
  8
KONSTRUKTIONSELEMENTE
100
AcDbEllipse
 62
7
  6
CONTINUOUS
 10
163.5475400551
 20
186.4542985259
 30
0.0
 11
33.2935971767
 21
-0.0
 31
0.0
 40
0.4895836251
 41
1.0250566885
 42
1.0354910927
  0
ELLIPSE
  5
52D
100
AcDbEntity
  8
KONSTRUKTIONSELEMENTE
100
AcDbEllipse
 62
7
  6
CONTINUOUS
 10
163.5475400551
 20
186.4542985259
 30
0.0
 11
31.6595555975
 21
0.0
 31
0.0
 40
0.4895836251
 41
0.993404861
 42
1.0045932577
  0
ELLIPSE
  5
52E
100
AcDbEntity
  8
KONSTRUKTIONSELEMENTE
100
AcDbEllipse
 62
7
  6
CONTINUOUS
 10
172.1880557192
 20
186.4542985259
 30
0.0
 11
16.6468224018
 21
0.0
 31
0.0
 40
0.9791658496
 41
1.014555757
 42
1.0250566885
  0
ELLIPSE
  5
52F
100
AcDbEntity
  8
KONSTRUKTIONSELEMENTE
100
AcDbEllipse
 62
7
  6
CONTINUOUS
 10
172.1880557192
 20
186.4542985259
 30
0.0
 11
15.8298004435
 21
-0.0
 31
0.0
 40
0.9791658496
 41
0.9821343269
 42
0.993404861
  0
ELLIPSE
  5
530
100
AcDbEntity
  8
KONSTRUKTIONSELEMENTE
100
AcDbEllipse
 62
7
  6
CONTINUOUS
 10
178.0477102367
 20
186.4542985259
 30
0.0
 11
-0.0
 21
16.3
 31
0.0
 40
0.3404254102
 41
-0.5881679347
 42
-0.5562405698
  0
ELLIPSE
  5
531
100
AcDbEntity
  8
KONSTRUKTIONSELEMENTE
100
AcDbEllipse
 62
7
  6
CONTINUOUS
 10
178.0477102367
 20
186.4542985259
 30
0.0
 11
-0.0
 21
15.5
 31
0.0
 40
0.3404254102
 41
-0.6230004459
 42
-0.5886619999
  0
ELLIPSE
  5
532
100
AcDbEntity
  8
KONSTRUKTIONSELEMENTE
100
AcDbEllipse
 62
7
  6
CONTINUOUS
 10
183.4304832769
 20
186.4542985259
 30
0.0
 11
43.6978755652
 21
-0.0
 31
0.0
 40
0.3730158455
 41
2.0492251101
 42
2.0899808241
  0
ELLIPSE
  5
533
100
AcDbEntity
  8
KONSTRUKTIONSELEMENTE
100
AcDbEllipse
 62
7
  6
CONTINUOUS
 10
189.6925333976
 20
186.4542985259
 30
0.0
 11
16.6468084693
 21
0.0
 31
0.0
 40
0.9791666691
 41
8.2832018526
 42
8.298011613
  0
ELLIPSE
  5
534
100
AcDbEntity
  8
KONSTRUKTIONSELEMENTE
100
AcDbEllipse
 62
7
  6
CONTINUOUS
 10
183.4304832769
 20
186.4542985259
 30
0.0
 11
41.5531945558
 21
-0.0
 31
0.0
 40
0.3730158455
 41
2.0761840718
 42
2.101518169
  0
ELLIPSE
  5
535
100
AcDbEntity
  8
KONSTRUKTIONSELEMENTE
100
AcDbEllipse
 62
7
  6
CONTINUOUS
 10
182.9637198001
 20
186.4542985259
 30
0.0
 11
-0.0
 21
16.3
 31
0.0
 40
0.1702127051
 41
0.5562405698
 42
0.5881679347
  0
ELLIPSE
  5
536
100
AcDbEntity
  8
KONSTRUKTIONSELEMENTE
100
AcDbEllipse
 62
7
  6
CONTINUOUS
 10
182.9637198001
 20
186.4542985259
 30
0.0
 11
-0.0
 21
15.5
 31
0.0
 40
0.1702127051
 41
0.5886619999
 42
0.6230004459
  0
ELLIPSE
  5
537
100
AcDbEntity
  8
KONSTRUKTIONSELEMENTE
100
AcDbEllipse
 62
7
  6
CONTINUOUS
 10
187.3584542268
 20
186.4542985259
 30
0.0
 11
0.0
 21
16.3
 31
0.0
 40
0.6808509827
 41
0.5405142611
 42
0.5562405698
  0
ELLIPSE
  5
538
100
AcDbEntity
  8
KONSTRUKTIONSELEMENTE
100
AcDbEllipse
 62
7
  6
CONTINUOUS
 10
187.3584542268
 20
186.4542985259
 30
0.0
 11
-0.0
 21
15.5
 31
0.0
 40
0.6808509827
 41
0.5717871902
 42
0.5886619999
  0
ELLIPSE
  5
539
100
AcDbEntity
  8
KONSTRUKTIONSELEMENTE
100
AcDbEllipse
 62
7
  6
CONTINUOUS
 10
198.7798951331
 20
186.4542985259
 30
0.0
 11
33.2936564623
 21
0.0
 31
0.0
 40
0.4895827534
 41
2.1009085768
 42
2.1113105879
  0
ELLIPSE
  5
53A
100
AcDbEntity
  8
KONSTRUKTIONSELEMENTE
100
AcDbEllipse
 62
7
  6
CONTINUOUS
 10
198.7798951331
 20
186.4542985259
 30
0.0
 11
31.6596119734
 21
0.0
 31
0.0
 40
0.4895827534
 41
2.1314350253
 42
2.142583517
  0
ELLIPSE
  5
53B
100
AcDbEntity
  8
KONSTRUKTIONSELEMENTE
100
AcDbEllipse
 62
7
  6
CONTINUOUS
 10
165.4092177705
 20
186.4542985259
 30
0.0
 11
33.2936448037
 21
0.0
 31
0.0
 40
0.4895829248
 41
1.0354910927
 42
1.0406840768
  0
ELLIPSE
  5
53C
100
AcDbEntity
  8
KONSTRUKTIONSELEMENTE
100
AcDbEllipse
 62
7
  6
CONTINUOUS
 10
165.4092177705
 20
186.4542985259
 30
0.0
 11
31.6596008869
 21
0.0
 31
0.0
 40
0.4895829248
 41
1.0045932577
 42
1.0101576283
  0
ELLIPSE
  5
53D
100
AcDbEntity
  8
KONSTRUKTIONSELEMENTE
100
AcDbEllipse
 62
7
  6
CONTINUOUS
 10
173.9008309636
 20
186.4542985259
 30
0.0
 11
16.6468044177
 21
-0.0
 31
0.0
 40
0.9791669074
 41
1.0250566885
 42
1.0354910927
  0
ELLIPSE
  5
53E
100
AcDbEntity
  8
KONSTRUKTIONSELEMENTE
100
AcDbEllipse
 62
7
  6
CONTINUOUS
 10
173.9008309636
 20
186.4542985259
 30
0.0
 11
15.829783342
 21
-0.0
 31
0.0
 40
0.9791669074
 41
0.993404861
 42
1.0045932577
  0
ELLIPSE
  5
53F
100
AcDbEntity
  8
KONSTRUKTIONSELEMENTE
100
AcDbEllipse
 62
7
  6
CONTINUOUS
 10
178.2210918214
 20
186.4542985259
 30
0.0
 11
0.0
 21
16.3
 31
0.0
 40
0.510638724
 41
-0.5562405698
 42
-0.5457396383
  0
ELLIPSE
  5
540
100
AcDbEntity
  8
KONSTRUKTIONSELEMENTE
100
AcDbEllipse
 62
7
  6
CONTINUOUS
 10
178.2210918214
 20
186.4542985259
 30
0.0
 11
-0.0
 21
15.5
 31
0.0
 40
0.510638724
 41
-0.5802105235
 42
-0.5773914658
  0
ELLIPSE
  5
541
100
AcDbEntity
  8
KONSTRUKTIONSELEMENTE
100
AcDbEllipse
 62
7
  6
CONTINUOUS
 10
180.8579367943
 20
186.4542985259
 30
0.0
 11
0.0
 21
16.3
 31
0.0
 40
0.2042552558
 41
-0.5828005441
 42
-0.5562405698
  0
ELLIPSE
  5
542
100
AcDbEntity
  8
KONSTRUKTIONSELEMENTE
100
AcDbEllipse
 62
7
  6
CONTINUOUS
 10
196.8436987961
 20
186.4542985259
 30
0.0
 11
33.2936030061
 21
-0.0
 31
0.0
 40
0.4895835394
 41
2.0148263058
 42
2.0247575244
  0
ELLIPSE
  5
543
100
AcDbEntity
  8
KONSTRUKTIONSELEMENTE
100
AcDbEllipse
 62
7
  6
CONTINUOUS
 10
204.14383086
 20
186.4542985259
 30
0.0
 11
49.9404672055
 21
0.0
 31
0.0
 40
0.3263886165
 41
2.0247575244
 42
2.0297411565
  0
ELLIPSE
  5
544
100
AcDbEntity
  8
KONSTRUKTIONSELEMENTE
100
AcDbEllipse
 62
7
  6
CONTINUOUS
 10
218.8930048109
 20
186.4542985259
 30
0.0
 11
83.2341353265
 21
-0.0
 31
0.0
 40
0.1958331151
 41
2.0297411565
 42
2.0347370917
  0
ELLIPSE
  5
545
100
AcDbEntity
  8
KONSTRUKTIONSELEMENTE
100
AcDbEllipse
 62
7
  6
CONTINUOUS
 10
214.4204108336
 20
186.4542985259
 30
0.0
 11
49.9404297489
 21
0.0
 31
0.0
 40
0.3263888613
 41
2.2650767989
 42
2.2709118671
  0
ELLIPSE
  5
546
100
AcDbEntity
  8
KONSTRUKTIONSELEMENTE
100
AcDbEllipse
 62
7
  6
CONTINUOUS
 10
214.4204108336
 20
186.4542985259
 30
0.0
 11
47.4893657121
 21
-0.0
 31
0.0
 40
0.3263888613
 41
2.3088593589
 42
2.3152370121
  0
ELLIPSE
  5
547
100
AcDbEntity
  8
KONSTRUKTIONSELEMENTE
100
AcDbEllipse
 62
7
  6
CONTINUOUS
 10
198.44364937
 20
186.4542985259
 30
0.0
 11
24.9702101614
 21
0.0
 31
0.0
 40
0.6527778459
 41
2.2534906967
 42
2.2650767989
  0
ELLIPSE
  5
548
100
AcDbEntity
  8
KONSTRUKTIONSELEMENTE
100
AcDbEllipse
 62
7
  6
CONTINUOUS
 10
198.44364937
 20
186.4542985259
 30
0.0
 11
23.7446783743
 21
-0.0
 31
0.0
 40
0.6527778459
 41
2.2962135226
 42
2.3088593589
  0
ELLIPSE
  5
549
100
AcDbEntity
  8
KONSTRUKTIONSELEMENTE
100
AcDbEllipse
 62
7
  6
CONTINUOUS
 10
189.6917887117
 20
186.4542985259
 30
0.0
 11
0.0
 21
16.3
 31
0.0
 40
0.6808511019
 41
0.6655165881
 42
0.6826943699
  0
ELLIPSE
  5
54A
100
AcDbEntity
  8
KONSTRUKTIONSELEMENTE
100
AcDbEllipse
 62
7
  6
CONTINUOUS
 10
189.6917887117
 20
186.4542985259
 30
0.0
 11
0.0
 21
15.5
 31
0.0
 40
0.6808511019
 41
0.7067093627
 42
0.7254171958
  0
ELLIPSE
  5
54B
100
AcDbEntity
  8
KONSTRUKTIONSELEMENTE
100
AcDbEllipse
 62
7
  6
CONTINUOUS
 10
187.9786502014
 20
186.4542985259
 30
0.0
 11
-0.0
 21
16.3
 31
0.0
 40
0.5106383345
 41
0.6429660945
 42
0.6655165881
  0
ELLIPSE
  5
54C
100
AcDbEntity
  8
KONSTRUKTIONSELEMENTE
100
AcDbEllipse
 62
7
  6
CONTINUOUS
 10
187.9786502014
 20
186.4542985259
 30
0.0
 11
0.0
 21
15.5
 31
0.0
 40
0.5106383345
 41
0.6822198258
 42
0.7067093627
  0
ELLIPSE
  5
54D
100
AcDbEntity
  8
KONSTRUKTIONSELEMENTE
100
AcDbEllipse
 62
7
  6
CONTINUOUS
 10
185.4834102499
 20
186.4542985259
 30
0.0
 11
-0.0
 21
16.3
 31
0.0
 40
0.2553191561
 41
0.620790369
 42
0.6429660945
  0
ELLIPSE
  5
54E
100
AcDbEntity
  8
KONSTRUKTIONSELEMENTE
100
AcDbEllipse
 62
7
  6
CONTINUOUS
 10
185.4834102499
 20
186.4542985259
 30
0.0
 11
0.0
 21
15.5
 31
0.0
 40
0.2553191561
 41
0.658208182
 42
0.6822198258
  0
ELLIPSE
  5
54F
100
AcDbEntity
  8
KONSTRUKTIONSELEMENTE
100
AcDbEllipse
 62
7
  6
CONTINUOUS
 10
186.5626392446
 20
120.0099141095
 30
0.0
 11
1.5
 21
0.0
 31
0.0
 40
0.7778619134
 41
-0.0
 42
1.5707963268
  0
ELLIPSE
  5
550
100
AcDbEntity
  8
KONSTRUKTIONSELEMENTE
100
AcDbEllipse
 62
7
  6
CONTINUOUS
 10
156.5626392446
 20
120.0099141095
 30
0.0
 11
1.5
 21
-0.0
 31
0.0
 40
0.7778619134
 41
1.5707963268
 42
3.1415926536
  0
ELLIPSE
  5
551
100
AcDbEntity
  8
0
100
AcDbEllipse
 62
7
  6
CONTINUOUS
 10
186.5626392446
 20
90.0500858905
 30
0.0
 11
1.5
 21
-0.0
 31
0.0
 40
0.7778619134
 41
-1.5707963268
 42
-0.0
  0
ELLIPSE
  5
552
100
AcDbEntity
  8
0
100
AcDbEllipse
 62
7
  6
CONTINUOUS
 10
156.5626392446
 20
90.0500858905
 30
0.0
 11
1.5
 21
0.0
 31
0.0
 40
0.7778619134
 41
3.1415926536
 42
4.7123889804
  0
ENDSEC
  0
SECTION
  2
OBJECTS
  0
DICTIONARY
  5
C
100
AcDbDictionary
280
0
281
1
  3
ACAD_GROUP
350
D
  3
ACAD_MLINESTYLE
350
17
  3
ACAD_LAYOUT
350
1A
  3
ACAD_PLOTSETTINGS
350
19
  3
ACAD_PLOTSTYLENAME
350
E
  0
DICTIONARY
  5
D
102
{ACAD_REACTORS
330
C
102
}
100
AcDbDictionary
280
0
281
1
  0
ACDBDICTIONARYWDFLT
  5
E
102
{ACAD_REACTORS
330
C
102
}
100
AcDbDictionary
281
1
  3
Normal
350
F
100
AcDbDictionaryWithDefault
340
F
  0
DICTIONARY
  5
17
102
{ACAD_REACTORS
330
C
102
}
100
AcDbDictionary
280
0
281
1
  3
Standard
350
18
  0
DICTIONARY
  5
19
102
{ACAD_REACTORS
330
C
102
}
100
AcDbDictionary
281
1
  0
DICTIONARY
  5
1A
102
{ACAD_REACTORS
330
C
102
}
100
AcDbDictionary
281
1
  3
Model
350
553
  3
Layout1
350
554
  0
ACDBPLACEHOLDER
  5
F
102
{ACAD_REACTORS
330
E
102
}
  0
MLINESTYLE
  5
18
102
{ACAD_REACTORS
330
17
102
}
100
AcDbMlineStyle
  2
STANDARD
 70
0
  3

 62
256
 51
90.0
 52
90.0
 71
2
 49
0.5
 62
256
  6
BYLAYER
 49
-0.5
 62
256
  6
BYLAYER
  0
LAYOUT
  5
553
102
{ACAD_REACTORS
330
1A
102
}
100
AcDbPlotSettings
  1

  2
none_device
  4
ISO_A3_(420.00_x_297.00_MM)
  6

 40
0.0
 41
0.0
 42
0.0
 43
0.0
 44
420.0
 45
297.0
 46
0.0
 47
0.0
 48
0.0
 49
0.0
140
0.0
141
0.0
142
1.0
143
1.0
 70
1024
 72
1
 73
0
 74
0
  7

 75
0
147
1.0
148
0.0
149
0.0
100
AcDbLayout
  1
Model
 70
0
 71
0
 10
0.0
 20
0.0
 11
420.0
 21
297.0
 12
0.0
 22
0.0
 32
0.0
 14
0.0
 24
0.0
 34
0.0
 15
0.0
 25
0.0
 35
0.0
146
0.0
 13
0.0
 23
0.0
 33
0.0
 16
1.0
 26
0.0
 36
0.0
 17
0.0
 27
1.0
 37
0.0
 76
0
330
20C
345
0
346
0
  0
LAYOUT
  5
554
102
{ACAD_REACTORS
330
1A
102
}
100
AcDbPlotSettings
  1

  2
none_device
  4
ISO_A3_(420.00_x_297.00_MM)
  6

 40
0.0
 41
0.0
 42
0.0
 43
0.0
 44
420.0
 45
297.0
 46
0.0
 47
0.0
 48
0.0
 49
0.0
140
0.0
141
0.0
142
1.0
143
1.0
 70
0
 72
1
 73
0
 74
0
  7

 75
0
147
1.0
148
0.0
149
0.0
100
AcDbLayout
  1
Layout1
 70
0
 71
1
 10
0.0
 20
0.0
 11
420.0
 21
297.0
 12
0.0
 22
0.0
 32
0.0
 14
0.0
 24
0.0
 34
0.0
 15
0.0
 25
0.0
 35
0.0
146
0.0
 13
0.0
 23
0.0
 33
0.0
 16
1.0
 26
0.0
 36
0.0
 17
0.0
 27
1.0
 37
0.0
 76
0
330
20D
345
0
346
0
  0
ENDSEC
  0
EOF
