999
DXF file: ICE-CCS-4_7912242_m36164-p-01.dxf
999
Pro/ENGINEER 2022162 by Parametric Technology Corporation
  0
SECTION
  2
HEADER
  9
$ACADVER
  1
AC1021
  9
$DWGCODEPAGE
  3
ANSI_1252
  9
$EXTMAX
 10
297.0
 20
210.0
 30
0.0
  9
$EXTMIN
 10
0.0
 20
0.0
 30
0.0
  9
$LIMMIN
 10
0.0
 20
0.0
  9
$LIMMAX
 10
297.0
 20
210.0
  9
$VIEWCTR
 10
148.5
 20
105.0
  9
$VIEWSIZE
 40
210.0
  9
$CLAYER
  8
0
  9
$LTSCALE
 40
16.335
  9
$CELTYPE
  6
BYLAYER
  9
$DIMSCALE
 40
1.0
  9
$DIMASZ
 40
3.5
  9
$DIMEXO
 40
0.0
  9
$DIMDLI
 40
11.286
  9
$DIMEXE
 40
1.5
  9
$DIMCEN
 40
2.673
  9
$DIMLFAC
 40
1.0
  9
$DIMBLK
  1
_FILLED
  9
$DIMALT
 70
0
  9
$DIMALTF
 40
0.0393700787
  9
$DIMTXT
 40
3.5
  9
$DIMTOL
 70
1
  9
$DIMLIM
 70
0
  9
$DIMTFAC
 40
1.0
  9
$DIMTP
 40
0.01
  9
$DIMTM
 40
0.01
  9
$DIMGAP
 40
0.625
  9
$DIMDSEP
 70
46
  9
$AUNITS
 70
0
  9
$PDMODE
 70
3
  9
$PDSIZE
 40
0.3125
  9
$HANDSEED
  5
4EC
  9
$TILEMODE
 70
1
  9
$MEASUREMENT
 70
1
  9
$INSUNITS
 70
4
  0
ENDSEC
  0
SECTION
  2
CLASSES
  0
CLASS
  1
ACDBDICTIONARYWDFLT
  2
AcDbDictionaryWithDefault
  3
AutoCAD 2000
 90
0
 91
1
280
0
281
0
  0
CLASS
  1
ACDBPLACEHOLDER
  2
AcDbPlaceHolder
  3
AutoCAD 2000
 90
0
 91
1
280
0
281
0
  0
CLASS
  1
LAYOUT
  2
AcDbLayout
  3
AutoCAD 2000
 90
0
 91
0
280
0
281
0
  0
ENDSEC
  0
SECTION
  2
TABLES
  0
TABLE
  2
VPORT
  5
8
100
AcDbSymbolTable
 70
2
  0
VPORT
  5
1F4
100
AcDbSymbolTableRecord
100
AcDbViewportTableRecord
  2
*ACTIVE
 70
0
 10
0.0
 20
0.0
 11
1.0
 21
1.0
 12
148.5
 22
105.0
 13
0.0
 23
0.0
 14
1.0
 24
1.0
 15
0.0
 25
0.0
 16
0.0
 26
0.0
 36
1.0
 17
0.0
 27
0.0
 37
0.0
 40
210.0
 41
1.4142857143
 42
50.0
 43
0.0
 44
0.0
 50
0.0
 51
0.0
 71
0
 72
100
 73
1
 74
1
 75
0
 76
0
 77
0
 78
0
  0
ENDTAB
  0
TABLE
  2
LTYPE
  5
5
100
AcDbSymbolTable
 70
6
  0
LTYPE
  5
14
100
AcDbSymbolTableRecord
100
AcDbLinetypeTableRecord
  2
BYBLOCK
 70
0
  3

 72
65
 73
0
 40
0.0
  0
LTYPE
  5
15
100
AcDbSymbolTableRecord
100
AcDbLinetypeTableRecord
  2
BYLAYER
 70
0
  3

 72
65
 73
0
 40
0.0
  0
LTYPE
  5
16
100
AcDbSymbolTableRecord
100
AcDbLinetypeTableRecord
  2
CONTINUOUS
 70
64
  3
Solid line
 72
65
 73
0
 40
0.0
  0
LTYPE
  5
1F5
100
AcDbSymbolTableRecord
100
AcDbLinetypeTableRecord
  2
CENTER
 70
64
  3
____ _ ____ _ ____ _ ____ _ ____ _ ____ _ ____
 72
65
 73
4
 40
0.6
 49
0.375
 74
0
 49
-0.075
 74
0
 49
0.075
 74
0
 49
-0.075
 74
0
  0
LTYPE
  5
1F6
100
AcDbSymbolTableRecord
100
AcDbLinetypeTableRecord
  2
HIDDEN
 70
64
  3
- - - - - - - - - - - - - - - - - - - -
 72
65
 73
2
 40
0.2
 49
0.1
 74
0
 49
-0.1
 74
0
  0
LTYPE
  5
1F7
100
AcDbSymbolTableRecord
100
AcDbLinetypeTableRecord
  2
PHANTOM
 70
64
  3
_____ _ _ _____ _ _ _____ _ _ _____
 72
65
 73
6
 40
0.8
 49
0.45
 74
0
 49
-0.05
 74
0
 49
0.1
 74
0
 49
-0.05
 74
0
 49
0.1
 74
0
 49
-0.05
 74
0
  0
LTYPE
  5
1F8
100
AcDbSymbolTableRecord
100
AcDbLinetypeTableRecord
  2
DOT
 70
64
  3
. . . . . . . . . . . . . . . . . . . .
 72
65
 73
2
 40
0.2
 49
0.1
 74
0
 49
-0.1
 74
0
  0
LTYPE
  5
1F9
100
AcDbSymbolTableRecord
100
AcDbLinetypeTableRecord
  2
DASHED
 70
64
  3
- - - - - - - - - - - - - - - - - - - -
 72
65
 73
2
 40
0.2
 49
0.1
 74
0
 49
-0.1
 74
0
  0
ENDTAB
  0
TABLE
  2
LAYER
  5
2
100
AcDbSymbolTable
 70
36
  0
LAYER
  5
10
100
AcDbSymbolTableRecord
100
AcDbLayerTableRecord
  2
0
 70
0
 62
7
  6
CONTINUOUS
370
-3
390
F
  0
LAYER
  5
1FA
100
AcDbSymbolTableRecord
100
AcDbLayerTableRecord
  2
DEFAULT_1
 70
0
 62
7
  6
CENTER
370
-3
390
F
  0
LAYER
  5
1FB
100
AcDbSymbolTableRecord
100
AcDbLayerTableRecord
  2
DEFAULT_2
 70
0
 62
8
  6
HIDDEN
370
-3
390
F
  0
LAYER
  5
1FC
100
AcDbSymbolTableRecord
100
AcDbLayerTableRecord
  2
DEFAULT_3
 70
0
 62
7
  6
PHANTOM
370
-3
390
F
  0
LAYER
  5
1FD
100
AcDbSymbolTableRecord
100
AcDbLayerTableRecord
  2
AUSFORMSCHRAEGEN
 70
0
 62
7
  6
CONTINUOUS
370
-3
390
F
  0
LAYER
  5
1FE
100
AcDbSymbolTableRecord
100
AcDbLayerTableRecord
  2
BEZUGSACHSEN
 70
0
 62
7
  6
CONTINUOUS
370
-3
390
F
  0
LAYER
  5
1FF
100
AcDbSymbolTableRecord
100
AcDbLayerTableRecord
  2
BEZUGSEBENEN
 70
0
 62
7
  6
CONTINUOUS
370
-3
390
F
  0
LAYER
  5
200
100
AcDbSymbolTableRecord
100
AcDbLayerTableRecord
  2
FASEN
 70
0
 62
7
  6
CONTINUOUS
370
-3
390
F
  0
LAYER
  5
201
100
AcDbSymbolTableRecord
100
AcDbLayerTableRecord
  2
HILFEN
 70
0
 62
7
  6
CONTINUOUS
370
-3
390
F
  0
LAYER
  5
202
100
AcDbSymbolTableRecord
100
AcDbLayerTableRecord
  2
PLATZIERUNG
 70
0
 62
7
  6
CONTINUOUS
370
-3
390
F
  0
LAYER
  5
203
100
AcDbSymbolTableRecord
100
AcDbLayerTableRecord
  2
RUNDUNGEN
 70
0
 62
7
  6
CONTINUOUS
370
-3
390
F
  0
LAYER
  5
204
100
AcDbSymbolTableRecord
100
AcDbLayerTableRecord
  2
T_STARTBEZUEGE
 70
0
 62
7
  6
CONTINUOUS
370
-3
390
F
  0
LAYER
  5
205
100
AcDbSymbolTableRecord
100
AcDbLayerTableRecord
  2
XSEC_DATUMS
 70
0
 62
7
  6
CONTINUOUS
370
-3
390
F
  0
LAYER
  5
206
100
AcDbSymbolTableRecord
100
AcDbLayerTableRecord
  2
_00_ASM_START_FEATURES
 70
0
 62
7
  6
CONTINUOUS
370
-3
390
F
  0
LAYER
  5
207
100
AcDbSymbolTableRecord
100
AcDbLayerTableRecord
  2
_00_HILFEN
 70
0
 62
7
  6
CONTINUOUS
370
-3
390
F
  0
LAYER
  5
208
100
AcDbSymbolTableRecord
100
AcDbLayerTableRecord
  2
_00_PLATZIERUNG
 70
0
 62
7
  6
CONTINUOUS
370
-3
390
F
  0
LAYER
  5
209
100
AcDbSymbolTableRecord
100
AcDbLayerTableRecord
  2
_03_2D_ZEICHNUNG_BEMASSUNGEN
 70
0
 62
7
  6
CONTINUOUS
370
-3
390
F
  0
LAYER
  5
20A
100
AcDbSymbolTableRecord
100
AcDbLayerTableRecord
  2
_04_NOTIZEN
 70
0
 62
7
  6
CONTINUOUS
370
-3
390
F
  0
LAYER
  5
20B
100
AcDbSymbolTableRecord
100
AcDbLayerTableRecord
  2
_26_BEZUGSACHSEN
 70
0
 62
7
  6
CONTINUOUS
370
-3
390
F
  0
LAYER
  5
20C
100
AcDbSymbolTableRecord
100
AcDbLayerTableRecord
  2
_27_BEZUGSEBENEN
 70
0
 62
7
  6
CONTINUOUS
370
-3
390
F
  0
LAYER
  5
20D
100
AcDbSymbolTableRecord
100
AcDbLayerTableRecord
  2
_29_KOORDINATENSYSTEME
 70
0
 62
7
  6
CONTINUOUS
370
-3
390
F
  0
LAYER
  5
20E
100
AcDbSymbolTableRecord
100
AcDbLayerTableRecord
  2
_30_VOLUMEN
 70
0
 62
7
  6
CONTINUOUS
370
-3
390
F
  0
ENDTAB
  0
TABLE
  2
STYLE
  5
3
100
AcDbSymbolTable
 70
1
  0
STYLE
  5
11
100
AcDbSymbolTableRecord
100
AcDbTextStyleTableRecord
  2
STANDARD
 70
0
 40
0.0
 41
1.0
 50
0.0
 71
0
 42
0.2
  3
isonormlt-regular.ttf
  4

1001
ACAD
1000
Isonorm LT Regular
1071
34
  0
STYLE
  5
20F
100
AcDbSymbolTableRecord
100
AcDbTextStyleTableRecord
  2
TEXTSTYLE_1
 70
0
 40
0.0
 41
0.8
 50
0.0
 71
0
 42
0.2
  3
gdt
  4

  0
ENDTAB
  0
TABLE
  2
VIEW
  5
6
100
AcDbSymbolTable
 70
0
  0
ENDTAB
  0
TABLE
  2
UCS
  5
7
100
AcDbSymbolTable
 70
0
  0
ENDTAB
  0
TABLE
  2
APPID
  5
9
100
AcDbSymbolTable
 70
1
  0
APPID
  5
210
100
AcDbSymbolTableRecord
100
AcDbRegAppTableRecord
  2
ACAD
 70
0
  0
ENDTAB
  0
TABLE
  2
BLOCK_RECORD
  5
1
100
AcDbSymbolTable
 70
0
  0
BLOCK_RECORD
  5
211
100
AcDbSymbolTableRecord
100
AcDbBlockTableRecord
  2
*Model_Space
  0
BLOCK_RECORD
  5
212
100
AcDbSymbolTableRecord
100
AcDbBlockTableRecord
  2
*Paper_Space
  0
BLOCK_RECORD
  5
213
100
AcDbSymbolTableRecord
100
AcDbBlockTableRecord
  2
_FILLED
  0
ENDTAB
  0
TABLE
  2
DIMSTYLE
  5
A
100
AcDbSymbolTable
 70
1
100
AcDbDimStyleTable
 71
0
  0
DIMSTYLE
105
214
100
AcDbSymbolTableRecord
100
AcDbDimStyleTableRecord
  2
STANDARD
 70
0
  3

  4

 40
1.0
 41
3.5
 42
0.0
 43
0.38
 44
1.5
 45
0.0
 46
0.0
 47
0.01
 48
0.01
140
3.5
141
0.09
142
0.0
143
25.4
144
1.0
145
0.0
146
1.0
147
0.625
 71
1
 72
0
 73
0
 74
0
 75
0
 76
0
 77
1
 78
8
 79
2
170
0
171
1
172
0
173
0
174
0
175
0
176
0
177
0
178
5
270
2
179
2
271
2
272
2
273
2
274
2
275
0
280
0
281
0
282
0
283
1
284
8
285
0
286
0
287
3
288
0
340
11
278
46
341
213
342
213
343
213
344
213
  0
ENDTAB
  0
ENDSEC
  0
SECTION
  2
BLOCKS
  0
BLOCK
  5
20
100
AcDbEntity
  8
0
100
AcDbBlockBegin
  2
*Model_Space
 70
0
 10
0.0
 20
0.0
 30
0.0
  3
*Model_Space
  1

  0
ENDBLK
  5
21
100
AcDbEntity
  8
0
100
AcDbBlockEnd
  0
BLOCK
  5
1C
100
AcDbEntity
  8
0
100
AcDbBlockBegin
  2
*Paper_Space
 70
0
 10
0.0
 20
0.0
 30
0.0
  3
*Paper_Space
  1

  0
ENDBLK
  5
1D
100
AcDbEntity
  8
0
100
AcDbBlockEnd
  0
BLOCK
  5
215
100
AcDbEntity
  8
0
100
AcDbBlockBegin
  2
_FILLED
 70
64
 10
0.0
 20
0.0
  3
_FILLED
  1

  0
SOLID
  5
216
100
AcDbEntity
  8
0
  6
BYBLOCK
 62
0
100
AcDbTrace
 10
0.0
 20
0.0
 11
-1.0
 21
0.125
 12
-1.0
 22
-0.125
 13
-1.0
 23
-0.125
  0
ENDBLK
  5
217
100
AcDbEntity
  8
0
  6
BYBLOCK
 62
0
100
AcDbBlockEnd
  0
ENDSEC
  0
SECTION
  2
ENTITIES
  0
MTEXT
  5
218
100
AcDbEntity
  8
_04_NOTIZEN
100
AcDbMText
 62
5
  6
CONTINUOUS
  7
STANDARD
 71
1
 72
1
 10
117.4912584414
 20
128.1915997617
 30
0.0
 11
1.0
 21
0.0
 31
0.0
 73
2
 44
0.9
  1
ICE
 40
3.5
 41
5.866
  0
MTEXT
  5
219
100
AcDbEntity
  8
_04_NOTIZEN
100
AcDbMText
 62
5
  6
CONTINUOUS
  7
STANDARD
 71
1
 72
1
 10
187.4652022604
 20
133.952860001
 30
0.0
 11
0.0
 21
1.0
 31
0.0
 73
2
 44
0.9
  1
ICE CSS
 40
3.5
 41
13.986
  0
MTEXT
  5
21A
100
AcDbEntity
  8
_04_NOTIZEN
100
AcDbMText
 62
5
  6
CONTINUOUS
  7
STANDARD
 71
1
 72
1
 10
93.2381177087
 20
54.3060376661
 30
0.0
 11
1.0
 21
0.0
 31
0.0
 73
2
 44
0.9
  1
RUD ICE CSS 4
 40
3.5
 41
27.09
  0
LINE
  5
21B
100
AcDbEntity
  8
0
100
AcDbLine
 62
7
  6
CONTINUOUS
 10
0.0
 20
0.0
 11
0.0
 21
210.0
  0
LINE
  5
21C
100
AcDbEntity
  8
0
100
AcDbLine
 62
7
  6
CONTINUOUS
 10
0.0
 20
0.0
 11
297.0
 21
0.0
  0
LINE
  5
21D
100
AcDbEntity
  8
0
100
AcDbLine
 62
7
  6
CONTINUOUS
 10
0.0
 20
210.0
 11
297.0
 21
210.0
  0
LINE
  5
21E
100
AcDbEntity
  8
0
100
AcDbLine
 62
7
  6
CONTINUOUS
 10
297.0
 20
0.0
 11
297.0
 21
210.0
  0
LINE
  5
21F
100
AcDbEntity
  8
FASEN
100
AcDbLine
 62
7
  6
CONTINUOUS
 10
80.8899925002
 20
112.1030734703
 11
81.3899924998
 21
111.6030734708
  0
LINE
  5
220
100
AcDbEntity
  8
0
100
AcDbLine
 62
7
  6
CONTINUOUS
 10
127.2899925073
 20
109.1030734633
 11
115.3899923265
 21
109.1030734633
  0
LINE
  5
221
100
AcDbEntity
  8
0
100
AcDbLine
 62
7
  6
CONTINUOUS
 10
96.3899934626
 20
109.1030734633
 11
92.218419632
 21
109.1030734633
  0
LWPOLYLINE
  5
222
100
AcDbEntity
  8
BEZUGSACHSEN
100
AcDbPolyline
 62
7
  6
CONTINUOUS
 90
17
 70
0
 10
96.3899574813
 20
109.1030737104
 10
96.6363813177
 20
109.1151514905
 10
96.8646283851
 20
109.1482199369
 10
97.0888148289
 20
109.2020697885
 10
97.3070254899
 20
109.2762521772
 10
97.5172891898
 20
109.370081281
 10
97.7178157675
 20
109.4827131575
 10
97.9069821507
 20
109.6131914129
 10
98.0831948438
 20
109.760375524
 10
98.2449802148
 20
109.9229842157
 10
98.3910133599
 20
110.0996327118
 10
98.5200998697
 20
110.2888277176
 10
98.6311653414
 20
110.4889430897
 10
98.723302631
 20
110.6982857072
 10
98.7957729326
 20
110.9151328683
 10
98.847974742
 20
111.1376642026
 10
98.8793947411
 20
111.3634507694
  0
LWPOLYLINE
  5
223
100
AcDbEntity
  8
RUNDUNGEN
100
AcDbPolyline
 62
7
  6
CONTINUOUS
 90
18
 70
0
 10
96.3899557027
 20
109.1030737143
 10
96.6195769384
 20
109.1135563429
 10
96.849087652
 20
109.1452852579
 10
97.0746357891
 20
109.1980115131
 10
97.2942763839
 20
109.2712928091
 10
97.5060043127
 20
109.3644446855
 10
97.7079996382
 20
109.476620535
 10
97.8986134034
 20
109.6068591111
 10
98.0762249689
 20
109.7540111231
 10
98.2393352345
 20
109.9167833784
 10
98.3865964217
 20
110.0937769712
 10
98.5167932456
 20
110.2834822061
 10
98.6288319573
 20
110.4842534574
 10
98.7217890732
 20
110.694376653
 10
98.7949125
 20
110.912107736
 10
98.8475894314
 20
111.1356026028
 10
98.8793704932
 20
111.3629275361
 10
98.8899925073
 20
111.5921344403
  0
LINE
  5
224
100
AcDbEntity
  8
BEZUGSACHSEN
100
AcDbLine
 62
7
  6
CONTINUOUS
 10
88.8899925073
 20
111.1030734633
 11
89.3899925073
 21
111.1030734633
  0
LINE
  5
225
100
AcDbEntity
  8
FASEN
100
AcDbLine
 62
7
  6
CONTINUOUS
 10
87.8899925073
 20
111.6030734633
 11
81.3899925073
 21
111.6030734633
  0
LINE
  5
226
100
AcDbEntity
  8
_30_VOLUMEN
100
AcDbLine
 62
7
  6
CONTINUOUS
 10
127.2899925073
 20
113.4030734633
 11
127.5899925073
 21
113.4030734633
  0
LINE
  5
227
100
AcDbEntity
  8
FASEN
100
AcDbLine
 62
7
  6
CONTINUOUS
 10
80.8899925073
 20
112.1030734633
 11
80.8899925073
 21
129.1030734633
  0
LINE
  5
228
100
AcDbEntity
  8
FASEN
100
AcDbLine
 62
7
  6
CONTINUOUS
 10
81.3899925073
 20
111.6030734633
 11
81.3899925073
 21
129.6030734633
  0
LINE
  5
229
100
AcDbEntity
  8
0
100
AcDbLine
 62
7
  6
CONTINUOUS
 10
112.8899925073
 20
115.6030734633
 11
98.8899925073
 21
115.6030734633
  0
LINE
  5
22A
100
AcDbEntity
  8
0
100
AcDbLine
 62
7
  6
CONTINUOUS
 10
128.955645733
 20
116.1030734633
 11
128.0899925073
 21
116.1030734633
  0
LINE
  5
22B
100
AcDbEntity
  8
0
100
AcDbLine
 62
7
  6
CONTINUOUS
 10
128.0899925073
 20
117.2030734633
 11
127.5899925073
 21
117.2030734633
  0
LINE
  5
22C
100
AcDbEntity
  8
0
100
AcDbLine
 62
7
  6
CONTINUOUS
 10
121.4899925073
 20
119.9364067966
 11
117.0899925073
 21
119.9364067966
  0
LINE
  5
22D
100
AcDbEntity
  8
FASEN
100
AcDbLine
 62
7
  6
CONTINUOUS
 10
87.8899925107
 20
129.6030734598
 11
88.3899925105
 21
129.10307346
  0
LINE
  5
22E
100
AcDbEntity
  8
0
100
AcDbLine
 62
7
  6
CONTINUOUS
 10
121.4899925073
 20
121.2697401299
 11
117.0899925073
 21
121.2697401299
  0
LINE
  5
22F
100
AcDbEntity
  8
FASEN
100
AcDbLine
 62
7
  6
CONTINUOUS
 10
87.8899925073
 20
111.6030734633
 11
87.8899925073
 21
129.6030734633
  0
LINE
  5
230
100
AcDbEntity
  8
_30_VOLUMEN
100
AcDbLine
 62
7
  6
CONTINUOUS
 10
88.3899925073
 20
111.1888599009
 11
88.3899925073
 21
130.0172870256
  0
LINE
  5
231
100
AcDbEntity
  8
0
100
AcDbLine
 62
7
  6
CONTINUOUS
 10
128.0899925073
 20
124.0030734633
 11
127.5899925073
 21
124.0030734633
  0
LINE
  5
232
100
AcDbEntity
  8
0
100
AcDbLine
 62
7
  6
CONTINUOUS
 10
128.955645733
 20
125.1030734633
 11
128.0899925073
 21
125.1030734633
  0
LINE
  5
233
100
AcDbEntity
  8
0
100
AcDbLine
 62
7
  6
CONTINUOUS
 10
112.8899925073
 20
125.6030734633
 11
98.8899925073
 21
125.6030734633
  0
LINE
  5
234
100
AcDbEntity
  8
RUNDUNGEN
100
AcDbLine
 62
7
  6
CONTINUOUS
 10
90.8899925073
 20
148.6030734633
 11
90.8899406556
 21
130.8101200416
  0
LINE
  5
235
100
AcDbEntity
  8
_30_VOLUMEN
100
AcDbLine
 62
7
  6
CONTINUOUS
 10
127.6899925073
 20
126.8295707714
 11
130.5899925073
 21
126.8295707714
  0
LINE
  5
236
100
AcDbEntity
  8
0
100
AcDbLine
 62
7
  6
CONTINUOUS
 10
94.1614818462
 20
135.0405734484
 11
94.4168009647
 21
134.7905734633
  0
LINE
  5
237
100
AcDbEntity
  8
0
100
AcDbLine
 62
7
  6
CONTINUOUS
 10
94.5444605239
 20
135.1655734633
 11
94.4168009647
 21
135.3530734633
  0
LINE
  5
238
100
AcDbEntity
  8
0
100
AcDbLine
 62
7
  6
CONTINUOUS
 10
94.0338222869
 20
135.2905734782
 11
94.1614818462
 21
135.0405734484
  0
LINE
  5
239
100
AcDbEntity
  8
0
100
AcDbLine
 62
7
  6
CONTINUOUS
 10
93.9699925073
 20
135.6030734931
 11
94.0338222869
 21
135.2905734782
  0
LINE
  5
23A
100
AcDbEntity
  8
RUNDUNGEN
100
AcDbLine
 62
7
  6
CONTINUOUS
 10
93.8899925073
 20
159.9608901549
 11
93.8899925073
 21
170.1030734633
  0
LINE
  5
23B
100
AcDbEntity
  8
BEZUGSACHSEN
100
AcDbLine
 62
7
  6
CONTINUOUS
 10
93.8899925073
 20
170.1030734633
 11
93.8899925073
 21
175.1030734633
  0
LINE
  5
23C
100
AcDbEntity
  8
0
100
AcDbLine
 62
7
  6
CONTINUOUS
 10
93.9699925073
 20
141.6655737017
 11
93.9699925073
 21
141.3530734633
  0
LINE
  5
23D
100
AcDbEntity
  8
0
100
AcDbLine
 62
7
  6
CONTINUOUS
 10
93.9699925073
 20
138.8530733441
 11
93.9699925073
 21
138.5405734633
  0
LINE
  5
23E
100
AcDbEntity
  8
0
100
AcDbLine
 62
7
  6
CONTINUOUS
 10
93.9699925073
 20
136.1655734037
 11
93.9699925073
 21
135.6030734931
  0
LINE
  5
23F
100
AcDbEntity
  8
0
100
AcDbLine
 62
7
  6
CONTINUOUS
 10
94.352971185
 20
135.6030734931
 11
94.352971185
 21
136.1655734037
  0
LINE
  5
240
100
AcDbEntity
  8
0
100
AcDbLine
 62
7
  6
CONTINUOUS
 10
94.352971185
 20
138.5405734633
 11
94.352971185
 21
138.9155734633
  0
LINE
  5
241
100
AcDbEntity
  8
0
100
AcDbLine
 62
7
  6
CONTINUOUS
 10
94.352971185
 20
141.3530734633
 11
94.352971185
 21
141.7280734633
  0
LINE
  5
242
100
AcDbEntity
  8
0
100
AcDbLine
 62
7
  6
CONTINUOUS
 10
94.6721200832
 20
139.2905734633
 11
94.6721200832
 21
139.6655734633
  0
LINE
  5
243
100
AcDbEntity
  8
0
100
AcDbLine
 62
7
  6
CONTINUOUS
 10
94.6721200832
 20
142.1030734633
 11
94.6721200832
 21
142.4780734633
  0
LINE
  5
244
100
AcDbEntity
  8
0
100
AcDbLine
 62
7
  6
CONTINUOUS
 10
94.7359500416
 20
136.6655734633
 11
94.7359500416
 21
137.0405734633
  0
LINE
  5
245
100
AcDbEntity
  8
0
100
AcDbLine
 62
7
  6
CONTINUOUS
 10
95.2465882786
 20
141.7280734633
 11
95.2465882786
 21
141.3530734633
  0
LINE
  5
246
100
AcDbEntity
  8
0
100
AcDbLine
 62
7
  6
CONTINUOUS
 10
95.2465882786
 20
138.9155734633
 11
95.2465882786
 21
138.5405734633
  0
LINE
  5
247
100
AcDbEntity
  8
0
100
AcDbLine
 62
7
  6
CONTINUOUS
 10
95.6295669563
 20
138.5405734633
 11
95.6295669563
 21
138.9155734633
  0
LINE
  5
248
100
AcDbEntity
  8
0
100
AcDbLine
 62
7
  6
CONTINUOUS
 10
95.6295669563
 20
141.3530734633
 11
95.6295669563
 21
141.7280734633
  0
LINE
  5
249
100
AcDbEntity
  8
0
100
AcDbLine
 62
7
  6
CONTINUOUS
 10
94.0338222869
 20
141.9780732248
 11
93.9699925073
 21
141.6655737017
  0
LINE
  5
24A
100
AcDbEntity
  8
0
100
AcDbLine
 62
7
  6
CONTINUOUS
 10
94.0338222869
 20
139.1655735825
 11
93.9699925073
 21
138.8530733441
  0
LINE
  5
24B
100
AcDbEntity
  8
0
100
AcDbLine
 62
7
  6
CONTINUOUS
 10
94.0338222869
 20
136.4780734633
 11
93.9699925073
 21
136.1655734037
  0
LINE
  5
24C
100
AcDbEntity
  8
0
100
AcDbLine
 62
7
  6
CONTINUOUS
 10
94.352971185
 20
141.7280734633
 11
94.4168009647
 21
141.9155734633
  0
LINE
  5
24D
100
AcDbEntity
  8
FASEN
100
AcDbLine
 62
7
  6
CONTINUOUS
 10
87.8899925073
 20
129.6030734633
 11
81.3899925073
 21
129.6030734633
  0
LINE
  5
24E
100
AcDbEntity
  8
_30_VOLUMEN
100
AcDbLine
 62
7
  6
CONTINUOUS
 10
127.6899925073
 20
129.7163221173
 11
130.5899925073
 21
129.7163221173
  0
LINE
  5
24F
100
AcDbEntity
  8
BEZUGSACHSEN
100
AcDbLine
 62
7
  6
CONTINUOUS
 10
88.8899925073
 20
130.1030734633
 11
89.3899925073
 21
130.1030734633
  0
LINE
  5
250
100
AcDbEntity
  8
_26_BEZUGSACHSEN
100
AcDbLine
 62
7
  6
CONTINUOUS
 10
127.5899925073
 20
130.1530734633
 11
127.6899925073
 21
130.1530734633
  0
LINE
  5
251
100
AcDbEntity
  8
0
100
AcDbLine
 62
7
  6
CONTINUOUS
 10
120.4399925073
 20
130.6030734633
 11
120.8774925073
 21
130.6030734633
  0
LINE
  5
252
100
AcDbEntity
  8
0
100
AcDbLine
 62
7
  6
CONTINUOUS
 10
118.6899925073
 20
131.6456266348
 11
120.4399925073
 21
131.6456266348
  0
LINE
  5
253
100
AcDbEntity
  8
0
100
AcDbLine
 62
7
  6
CONTINUOUS
 10
120.8774925073
 20
131.6456266348
 11
121.6066591044
 21
131.6456266348
  0
LINE
  5
254
100
AcDbEntity
  8
0
100
AcDbLine
 62
7
  6
CONTINUOUS
 10
94.4168009647
 20
134.7905734633
 11
94.6721200832
 21
134.6655734651
  0
LINE
  5
255
100
AcDbEntity
  8
0
100
AcDbLine
 62
7
  6
CONTINUOUS
 10
94.7359500416
 20
135.0405734484
 11
94.5444605239
 21
135.1655734633
  0
LINE
  5
256
100
AcDbEntity
  8
0
100
AcDbLine
 62
7
  6
CONTINUOUS
 10
94.1614818462
 20
138.0405735825
 11
94.4168009647
 21
137.7905734633
  0
LINE
  5
257
100
AcDbEntity
  8
0
100
AcDbLine
 62
7
  6
CONTINUOUS
 10
96.7785031461
 20
136.7280734037
 11
96.5231840052
 21
136.9780735229
  0
LINE
  5
258
100
AcDbEntity
  8
0
100
AcDbLine
 62
7
  6
CONTINUOUS
 10
94.5444605239
 20
138.1655734633
 11
94.4168009647
 21
138.3530734633
  0
LINE
  5
259
100
AcDbEntity
  8
0
100
AcDbLine
 62
7
  6
CONTINUOUS
 10
96.3955244013
 20
136.6030735229
 11
96.5231840052
 21
136.4155735229
  0
LINE
  5
25A
100
AcDbEntity
  8
0
100
AcDbLine
 62
7
  6
CONTINUOUS
 10
94.5444605239
 20
140.9780734633
 11
94.4168009647
 21
141.1655734633
  0
LINE
  5
25B
100
AcDbEntity
  8
0
100
AcDbLine
 62
7
  6
CONTINUOUS
 10
94.0338222869
 20
138.2905733441
 11
94.1614818462
 21
138.0405735825
  0
LINE
  5
25C
100
AcDbEntity
  8
0
100
AcDbLine
 62
7
  6
CONTINUOUS
 10
94.0338222869
 20
141.1030737017
 11
94.1614818462
 21
140.8530732248
  0
LINE
  5
25D
100
AcDbEntity
  8
0
100
AcDbLine
 62
7
  6
CONTINUOUS
 10
96.9061627221
 20
136.4780734633
 11
96.7785031461
 21
136.7280734037
  0
LINE
  5
25E
100
AcDbEntity
  8
0
100
AcDbLine
 62
7
  6
CONTINUOUS
 10
94.4168009647
 20
138.3530734633
 11
94.352971185
 21
138.5405734633
  0
LINE
  5
25F
100
AcDbEntity
  8
0
100
AcDbLine
 62
7
  6
CONTINUOUS
 10
94.4168009647
 20
141.1655734633
 11
94.352971185
 21
141.3530734633
  0
LINE
  5
260
100
AcDbEntity
  8
0
100
AcDbLine
 62
7
  6
CONTINUOUS
 10
94.4168009647
 20
135.3530734633
 11
94.352971185
 21
135.6030734931
  0
LINE
  5
261
100
AcDbEntity
  8
0
100
AcDbLine
 62
7
  6
CONTINUOUS
 10
93.9699925073
 20
138.5405734633
 11
94.0338222869
 21
138.2905733441
  0
LINE
  5
262
100
AcDbEntity
  8
0
100
AcDbLine
 62
7
  6
CONTINUOUS
 10
93.9699925073
 20
141.3530734633
 11
94.0338222869
 21
141.1030737017
  0
LINE
  5
263
100
AcDbEntity
  8
0
100
AcDbLine
 62
7
  6
CONTINUOUS
 10
96.5231840052
 20
136.4155735229
 11
96.5870137848
 21
136.1655734037
  0
LINE
  5
264
100
AcDbEntity
  8
0
100
AcDbLine
 62
7
  6
CONTINUOUS
 10
96.1402052828
 20
140.7280737017
 11
96.1402052828
 21
140.3530733441
  0
LINE
  5
265
100
AcDbEntity
  8
0
100
AcDbLine
 62
7
  6
CONTINUOUS
 10
96.1402052828
 20
137.9155733441
 11
96.1402052828
 21
137.5405735229
  0
LINE
  5
266
100
AcDbEntity
  8
0
100
AcDbLine
 62
7
  6
CONTINUOUS
 10
96.2040350624
 20
137.0405734633
 11
96.2040350624
 21
136.6655734633
  0
LINE
  5
267
100
AcDbEntity
  8
0
100
AcDbLine
 62
7
  6
CONTINUOUS
 10
96.5870137848
 20
141.7280734633
 11
96.5870137848
 21
141.2280732248
  0
LINE
  5
268
100
AcDbEntity
  8
0
100
AcDbLine
 62
7
  6
CONTINUOUS
 10
96.5870137848
 20
138.9155734633
 11
96.5870137848
 21
138.4155735825
  0
LINE
  5
269
100
AcDbEntity
  8
0
100
AcDbLine
 62
7
  6
CONTINUOUS
 10
96.5870137848
 20
136.1655734037
 11
96.5870137848
 21
135.6030734931
  0
LINE
  5
26A
100
AcDbEntity
  8
0
100
AcDbLine
 62
7
  6
CONTINUOUS
 10
96.9699925073
 20
135.6030734931
 11
96.9699925073
 21
136.1655734037
  0
LINE
  5
26B
100
AcDbEntity
  8
0
100
AcDbLine
 62
7
  6
CONTINUOUS
 10
96.9699925073
 20
138.4155735825
 11
96.9699925073
 21
138.9155734633
  0
LINE
  5
26C
100
AcDbEntity
  8
0
100
AcDbLine
 62
7
  6
CONTINUOUS
 10
96.9699925073
 20
141.2280732248
 11
96.9699925073
 21
141.7280734633
  0
LINE
  5
26D
100
AcDbEntity
  8
0
100
AcDbLine
 62
7
  6
CONTINUOUS
 10
95.3104180582
 20
142.0405737017
 11
95.2465882786
 21
141.7280734633
  0
LINE
  5
26E
100
AcDbEntity
  8
0
100
AcDbLine
 62
7
  6
CONTINUOUS
 10
95.3104180582
 20
139.2280733441
 11
95.2465882786
 21
138.9155734633
  0
LINE
  5
26F
100
AcDbEntity
  8
0
100
AcDbLine
 62
7
  6
CONTINUOUS
 10
96.9061627221
 20
140.9155737017
 11
96.9699925073
 21
141.2280732248
  0
LINE
  5
270
100
AcDbEntity
  8
0
100
AcDbLine
 62
7
  6
CONTINUOUS
 10
96.9061627221
 20
138.1030733441
 11
96.9699925073
 21
138.4155735825
  0
LINE
  5
271
100
AcDbEntity
  8
0
100
AcDbLine
 62
7
  6
CONTINUOUS
 10
95.6295669563
 20
141.7280734633
 11
95.693396736
 21
141.9780732248
  0
LINE
  5
272
100
AcDbEntity
  8
0
100
AcDbLine
 62
7
  6
CONTINUOUS
 10
95.5657371767
 20
141.1030737017
 11
95.6295669563
 21
141.3530734633
  0
LINE
  5
273
100
AcDbEntity
  8
0
100
AcDbLine
 62
7
  6
CONTINUOUS
 10
94.352971185
 20
136.1655734037
 11
94.4168009647
 21
136.4155735229
  0
LINE
  5
274
100
AcDbEntity
  8
0
100
AcDbLine
 62
7
  6
CONTINUOUS
 10
95.6295669563
 20
138.9155734633
 11
95.693396736
 21
139.1655735825
  0
LINE
  5
275
100
AcDbEntity
  8
0
100
AcDbLine
 62
7
  6
CONTINUOUS
 10
95.5657371767
 20
138.2905733441
 11
95.6295669563
 21
138.5405734633
  0
LINE
  5
276
100
AcDbEntity
  8
0
100
AcDbLine
 62
7
  6
CONTINUOUS
 10
96.5870137848
 20
141.2280732248
 11
96.5231840052
 21
140.9780734633
  0
LINE
  5
277
100
AcDbEntity
  8
0
100
AcDbLine
 62
7
  6
CONTINUOUS
 10
96.5870137848
 20
138.4155735825
 11
96.5231840052
 21
138.1655734633
  0
LINE
  5
278
100
AcDbEntity
  8
0
100
AcDbLine
 62
7
  6
CONTINUOUS
 10
94.352971185
 20
138.9155734633
 11
94.4168009647
 21
139.1030734633
  0
LINE
  5
279
100
AcDbEntity
  8
0
100
AcDbLine
 62
7
  6
CONTINUOUS
 10
95.2465882786
 20
141.3530734633
 11
95.182758499
 21
141.1655734633
  0
LINE
  5
27A
100
AcDbEntity
  8
0
100
AcDbLine
 62
7
  6
CONTINUOUS
 10
95.2465882786
 20
138.5405734633
 11
95.182758499
 21
138.3530734633
  0
LINE
  5
27B
100
AcDbEntity
  8
0
100
AcDbLine
 62
7
  6
CONTINUOUS
 10
95.4380776175
 20
142.2905734633
 11
95.3104180582
 21
142.0405737017
  0
LINE
  5
27C
100
AcDbEntity
  8
0
100
AcDbLine
 62
7
  6
CONTINUOUS
 10
95.4380776175
 20
140.8530732248
 11
95.5657371767
 21
141.1030737017
  0
LINE
  5
27D
100
AcDbEntity
  8
0
100
AcDbLine
 62
7
  6
CONTINUOUS
 10
95.4380776175
 20
139.4780734633
 11
95.3104180582
 21
139.2280733441
  0
LINE
  5
27E
100
AcDbEntity
  8
0
100
AcDbLine
 62
7
  6
CONTINUOUS
 10
94.1614818462
 20
136.7280734037
 11
94.0338222869
 21
136.4780734633
  0
LINE
  5
27F
100
AcDbEntity
  8
0
100
AcDbLine
 62
7
  6
CONTINUOUS
 10
95.693396736
 20
141.9780732248
 11
95.8210562952
 21
142.1655732248
  0
LINE
  5
280
100
AcDbEntity
  8
0
100
AcDbLine
 62
7
  6
CONTINUOUS
 10
95.182758499
 20
141.1655734633
 11
95.0550989397
 21
140.9780734633
  0
LINE
  5
281
100
AcDbEntity
  8
0
100
AcDbLine
 62
7
  6
CONTINUOUS
 10
94.2253116258
 20
142.2280737017
 11
94.0338222869
 21
141.9780732248
  0
LINE
  5
282
100
AcDbEntity
  8
FASEN
100
AcDbLine
 62
7
  6
CONTINUOUS
 10
80.8899925002
 20
129.1030734562
 11
81.3899924998
 21
129.6030734558
  0
LINE
  5
283
100
AcDbEntity
  8
0
100
AcDbLine
 62
7
  6
CONTINUOUS
 10
121.6066591044
 20
132.0924351965
 11
120.8774925073
 21
132.0924351965
  0
LINE
  5
284
100
AcDbEntity
  8
0
100
AcDbLine
 62
7
  6
CONTINUOUS
 10
120.4399925073
 20
132.0924351965
 11
119.2004091566
 21
132.0924351965
  0
LINE
  5
285
100
AcDbEntity
  8
0
100
AcDbLine
 62
7
  6
CONTINUOUS
 10
120.8774925073
 20
134.1030734633
 11
120.4399925073
 21
134.1030734633
  0
LINE
  5
286
100
AcDbEntity
  8
0
100
AcDbLine
 62
7
  6
CONTINUOUS
 10
94.9912691601
 20
134.6030734633
 11
95.9487159439
 21
134.6030734633
  0
LINE
  5
287
100
AcDbEntity
  8
0
100
AcDbLine
 62
7
  6
CONTINUOUS
 10
94.6721200832
 20
134.6655734651
 11
94.9912691601
 21
134.6030734633
  0
LINE
  5
288
100
AcDbEntity
  8
0
100
AcDbLine
 62
7
  6
CONTINUOUS
 10
94.9912691601
 20
134.9780734633
 11
94.7359500416
 21
135.0405734484
  0
LINE
  5
289
100
AcDbEntity
  8
0
100
AcDbLine
 62
7
  6
CONTINUOUS
 10
96.2040350624
 20
136.6655734633
 11
96.3955244013
 21
136.6030735229
  0
LINE
  5
28A
100
AcDbEntity
  8
0
100
AcDbLine
 62
7
  6
CONTINUOUS
 10
94.7359500416
 20
138.1030733441
 11
94.5444605239
 21
138.1655734633
  0
LINE
  5
28B
100
AcDbEntity
  8
RUNDUNGEN
100
AcDbLine
 62
7
  6
CONTINUOUS
 10
132.0610025789
 20
123.9728160046
 11
128.955645733
 21
125.1030734633
  0
LINE
  5
28C
100
AcDbEntity
  8
0
100
AcDbLine
 62
7
  6
CONTINUOUS
 10
124.61863305
 20
120.7726731241
 11
121.9959922953
 21
122.4118235958
  0
LINE
  5
28D
100
AcDbEntity
  8
0
100
AcDbLine
 62
7
  6
CONTINUOUS
 10
96.2040350624
 20
139.4780734633
 11
96.3955244013
 21
139.3530735825
  0
LINE
  5
28E
100
AcDbEntity
  8
0
100
AcDbLine
 62
7
  6
CONTINUOUS
 10
94.1614818462
 20
140.8530732248
 11
94.4168009647
 21
140.6030734633
  0
LINE
  5
28F
100
AcDbEntity
  8
0
100
AcDbLine
 62
7
  6
CONTINUOUS
 10
96.7785031461
 20
139.4780734633
 11
96.5231840052
 21
139.7280735825
  0
LINE
  5
290
100
AcDbEntity
  8
0
100
AcDbLine
 62
7
  6
CONTINUOUS
 10
96.3955244013
 20
139.3530735825
 11
96.5231840052
 21
139.1655735825
  0
LINE
  5
291
100
AcDbEntity
  8
0
100
AcDbLine
 62
7
  6
CONTINUOUS
 10
96.3955244013
 20
142.1655732248
 11
96.5231840052
 21
141.9780732248
  0
LINE
  5
292
100
AcDbEntity
  8
0
100
AcDbLine
 62
7
  6
CONTINUOUS
 10
96.9061627221
 20
139.2280733441
 11
96.7785031461
 21
139.4780734633
  0
LINE
  5
293
100
AcDbEntity
  8
0
100
AcDbLine
 62
7
  6
CONTINUOUS
 10
96.9061627221
 20
142.0405737017
 11
96.7785031461
 21
142.2905734633
  0
LINE
  5
294
100
AcDbEntity
  8
0
100
AcDbLine
 62
7
  6
CONTINUOUS
 10
96.5231840052
 20
139.1655735825
 11
96.5870137848
 21
138.9155734633
  0
LINE
  5
295
100
AcDbEntity
  8
0
100
AcDbLine
 62
7
  6
CONTINUOUS
 10
96.5231840052
 20
141.9780732248
 11
96.5870137848
 21
141.7280734633
  0
LINE
  5
296
100
AcDbEntity
  8
0
100
AcDbLine
 62
7
  6
CONTINUOUS
 10
96.9699925073
 20
136.1655734037
 11
96.9061627221
 21
136.4780734633
  0
LINE
  5
297
100
AcDbEntity
  8
0
100
AcDbLine
 62
7
  6
CONTINUOUS
 10
96.9699925073
 20
138.9155734633
 11
96.9061627221
 21
139.2280733441
  0
LINE
  5
298
100
AcDbEntity
  8
0
100
AcDbLine
 62
7
  6
CONTINUOUS
 10
96.9699925073
 20
141.7280734633
 11
96.9061627221
 21
142.0405737017
  0
LINE
  5
299
100
AcDbEntity
  8
BEZUGSACHSEN
100
AcDbLine
 62
7
  6
CONTINUOUS
 10
98.8899925073
 20
111.5921306389
 11
98.8899925073
 21
133.2225029274
  0
LINE
  5
29A
100
AcDbEntity
  8
RUNDUNGEN
100
AcDbLine
 62
7
  6
CONTINUOUS
 10
98.8899925073
 20
128.9766192924
 11
98.8899925073
 21
148.6030728757
  0
LINE
  5
29B
100
AcDbEntity
  8
BEZUGSACHSEN
100
AcDbLine
 62
7
  6
CONTINUOUS
 10
98.8794672734
 20
111.3639719918
 11
98.8899925073
 21
111.5921344403
  0
LINE
  5
29C
100
AcDbEntity
  8
0
100
AcDbLine
 62
7
  6
CONTINUOUS
 10
96.9061627221
 20
135.2905734782
 11
96.9699925073
 21
135.6030734931
  0
LINE
  5
29D
100
AcDbEntity
  8
0
100
AcDbLine
 62
7
  6
CONTINUOUS
 10
96.5870137848
 20
135.6030734931
 11
96.5231840052
 21
135.3530734633
  0
LINE
  5
29E
100
AcDbEntity
  8
0
100
AcDbLine
 62
7
  6
CONTINUOUS
 10
95.4380776175
 20
138.0405735825
 11
95.5657371767
 21
138.2905733441
  0
LINE
  5
29F
100
AcDbEntity
  8
0
100
AcDbLine
 62
7
  6
CONTINUOUS
 10
96.7146733664
 20
140.6030734633
 11
96.9061627221
 21
140.9155737017
  0
LINE
  5
2A0
100
AcDbEntity
  8
0
100
AcDbLine
 62
7
  6
CONTINUOUS
 10
96.7146733664
 20
137.7905734633
 11
96.9061627221
 21
138.1030733441
  0
LINE
  5
2A1
100
AcDbEntity
  8
0
100
AcDbLine
 62
7
  6
CONTINUOUS
 10
95.693396736
 20
139.1655735825
 11
95.8210562952
 21
139.3530735825
  0
LINE
  5
2A2
100
AcDbEntity
  8
0
100
AcDbLine
 62
7
  6
CONTINUOUS
 10
95.182758499
 20
138.3530734633
 11
95.0550989397
 21
138.1655734633
  0
LINE
  5
2A3
100
AcDbEntity
  8
0
100
AcDbLine
 62
7
  6
CONTINUOUS
 10
94.4168009647
 20
136.4155735229
 11
94.5444605239
 21
136.6030735229
  0
LINE
  5
2A4
100
AcDbEntity
  8
0
100
AcDbLine
 62
7
  6
CONTINUOUS
 10
94.2253116258
 20
139.4155733441
 11
94.0338222869
 21
139.1655735825
  0
LINE
  5
2A5
100
AcDbEntity
  8
0
100
AcDbLine
 62
7
  6
CONTINUOUS
 10
94.4168009647
 20
141.9155734633
 11
94.5444605239
 21
142.0405737017
  0
LINE
  5
2A6
100
AcDbEntity
  8
0
100
AcDbLine
 62
7
  6
CONTINUOUS
 10
95.693396736
 20
142.5405732248
 11
95.4380776175
 21
142.2905734633
  0
LINE
  5
2A7
100
AcDbEntity
  8
0
100
AcDbLine
 62
7
  6
CONTINUOUS
 10
95.182758499
 20
140.6030734633
 11
95.4380776175
 21
140.8530732248
  0
LINE
  5
2A8
100
AcDbEntity
  8
0
100
AcDbLine
 62
7
  6
CONTINUOUS
 10
94.4168009647
 20
139.1030734633
 11
94.5444605239
 21
139.2280733441
  0
LINE
  5
2A9
100
AcDbEntity
  8
0
100
AcDbLine
 62
7
  6
CONTINUOUS
 10
96.5231840052
 20
140.9780734633
 11
96.3316946216
 21
140.7905734633
  0
LINE
  5
2AA
100
AcDbEntity
  8
0
100
AcDbLine
 62
7
  6
CONTINUOUS
 10
95.693396736
 20
139.7280735825
 11
95.4380776175
 21
139.4780734633
  0
LINE
  5
2AB
100
AcDbEntity
  8
0
100
AcDbLine
 62
7
  6
CONTINUOUS
 10
94.4806307443
 20
142.4155737017
 11
94.2253116258
 21
142.2280737017
  0
LINE
  5
2AC
100
AcDbEntity
  8
0
100
AcDbLine
 62
7
  6
CONTINUOUS
 10
95.8210562952
 20
142.1655732248
 11
96.0125457235
 21
142.2905734633
  0
LINE
  5
2AD
100
AcDbEntity
  8
0
100
AcDbLine
 62
7
  6
CONTINUOUS
 10
95.9487159439
 20
134.6030734633
 11
96.267864842
 21
134.6655734651
  0
LINE
  5
2AE
100
AcDbEntity
  8
0
100
AcDbLine
 62
7
  6
CONTINUOUS
 10
95.9487159439
 20
134.9780734633
 11
94.9912691601
 21
134.9780734633
  0
LINE
  5
2AF
100
AcDbEntity
  8
_26_BEZUGSACHSEN
100
AcDbLine
 62
7
  6
CONTINUOUS
 10
127.5899925073
 20
135.0530734633
 11
127.6899925073
 21
135.0530734633
  0
LINE
  5
2B0
100
AcDbEntity
  8
_30_VOLUMEN
100
AcDbLine
 62
7
  6
CONTINUOUS
 10
127.6899925073
 20
135.4898248092
 11
130.5899925073
 21
135.4898248092
  0
LINE
  5
2B1
100
AcDbEntity
  8
_30_VOLUMEN
100
AcDbLine
 62
7
  6
CONTINUOUS
 10
122.0899925073
 20
137.4030734633
 11
127.2899925073
 21
137.4030734633
  0
LINE
  5
2B2
100
AcDbEntity
  8
0
100
AcDbLine
 62
7
  6
CONTINUOUS
 10
96.5231840052
 20
136.9780735229
 11
96.2040350624
 21
137.0405734633
  0
LINE
  5
2B3
100
AcDbEntity
  8
0
100
AcDbLine
 62
7
  6
CONTINUOUS
 10
94.4168009647
 20
137.7905734633
 11
94.6721200832
 21
137.7280733441
  0
LINE
  5
2B4
100
AcDbEntity
  8
0
100
AcDbLine
 62
7
  6
CONTINUOUS
 10
94.7359500416
 20
140.9155737017
 11
94.5444605239
 21
140.9780734633
  0
LINE
  5
2B5
100
AcDbEntity
  8
0
100
AcDbLine
 62
7
  6
CONTINUOUS
 10
96.5231840052
 20
139.7280735825
 11
96.267864842
 21
139.8530734633
  0
LINE
  5
2B6
100
AcDbEntity
  8
0
100
AcDbLine
 62
7
  6
CONTINUOUS
 10
96.2040350624
 20
142.2905734633
 11
96.3955244013
 21
142.1655732248
  0
LINE
  5
2B7
100
AcDbEntity
  8
0
100
AcDbLine
 62
7
  6
CONTINUOUS
 10
96.7785031461
 20
142.2905734633
 11
96.5231840052
 21
142.5405732248
  0
LINE
  5
2B8
100
AcDbEntity
  8
_30_VOLUMEN
100
AcDbLine
 62
7
  6
CONTINUOUS
 10
103.3899925073
 20
164.1030734633
 11
103.3899925073
 21
173.8037313865
  0
LINE
  5
2B9
100
AcDbEntity
  8
0
100
AcDbLine
 62
7
  6
CONTINUOUS
 10
96.7785031461
 20
135.0405734484
 11
96.9061627221
 21
135.2905734782
  0
LINE
  5
2BA
100
AcDbEntity
  8
0
100
AcDbLine
 62
7
  6
CONTINUOUS
 10
96.5231840052
 20
135.3530734633
 11
96.3955244013
 21
135.1655734633
  0
LINE
  5
2BB
100
AcDbEntity
  8
0
100
AcDbLine
 62
7
  6
CONTINUOUS
 10
95.182758499
 20
137.7905734633
 11
95.4380776175
 21
138.0405735825
  0
LINE
  5
2BC
100
AcDbEntity
  8
0
100
AcDbLine
 62
7
  6
CONTINUOUS
 10
94.4168009647
 20
136.9780735229
 11
94.1614818462
 21
136.7280734037
  0
LINE
  5
2BD
100
AcDbEntity
  8
0
100
AcDbLine
 62
7
  6
CONTINUOUS
 10
96.5231840052
 20
138.1655734633
 11
96.3316946216
 21
137.9780734633
  0
LINE
  5
2BE
100
AcDbEntity
  8
0
100
AcDbLine
 62
7
  6
CONTINUOUS
 10
94.4806307443
 20
139.6030733441
 11
94.2253116258
 21
139.4155733441
  0
LINE
  5
2BF
100
AcDbEntity
  8
0
100
AcDbLine
 62
7
  6
CONTINUOUS
 10
95.8210562952
 20
139.3530735825
 11
96.0125457235
 21
139.4780734633
  0
LINE
  5
2C0
100
AcDbEntity
  8
0
100
AcDbLine
 62
7
  6
CONTINUOUS
 10
96.3955244013
 20
140.4155734633
 11
96.7146733664
 21
140.6030734633
  0
LINE
  5
2C1
100
AcDbEntity
  8
0
100
AcDbLine
 62
7
  6
CONTINUOUS
 10
94.5444605239
 20
142.0405737017
 11
94.6721200832
 21
142.1030734633
  0
LINE
  5
2C2
100
AcDbEntity
  8
0
100
AcDbLine
 62
7
  6
CONTINUOUS
 10
95.9487159439
 20
142.6655734633
 11
95.693396736
 21
142.5405732248
  0
LINE
  5
2C3
100
AcDbEntity
  8
0
100
AcDbLine
 62
7
  6
CONTINUOUS
 10
94.6721200832
 20
142.4780734633
 11
94.4806307443
 21
142.4155737017
  0
LINE
  5
2C4
100
AcDbEntity
  8
0
100
AcDbLine
 62
7
  6
CONTINUOUS
 10
96.2040350624
 20
135.0405734484
 11
95.9487159439
 21
134.9780734633
  0
LINE
  5
2C5
100
AcDbEntity
  8
0
100
AcDbLine
 62
7
  6
CONTINUOUS
 10
118.9612493707
 20
141.3950376831
 11
118.7059302522
 21
141.3325379216
  0
LINE
  5
2C6
100
AcDbEntity
  8
0
100
AcDbLine
 62
7
  6
CONTINUOUS
 10
96.1402052828
 20
137.5405735229
 11
96.3955244013
 21
137.6030734633
  0
LINE
  5
2C7
100
AcDbEntity
  8
0
100
AcDbLine
 62
7
  6
CONTINUOUS
 10
118.7059302522
 20
140.9575379216
 11
119.0250793291
 21
141.0200376831
  0
LINE
  5
2C8
100
AcDbEntity
  8
0
100
AcDbLine
 62
7
  6
CONTINUOUS
 10
94.7359500416
 20
137.0405734633
 11
94.4168009647
 21
136.9780735229
  0
LINE
  5
2C9
100
AcDbEntity
  8
0
100
AcDbLine
 62
7
  6
CONTINUOUS
 10
94.6721200832
 20
137.7280733441
 11
94.9274393805
 21
137.7280733441
  0
LINE
  5
2CA
100
AcDbEntity
  8
0
100
AcDbLine
 62
7
  6
CONTINUOUS
 10
94.8636096008
 20
138.1030733441
 11
94.7359500416
 21
138.1030733441
  0
LINE
  5
2CB
100
AcDbEntity
  8
_30_VOLUMEN
100
AcDbLine
 62
7
  6
CONTINUOUS
 10
113.958392531
 20
138.1030734633
 11
122.0899925073
 21
138.1030734633
  0
LINE
  5
2CC
100
AcDbEntity
  8
_30_VOLUMEN
100
AcDbLine
 62
7
  6
CONTINUOUS
 10
127.6899925073
 20
138.3765761552
 11
130.5899925073
 21
138.3765761552
  0
LINE
  5
2CD
100
AcDbEntity
  8
0
100
AcDbLine
 62
7
  6
CONTINUOUS
 10
96.0125457235
 20
139.4780734633
 11
96.2040350624
 21
139.4780734633
  0
LINE
  5
2CE
100
AcDbEntity
  8
0
100
AcDbLine
 62
7
  6
CONTINUOUS
 10
96.267864842
 20
139.8530734633
 11
95.9487159439
 21
139.8530734633
  0
LINE
  5
2CF
100
AcDbEntity
  8
0
100
AcDbLine
 62
7
  6
CONTINUOUS
 10
94.4168009647
 20
140.6030734633
 11
94.6721200832
 21
140.5405733441
  0
LINE
  5
2D0
100
AcDbEntity
  8
0
100
AcDbLine
 62
7
  6
CONTINUOUS
 10
96.5231840052
 20
142.5405732248
 11
96.267864842
 21
142.6655734633
  0
LINE
  5
2D1
100
AcDbEntity
  8
0
100
AcDbLine
 62
7
  6
CONTINUOUS
 10
96.5231840052
 20
134.7905734633
 11
96.7785031461
 21
135.0405734484
  0
LINE
  5
2D2
100
AcDbEntity
  8
0
100
AcDbLine
 62
7
  6
CONTINUOUS
 10
96.3955244013
 20
137.6030734633
 11
96.7146733664
 21
137.7905734633
  0
LINE
  5
2D3
100
AcDbEntity
  8
0
100
AcDbLine
 62
7
  6
CONTINUOUS
 10
94.5444605239
 20
139.2280733441
 11
94.6721200832
 21
139.2905734633
  0
LINE
  5
2D4
100
AcDbEntity
  8
0
100
AcDbLine
 62
7
  6
CONTINUOUS
 10
95.9487159439
 20
139.8530734633
 11
95.693396736
 21
139.7280735825
  0
LINE
  5
2D5
100
AcDbEntity
  8
0
100
AcDbLine
 62
7
  6
CONTINUOUS
 10
116.727206905
 20
146.7075376235
 11
118.1952920152
 21
147.2700376235
  0
LINE
  5
2D6
100
AcDbEntity
  8
0
100
AcDbLine
 62
7
  6
CONTINUOUS
 10
118.0676324559
 20
147.6450377129
 11
116.727206905
 21
147.1450377427
  0
LINE
  5
2D7
100
AcDbEntity
  8
0
100
AcDbLine
 62
7
  6
CONTINUOUS
 10
95.0550989397
 20
140.9780734633
 11
94.8636096008
 21
140.9155737017
  0
LINE
  5
2D8
100
AcDbEntity
  8
0
100
AcDbLine
 62
7
  6
CONTINUOUS
 10
96.3316946216
 20
140.7905734633
 11
96.1402052828
 21
140.7280737017
  0
LINE
  5
2D9
100
AcDbEntity
  8
0
100
AcDbLine
 62
7
  6
CONTINUOUS
 10
94.6721200832
 20
139.6655734633
 11
94.4806307443
 21
139.6030733441
  0
LINE
  5
2DA
100
AcDbEntity
  8
0
100
AcDbLine
 62
7
  6
CONTINUOUS
 10
119.216568668
 20
147.2075376831
 11
119.0250793291
 21
147.1450377427
  0
LINE
  5
2DB
100
AcDbEntity
  8
0
100
AcDbLine
 62
7
  6
CONTINUOUS
 10
119.0250793291
 20
146.7700377427
 11
119.216568668
 21
146.8325376831
  0
LINE
  5
2DC
100
AcDbEntity
  8
0
100
AcDbLine
 62
7
  6
CONTINUOUS
 10
94.9274393805
 20
137.7280733441
 11
95.182758499
 21
137.7905734633
  0
LINE
  5
2DD
100
AcDbEntity
  8
0
100
AcDbLine
 62
7
  6
CONTINUOUS
 10
96.1402052828
 20
140.3530733441
 11
96.3955244013
 21
140.4155734633
  0
LINE
  5
2DE
100
AcDbEntity
  8
0
100
AcDbLine
 62
7
  6
CONTINUOUS
 10
117.4931643499
 20
145.7700378023
 11
117.7484834684
 21
145.8325375639
  0
LINE
  5
2DF
100
AcDbEntity
  8
0
100
AcDbLine
 62
7
  6
CONTINUOUS
 10
94.6721200832
 20
140.5405733441
 11
94.9274393805
 21
140.5405733441
  0
LINE
  5
2E0
100
AcDbEntity
  8
0
100
AcDbLine
 62
7
  6
CONTINUOUS
 10
94.8636096008
 20
140.9155737017
 11
94.7359500416
 21
140.9155737017
  0
LINE
  5
2E1
100
AcDbEntity
  8
0
100
AcDbLine
 62
7
  6
CONTINUOUS
 10
117.7484834684
 20
140.9575379216
 11
118.7059302522
 21
140.9575379216
  0
LINE
  5
2E2
100
AcDbEntity
  8
0
100
AcDbLine
 62
7
  6
CONTINUOUS
 10
118.7059302522
 20
141.3325379216
 11
117.7484834684
 21
141.3325379216
  0
LINE
  5
2E3
100
AcDbEntity
  8
0
100
AcDbLine
 62
7
  6
CONTINUOUS
 10
96.0125457235
 20
142.2905734633
 11
96.2040350624
 21
142.2905734633
  0
LINE
  5
2E4
100
AcDbEntity
  8
0
100
AcDbLine
 62
7
  6
CONTINUOUS
 10
96.267864842
 20
142.6655734633
 11
95.9487159439
 21
142.6655734633
  0
LINE
  5
2E5
100
AcDbEntity
  8
0
100
AcDbLine
 62
7
  6
CONTINUOUS
 10
117.1101856275
 20
143.0825376831
 11
119.3442282273
 21
143.0825376831
  0
LINE
  5
2E6
100
AcDbEntity
  8
0
100
AcDbLine
 62
7
  6
CONTINUOUS
 10
117.4293345703
 20
141.0200376831
 11
117.7484834684
 21
140.9575379216
  0
LINE
  5
2E7
100
AcDbEntity
  8
_30_VOLUMEN
100
AcDbLine
 62
7
  6
CONTINUOUS
 10
108.3899925073
 20
173.8037313865
 11
108.3899925073
 21
164.1030734633
  0
LINE
  5
2E8
100
AcDbEntity
  8
0
100
AcDbLine
 62
7
  6
CONTINUOUS
 10
96.3955244013
 20
135.1655734633
 11
96.2040350624
 21
135.0405734484
  0
LINE
  5
2E9
100
AcDbEntity
  8
0
100
AcDbLine
 62
7
  6
CONTINUOUS
 10
117.4293345703
 20
146.1450376235
 11
117.1740154071
 21
146.0200375639
  0
LINE
  5
2EA
100
AcDbEntity
  8
0
100
AcDbLine
 62
7
  6
CONTINUOUS
 10
96.267864842
 20
134.6655734651
 11
96.5231840052
 21
134.7905734633
  0
LINE
  5
2EB
100
AcDbEntity
  8
0
100
AcDbLine
 62
7
  6
CONTINUOUS
 10
95.0550989397
 20
138.1655734633
 11
94.8636096008
 21
138.1030733441
  0
LINE
  5
2EC
100
AcDbEntity
  8
0
100
AcDbLine
 62
7
  6
CONTINUOUS
 10
96.3316946216
 20
137.9780734633
 11
96.1402052828
 21
137.9155733441
  0
LINE
  5
2ED
100
AcDbEntity
  8
0
100
AcDbLine
 62
7
  6
CONTINUOUS
 10
94.5444605239
 20
136.6030735229
 11
94.7359500416
 21
136.6655734633
  0
LINE
  5
2EE
100
AcDbEntity
  8
0
100
AcDbLine
 62
7
  6
CONTINUOUS
 10
94.9274393805
 20
140.5405733441
 11
95.182758499
 21
140.6030734633
  0
LINE
  5
2EF
100
AcDbEntity
  8
0
100
AcDbLine
 62
7
  6
CONTINUOUS
 10
117.7484834684
 20
146.2075377427
 11
117.4293345703
 21
146.1450376235
  0
LINE
  5
2F0
100
AcDbEntity
  8
0
100
AcDbLine
 62
7
  6
CONTINUOUS
 10
119.727206905
 20
143.4575376831
 11
116.727206905
 21
143.4575376831
  0
LINE
  5
2F1
100
AcDbEntity
  8
0
100
AcDbLine
 62
7
  6
CONTINUOUS
 10
117.7484834684
 20
143.9575375639
 11
119.727206905
 21
143.9575375639
  0
LINE
  5
2F2
100
AcDbEntity
  8
0
100
AcDbLine
 62
7
  6
CONTINUOUS
 10
119.727206905
 20
144.3325375639
 11
117.7484834684
 21
144.3325375639
  0
LINE
  5
2F3
100
AcDbEntity
  8
0
100
AcDbLine
 62
7
  6
CONTINUOUS
 10
117.7484834684
 20
145.8325375639
 11
119.727206905
 21
145.8325375639
  0
LINE
  5
2F4
100
AcDbEntity
  8
0
100
AcDbLine
 62
7
  6
CONTINUOUS
 10
117.7484834684
 20
141.3325379216
 11
117.4931643499
 21
141.3950376831
  0
LINE
  5
2F5
100
AcDbEntity
  8
0
100
AcDbLine
 62
7
  6
CONTINUOUS
 10
117.1740154071
 20
141.1450379216
 11
117.4293345703
 21
141.0200376831
  0
LWPOLYLINE
  5
2F6
100
AcDbEntity
  8
BEZUGSACHSEN
100
AcDbPolyline
 62
7
  6
CONTINUOUS
 90
17
 70
0
 10
112.9004739712
 20
111.3632514458
 10
112.9318366972
 20
111.1375186469
 10
112.9838258838
 20
110.915529524
 10
113.0560044509
 20
110.6991834014
 10
113.1477769494
 20
110.4902886199
 10
113.2584148393
 20
110.2905528458
 10
113.3870213592
 20
110.1016602674
 10
113.5325321102
 20
109.9252314412
 10
113.693766324
 20
109.762752048
 10
113.8694127813
 20
109.6156024851
 10
114.0580104651
 20
109.485062722
 10
114.2579798757
 20
109.3722726485
 10
114.4677163572
 20
109.2781879771
 10
114.685440044
 20
109.2036580568
 10
114.909181414
 20
109.1493761561
 10
115.1370348878
 20
109.1157946725
 10
115.3900306629
 20
109.1030735513
  0
LWPOLYLINE
  5
2F7
100
AcDbEntity
  8
RUNDUNGEN
100
AcDbPolyline
 62
7
  6
CONTINUOUS
 90
18
 70
0
 10
112.8899925073
 20
111.590816891
 10
112.9005671013
 20
111.3622447257
 10
112.9322074617
 20
111.1355315164
 10
112.9846538094
 20
110.912613552
 10
113.0574607698
 20
110.6954151902
 10
113.1500220454
 20
110.485767481
 10
113.2615964684
 20
110.2853983989
 10
113.3912716841
 20
110.0960122432
 10
113.53796476
 20
109.9192483613
 10
113.7004750266
 20
109.75660818
 10
113.8774694085
 20
109.6094857433
 10
114.0674624913
 20
109.4791725907
 10
114.2688488105
 20
109.3668171456
 10
114.4799990582
 20
109.2733799031
 10
114.6991046983
 20
109.1997130007
 10
114.924163281
 20
109.1465085894
 10
115.1532405195
 20
109.1142128401
 10
115.3900326211
 20
109.1030735554
  0
LINE
  5
2F8
100
AcDbEntity
  8
BEZUGSACHSEN
100
AcDbLine
 62
7
  6
CONTINUOUS
 10
112.8899925073
 20
111.590816891
 11
112.9004739712
 21
111.3632514458
  0
LINE
  5
2F9
100
AcDbEntity
  8
0
100
AcDbLine
 62
7
  6
CONTINUOUS
 10
117.1740154071
 20
146.0200375639
 11
116.9186962662
 21
145.7700378023
  0
LINE
  5
2FA
100
AcDbEntity
  8
0
100
AcDbLine
 62
7
  6
CONTINUOUS
 10
119.3442282273
 20
147.3325377427
 11
119.216568668
 21
147.2075376831
  0
LINE
  5
2FB
100
AcDbEntity
  8
0
100
AcDbLine
 62
7
  6
CONTINUOUS
 10
119.216568668
 20
146.8325376831
 11
119.4718877865
 21
147.0200376831
  0
LINE
  5
2FC
100
AcDbEntity
  8
0
100
AcDbLine
 62
7
  6
CONTINUOUS
 10
117.301675011
 20
145.6450375639
 11
117.4931643499
 21
145.7700378023
  0
LINE
  5
2FD
100
AcDbEntity
  8
0
100
AcDbLine
 62
7
  6
CONTINUOUS
 10
119.727206905
 20
146.2075377427
 11
117.7484834684
 21
146.2075377427
  0
LINE
  5
2FE
100
AcDbEntity
  8
0
100
AcDbLine
 62
7
  6
CONTINUOUS
 10
118.7697600318
 20
146.7700377427
 11
119.0250793291
 21
146.7700377427
  0
LINE
  5
2FF
100
AcDbEntity
  8
0
100
AcDbLine
 62
7
  6
CONTINUOUS
 10
119.0250793291
 20
147.1450377427
 11
118.8335898114
 21
147.1450377427
  0
LINE
  5
300
100
AcDbEntity
  8
_30_VOLUMEN
100
AcDbLine
 62
7
  6
CONTINUOUS
 10
122.0899925073
 20
148.1030734633
 11
125.8831810722
 21
148.1030734633
  0
LINE
  5
301
100
AcDbEntity
  8
0
100
AcDbLine
 62
7
  6
CONTINUOUS
 10
116.727206905
 20
148.7075376831
 11
118.0676324559
 21
148.7075376831
  0
LINE
  5
302
100
AcDbEntity
  8
0
100
AcDbLine
 62
7
  6
CONTINUOUS
 10
118.4506111337
 20
148.7075376831
 11
119.4080580069
 21
148.7075376831
  0
LINE
  5
303
100
AcDbEntity
  8
0
100
AcDbLine
 62
7
  6
CONTINUOUS
 10
117.4293345703
 20
144.0200376831
 11
117.7484834684
 21
143.9575375639
  0
LINE
  5
304
100
AcDbEntity
  8
0
100
AcDbLine
 62
7
  6
CONTINUOUS
 10
117.7484834684
 20
144.3325375639
 11
117.4931643499
 21
144.3950376831
  0
LINE
  5
305
100
AcDbEntity
  8
0
100
AcDbLine
 62
7
  6
CONTINUOUS
 10
117.1740154071
 20
144.1450375639
 11
117.4293345703
 21
144.0200376831
  0
LINE
  5
306
100
AcDbEntity
  8
0
100
AcDbLine
 62
7
  6
CONTINUOUS
 10
117.4931643499
 20
141.3950376831
 11
117.301675011
 21
141.5200379216
  0
LINE
  5
307
100
AcDbEntity
  8
BEZUGSACHSEN
100
AcDbLine
 62
7
  6
CONTINUOUS
 10
112.8899925073
 20
139.6030734633
 11
112.8899925073
 21
137.0413089112
  0
LINE
  5
308
100
AcDbEntity
  8
BEZUGSACHSEN
100
AcDbLine
 62
7
  6
CONTINUOUS
 10
112.8899925073
 20
137.034673677
 11
112.8899925073
 21
136.6030734633
  0
LINE
  5
309
100
AcDbEntity
  8
RUNDUNGEN
100
AcDbLine
 62
7
  6
CONTINUOUS
 10
112.8899925073
 20
148.6030730609
 11
112.8899925073
 21
126.6220891342
  0
LINE
  5
30A
100
AcDbEntity
  8
BEZUGSACHSEN
100
AcDbLine
 62
7
  6
CONTINUOUS
 10
112.8899925073
 20
126.6220891342
 11
112.8899925073
 21
111.590867305
  0
LINE
  5
30B
100
AcDbEntity
  8
0
100
AcDbLine
 62
7
  6
CONTINUOUS
 10
116.9186962662
 20
145.7700378023
 11
116.7910366902
 21
145.5200376831
  0
LINE
  5
30C
100
AcDbEntity
  8
0
100
AcDbLine
 62
7
  6
CONTINUOUS
 10
117.1740154071
 20
145.4575375639
 11
117.301675011
 21
145.6450375639
  0
LINE
  5
30D
100
AcDbEntity
  8
0
100
AcDbLine
 62
7
  6
CONTINUOUS
 10
119.4718877865
 20
147.0200376831
 11
119.6633771254
 21
147.2700376235
  0
LINE
  5
30E
100
AcDbEntity
  8
FASEN
100
AcDbLine
 62
7
  6
CONTINUOUS
 10
87.8899925107
 20
111.6030734667
 11
88.3899925105
 21
112.1030734665
  0
LINE
  5
30F
100
AcDbEntity
  8
0
100
AcDbLine
 62
7
  6
CONTINUOUS
 10
119.1527388884
 20
141.5200379216
 11
118.9612493707
 21
141.3950376831
  0
LINE
  5
310
100
AcDbEntity
  8
0
100
AcDbLine
 62
7
  6
CONTINUOUS
 10
119.0250793291
 20
141.0200376831
 11
119.2803984476
 21
141.1450379216
  0
LINE
  5
311
100
AcDbEntity
  8
0
100
AcDbLine
 62
7
  6
CONTINUOUS
 10
119.727206905
 20
149.0825376831
 11
116.727206905
 21
149.0825376831
  0
LINE
  5
312
100
AcDbEntity
  8
0
100
AcDbLine
 62
7
  6
CONTINUOUS
 10
118.5782706929
 20
146.8325376831
 11
118.7697600318
 21
146.7700377427
  0
LINE
  5
313
100
AcDbEntity
  8
0
100
AcDbLine
 62
7
  6
CONTINUOUS
 10
118.8335898114
 20
147.1450377427
 11
118.6421004726
 21
147.2075376831
  0
LINE
  5
314
100
AcDbEntity
  8
0
100
AcDbLine
 62
7
  6
CONTINUOUS
 10
117.4931643499
 20
144.3950376831
 11
117.301675011
 21
144.5200375639
  0
LINE
  5
315
100
AcDbEntity
  8
0
100
AcDbLine
 62
7
  6
CONTINUOUS
 10
116.9186962662
 20
141.3950376831
 11
117.1740154071
 21
141.1450379216
  0
LINE
  5
316
100
AcDbEntity
  8
0
100
AcDbLine
 62
7
  6
CONTINUOUS
 10
116.9186962662
 20
144.3950376831
 11
117.1740154071
 21
144.1450375639
  0
LINE
  5
317
100
AcDbEntity
  8
0
100
AcDbLine
 62
7
  6
CONTINUOUS
 10
117.301675011
 20
141.5200379216
 11
117.1740154071
 21
141.7075379216
  0
LINE
  5
318
100
AcDbEntity
  8
0
100
AcDbLine
 62
7
  6
CONTINUOUS
 10
116.7910366902
 20
141.6450374447
 11
116.9186962662
 21
141.3950376831
  0
LINE
  5
319
100
AcDbEntity
  8
0
100
AcDbLine
 62
7
  6
CONTINUOUS
 10
116.727206905
 20
149.0825376831
 11
116.727206905
 21
148.7075376831
  0
LINE
  5
31A
100
AcDbEntity
  8
0
100
AcDbLine
 62
7
  6
CONTINUOUS
 10
116.727206905
 20
147.1450377427
 11
116.727206905
 21
146.7075376235
  0
LINE
  5
31B
100
AcDbEntity
  8
0
100
AcDbLine
 62
7
  6
CONTINUOUS
 10
116.727206905
 20
145.2075378023
 11
116.727206905
 21
144.9575376831
  0
LINE
  5
31C
100
AcDbEntity
  8
0
100
AcDbLine
 62
7
  6
CONTINUOUS
 10
116.727206905
 20
143.4575376831
 11
116.727206905
 21
141.9575376831
  0
LINE
  5
31D
100
AcDbEntity
  8
0
100
AcDbLine
 62
7
  6
CONTINUOUS
 10
116.8899925073
 20
120.1364067966
 11
116.8899925073
 21
121.0697401299
  0
LINE
  5
31E
100
AcDbEntity
  8
0
100
AcDbLine
 62
7
  6
CONTINUOUS
 10
117.1101856275
 20
141.9575376831
 11
117.1101856275
 21
143.0825376831
  0
LINE
  5
31F
100
AcDbEntity
  8
0
100
AcDbLine
 62
7
  6
CONTINUOUS
 10
117.1101856275
 20
144.9575376831
 11
117.1101856275
 21
145.2075378023
  0
LINE
  5
320
100
AcDbEntity
  8
BEZUGSACHSEN
100
AcDbLine
 62
7
  6
CONTINUOUS
 10
117.8899925073
 20
175.1030734633
 11
117.8899925073
 21
170.1030734633
  0
LINE
  5
321
100
AcDbEntity
  8
RUNDUNGEN
100
AcDbLine
 62
7
  6
CONTINUOUS
 10
117.8899925073
 20
159.9608901549
 11
117.8899925073
 21
170.1030734633
  0
LINE
  5
322
100
AcDbEntity
  8
0
100
AcDbLine
 62
7
  6
CONTINUOUS
 10
118.0676324559
 20
148.7075376831
 11
118.0676324559
 21
147.6450377129
  0
LINE
  5
323
100
AcDbEntity
  8
0
100
AcDbLine
 62
7
  6
CONTINUOUS
 10
116.7910366902
 20
145.5200376831
 11
116.727206905
 21
145.2075378023
  0
LINE
  5
324
100
AcDbEntity
  8
0
100
AcDbLine
 62
7
  6
CONTINUOUS
 10
117.1101856275
 20
145.2075378023
 11
117.1740154071
 21
145.4575375639
  0
LINE
  5
325
100
AcDbEntity
  8
0
100
AcDbLine
 62
7
  6
CONTINUOUS
 10
119.4080580069
 20
147.5200377427
 11
119.3442282273
 21
147.3325377427
  0
LINE
  5
326
100
AcDbEntity
  8
0
100
AcDbLine
 62
7
  6
CONTINUOUS
 10
119.2803984476
 20
141.7075379216
 11
119.1527388884
 21
141.5200379216
  0
LINE
  5
327
100
AcDbEntity
  8
0
100
AcDbLine
 62
7
  6
CONTINUOUS
 10
119.2803984476
 20
141.1450379216
 11
119.5357175661
 21
141.3950376831
  0
LINE
  5
328
100
AcDbEntity
  8
0
100
AcDbLine
 62
7
  6
CONTINUOUS
 10
118.3229515744
 20
147.0200376831
 11
118.5782706929
 21
146.8325376831
  0
LINE
  5
329
100
AcDbEntity
  8
0
100
AcDbLine
 62
7
  6
CONTINUOUS
 10
118.6421004726
 20
147.2075376831
 11
118.5144409133
 21
147.3325377427
  0
LINE
  5
32A
100
AcDbEntity
  8
0
100
AcDbLine
 62
7
  6
CONTINUOUS
 10
117.301675011
 20
144.5200375639
 11
117.1740154071
 21
144.7075375639
  0
LINE
  5
32B
100
AcDbEntity
  8
0
100
AcDbLine
 62
7
  6
CONTINUOUS
 10
116.7910366902
 20
144.6450378023
 11
116.9186962662
 21
144.3950376831
  0
LINE
  5
32C
100
AcDbEntity
  8
0
100
AcDbLine
 62
7
  6
CONTINUOUS
 10
117.1740154071
 20
141.7075379216
 11
117.1101856275
 21
141.9575376831
  0
LINE
  5
32D
100
AcDbEntity
  8
0
100
AcDbLine
 62
7
  6
CONTINUOUS
 10
117.1740154071
 20
144.7075375639
 11
117.1101856275
 21
144.9575376831
  0
LINE
  5
32E
100
AcDbEntity
  8
0
100
AcDbLine
 62
7
  6
CONTINUOUS
 10
116.727206905
 20
141.9575376831
 11
116.7910366902
 21
141.6450374447
  0
LINE
  5
32F
100
AcDbEntity
  8
0
100
AcDbLine
 62
7
  6
CONTINUOUS
 10
116.727206905
 20
144.9575376831
 11
116.7910366902
 21
144.6450378023
  0
LINE
  5
330
100
AcDbEntity
  8
0
100
AcDbLine
 62
7
  6
CONTINUOUS
 10
118.4506111337
 20
147.5200377427
 11
118.4506111337
 21
148.7075376831
  0
LINE
  5
331
100
AcDbEntity
  8
0
100
AcDbLine
 62
7
  6
CONTINUOUS
 10
118.6899925073
 20
132.0924351965
 11
118.6899925073
 21
131.6456266348
  0
LINE
  5
332
100
AcDbEntity
  8
0
100
AcDbLine
 62
7
  6
CONTINUOUS
 10
119.3442282273
 20
143.0825376831
 11
119.3442282273
 21
141.9575376831
  0
LINE
  5
333
100
AcDbEntity
  8
0
100
AcDbLine
 62
7
  6
CONTINUOUS
 10
119.4080580069
 20
148.7075376831
 11
119.4080580069
 21
147.5200377427
  0
LINE
  5
334
100
AcDbEntity
  8
0
100
AcDbLine
 62
7
  6
CONTINUOUS
 10
119.727206905
 20
141.9575376831
 11
119.727206905
 21
143.4575376831
  0
LINE
  5
335
100
AcDbEntity
  8
0
100
AcDbLine
 62
7
  6
CONTINUOUS
 10
119.727206905
 20
143.9575375639
 11
119.727206905
 21
144.3325375639
  0
LINE
  5
336
100
AcDbEntity
  8
0
100
AcDbLine
 62
7
  6
CONTINUOUS
 10
119.727206905
 20
145.8325375639
 11
119.727206905
 21
146.2075377427
  0
LINE
  5
337
100
AcDbEntity
  8
0
100
AcDbLine
 62
7
  6
CONTINUOUS
 10
119.727206905
 20
147.5825376831
 11
119.727206905
 21
149.0825376831
  0
LINE
  5
338
100
AcDbEntity
  8
0
100
AcDbLine
 62
7
  6
CONTINUOUS
 10
120.4399925073
 20
133.5073288534
 11
120.4399925073
 21
132.0924351965
  0
LINE
  5
339
100
AcDbEntity
  8
0
100
AcDbLine
 62
7
  6
CONTINUOUS
 10
120.4399925073
 20
131.6456266348
 11
120.4399925073
 21
130.6030734633
  0
LINE
  5
33A
100
AcDbEntity
  8
0
100
AcDbLine
 62
7
  6
CONTINUOUS
 10
120.8774925073
 20
130.6030734633
 11
120.8774925073
 21
131.6456266348
  0
LINE
  5
33B
100
AcDbEntity
  8
0
100
AcDbLine
 62
7
  6
CONTINUOUS
 10
120.8774925073
 20
132.0924351965
 11
120.8774925073
 21
134.1030734633
  0
LINE
  5
33C
100
AcDbEntity
  8
0
100
AcDbLine
 62
7
  6
CONTINUOUS
 10
119.6633771254
 20
147.2700376235
 11
119.727206905
 21
147.5825376831
  0
LINE
  5
33D
100
AcDbEntity
  8
0
100
AcDbLine
 62
7
  6
CONTINUOUS
 10
119.6633771254
 20
141.6450374447
 11
119.727206905
 21
141.9575376831
  0
LINE
  5
33E
100
AcDbEntity
  8
0
100
AcDbLine
 62
7
  6
CONTINUOUS
 10
119.3442282273
 20
141.9575376831
 11
119.2803984476
 21
141.7075379216
  0
LINE
  5
33F
100
AcDbEntity
  8
0
100
AcDbLine
 62
7
  6
CONTINUOUS
 10
119.5357175661
 20
141.3950376831
 11
119.6633771254
 21
141.6450374447
  0
LINE
  5
340
100
AcDbEntity
  8
0
100
AcDbLine
 62
7
  6
CONTINUOUS
 10
118.1952920152
 20
147.2700376235
 11
118.3229515744
 21
147.0200376831
  0
LINE
  5
341
100
AcDbEntity
  8
0
100
AcDbLine
 62
7
  6
CONTINUOUS
 10
118.5144409133
 20
147.3325377427
 11
118.4506111337
 21
147.5200377427
  0
LINE
  5
342
100
AcDbEntity
  8
0
100
AcDbLine
 62
7
  6
CONTINUOUS
 10
121.6066591044
 20
131.6456266348
 11
121.6066591044
 21
132.0924351965
  0
LINE
  5
343
100
AcDbEntity
  8
0
100
AcDbLine
 62
7
  6
CONTINUOUS
 10
121.6899925073
 20
118.9639229916
 11
121.6899925073
 21
119.7364067966
  0
LINE
  5
344
100
AcDbEntity
  8
0
100
AcDbLine
 62
7
  6
CONTINUOUS
 10
121.6899925073
 20
121.4697401299
 11
121.6899925073
 21
122.242223935
  0
LINE
  5
345
100
AcDbEntity
  8
_30_VOLUMEN
100
AcDbLine
 62
7
  6
CONTINUOUS
 10
122.0899925073
 20
137.4030734633
 11
122.0899925073
 21
148.1030734633
  0
LINE
  5
346
100
AcDbEntity
  8
_30_VOLUMEN
100
AcDbLine
 62
7
  6
CONTINUOUS
 10
122.1899925073
 20
144.2030734633
 11
122.1899925073
 21
137.4030734633
  0
LINE
  5
347
100
AcDbEntity
  8
0
100
AcDbLine
 62
7
  6
CONTINUOUS
 10
120.4399925073
 20
134.1030734633
 11
118.6899925073
 21
132.0924351965
  0
LINE
  5
348
100
AcDbEntity
  8
0
100
AcDbLine
 62
7
  6
CONTINUOUS
 10
119.2004091566
 20
132.0924351965
 11
120.4399925073
 21
133.5073288534
  0
LINE
  5
349
100
AcDbEntity
  8
RUNDUNGEN
100
AcDbLine
 62
7
  6
CONTINUOUS
 10
124.8183553363
 20
150.1991617107
 11
121.3285875267
 21
153.1274245926
  0
LINE
  5
34A
100
AcDbEntity
  8
_30_VOLUMEN
100
AcDbLine
 62
7
  6
CONTINUOUS
 10
127.2899925073
 20
109.1030734633
 11
127.2899925073
 21
137.4030734633
  0
LINE
  5
34B
100
AcDbEntity
  8
_30_VOLUMEN
100
AcDbLine
 62
7
  6
CONTINUOUS
 10
127.5899925073
 20
144.2030734633
 11
127.5899925073
 21
113.4030734633
  0
LINE
  5
34C
100
AcDbEntity
  8
_30_VOLUMEN
100
AcDbLine
 62
7
  6
CONTINUOUS
 10
127.6899925073
 20
138.3765761552
 11
127.6899925073
 21
126.8295707714
  0
LINE
  5
34D
100
AcDbEntity
  8
0
100
AcDbLine
 62
7
  6
CONTINUOUS
 10
128.0899925073
 20
125.1030734633
 11
128.0899925073
 21
116.1030734633
  0
LINE
  5
34E
100
AcDbEntity
  8
0
100
AcDbLine
 62
7
  6
CONTINUOUS
 10
128.955645733
 20
125.1030734633
 11
128.955645733
 21
116.1030734633
  0
LINE
  5
34F
100
AcDbEntity
  8
_30_VOLUMEN
100
AcDbLine
 62
7
  6
CONTINUOUS
 10
130.5899925073
 20
138.3765761552
 11
130.5899925073
 21
126.8295707714
  0
LINE
  5
350
100
AcDbEntity
  8
RUNDUNGEN
100
AcDbLine
 62
7
  6
CONTINUOUS
 10
132.3899925073
 20
117.7031772324
 11
132.3899925073
 21
123.5029696942
  0
LINE
  5
351
100
AcDbEntity
  8
_26_BEZUGSACHSEN
100
AcDbLine
 62
7
  6
CONTINUOUS
 10
108.3899925073
 20
166.6030734633
 11
103.3899925073
 21
166.6030734633
  0
LINE
  5
352
100
AcDbEntity
  8
0
100
AcDbLine
 62
7
  6
CONTINUOUS
 10
121.9959922953
 20
118.7943233308
 11
124.61863305
 21
120.4334738025
  0
LINE
  5
353
100
AcDbEntity
  8
_26_BEZUGSACHSEN
100
AcDbLine
 62
7
  6
CONTINUOUS
 10
108.3899925073
 20
171.6030734633
 11
103.3899925073
 21
171.6030734633
  0
LINE
  5
354
100
AcDbEntity
  8
RUNDUNGEN
100
AcDbLine
 62
7
  6
CONTINUOUS
 10
132.0610025789
 20
117.233330922
 11
128.955645733
 21
116.1030734633
  0
LINE
  5
355
100
AcDbEntity
  8
0
100
AcDbLine
 62
7
  6
CONTINUOUS
 10
116.3899925073
 20
176.6030734633
 11
113.0005453349
 21
176.6030734633
  0
LINE
  5
356
100
AcDbEntity
  8
0
100
AcDbLine
 62
7
  6
CONTINUOUS
 10
98.7794371969
 20
176.6030734633
 11
95.3899925073
 21
176.6030734633
  0
LINE
  5
357
100
AcDbEntity
  8
BEZUGSACHSEN
100
AcDbLine
 62
7
  6
CONTINUOUS
 10
177.3797745403
 20
118.7639229916
 11
177.8797745403
 21
118.7639229916
  0
LINE
  5
358
100
AcDbEntity
  8
0
100
AcDbLine
 62
7
  6
CONTINUOUS
 10
200.5837412019
 20
118.7639229916
 11
201.0837412019
 21
118.7639229916
  0
LINE
  5
359
100
AcDbEntity
  8
0
100
AcDbLine
 62
7
  6
CONTINUOUS
 10
189.4817578711
 20
119.1030734633
 11
189.8567578711
 21
119.1030734633
  0
LINE
  5
35A
100
AcDbEntity
  8
BEZUGSACHSEN
100
AcDbLine
 62
7
  6
CONTINUOUS
 10
177.7510978049
 20
119.9364067966
 11
177.2510978049
 21
119.9364067966
  0
LINE
  5
35B
100
AcDbEntity
  8
0
100
AcDbLine
 62
7
  6
CONTINUOUS
 10
200.7124179373
 20
119.9364067966
 11
201.2124179373
 21
119.9364067966
  0
LINE
  5
35C
100
AcDbEntity
  8
0
100
AcDbLine
 62
7
  6
CONTINUOUS
 10
187.9817578711
 20
119.9966904674
 11
189.4817578711
 21
119.9966904674
  0
LINE
  5
35D
100
AcDbEntity
  8
0
100
AcDbLine
 62
7
  6
CONTINUOUS
 10
189.8567578711
 20
119.9966904674
 11
190.4817578115
 21
119.9966904674
  0
LINE
  5
35E
100
AcDbEntity
  8
0
100
AcDbLine
 62
7
  6
CONTINUOUS
 10
190.4817578115
 20
120.3796692346
 11
189.8567578711
 21
120.3796692346
  0
LINE
  5
35F
100
AcDbEntity
  8
0
100
AcDbLine
 62
7
  6
CONTINUOUS
 10
189.4817578711
 20
120.3796692346
 11
188.4192578562
 21
120.3796692346
  0
LINE
  5
360
100
AcDbEntity
  8
BEZUGSACHSEN
100
AcDbLine
 62
7
  6
CONTINUOUS
 10
177.7510978049
 20
121.2697401299
 11
177.2510978049
 21
121.2697401299
  0
LINE
  5
361
100
AcDbEntity
  8
0
100
AcDbLine
 62
7
  6
CONTINUOUS
 10
200.7124179373
 20
121.2697401299
 11
201.2124179373
 21
121.2697401299
  0
LINE
  5
362
100
AcDbEntity
  8
0
100
AcDbLine
 62
7
  6
CONTINUOUS
 10
192.5442576326
 20
124.0498819653
 11
192.2942578711
 21
123.9860521857
  0
LINE
  5
363
100
AcDbEntity
  8
0
100
AcDbLine
 62
7
  6
CONTINUOUS
 10
192.2942578711
 20
123.6030734633
 11
192.6067581095
 21
123.6669032485
  0
LINE
  5
364
100
AcDbEntity
  8
0
100
AcDbLine
 62
7
  6
CONTINUOUS
 10
189.2942578711
 20
123.6030734633
 11
189.6067577519
 21
123.6669032485
  0
LINE
  5
365
100
AcDbEntity
  8
0
100
AcDbLine
 62
7
  6
CONTINUOUS
 10
189.8567578711
 20
122.1030734633
 11
189.4817578711
 21
122.1030734633
  0
LINE
  5
366
100
AcDbEntity
  8
BEZUGSACHSEN
100
AcDbLine
 62
7
  6
CONTINUOUS
 10
177.3797745403
 20
122.442223935
 11
177.8797745403
 21
122.442223935
  0
LINE
  5
367
100
AcDbEntity
  8
0
100
AcDbLine
 62
7
  6
CONTINUOUS
 10
200.5837412019
 20
122.442223935
 11
201.0837412019
 21
122.442223935
  0
LINE
  5
368
100
AcDbEntity
  8
0
100
AcDbLine
 62
7
  6
CONTINUOUS
 10
185.1692578711
 20
123.6030734633
 11
185.5442578711
 21
123.6030734633
  0
LINE
  5
369
100
AcDbEntity
  8
0
100
AcDbLine
 62
7
  6
CONTINUOUS
 10
187.1067578115
 20
123.6030734633
 11
187.5442579307
 21
123.6030734633
  0
LINE
  5
36A
100
AcDbEntity
  8
0
100
AcDbLine
 62
7
  6
CONTINUOUS
 10
189.0442577519
 20
123.6030734633
 11
189.2942578711
 21
123.6030734633
  0
LINE
  5
36B
100
AcDbEntity
  8
0
100
AcDbLine
 62
7
  6
CONTINUOUS
 10
190.7942578711
 20
123.6030734633
 11
192.2942578711
 21
123.6030734633
  0
LINE
  5
36C
100
AcDbEntity
  8
0
100
AcDbLine
 62
7
  6
CONTINUOUS
 10
192.2942578711
 20
123.9860521857
 11
191.1692578711
 21
123.9860521857
  0
LINE
  5
36D
100
AcDbEntity
  8
0
100
AcDbLine
 62
7
  6
CONTINUOUS
 10
189.2942578711
 20
123.9860521857
 11
189.0442577519
 21
123.9860521857
  0
LINE
  5
36E
100
AcDbEntity
  8
0
100
AcDbLine
 62
7
  6
CONTINUOUS
 10
188.7317578711
 20
123.6669032485
 11
189.0442577519
 21
123.6030734633
  0
LINE
  5
36F
100
AcDbEntity
  8
0
100
AcDbLine
 62
7
  6
CONTINUOUS
 10
189.5442579903
 20
124.0498819653
 11
189.2942578711
 21
123.9860521857
  0
LINE
  5
370
100
AcDbEntity
  8
0
100
AcDbLine
 62
7
  6
CONTINUOUS
 10
185.5442578711
 20
124.9434990142
 11
186.6067578413
 21
124.9434990142
  0
LINE
  5
371
100
AcDbEntity
  8
0
100
AcDbLine
 62
7
  6
CONTINUOUS
 10
186.7317578115
 20
125.326477692
 11
185.5442578711
 21
125.326477692
  0
LINE
  5
372
100
AcDbEntity
  8
0
100
AcDbLine
 62
7
  6
CONTINUOUS
 10
191.1692578711
 20
126.2200947855
 11
192.2942578711
 21
126.2200947855
  0
LINE
  5
373
100
AcDbEntity
  8
0
100
AcDbLine
 62
7
  6
CONTINUOUS
 10
185.5442578711
 20
126.2839245651
 11
186.7317578115
 21
126.2839245651
  0
LINE
  5
374
100
AcDbEntity
  8
0
100
AcDbLine
 62
7
  6
CONTINUOUS
 10
186.9817579307
 20
126.5392436836
 11
186.6692578711
 21
126.6030734633
  0
LINE
  5
375
100
AcDbEntity
  8
0
100
AcDbLine
 62
7
  6
CONTINUOUS
 10
189.0442577519
 20
123.9860521857
 11
188.7942579903
 21
124.0498819653
  0
LINE
  5
376
100
AcDbEntity
  8
0
100
AcDbLine
 62
7
  6
CONTINUOUS
 10
186.7317578115
 20
126.2839245651
 11
186.9192578115
 21
126.2200947855
  0
LINE
  5
377
100
AcDbEntity
  8
0
100
AcDbLine
 62
7
  6
CONTINUOUS
 10
188.4817577519
 20
123.7945628245
 11
188.7317578711
 21
123.6669032485
  0
LINE
  5
378
100
AcDbEntity
  8
0
100
AcDbLine
 62
7
  6
CONTINUOUS
 10
192.2942578711
 20
126.6030734633
 11
190.7942578711
 21
126.6030734633
  0
LINE
  5
379
100
AcDbEntity
  8
0
100
AcDbLine
 62
7
  6
CONTINUOUS
 10
190.2942579903
 20
126.6030734633
 11
189.9192579903
 21
126.6030734633
  0
LINE
  5
37A
100
AcDbEntity
  8
0
100
AcDbLine
 62
7
  6
CONTINUOUS
 10
188.4192579903
 20
126.6030734633
 11
188.0442578115
 21
126.6030734633
  0
LINE
  5
37B
100
AcDbEntity
  8
0
100
AcDbLine
 62
7
  6
CONTINUOUS
 10
186.6692578711
 20
126.6030734633
 11
185.1692578711
 21
126.6030734633
  0
LINE
  5
37C
100
AcDbEntity
  8
0
100
AcDbLine
 62
7
  6
CONTINUOUS
 10
192.6067581095
 20
126.5392436836
 11
192.2942578711
 21
126.6030734633
  0
LINE
  5
37D
100
AcDbEntity
  8
0
100
AcDbLine
 62
7
  6
CONTINUOUS
 10
192.2942578711
 20
126.2200947855
 11
192.5442576326
 21
126.1562650059
  0
LINE
  5
37E
100
AcDbEntity
  8
0
100
AcDbLine
 62
7
  6
CONTINUOUS
 10
188.7942579903
 20
124.0498819653
 11
188.6067579903
 21
124.1775415693
  0
LINE
  5
37F
100
AcDbEntity
  8
0
100
AcDbLine
 62
7
  6
CONTINUOUS
 10
187.2317578711
 20
126.3477543448
 11
186.9817579307
 21
126.5392436836
  0
LINE
  5
380
100
AcDbEntity
  8
0
100
AcDbLine
 62
7
  6
CONTINUOUS
 10
197.7317578711
 20
130.6030734633
 11
198.2317578711
 21
130.6030734633
  0
LINE
  5
381
100
AcDbEntity
  8
0
100
AcDbLine
 62
7
  6
CONTINUOUS
 10
192.8567578711
 20
126.4115841244
 11
192.6067581095
 21
126.5392436836
  0
LINE
  5
382
100
AcDbEntity
  8
0
100
AcDbLine
 62
7
  6
CONTINUOUS
 10
192.5442576326
 20
126.1562650059
 11
192.7317576326
 21
126.0286054466
  0
LINE
  5
383
100
AcDbEntity
  8
0
100
AcDbLine
 62
7
  6
CONTINUOUS
 10
188.2317579903
 20
124.0498819653
 11
188.4817577519
 21
123.7945628245
  0
LINE
  5
384
100
AcDbEntity
  8
0
100
AcDbLine
 62
7
  6
CONTINUOUS
 10
186.9192578115
 20
126.2200947855
 11
187.0442578711
 21
126.0924352263
  0
LINE
  5
385
100
AcDbEntity
  8
0
100
AcDbLine
 62
7
  6
CONTINUOUS
 10
197.7317578711
 20
131.6456266348
 11
198.2317578711
 21
131.6456266348
  0
LINE
  5
386
100
AcDbEntity
  8
0
100
AcDbLine
 62
7
  6
CONTINUOUS
 10
197.7317578711
 20
132.0924351965
 11
198.2317578711
 21
132.0924351965
  0
LINE
  5
387
100
AcDbEntity
  8
0
100
AcDbLine
 62
7
  6
CONTINUOUS
 10
187.4192578711
 20
126.0924352263
 11
187.2317578711
 21
126.3477543448
  0
LINE
  5
388
100
AcDbEntity
  8
0
100
AcDbLine
 62
7
  6
CONTINUOUS
 10
188.6067579903
 20
124.1775415693
 11
188.4817577519
 21
124.3690309082
  0
LINE
  5
389
100
AcDbEntity
  8
BEZUGSACHSEN
100
AcDbLine
 62
7
  6
CONTINUOUS
 10
180.7317578711
 20
136.6030638687
 11
180.7317578711
 21
129.7682280993
  0
LINE
  5
38A
100
AcDbEntity
  8
0
100
AcDbLine
 62
7
  6
CONTINUOUS
 10
197.7317578711
 20
134.1030734633
 11
198.2317578711
 21
134.1030734633
  0
LINE
  5
38B
100
AcDbEntity
  8
0
100
AcDbLine
 62
7
  6
CONTINUOUS
 10
194.2317578711
 20
134.6030734633
 11
194.7317578711
 21
134.6030734633
  0
LINE
  5
38C
100
AcDbEntity
  8
0
100
AcDbLine
 62
7
  6
CONTINUOUS
 10
194.2317578711
 20
134.6655734651
 11
194.7317578711
 21
134.6655734651
  0
LINE
  5
38D
100
AcDbEntity
  8
0
100
AcDbLine
 62
7
  6
CONTINUOUS
 10
194.2317578711
 20
134.7905734633
 11
194.7317578711
 21
134.7905734633
  0
LINE
  5
38E
100
AcDbEntity
  8
0
100
AcDbLine
 62
7
  6
CONTINUOUS
 10
194.2317578711
 20
135.0405734484
 11
194.7317578711
 21
135.0405734484
  0
LINE
  5
38F
100
AcDbEntity
  8
0
100
AcDbLine
 62
7
  6
CONTINUOUS
 10
194.2317578711
 20
135.2905734782
 11
194.7317578711
 21
135.2905734782
  0
LINE
  5
390
100
AcDbEntity
  8
0
100
AcDbLine
 62
7
  6
CONTINUOUS
 10
194.2317578711
 20
135.6030734931
 11
194.7317578711
 21
135.6030734931
  0
LINE
  5
391
100
AcDbEntity
  8
0
100
AcDbLine
 62
7
  6
CONTINUOUS
 10
193.1067576326
 20
126.1562650059
 11
192.8567578711
 21
126.4115841244
  0
LINE
  5
392
100
AcDbEntity
  8
0
100
AcDbLine
 62
7
  6
CONTINUOUS
 10
188.1067579307
 20
124.3052011285
 11
188.2317579903
 21
124.0498819653
  0
LINE
  5
393
100
AcDbEntity
  8
0
100
AcDbLine
 62
7
  6
CONTINUOUS
 10
187.5442579307
 20
123.6030734633
 11
186.9817579307
 21
125.0711585735
  0
LINE
  5
394
100
AcDbEntity
  8
0
100
AcDbLine
 62
7
  6
CONTINUOUS
 10
186.6067578413
 20
124.9434990142
 11
187.1067578115
 21
123.6030734633
  0
LINE
  5
395
100
AcDbEntity
  8
0
100
AcDbLine
 62
7
  6
CONTINUOUS
 10
187.0442578711
 20
126.0924352263
 11
187.1067578115
 21
125.9009458874
  0
LINE
  5
396
100
AcDbEntity
  8
0
100
AcDbLine
 62
7
  6
CONTINUOUS
 10
187.4817578115
 20
125.9009458874
 11
187.4192578711
 21
126.0924352263
  0
LINE
  5
397
100
AcDbEntity
  8
BEZUGSACHSEN
100
AcDbLine
 62
7
  6
CONTINUOUS
 10
182.7317578711
 20
156.6400066933
 11
182.7317578711
 21
170.1030734633
  0
LINE
  5
398
100
AcDbEntity
  8
BEZUGSACHSEN
100
AcDbLine
 62
7
  6
CONTINUOUS
 10
184.2317578711
 20
133.2225029274
 11
184.2317578711
 21
150.3352465868
  0
LINE
  5
399
100
AcDbEntity
  8
0
100
AcDbLine
 62
7
  6
CONTINUOUS
 10
194.2317578711
 20
136.1655734037
 11
194.7317578711
 21
136.1655734037
  0
LINE
  5
39A
100
AcDbEntity
  8
0
100
AcDbLine
 62
7
  6
CONTINUOUS
 10
194.2317578711
 20
136.4780734633
 11
194.7317578711
 21
136.4780734633
  0
LINE
  5
39B
100
AcDbEntity
  8
0
100
AcDbLine
 62
7
  6
CONTINUOUS
 10
194.2317578711
 20
136.7280734037
 11
194.7317578711
 21
136.7280734037
  0
LINE
  5
39C
100
AcDbEntity
  8
0
100
AcDbLine
 62
7
  6
CONTINUOUS
 10
194.2317578711
 20
136.9780735229
 11
194.7317578711
 21
136.9780735229
  0
LINE
  5
39D
100
AcDbEntity
  8
0
100
AcDbLine
 62
7
  6
CONTINUOUS
 10
194.2317578711
 20
137.0405734633
 11
194.7317578711
 21
137.0405734633
  0
LINE
  5
39E
100
AcDbEntity
  8
0
100
AcDbLine
 62
7
  6
CONTINUOUS
 10
194.2317578711
 20
137.5405735229
 11
194.7317578711
 21
137.5405735229
  0
LINE
  5
39F
100
AcDbEntity
  8
0
100
AcDbLine
 62
7
  6
CONTINUOUS
 10
194.2317578711
 20
137.7280733441
 11
194.7317578711
 21
137.7280733441
  0
LINE
  5
3A0
100
AcDbEntity
  8
0
100
AcDbLine
 62
7
  6
CONTINUOUS
 10
194.2317578711
 20
137.7905734633
 11
194.7317578711
 21
137.7905734633
  0
LINE
  5
3A1
100
AcDbEntity
  8
0
100
AcDbLine
 62
7
  6
CONTINUOUS
 10
194.2317578711
 20
138.0405735825
 11
194.7317578711
 21
138.0405735825
  0
LINE
  5
3A2
100
AcDbEntity
  8
BEZUGSACHSEN
100
AcDbLine
 62
7
  6
CONTINUOUS
 10
182.7317551522
 20
138.1030734633
 11
182.2317470207
 21
138.1030734633
  0
LINE
  5
3A3
100
AcDbEntity
  8
RUNDUNGEN
100
AcDbLine
 62
7
  6
CONTINUOUS
 10
195.7317605899
 20
138.1030734633
 11
196.2317687214
 21
138.1030734633
  0
LINE
  5
3A4
100
AcDbEntity
  8
0
100
AcDbLine
 62
7
  6
CONTINUOUS
 10
194.2317578711
 20
138.2905733441
 11
194.7317578711
 21
138.2905733441
  0
LINE
  5
3A5
100
AcDbEntity
  8
0
100
AcDbLine
 62
7
  6
CONTINUOUS
 10
192.7317576326
 20
126.0286054466
 11
192.8567578711
 21
125.837115929
  0
LINE
  5
3A6
100
AcDbEntity
  8
0
100
AcDbLine
 62
7
  6
CONTINUOUS
 10
188.4817577519
 20
124.3690309082
 11
188.4192579903
 21
124.6243500267
  0
LINE
  5
3A7
100
AcDbEntity
  8
0
100
AcDbLine
 62
7
  6
CONTINUOUS
 10
188.0442578115
 20
124.6243500267
 11
188.1067579307
 21
124.3052011285
  0
LINE
  5
3A8
100
AcDbEntity
  8
0
100
AcDbLine
 62
7
  6
CONTINUOUS
 10
185.1692578711
 20
126.6030734633
 11
185.1692578711
 21
123.6030734633
  0
LINE
  5
3A9
100
AcDbEntity
  8
0
100
AcDbLine
 62
7
  6
CONTINUOUS
 10
185.5442578711
 20
123.6030734633
 11
185.5442578711
 21
124.9434990142
  0
LINE
  5
3AA
100
AcDbEntity
  8
0
100
AcDbLine
 62
7
  6
CONTINUOUS
 10
185.5442578711
 20
125.326477692
 11
185.5442578711
 21
126.2839245651
  0
LINE
  5
3AB
100
AcDbEntity
  8
0
100
AcDbLine
 62
7
  6
CONTINUOUS
 10
187.1067578115
 20
125.9009458874
 11
187.1067578115
 21
125.7094563697
  0
LINE
  5
3AC
100
AcDbEntity
  8
0
100
AcDbLine
 62
7
  6
CONTINUOUS
 10
194.2317578711
 20
138.5405734633
 11
194.7317578711
 21
138.5405734633
  0
LINE
  5
3AD
100
AcDbEntity
  8
0
100
AcDbLine
 62
7
  6
CONTINUOUS
 10
194.2317578711
 20
138.8530733441
 11
194.7317578711
 21
138.8530733441
  0
LINE
  5
3AE
100
AcDbEntity
  8
0
100
AcDbLine
 62
7
  6
CONTINUOUS
 10
194.2317578711
 20
139.1655735825
 11
194.7317578711
 21
139.1655735825
  0
LINE
  5
3AF
100
AcDbEntity
  8
0
100
AcDbLine
 62
7
  6
CONTINUOUS
 10
194.2317578711
 20
139.4155733441
 11
194.7317578711
 21
139.4155733441
  0
LINE
  5
3B0
100
AcDbEntity
  8
0
100
AcDbLine
 62
7
  6
CONTINUOUS
 10
194.2317578711
 20
139.6030733441
 11
194.7317578711
 21
139.6030733441
  0
LINE
  5
3B1
100
AcDbEntity
  8
0
100
AcDbLine
 62
7
  6
CONTINUOUS
 10
194.2317578711
 20
139.6655734633
 11
194.7317578711
 21
139.6655734633
  0
LINE
  5
3B2
100
AcDbEntity
  8
0
100
AcDbLine
 62
7
  6
CONTINUOUS
 10
194.2317578711
 20
139.7280735825
 11
194.7317578711
 21
139.7280735825
  0
LINE
  5
3B3
100
AcDbEntity
  8
0
100
AcDbLine
 62
7
  6
CONTINUOUS
 10
194.2317578711
 20
139.8530734633
 11
194.7317578711
 21
139.8530734633
  0
LINE
  5
3B4
100
AcDbEntity
  8
0
100
AcDbLine
 62
7
  6
CONTINUOUS
 10
194.2317578711
 20
140.3530733441
 11
194.7317578711
 21
140.3530733441
  0
LINE
  5
3B5
100
AcDbEntity
  8
0
100
AcDbLine
 62
7
  6
CONTINUOUS
 10
194.2317578711
 20
140.5405733441
 11
194.7317578711
 21
140.5405733441
  0
LINE
  5
3B6
100
AcDbEntity
  8
0
100
AcDbLine
 62
7
  6
CONTINUOUS
 10
194.2317578711
 20
140.6030734633
 11
194.7317578711
 21
140.6030734633
  0
LINE
  5
3B7
100
AcDbEntity
  8
0
100
AcDbLine
 62
7
  6
CONTINUOUS
 10
193.2317578711
 20
125.9009458874
 11
193.1067576326
 21
126.1562650059
  0
LINE
  5
3B8
100
AcDbEntity
  8
0
100
AcDbLine
 62
7
  6
CONTINUOUS
 10
187.4817578115
 20
125.6456265901
 11
187.4817578115
 21
125.9009458874
  0
LINE
  5
3B9
100
AcDbEntity
  8
0
100
AcDbLine
 62
7
  6
CONTINUOUS
 10
187.9817578711
 20
120.3796692346
 11
187.9817578711
 21
119.9966904674
  0
LINE
  5
3BA
100
AcDbEntity
  8
0
100
AcDbLine
 62
7
  6
CONTINUOUS
 10
188.0442578115
 20
126.6030734633
 11
188.0442578115
 21
124.6243500267
  0
LINE
  5
3BB
100
AcDbEntity
  8
0
100
AcDbLine
 62
7
  6
CONTINUOUS
 10
188.4192579903
 20
124.6243500267
 11
188.4192579903
 21
126.6030734633
  0
LINE
  5
3BC
100
AcDbEntity
  8
0
100
AcDbLine
 62
7
  6
CONTINUOUS
 10
189.4817578711
 20
121.5924352263
 11
189.4817578711
 21
120.3796692346
  0
LINE
  5
3BD
100
AcDbEntity
  8
0
100
AcDbLine
 62
7
  6
CONTINUOUS
 10
189.4817578711
 20
119.9966904674
 11
189.4817578711
 21
119.1030734633
  0
LINE
  5
3BE
100
AcDbEntity
  8
0
100
AcDbLine
 62
7
  6
CONTINUOUS
 10
194.2317578711
 20
140.8530732248
 11
194.7317578711
 21
140.8530732248
  0
LINE
  5
3BF
100
AcDbEntity
  8
0
100
AcDbLine
 62
7
  6
CONTINUOUS
 10
194.2317578711
 20
141.1030737017
 11
194.7317578711
 21
141.1030737017
  0
LINE
  5
3C0
100
AcDbEntity
  8
0
100
AcDbLine
 62
7
  6
CONTINUOUS
 10
194.2317578711
 20
141.3530734633
 11
194.7317578711
 21
141.3530734633
  0
LINE
  5
3C1
100
AcDbEntity
  8
0
100
AcDbLine
 62
7
  6
CONTINUOUS
 10
194.2317578711
 20
141.6655737017
 11
194.7317578711
 21
141.6655737017
  0
LINE
  5
3C2
100
AcDbEntity
  8
0
100
AcDbLine
 62
7
  6
CONTINUOUS
 10
194.2317578711
 20
141.9780732248
 11
194.7317578711
 21
141.9780732248
  0
LINE
  5
3C3
100
AcDbEntity
  8
0
100
AcDbLine
 62
7
  6
CONTINUOUS
 10
194.2317578711
 20
142.2280737017
 11
194.7317578711
 21
142.2280737017
  0
LINE
  5
3C4
100
AcDbEntity
  8
0
100
AcDbLine
 62
7
  6
CONTINUOUS
 10
194.2317578711
 20
142.4155737017
 11
194.7317578711
 21
142.4155737017
  0
LINE
  5
3C5
100
AcDbEntity
  8
0
100
AcDbLine
 62
7
  6
CONTINUOUS
 10
194.2317578711
 20
142.4780734633
 11
194.7317578711
 21
142.4780734633
  0
LINE
  5
3C6
100
AcDbEntity
  8
0
100
AcDbLine
 62
7
  6
CONTINUOUS
 10
194.2317578711
 20
142.5405732248
 11
194.7317578711
 21
142.5405732248
  0
LINE
  5
3C7
100
AcDbEntity
  8
0
100
AcDbLine
 62
7
  6
CONTINUOUS
 10
194.2317578711
 20
142.6655734633
 11
194.7317578711
 21
142.6655734633
  0
LINE
  5
3C8
100
AcDbEntity
  8
0
100
AcDbLine
 62
7
  6
CONTINUOUS
 10
192.8567578711
 20
125.837115929
 11
192.9192576326
 21
125.5817968105
  0
LINE
  5
3C9
100
AcDbEntity
  8
0
100
AcDbLine
 62
7
  6
CONTINUOUS
 10
189.8567578711
 20
119.1030734633
 11
189.8567578711
 21
119.9966904674
  0
LINE
  5
3CA
100
AcDbEntity
  8
0
100
AcDbLine
 62
7
  6
CONTINUOUS
 10
189.8567578711
 20
120.3796692346
 11
189.8567578711
 21
122.1030734633
  0
LINE
  5
3CB
100
AcDbEntity
  8
0
100
AcDbLine
 62
7
  6
CONTINUOUS
 10
189.9192579903
 20
126.6030734633
 11
189.9192579903
 21
124.6243500267
  0
LINE
  5
3CC
100
AcDbEntity
  8
0
100
AcDbLine
 62
7
  6
CONTINUOUS
 10
190.2942579903
 20
124.6243500267
 11
190.2942579903
 21
126.6030734633
  0
LINE
  5
3CD
100
AcDbEntity
  8
0
100
AcDbLine
 62
7
  6
CONTINUOUS
 10
190.4817578115
 20
119.9966904674
 11
190.4817578115
 21
120.3796692346
  0
LINE
  5
3CE
100
AcDbEntity
  8
0
100
AcDbLine
 62
7
  6
CONTINUOUS
 10
190.7942578711
 20
126.6030734633
 11
190.7942578711
 21
123.6030734633
  0
LINE
  5
3CF
100
AcDbEntity
  8
0
100
AcDbLine
 62
7
  6
CONTINUOUS
 10
191.1692578711
 20
123.9860521857
 11
191.1692578711
 21
126.2200947855
  0
LINE
  5
3D0
100
AcDbEntity
  8
0
100
AcDbLine
 62
7
  6
CONTINUOUS
 10
194.2317578711
 20
143.4575376831
 11
194.7317578711
 21
143.4575376831
  0
LINE
  5
3D1
100
AcDbEntity
  8
0
100
AcDbLine
 62
7
  6
CONTINUOUS
 10
194.2317578711
 20
143.9575375639
 11
194.7317578711
 21
143.9575375639
  0
LINE
  5
3D2
100
AcDbEntity
  8
0
100
AcDbLine
 62
7
  6
CONTINUOUS
 10
194.2317578711
 20
144.0200376831
 11
194.7317578711
 21
144.0200376831
  0
LINE
  5
3D3
100
AcDbEntity
  8
0
100
AcDbLine
 62
7
  6
CONTINUOUS
 10
194.2317578711
 20
144.1450375639
 11
194.7317578711
 21
144.1450375639
  0
LINE
  5
3D4
100
AcDbEntity
  8
0
100
AcDbLine
 62
7
  6
CONTINUOUS
 10
194.2317578711
 20
144.3950376831
 11
194.7317578711
 21
144.3950376831
  0
LINE
  5
3D5
100
AcDbEntity
  8
0
100
AcDbLine
 62
7
  6
CONTINUOUS
 10
194.2317578711
 20
144.6450378023
 11
194.7317578711
 21
144.6450378023
  0
LINE
  5
3D6
100
AcDbEntity
  8
0
100
AcDbLine
 62
7
  6
CONTINUOUS
 10
194.2317578711
 20
144.9575376831
 11
194.7317578711
 21
144.9575376831
  0
LINE
  5
3D7
100
AcDbEntity
  8
0
100
AcDbLine
 62
7
  6
CONTINUOUS
 10
194.2317578711
 20
145.2075378023
 11
194.7317578711
 21
145.2075378023
  0
LINE
  5
3D8
100
AcDbEntity
  8
0
100
AcDbLine
 62
7
  6
CONTINUOUS
 10
194.2317578711
 20
145.5200376831
 11
194.7317578711
 21
145.5200376831
  0
LINE
  5
3D9
100
AcDbEntity
  8
0
100
AcDbLine
 62
7
  6
CONTINUOUS
 10
193.2942576326
 20
125.5817968105
 11
193.2317578711
 21
125.9009458874
  0
LINE
  5
3DA
100
AcDbEntity
  8
0
100
AcDbLine
 62
7
  6
CONTINUOUS
 10
192.9192576326
 20
125.5817968105
 11
192.9192576326
 21
124.6243500267
  0
LINE
  5
3DB
100
AcDbEntity
  8
0
100
AcDbLine
 62
7
  6
CONTINUOUS
 10
193.2942576326
 20
124.6243500267
 11
193.2942576326
 21
125.5817968105
  0
LINE
  5
3DC
100
AcDbEntity
  8
RUNDUNGEN
100
AcDbLine
 62
7
  6
CONTINUOUS
 10
194.2317578711
 20
133.2225029274
 11
194.2317578711
 21
150.3352465868
  0
LINE
  5
3DD
100
AcDbEntity
  8
0
100
AcDbLine
 62
7
  6
CONTINUOUS
 10
190.2317578711
 20
124.3052011285
 11
190.2942579903
 21
124.6243500267
  0
LINE
  5
3DE
100
AcDbEntity
  8
0
100
AcDbLine
 62
7
  6
CONTINUOUS
 10
189.9192579903
 20
124.6243500267
 11
189.8567578711
 21
124.3690309082
  0
LINE
  5
3DF
100
AcDbEntity
  8
0
100
AcDbLine
 62
7
  6
CONTINUOUS
 10
187.1067578115
 20
125.7094563697
 11
187.0442578711
 21
125.5179670308
  0
LINE
  5
3E0
100
AcDbEntity
  8
0
100
AcDbLine
 62
7
  6
CONTINUOUS
 10
187.4192578711
 20
125.4541372512
 11
187.4817578115
 21
125.6456265901
  0
LINE
  5
3E1
100
AcDbEntity
  8
0
100
AcDbLine
 62
7
  6
CONTINUOUS
 10
194.2317578711
 20
145.7700378023
 11
194.7317578711
 21
145.7700378023
  0
LINE
  5
3E2
100
AcDbEntity
  8
0
100
AcDbLine
 62
7
  6
CONTINUOUS
 10
194.2317578711
 20
146.0200375639
 11
194.7317578711
 21
146.0200375639
  0
LINE
  5
3E3
100
AcDbEntity
  8
0
100
AcDbLine
 62
7
  6
CONTINUOUS
 10
194.2317578711
 20
146.1450376235
 11
194.7317578711
 21
146.1450376235
  0
LINE
  5
3E4
100
AcDbEntity
  8
0
100
AcDbLine
 62
7
  6
CONTINUOUS
 10
194.2317578711
 20
146.2075377427
 11
194.7317578711
 21
146.2075377427
  0
LINE
  5
3E5
100
AcDbEntity
  8
0
100
AcDbLine
 62
7
  6
CONTINUOUS
 10
194.2317578711
 20
146.7075376235
 11
194.7317578711
 21
146.7075376235
  0
LINE
  5
3E6
100
AcDbEntity
  8
0
100
AcDbLine
 62
7
  6
CONTINUOUS
 10
194.2317578711
 20
147.1450377427
 11
194.7317578711
 21
147.1450377427
  0
LINE
  5
3E7
100
AcDbEntity
  8
0
100
AcDbLine
 62
7
  6
CONTINUOUS
 10
194.2317578711
 20
147.6450377129
 11
194.7317578711
 21
147.6450377129
  0
LINE
  5
3E8
100
AcDbEntity
  8
0
100
AcDbLine
 62
7
  6
CONTINUOUS
 10
194.7317578711
 20
149.0825376831
 11
194.7317578711
 21
146.7075376235
  0
LINE
  5
3E9
100
AcDbEntity
  8
0
100
AcDbLine
 62
7
  6
CONTINUOUS
 10
194.7317578711
 20
146.2075377427
 11
194.7317578711
 21
143.9575375639
  0
LINE
  5
3EA
100
AcDbEntity
  8
0
100
AcDbLine
 62
7
  6
CONTINUOUS
 10
194.7317578711
 20
143.4575376831
 11
194.7317578711
 21
140.3530733441
  0
LINE
  5
3EB
100
AcDbEntity
  8
0
100
AcDbLine
 62
7
  6
CONTINUOUS
 10
194.7317578711
 20
139.8530734633
 11
194.7317578711
 21
137.5405735229
  0
LINE
  5
3EC
100
AcDbEntity
  8
0
100
AcDbLine
 62
7
  6
CONTINUOUS
 10
194.7317578711
 20
137.0405734633
 11
194.7317578711
 21
134.6030734633
  0
LINE
  5
3ED
100
AcDbEntity
  8
RUNDUNGEN
100
AcDbLine
 62
7
  6
CONTINUOUS
 10
195.7317578711
 20
156.6400066933
 11
195.7317578711
 21
170.1030734633
  0
LINE
  5
3EE
100
AcDbEntity
  8
0
100
AcDbLine
 62
7
  6
CONTINUOUS
 10
194.2317578711
 20
148.7075376831
 11
194.7317578711
 21
148.7075376831
  0
LINE
  5
3EF
100
AcDbEntity
  8
0
100
AcDbLine
 62
7
  6
CONTINUOUS
 10
194.2317578711
 20
149.0825376831
 11
194.7317578711
 21
149.0825376831
  0
LINE
  5
3F0
100
AcDbEntity
  8
RUNDUNGEN
100
AcDbLine
 62
7
  6
CONTINUOUS
 10
197.7317578711
 20
136.6030638687
 11
197.7317578711
 21
129.7682280993
  0
LINE
  5
3F1
100
AcDbEntity
  8
0
100
AcDbLine
 62
7
  6
CONTINUOUS
 10
198.2317578711
 20
134.1030734633
 11
198.2317578711
 21
130.6030734633
  0
LINE
  5
3F2
100
AcDbEntity
  8
0
100
AcDbLine
 62
7
  6
CONTINUOUS
 10
193.2317578711
 20
124.3052011285
 11
193.2942576326
 21
124.6243500267
  0
LINE
  5
3F3
100
AcDbEntity
  8
0
100
AcDbLine
 62
7
  6
CONTINUOUS
 10
192.9192576326
 20
124.6243500267
 11
192.8567578711
 21
124.3690309082
  0
LINE
  5
3F4
100
AcDbEntity
  8
0
100
AcDbLine
 62
7
  6
CONTINUOUS
 10
190.1067579903
 20
124.0498819653
 11
190.2317578711
 21
124.3052011285
  0
LINE
  5
3F5
100
AcDbEntity
  8
0
100
AcDbLine
 62
7
  6
CONTINUOUS
 10
187.2317578711
 20
125.1988181327
 11
187.4192578711
 21
125.4541372512
  0
LINE
  5
3F6
100
AcDbEntity
  8
0
100
AcDbLine
 62
7
  6
CONTINUOUS
 10
193.1067576326
 20
124.0498819653
 11
193.2317578711
 21
124.3052011285
  0
LINE
  5
3F7
100
AcDbEntity
  8
0
100
AcDbLine
 62
7
  6
CONTINUOUS
 10
189.8567578711
 20
124.3690309082
 11
189.7317579903
 21
124.1775415693
  0
LINE
  5
3F8
100
AcDbEntity
  8
0
100
AcDbLine
 62
7
  6
CONTINUOUS
 10
187.0442578711
 20
125.5179670308
 11
186.9192578115
 21
125.3903074716
  0
LINE
  5
3F9
100
AcDbEntity
  8
0
100
AcDbLine
 62
7
  6
CONTINUOUS
 10
192.8567578711
 20
124.3690309082
 11
192.7317576326
 21
124.1775415693
  0
LINE
  5
3FA
100
AcDbEntity
  8
0
100
AcDbLine
 62
7
  6
CONTINUOUS
 10
189.4817578711
 20
122.1030734633
 11
187.9817578711
 21
120.3796692346
  0
LINE
  5
3FB
100
AcDbEntity
  8
0
100
AcDbLine
 62
7
  6
CONTINUOUS
 10
188.4192578562
 20
120.3796692346
 11
189.4817578711
 21
121.5924352263
  0
LINE
  5
3FC
100
AcDbEntity
  8
0
100
AcDbLine
 62
7
  6
CONTINUOUS
 10
189.8567578711
 20
123.7945628245
 11
190.1067579903
 21
124.0498819653
  0
LINE
  5
3FD
100
AcDbEntity
  8
BEZUGSACHSEN
100
AcDbLine
 62
7
  6
CONTINUOUS
 10
184.567961375
 20
156.1002392529
 11
193.8955543671
 21
156.1002392529
  0
LINE
  5
3FE
100
AcDbEntity
  8
0
100
AcDbLine
 62
7
  6
CONTINUOUS
 10
192.8567578711
 20
123.7945628245
 11
193.1067576326
 21
124.0498819653
  0
LINE
  5
3FF
100
AcDbEntity
  8
0
100
AcDbLine
 62
7
  6
CONTINUOUS
 10
189.7317579903
 20
124.1775415693
 11
189.5442579903
 21
124.0498819653
  0
LINE
  5
400
100
AcDbEntity
  8
0
100
AcDbLine
 62
7
  6
CONTINUOUS
 10
186.9817579307
 20
125.0711585735
 11
187.2317578711
 21
125.1988181327
  0
LINE
  5
401
100
AcDbEntity
  8
0
100
AcDbLine
 62
7
  6
CONTINUOUS
 10
186.9192578115
 20
125.3903074716
 11
186.7317578115
 21
125.326477692
  0
LINE
  5
402
100
AcDbEntity
  8
0
100
AcDbLine
 62
7
  6
CONTINUOUS
 10
192.7317576326
 20
124.1775415693
 11
192.5442576326
 21
124.0498819653
  0
LINE
  5
403
100
AcDbEntity
  8
0
100
AcDbLine
 62
7
  6
CONTINUOUS
 10
189.6067577519
 20
123.6669032485
 11
189.8567578711
 21
123.7945628245
  0
LINE
  5
404
100
AcDbEntity
  8
0
100
AcDbLine
 62
7
  6
CONTINUOUS
 10
192.6067581095
 20
123.6669032485
 11
192.8567578711
 21
123.7945628245
  0
LINE
  5
405
100
AcDbEntity
  8
FASEN
100
AcDbLine
 62
7
  6
CONTINUOUS
 10
80.8899925073
 20
44.8171064468
 11
80.8899925073
 21
61.8171064468
  0
LINE
  5
406
100
AcDbEntity
  8
FASEN
100
AcDbLine
 62
7
  6
CONTINUOUS
 10
81.3899925073
 20
44.3171064468
 11
81.3899925073
 21
62.3171064468
  0
LINE
  5
407
100
AcDbEntity
  8
FASEN
100
AcDbLine
 62
7
  6
CONTINUOUS
 10
80.8899925073
 20
61.8171064468
 11
81.3899925073
 21
62.3171064468
  0
LINE
  5
408
100
AcDbEntity
  8
FASEN
100
AcDbLine
 62
7
  6
CONTINUOUS
 10
80.8899925073
 20
44.8171064468
 11
81.3899925073
 21
44.3171064468
  0
LINE
  5
409
100
AcDbEntity
  8
FASEN
100
AcDbLine
 62
7
  6
CONTINUOUS
 10
87.8899925073
 20
44.3171064468
 11
87.8899925073
 21
62.3171064468
  0
LINE
  5
40A
100
AcDbEntity
  8
_30_VOLUMEN
100
AcDbLine
 62
7
  6
CONTINUOUS
 10
88.3899925073
 20
43.9028928844
 11
88.3899925073
 21
62.7313200091
  0
LINE
  5
40B
100
AcDbEntity
  8
RUNDUNGEN
100
AcDbLine
 62
7
  6
CONTINUOUS
 10
90.8899925073
 20
49.2702488753
 11
90.8899925073
 21
49.8171064468
  0
LINE
  5
40C
100
AcDbEntity
  8
BEZUGSACHSEN
100
AcDbLine
 62
7
  6
CONTINUOUS
 10
90.8899925073
 20
49.8171064468
 11
90.8899925073
 21
57.3639640182
  0
LINE
  5
40D
100
AcDbEntity
  8
BEZUGSACHSEN
100
AcDbLine
 62
7
  6
CONTINUOUS
 10
92.8968016679
 20
48.6533099507
 11
92.8968016679
 21
57.9809029428
  0
LINE
  5
40E
100
AcDbEntity
  8
BEZUGSACHSEN
100
AcDbLine
 62
7
  6
CONTINUOUS
 10
93.2502959795
 20
59.1352220756
 11
93.2508633013
 21
59.1357623713
  0
LWPOLYLINE
  5
40F
100
AcDbEntity
  8
BEZUGSACHSEN
100
AcDbPolyline
 62
7
  6
CONTINUOUS
 90
4
 70
0
 10
93.25025381
 20
59.1352663062
 10
93.239387111
 20
59.1250306032
 10
93.2253590824
 20
59.1121666054
 10
93.2114753055
 20
59.0998055282
  0
LINE
  5
410
100
AcDbEntity
  8
BEZUGSACHSEN
100
AcDbLine
 62
7
  6
CONTINUOUS
 10
93.3499861614
 20
59.2262472834
 11
93.2508633013
 21
59.1357623713
  0
LINE
  5
411
100
AcDbEntity
  8
BEZUGSACHSEN
100
AcDbLine
 62
7
  6
CONTINUOUS
 10
93.2114753055
 20
59.0998055282
 11
93.2003527729
 21
59.0901571286
  0
LWPOLYLINE
  5
412
100
AcDbEntity
  8
BEZUGSACHSEN
100
AcDbPolyline
 62
7
  6
CONTINUOUS
 90
17
 70
0
 10
93.2085666014
 20
59.0969106249
 10
93.0643967882
 20
58.9769210575
 10
92.9544385159
 20
58.8866224597
 10
92.8490857417
 20
58.8012349811
 10
92.7487110245
 20
58.7210525212
 10
92.6541680724
 20
58.6467266455
 10
92.565424772
 20
58.5781829588
 10
92.4825901539
 20
58.5154500043
 10
92.4066352203
 20
58.4591760971
 10
92.3374412515
 20
58.4091569855
 10
92.2750573589
 20
58.3652971528
 10
92.2206198401
 20
58.3282063275
 10
92.1739074209
 20
58.2974868409
 10
92.1349478814
 20
58.2728844223
 10
92.1052258534
 20
58.254964532
 10
92.0844586624
 20
58.2430845054
 10
92.081321324
 20
58.2413569711
  0
LINE
  5
413
100
AcDbEntity
  8
RUNDUNGEN
100
AcDbLine
 62
7
  6
CONTINUOUS
 10
93.0852701195
 20
47.6400263383
 11
93.2004137969
 21
47.5441286462
  0
LWPOLYLINE
  5
414
100
AcDbEntity
  8
RUNDUNGEN
100
AcDbPolyline
 62
7
  6
CONTINUOUS
 90
4
 70
0
 10
93.2003527729
 20
47.5440557649
 10
93.2114753055
 20
47.5344073653
 10
93.2253590824
 20
47.5220462882
 10
93.239387111
 20
47.5091822904
  0
LWPOLYLINE
  5
415
100
AcDbEntity
  8
RUNDUNGEN
100
AcDbPolyline
 62
7
  6
CONTINUOUS
 90
12
 70
0
 10
93.2508832399
 20
47.4984315493
 10
93.3504846083
 20
47.4075299429
 10
93.4995969004
 20
47.2855197007
 10
93.6494117418
 20
47.1789560605
 10
93.8003635922
 20
47.0868756254
 10
93.9526063247
 20
47.0087180277
 10
94.105497891
 20
46.9443652365
 10
94.2585440241
 20
46.8935277377
 10
94.4116152463
 20
46.855797928
 10
94.5638173885
 20
46.8309641883
 10
94.7142563542
 20
46.8186838016
 10
94.7868402485
 20
46.8171128736
  0
LINE
  5
416
100
AcDbEntity
  8
RUNDUNGEN
100
AcDbLine
 62
7
  6
CONTINUOUS
 10
93.239387111
 20
47.5091822904
 11
93.25025381
 21
47.4989465874
  0
LINE
  5
417
100
AcDbEntity
  8
RUNDUNGEN
100
AcDbLine
 62
7
  6
CONTINUOUS
 10
93.2502959795
 20
47.498990818
 11
93.2508832399
 21
47.4984315493
  0
LINE
  5
418
100
AcDbEntity
  8
BEZUGSACHSEN
100
AcDbLine
 62
7
  6
CONTINUOUS
 10
93.8899925073
 20
48.3171064468
 11
93.8899925073
 21
58.3171064468
  0
LINE
  5
419
100
AcDbEntity
  8
BEZUGSACHSEN
100
AcDbLine
 62
7
  6
CONTINUOUS
 10
114.4635528585
 20
41.8171064468
 11
114.4636064907
 21
41.8171065046
  0
LINE
  5
41A
100
AcDbEntity
  8
0
100
AcDbLine
 62
7
  6
CONTINUOUS
 10
124.61863305
 20
41.3171064468
 11
116.8899925073
 21
41.3171064468
  0
LINE
  5
41B
100
AcDbEntity
  8
0
100
AcDbLine
 62
7
  6
CONTINUOUS
 10
121.4899925073
 20
41.3364463806
 11
117.0899925073
 21
41.3364463806
  0
LINE
  5
41C
100
AcDbEntity
  8
0
100
AcDbLine
 62
7
  6
CONTINUOUS
 10
127.2899925073
 20
41.8171064468
 11
124.712633262
 21
41.8171064468
  0
LINE
  5
41D
100
AcDbEntity
  8
0
100
AcDbLine
 62
7
  6
CONTINUOUS
 10
116.8899925073
 20
41.8171064468
 11
114.4635541462
 21
41.8171064468
  0
LINE
  5
41E
100
AcDbEntity
  8
0
100
AcDbLine
 62
7
  6
CONTINUOUS
 10
97.2847551264
 20
41.8171064468
 11
92.218419632
 21
41.8171064468
  0
LINE
  5
41F
100
AcDbEntity
  8
0
100
AcDbLine
 62
7
  6
CONTINUOUS
 10
121.4899925073
 20
41.8364463806
 11
117.0899925073
 21
41.8364463806
  0
LINE
  5
420
100
AcDbEntity
  8
BEZUGSACHSEN
100
AcDbLine
 62
7
  6
CONTINUOUS
 10
97.2846952388
 20
41.8171065123
 11
97.284755316
 21
41.8171064468
  0
LWPOLYLINE
  5
421
100
AcDbEntity
  8
RUNDUNGEN
100
AcDbPolyline
 62
7
  6
CONTINUOUS
 90
18
 70
0
 10
97.2846944065
 20
41.817106553
 10
97.4315951593
 20
41.8237160163
 10
97.5790230644
 20
41.8438585405
 10
97.7242042794
 20
41.8774852725
 10
97.8657923976
 20
41.9243861398
 10
98.0021739422
 20
41.9840489034
 10
98.1321170656
 20
42.0558735821
 10
98.2546717678
 20
42.1392760156
 10
98.3687572415
 20
42.2334693878
 10
98.4734181075
 20
42.3375912851
 10
98.5678320712
 20
42.4507471617
 10
98.6512396497
 20
42.5719556032
 10
98.722951894
 20
42.7001326585
 10
98.7824137004
 20
42.834192895
 10
98.8291826747
 20
42.9730754387
 10
98.8628751571
 20
43.1156217099
 10
98.8832000897
 20
43.2605759117
 10
98.8899925073
 20
43.4066919954
  0
LINE
  5
422
100
AcDbEntity
  8
0
100
AcDbLine
 62
7
  6
CONTINUOUS
 10
89.3899925073
 20
43.8171064468
 11
88.8899925073
 21
43.8171064468
  0
LWPOLYLINE
  5
423
100
AcDbEntity
  8
RUNDUNGEN
100
AcDbPolyline
 62
7
  6
CONTINUOUS
 90
21
 70
0
 10
92.0911943597
 20
48.3894389691
 10
92.0781039548
 20
48.3950234303
 10
92.0711422145
 20
48.3982436305
 10
92.0740369781
 20
48.3967613072
 10
92.0847385813
 20
48.3909731683
 10
92.1030575742
 20
48.3805182991
 10
92.1291609575
 20
48.3648840727
 10
92.1616137919
 20
48.3446031519
 10
92.2002607763
 20
48.3195372991
 10
92.2453076676
 20
48.2893389888
 10
92.2959299384
 20
48.2543873064
 10
92.3520775311
 20
48.2145865827
 10
92.4138706501
 20
48.1697338121
 10
92.4807634007
 20
48.120131181
 10
92.5527273331
 20
48.0657291762
 10
92.6298323854
 20
48.0064082827
 10
92.7116775602
 20
47.9424224684
 10
92.7982224979
 20
47.8737617344
 10
92.8895046332
 20
47.8003586541
 10
92.9852264622
 20
47.7224220874
 10
93.0852701195
 20
47.6400263383
  0
LINE
  5
424
100
AcDbEntity
  8
BEZUGSACHSEN
100
AcDbLine
 62
7
  6
CONTINUOUS
 10
98.8899925073
 20
63.2275216839
 11
98.8899925073
 21
59.8171064468
  0
LINE
  5
425
100
AcDbEntity
  8
BEZUGSACHSEN
100
AcDbLine
 62
7
  6
CONTINUOUS
 10
98.8899925073
 20
46.8171064468
 11
98.8899925073
 21
43.4066912098
  0
LINE
  5
426
100
AcDbEntity
  8
0
100
AcDbLine
 62
7
  6
CONTINUOUS
 10
121.6066591044
 20
44.3171064468
 11
118.6899925073
 21
44.3171064468
  0
LINE
  5
427
100
AcDbEntity
  8
0
100
AcDbLine
 62
7
  6
CONTINUOUS
 10
81.3899925073
 20
44.3171064468
 11
87.8899925073
 21
44.3171064468
  0
LINE
  5
428
100
AcDbEntity
  8
_30_VOLUMEN
100
AcDbLine
 62
7
  6
CONTINUOUS
 10
113.9940803305
 20
44.8171064468
 11
127.2899925073
 21
44.8171064468
  0
LINE
  5
429
100
AcDbEntity
  8
_30_VOLUMEN
100
AcDbLine
 62
7
  6
CONTINUOUS
 10
122.0899925073
 20
45.0482486927
 11
127.2899925073
 21
45.0482486927
  0
LWPOLYLINE
  5
42A
100
AcDbEntity
  8
BEZUGSACHSEN
100
AcDbPolyline
 62
7
  6
CONTINUOUS
 90
18
 70
0
 10
98.8899925073
 20
63.2275208969
 10
98.8832634944
 20
63.3729547286
 10
98.863127405
 20
63.5172453275
 10
98.8297455532
 20
63.6591638259
 10
98.7834029263
 20
63.7974717403
 10
98.7244756556
 20
63.9310254316
 10
98.6533981096
 20
64.0587766952
 10
98.5707153421
 20
64.1796533812
 10
98.4771036239
 20
64.2925847739
 10
98.373308902
 20
64.3966003859
 10
98.2601393424
 20
64.4908146821
 10
98.1385335164
 20
64.5743735421
 10
98.0095530004
 20
64.6464965617
 10
97.8741342575
 20
64.7066017663
 10
97.7334872116
 20
64.7540918893
 10
97.5891926074
 20
64.7884534452
 10
97.4425747994
 20
64.8094681557
 10
97.2846972622
 20
64.8171063466
  0
LINE
  5
42B
100
AcDbEntity
  8
FASEN
100
AcDbLine
 62
7
  6
CONTINUOUS
 10
88.3899925073
 20
44.8171064468
 11
87.8899925073
 21
44.3171064468
  0
LWPOLYLINE
  5
42C
100
AcDbEntity
  8
RUNDUNGEN
100
AcDbPolyline
 62
7
  6
CONTINUOUS
 90
9
 70
0
 10
120.5441489689
 20
48.209924443
 10
120.6584522393
 20
48.2233229417
 10
120.8792057829
 20
48.2466354815
 10
121.1005376899
 20
48.2666406158
 10
121.3224106612
 20
48.2833302491
 10
121.5447960889
 20
48.2966941492
 10
121.7676706279
 20
48.3067212392
 10
121.9910066226
 20
48.3133997237
 10
122.2147683439
 20
48.3167147794
  0
LWPOLYLINE
  5
42D
100
AcDbEntity
  8
RUNDUNGEN
100
AcDbPolyline
 62
7
  6
CONTINUOUS
 90
11
 70
0
 10
116.9931772401
 20
46.8171134097
 10
117.0655186482
 20
46.8186756607
 10
117.2160298689
 20
46.8309473875
 10
117.3684836719
 20
46.8558211365
 10
117.5219181218
 20
46.8936655642
 10
117.6752561789
 20
46.9446546554
 10
117.8283508025
 20
47.0091718643
 10
117.9807333621
 20
47.0874997597
 10
118.1316578765
 20
47.179672133
 10
118.2812502108
 20
47.286178394
 10
118.4299955954
 20
47.4079629757
  0
LINE
  5
42E
100
AcDbEntity
  8
_30_VOLUMEN
100
AcDbLine
 62
7
  6
CONTINUOUS
 10
127.2899925073
 20
46.0671064468
 11
127.5899925073
 21
46.0671064468
  0
LINE
  5
42F
100
AcDbEntity
  8
RUNDUNGEN
100
AcDbLine
 62
7
  6
CONTINUOUS
 10
116.9931772437
 20
46.8171120575
 11
112.3126087966
 21
46.8171064468
  0
LINE
  5
430
100
AcDbEntity
  8
_30_VOLUMEN
100
AcDbLine
 62
7
  6
CONTINUOUS
 10
99.467376218
 20
46.8171064468
 11
112.3126087966
 21
46.8171064468
  0
LINE
  5
431
100
AcDbEntity
  8
0
100
AcDbLine
 62
7
  6
CONTINUOUS
 10
119.727206905
 20
47.8171064468
 11
119.0070369905
 21
47.8171064468
  0
LINE
  5
432
100
AcDbEntity
  8
RUNDUNGEN
100
AcDbLine
 62
7
  6
CONTINUOUS
 10
94.786840246
 20
46.8171119631
 11
99.467376218
 21
46.8171064468
  0
LINE
  5
433
100
AcDbEntity
  8
FASEN
100
AcDbLine
 62
7
  6
CONTINUOUS
 10
88.3899925073
 20
61.8171064468
 11
87.8899925073
 21
62.3171064468
  0
LINE
  5
434
100
AcDbEntity
  8
_30_VOLUMEN
100
AcDbLine
 62
7
  6
CONTINUOUS
 10
127.2899925073
 20
48.2171064468
 11
122.0899925073
 21
48.2171064468
  0
LINE
  5
435
100
AcDbEntity
  8
_30_VOLUMEN
100
AcDbLine
 62
7
  6
CONTINUOUS
 10
127.5899925073
 20
48.3171064468
 11
123.8541739218
 21
48.3171064468
  0
LINE
  5
436
100
AcDbEntity
  8
RUNDUNGEN
100
AcDbLine
 62
7
  6
CONTINUOUS
 10
123.8541739218
 20
48.3171064468
 11
122.2147683439
 21
48.3167147794
  0
LINE
  5
437
100
AcDbEntity
  8
_30_VOLUMEN
100
AcDbLine
 62
7
  6
CONTINUOUS
 10
127.6899925073
 20
48.3171064468
 11
130.5899925073
 21
48.3171064468
  0
LINE
  5
438
100
AcDbEntity
  8
_30_VOLUMEN
100
AcDbLine
 62
7
  6
CONTINUOUS
 10
103.3899925073
 20
46.8171175048
 11
103.3899925073
 21
59.8170953887
  0
LINE
  5
439
100
AcDbEntity
  8
0
100
AcDbLine
 62
7
  6
CONTINUOUS
 10
127.5899925073
 20
49.9171064468
 11
127.6899925073
 21
49.9171064468
  0
LINE
  5
43A
100
AcDbEntity
  8
_26_BEZUGSACHSEN
100
AcDbLine
 62
7
  6
CONTINUOUS
 10
108.3899925073
 20
50.8171064468
 11
103.3899925073
 21
50.8171064468
  0
LINE
  5
43B
100
AcDbEntity
  8
_30_VOLUMEN
100
AcDbLine
 62
7
  6
CONTINUOUS
 10
127.5899925073
 20
50.8671064468
 11
127.6899925073
 21
50.8671064468
  0
LINE
  5
43C
100
AcDbEntity
  8
_30_VOLUMEN
100
AcDbLine
 62
7
  6
CONTINUOUS
 10
125.8831810722
 20
51.3171064468
 11
127.5899925073
 21
51.3171064468
  0
LINE
  5
43D
100
AcDbEntity
  8
_30_VOLUMEN
100
AcDbLine
 62
7
  6
CONTINUOUS
 10
127.6899925073
 20
53.3171064468
 11
130.5899925073
 21
53.3171064468
  0
LINE
  5
43E
100
AcDbEntity
  8
_30_VOLUMEN
100
AcDbLine
 62
7
  6
CONTINUOUS
 10
108.3899925073
 20
46.817118364
 11
108.3899925073
 21
59.8170945296
  0
LINE
  5
43F
100
AcDbEntity
  8
_30_VOLUMEN
100
AcDbLine
 62
7
  6
CONTINUOUS
 10
127.5899925073
 20
55.3171064468
 11
125.8831810722
 21
55.3171064468
  0
LINE
  5
440
100
AcDbEntity
  8
_30_VOLUMEN
100
AcDbLine
 62
7
  6
CONTINUOUS
 10
127.5899925073
 20
55.7671064468
 11
127.6899925073
 21
55.7671064468
  0
LINE
  5
441
100
AcDbEntity
  8
_26_BEZUGSACHSEN
100
AcDbLine
 62
7
  6
CONTINUOUS
 10
108.3899925073
 20
55.8171064468
 11
103.3899925073
 21
55.8171064468
  0
LINE
  5
442
100
AcDbEntity
  8
0
100
AcDbLine
 62
7
  6
CONTINUOUS
 10
127.5899925073
 20
56.7171064468
 11
127.6899925073
 21
56.7171064468
  0
LWPOLYLINE
  5
443
100
AcDbEntity
  8
RUNDUNGEN
100
AcDbPolyline
 62
7
  6
CONTINUOUS
 90
18
 70
0
 10
112.8899925073
 20
45.9205028865
 10
112.8950220425
 20
45.8153026858
 10
112.9100700894
 20
45.7110313045
 10
112.9350002114
 20
45.6086652543
 10
112.9695847686
 20
45.5091413294
 10
113.0135088897
 20
45.4133664424
 10
113.0663752068
 20
45.3222099082
 10
113.1277028742
 20
45.2365045847
 10
113.1969332797
 20
45.1570339583
 10
113.2734398736
 20
45.0845205754
 10
113.3565264253
 20
45.0196281506
 10
113.4454357974
 20
44.9629511761
 10
113.5393624513
 20
44.9150065761
 10
113.6374506038
 20
44.8762348938
 10
113.7388056603
 20
44.8469928249
 10
113.842508822
 20
44.8275487528
 10
113.9476164489
 20
44.8180834463
 10
113.9940842863
 20
44.8171064588
  0
LWPOLYLINE
  5
444
100
AcDbEntity
  8
RUNDUNGEN
100
AcDbPolyline
 62
7
  6
CONTINUOUS
 90
18
 70
0
 10
112.8899925073
 20
43.3767672249
 10
112.8966393846
 20
43.2335219911
 10
112.9165286823
 20
43.0914206249
 10
112.9494990563
 20
42.951680368
 10
112.9952677026
 20
42.8155242403
 10
113.0534590961
 20
42.6840887301
 10
113.12363418
 20
42.5584220926
 10
113.2052463406
 20
42.4395854758
 10
113.2976204535
 20
42.3286350723
 10
113.4000060075
 20
42.2265335868
 10
113.5115935724
 20
42.1341532568
 10
113.6314479038
 20
42.0523311409
 10
113.7585090856
 20
41.9818324219
 10
113.8918451238
 20
41.9232232626
 10
114.0302509842
 20
41.8770844402
 10
114.172149422
 20
41.8439117378
 10
114.3162233393
 20
41.823905378
 10
114.4636069519
 20
41.817106648
  0
LINE
  5
445
100
AcDbEntity
  8
_30_VOLUMEN
100
AcDbLine
 62
7
  6
CONTINUOUS
 10
123.8541739218
 20
58.3171064468
 11
127.5899925073
 21
58.3171064468
  0
LINE
  5
446
100
AcDbEntity
  8
_30_VOLUMEN
100
AcDbLine
 62
7
  6
CONTINUOUS
 10
127.6899925073
 20
58.3171064468
 11
130.5899925073
 21
58.3171064468
  0
LINE
  5
447
100
AcDbEntity
  8
_30_VOLUMEN
100
AcDbLine
 62
7
  6
CONTINUOUS
 10
127.2899925073
 20
58.4171064468
 11
122.0899925073
 21
58.4171064468
  0
LWPOLYLINE
  5
448
100
AcDbEntity
  8
BEZUGSACHSEN
100
AcDbPolyline
 62
7
  6
CONTINUOUS
 90
10
 70
0
 10
123.8541739218
 20
58.3171064468
 10
122.2147683439
 20
58.3174981142
 10
121.9910066226
 20
58.3208131698
 10
121.7676706279
 20
58.3274916544
 10
121.5447960889
 20
58.3375187444
 10
121.3224106612
 20
58.3508826444
 10
121.1005376899
 20
58.3675722777
 10
120.8792057829
 20
58.387577412
 10
120.6584522393
 20
58.4108899518
 10
120.5444589174
 20
58.424249404
  0
LINE
  5
449
100
AcDbEntity
  8
RUNDUNGEN
100
AcDbLine
 62
7
  6
CONTINUOUS
 10
112.8899925073
 20
46.8171064468
 11
112.8899925073
 21
45.9207121482
  0
LINE
  5
44A
100
AcDbEntity
  8
RUNDUNGEN
100
AcDbLine
 62
7
  6
CONTINUOUS
 10
112.8899925073
 20
45.8418851422
 11
112.8899925073
 21
45.1080008155
  0
LINE
  5
44B
100
AcDbEntity
  8
BEZUGSACHSEN
100
AcDbLine
 62
7
  6
CONTINUOUS
 10
112.8899925073
 20
45.1080008155
 11
112.8899925073
 21
43.3767660296
  0
LINE
  5
44C
100
AcDbEntity
  8
BEZUGSACHSEN
100
AcDbLine
 62
7
  6
CONTINUOUS
 10
112.8899925073
 20
45.8245816671
 11
112.8899925073
 21
45.9205028865
  0
LINE
  5
44D
100
AcDbEntity
  8
BEZUGSACHSEN
100
AcDbLine
 62
7
  6
CONTINUOUS
 10
112.8899925073
 20
45.9461791439
 11
112.8899925073
 21
46.1963727756
  0
LINE
  5
44E
100
AcDbEntity
  8
BEZUGSACHSEN
100
AcDbLine
 62
7
  6
CONTINUOUS
 10
112.8899925073
 20
59.8171064468
 11
112.8899925073
 21
63.2574468614
  0
LWPOLYLINE
  5
44F
100
AcDbEntity
  8
BEZUGSACHSEN
100
AcDbPolyline
 62
7
  6
CONTINUOUS
 90
11
 70
0
 10
94.7868006618
 20
59.8170999048
 10
94.7144697061
 20
59.8155378483
 10
94.5639587127
 20
59.8032659516
 10
94.411506111
 20
59.7783926475
 10
94.2580723129
 20
59.7405488247
 10
94.1047332316
 20
59.6895600017
 10
93.951635543
 20
59.625041694
 10
93.7992491146
 20
59.5467116057
 10
93.6483226579
 20
59.4545377798
 10
93.4987299625
 20
59.3480308139
 10
93.3499861614
 20
59.2262472834
  0
LINE
  5
450
100
AcDbEntity
  8
BEZUGSACHSEN
100
AcDbLine
 62
7
  6
CONTINUOUS
 10
94.7868006594
 20
59.8171008153
 11
99.467376218
 21
59.8171064468
  0
LINE
  5
451
100
AcDbEntity
  8
_30_VOLUMEN
100
AcDbLine
 62
7
  6
CONTINUOUS
 10
99.467376218
 20
59.8171064468
 11
112.3126087966
 21
59.8171064468
  0
LINE
  5
452
100
AcDbEntity
  8
_30_VOLUMEN
100
AcDbLine
 62
7
  6
CONTINUOUS
 10
127.2899925073
 20
60.5671064468
 11
127.5899925073
 21
60.5671064468
  0
LINE
  5
453
100
AcDbEntity
  8
BEZUGSACHSEN
100
AcDbLine
 62
7
  6
CONTINUOUS
 10
112.3126087966
 20
59.8171064468
 11
116.9931376424
 21
59.8171009511
  0
LWPOLYLINE
  5
454
100
AcDbEntity
  8
BEZUGSACHSEN
100
AcDbPolyline
 62
7
  6
CONTINUOUS
 90
9
 70
0
 10
120.5441468526
 20
58.4242887059
 10
120.3283613879
 20
58.4529936092
 10
120.0167791241
 20
58.5048137751
 10
119.7365149144
 20
58.5646016257
 10
119.4926799167
 20
58.629868352
 10
119.2780782919
 20
58.700674296
 10
119.0777335172
 20
58.7817410947
 10
118.8894705365
 20
58.8758869442
 10
118.7190936184
 20
58.982126186
  0
LWPOLYLINE
  5
455
100
AcDbEntity
  8
BEZUGSACHSEN
100
AcDbPolyline
 62
7
  6
CONTINUOUS
 90
15
 70
0
 10
113.9940860211
 20
61.8171064161
 10
113.8937570767
 20
61.8125441136
 10
113.7694263916
 20
61.7940326508
 10
113.6480331243
 20
61.7615272861
 10
113.5311444269
 20
61.7154543575
 10
113.4202638942
 20
61.6564121069
 10
113.3168261942
 20
61.5851696089
 10
113.2221678992
 20
61.5026538155
 10
113.1375055031
 20
61.4099308178
 10
113.0639335545
 20
61.3082043325
 10
113.0024016498
 20
61.1987939097
 10
112.9536998484
 20
61.0831095502
 10
112.9184571825
 20
60.9626474497
 10
112.8971300094
 20
60.8389718932
 10
112.8899925073
 20
60.713710007
  0
LINE
  5
456
100
AcDbEntity
  8
_30_VOLUMEN
100
AcDbLine
 62
7
  6
CONTINUOUS
 10
127.2899925073
 20
61.5859642008
 11
122.0899925073
 21
61.5859642008
  0
LINE
  5
457
100
AcDbEntity
  8
_30_VOLUMEN
100
AcDbLine
 62
7
  6
CONTINUOUS
 10
113.9940803305
 20
61.8171064468
 11
127.2899925073
 21
61.8171064468
  0
LINE
  5
458
100
AcDbEntity
  8
0
100
AcDbLine
 62
7
  6
CONTINUOUS
 10
81.3899925073
 20
62.3171064468
 11
87.8899925073
 21
62.3171064468
  0
LINE
  5
459
100
AcDbEntity
  8
BEZUGSACHSEN
100
AcDbLine
 62
7
  6
CONTINUOUS
 10
88.8899925073
 20
62.8171064468
 11
89.3899925073
 21
62.8171064468
  0
LINE
  5
45A
100
AcDbEntity
  8
0
100
AcDbLine
 62
7
  6
CONTINUOUS
 10
116.8899925073
 20
41.826578947
 11
116.8899925073
 21
41.326578947
  0
LINE
  5
45B
100
AcDbEntity
  8
BEZUGSACHSEN
100
AcDbLine
 62
7
  6
CONTINUOUS
 10
116.8899925073
 20
64.8076339465
 11
116.8899925073
 21
65.3076339465
  0
LINE
  5
45C
100
AcDbEntity
  8
BEZUGSACHSEN
100
AcDbLine
 62
7
  6
CONTINUOUS
 10
117.8899925073
 20
58.3171064468
 11
117.8899925073
 21
48.3171064468
  0
LWPOLYLINE
  5
45D
100
AcDbEntity
  8
BEZUGSACHSEN
100
AcDbPolyline
 62
7
  6
CONTINUOUS
 90
18
 70
0
 10
114.463604288
 20
64.8171062513
 10
114.3058570142
 20
64.8093138335
 10
114.1625447601
 20
64.7884858828
 10
114.0214811173
 20
64.7546206913
 10
113.8839622953
 20
64.7079264444
 10
113.7515344753
 20
64.648900228
 10
113.6253819503
 20
64.5781204222
 10
113.5064238696
 20
64.496151304
 10
113.395701827
 20
64.4037520785
 10
113.2941351699
 20
64.3017521319
 10
113.2025198249
 20
64.1910152523
 10
113.1215932324
 20
64.0724936515
 10
113.0520185229
 20
63.9472310612
 10
112.9943327502
 20
63.816276064
 10
112.9489672211
 20
63.6806645652
 10
112.9162904024
 20
63.5415187747
 10
112.8965795045
 20
63.4000454686
 10
112.8899925073
 20
63.257445667
  0
LINE
  5
45E
100
AcDbEntity
  8
BEZUGSACHSEN
100
AcDbLine
 62
7
  6
CONTINUOUS
 10
97.2846980926
 20
64.8171063874
 11
97.284755316
 21
64.8171064468
  0
LINE
  5
45F
100
AcDbEntity
  8
BEZUGSACHSEN
100
AcDbLine
 62
7
  6
CONTINUOUS
 10
121.4899925073
 20
64.797766513
 11
117.0899925073
 21
64.797766513
  0
LINE
  5
460
100
AcDbEntity
  8
0
100
AcDbLine
 62
7
  6
CONTINUOUS
 10
127.2899925073
 20
64.8171064468
 11
124.712633262
 21
64.8171064468
  0
LINE
  5
461
100
AcDbEntity
  8
0
100
AcDbLine
 62
7
  6
CONTINUOUS
 10
116.8899925073
 20
64.8171064468
 11
114.4635541462
 21
64.8171064468
  0
LINE
  5
462
100
AcDbEntity
  8
0
100
AcDbLine
 62
7
  6
CONTINUOUS
 10
97.2847551264
 20
64.8171064468
 11
92.218419632
 21
64.8171064468
  0
LINE
  5
463
100
AcDbEntity
  8
BEZUGSACHSEN
100
AcDbLine
 62
7
  6
CONTINUOUS
 10
114.4635528585
 20
64.8171064468
 11
114.4636038249
 21
64.8171063945
  0
LINE
  5
464
100
AcDbEntity
  8
0
100
AcDbLine
 62
7
  6
CONTINUOUS
 10
118.6899925073
 20
44.8171064468
 11
118.6899925073
 21
44.3171064468
  0
LINE
  5
465
100
AcDbEntity
  8
BEZUGSACHSEN
100
AcDbLine
 62
7
  6
CONTINUOUS
 10
118.9612181562
 20
48.7296457528
 11
118.9612181562
 21
57.9045671407
  0
LINE
  5
466
100
AcDbEntity
  8
0
100
AcDbLine
 62
7
  6
CONTINUOUS
 10
119.727206905
 20
48.0671087722
 11
119.727206905
 21
47.8171064468
  0
LINE
  5
467
100
AcDbEntity
  8
RUNDUNGEN
100
AcDbLine
 62
7
  6
CONTINUOUS
 10
118.5291215605
 20
47.4984502865
 11
118.5293377214
 21
47.4986560476
  0
LWPOLYLINE
  5
468
100
AcDbEntity
  8
RUNDUNGEN
100
AcDbPolyline
 62
7
  6
CONTINUOUS
 90
6
 70
0
 10
118.529338288
 20
47.498655453
 10
118.5397370588
 20
47.5084456863
 10
118.5536497366
 20
47.5212067014
 10
118.567513852
 20
47.5335569302
 10
118.581319116
 20
47.5455096526
 10
118.5915462478
 20
47.5541523477
  0
LINE
  5
469
100
AcDbEntity
  8
RUNDUNGEN
100
AcDbLine
 62
7
  6
CONTINUOUS
 10
118.4299955954
 20
47.4079629757
 11
118.5291215605
 21
47.4984502865
  0
LINE
  5
46A
100
AcDbEntity
  8
RUNDUNGEN
100
AcDbLine
 62
7
  6
CONTINUOUS
 10
118.591530273
 20
47.5541411855
 11
118.6158486789
 21
47.5744597857
  0
LWPOLYLINE
  5
46B
100
AcDbEntity
  8
RUNDUNGEN
100
AcDbPolyline
 62
7
  6
CONTINUOUS
 90
10
 70
0
 10
118.609609739
 20
47.5692776882
 10
118.7194039292
 20
47.6523031627
 10
118.8900425618
 20
47.7586449401
 10
119.0784874919
 20
47.8528098902
 10
119.2788466256
 20
47.9338189349
 10
119.4932982433
 20
48.0045287577
 10
119.7369571905
 20
48.0697173674
 10
120.0170837169
 20
48.1294566753
 10
120.3285167507
 20
48.1812418872
 10
120.5441489689
 20
48.209924443
  0
LINE
  5
46C
100
AcDbEntity
  8
0
100
AcDbLine
 62
7
  6
CONTINUOUS
 10
130.5899925073
 20
49.4119600251
 11
132.0610025789
 21
49.9473639055
  0
LINE
  5
46D
100
AcDbEntity
  8
BEZUGSACHSEN
100
AcDbLine
 62
7
  6
CONTINUOUS
 10
121.4899925073
 20
65.297766513
 11
117.0899925073
 21
65.297766513
  0
LINE
  5
46E
100
AcDbEntity
  8
BEZUGSACHSEN
100
AcDbLine
 62
7
  6
CONTINUOUS
 10
116.8899925073
 20
65.3171064468
 11
124.61863305
 21
65.3171064468
  0
LINE
  5
46F
100
AcDbEntity
  8
0
100
AcDbLine
 62
7
  6
CONTINUOUS
 10
130.5899925073
 20
57.2222528685
 11
132.0610025789
 21
56.6868489881
  0
LINE
  5
470
100
AcDbEntity
  8
BEZUGSACHSEN
100
AcDbLine
 62
7
  6
CONTINUOUS
 10
118.7190936184
 20
58.982126186
 11
118.6095981406
 21
59.0649447221
  0
LWPOLYLINE
  5
471
100
AcDbEntity
  8
BEZUGSACHSEN
100
AcDbPolyline
 62
7
  6
CONTINUOUS
 90
11
 70
0
 10
118.4294970611
 20
59.226685663
 10
118.2803831504
 20
59.348696963
 10
118.1305686427
 20
59.4552599071
 10
117.979618744
 20
59.5473388756
 10
117.8273799267
 20
59.6254942426
 10
117.6744915497
 20
59.689845886
 10
117.5214467419
 20
59.7406835654
 10
117.3683752491
 20
59.7784139299
 10
117.2161720973
 20
59.8032481496
 10
117.0657328023
 20
59.815528443
 10
116.9931376388
 20
59.8170995988
  0
LINE
  5
472
100
AcDbEntity
  8
BEZUGSACHSEN
100
AcDbLine
 62
7
  6
CONTINUOUS
 10
118.616149751
 20
59.0595018469
 11
118.591530273
 21
59.080071708
  0
LWPOLYLINE
  5
473
100
AcDbEntity
  8
BEZUGSACHSEN
100
AcDbPolyline
 62
7
  6
CONTINUOUS
 90
5
 70
0
 10
118.5915462478
 20
59.0800605459
 10
118.581319116
 20
59.088703241
 10
118.567513852
 20
59.1006559634
 10
118.5536497366
 20
59.1130061921
 10
118.5397370588
 20
59.1257672073
  0
LINE
  5
474
100
AcDbEntity
  8
BEZUGSACHSEN
100
AcDbLine
 62
7
  6
CONTINUOUS
 10
118.5291016144
 20
59.1357815872
 11
118.4294970611
 21
59.226685663
  0
LINE
  5
475
100
AcDbEntity
  8
BEZUGSACHSEN
100
AcDbLine
 62
7
  6
CONTINUOUS
 10
118.5397370588
 20
59.1257672073
 11
118.529338288
 21
59.1355574406
  0
LINE
  5
476
100
AcDbEntity
  8
BEZUGSACHSEN
100
AcDbLine
 62
7
  6
CONTINUOUS
 10
118.5291016144
 20
59.1357815872
 11
118.5293377214
 21
59.135556846
  0
LINE
  5
477
100
AcDbEntity
  8
0
100
AcDbLine
 62
7
  6
CONTINUOUS
 10
120.4399925073
 20
44.8171064468
 11
120.4399925073
 21
44.3171064468
  0
LINE
  5
478
100
AcDbEntity
  8
0
100
AcDbLine
 62
7
  6
CONTINUOUS
 10
120.8774925073
 20
44.8171064468
 11
120.8774925073
 21
44.3171064468
  0
LINE
  5
479
100
AcDbEntity
  8
0
100
AcDbLine
 62
7
  6
CONTINUOUS
 10
121.6066591044
 20
44.8171064468
 11
121.6066591044
 21
44.3171064468
  0
LINE
  5
47A
100
AcDbEntity
  8
0
100
AcDbLine
 62
7
  6
CONTINUOUS
 10
121.6899925073
 20
41.3498099524
 11
121.6899925073
 21
41.934523887
  0
LINE
  5
47B
100
AcDbEntity
  8
BEZUGSACHSEN
100
AcDbLine
 62
7
  6
CONTINUOUS
 10
121.6899925073
 20
64.6996890066
 11
121.6899925073
 21
65.2844029411
  0
LINE
  5
47C
100
AcDbEntity
  8
_30_VOLUMEN
100
AcDbLine
 62
7
  6
CONTINUOUS
 10
122.0899925073
 20
45.0482486927
 11
122.0899925073
 21
48.314866211
  0
LINE
  5
47D
100
AcDbEntity
  8
_30_VOLUMEN
100
AcDbLine
 62
7
  6
CONTINUOUS
 10
122.0899925073
 20
58.3193466826
 11
122.0899925073
 21
61.5859642008
  0
LINE
  5
47E
100
AcDbEntity
  8
_30_VOLUMEN
100
AcDbLine
 62
7
  6
CONTINUOUS
 10
122.1899925073
 20
58.4171064468
 11
122.1899925073
 21
58.3325094343
  0
LINE
  5
47F
100
AcDbEntity
  8
_30_VOLUMEN
100
AcDbLine
 62
7
  6
CONTINUOUS
 10
122.1899925073
 20
48.3163477225
 11
122.1899925073
 21
48.2171064468
  0
LINE
  5
480
100
AcDbEntity
  8
BEZUGSACHSEN
100
AcDbLine
 62
7
  6
CONTINUOUS
 10
124.712633262
 20
65.3171064467
 11
124.712633262
 21
64.8171064468
  0
LINE
  5
481
100
AcDbEntity
  8
0
100
AcDbLine
 62
7
  6
CONTINUOUS
 10
124.712633262
 20
41.8171064468
 11
124.712633262
 21
41.3171064468
  0
LINE
  5
482
100
AcDbEntity
  8
_30_VOLUMEN
100
AcDbLine
 62
7
  6
CONTINUOUS
 10
125.8831810722
 20
49.8171064468
 11
125.8831810722
 21
56.8171064468
  0
LINE
  5
483
100
AcDbEntity
  8
_30_VOLUMEN
100
AcDbLine
 62
7
  6
CONTINUOUS
 10
127.2899925073
 20
41.8171064512
 11
127.2899925073
 21
48.2171064468
  0
LINE
  5
484
100
AcDbEntity
  8
_30_VOLUMEN
100
AcDbLine
 62
7
  6
CONTINUOUS
 10
127.2899925073
 20
58.4171064468
 11
127.2899925073
 21
64.8171064423
  0
LINE
  5
485
100
AcDbEntity
  8
_30_VOLUMEN
100
AcDbLine
 62
7
  6
CONTINUOUS
 10
127.5899925073
 20
60.5671064428
 11
127.5899925073
 21
46.0671064508
  0
LINE
  5
486
100
AcDbEntity
  8
_30_VOLUMEN
100
AcDbLine
 62
7
  6
CONTINUOUS
 10
127.6899925073
 20
58.3171064468
 11
127.6899925073
 21
48.3171064468
  0
LINE
  5
487
100
AcDbEntity
  8
_30_VOLUMEN
100
AcDbLine
 62
7
  6
CONTINUOUS
 10
130.5899925073
 20
58.3171064468
 11
130.5899925073
 21
48.3171064468
  0
LINE
  5
488
100
AcDbEntity
  8
RUNDUNGEN
100
AcDbLine
 62
7
  6
CONTINUOUS
 10
132.3899925073
 20
56.2170026777
 11
132.3899925073
 21
50.4172102159
  0
ARC
  5
489
100
AcDbEntity
  8
BEZUGSACHSEN
100
AcDbCircle
 62
7
  6
CONTINUOUS
 10
92.218419632
 20
110.6030734633
 40
1.5
100
AcDbArc
 50
199.4712206345
 51
270.0
  0
ARC
  5
48A
100
AcDbEntity
  8
_30_VOLUMEN
100
AcDbCircle
 62
7
  6
CONTINUOUS
 10
88.8899925073
 20
128.6030734633
 40
1.5
100
AcDbArc
 50
90.0
 51
109.4712206345
  0
ARC
  5
48B
100
AcDbEntity
  8
_30_VOLUMEN
100
AcDbCircle
 62
7
  6
CONTINUOUS
 10
88.8899925073
 20
112.6030734633
 40
1.5
100
AcDbArc
 50
250.5287793655
 51
270.0
  0
ARC
  5
48C
100
AcDbEntity
  8
BEZUGSACHSEN
100
AcDbCircle
 62
7
  6
CONTINUOUS
 10
89.3899925073
 20
109.6030734633
 40
1.5
100
AcDbArc
 50
19.4712206345
 51
90.0
  0
ARC
  5
48D
100
AcDbEntity
  8
BEZUGSACHSEN
100
AcDbCircle
 62
7
  6
CONTINUOUS
 10
89.3899925073
 20
131.6030734633
 40
1.5
100
AcDbArc
 50
270.0
 51
360.0
  0
ARC
  5
48E
100
AcDbEntity
  8
BEZUGSACHSEN
100
AcDbCircle
 62
7
  6
CONTINUOUS
 10
105.8899925073
 20
148.6030734633
 40
15.0
100
AcDbArc
 50
150.0147407828
 51
180.0
  0
ARC
  5
48F
100
AcDbEntity
  8
RUNDUNGEN
100
AcDbCircle
 62
7
  6
CONTINUOUS
 10
105.8899925073
 20
148.6030734633
 40
15.0
100
AcDbArc
 50
150.0147407828
 51
180.0
  0
ARC
  5
490
100
AcDbEntity
  8
RUNDUNGEN
100
AcDbCircle
 62
7
  6
CONTINUOUS
 10
105.8899925073
 20
148.6030734633
 40
15.0
100
AcDbArc
 50
29.3764454498
 51
29.5917439712
  0
ARC
  5
491
100
AcDbEntity
  8
0
100
AcDbCircle
 62
7
  6
CONTINUOUS
 10
105.8899925073
 20
181.4030734633
 40
8.0
100
AcDbArc
 50
221.5411622626
 51
251.7900431357
  0
ARC
  5
492
100
AcDbEntity
  8
0
100
AcDbCircle
 62
7
  6
CONTINUOUS
 10
105.8899925073
 20
181.4030734633
 40
8.0
100
AcDbArc
 50
288.2099568643
 51
318.4588041653
  0
ARC
  5
493
100
AcDbEntity
  8
RUNDUNGEN
100
AcDbCircle
 62
7
  6
CONTINUOUS
 10
85.8899925073
 20
159.9608901549
 40
8.0
100
AcDbArc
 50
331.1458689605
 51
360.0
  0
ARC
  5
494
100
AcDbEntity
  8
RUNDUNGEN
100
AcDbCircle
 62
7
  6
CONTINUOUS
 10
105.8899925073
 20
148.6030734633
 40
7.0
100
AcDbArc
 50
359.9999967066
 51
180.0000048093
  0
ARC
  5
495
100
AcDbEntity
  8
_30_VOLUMEN
100
AcDbCircle
 62
7
  6
CONTINUOUS
 10
105.8899925073
 20
164.1030734633
 40
2.5
100
AcDbArc
 50
180.1461630518
 51
359.8538641807
  0
ARC
  5
496
100
AcDbEntity
  8
BEZUGSACHSEN
100
AcDbCircle
 62
7
  6
CONTINUOUS
 10
98.7794369236
 20
175.1030726566
 40
1.5000001083
100
AcDbArc
 50
41.5411806206
 51
89.9999980949
  0
ARC
  5
497
100
AcDbEntity
  8
BEZUGSACHSEN
100
AcDbCircle
 62
7
  6
CONTINUOUS
 10
95.3899925073
 20
175.1030734633
 40
1.5
100
AcDbArc
 50
90.0
 51
180.0
  0
ARC
  5
498
100
AcDbEntity
  8
_30_VOLUMEN
100
AcDbCircle
 62
7
  6
CONTINUOUS
 10
124.8899925073
 20
144.2030734633
 40
2.7
100
AcDbArc
 50
0.0
 51
180.0
  0
ARC
  5
499
100
AcDbEntity
  8
RUNDUNGEN
100
AcDbCircle
 62
7
  6
CONTINUOUS
 10
113.9520081559
 20
137.0404178579
 40
1.062655635
100
AcDbArc
 50
90.0135385076
 51
119.5026075312
  0
ARC
  5
49A
100
AcDbEntity
  8
RUNDUNGEN
100
AcDbCircle
 62
7
  6
CONTINUOUS
 10
131.8899925073
 20
123.5029696942
 40
0.5
100
AcDbArc
 50
0.0
 51
69.9999999326
  0
ARC
  5
49B
100
AcDbEntity
  8
RUNDUNGEN
100
AcDbCircle
 62
7
  6
CONTINUOUS
 10
131.8899925073
 20
117.7031772324
 40
0.5
100
AcDbArc
 50
290.0000000674
 51
360.0
  0
ARC
  5
49C
100
AcDbEntity
  8
0
100
AcDbCircle
 62
7
  6
CONTINUOUS
 10
121.8899925073
 20
122.242223935
 40
0.2
100
AcDbArc
 50
57.9946167919
 51
180.0
  0
ARC
  5
49D
100
AcDbEntity
  8
0
100
AcDbCircle
 62
7
  6
CONTINUOUS
 10
121.4899925073
 20
121.4697401299
 40
0.2
100
AcDbArc
 50
270.0
 51
360.0
  0
ARC
  5
49E
100
AcDbEntity
  8
0
100
AcDbCircle
 62
7
  6
CONTINUOUS
 10
117.0899925073
 20
121.0697401299
 40
0.2
100
AcDbArc
 50
90.0
 51
180.0
  0
ARC
  5
49F
100
AcDbEntity
  8
0
100
AcDbCircle
 62
7
  6
CONTINUOUS
 10
117.0899925073
 20
120.1364067966
 40
0.2
100
AcDbArc
 50
180.0
 51
270.0
  0
ARC
  5
4A0
100
AcDbEntity
  8
0
100
AcDbCircle
 62
7
  6
CONTINUOUS
 10
121.4899925073
 20
119.7364067966
 40
0.2
100
AcDbArc
 50
0.0
 51
90.0
  0
ARC
  5
4A1
100
AcDbEntity
  8
0
100
AcDbCircle
 62
7
  6
CONTINUOUS
 10
121.8899925073
 20
118.9639229916
 40
0.2
100
AcDbArc
 50
180.0
 51
302.0053832081
  0
ARC
  5
4A2
100
AcDbEntity
  8
0
100
AcDbCircle
 62
7
  6
CONTINUOUS
 10
124.512633262
 20
120.6030734633
 40
0.2
100
AcDbArc
 50
302.0053832081
 51
57.9946167919
  0
ARC
  5
4A3
100
AcDbEntity
  8
RUNDUNGEN
100
AcDbCircle
 62
7
  6
CONTINUOUS
 10
128.0774925073
 20
161.1711974506
 40
10.5
100
AcDbArc
 50
209.7479457652
 51
230.0025994061
  0
ARC
  5
4A4
100
AcDbEntity
  8
RUNDUNGEN
100
AcDbCircle
 62
7
  6
CONTINUOUS
 10
125.8899925073
 20
159.9608901549
 40
8.0
100
AcDbArc
 50
180.0
 51
209.5920367115
  0
ARC
  5
4A5
100
AcDbEntity
  8
_30_VOLUMEN
100
AcDbCircle
 62
7
  6
CONTINUOUS
 10
122.8899925073
 20
147.9010283813
 40
3.0
100
AcDbArc
 50
3.8616999006
 51
50.0
  0
ARC
  5
4A6
100
AcDbEntity
  8
BEZUGSACHSEN
100
AcDbCircle
 62
7
  6
CONTINUOUS
 10
113.0005479616
 20
175.1030653342
 40
1.5000002871
100
AcDbArc
 50
89.999996964
 51
138.4586067573
  0
ARC
  5
4A7
100
AcDbEntity
  8
BEZUGSACHSEN
100
AcDbCircle
 62
7
  6
CONTINUOUS
 10
116.3899925073
 20
175.1030734633
 40
1.5
100
AcDbArc
 50
0.0
 51
90.0
  0
ARC
  5
4A8
100
AcDbEntity
  8
BEZUGSACHSEN
100
AcDbCircle
 62
7
  6
CONTINUOUS
 10
188.7317578711
 20
120.6030734633
 40
11.5
100
AcDbArc
 50
170.7974211645
 51
189.2025769084
  0
ARC
  5
4A9
100
AcDbEntity
  8
BEZUGSACHSEN
100
AcDbCircle
 62
7
  6
CONTINUOUS
 10
176.7317578711
 20
129.7682248532
 40
4.0
100
AcDbArc
 50
323.7506537848
 51
0.0000464974
  0
ARC
  5
4AA
100
AcDbEntity
  8
BEZUGSACHSEN
100
AcDbCircle
 62
7
  6
CONTINUOUS
 10
180.2317578711
 20
133.2225029274
 40
4.0
100
AcDbArc
 50
305.4959019848
 51
360.0
  0
ARC
  5
4AB
100
AcDbEntity
  8
BEZUGSACHSEN
100
AcDbCircle
 62
7
  6
CONTINUOUS
 10
182.7317578711
 20
139.6030734633
 40
1.5
100
AcDbArc
 50
269.9998961479
 51
0.0001033707
  0
ARC
  5
4AC
100
AcDbEntity
  8
BEZUGSACHSEN
100
AcDbCircle
 62
7
  6
CONTINUOUS
 10
182.2317578711
 20
136.6030734633
 40
1.5
100
AcDbArc
 50
90.0004144516
 51
180.0003664861
  0
ARC
  5
4AD
100
AcDbEntity
  8
BEZUGSACHSEN
100
AcDbCircle
 62
7
  6
CONTINUOUS
 10
174.2317578711
 20
150.3352465868
 40
10.0
100
AcDbArc
 50
0.0
 51
26.7645930647
  0
ARC
  5
4AE
100
AcDbEntity
  8
BEZUGSACHSEN
100
AcDbCircle
 62
7
  6
CONTINUOUS
 10
186.7317578711
 20
156.6400066933
 40
4.0
100
AcDbArc
 50
180.0
 51
206.7677693456
  0
ARC
  5
4AF
100
AcDbEntity
  8
0
100
AcDbCircle
 62
7
  6
CONTINUOUS
 10
189.7317578711
 20
120.6030734633
 40
11.5
100
AcDbArc
 50
350.7974230916
 51
9.2025788355
  0
ARC
  5
4B0
100
AcDbEntity
  8
BEZUGSACHSEN
100
AcDbCircle
 62
7
  6
CONTINUOUS
 10
189.2317578711
 20
120.6030734633
 40
11.5
100
AcDbArc
 50
125.495952294
 51
54.504047706
  0
CIRCLE
  5
4B1
100
AcDbEntity
  8
BEZUGSACHSEN
100
AcDbCircle
 62
7
  6
CONTINUOUS
 10
189.2317578711
 20
120.6030734633
 40
9.5
  0
CIRCLE
  5
4B2
100
AcDbEntity
  8
_30_VOLUMEN
100
AcDbCircle
 62
7
  6
CONTINUOUS
 10
189.2317578711
 20
120.6030734633
 40
9.4142135624
  0
CIRCLE
  5
4B3
100
AcDbEntity
  8
FASEN
100
AcDbCircle
 62
7
  6
CONTINUOUS
 10
189.2317578711
 20
120.6030734633
 40
9.0
  0
CIRCLE
  5
4B4
100
AcDbEntity
  8
FASEN
100
AcDbCircle
 62
7
  6
CONTINUOUS
 10
189.2317578711
 20
120.6030734633
 40
8.5
  0
ARC
  5
4B5
100
AcDbEntity
  8
RUNDUNGEN
100
AcDbCircle
 62
7
  6
CONTINUOUS
 10
201.7317578711
 20
129.7682248532
 40
4.0
100
AcDbArc
 50
179.9999535026
 51
216.2493462152
  0
ARC
  5
4B6
100
AcDbEntity
  8
RUNDUNGEN
100
AcDbCircle
 62
7
  6
CONTINUOUS
 10
198.2317578711
 20
133.2225029274
 40
4.0
100
AcDbArc
 50
180.0
 51
234.5041238255
  0
ARC
  5
4B7
100
AcDbEntity
  8
RUNDUNGEN
100
AcDbCircle
 62
7
  6
CONTINUOUS
 10
195.7317578711
 20
139.6030734633
 40
1.5
100
AcDbArc
 50
228.7993714841
 51
270.0001038521
  0
ARC
  5
4B8
100
AcDbEntity
  8
RUNDUNGEN
100
AcDbCircle
 62
7
  6
CONTINUOUS
 10
196.2317578711
 20
136.6030734633
 40
1.5
100
AcDbArc
 50
359.9996335139
 51
89.9995855484
  0
ARC
  5
4B9
100
AcDbEntity
  8
RUNDUNGEN
100
AcDbCircle
 62
7
  6
CONTINUOUS
 10
204.2317578711
 20
150.3352465868
 40
10.0
100
AcDbArc
 50
153.2354069353
 51
180.0
  0
ARC
  5
4BA
100
AcDbEntity
  8
BEZUGSACHSEN
100
AcDbCircle
 62
7
  6
CONTINUOUS
 10
189.2317578711
 20
170.1030734633
 40
6.5
100
AcDbArc
 50
0.0
 51
180.0
  0
ARC
  5
4BB
100
AcDbEntity
  8
RUNDUNGEN
100
AcDbCircle
 62
7
  6
CONTINUOUS
 10
191.7317578711
 20
156.6400066933
 40
4.0
100
AcDbArc
 50
333.2322306544
 51
360.0
  0
ARC
  5
4BC
100
AcDbEntity
  8
_30_VOLUMEN
100
AcDbCircle
 62
7
  6
CONTINUOUS
 10
105.8899925073
 20
41.3171064468
 40
8.0
100
AcDbArc
 50
108.2099568643
 51
132.536898363
  0
ARC
  5
4BD
100
AcDbEntity
  8
_30_VOLUMEN
100
AcDbCircle
 62
7
  6
CONTINUOUS
 10
105.8899925073
 20
41.3171064468
 40
8.0
100
AcDbArc
 50
47.463101637
 51
71.7900431357
  0
ARC
  5
4BE
100
AcDbEntity
  8
_30_VOLUMEN
100
AcDbCircle
 62
7
  6
CONTINUOUS
 10
105.8899925073
 20
65.3171064468
 40
8.0
100
AcDbArc
 50
227.463101637
 51
251.7900431357
  0
ARC
  5
4BF
100
AcDbEntity
  8
_30_VOLUMEN
100
AcDbCircle
 62
7
  6
CONTINUOUS
 10
105.8899925073
 20
65.3171064468
 40
8.0
100
AcDbArc
 50
288.2099568643
 51
312.536898363
  0
ARC
  5
4C0
100
AcDbEntity
  8
BEZUGSACHSEN
100
AcDbCircle
 62
7
  6
CONTINUOUS
 10
92.218419632
 20
63.3171064468
 40
1.5
100
AcDbArc
 50
90.0
 51
160.5287793655
  0
ARC
  5
4C1
100
AcDbEntity
  8
BEZUGSACHSEN
100
AcDbCircle
 62
7
  6
CONTINUOUS
 10
92.218419632
 20
43.3171064468
 40
1.5
100
AcDbArc
 50
199.4712206345
 51
270.0
  0
ARC
  5
4C2
100
AcDbEntity
  8
BEZUGSACHSEN
100
AcDbCircle
 62
7
  6
CONTINUOUS
 10
89.3899925073
 20
64.3171064468
 40
1.5
100
AcDbArc
 50
270.0
 51
340.5287793655
  0
ARC
  5
4C3
100
AcDbEntity
  8
BEZUGSACHSEN
100
AcDbCircle
 62
7
  6
CONTINUOUS
 10
88.8899925073
 20
61.3171064468
 40
1.5
100
AcDbArc
 50
90.0
 51
109.4712206345
  0
ARC
  5
4C4
100
AcDbEntity
  8
RUNDUNGEN
100
AcDbCircle
 62
7
  6
CONTINUOUS
 10
92.3899925073
 20
49.8171064468
 40
1.5
100
AcDbArc
 50
180.0
 51
261.8570745665
  0
ARC
  5
4C5
100
AcDbEntity
  8
RUNDUNGEN
100
AcDbCircle
 62
7
  6
CONTINUOUS
 10
89.3899925073
 20
42.3171064468
 40
1.5
100
AcDbArc
 50
19.4712206345
 51
90.0
  0
ARC
  5
4C6
100
AcDbEntity
  8
RUNDUNGEN
100
AcDbCircle
 62
7
  6
CONTINUOUS
 10
88.8899925073
 20
45.3171064468
 40
1.5
100
AcDbArc
 50
250.5287793655
 51
270.0
  0
ARC
  5
4C7
100
AcDbEntity
  8
RUNDUNGEN
100
AcDbCircle
 62
7
  6
CONTINUOUS
 10
99.467376218
 20
48.3171064468
 40
1.5
100
AcDbArc
 50
270.0
 51
312.536898363
  0
ARC
  5
4C8
100
AcDbEntity
  8
BEZUGSACHSEN
100
AcDbCircle
 62
7
  6
CONTINUOUS
 10
92.3899925073
 20
56.8171064468
 40
1.5
100
AcDbArc
 50
98.1381959057
 51
180.0
  0
ARC
  5
4C9
100
AcDbEntity
  8
RUNDUNGEN
100
AcDbCircle
 62
7
  6
CONTINUOUS
 10
95.3899925073
 20
48.3171064468
 40
1.5
100
AcDbArc
 50
180.0
 51
270.0
  0
ARC
  5
4CA
100
AcDbEntity
  8
BEZUGSACHSEN
100
AcDbCircle
 62
7
  6
CONTINUOUS
 10
95.3899925073
 20
58.3171064468
 40
1.5
100
AcDbArc
 50
90.0
 51
180.0
  0
ARC
  5
4CB
100
AcDbEntity
  8
RUNDUNGEN
100
AcDbCircle
 62
7
  6
CONTINUOUS
 10
116.3899925073
 20
48.3171064468
 40
1.5
100
AcDbArc
 50
270.0
 51
360.0
  0
ARC
  5
4CC
100
AcDbEntity
  8
BEZUGSACHSEN
100
AcDbCircle
 62
7
  6
CONTINUOUS
 10
116.3899925073
 20
58.3171064468
 40
1.5
100
AcDbArc
 50
0.0
 51
90.0
  0
ARC
  5
4CD
100
AcDbEntity
  8
BEZUGSACHSEN
100
AcDbCircle
 62
7
  6
CONTINUOUS
 10
99.467376218
 20
58.3171064468
 40
1.5
100
AcDbArc
 50
47.463101637
 51
90.0
  0
ARC
  5
4CE
100
AcDbEntity
  8
RUNDUNGEN
100
AcDbCircle
 62
7
  6
CONTINUOUS
 10
112.3126040965
 20
48.3171064468
 40
1.4999981921
100
AcDbArc
 50
227.4632339249
 51
270.0001795331
  0
ARC
  5
4CF
100
AcDbEntity
  8
BEZUGSACHSEN
100
AcDbCircle
 62
7
  6
CONTINUOUS
 10
112.3126040965
 20
58.3171064468
 40
1.4999981921
100
AcDbArc
 50
89.9998204669
 51
132.5367660751
  0
ARC
  5
4D0
100
AcDbEntity
  8
RUNDUNGEN
100
AcDbCircle
 62
7
  6
CONTINUOUS
 10
131.8899925073
 20
56.2170026777
 40
0.5
100
AcDbArc
 50
0.0
 51
70.0
  0
ARC
  5
4D1
100
AcDbEntity
  8
RUNDUNGEN
100
AcDbCircle
 62
7
  6
CONTINUOUS
 10
131.8899925073
 20
50.4172102159
 40
0.5
100
AcDbArc
 50
290.0
 51
360.0
  0
SPLINE
  5
4D2
100
AcDbEntity
  8
_30_VOLUMEN
100
AcDbSpline
 62
7
  6
CONTINUOUS
 70
0
 71
3
 72
11
 73
7
 74
0
 42
0.0000001
 43
0.0000001
 44
0.0000000001
 40
0.0
 40
0.0
 40
0.0
 40
0.0
 40
0.2501246933
 40
0.5000887269
 40
0.7500448046
 40
1.0
 40
1.0
 40
1.0
 40
1.0
 10
124.3763228154
 20
48.3171064468
 30
0.0
 10
124.5719982909
 20
48.3171064468
 30
0.0
 10
124.967536164
 20
48.3942635229
 30
0.0
 10
125.4686008915
 20
48.7272040286
 30
0.0
 10
125.8045520815
 20
49.2261594786
 30
0.0
 10
125.8831810722
 20
49.6215635714
 30
0.0
 10
125.8831810722
 20
49.8171064468
 30
0.0
  0
SPLINE
  5
4D3
100
AcDbEntity
  8
_30_VOLUMEN
100
AcDbSpline
 62
7
  6
CONTINUOUS
 70
0
 71
3
 72
11
 73
7
 74
0
 42
0.0000001
 43
0.0000001
 44
0.0000000001
 40
0.0
 40
0.0
 40
0.0
 40
0.0
 40
0.2499555968
 40
0.4999124842
 40
0.7498764292
 40
1.0
 40
1.0
 40
1.0
 40
1.0
 10
125.8831810722
 20
56.8171064468
 30
0.0
 10
125.8831810722
 20
57.0126496374
 30
0.0
 10
125.8045517744
 20
57.4080546988
 30
0.0
 10
125.4685993925
 20
57.9070105794
 30
0.0
 10
124.9675342785
 20
58.2399499167
 30
0.0
 10
124.571997414
 20
58.3171064468
 30
0.0
 10
124.3763228154
 20
58.3171064468
 30
0.0
  0
SPLINE
  5
4D4
100
AcDbEntity
  8
0
100
AcDbSpline
 62
7
  6
CONTINUOUS
 70
0
 71
3
 72
9
 73
5
 74
0
 42
0.0000001
 43
0.0000001
 44
0.0000000001
 40
0.0
 40
0.0
 40
0.0
 40
0.0
 40
0.7332190188
 40
1.0
 40
1.0
 40
1.0
 40
1.0
 10
124.61863305
 20
41.3183571254
 30
0.0
 10
124.6416083925
 20
41.3181453301
 30
0.0
 10
124.6500102511
 20
41.3189472832
 30
0.0
 10
124.7209623954
 20
41.3163897702
 30
0.0
 10
124.7126332618
 20
41.3171064468
 30
0.0
  0
SPLINE
  5
4D5
100
AcDbEntity
  8
BEZUGSACHSEN
100
AcDbSpline
 62
7
  6
CONTINUOUS
 70
0
 71
3
 72
13
 73
9
 74
0
 42
0.0000001
 43
0.0000001
 44
0.0000000001
 40
0.0
 40
0.0
 40
0.0
 40
0.0
 40
0.3247024562
 40
0.6536192682
 40
0.7908418857
 40
0.8972190326
 40
0.9668119413
 40
1.0
 40
1.0
 40
1.0
 40
1.0
 10
121.9959922953
 20
64.6739732224
 30
0.0
 10
121.9624116997
 20
64.6706305912
 30
0.0
 10
121.8944896567
 20
64.6677716176
 30
0.0
 10
121.8120253739
 20
64.6707372876
 30
0.0
 10
121.7532174555
 20
64.6771503651
 30
0.0
 10
121.7204818721
 20
64.683578602
 30
0.0
 10
121.7010315838
 20
64.6890073389
 30
0.0
 10
121.6899925073
 20
64.6962397489
 30
0.0
 10
121.6899925073
 20
64.6996890066
 30
0.0
  0
SPLINE
  5
4D6
100
AcDbEntity
  8
0
100
AcDbSpline
 62
7
  6
CONTINUOUS
 70
0
 71
3
 72
13
 73
9
 74
0
 42
0.0000001
 43
0.0000001
 44
0.0000000001
 40
0.0
 40
0.0
 40
0.0
 40
0.0
 40
0.3247024562
 40
0.6536192682
 40
0.7908418857
 40
0.8972190326
 40
0.9668119413
 40
1.0
 40
1.0
 40
1.0
 40
1.0
 10
121.9959922953
 20
41.9602396712
 30
0.0
 10
121.9624116997
 20
41.9635823024
 30
0.0
 10
121.8944896567
 20
41.966441276
 30
0.0
 10
121.8120253739
 20
41.963475606
 30
0.0
 10
121.7532174555
 20
41.9570625285
 30
0.0
 10
121.7204818721
 20
41.9506342915
 30
0.0
 10
121.7010315838
 20
41.9452055546
 30
0.0
 10
121.6899925073
 20
41.9379731447
 30
0.0
 10
121.6899925073
 20
41.934523887
 30
0.0
  0
SPLINE
  5
4D7
100
AcDbEntity
  8
BEZUGSACHSEN
100
AcDbSpline
 62
7
  6
CONTINUOUS
 70
0
 71
3
 72
15
 73
11
 74
0
 42
0.0000001
 43
0.0000001
 44
0.0000000001
 40
0.0
 40
0.0
 40
0.0
 40
0.0
 40
0.3815309225
 40
0.5539730799
 40
0.7050238555
 40
0.8290406363
 40
0.9215127676
 40
0.9787536519
 40
0.9937085226
 40
1.0
 40
1.0
 40
1.0
 40
1.0
 10
117.0899925073
 20
64.797766513
 30
0.0
 10
117.0644657624
 20
64.797766513
 30
0.0
 10
117.0274071318
 20
64.7981624969
 30
0.0
 10
116.9802367066
 20
64.79955021
 30
0.0
 10
116.9503684669
 20
64.8008425395
 30
0.0
 10
116.9256935139
 20
64.8023456233
 30
0.0
 10
116.9077502516
 20
64.8038861434
 30
0.0
 10
116.8962743947
 20
64.8053523494
 30
0.0
 10
116.8916973305
 20
64.8064957093
 30
0.0
 10
116.8899925073
 20
64.8072130083
 30
0.0
 10
116.8899925073
 20
64.8076339465
 30
0.0
  0
SPLINE
  5
4D8
100
AcDbEntity
  8
0
100
AcDbSpline
 62
7
  6
CONTINUOUS
 70
0
 71
3
 72
11
 73
7
 74
0
 42
0.0000001
 43
0.0000001
 44
0.0000000001
 40
0.0
 40
0.0
 40
0.0
 40
0.0
 40
0.0777997415
 40
0.2743965347
 40
0.5868993053
 40
1.0
 40
1.0
 40
1.0
 40
1.0
 10
121.6899925073
 20
41.8498099524
 30
0.0
 10
121.6899925073
 20
41.8477523845
 30
0.0
 10
121.6803065663
 20
41.8453386279
 30
0.0
 10
121.6673600121
 20
41.8428642512
 30
0.0
 10
121.6417754785
 20
41.8405627942
 30
0.0
 10
121.6230199709
 20
41.8394574775
 30
0.0
 10
121.6121070417
 20
41.8389384627
 30
0.0
  0
SPLINE
  5
4D9
100
AcDbEntity
  8
0
100
AcDbSpline
 62
7
  6
CONTINUOUS
 70
0
 71
3
 72
9
 73
5
 74
0
 42
0.0000001
 43
0.0000001
 44
0.0000000001
 40
0.0
 40
0.0
 40
0.0
 40
0.0
 40
0.2254591377
 40
1.0
 40
1.0
 40
1.0
 40
1.0
 10
121.6121070417
 20
41.8389384627
 30
0.0
 10
121.6029377314
 20
41.8385023737
 30
0.0
 10
121.562250801
 20
41.8369405157
 30
0.0
 10
121.5215283018
 20
41.8364463806
 30
0.0
 10
121.4899925073
 20
41.8364463806
 30
0.0
  0
SPLINE
  5
4DA
100
AcDbEntity
  8
0
100
AcDbSpline
 62
7
  6
CONTINUOUS
 70
0
 71
3
 72
15
 73
11
 74
0
 42
0.0000001
 43
0.0000001
 44
0.0000000001
 40
0.0
 40
0.0
 40
0.0
 40
0.0
 40
0.3815309225
 40
0.5539730799
 40
0.7050238555
 40
0.8290406363
 40
0.9215127676
 40
0.9787536519
 40
0.9937085226
 40
1.0
 40
1.0
 40
1.0
 40
1.0
 10
117.0899925073
 20
41.8364463806
 30
0.0
 10
117.0644657624
 20
41.8364463806
 30
0.0
 10
117.0274071318
 20
41.8360503967
 30
0.0
 10
116.9802367066
 20
41.8346626835
 30
0.0
 10
116.9503684669
 20
41.833370354
 30
0.0
 10
116.9256935139
 20
41.8318672703
 30
0.0
 10
116.9077502516
 20
41.8303267502
 30
0.0
 10
116.8962743947
 20
41.8288605441
 30
0.0
 10
116.8916973305
 20
41.8277171843
 30
0.0
 10
116.8899925073
 20
41.8269998852
 30
0.0
 10
116.8899925073
 20
41.826578947
 30
0.0
  0
SPLINE
  5
4DB
100
AcDbEntity
  8
BEZUGSACHSEN
100
AcDbSpline
 62
7
  6
CONTINUOUS
 70
0
 71
3
 72
13
 73
9
 74
0
 42
0.0000001
 43
0.0000001
 44
0.0000000001
 40
0.0
 40
0.0
 40
0.0
 40
0.0
 40
0.033179045
 40
0.1027796479
 40
0.2091788925
 40
0.3464122341
 40
0.6753065241
 40
1.0
 40
1.0
 40
1.0
 40
1.0
 10
121.6899925073
 20
65.1996890066
 30
0.0
 10
121.6899925073
 20
65.1962406791
 30
0.0
 10
121.7010282575
 20
65.1890055782
 30
0.0
 10
121.7204834106
 20
65.1835804212
 30
0.0
 10
121.753221869
 20
65.1771490279
 30
0.0
 10
121.8120317447
 20
65.1707372983
 30
0.0
 10
121.8944935575
 20
65.1677714321
 30
0.0
 10
121.9624125649
 20
65.1706306773
 30
0.0
 10
121.9959922953
 20
65.1739732224
 30
0.0
  0
SPLINE
  5
4DC
100
AcDbEntity
  8
BEZUGSACHSEN
100
AcDbSpline
 62
7
  6
CONTINUOUS
 70
0
 71
3
 72
14
 73
10
 74
0
 42
0.0000001
 43
0.0000001
 44
0.0000000001
 40
0.0
 40
0.0
 40
0.0
 40
0.0
 40
0.3801557124
 40
0.5519606931
 40
0.7024565978
 40
0.8260629877
 40
0.9184189123
 40
0.976205182
 40
1.0
 40
1.0
 40
1.0
 40
1.0
 10
121.4899925073
 20
65.297766513
 30
0.0
 10
121.5155320675
 20
65.297766513
 30
0.0
 10
121.5526376326
 20
65.2973787677
 30
0.0
 10
121.5997581618
 20
65.2959142372
 30
0.0
 10
121.6298005798
 20
65.2944249967
 30
0.0
 10
121.6540229142
 20
65.2926416794
 30
0.0
 10
121.6730991191
 20
65.2903942374
 30
0.0
 10
121.6830821226
 20
65.2883946688
 30
0.0
 10
121.6899925073
 20
65.2860015208
 30
0.0
 10
121.6899925073
 20
65.2844029411
 30
0.0
  0
SPLINE
  5
4DD
100
AcDbEntity
  8
BEZUGSACHSEN
100
AcDbSpline
 62
7
  6
CONTINUOUS
 70
0
 71
3
 72
15
 73
11
 74
0
 42
0.0000001
 43
0.0000001
 44
0.0000000001
 40
0.0
 40
0.0
 40
0.0
 40
0.0
 40
0.0062913946
 40
0.0212462986
 40
0.0784898343
 40
0.1709721579
 40
0.2949982059
 40
0.4460521151
 40
0.6184877079
 40
1.0
 40
1.0
 40
1.0
 40
1.0
 10
116.8899925073
 20
65.3076339465
 30
0.0
 10
116.8899925073
 20
65.3072130138
 30
0.0
 10
116.891697305
 20
65.3064956929
 30
0.0
 10
116.8962745457
 20
65.3053523159
 30
0.0
 10
116.9077512864
 20
65.3038860212
 30
0.0
 10
116.9256960069
 20
65.3023454942
 30
0.0
 10
116.9503724743
 20
65.300842293
 30
0.0
 10
116.9802411125
 20
65.299550091
 30
0.0
 10
117.0274100603
 20
65.2981624051
 30
0.0
 10
117.0644670083
 20
65.297766513
 30
0.0
 10
117.0899925073
 20
65.297766513
 30
0.0
  0
SPLINE
  5
4DE
100
AcDbEntity
  8
BEZUGSACHSEN
100
AcDbSpline
 62
7
  6
CONTINUOUS
 70
0
 71
3
 72
9
 73
5
 74
0
 42
0.0000001
 43
0.0000001
 44
0.0000000001
 40
0.0
 40
0.0
 40
0.0
 40
0.0
 40
0.7332190188
 40
1.0
 40
1.0
 40
1.0
 40
1.0
 10
124.61863305
 20
65.3158557681
 30
0.0
 10
124.6416083925
 20
65.3160675635
 30
0.0
 10
124.6500102511
 20
65.3152656099
 30
0.0
 10
124.7209623954
 20
65.3178231237
 30
0.0
 10
124.7126332618
 20
65.3171064468
 30
0.0
  0
SPLINE
  5
4DF
100
AcDbEntity
  8
BEZUGSACHSEN
100
AcDbSpline
 62
7
  6
CONTINUOUS
 70
0
 71
3
 72
9
 73
5
 74
0
 42
0.0000001
 43
0.0000001
 44
0.0000000001
 40
0.0
 40
0.0
 40
0.0
 40
0.0
 40
0.2664298934
 40
1.0
 40
1.0
 40
1.0
 40
1.0
 10
124.7126111281
 20
64.8171053478
 30
0.0
 10
124.7042745745
 20
64.816689055
 30
0.0
 10
124.6729281874
 20
64.8168229887
 30
0.0
 10
124.6416139787
 20
64.8160676149
 30
0.0
 10
124.61863305
 20
64.8158557681
 30
0.0
  0
SPLINE
  5
4E0
100
AcDbEntity
  8
0
100
AcDbSpline
 62
7
  6
CONTINUOUS
 70
0
 71
3
 72
9
 73
5
 74
0
 42
0.0000001
 43
0.0000001
 44
0.0000000001
 40
0.0
 40
0.0
 40
0.0
 40
0.0
 40
0.2664298934
 40
1.0
 40
1.0
 40
1.0
 40
1.0
 10
124.7126111281
 20
41.8171075457
 30
0.0
 10
124.7042745745
 20
41.8175238386
 30
0.0
 10
124.6729281874
 20
41.8173899048
 30
0.0
 10
124.6416139787
 20
41.8181452786
 30
0.0
 10
124.61863305
 20
41.8183571254
 30
0.0
  0
SPLINE
  5
4E1
100
AcDbEntity
  8
BEZUGSACHSEN
100
AcDbSpline
 62
7
  6
CONTINUOUS
 70
0
 71
3
 72
11
 73
7
 74
0
 42
0.0000001
 43
0.0000001
 44
0.0000000001
 40
0.0
 40
0.0
 40
0.0
 40
0.0
 40
0.0777997414
 40
0.2743965347
 40
0.5868993053
 40
1.0
 40
1.0
 40
1.0
 40
1.0
 10
121.6899925073
 20
64.7844029411
 30
0.0
 10
121.6899925073
 20
64.786460509
 30
0.0
 10
121.6803065663
 20
64.7888742656
 30
0.0
 10
121.6673600121
 20
64.7913486424
 30
0.0
 10
121.6417754785
 20
64.7936500993
 30
0.0
 10
121.6230199709
 20
64.7947554161
 30
0.0
 10
121.6121070417
 20
64.7952744309
 30
0.0
  0
SPLINE
  5
4E2
100
AcDbEntity
  8
BEZUGSACHSEN
100
AcDbSpline
 62
7
  6
CONTINUOUS
 70
0
 71
3
 72
9
 73
5
 74
0
 42
0.0000001
 43
0.0000001
 44
0.0000000001
 40
0.0
 40
0.0
 40
0.0
 40
0.0
 40
0.2254591377
 40
1.0
 40
1.0
 40
1.0
 40
1.0
 10
121.6121070417
 20
64.7952744309
 30
0.0
 10
121.6029377314
 20
64.7957105198
 30
0.0
 10
121.562250801
 20
64.7972723778
 30
0.0
 10
121.5215283018
 20
64.797766513
 30
0.0
 10
121.4899925073
 20
64.797766513
 30
0.0
  0
SPLINE
  5
4E3
100
AcDbEntity
  8
0
100
AcDbSpline
 62
7
  6
CONTINUOUS
 70
0
 71
3
 72
13
 73
9
 74
0
 42
0.0000001
 43
0.0000001
 44
0.0000000001
 40
0.0
 40
0.0
 40
0.0
 40
0.0
 40
0.033179045
 40
0.1027796479
 40
0.2091788925
 40
0.3464122341
 40
0.6753065241
 40
1.0
 40
1.0
 40
1.0
 40
1.0
 10
121.6899925073
 20
41.434523887
 30
0.0
 10
121.6899925073
 20
41.4379722144
 30
0.0
 10
121.7010282575
 20
41.4452073154
 30
0.0
 10
121.7204834106
 20
41.4506324723
 30
0.0
 10
121.753221869
 20
41.4570638657
 30
0.0
 10
121.8120317447
 20
41.4634755953
 30
0.0
 10
121.8944935575
 20
41.4664414614
 30
0.0
 10
121.9624125649
 20
41.4635822162
 30
0.0
 10
121.9959922953
 20
41.4602396712
 30
0.0
  0
SPLINE
  5
4E4
100
AcDbEntity
  8
0
100
AcDbSpline
 62
7
  6
CONTINUOUS
 70
0
 71
3
 72
14
 73
10
 74
0
 42
0.0000001
 43
0.0000001
 44
0.0000000001
 40
0.0
 40
0.0
 40
0.0
 40
0.0
 40
0.3801557124
 40
0.5519606931
 40
0.7024565978
 40
0.8260629877
 40
0.9184189123
 40
0.976205182
 40
1.0
 40
1.0
 40
1.0
 40
1.0
 10
121.4899925073
 20
41.3364463806
 30
0.0
 10
121.5155320675
 20
41.3364463806
 30
0.0
 10
121.5526376326
 20
41.3368341258
 30
0.0
 10
121.5997581618
 20
41.3382986563
 30
0.0
 10
121.6298005798
 20
41.3397878969
 30
0.0
 10
121.6540229142
 20
41.3415712142
 30
0.0
 10
121.6730991191
 20
41.3438186561
 30
0.0
 10
121.6830821226
 20
41.3458182247
 30
0.0
 10
121.6899925073
 20
41.3482113728
 30
0.0
 10
121.6899925073
 20
41.3498099524
 30
0.0
  0
SPLINE
  5
4E5
100
AcDbEntity
  8
0
100
AcDbSpline
 62
7
  6
CONTINUOUS
 70
0
 71
3
 72
15
 73
11
 74
0
 42
0.0000001
 43
0.0000001
 44
0.0000000001
 40
0.0
 40
0.0
 40
0.0
 40
0.0
 40
0.0062913946
 40
0.0212462986
 40
0.0784898343
 40
0.1709721579
 40
0.2949982059
 40
0.4460521151
 40
0.6184877079
 40
1.0
 40
1.0
 40
1.0
 40
1.0
 10
116.8899925073
 20
41.326578947
 30
0.0
 10
116.8899925073
 20
41.3269998797
 30
0.0
 10
116.891697305
 20
41.3277172006
 30
0.0
 10
116.8962745457
 20
41.3288605777
 30
0.0
 10
116.9077512864
 20
41.3303268724
 30
0.0
 10
116.9256960069
 20
41.3318673994
 30
0.0
 10
116.9503724743
 20
41.3333706006
 30
0.0
 10
116.9802411125
 20
41.3346628025
 30
0.0
 10
117.0274100603
 20
41.3360504884
 30
0.0
 10
117.0644670083
 20
41.3364463806
 30
0.0
 10
117.0899925073
 20
41.3364463806
 30
0.0
  0
ELLIPSE
  5
4E6
100
AcDbEntity
  8
BEZUGSACHSEN
100
AcDbEllipse
 62
7
  6
CONTINUOUS
 10
124.8899925073
 20
53.3171064468
 30
0.0
 11
18.4
 21
0.0
 31
0.0
 40
0.625
 41
1.585544658
 42
1.7287347455
  0
ELLIPSE
  5
4E7
100
AcDbEntity
  8
0
100
AcDbEllipse
 62
7
  6
CONTINUOUS
 10
124.8899925073
 20
53.3171064468
 30
0.0
 11
18.4
 21
-0.0
 31
0.0
 40
0.625
 41
-1.7287347455
 42
-1.585544658
  0
ELLIPSE
  5
4E8
100
AcDbEntity
  8
BEZUGSACHSEN
100
AcDbEllipse
 62
7
  6
CONTINUOUS
 10
124.8899925073
 20
53.8171064468
 30
0.0
 11
18.4
 21
-0.0
 31
0.0
 40
0.625
 41
1.585544658
 42
1.7287347455
  0
ELLIPSE
  5
4E9
100
AcDbEntity
  8
0
100
AcDbEllipse
 62
7
  6
CONTINUOUS
 10
124.8899925073
 20
52.8171064468
 30
0.0
 11
18.4
 21
0.0
 31
0.0
 40
0.625
 41
-1.7287347455
 42
-1.585544658
  0
ENDSEC
  0
SECTION
  2
OBJECTS
  0
DICTIONARY
  5
C
100
AcDbDictionary
280
0
281
1
  3
ACAD_GROUP
350
D
  3
ACAD_MLINESTYLE
350
17
  3
ACAD_LAYOUT
350
1A
  3
ACAD_PLOTSETTINGS
350
19
  3
ACAD_PLOTSTYLENAME
350
E
  0
DICTIONARY
  5
D
102
{ACAD_REACTORS
330
C
102
}
100
AcDbDictionary
280
0
281
1
  0
ACDBDICTIONARYWDFLT
  5
E
102
{ACAD_REACTORS
330
C
102
}
100
AcDbDictionary
281
1
  3
Normal
350
F
100
AcDbDictionaryWithDefault
340
F
  0
DICTIONARY
  5
17
102
{ACAD_REACTORS
330
C
102
}
100
AcDbDictionary
280
0
281
1
  3
Standard
350
18
  0
DICTIONARY
  5
19
102
{ACAD_REACTORS
330
C
102
}
100
AcDbDictionary
281
1
  0
DICTIONARY
  5
1A
102
{ACAD_REACTORS
330
C
102
}
100
AcDbDictionary
281
1
  3
Model
350
4EA
  3
Layout1
350
4EB
  0
ACDBPLACEHOLDER
  5
F
102
{ACAD_REACTORS
330
E
102
}
  0
MLINESTYLE
  5
18
102
{ACAD_REACTORS
330
17
102
}
100
AcDbMlineStyle
  2
STANDARD
 70
0
  3

 62
256
 51
90.0
 52
90.0
 71
2
 49
0.5
 62
256
  6
BYLAYER
 49
-0.5
 62
256
  6
BYLAYER
  0
LAYOUT
  5
4EA
102
{ACAD_REACTORS
330
1A
102
}
100
AcDbPlotSettings
  1

  2
none_device
  4
ISO_A4_(297.00_x_210.00_MM)
  6

 40
0.0
 41
0.0
 42
0.0
 43
0.0
 44
297.0
 45
210.0
 46
0.0
 47
0.0
 48
0.0
 49
0.0
140
0.0
141
0.0
142
1.0
143
1.0
 70
1024
 72
1
 73
0
 74
0
  7

 75
0
147
1.0
148
0.0
149
0.0
100
AcDbLayout
  1
Model
 70
0
 71
0
 10
0.0
 20
0.0
 11
297.0
 21
210.0
 12
0.0
 22
0.0
 32
0.0
 14
0.0
 24
0.0
 34
0.0
 15
0.0
 25
0.0
 35
0.0
146
0.0
 13
0.0
 23
0.0
 33
0.0
 16
1.0
 26
0.0
 36
0.0
 17
0.0
 27
1.0
 37
0.0
 76
0
330
211
345
0
346
0
  0
LAYOUT
  5
4EB
102
{ACAD_REACTORS
330
1A
102
}
100
AcDbPlotSettings
  1

  2
none_device
  4
ISO_A4_(297.00_x_210.00_MM)
  6

 40
0.0
 41
0.0
 42
0.0
 43
0.0
 44
297.0
 45
210.0
 46
0.0
 47
0.0
 48
0.0
 49
0.0
140
0.0
141
0.0
142
1.0
143
1.0
 70
0
 72
1
 73
0
 74
0
  7

 75
0
147
1.0
148
0.0
149
0.0
100
AcDbLayout
  1
Layout1
 70
0
 71
1
 10
0.0
 20
0.0
 11
297.0
 21
210.0
 12
0.0
 22
0.0
 32
0.0
 14
0.0
 24
0.0
 34
0.0
 15
0.0
 25
0.0
 35
0.0
146
0.0
 13
0.0
 23
0.0
 33
0.0
 16
1.0
 26
0.0
 36
0.0
 17
0.0
 27
1.0
 37
0.0
 76
0
330
212
345
0
346
0
  0
ENDSEC
  0
EOF
