999
DXF file: OPTILASH-FIX_10000daN_7910127_M35654-P-3.dxf
999
Pro/ENGINEER 2011490 by Parametric Technology Corporation
  0
SECTION
  2
HEADER
  9
$ACADVER
  1
AC1015
  9
$DWGCODEPAGE
  3
ANSI_1252
  9
$EXTMAX
 10
594.0
 20
420.0
 30
0.0
  9
$EXTMIN
 10
0.0
 20
0.0
 30
0.0
  9
$LIMMIN
 10
0.0
 20
0.0
  9
$LIMMAX
 10
594.0
 20
420.0
  9
$VIEWCTR
 10
297.0
 20
210.0
  9
$VIEWSIZE
 40
420.0
  9
$CLAYER
  8
0
  9
$LTSCALE
 40
32.67
  9
$CELTYPE
  6
BYLAYER
  9
$DIMSCALE
 40
1.0
  9
$DIMASZ
 40
3.5
  9
$DIMEXO
 40
3.7125
  9
$DIMDLI
 40
22.572
  9
$DIMEXE
 40
10.692
  9
$DIMCEN
 40
5.346
  9
$DIMLFAC
 40
1.0
  9
$DIMBLK
  1
_FILLED
  9
$DIMTXT
 40
3.5
  9
$DIMTOL
 70
1
  9
$DIMLIM
 70
0
  9
$DIMTFAC
 40
1.0
  9
$DIMTP
 40
0.005
  9
$DIMTM
 40
0.005
  9
$PDMODE
 70
3
  9
$PDSIZE
 40
0.3125
  9
$HANDSEED
  5
6FA
  9
$TILEMODE
 70
1
  9
$MEASUREMENT
 70
1
  9
$INSUNITS
 70
4
  0
ENDSEC
  0
SECTION
  2
CLASSES
  0
CLASS
  1
ACDBDICTIONARYWDFLT
  2
AcDbDictionaryWithDefault
  3
AutoCAD 2000
 90
0
280
0
281
0
  0
CLASS
  1
ACDBPLACEHOLDER
  2
AcDbPlaceHolder
  3
AutoCAD 2000
 90
0
280
0
281
0
  0
CLASS
  1
LAYOUT
  2
AcDbLayout
  3
AutoCAD 2000
 90
0
280
0
281
0
  0
ENDSEC
  0
SECTION
  2
TABLES
  0
TABLE
  2
VPORT
  5
8
100
AcDbSymbolTable
 70
2
  0
VPORT
  5
1F4
100
AcDbSymbolTableRecord
100
AcDbViewportTableRecord
  2
*ACTIVE
 70
0
 10
0.0
 20
0.0
 11
1.0
 21
1.0
 12
297.0
 22
210.0
 13
0.0
 23
0.0
 14
1.0
 24
1.0
 15
0.0
 25
0.0
 16
0.0
 26
0.0
 36
1.0
 17
0.0
 27
0.0
 37
0.0
 40
420.0
 41
1.4142857143
 42
50.0
 43
0.0
 44
0.0
 50
0.0
 51
0.0
 71
0
 72
100
 73
1
 74
1
 75
0
 76
0
 77
0
 78
0
  0
ENDTAB
  0
TABLE
  2
LTYPE
  5
5
100
AcDbSymbolTable
 70
6
  0
LTYPE
  5
14
100
AcDbSymbolTableRecord
100
AcDbLinetypeTableRecord
  2
BYBLOCK
 70
0
  3

 72
65
 73
0
 40
0.0
  0
LTYPE
  5
15
100
AcDbSymbolTableRecord
100
AcDbLinetypeTableRecord
  2
BYLAYER
 70
0
  3

 72
65
 73
0
 40
0.0
  0
LTYPE
  5
16
100
AcDbSymbolTableRecord
100
AcDbLinetypeTableRecord
  2
CONTINUOUS
 70
64
  3
Solid line
 72
65
 73
0
 40
0.0
  0
LTYPE
  5
1F5
100
AcDbSymbolTableRecord
100
AcDbLinetypeTableRecord
  2
CENTER
 70
64
  3
____ _ ____ _ ____ _ ____ _ ____ _ ____ _ ____
 72
65
 73
4
 40
0.6
 49
0.375
 74
0
 49
-0.075
 74
0
 49
0.075
 74
0
 49
-0.075
 74
0
  0
LTYPE
  5
1F6
100
AcDbSymbolTableRecord
100
AcDbLinetypeTableRecord
  2
HIDDEN
 70
64
  3
- - - - - - - - - - - - - - - - - - - -
 72
65
 73
2
 40
0.2
 49
0.1
 74
0
 49
-0.1
 74
0
  0
LTYPE
  5
1F7
100
AcDbSymbolTableRecord
100
AcDbLinetypeTableRecord
  2
PHANTOM
 70
64
  3
_____ _ _ _____ _ _ _____ _ _ _____
 72
65
 73
6
 40
0.8
 49
0.45
 74
0
 49
-0.05
 74
0
 49
0.1
 74
0
 49
-0.05
 74
0
 49
0.1
 74
0
 49
-0.05
 74
0
  0
LTYPE
  5
1F8
100
AcDbSymbolTableRecord
100
AcDbLinetypeTableRecord
  2
DOT
 70
64
  3
. . . . . . . . . . . . . . . . . . . .
 72
65
 73
2
 40
0.2
 49
0.1
 74
0
 49
-0.1
 74
0
  0
LTYPE
  5
1F9
100
AcDbSymbolTableRecord
100
AcDbLinetypeTableRecord
  2
DASHED
 70
64
  3
- - - - - - - - - - - - - - - - - - - -
 72
65
 73
2
 40
0.2
 49
0.1
 74
0
 49
-0.1
 74
0
  0
ENDTAB
  0
TABLE
  2
LAYER
  5
2
100
AcDbSymbolTable
 70
36
  0
LAYER
  5
10
100
AcDbSymbolTableRecord
100
AcDbLayerTableRecord
  2
0
 70
0
 62
7
  6
CONTINUOUS
370
-3
390
F
  0
LAYER
  5
1FA
100
AcDbSymbolTableRecord
100
AcDbLayerTableRecord
  2
DEFAULT_1
 70
0
 62
7
  6
CENTER
370
-3
390
F
  0
LAYER
  5
1FB
100
AcDbSymbolTableRecord
100
AcDbLayerTableRecord
  2
DEFAULT_2
 70
0
 62
8
  6
HIDDEN
370
-3
390
F
  0
LAYER
  5
1FC
100
AcDbSymbolTableRecord
100
AcDbLayerTableRecord
  2
DEFAULT_3
 70
0
 62
7
  6
PHANTOM
370
-3
390
F
  0
LAYER
  5
1FD
100
AcDbSymbolTableRecord
100
AcDbLayerTableRecord
  2
AUSFORMSCHRAEGEN
 70
0
 62
7
  6
CONTINUOUS
370
-3
390
F
  0
LAYER
  5
1FE
100
AcDbSymbolTableRecord
100
AcDbLayerTableRecord
  2
BEZUGSACHSEN
 70
0
 62
7
  6
CONTINUOUS
370
-3
390
F
  0
LAYER
  5
1FF
100
AcDbSymbolTableRecord
100
AcDbLayerTableRecord
  2
BEZUGSEBENEN
 70
0
 62
7
  6
CONTINUOUS
370
-3
390
F
  0
LAYER
  5
200
100
AcDbSymbolTableRecord
100
AcDbLayerTableRecord
  2
FASEN
 70
0
 62
7
  6
CONTINUOUS
370
-3
390
F
  0
LAYER
  5
201
100
AcDbSymbolTableRecord
100
AcDbLayerTableRecord
  2
FLAECHEN
 70
0
 62
7
  6
CONTINUOUS
370
-3
390
F
  0
LAYER
  5
202
100
AcDbSymbolTableRecord
100
AcDbLayerTableRecord
  2
HILFEN
 70
0
 62
7
  6
CONTINUOUS
370
-3
390
F
  0
LAYER
  5
203
100
AcDbSymbolTableRecord
100
AcDbLayerTableRecord
  2
KURVEN
 70
0
 62
7
  6
CONTINUOUS
370
-3
390
F
  0
LAYER
  5
204
100
AcDbSymbolTableRecord
100
AcDbLayerTableRecord
  2
PLATZIERUNG
 70
0
 62
7
  6
CONTINUOUS
370
-3
390
F
  0
LAYER
  5
205
100
AcDbSymbolTableRecord
100
AcDbLayerTableRecord
  2
RUNDUNGEN
 70
0
 62
7
  6
CONTINUOUS
370
-3
390
F
  0
LAYER
  5
206
100
AcDbSymbolTableRecord
100
AcDbLayerTableRecord
  2
T_STARTBEZUEGE
 70
0
 62
7
  6
CONTINUOUS
370
-3
390
F
  0
ENDTAB
  0
TABLE
  2
STYLE
  5
3
100
AcDbSymbolTable
 70
1
  0
STYLE
  5
11
100
AcDbSymbolTableRecord
100
AcDbTextStyleTableRecord
  2
STANDARD
 70
0
 40
0.0
 41
0.7
 50
0.0
 71
0
 42
0.2
  3
txt
  4

  0
STYLE
  5
207
100
AcDbSymbolTableRecord
100
AcDbTextStyleTableRecord
  2
TEXTSTYLE_1
 70
0
 40
0.0
 41
0.8
 50
0.0
 71
0
 42
0.2
  3
gdt
  4

  0
ENDTAB
  0
TABLE
  2
VIEW
  5
6
100
AcDbSymbolTable
 70
0
  0
ENDTAB
  0
TABLE
  2
UCS
  5
7
100
AcDbSymbolTable
 70
0
  0
ENDTAB
  0
TABLE
  2
APPID
  5
9
100
AcDbSymbolTable
 70
1
  0
APPID
  5
208
100
AcDbSymbolTableRecord
100
AcDbRegAppTableRecord
  2
ACAD
 70
0
  0
ENDTAB
  0
TABLE
  2
BLOCK_RECORD
  5
1
100
AcDbSymbolTable
 70
0
  0
BLOCK_RECORD
  5
209
100
AcDbSymbolTableRecord
100
AcDbBlockTableRecord
  2
*Model_Space
  0
BLOCK_RECORD
  5
20A
100
AcDbSymbolTableRecord
100
AcDbBlockTableRecord
  2
*Paper_Space
  0
ENDTAB
  0
TABLE
  2
DIMSTYLE
  5
A
100
AcDbSymbolTable
 70
1
100
AcDbDimStyleTable
 71
0
  0
DIMSTYLE
105
20B
100
AcDbSymbolTableRecord
100
AcDbDimStyleTableRecord
  2
STANDARD
 70
0
  3

  4

 40
1.0
 41
3.5
 42
0.0625
 43
0.38
 44
0.18
 45
0.0
 46
0.0
 47
0.005
 48
0.005
140
3.5
141
0.09
142
0.0
143
25.4
144
1.0
145
0.0
146
1.0
147
0.09
 71
1.0
 72
0.0
 73
0
 74
0
 75
0
 76
0
 77
1
 78
8
170
0
171
2
172
0
173
0
174
0
175
0
176
0
177
0
178
5
270
2
271
3
272
3
273
2
274
2
275
0
280
0
281
0
282
0
283
1
284
8
285
0
286
0
287
3
288
0
340
11
  0
ENDTAB
  0
ENDSEC
  0
SECTION
  2
BLOCKS
  0
BLOCK
  5
20
100
AcDbEntity
  8
0
100
AcDbBlockBegin
  2
*Model_Space
 70
0
 10
0.0
 20
0.0
 30
0.0
  3
*Model_Space
  1

  0
ENDBLK
  5
21
100
AcDbEntity
  8
0
100
AcDbBlockEnd
  0
BLOCK
  5
1C
100
AcDbEntity
  8
0
100
AcDbBlockBegin
  2
*Paper_Space
 70
0
 10
0.0
 20
0.0
 30
0.0
  3
*Paper_Space
  1

  0
ENDBLK
  5
1D
100
AcDbEntity
  8
0
100
AcDbBlockEnd
  0
ENDSEC
  0
SECTION
  2
ENTITIES
  0
LINE
  5
20C
100
AcDbEntity
  8
0
100
AcDbLine
 62
7
  6
CONTINUOUS
 10
0.0
 20
0.0
 11
0.0
 21
420.0
  0
LINE
  5
20D
100
AcDbEntity
  8
0
100
AcDbLine
 62
7
  6
CONTINUOUS
 10
0.0
 20
0.0
 11
594.0
 21
0.0
  0
LINE
  5
20E
100
AcDbEntity
  8
0
100
AcDbLine
 62
7
  6
CONTINUOUS
 10
0.0
 20
420.0
 11
594.0
 21
420.0
  0
LINE
  5
20F
100
AcDbEntity
  8
0
100
AcDbLine
 62
7
  6
CONTINUOUS
 10
594.0
 20
0.0
 11
594.0
 21
420.0
  0
LINE
  5
210
100
AcDbEntity
  8
RUNDUNGEN
100
AcDbLine
 62
7
  6
CONTINUOUS
 10
132.8419331395
 20
160.6113355725
 11
132.8419331395
 21
180.6113257539
  0
LINE
  5
211
100
AcDbEntity
  8
0
100
AcDbLine
 62
7
  6
CONTINUOUS
 10
152.8419331395
 20
145.6113307674
 11
164.3419331395
 21
145.6113307674
  0
LINE
  5
212
100
AcDbEntity
  8
0
100
AcDbLine
 62
7
  6
CONTINUOUS
 10
237.3419331395
 20
145.6113307674
 11
248.8419331395
 21
145.6113307674
  0
LINE
  5
213
100
AcDbEntity
  8
0
100
AcDbLine
 62
7
  6
CONTINUOUS
 10
169.3419331395
 20
155.6113307674
 11
232.3419331395
 21
155.6113307674
  0
LINE
  5
214
100
AcDbEntity
  8
RUNDUNGEN
100
AcDbLine
 62
7
  6
CONTINUOUS
 10
148.8419331395
 20
237.6900316098
 11
148.8419331395
 21
149.611400521
  0
LINE
  5
215
100
AcDbEntity
  8
RUNDUNGEN
100
AcDbLine
 62
7
  6
CONTINUOUS
 10
148.8419331395
 20
237.6900316098
 11
148.8814588312
 21
238.5782610585
  0
LINE
  5
216
100
AcDbEntity
  8
0
100
AcDbLine
 62
7
  6
CONTINUOUS
 10
267.8419331395
 20
159.6113307674
 11
253.8419331395
 21
159.6113307674
  0
LINE
  5
217
100
AcDbEntity
  8
0
100
AcDbLine
 62
7
  6
CONTINUOUS
 10
147.8419331395
 20
159.6113307674
 11
133.8419331395
 21
159.6113307674
  0
LINE
  5
218
100
AcDbEntity
  8
RUNDUNGEN
100
AcDbLine
 62
7
  6
CONTINUOUS
 10
202.8419331395
 20
164.6113307674
 11
232.8419331395
 21
164.6113307674
  0
LINE
  5
219
100
AcDbEntity
  8
RUNDUNGEN
100
AcDbLine
 62
7
  6
CONTINUOUS
 10
166.8419331395
 20
176.0842575254
 11
166.8419331395
 21
148.1113397345
  0
LINE
  5
21A
100
AcDbEntity
  8
0
100
AcDbLine
 62
7
  6
CONTINUOUS
 10
267.8419331395
 20
181.6113307674
 11
253.8419331395
 21
181.6113307674
  0
LINE
  5
21B
100
AcDbEntity
  8
0
100
AcDbLine
 62
7
  6
CONTINUOUS
 10
147.8419331395
 20
181.6113307674
 11
133.8419331395
 21
181.6113307674
  0
LINE
  5
21C
100
AcDbEntity
  8
0
100
AcDbLine
 62
7
  6
CONTINUOUS
 10
180.6231831395
 20
188.4304797028
 11
180.9981833183
 21
188.2177137427
  0
LINE
  5
21D
100
AcDbEntity
  8
0
100
AcDbLine
 62
7
  6
CONTINUOUS
 10
181.0919329607
 20
188.8560116042
 11
180.8106829607
 21
189.0687776108
  0
LINE
  5
21E
100
AcDbEntity
  8
0
100
AcDbLine
 62
7
  6
CONTINUOUS
 10
180.2481832289
 20
188.8560116042
 11
180.6231831395
 21
188.4304797028
  0
LINE
  5
21F
100
AcDbEntity
  8
RUNDUNGEN
100
AcDbLine
 62
7
  6
CONTINUOUS
 10
170.8419331395
 20
184.9635589373
 11
170.8419331395
 21
223.4409782981
  0
LINE
  5
220
100
AcDbEntity
  8
0
100
AcDbLine
 62
7
  6
CONTINUOUS
 10
208.9356824243
 20
188.1113307674
 11
209.3106831395
 21
188.2177137427
  0
LINE
  5
221
100
AcDbEntity
  8
0
100
AcDbLine
 62
7
  6
CONTINUOUS
 10
209.3106831395
 20
188.7496286381
 11
208.9356824243
 21
188.6432456721
  0
LINE
  5
222
100
AcDbEntity
  8
0
100
AcDbLine
 62
7
  6
CONTINUOUS
 10
211.935681709
 20
189.8134583731
 11
212.31068457
 21
189.9198413391
  0
LINE
  5
223
100
AcDbEntity
  8
0
100
AcDbLine
 62
7
  6
CONTINUOUS
 10
211.7481824243
 20
190.9836711485
 11
212.1231831395
 21
191.0900541146
  0
LINE
  5
224
100
AcDbEntity
  8
0
100
AcDbLine
 62
7
  6
CONTINUOUS
 10
208.3731824243
 20
191.5155859787
 11
207.9981838548
 21
191.4092030127
  0
LINE
  5
225
100
AcDbEntity
  8
0
100
AcDbLine
 62
7
  6
CONTINUOUS
 10
212.498181709
 20
188.1113307674
 11
212.9669331395
 21
188.2177137427
  0
LINE
  5
226
100
AcDbEntity
  8
0
100
AcDbLine
 62
7
  6
CONTINUOUS
 10
205.2794324243
 20
188.7496286381
 11
204.8106831395
 21
188.6432456721
  0
LINE
  5
227
100
AcDbEntity
  8
0
100
AcDbLine
 62
7
  6
CONTINUOUS
 10
201.1544331395
 20
188.7496286381
 11
200.6856838548
 21
188.6432456721
  0
LINE
  5
228
100
AcDbEntity
  8
0
100
AcDbLine
 62
7
  6
CONTINUOUS
 10
197.0294338548
 20
188.7496286381
 11
196.5606824243
 21
188.6432456721
  0
LINE
  5
229
100
AcDbEntity
  8
0
100
AcDbLine
 62
7
  6
CONTINUOUS
 10
204.8106831395
 20
188.1113307674
 11
205.3731831395
 21
188.2177137427
  0
LINE
  5
22A
100
AcDbEntity
  8
0
100
AcDbLine
 62
7
  6
CONTINUOUS
 10
200.6856838548
 20
188.1113307674
 11
201.2481838548
 21
188.2177137427
  0
LINE
  5
22B
100
AcDbEntity
  8
0
100
AcDbLine
 62
7
  6
CONTINUOUS
 10
212.31068457
 20
190.3453733523
 11
211.7481824243
 21
190.2389903862
  0
LINE
  5
22C
100
AcDbEntity
  8
0
100
AcDbLine
 62
7
  6
CONTINUOUS
 10
196.5606824243
 20
188.1113307674
 11
197.1231824243
 21
188.2177137427
  0
LINE
  5
22D
100
AcDbEntity
  8
0
100
AcDbLine
 62
7
  6
CONTINUOUS
 10
192.4356831395
 20
188.1113307674
 11
192.9981831395
 21
188.2177137427
  0
LINE
  5
22E
100
AcDbEntity
  8
0
100
AcDbLine
 62
7
  6
CONTINUOUS
 10
212.1231831395
 20
191.5155859787
 11
211.4669324243
 21
191.4092030127
  0
LINE
  5
22F
100
AcDbEntity
  8
0
100
AcDbLine
 62
7
  6
CONTINUOUS
 10
175.8419331395
 20
188.1113307674
 11
179.2169331395
 21
188.1113307674
  0
LINE
  5
230
100
AcDbEntity
  8
0
100
AcDbLine
 62
7
  6
CONTINUOUS
 10
181.4669331395
 20
188.1113307674
 11
182.3106831395
 21
188.1113307674
  0
LINE
  5
231
100
AcDbEntity
  8
0
100
AcDbLine
 62
7
  6
CONTINUOUS
 10
189.4356827819
 20
188.1113307674
 11
189.9981827819
 21
188.1113307674
  0
LINE
  5
232
100
AcDbEntity
  8
0
100
AcDbLine
 62
7
  6
CONTINUOUS
 10
208.3731824243
 20
188.1113307674
 11
208.9356824243
 21
188.1113307674
  0
LINE
  5
233
100
AcDbEntity
  8
0
100
AcDbLine
 62
7
  6
CONTINUOUS
 10
209.7794324243
 20
188.1113307674
 11
210.2481838548
 21
188.1113307674
  0
LINE
  5
234
100
AcDbEntity
  8
0
100
AcDbLine
 62
7
  6
CONTINUOUS
 10
211.935681709
 20
188.1113307674
 11
212.498181709
 21
188.1113307674
  0
LINE
  5
235
100
AcDbEntity
  8
0
100
AcDbLine
 62
7
  6
CONTINUOUS
 10
213.5294331395
 20
188.1113307674
 11
213.99818457
 21
188.1113307674
  0
LINE
  5
236
100
AcDbEntity
  8
0
100
AcDbLine
 62
7
  6
CONTINUOUS
 10
214.748181709
 20
188.1113307674
 11
215.310681709
 21
188.1113307674
  0
LINE
  5
237
100
AcDbEntity
  8
0
100
AcDbLine
 62
7
  6
CONTINUOUS
 10
217.65443457
 20
188.1113307674
 11
218.49818457
 21
188.1113307674
  0
LINE
  5
238
100
AcDbEntity
  8
0
100
AcDbLine
 62
7
  6
CONTINUOUS
 10
212.498181709
 20
188.5368626688
 11
211.935681709
 21
188.5368626688
  0
LINE
  5
239
100
AcDbEntity
  8
0
100
AcDbLine
 62
7
  6
CONTINUOUS
 10
208.9356824243
 20
188.6432456721
 11
208.5606838548
 21
188.6432456721
  0
LINE
  5
23A
100
AcDbEntity
  8
0
100
AcDbLine
 62
7
  6
CONTINUOUS
 10
182.3106831395
 20
188.7496286381
 11
181.4669331395
 21
188.7496286381
  0
LINE
  5
23B
100
AcDbEntity
  8
0
100
AcDbLine
 62
7
  6
CONTINUOUS
 10
179.2169331395
 20
188.7496286381
 11
176.4044331395
 21
188.7496286381
  0
LINE
  5
23C
100
AcDbEntity
  8
0
100
AcDbLine
 62
7
  6
CONTINUOUS
 10
183.6231829607
 20
189.3879265089
 11
183.0606829607
 21
189.3879265089
  0
LINE
  5
23D
100
AcDbEntity
  8
0
100
AcDbLine
 62
7
  6
CONTINUOUS
 10
212.31068457
 20
189.9198413391
 11
213.341931709
 21
189.9198413391
  0
LINE
  5
23E
100
AcDbEntity
  8
0
100
AcDbLine
 62
7
  6
CONTINUOUS
 10
213.341931709
 20
190.3453733523
 11
212.31068457
 21
190.3453733523
  0
LINE
  5
23F
100
AcDbEntity
  8
0
100
AcDbLine
 62
7
  6
CONTINUOUS
 10
191.8731831395
 20
188.2177137427
 11
192.4356831395
 21
188.1113307674
  0
LINE
  5
240
100
AcDbEntity
  8
0
100
AcDbLine
 62
7
  6
CONTINUOUS
 10
195.9981824243
 20
188.2177137427
 11
196.5606824243
 21
188.1113307674
  0
LINE
  5
241
100
AcDbEntity
  8
0
100
AcDbLine
 62
7
  6
CONTINUOUS
 10
200.1231838548
 20
188.2177137427
 11
200.6856838548
 21
188.1113307674
  0
LINE
  5
242
100
AcDbEntity
  8
0
100
AcDbLine
 62
7
  6
CONTINUOUS
 10
204.2481831395
 20
188.2177137427
 11
204.8106831395
 21
188.1113307674
  0
LINE
  5
243
100
AcDbEntity
  8
0
100
AcDbLine
 62
7
  6
CONTINUOUS
 10
180.9981833183
 20
188.2177137427
 11
181.4669331395
 21
188.1113307674
  0
LINE
  5
244
100
AcDbEntity
  8
0
100
AcDbLine
 62
7
  6
CONTINUOUS
 10
192.4356831395
 20
188.6432456721
 11
191.9669327819
 21
188.7496286381
  0
LINE
  5
245
100
AcDbEntity
  8
0
100
AcDbLine
 62
7
  6
CONTINUOUS
 10
196.5606824243
 20
188.6432456721
 11
196.0919331395
 21
188.7496286381
  0
LINE
  5
246
100
AcDbEntity
  8
0
100
AcDbLine
 62
7
  6
CONTINUOUS
 10
200.6856838548
 20
188.6432456721
 11
200.2169324243
 21
188.7496286381
  0
LINE
  5
247
100
AcDbEntity
  8
0
100
AcDbLine
 62
7
  6
CONTINUOUS
 10
182.7794329607
 20
193.0049478013
 11
182.3106831395
 21
193.1113307674
  0
LINE
  5
248
100
AcDbEntity
  8
0
100
AcDbLine
 62
7
  6
CONTINUOUS
 10
204.8106831395
 20
188.6432456721
 11
204.3419338548
 21
188.7496286381
  0
LINE
  5
249
100
AcDbEntity
  8
0
100
AcDbLine
 62
7
  6
CONTINUOUS
 10
181.4669331395
 20
188.7496286381
 11
181.0919329607
 21
188.8560116042
  0
LINE
  5
24A
100
AcDbEntity
  8
0
100
AcDbLine
 62
7
  6
CONTINUOUS
 10
182.3106831395
 20
192.4730329711
 11
182.6856833183
 21
192.3666500051
  0
LINE
  5
24B
100
AcDbEntity
  8
0
100
AcDbLine
 62
7
  6
CONTINUOUS
 10
183.1544331395
 20
192.7921818693
 11
182.7794329607
 21
193.0049478013
  0
LINE
  5
24C
100
AcDbEntity
  8
0
100
AcDbLine
 62
7
  6
CONTINUOUS
 10
180.8106829607
 20
195.9304797028
 11
181.1856831395
 21
195.7177137427
  0
LINE
  5
24D
100
AcDbEntity
  8
0
100
AcDbLine
 62
7
  6
CONTINUOUS
 10
191.4044327819
 20
188.5368626688
 11
191.8731831395
 21
188.2177137427
  0
LINE
  5
24E
100
AcDbEntity
  8
0
100
AcDbLine
 62
7
  6
CONTINUOUS
 10
195.5294331395
 20
188.5368626688
 11
195.9981824243
 21
188.2177137427
  0
LINE
  5
24F
100
AcDbEntity
  8
0
100
AcDbLine
 62
7
  6
CONTINUOUS
 10
182.6856833183
 20
192.3666500051
 11
182.9669333183
 21
192.153884073
  0
LINE
  5
250
100
AcDbEntity
  8
0
100
AcDbLine
 62
7
  6
CONTINUOUS
 10
181.2794333183
 20
196.3560116042
 11
180.9981833183
 21
196.5687776108
  0
LINE
  5
251
100
AcDbEntity
  8
0
100
AcDbLine
 62
7
  6
CONTINUOUS
 10
191.9669327819
 20
188.7496286381
 11
191.6856827819
 21
188.9623945702
  0
LINE
  5
252
100
AcDbEntity
  8
0
100
AcDbLine
 62
7
  6
CONTINUOUS
 10
178.9356831395
 20
200.1857989032
 11
178.5606832289
 21
200.5049478013
  0
LINE
  5
253
100
AcDbEntity
  8
0
100
AcDbLine
 62
7
  6
CONTINUOUS
 10
183.5294333183
 20
192.3666500051
 11
183.1544331395
 21
192.7921818693
  0
LINE
  5
254
100
AcDbEntity
  8
0
100
AcDbLine
 62
7
  6
CONTINUOUS
 10
180.4356833183
 20
196.3560116042
 11
180.8106829607
 21
195.9304797028
  0
LINE
  5
255
100
AcDbEntity
  8
0
100
AcDbLine
 62
7
  6
CONTINUOUS
 10
178.4669330501
 20
199.9730329711
 11
178.6544331395
 21
199.7602670391
  0
LINE
  5
256
100
AcDbEntity
  8
0
100
AcDbLine
 62
7
  6
CONTINUOUS
 10
179.2169331395
 20
199.7602670391
 11
178.9356831395
 21
200.1857989032
  0
LINE
  5
257
100
AcDbEntity
  8
0
100
AcDbLine
 62
7
  6
CONTINUOUS
 10
180.8106829607
 20
189.0687776108
 11
180.6231831395
 21
189.3879265089
  0
LINE
  5
258
100
AcDbEntity
  8
0
100
AcDbLine
 62
7
  6
CONTINUOUS
 10
180.9981833183
 20
196.5687776108
 11
180.8106829607
 21
196.8879265089
  0
LINE
  5
259
100
AcDbEntity
  8
0
100
AcDbLine
 62
7
  6
CONTINUOUS
 10
180.0606831395
 20
189.2815435429
 11
180.2481832289
 21
188.8560116042
  0
LINE
  5
25A
100
AcDbEntity
  8
0
100
AcDbLine
 62
7
  6
CONTINUOUS
 10
180.2481832289
 20
196.7815435429
 11
180.4356833183
 21
196.3560116042
  0
LINE
  5
25B
100
AcDbEntity
  8
0
100
AcDbLine
 62
7
  6
CONTINUOUS
 10
179.4044332289
 20
195.6113307674
 11
178.5606832289
 21
198.0581392844
  0
LINE
  5
25C
100
AcDbEntity
  8
0
100
AcDbLine
 62
7
  6
CONTINUOUS
 10
177.9981830948
 20
197.8453733523
 11
178.7481830501
 21
195.6113307674
  0
LINE
  5
25D
100
AcDbEntity
  8
0
100
AcDbLine
 62
7
  6
CONTINUOUS
 10
178.6544331395
 20
199.7602670391
 11
178.7481830501
 21
199.4411181409
  0
LINE
  5
25E
100
AcDbEntity
  8
0
100
AcDbLine
 62
7
  6
CONTINUOUS
 10
179.3106830501
 20
199.4411181409
 11
179.2169331395
 21
199.7602670391
  0
LINE
  5
25F
100
AcDbEntity
  8
0
100
AcDbLine
 62
7
  6
CONTINUOUS
 10
180.6231831395
 20
189.3879265089
 11
180.5294329607
 21
189.8134583731
  0
LINE
  5
260
100
AcDbEntity
  8
0
100
AcDbLine
 62
7
  6
CONTINUOUS
 10
175.8419331395
 20
200.6113307674
 11
175.8419331395
 21
195.6113307674
  0
LINE
  5
261
100
AcDbEntity
  8
0
100
AcDbLine
 62
7
  6
CONTINUOUS
 10
175.8419331395
 20
193.1113307674
 11
175.8419331395
 21
188.1113307674
  0
LINE
  5
262
100
AcDbEntity
  8
0
100
AcDbLine
 62
7
  6
CONTINUOUS
 10
176.4044331395
 20
188.7496286381
 11
176.4044331395
 21
193.1113307674
  0
LINE
  5
263
100
AcDbEntity
  8
0
100
AcDbLine
 62
7
  6
CONTINUOUS
 10
176.4044331395
 20
195.6113307674
 11
176.4044331395
 21
197.8453733523
  0
LINE
  5
264
100
AcDbEntity
  8
0
100
AcDbLine
 62
7
  6
CONTINUOUS
 10
176.4044331395
 20
198.4836711485
 11
176.4044331395
 21
200.0794159372
  0
LINE
  5
265
100
AcDbEntity
  8
0
100
AcDbLine
 62
7
  6
CONTINUOUS
 10
178.7481830501
 20
199.4411181409
 11
178.7481830501
 21
199.1219689448
  0
LINE
  5
266
100
AcDbEntity
  8
0
100
AcDbLine
 62
7
  6
CONTINUOUS
 10
179.2169331395
 20
188.1113307674
 11
179.2169331395
 21
188.7496286381
  0
LINE
  5
267
100
AcDbEntity
  8
0
100
AcDbLine
 62
7
  6
CONTINUOUS
 10
179.3106830501
 20
199.0155859787
 11
179.3106830501
 21
199.4411181409
  0
LINE
  5
268
100
AcDbEntity
  8
0
100
AcDbLine
 62
7
  6
CONTINUOUS
 10
179.9669332289
 20
191.4092030127
 11
179.9669332289
 21
189.8134583731
  0
LINE
  5
269
100
AcDbEntity
  8
0
100
AcDbLine
 62
7
  6
CONTINUOUS
 10
180.1544330501
 20
200.6113307674
 11
180.1544330501
 21
197.3134583731
  0
LINE
  5
26A
100
AcDbEntity
  8
0
100
AcDbLine
 62
7
  6
CONTINUOUS
 10
180.5294329607
 20
189.8134583731
 11
180.5294329607
 21
191.4092030127
  0
LINE
  5
26B
100
AcDbEntity
  8
0
100
AcDbLine
 62
7
  6
CONTINUOUS
 10
180.7169333183
 20
197.3134583731
 11
180.7169333183
 21
200.6113307674
  0
LINE
  5
26C
100
AcDbEntity
  8
0
100
AcDbLine
 62
7
  6
CONTINUOUS
 10
182.6856833183
 20
188.8560116042
 11
182.3106831395
 21
188.7496286381
  0
LINE
  5
26D
100
AcDbEntity
  8
0
100
AcDbLine
 62
7
  6
CONTINUOUS
 10
192.9044334972
 20
188.7496286381
 11
192.4356831395
 21
188.6432456721
  0
LINE
  5
26E
100
AcDbEntity
  8
0
100
AcDbLine
 62
7
  6
CONTINUOUS
 10
204.3419338548
 20
192.4730329711
 11
204.8106831395
 21
192.5794159372
  0
LINE
  5
26F
100
AcDbEntity
  8
0
100
AcDbLine
 62
7
  6
CONTINUOUS
 10
182.3106831395
 20
188.1113307674
 11
182.7794329607
 21
188.2177137427
  0
LINE
  5
270
100
AcDbEntity
  8
0
100
AcDbLine
 62
7
  6
CONTINUOUS
 10
200.2169324243
 20
192.4730329711
 11
200.6856838548
 21
192.5794159372
  0
LINE
  5
271
100
AcDbEntity
  8
0
100
AcDbLine
 62
7
  6
CONTINUOUS
 10
196.0919331395
 20
192.4730329711
 11
196.5606824243
 21
192.5794159372
  0
LINE
  5
272
100
AcDbEntity
  8
0
100
AcDbLine
 62
7
  6
CONTINUOUS
 10
191.9669327819
 20
192.4730329711
 11
192.4356831395
 21
192.5794159372
  0
LINE
  5
273
100
AcDbEntity
  8
0
100
AcDbLine
 62
7
  6
CONTINUOUS
 10
204.8106831395
 20
193.1113307674
 11
204.2481831395
 21
193.0049478013
  0
LINE
  5
274
100
AcDbEntity
  8
0
100
AcDbLine
 62
7
  6
CONTINUOUS
 10
200.6856838548
 20
193.1113307674
 11
200.1231838548
 21
193.0049478013
  0
LINE
  5
275
100
AcDbEntity
  8
0
100
AcDbLine
 62
7
  6
CONTINUOUS
 10
196.5606824243
 20
193.1113307674
 11
195.9981824243
 21
193.0049478013
  0
LINE
  5
276
100
AcDbEntity
  8
0
100
AcDbLine
 62
7
  6
CONTINUOUS
 10
192.4356831395
 20
193.1113307674
 11
191.8731831395
 21
193.0049478013
  0
LINE
  5
277
100
AcDbEntity
  8
0
100
AcDbLine
 62
7
  6
CONTINUOUS
 10
210.9981831395
 20
190.6645222504
 11
211.4669324243
 21
190.6645222504
  0
LINE
  5
278
100
AcDbEntity
  8
0
100
AcDbLine
 62
7
  6
CONTINUOUS
 10
208.3731824243
 20
190.9836711485
 11
208.9356824243
 21
190.9836711485
  0
LINE
  5
279
100
AcDbEntity
  8
0
100
AcDbLine
 62
7
  6
CONTINUOUS
 10
212.1231831395
 20
191.0900541146
 11
212.6856831395
 21
191.0900541146
  0
LINE
  5
27A
100
AcDbEntity
  8
0
100
AcDbLine
 62
7
  6
CONTINUOUS
 10
212.6856831395
 20
191.5155859787
 11
212.1231831395
 21
191.5155859787
  0
LINE
  5
27B
100
AcDbEntity
  8
0
100
AcDbLine
 62
7
  6
CONTINUOUS
 10
208.9356824243
 20
191.5155859787
 11
208.3731824243
 21
191.5155859787
  0
LINE
  5
27C
100
AcDbEntity
  8
0
100
AcDbLine
 62
7
  6
CONTINUOUS
 10
183.0606829607
 20
191.8347348769
 11
183.6231829607
 21
191.8347348769
  0
LINE
  5
27D
100
AcDbEntity
  8
0
100
AcDbLine
 62
7
  6
CONTINUOUS
 10
181.4669331395
 20
192.4730329711
 11
182.3106831395
 21
192.4730329711
  0
LINE
  5
27E
100
AcDbEntity
  8
0
100
AcDbLine
 62
7
  6
CONTINUOUS
 10
218.49818457
 20
193.1113307674
 11
217.93568457
 21
193.1113307674
  0
LINE
  5
27F
100
AcDbEntity
  8
0
100
AcDbLine
 62
7
  6
CONTINUOUS
 10
215.591931709
 20
193.1113307674
 11
214.748181709
 21
193.1113307674
  0
LINE
  5
280
100
AcDbEntity
  8
0
100
AcDbLine
 62
7
  6
CONTINUOUS
 10
210.2481838548
 20
193.1113307674
 11
209.7794324243
 21
193.1113307674
  0
LINE
  5
281
100
AcDbEntity
  8
0
100
AcDbLine
 62
7
  6
CONTINUOUS
 10
189.9981827819
 20
193.1113307674
 11
189.4356827819
 21
193.1113307674
  0
LINE
  5
282
100
AcDbEntity
  8
0
100
AcDbLine
 62
7
  6
CONTINUOUS
 10
182.3106831395
 20
193.1113307674
 11
181.4669331395
 21
193.1113307674
  0
LINE
  5
283
100
AcDbEntity
  8
0
100
AcDbLine
 62
7
  6
CONTINUOUS
 10
176.4044331395
 20
193.1113307674
 11
175.8419331395
 21
193.1113307674
  0
LINE
  5
284
100
AcDbEntity
  8
0
100
AcDbLine
 62
7
  6
CONTINUOUS
 10
175.8419331395
 20
195.6113307674
 11
176.4044331395
 21
195.6113307674
  0
LINE
  5
285
100
AcDbEntity
  8
0
100
AcDbLine
 62
7
  6
CONTINUOUS
 10
178.7481830501
 20
195.6113307674
 11
179.4044332289
 21
195.6113307674
  0
LINE
  5
286
100
AcDbEntity
  8
0
100
AcDbLine
 62
7
  6
CONTINUOUS
 10
181.6544329607
 20
195.6113307674
 11
182.0294331395
 21
195.6113307674
  0
LINE
  5
287
100
AcDbEntity
  8
0
100
AcDbLine
 62
7
  6
CONTINUOUS
 10
184.2794331395
 20
195.6113307674
 11
186.5294331395
 21
195.6113307674
  0
LINE
  5
288
100
AcDbEntity
  8
0
100
AcDbLine
 62
7
  6
CONTINUOUS
 10
186.5294331395
 20
196.2496286381
 11
184.8419331395
 21
196.2496286381
  0
LINE
  5
289
100
AcDbEntity
  8
0
100
AcDbLine
 62
7
  6
CONTINUOUS
 10
182.0294331395
 20
196.2496286381
 11
181.6544329607
 21
196.2496286381
  0
LINE
  5
28A
100
AcDbEntity
  8
0
100
AcDbLine
 62
7
  6
CONTINUOUS
 10
192.9981831395
 20
193.0049478013
 11
192.4356831395
 21
193.1113307674
  0
LINE
  5
28B
100
AcDbEntity
  8
0
100
AcDbLine
 62
7
  6
CONTINUOUS
 10
197.1231824243
 20
193.0049478013
 11
196.5606824243
 21
193.1113307674
  0
LINE
  5
28C
100
AcDbEntity
  8
0
100
AcDbLine
 62
7
  6
CONTINUOUS
 10
201.2481838548
 20
193.0049478013
 11
200.6856838548
 21
193.1113307674
  0
LINE
  5
28D
100
AcDbEntity
  8
0
100
AcDbLine
 62
7
  6
CONTINUOUS
 10
213.2481831395
 20
191.4092030127
 11
212.6856831395
 21
191.5155859787
  0
LINE
  5
28E
100
AcDbEntity
  8
0
100
AcDbLine
 62
7
  6
CONTINUOUS
 10
205.3731831395
 20
193.0049478013
 11
204.8106831395
 21
193.1113307674
  0
LINE
  5
28F
100
AcDbEntity
  8
0
100
AcDbLine
 62
7
  6
CONTINUOUS
 10
192.4356831395
 20
192.5794159372
 11
192.9044334972
 21
192.4730329711
  0
LINE
  5
290
100
AcDbEntity
  8
0
100
AcDbLine
 62
7
  6
CONTINUOUS
 10
181.1856831395
 20
195.7177137427
 11
181.6544329607
 21
195.6113307674
  0
LINE
  5
291
100
AcDbEntity
  8
0
100
AcDbLine
 62
7
  6
CONTINUOUS
 10
196.5606824243
 20
192.5794159372
 11
197.0294338548
 21
192.4730329711
  0
LINE
  5
292
100
AcDbEntity
  8
0
100
AcDbLine
 62
7
  6
CONTINUOUS
 10
200.6856838548
 20
192.5794159372
 11
201.1544331395
 21
192.4730329711
  0
LINE
  5
293
100
AcDbEntity
  8
0
100
AcDbLine
 62
7
  6
CONTINUOUS
 10
204.8106831395
 20
192.5794159372
 11
205.2794324243
 21
192.4730329711
  0
LINE
  5
294
100
AcDbEntity
  8
0
100
AcDbLine
 62
7
  6
CONTINUOUS
 10
178.5606832289
 20
200.5049478013
 11
178.0919331395
 21
200.6113307674
  0
LINE
  5
295
100
AcDbEntity
  8
0
100
AcDbLine
 62
7
  6
CONTINUOUS
 10
207.9981838548
 20
188.2177137427
 11
208.3731824243
 21
188.1113307674
  0
LINE
  5
296
100
AcDbEntity
  8
0
100
AcDbLine
 62
7
  6
CONTINUOUS
 10
181.6544329607
 20
196.2496286381
 11
181.2794333183
 21
196.3560116042
  0
LINE
  5
297
100
AcDbEntity
  8
0
100
AcDbLine
 62
7
  6
CONTINUOUS
 10
208.5606838548
 20
188.6432456721
 11
208.1856831395
 21
188.7496286381
  0
LINE
  5
298
100
AcDbEntity
  8
0
100
AcDbLine
 62
7
  6
CONTINUOUS
 10
211.5606831395
 20
188.2177137427
 11
211.935681709
 21
188.1113307674
  0
LINE
  5
299
100
AcDbEntity
  8
0
100
AcDbLine
 62
7
  6
CONTINUOUS
 10
208.9356824243
 20
190.9836711485
 11
209.3106831395
 21
190.8772881825
  0
LINE
  5
29A
100
AcDbEntity
  8
0
100
AcDbLine
 62
7
  6
CONTINUOUS
 10
209.3106831395
 20
191.4092030127
 11
208.9356824243
 21
191.5155859787
  0
LINE
  5
29B
100
AcDbEntity
  8
0
100
AcDbLine
 62
7
  6
CONTINUOUS
 10
212.6856831395
 20
191.0900541146
 11
213.060681709
 21
190.9836711485
  0
LINE
  5
29C
100
AcDbEntity
  8
0
100
AcDbLine
 62
7
  6
CONTINUOUS
 10
186.5294331395
 20
199.9730329711
 11
186.9044327819
 21
199.8666500051
  0
LINE
  5
29D
100
AcDbEntity
  8
0
100
AcDbLine
 62
7
  6
CONTINUOUS
 10
178.1856830501
 20
200.0794159372
 11
178.4669330501
 21
199.9730329711
  0
LINE
  5
29E
100
AcDbEntity
  8
0
100
AcDbLine
 62
7
  6
CONTINUOUS
 10
187.3731831395
 20
200.2921818693
 11
186.9981834972
 21
200.5049478013
  0
LINE
  5
29F
100
AcDbEntity
  8
0
100
AcDbLine
 62
7
  6
CONTINUOUS
 10
211.3731838548
 20
188.3240967181
 11
211.5606831395
 21
188.2177137427
  0
LINE
  5
2A0
100
AcDbEntity
  8
0
100
AcDbLine
 62
7
  6
CONTINUOUS
 10
193.4669334972
 20
192.6857989032
 11
192.9981831395
 21
193.0049478013
  0
LINE
  5
2A1
100
AcDbEntity
  8
0
100
AcDbLine
 62
7
  6
CONTINUOUS
 10
199.6544324243
 20
188.5368626688
 11
200.1231838548
 21
188.2177137427
  0
LINE
  5
2A2
100
AcDbEntity
  8
0
100
AcDbLine
 62
7
  6
CONTINUOUS
 10
197.5919338548
 20
192.6857989032
 11
197.1231824243
 21
193.0049478013
  0
LINE
  5
2A3
100
AcDbEntity
  8
0
100
AcDbLine
 62
7
  6
CONTINUOUS
 10
203.7794338548
 20
188.5368626688
 11
204.2481831395
 21
188.2177137427
  0
LINE
  5
2A4
100
AcDbEntity
  8
0
100
AcDbLine
 62
7
  6
CONTINUOUS
 10
196.0919331395
 20
188.7496286381
 11
195.8106831395
 21
188.9623945702
  0
LINE
  5
2A5
100
AcDbEntity
  8
0
100
AcDbLine
 62
7
  6
CONTINUOUS
 10
192.9044334972
 20
192.4730329711
 11
193.1856834972
 21
192.2602670391
  0
LINE
  5
2A6
100
AcDbEntity
  8
0
100
AcDbLine
 62
7
  6
CONTINUOUS
 10
200.2169324243
 20
188.7496286381
 11
199.9356824243
 21
188.9623945702
  0
LINE
  5
2A7
100
AcDbEntity
  8
0
100
AcDbLine
 62
7
  6
CONTINUOUS
 10
186.9044327819
 20
199.8666500051
 11
187.1856827819
 21
199.653884073
  0
LINE
  5
2A8
100
AcDbEntity
  8
0
100
AcDbLine
 62
7
  6
CONTINUOUS
 10
197.0294338548
 20
192.4730329711
 11
197.3106838548
 21
192.2602670391
  0
LINE
  5
2A9
100
AcDbEntity
  8
0
100
AcDbLine
 62
7
  6
CONTINUOUS
 10
204.3419338548
 20
188.7496286381
 11
204.0606838548
 21
188.9623945702
  0
LINE
  5
2AA
100
AcDbEntity
  8
0
100
AcDbLine
 62
7
  6
CONTINUOUS
 10
191.1231827819
 20
188.8560116042
 11
191.4044327819
 21
188.5368626688
  0
LINE
  5
2AB
100
AcDbEntity
  8
0
100
AcDbLine
 62
7
  6
CONTINUOUS
 10
195.2481831395
 20
188.8560116042
 11
195.5294331395
 21
188.5368626688
  0
LINE
  5
2AC
100
AcDbEntity
  8
0
100
AcDbLine
 62
7
  6
CONTINUOUS
 10
193.7481834972
 20
192.3666500051
 11
193.4669334972
 21
192.6857989032
  0
LINE
  5
2AD
100
AcDbEntity
  8
0
100
AcDbLine
 62
7
  6
CONTINUOUS
 10
187.7481827819
 20
199.8666500051
 11
187.3731831395
 21
200.2921818693
  0
LINE
  5
2AE
100
AcDbEntity
  8
0
100
AcDbLine
 62
7
  6
CONTINUOUS
 10
199.3731824243
 20
188.8560116042
 11
199.6544324243
 21
188.5368626688
  0
LINE
  5
2AF
100
AcDbEntity
  8
0
100
AcDbLine
 62
7
  6
CONTINUOUS
 10
191.6856827819
 20
188.9623945702
 11
191.3106831395
 21
189.600692441
  0
LINE
  5
2B0
100
AcDbEntity
  8
0
100
AcDbLine
 62
7
  6
CONTINUOUS
 10
187.1856827819
 20
199.653884073
 11
187.3731831395
 21
199.3347348769
  0
LINE
  5
2B1
100
AcDbEntity
  8
0
100
AcDbLine
 62
7
  6
CONTINUOUS
 10
190.9356834972
 20
189.2815435429
 11
191.1231827819
 21
188.8560116042
  0
LINE
  5
2B2
100
AcDbEntity
  8
0
100
AcDbLine
 62
7
  6
CONTINUOUS
 10
182.9669333183
 20
192.153884073
 11
183.0606829607
 21
191.8347348769
  0
LINE
  5
2B3
100
AcDbEntity
  8
RUNDUNGEN
100
AcDbLine
 62
7
  6
CONTINUOUS
 10
174.2151726344
 20
221.2363307674
 11
171.794558043
 21
230.6113307674
  0
LINE
  5
2B4
100
AcDbEntity
  8
0
100
AcDbLine
 62
7
  6
CONTINUOUS
 10
180.8106829607
 20
196.8879265089
 11
180.7169333183
 21
197.3134583731
  0
LINE
  5
2B5
100
AcDbEntity
  8
0
100
AcDbLine
 62
7
  6
CONTINUOUS
 10
179.9669332289
 20
189.8134583731
 11
180.0606831395
 21
189.2815435429
  0
LINE
  5
2B6
100
AcDbEntity
  8
0
100
AcDbLine
 62
7
  6
CONTINUOUS
 10
180.1544330501
 20
197.3134583731
 11
180.2481832289
 21
196.7815435429
  0
LINE
  5
2B7
100
AcDbEntity
  8
0
100
AcDbLine
 62
7
  6
CONTINUOUS
 10
183.6231829607
 20
191.8347348769
 11
183.5294333183
 21
192.3666500051
  0
LINE
  5
2B8
100
AcDbEntity
  8
0
100
AcDbLine
 62
7
  6
CONTINUOUS
 10
182.9669333183
 20
200.6113307674
 11
182.9669333183
 21
197.3134583731
  0
LINE
  5
2B9
100
AcDbEntity
  8
0
100
AcDbLine
 62
7
  6
CONTINUOUS
 10
183.5294333183
 20
197.3134583731
 11
183.5294333183
 21
200.6113307674
  0
LINE
  5
2BA
100
AcDbEntity
  8
0
100
AcDbLine
 62
7
  6
CONTINUOUS
 10
184.2794331395
 20
200.6113307674
 11
184.2794331395
 21
195.6113307674
  0
LINE
  5
2BB
100
AcDbEntity
  8
0
100
AcDbLine
 62
7
  6
CONTINUOUS
 10
184.8419331395
 20
196.2496286381
 11
184.8419331395
 21
199.9730329711
  0
LINE
  5
2BC
100
AcDbEntity
  8
0
100
AcDbLine
 62
7
  6
CONTINUOUS
 10
187.4669327819
 20
198.9092030127
 11
187.4669327819
 21
197.3134583731
  0
LINE
  5
2BD
100
AcDbEntity
  8
0
100
AcDbLine
 62
7
  6
CONTINUOUS
 10
188.0294327819
 20
197.3134583731
 11
188.0294327819
 21
198.9092030127
  0
LINE
  5
2BE
100
AcDbEntity
  8
0
100
AcDbLine
 62
7
  6
CONTINUOUS
 10
180.0606831395
 20
191.9411181409
 11
179.9669332289
 21
191.4092030127
  0
LINE
  5
2BF
100
AcDbEntity
  8
0
100
AcDbLine
 62
7
  6
CONTINUOUS
 10
183.4356831395
 20
196.7815435429
 11
183.5294333183
 21
197.3134583731
  0
LINE
  5
2C0
100
AcDbEntity
  8
0
100
AcDbLine
 62
7
  6
CONTINUOUS
 10
183.5294333183
 20
188.8560116042
 11
183.6231829607
 21
189.3879265089
  0
LINE
  5
2C1
100
AcDbEntity
  8
0
100
AcDbLine
 62
7
  6
CONTINUOUS
 10
180.5294329607
 20
191.4092030127
 11
180.6231831395
 21
191.8347348769
  0
LINE
  5
2C2
100
AcDbEntity
  8
0
100
AcDbLine
 62
7
  6
CONTINUOUS
 10
182.9669333183
 20
197.3134583731
 11
182.8731831395
 21
196.8879265089
  0
LINE
  5
2C3
100
AcDbEntity
  8
0
100
AcDbLine
 62
7
  6
CONTINUOUS
 10
178.7481830501
 20
199.1219689448
 11
178.6544331395
 21
198.8028200467
  0
LINE
  5
2C4
100
AcDbEntity
  8
0
100
AcDbLine
 62
7
  6
CONTINUOUS
 10
179.2169331395
 20
198.6964370806
 11
179.3106830501
 21
199.0155859787
  0
LINE
  5
2C5
100
AcDbEntity
  8
0
100
AcDbLine
 62
7
  6
CONTINUOUS
 10
181.0919329607
 20
192.3666500051
 11
181.4669331395
 21
192.4730329711
  0
LINE
  5
2C6
100
AcDbEntity
  8
0
100
AcDbLine
 62
7
  6
CONTINUOUS
 10
186.9044327819
 20
196.3560116042
 11
186.5294331395
 21
196.2496286381
  0
LINE
  5
2C7
100
AcDbEntity
  8
0
100
AcDbLine
 62
7
  6
CONTINUOUS
 10
182.4044333183
 20
196.3560116042
 11
182.0294331395
 21
196.2496286381
  0
LINE
  5
2C8
100
AcDbEntity
  8
0
100
AcDbLine
 62
7
  6
CONTINUOUS
 10
181.4669331395
 20
193.1113307674
 11
180.9981833183
 21
193.0049478013
  0
LINE
  5
2C9
100
AcDbEntity
  8
0
100
AcDbLine
 62
7
  6
CONTINUOUS
 10
186.5294331395
 20
195.6113307674
 11
186.9981834972
 21
195.7177137427
  0
LINE
  5
2CA
100
AcDbEntity
  8
0
100
AcDbLine
 62
7
  6
CONTINUOUS
 10
182.0294331395
 20
195.6113307674
 11
182.4981829607
 21
195.7177137427
  0
LINE
  5
2CB
100
AcDbEntity
  8
0
100
AcDbLine
 62
7
  6
CONTINUOUS
 10
176.4044331395
 20
197.8453733523
 11
177.9981830948
 21
197.8453733523
  0
LINE
  5
2CC
100
AcDbEntity
  8
0
100
AcDbLine
 62
7
  6
CONTINUOUS
 10
178.1856830501
 20
198.4836711485
 11
176.4044331395
 21
198.4836711485
  0
LINE
  5
2CD
100
AcDbEntity
  8
0
100
AcDbLine
 62
7
  6
CONTINUOUS
 10
184.8419331395
 20
199.9730329711
 11
186.5294331395
 21
199.9730329711
  0
LINE
  5
2CE
100
AcDbEntity
  8
0
100
AcDbLine
 62
7
  6
CONTINUOUS
 10
176.4044331395
 20
200.0794159372
 11
178.1856830501
 21
200.0794159372
  0
LINE
  5
2CF
100
AcDbEntity
  8
0
100
AcDbLine
 62
7
  6
CONTINUOUS
 10
186.5294331395
 20
200.6113307674
 11
184.2794331395
 21
200.6113307674
  0
LINE
  5
2D0
100
AcDbEntity
  8
0
100
AcDbLine
 62
7
  6
CONTINUOUS
 10
183.5294333183
 20
200.6113307674
 11
182.9669333183
 21
200.6113307674
  0
LINE
  5
2D1
100
AcDbEntity
  8
0
100
AcDbLine
 62
7
  6
CONTINUOUS
 10
180.7169333183
 20
200.6113307674
 11
180.1544330501
 21
200.6113307674
  0
LINE
  5
2D2
100
AcDbEntity
  8
0
100
AcDbLine
 62
7
  6
CONTINUOUS
 10
178.0919331395
 20
200.6113307674
 11
175.8419331395
 21
200.6113307674
  0
LINE
  5
2D3
100
AcDbEntity
  8
0
100
AcDbLine
 62
7
  6
CONTINUOUS
 10
186.9981834972
 20
200.5049478013
 11
186.5294331395
 21
200.6113307674
  0
LINE
  5
2D4
100
AcDbEntity
  8
0
100
AcDbLine
 62
7
  6
CONTINUOUS
 10
211.935681709
 20
188.5368626688
 11
211.5606831395
 21
188.7496286381
  0
LINE
  5
2D5
100
AcDbEntity
  8
0
100
AcDbLine
 62
7
  6
CONTINUOUS
 10
209.4981824243
 20
191.3028200467
 11
209.3106831395
 21
191.4092030127
  0
LINE
  5
2D6
100
AcDbEntity
  8
0
100
AcDbLine
 62
7
  6
CONTINUOUS
 10
213.060681709
 20
190.9836711485
 11
213.2481831395
 21
190.8772881825
  0
LINE
  5
2D7
100
AcDbEntity
  8
0
100
AcDbLine
 62
7
  6
CONTINUOUS
 10
201.7169331395
 20
192.6857989032
 11
201.2481838548
 21
193.0049478013
  0
LINE
  5
2D8
100
AcDbEntity
  8
0
100
AcDbLine
 62
7
  6
CONTINUOUS
 10
205.8419324243
 20
192.6857989032
 11
205.3731831395
 21
193.0049478013
  0
LINE
  5
2D9
100
AcDbEntity
  8
0
100
AcDbLine
 62
7
  6
CONTINUOUS
 10
201.1544331395
 20
192.4730329711
 11
201.4356831395
 21
192.2602670391
  0
LINE
  5
2DA
100
AcDbEntity
  8
0
100
AcDbLine
 62
7
  6
CONTINUOUS
 10
207.7169338548
 20
188.4304797028
 11
207.9981838548
 21
188.2177137427
  0
LINE
  5
2DB
100
AcDbEntity
  8
0
100
AcDbLine
 62
7
  6
CONTINUOUS
 10
208.1856831395
 20
188.7496286381
 11
207.9044331395
 21
188.9623945702
  0
LINE
  5
2DC
100
AcDbEntity
  8
0
100
AcDbLine
 62
7
  6
CONTINUOUS
 10
205.2794324243
 20
192.4730329711
 11
205.5606824243
 21
192.2602670391
  0
LINE
  5
2DD
100
AcDbEntity
  8
0
100
AcDbLine
 62
7
  6
CONTINUOUS
 10
209.3106831395
 20
190.8772881825
 11
209.5919331395
 21
190.6645222504
  0
LINE
  5
2DE
100
AcDbEntity
  8
0
100
AcDbLine
 62
7
  6
CONTINUOUS
 10
197.8731838548
 20
192.3666500051
 11
197.5919338548
 21
192.6857989032
  0
LINE
  5
2DF
100
AcDbEntity
  8
0
100
AcDbLine
 62
7
  6
CONTINUOUS
 10
203.4981838548
 20
188.8560116042
 11
203.7794338548
 21
188.5368626688
  0
LINE
  5
2E0
100
AcDbEntity
  8
0
100
AcDbLine
 62
7
  6
CONTINUOUS
 10
201.9981831395
 20
192.3666500051
 11
201.7169331395
 21
192.6857989032
  0
LINE
  5
2E1
100
AcDbEntity
  8
0
100
AcDbLine
 62
7
  6
CONTINUOUS
 10
207.4356838548
 20
188.7496286381
 11
207.7169338548
 21
188.4304797028
  0
LINE
  5
2E2
100
AcDbEntity
  8
0
100
AcDbLine
 62
7
  6
CONTINUOUS
 10
193.1856834972
 20
192.2602670391
 11
193.5606831395
 21
191.6219689448
  0
LINE
  5
2E3
100
AcDbEntity
  8
0
100
AcDbLine
 62
7
  6
CONTINUOUS
 10
195.8106831395
 20
188.9623945702
 11
195.4356824243
 21
189.600692441
  0
LINE
  5
2E4
100
AcDbEntity
  8
0
100
AcDbLine
 62
7
  6
CONTINUOUS
 10
197.3106838548
 20
192.2602670391
 11
197.6856824243
 21
191.6219689448
  0
LINE
  5
2E5
100
AcDbEntity
  8
0
100
AcDbLine
 62
7
  6
CONTINUOUS
 10
199.9356824243
 20
188.9623945702
 11
199.5606838548
 21
189.600692441
  0
LINE
  5
2E6
100
AcDbEntity
  8
0
100
AcDbLine
 62
7
  6
CONTINUOUS
 10
187.9356831395
 20
199.4411181409
 11
187.7481827819
 21
199.8666500051
  0
LINE
  5
2E7
100
AcDbEntity
  8
0
100
AcDbLine
 62
7
  6
CONTINUOUS
 10
195.0606838548
 20
189.2815435429
 11
195.2481831395
 21
188.8560116042
  0
LINE
  5
2E8
100
AcDbEntity
  8
0
100
AcDbLine
 62
7
  6
CONTINUOUS
 10
193.9356838548
 20
191.9411181409
 11
193.7481834972
 21
192.3666500051
  0
LINE
  5
2E9
100
AcDbEntity
  8
0
100
AcDbLine
 62
7
  6
CONTINUOUS
 10
199.1856831395
 20
189.2815435429
 11
199.3731824243
 21
188.8560116042
  0
LINE
  5
2EA
100
AcDbEntity
  8
0
100
AcDbLine
 62
7
  6
CONTINUOUS
 10
198.0606831395
 20
191.9411181409
 11
197.8731838548
 21
192.3666500051
  0
LINE
  5
2EB
100
AcDbEntity
  8
0
100
AcDbLine
 62
7
  6
CONTINUOUS
 10
190.8419327819
 20
189.600692441
 11
190.9356834972
 21
189.2815435429
  0
LINE
  5
2EC
100
AcDbEntity
  8
0
100
AcDbLine
 62
7
  6
CONTINUOUS
 10
194.0294324243
 20
191.6219689448
 11
193.9356838548
 21
191.9411181409
  0
LINE
  5
2ED
100
AcDbEntity
  8
0
100
AcDbLine
 62
7
  6
CONTINUOUS
 10
194.9669331395
 20
189.600692441
 11
195.0606838548
 21
189.2815435429
  0
LINE
  5
2EE
100
AcDbEntity
  8
0
100
AcDbLine
 62
7
  6
CONTINUOUS
 10
187.3731831395
 20
199.3347348769
 11
187.4669327819
 21
198.9092030127
  0
LINE
  5
2EF
100
AcDbEntity
  8
0
100
AcDbLine
 62
7
  6
CONTINUOUS
 10
188.0294327819
 20
198.9092030127
 11
187.9356831395
 21
199.4411181409
  0
LINE
  5
2F0
100
AcDbEntity
  8
0
100
AcDbLine
 62
7
  6
CONTINUOUS
 10
190.7481831395
 20
190.1326074202
 11
190.8419327819
 21
189.600692441
  0
LINE
  5
2F1
100
AcDbEntity
  8
0
100
AcDbLine
 62
7
  6
CONTINUOUS
 10
191.3106831395
 20
189.600692441
 11
191.2169334972
 21
190.2389903862
  0
LINE
  5
2F2
100
AcDbEntity
  8
0
100
AcDbLine
 62
7
  6
CONTINUOUS
 10
188.8731827819
 20
192.3666500051
 11
188.8731827819
 21
191.5155859787
  0
LINE
  5
2F3
100
AcDbEntity
  8
0
100
AcDbLine
 62
7
  6
CONTINUOUS
 10
189.4356827819
 20
192.2602670391
 11
189.4356827819
 21
188.1113307674
  0
LINE
  5
2F4
100
AcDbEntity
  8
0
100
AcDbLine
 62
7
  6
CONTINUOUS
 10
189.9981827819
 20
188.1113307674
 11
189.9981827819
 21
193.1113307674
  0
LINE
  5
2F5
100
AcDbEntity
  8
0
100
AcDbLine
 62
7
  6
CONTINUOUS
 10
190.7481831395
 20
191.0900541146
 11
190.7481831395
 21
190.1326074202
  0
LINE
  5
2F6
100
AcDbEntity
  8
0
100
AcDbLine
 62
7
  6
CONTINUOUS
 10
191.2169334972
 20
190.2389903862
 11
191.2169334972
 21
190.9836711485
  0
LINE
  5
2F7
100
AcDbEntity
  8
0
100
AcDbLine
 62
7
  6
CONTINUOUS
 10
193.6544327819
 20
190.9836711485
 11
193.6544327819
 21
190.2389903862
  0
LINE
  5
2F8
100
AcDbEntity
  8
0
100
AcDbLine
 62
7
  6
CONTINUOUS
 10
194.1231831395
 20
190.1326074202
 11
194.1231831395
 21
191.0900541146
  0
LINE
  5
2F9
100
AcDbEntity
  8
0
100
AcDbLine
 62
7
  6
CONTINUOUS
 10
194.8731824243
 20
191.0900541146
 11
194.8731824243
 21
190.1326074202
  0
LINE
  5
2FA
100
AcDbEntity
  8
0
100
AcDbLine
 62
7
  6
CONTINUOUS
 10
191.2169334972
 20
190.9836711485
 11
191.3106831395
 21
191.6219689448
  0
LINE
  5
2FB
100
AcDbEntity
  8
0
100
AcDbLine
 62
7
  6
CONTINUOUS
 10
187.9356831395
 20
196.7815435429
 11
188.0294327819
 21
197.3134583731
  0
LINE
  5
2FC
100
AcDbEntity
  8
0
100
AcDbLine
 62
7
  6
CONTINUOUS
 10
190.8419327819
 20
191.6219689448
 11
190.7481831395
 21
191.0900541146
  0
LINE
  5
2FD
100
AcDbEntity
  8
0
100
AcDbLine
 62
7
  6
CONTINUOUS
 10
187.4669327819
 20
197.3134583731
 11
187.3731831395
 21
196.8879265089
  0
LINE
  5
2FE
100
AcDbEntity
  8
0
100
AcDbLine
 62
7
  6
CONTINUOUS
 10
183.0606829607
 20
189.3879265089
 11
182.9669333183
 21
189.0687776108
  0
LINE
  5
2FF
100
AcDbEntity
  8
0
100
AcDbLine
 62
7
  6
CONTINUOUS
 10
180.2481832289
 20
192.3666500051
 11
180.0606831395
 21
191.9411181409
  0
LINE
  5
300
100
AcDbEntity
  8
0
100
AcDbLine
 62
7
  6
CONTINUOUS
 10
183.2481833183
 20
196.3560116042
 11
183.4356831395
 21
196.7815435429
  0
LINE
  5
301
100
AcDbEntity
  8
0
100
AcDbLine
 62
7
  6
CONTINUOUS
 10
182.8731831395
 20
196.8879265089
 11
182.6856833183
 21
196.5687776108
  0
LINE
  5
302
100
AcDbEntity
  8
0
100
AcDbLine
 62
7
  6
CONTINUOUS
 10
178.9356831395
 20
198.2709052165
 11
179.2169331395
 21
198.6964370806
  0
LINE
  5
303
100
AcDbEntity
  8
0
100
AcDbLine
 62
7
  6
CONTINUOUS
 10
213.5294331395
 20
191.1964370806
 11
213.2481831395
 21
191.4092030127
  0
LINE
  5
304
100
AcDbEntity
  8
0
100
AcDbLine
 62
7
  6
CONTINUOUS
 10
206.1231824243
 20
192.3666500051
 11
205.8419324243
 21
192.6857989032
  0
LINE
  5
305
100
AcDbEntity
  8
0
100
AcDbLine
 62
7
  6
CONTINUOUS
 10
211.0919338548
 20
188.6432456721
 11
211.3731838548
 21
188.3240967181
  0
LINE
  5
306
100
AcDbEntity
  8
0
100
AcDbLine
 62
7
  6
CONTINUOUS
 10
209.6856838548
 20
191.0900541146
 11
209.4981824243
 21
191.3028200467
  0
LINE
  5
307
100
AcDbEntity
  8
0
100
AcDbLine
 62
7
  6
CONTINUOUS
 10
213.71693457
 20
190.9836711485
 11
213.5294331395
 21
191.1964370806
  0
LINE
  5
308
100
AcDbEntity
  8
0
100
AcDbLine
 62
7
  6
CONTINUOUS
 10
201.4356831395
 20
192.2602670391
 11
201.8106838548
 21
191.6219689448
  0
LINE
  5
309
100
AcDbEntity
  8
0
100
AcDbLine
 62
7
  6
CONTINUOUS
 10
204.0606838548
 20
188.9623945702
 11
203.6856831395
 21
189.600692441
  0
LINE
  5
30A
100
AcDbEntity
  8
0
100
AcDbLine
 62
7
  6
CONTINUOUS
 10
205.5606824243
 20
192.2602670391
 11
205.9356831395
 21
191.6219689448
  0
LINE
  5
30B
100
AcDbEntity
  8
0
100
AcDbLine
 62
7
  6
CONTINUOUS
 10
203.3106824243
 20
189.2815435429
 11
203.4981838548
 21
188.8560116042
  0
LINE
  5
30C
100
AcDbEntity
  8
0
100
AcDbLine
 62
7
  6
CONTINUOUS
 10
202.1856824243
 20
191.9411181409
 11
201.9981831395
 21
192.3666500051
  0
LINE
  5
30D
100
AcDbEntity
  8
0
100
AcDbLine
 62
7
  6
CONTINUOUS
 10
198.1544338548
 20
191.6219689448
 11
198.0606831395
 21
191.9411181409
  0
LINE
  5
30E
100
AcDbEntity
  8
0
100
AcDbLine
 62
7
  6
CONTINUOUS
 10
199.0919324243
 20
189.600692441
 11
199.1856831395
 21
189.2815435429
  0
LINE
  5
30F
100
AcDbEntity
  8
0
100
AcDbLine
 62
7
  6
CONTINUOUS
 10
194.1231831395
 20
191.0900541146
 11
194.0294324243
 21
191.6219689448
  0
LINE
  5
310
100
AcDbEntity
  8
0
100
AcDbLine
 62
7
  6
CONTINUOUS
 10
194.8731824243
 20
190.1326074202
 11
194.9669331395
 21
189.600692441
  0
LINE
  5
311
100
AcDbEntity
  8
0
100
AcDbLine
 62
7
  6
CONTINUOUS
 10
198.2481824243
 20
191.0900541146
 11
198.1544338548
 21
191.6219689448
  0
LINE
  5
312
100
AcDbEntity
  8
0
100
AcDbLine
 62
7
  6
CONTINUOUS
 10
198.9981838548
 20
190.1326074202
 11
199.0919324243
 21
189.600692441
  0
LINE
  5
313
100
AcDbEntity
  8
0
100
AcDbLine
 62
7
  6
CONTINUOUS
 10
193.5606831395
 20
191.6219689448
 11
193.6544327819
 21
190.9836711485
  0
LINE
  5
314
100
AcDbEntity
  8
0
100
AcDbLine
 62
7
  6
CONTINUOUS
 10
195.4356824243
 20
189.600692441
 11
195.3419338548
 21
190.2389903862
  0
LINE
  5
315
100
AcDbEntity
  8
0
100
AcDbLine
 62
7
  6
CONTINUOUS
 10
197.6856824243
 20
191.6219689448
 11
197.7794331395
 21
190.9836711485
  0
LINE
  5
316
100
AcDbEntity
  8
0
100
AcDbLine
 62
7
  6
CONTINUOUS
 10
195.3419338548
 20
190.2389903862
 11
195.3419338548
 21
190.9836711485
  0
LINE
  5
317
100
AcDbEntity
  8
0
100
AcDbLine
 62
7
  6
CONTINUOUS
 10
197.7794331395
 20
190.9836711485
 11
197.7794331395
 21
190.2389903862
  0
LINE
  5
318
100
AcDbEntity
  8
0
100
AcDbLine
 62
7
  6
CONTINUOUS
 10
198.2481824243
 20
190.1326074202
 11
198.2481824243
 21
191.0900541146
  0
LINE
  5
319
100
AcDbEntity
  8
0
100
AcDbLine
 62
7
  6
CONTINUOUS
 10
198.9981838548
 20
191.0900541146
 11
198.9981838548
 21
190.1326074202
  0
LINE
  5
31A
100
AcDbEntity
  8
0
100
AcDbLine
 62
7
  6
CONTINUOUS
 10
199.4669331395
 20
190.2389903862
 11
199.4669331395
 21
190.9836711485
  0
LINE
  5
31B
100
AcDbEntity
  8
RUNDUNGEN
100
AcDbLine
 62
7
  6
CONTINUOUS
 10
200.8419331395
 20
166.6113307674
 11
200.8419331395
 21
168.7503379695
  0
LINE
  5
31C
100
AcDbEntity
  8
0
100
AcDbLine
 62
7
  6
CONTINUOUS
 10
193.6544327819
 20
190.2389903862
 11
193.5606831395
 21
189.600692441
  0
LINE
  5
31D
100
AcDbEntity
  8
0
100
AcDbLine
 62
7
  6
CONTINUOUS
 10
195.3419338548
 20
190.9836711485
 11
195.4356824243
 21
191.6219689448
  0
LINE
  5
31E
100
AcDbEntity
  8
0
100
AcDbLine
 62
7
  6
CONTINUOUS
 10
197.7794331395
 20
190.2389903862
 11
197.6856824243
 21
189.600692441
  0
LINE
  5
31F
100
AcDbEntity
  8
0
100
AcDbLine
 62
7
  6
CONTINUOUS
 10
194.0294324243
 20
189.600692441
 11
194.1231831395
 21
190.1326074202
  0
LINE
  5
320
100
AcDbEntity
  8
0
100
AcDbLine
 62
7
  6
CONTINUOUS
 10
194.9669331395
 20
191.6219689448
 11
194.8731824243
 21
191.0900541146
  0
LINE
  5
321
100
AcDbEntity
  8
0
100
AcDbLine
 62
7
  6
CONTINUOUS
 10
190.9356834972
 20
191.9411181409
 11
190.8419327819
 21
191.6219689448
  0
LINE
  5
322
100
AcDbEntity
  8
0
100
AcDbLine
 62
7
  6
CONTINUOUS
 10
193.9356838548
 20
189.2815435429
 11
194.0294324243
 21
189.600692441
  0
LINE
  5
323
100
AcDbEntity
  8
0
100
AcDbLine
 62
7
  6
CONTINUOUS
 10
187.7481827819
 20
196.3560116042
 11
187.9356831395
 21
196.7815435429
  0
LINE
  5
324
100
AcDbEntity
  8
0
100
AcDbLine
 62
7
  6
CONTINUOUS
 10
191.1231827819
 20
192.3666500051
 11
190.9356834972
 21
191.9411181409
  0
LINE
  5
325
100
AcDbEntity
  8
0
100
AcDbLine
 62
7
  6
CONTINUOUS
 10
180.6231831395
 20
191.8347348769
 11
180.8106829607
 21
192.153884073
  0
LINE
  5
326
100
AcDbEntity
  8
0
100
AcDbLine
 62
7
  6
CONTINUOUS
 10
187.3731831395
 20
196.8879265089
 11
187.1856827819
 21
196.5687776108
  0
LINE
  5
327
100
AcDbEntity
  8
0
100
AcDbLine
 62
7
  6
CONTINUOUS
 10
178.6544331395
 20
198.8028200467
 11
178.4669330501
 21
198.5900541146
  0
LINE
  5
328
100
AcDbEntity
  8
0
100
AcDbLine
 62
7
  6
CONTINUOUS
 10
182.8731831395
 20
195.9304797028
 11
183.2481833183
 21
196.3560116042
  0
LINE
  5
329
100
AcDbEntity
  8
0
100
AcDbLine
 62
7
  6
CONTINUOUS
 10
180.6231831395
 20
192.7921818693
 11
180.2481832289
 21
192.3666500051
  0
LINE
  5
32A
100
AcDbEntity
  8
0
100
AcDbLine
 62
7
  6
CONTINUOUS
 10
209.5919331395
 20
190.6645222504
 11
209.7794324243
 21
190.3453733523
  0
LINE
  5
32B
100
AcDbEntity
  8
0
100
AcDbLine
 62
7
  6
CONTINUOUS
 10
207.3419331395
 20
188.9623945702
 11
207.4356838548
 21
188.7496286381
  0
LINE
  5
32C
100
AcDbEntity
  8
0
100
AcDbLine
 62
7
  6
CONTINUOUS
 10
206.3106838548
 20
191.9411181409
 11
206.1231824243
 21
192.3666500051
  0
LINE
  5
32D
100
AcDbEntity
  8
0
100
AcDbLine
 62
7
  6
CONTINUOUS
 10
209.7794324243
 20
190.8772881825
 11
209.6856838548
 21
191.0900541146
  0
LINE
  5
32E
100
AcDbEntity
  8
0
100
AcDbLine
 62
7
  6
CONTINUOUS
 10
211.5606831395
 20
188.7496286381
 11
211.4669324243
 21
188.9623945702
  0
LINE
  5
32F
100
AcDbEntity
  8
0
100
AcDbLine
 62
7
  6
CONTINUOUS
 10
213.43568457
 20
188.3240967181
 11
213.5294331395
 21
188.1113307674
  0
LINE
  5
330
100
AcDbEntity
  8
0
100
AcDbLine
 62
7
  6
CONTINUOUS
 10
207.9044331395
 20
188.9623945702
 11
207.7169338548
 21
189.4943094749
  0
LINE
  5
331
100
AcDbEntity
  8
0
100
AcDbLine
 62
7
  6
CONTINUOUS
 10
202.2794331395
 20
191.6219689448
 11
202.1856824243
 21
191.9411181409
  0
LINE
  5
332
100
AcDbEntity
  8
0
100
AcDbLine
 62
7
  6
CONTINUOUS
 10
203.2169338548
 20
189.600692441
 11
203.3106824243
 21
189.2815435429
  0
LINE
  5
333
100
AcDbEntity
  8
0
100
AcDbLine
 62
7
  6
CONTINUOUS
 10
206.4044324243
 20
191.6219689448
 11
206.3106838548
 21
191.9411181409
  0
LINE
  5
334
100
AcDbEntity
  8
0
100
AcDbLine
 62
7
  6
CONTINUOUS
 10
207.2481824243
 20
189.3879265089
 11
207.3419331395
 21
188.9623945702
  0
LINE
  5
335
100
AcDbEntity
  8
0
100
AcDbLine
 62
7
  6
CONTINUOUS
 10
202.3731838548
 20
191.0900541146
 11
202.2794331395
 21
191.6219689448
  0
LINE
  5
336
100
AcDbEntity
  8
0
100
AcDbLine
 62
7
  6
CONTINUOUS
 10
203.1231831395
 20
190.1326074202
 11
203.2169338548
 21
189.600692441
  0
LINE
  5
337
100
AcDbEntity
  8
0
100
AcDbLine
 62
7
  6
CONTINUOUS
 10
199.5606838548
 20
189.600692441
 11
199.4669331395
 21
190.2389903862
  0
LINE
  5
338
100
AcDbEntity
  8
0
100
AcDbLine
 62
7
  6
CONTINUOUS
 10
201.8106838548
 20
191.6219689448
 11
201.9044324243
 21
190.9836711485
  0
LINE
  5
339
100
AcDbEntity
  8
0
100
AcDbLine
 62
7
  6
CONTINUOUS
 10
203.6856831395
 20
189.600692441
 11
203.5919324243
 21
190.2389903862
  0
LINE
  5
33A
100
AcDbEntity
  8
0
100
AcDbLine
 62
7
  6
CONTINUOUS
 10
201.9044324243
 20
190.9836711485
 11
201.9044324243
 21
190.2389903862
  0
LINE
  5
33B
100
AcDbEntity
  8
0
100
AcDbLine
 62
7
  6
CONTINUOUS
 10
202.3731838548
 20
190.1326074202
 11
202.3731838548
 21
191.0900541146
  0
LINE
  5
33C
100
AcDbEntity
  8
0
100
AcDbLine
 62
7
  6
CONTINUOUS
 10
203.1231831395
 20
191.0900541146
 11
203.1231831395
 21
190.1326074202
  0
LINE
  5
33D
100
AcDbEntity
  8
0
100
AcDbLine
 62
7
  6
CONTINUOUS
 10
203.5919324243
 20
190.2389903862
 11
203.5919324243
 21
190.9836711485
  0
LINE
  5
33E
100
AcDbEntity
  8
0
100
AcDbLine
 62
7
  6
CONTINUOUS
 10
206.0294338548
 20
190.9836711485
 11
206.0294338548
 21
190.2389903862
  0
LINE
  5
33F
100
AcDbEntity
  8
0
100
AcDbLine
 62
7
  6
CONTINUOUS
 10
206.4981831395
 20
190.1326074202
 11
206.4981831395
 21
191.0900541146
  0
LINE
  5
340
100
AcDbEntity
  8
0
100
AcDbLine
 62
7
  6
CONTINUOUS
 10
207.2481824243
 20
190.2389903862
 11
207.2481824243
 21
189.3879265089
  0
LINE
  5
341
100
AcDbEntity
  8
0
100
AcDbLine
 62
7
  6
CONTINUOUS
 10
207.7169338548
 20
189.4943094749
 11
207.7169338548
 21
190.1326074202
  0
LINE
  5
342
100
AcDbEntity
  8
0
100
AcDbLine
 62
7
  6
CONTINUOUS
 10
199.4669331395
 20
190.9836711485
 11
199.5606838548
 21
191.6219689448
  0
LINE
  5
343
100
AcDbEntity
  8
0
100
AcDbLine
 62
7
  6
CONTINUOUS
 10
201.9044324243
 20
190.2389903862
 11
201.8106838548
 21
189.600692441
  0
LINE
  5
344
100
AcDbEntity
  8
0
100
AcDbLine
 62
7
  6
CONTINUOUS
 10
203.5919324243
 20
190.9836711485
 11
203.6856831395
 21
191.6219689448
  0
LINE
  5
345
100
AcDbEntity
  8
0
100
AcDbLine
 62
7
  6
CONTINUOUS
 10
198.1544338548
 20
189.600692441
 11
198.2481824243
 21
190.1326074202
  0
LINE
  5
346
100
AcDbEntity
  8
0
100
AcDbLine
 62
7
  6
CONTINUOUS
 10
199.0919324243
 20
191.6219689448
 11
198.9981838548
 21
191.0900541146
  0
LINE
  5
347
100
AcDbEntity
  8
0
100
AcDbLine
 62
7
  6
CONTINUOUS
 10
202.2794331395
 20
189.600692441
 11
202.3731838548
 21
190.1326074202
  0
LINE
  5
348
100
AcDbEntity
  8
0
100
AcDbLine
 62
7
  6
CONTINUOUS
 10
203.2169338548
 20
191.6219689448
 11
203.1231831395
 21
191.0900541146
  0
LINE
  5
349
100
AcDbEntity
  8
0
100
AcDbLine
 62
7
  6
CONTINUOUS
 10
195.0606838548
 20
191.9411181409
 11
194.9669331395
 21
191.6219689448
  0
LINE
  5
34A
100
AcDbEntity
  8
0
100
AcDbLine
 62
7
  6
CONTINUOUS
 10
198.0606831395
 20
189.2815435429
 11
198.1544338548
 21
189.600692441
  0
LINE
  5
34B
100
AcDbEntity
  8
0
100
AcDbLine
 62
7
  6
CONTINUOUS
 10
199.1856831395
 20
191.9411181409
 11
199.0919324243
 21
191.6219689448
  0
LINE
  5
34C
100
AcDbEntity
  8
0
100
AcDbLine
 62
7
  6
CONTINUOUS
 10
195.2481831395
 20
192.3666500051
 11
195.0606838548
 21
191.9411181409
  0
LINE
  5
34D
100
AcDbEntity
  8
0
100
AcDbLine
 62
7
  6
CONTINUOUS
 10
193.7481834972
 20
188.8560116042
 11
193.9356838548
 21
189.2815435429
  0
LINE
  5
34E
100
AcDbEntity
  8
0
100
AcDbLine
 62
7
  6
CONTINUOUS
 10
191.3106831395
 20
191.6219689448
 11
191.6856827819
 21
192.2602670391
  0
LINE
  5
34F
100
AcDbEntity
  8
0
100
AcDbLine
 62
7
  6
CONTINUOUS
 10
193.5606831395
 20
189.600692441
 11
193.1856834972
 21
188.9623945702
  0
LINE
  5
350
100
AcDbEntity
  8
0
100
AcDbLine
 62
7
  6
CONTINUOUS
 10
189.4356827819
 20
193.1113307674
 11
188.8731827819
 21
192.3666500051
  0
LINE
  5
351
100
AcDbEntity
  8
0
100
AcDbLine
 62
7
  6
CONTINUOUS
 10
188.8731827819
 20
191.5155859787
 11
189.4356827819
 21
192.2602670391
  0
LINE
  5
352
100
AcDbEntity
  8
0
100
AcDbLine
 62
7
  6
CONTINUOUS
 10
187.3731831395
 20
195.9304797028
 11
187.7481827819
 21
196.3560116042
  0
LINE
  5
353
100
AcDbEntity
  8
0
100
AcDbLine
 62
7
  6
CONTINUOUS
 10
183.1544331395
 20
188.4304797028
 11
183.5294333183
 21
188.8560116042
  0
LINE
  5
354
100
AcDbEntity
  8
0
100
AcDbLine
 62
7
  6
CONTINUOUS
 10
182.6856833183
 20
196.5687776108
 11
182.4044333183
 21
196.3560116042
  0
LINE
  5
355
100
AcDbEntity
  8
0
100
AcDbLine
 62
7
  6
CONTINUOUS
 10
180.8106829607
 20
192.153884073
 11
181.0919329607
 21
192.3666500051
  0
LINE
  5
356
100
AcDbEntity
  8
0
100
AcDbLine
 62
7
  6
CONTINUOUS
 10
187.1856827819
 20
196.5687776108
 11
186.9044327819
 21
196.3560116042
  0
LINE
  5
357
100
AcDbEntity
  8
0
100
AcDbLine
 62
7
  6
CONTINUOUS
 10
178.5606832289
 20
198.0581392844
 11
178.9356831395
 21
198.2709052165
  0
LINE
  5
358
100
AcDbEntity
  8
0
100
AcDbLine
 62
7
  6
CONTINUOUS
 10
217.93568457
 20
188.8560116042
 11
215.591931709
 21
193.1113307674
  0
LINE
  5
359
100
AcDbEntity
  8
0
100
AcDbLine
 62
7
  6
CONTINUOUS
 10
215.310681709
 20
192.4730329711
 11
217.65443457
 21
188.1113307674
  0
LINE
  5
35A
100
AcDbEntity
  8
0
100
AcDbLine
 62
7
  6
CONTINUOUS
 10
213.2481831395
 20
190.8772881825
 11
213.341931709
 21
190.6645222504
  0
LINE
  5
35B
100
AcDbEntity
  8
0
100
AcDbLine
 62
7
  6
CONTINUOUS
 10
213.341931709
 20
188.6432456721
 11
213.43568457
 21
188.3240967181
  0
LINE
  5
35C
100
AcDbEntity
  8
0
100
AcDbLine
 62
7
  6
CONTINUOUS
 10
213.99818457
 20
188.1113307674
 11
213.904431709
 21
188.4304797028
  0
LINE
  5
35D
100
AcDbEntity
  8
0
100
AcDbLine
 62
7
  6
CONTINUOUS
 10
213.8106831395
 20
190.6645222504
 11
213.71693457
 21
190.9836711485
  0
LINE
  5
35E
100
AcDbEntity
  8
0
100
AcDbLine
 62
7
  6
CONTINUOUS
 10
210.9981831395
 20
189.0687776108
 11
211.0919338548
 21
188.6432456721
  0
LINE
  5
35F
100
AcDbEntity
  8
0
100
AcDbLine
 62
7
  6
CONTINUOUS
 10
206.4981831395
 20
191.0900541146
 11
206.4044324243
 21
191.6219689448
  0
LINE
  5
360
100
AcDbEntity
  8
0
100
AcDbLine
 62
7
  6
CONTINUOUS
 10
205.9356831395
 20
191.6219689448
 11
206.0294338548
 21
190.9836711485
  0
LINE
  5
361
100
AcDbEntity
  8
0
100
AcDbLine
 62
7
  6
CONTINUOUS
 10
209.7794324243
 20
193.1113307674
 11
209.7794324243
 21
190.8772881825
  0
LINE
  5
362
100
AcDbEntity
  8
0
100
AcDbLine
 62
7
  6
CONTINUOUS
 10
209.7794324243
 20
190.3453733523
 11
209.7794324243
 21
189.2815435429
  0
LINE
  5
363
100
AcDbEntity
  8
0
100
AcDbLine
 62
7
  6
CONTINUOUS
 10
209.7794324243
 20
188.7496286381
 11
209.7794324243
 21
188.1113307674
  0
LINE
  5
364
100
AcDbEntity
  8
0
100
AcDbLine
 62
7
  6
CONTINUOUS
 10
210.2481838548
 20
188.1113307674
 11
210.2481838548
 21
193.1113307674
  0
LINE
  5
365
100
AcDbEntity
  8
0
100
AcDbLine
 62
7
  6
CONTINUOUS
 10
210.9981831395
 20
190.8772881825
 11
210.9981831395
 21
190.6645222504
  0
LINE
  5
366
100
AcDbEntity
  8
0
100
AcDbLine
 62
7
  6
CONTINUOUS
 10
210.9981831395
 20
189.3879265089
 11
210.9981831395
 21
189.0687776108
  0
LINE
  5
367
100
AcDbEntity
  8
0
100
AcDbLine
 62
7
  6
CONTINUOUS
 10
211.4669324243
 20
188.9623945702
 11
211.4669324243
 21
189.1751605768
  0
LINE
  5
368
100
AcDbEntity
  8
0
100
AcDbLine
 62
7
  6
CONTINUOUS
 10
213.341931709
 20
190.6645222504
 11
213.341931709
 21
190.3453733523
  0
LINE
  5
369
100
AcDbEntity
  8
0
100
AcDbLine
 62
7
  6
CONTINUOUS
 10
213.341931709
 20
189.9198413391
 11
213.341931709
 21
189.2815435429
  0
LINE
  5
36A
100
AcDbEntity
  8
0
100
AcDbLine
 62
7
  6
CONTINUOUS
 10
213.8106831395
 20
188.9623945702
 11
213.8106831395
 21
190.6645222504
  0
LINE
  5
36B
100
AcDbEntity
  8
0
100
AcDbLine
 62
7
  6
CONTINUOUS
 10
214.748181709
 20
193.1113307674
 11
214.748181709
 21
188.1113307674
  0
LINE
  5
36C
100
AcDbEntity
  8
0
100
AcDbLine
 62
7
  6
CONTINUOUS
 10
206.0294338548
 20
190.2389903862
 11
205.9356831395
 21
189.600692441
  0
LINE
  5
36D
100
AcDbEntity
  8
0
100
AcDbLine
 62
7
  6
CONTINUOUS
 10
206.4044324243
 20
189.600692441
 11
206.4981831395
 21
190.1326074202
  0
LINE
  5
36E
100
AcDbEntity
  8
0
100
AcDbLine
 62
7
  6
CONTINUOUS
 10
207.3419331395
 20
190.6645222504
 11
207.2481824243
 21
190.2389903862
  0
LINE
  5
36F
100
AcDbEntity
  8
0
100
AcDbLine
 62
7
  6
CONTINUOUS
 10
202.1856824243
 20
189.2815435429
 11
202.2794331395
 21
189.600692441
  0
LINE
  5
370
100
AcDbEntity
  8
0
100
AcDbLine
 62
7
  6
CONTINUOUS
 10
203.3106824243
 20
191.9411181409
 11
203.2169338548
 21
191.6219689448
  0
LINE
  5
371
100
AcDbEntity
  8
0
100
AcDbLine
 62
7
  6
CONTINUOUS
 10
206.3106838548
 20
189.2815435429
 11
206.4044324243
 21
189.600692441
  0
LINE
  5
372
100
AcDbEntity
  8
0
100
AcDbLine
 62
7
  6
CONTINUOUS
 10
207.7169338548
 20
190.1326074202
 11
207.8106824243
 21
190.4517563183
  0
LINE
  5
373
100
AcDbEntity
  8
0
100
AcDbLine
 62
7
  6
CONTINUOUS
 10
199.3731824243
 20
192.3666500051
 11
199.1856831395
 21
191.9411181409
  0
LINE
  5
374
100
AcDbEntity
  8
0
100
AcDbLine
 62
7
  6
CONTINUOUS
 10
197.8731838548
 20
188.8560116042
 11
198.0606831395
 21
189.2815435429
  0
LINE
  5
375
100
AcDbEntity
  8
0
100
AcDbLine
 62
7
  6
CONTINUOUS
 10
203.4981838548
 20
192.3666500051
 11
203.3106824243
 21
191.9411181409
  0
LINE
  5
376
100
AcDbEntity
  8
0
100
AcDbLine
 62
7
  6
CONTINUOUS
 10
201.9981831395
 20
188.8560116042
 11
202.1856824243
 21
189.2815435429
  0
LINE
  5
377
100
AcDbEntity
  8
0
100
AcDbLine
 62
7
  6
CONTINUOUS
 10
195.4356824243
 20
191.6219689448
 11
195.8106831395
 21
192.2602670391
  0
LINE
  5
378
100
AcDbEntity
  8
0
100
AcDbLine
 62
7
  6
CONTINUOUS
 10
197.6856824243
 20
189.600692441
 11
197.3106838548
 21
188.9623945702
  0
LINE
  5
379
100
AcDbEntity
  8
0
100
AcDbLine
 62
7
  6
CONTINUOUS
 10
199.5606838548
 20
191.6219689448
 11
199.9356824243
 21
192.2602670391
  0
LINE
  5
37A
100
AcDbEntity
  8
0
100
AcDbLine
 62
7
  6
CONTINUOUS
 10
191.4044327819
 20
192.6857989032
 11
191.1231827819
 21
192.3666500051
  0
LINE
  5
37B
100
AcDbEntity
  8
0
100
AcDbLine
 62
7
  6
CONTINUOUS
 10
195.5294331395
 20
192.6857989032
 11
195.2481831395
 21
192.3666500051
  0
LINE
  5
37C
100
AcDbEntity
  8
0
100
AcDbLine
 62
7
  6
CONTINUOUS
 10
193.4669334972
 20
188.5368626688
 11
193.7481834972
 21
188.8560116042
  0
LINE
  5
37D
100
AcDbEntity
  8
0
100
AcDbLine
 62
7
  6
CONTINUOUS
 10
182.9669333183
 20
189.0687776108
 11
182.6856833183
 21
188.8560116042
  0
LINE
  5
37E
100
AcDbEntity
  8
0
100
AcDbLine
 62
7
  6
CONTINUOUS
 10
191.6856827819
 20
192.2602670391
 11
191.9669327819
 21
192.4730329711
  0
LINE
  5
37F
100
AcDbEntity
  8
0
100
AcDbLine
 62
7
  6
CONTINUOUS
 10
191.8731831395
 20
193.0049478013
 11
191.4044327819
 21
192.6857989032
  0
LINE
  5
380
100
AcDbEntity
  8
0
100
AcDbLine
 62
7
  6
CONTINUOUS
 10
182.4981829607
 20
195.7177137427
 11
182.8731831395
 21
195.9304797028
  0
LINE
  5
381
100
AcDbEntity
  8
0
100
AcDbLine
 62
7
  6
CONTINUOUS
 10
180.9981833183
 20
193.0049478013
 11
180.6231831395
 21
192.7921818693
  0
LINE
  5
382
100
AcDbEntity
  8
0
100
AcDbLine
 62
7
  6
CONTINUOUS
 10
186.9981834972
 20
195.7177137427
 11
187.3731831395
 21
195.9304797028
  0
LINE
  5
383
100
AcDbEntity
  8
0
100
AcDbLine
 62
7
  6
CONTINUOUS
 10
178.4669330501
 20
198.5900541146
 11
178.1856830501
 21
198.4836711485
  0
LINE
  5
384
100
AcDbEntity
  8
0
100
AcDbLine
 62
7
  6
CONTINUOUS
 10
213.904431709
 20
188.4304797028
 11
213.8106831395
 21
188.9623945702
  0
LINE
  5
385
100
AcDbEntity
  8
0
100
AcDbLine
 62
7
  6
CONTINUOUS
 10
215.310681709
 20
188.1113307674
 11
215.310681709
 21
192.4730329711
  0
LINE
  5
386
100
AcDbEntity
  8
0
100
AcDbLine
 62
7
  6
CONTINUOUS
 10
217.93568457
 20
193.1113307674
 11
217.93568457
 21
188.8560116042
  0
LINE
  5
387
100
AcDbEntity
  8
0
100
AcDbLine
 62
7
  6
CONTINUOUS
 10
218.49818457
 20
188.1113307674
 11
218.49818457
 21
193.1113307674
  0
LINE
  5
388
100
AcDbEntity
  8
0
100
AcDbLine
 62
7
  6
CONTINUOUS
 10
211.4669324243
 20
189.1751605768
 11
211.5606831395
 21
189.4943094749
  0
LINE
  5
389
100
AcDbEntity
  8
0
100
AcDbLine
 62
7
  6
CONTINUOUS
 10
206.1231824243
 20
188.8560116042
 11
206.3106838548
 21
189.2815435429
  0
LINE
  5
38A
100
AcDbEntity
  8
0
100
AcDbLine
 62
7
  6
CONTINUOUS
 10
207.4356838548
 20
190.8772881825
 11
207.3419331395
 21
190.6645222504
  0
LINE
  5
38B
100
AcDbEntity
  8
0
100
AcDbLine
 62
7
  6
CONTINUOUS
 10
209.6856838548
 20
188.5368626688
 11
209.7794324243
 21
188.7496286381
  0
LINE
  5
38C
100
AcDbEntity
  8
0
100
AcDbLine
 62
7
  6
CONTINUOUS
 10
211.0919338548
 20
191.0900541146
 11
210.9981831395
 21
190.8772881825
  0
LINE
  5
38D
100
AcDbEntity
  8
0
100
AcDbLine
 62
7
  6
CONTINUOUS
 10
211.4669324243
 20
190.6645222504
 11
211.5606831395
 21
190.8772881825
  0
LINE
  5
38E
100
AcDbEntity
  8
0
100
AcDbLine
 62
7
  6
CONTINUOUS
 10
211.1856824243
 20
189.8134583731
 11
210.9981831395
 21
189.3879265089
  0
LINE
  5
38F
100
AcDbEntity
  8
0
100
AcDbLine
 62
7
  6
CONTINUOUS
 10
201.8106838548
 20
189.600692441
 11
201.4356831395
 21
188.9623945702
  0
LINE
  5
390
100
AcDbEntity
  8
0
100
AcDbLine
 62
7
  6
CONTINUOUS
 10
203.6856831395
 20
191.6219689448
 11
204.0606838548
 21
192.2602670391
  0
LINE
  5
391
100
AcDbEntity
  8
0
100
AcDbLine
 62
7
  6
CONTINUOUS
 10
205.9356831395
 20
189.600692441
 11
205.5606824243
 21
188.9623945702
  0
LINE
  5
392
100
AcDbEntity
  8
0
100
AcDbLine
 62
7
  6
CONTINUOUS
 10
207.8106824243
 20
190.4517563183
 11
207.9981838548
 21
190.7709052165
  0
LINE
  5
393
100
AcDbEntity
  8
0
100
AcDbLine
 62
7
  6
CONTINUOUS
 10
199.6544324243
 20
192.6857989032
 11
199.3731824243
 21
192.3666500051
  0
LINE
  5
394
100
AcDbEntity
  8
0
100
AcDbLine
 62
7
  6
CONTINUOUS
 10
197.5919338548
 20
188.5368626688
 11
197.8731838548
 21
188.8560116042
  0
LINE
  5
395
100
AcDbEntity
  8
0
100
AcDbLine
 62
7
  6
CONTINUOUS
 10
203.7794338548
 20
192.6857989032
 11
203.4981838548
 21
192.3666500051
  0
LINE
  5
396
100
AcDbEntity
  8
0
100
AcDbLine
 62
7
  6
CONTINUOUS
 10
201.7169331395
 20
188.5368626688
 11
201.9981831395
 21
188.8560116042
  0
LINE
  5
397
100
AcDbEntity
  8
0
100
AcDbLine
 62
7
  6
CONTINUOUS
 10
195.8106831395
 20
192.2602670391
 11
196.0919331395
 21
192.4730329711
  0
LINE
  5
398
100
AcDbEntity
  8
0
100
AcDbLine
 62
7
  6
CONTINUOUS
 10
193.1856834972
 20
188.9623945702
 11
192.9044334972
 21
188.7496286381
  0
LINE
  5
399
100
AcDbEntity
  8
0
100
AcDbLine
 62
7
  6
CONTINUOUS
 10
199.9356824243
 20
192.2602670391
 11
200.2169324243
 21
192.4730329711
  0
LINE
  5
39A
100
AcDbEntity
  8
0
100
AcDbLine
 62
7
  6
CONTINUOUS
 10
197.3106838548
 20
188.9623945702
 11
197.0294338548
 21
188.7496286381
  0
LINE
  5
39B
100
AcDbEntity
  8
0
100
AcDbLine
 62
7
  6
CONTINUOUS
 10
195.9981824243
 20
193.0049478013
 11
195.5294331395
 21
192.6857989032
  0
LINE
  5
39C
100
AcDbEntity
  8
0
100
AcDbLine
 62
7
  6
CONTINUOUS
 10
192.9981831395
 20
188.2177137427
 11
193.4669334972
 21
188.5368626688
  0
LINE
  5
39D
100
AcDbEntity
  8
0
100
AcDbLine
 62
7
  6
CONTINUOUS
 10
200.1231838548
 20
193.0049478013
 11
199.6544324243
 21
192.6857989032
  0
LINE
  5
39E
100
AcDbEntity
  8
0
100
AcDbLine
 62
7
  6
CONTINUOUS
 10
182.7794329607
 20
188.2177137427
 11
183.1544331395
 21
188.4304797028
  0
LINE
  5
39F
100
AcDbEntity
  8
RUNDUNGEN
100
AcDbLine
 62
7
  6
CONTINUOUS
 10
224.8419331395
 20
209.4722791566
 11
224.8419331395
 21
184.9641944609
  0
LINE
  5
3A0
100
AcDbEntity
  8
RUNDUNGEN
100
AcDbLine
 62
7
  6
CONTINUOUS
 10
229.8893082361
 20
230.6113307674
 11
227.4686936447
 21
221.2363307674
  0
LINE
  5
3A1
100
AcDbEntity
  8
0
100
AcDbLine
 62
7
  6
CONTINUOUS
 10
213.341931709
 20
189.2815435429
 11
213.2481831395
 21
189.0687776108
  0
LINE
  5
3A2
100
AcDbEntity
  8
0
100
AcDbLine
 62
7
  6
CONTINUOUS
 10
213.2481831395
 20
188.4304797028
 11
213.341931709
 21
188.6432456721
  0
LINE
  5
3A3
100
AcDbEntity
  8
0
100
AcDbLine
 62
7
  6
CONTINUOUS
 10
209.7794324243
 20
189.2815435429
 11
209.5919331395
 21
188.9623945702
  0
LINE
  5
3A4
100
AcDbEntity
  8
0
100
AcDbLine
 62
7
  6
CONTINUOUS
 10
207.7169338548
 20
191.1964370806
 11
207.4356838548
 21
190.8772881825
  0
LINE
  5
3A5
100
AcDbEntity
  8
0
100
AcDbLine
 62
7
  6
CONTINUOUS
 10
205.8419324243
 20
188.5368626688
 11
206.1231824243
 21
188.8560116042
  0
LINE
  5
3A6
100
AcDbEntity
  8
0
100
AcDbLine
 62
7
  6
CONTINUOUS
 10
211.2794331395
 20
191.3028200467
 11
211.0919338548
 21
191.0900541146
  0
LINE
  5
3A7
100
AcDbEntity
  8
0
100
AcDbLine
 62
7
  6
CONTINUOUS
 10
209.4981824243
 20
188.3240967181
 11
209.6856838548
 21
188.5368626688
  0
LINE
  5
3A8
100
AcDbEntity
  8
0
100
AcDbLine
 62
7
  6
CONTINUOUS
 10
211.3731838548
 20
190.0262244542
 11
211.1856824243
 21
189.8134583731
  0
LINE
  5
3A9
100
AcDbEntity
  8
0
100
AcDbLine
 62
7
  6
CONTINUOUS
 10
211.5606831395
 20
189.4943094749
 11
211.7481824243
 21
189.707075407
  0
LINE
  5
3AA
100
AcDbEntity
  8
0
100
AcDbLine
 62
7
  6
CONTINUOUS
 10
204.0606838548
 20
192.2602670391
 11
204.3419338548
 21
192.4730329711
  0
LINE
  5
3AB
100
AcDbEntity
  8
0
100
AcDbLine
 62
7
  6
CONTINUOUS
 10
201.4356831395
 20
188.9623945702
 11
201.1544331395
 21
188.7496286381
  0
LINE
  5
3AC
100
AcDbEntity
  8
0
100
AcDbLine
 62
7
  6
CONTINUOUS
 10
207.9981838548
 20
191.4092030127
 11
207.7169338548
 21
191.1964370806
  0
LINE
  5
3AD
100
AcDbEntity
  8
0
100
AcDbLine
 62
7
  6
CONTINUOUS
 10
205.5606824243
 20
188.9623945702
 11
205.2794324243
 21
188.7496286381
  0
LINE
  5
3AE
100
AcDbEntity
  8
0
100
AcDbLine
 62
7
  6
CONTINUOUS
 10
209.5919331395
 20
188.9623945702
 11
209.3106831395
 21
188.7496286381
  0
LINE
  5
3AF
100
AcDbEntity
  8
0
100
AcDbLine
 62
7
  6
CONTINUOUS
 10
197.1231824243
 20
188.2177137427
 11
197.5919338548
 21
188.5368626688
  0
LINE
  5
3B0
100
AcDbEntity
  8
0
100
AcDbLine
 62
7
  6
CONTINUOUS
 10
204.2481831395
 20
193.0049478013
 11
203.7794338548
 21
192.6857989032
  0
LINE
  5
3B1
100
AcDbEntity
  8
0
100
AcDbLine
 62
7
  6
CONTINUOUS
 10
201.2481838548
 20
188.2177137427
 11
201.7169331395
 21
188.5368626688
  0
LINE
  5
3B2
100
AcDbEntity
  8
0
100
AcDbLine
 62
7
  6
CONTINUOUS
 10
205.3731831395
 20
188.2177137427
 11
205.8419324243
 21
188.5368626688
  0
LINE
  5
3B3
100
AcDbEntity
  8
0
100
AcDbLine
 62
7
  6
CONTINUOUS
 10
207.9981838548
 20
190.7709052165
 11
208.3731824243
 21
190.9836711485
  0
LINE
  5
3B4
100
AcDbEntity
  8
0
100
AcDbLine
 62
7
  6
CONTINUOUS
 10
211.4669324243
 20
191.4092030127
 11
211.2794331395
 21
191.3028200467
  0
LINE
  5
3B5
100
AcDbEntity
  8
0
100
AcDbLine
 62
7
  6
CONTINUOUS
 10
213.2481831395
 20
189.0687776108
 11
212.9669331395
 21
188.7496286381
  0
LINE
  5
3B6
100
AcDbEntity
  8
0
100
AcDbLine
 62
7
  6
CONTINUOUS
 10
212.9669331395
 20
188.2177137427
 11
213.2481831395
 21
188.4304797028
  0
LINE
  5
3B7
100
AcDbEntity
  8
0
100
AcDbLine
 62
7
  6
CONTINUOUS
 10
211.5606831395
 20
190.8772881825
 11
211.7481824243
 21
190.9836711485
  0
LINE
  5
3B8
100
AcDbEntity
  8
0
100
AcDbLine
 62
7
  6
CONTINUOUS
 10
211.7481824243
 20
190.2389903862
 11
211.3731838548
 21
190.0262244542
  0
LINE
  5
3B9
100
AcDbEntity
  8
0
100
AcDbLine
 62
7
  6
CONTINUOUS
 10
211.7481824243
 20
189.707075407
 11
211.935681709
 21
189.8134583731
  0
LINE
  5
3BA
100
AcDbEntity
  8
0
100
AcDbLine
 62
7
  6
CONTINUOUS
 10
209.3106831395
 20
188.2177137427
 11
209.4981824243
 21
188.3240967181
  0
LINE
  5
3BB
100
AcDbEntity
  8
0
100
AcDbLine
 62
7
  6
CONTINUOUS
 10
212.9669331395
 20
188.7496286381
 11
212.498181709
 21
188.5368626688
  0
LINE
  5
3BC
100
AcDbEntity
  8
RUNDUNGEN
100
AcDbLine
 62
7
  6
CONTINUOUS
 10
234.8419331395
 20
148.1113397345
 11
234.8419331395
 21
162.7888192017
  0
LINE
  5
3BD
100
AcDbEntity
  8
RUNDUNGEN
100
AcDbLine
 62
7
  6
CONTINUOUS
 10
234.8419331395
 20
168.9807017678
 11
234.8419331395
 21
176.0842575254
  0
LINE
  5
3BE
100
AcDbEntity
  8
RUNDUNGEN
100
AcDbLine
 62
7
  6
CONTINUOUS
 10
252.8419331395
 20
149.612130383
 11
252.8419331395
 21
237.6900316098
  0
LINE
  5
3BF
100
AcDbEntity
  8
RUNDUNGEN
100
AcDbLine
 62
7
  6
CONTINUOUS
 10
268.8419331395
 20
180.6113260239
 11
268.8419331395
 21
160.6113359001
  0
LINE
  5
3C0
100
AcDbEntity
  8
RUNDUNGEN
100
AcDbLine
 62
7
  6
CONTINUOUS
 10
338.0358090831
 20
163.4699023388
 11
338.0358090831
 21
177.7527591959
  0
LINE
  5
3C1
100
AcDbEntity
  8
RUNDUNGEN
100
AcDbLine
 62
7
  6
CONTINUOUS
 10
343.0358090831
 20
215.5879976785
 11
343.0358090831
 21
282.1113307674
  0
LINE
  5
3C2
100
AcDbEntity
  8
RUNDUNGEN
100
AcDbLine
 62
7
  6
CONTINUOUS
 10
337.0704661559
 20
204.4192688294
 11
340.969342486
 21
209.5003833884
  0
LINE
  5
3C3
100
AcDbEntity
  8
RUNDUNGEN
100
AcDbLine
 62
7
  6
CONTINUOUS
 10
317.5358090831
 20
192.261965862
 11
334.1369327529
 21
201.8466290816
  0
LINE
  5
3C4
100
AcDbEntity
  8
RUNDUNGEN
100
AcDbLine
 62
7
  6
CONTINUOUS
 10
360.0358090831
 20
282.1113307674
 11
360.0358090831
 21
186.876231936
  0
LINE
  5
3C5
100
AcDbEntity
  8
RUNDUNGEN
100
AcDbLine
 62
7
  6
CONTINUOUS
 10
355.351198435
 20
165.745318849
 11
352.693503759
 21
160.0458742239
  0
LINE
  5
3C6
100
AcDbEntity
  8
0
100
AcDbLine
 62
7
  6
CONTINUOUS
 10
347.0358090831
 20
286.1113307674
 11
356.0358090831
 21
286.1113307674
  0
LINE
  5
3C7
100
AcDbEntity
  8
RUNDUNGEN
100
AcDbLine
 62
7
  6
CONTINUOUS
 10
406.1639534884
 20
160.6113359001
 11
406.1639534884
 21
180.6096083042
  0
LINE
  5
3C8
100
AcDbEntity
  8
0
100
AcDbLine
 62
7
  6
CONTINUOUS
 10
522.1639534884
 20
145.6113307674
 11
510.6639534884
 21
145.6113307674
  0
LINE
  5
3C9
100
AcDbEntity
  8
0
100
AcDbLine
 62
7
  6
CONTINUOUS
 10
437.6639534884
 20
145.6113307674
 11
426.1639534884
 21
145.6113307674
  0
LINE
  5
3CA
100
AcDbEntity
  8
0
100
AcDbLine
 62
7
  6
CONTINUOUS
 10
505.6639534884
 20
155.6113307674
 11
442.6639534884
 21
155.6113307674
  0
LINE
  5
3CB
100
AcDbEntity
  8
RUNDUNGEN
100
AcDbLine
 62
7
  6
CONTINUOUS
 10
422.1639534884
 20
237.6900316098
 11
422.1639534884
 21
149.611400521
  0
LINE
  5
3CC
100
AcDbEntity
  8
RUNDUNGEN
100
AcDbLine
 62
7
  6
CONTINUOUS
 10
422.2034791801
 20
238.5782610585
 11
422.1639534884
 21
237.6900316098
  0
LINE
  5
3CD
100
AcDbEntity
  8
0
100
AcDbLine
 62
7
  6
CONTINUOUS
 10
496.4764534884
 20
168.1538838346
 11
495.8931200855
 21
168.0049476821
  0
LINE
  5
3CE
100
AcDbEntity
  8
0
100
AcDbLine
 62
7
  6
CONTINUOUS
 10
495.8931200855
 20
167.1113307674
 11
496.6222867869
 21
167.2602669198
  0
LINE
  5
3CF
100
AcDbEntity
  8
0
100
AcDbLine
 62
7
  6
CONTINUOUS
 10
407.1639534884
 20
159.6113307674
 11
421.1639534884
 21
159.6113307674
  0
LINE
  5
3D0
100
AcDbEntity
  8
0
100
AcDbLine
 62
7
  6
CONTINUOUS
 10
527.1639534884
 20
159.6113307674
 11
541.1639534884
 21
159.6113307674
  0
LINE
  5
3D1
100
AcDbEntity
  8
0
100
AcDbLine
 62
7
  6
CONTINUOUS
 10
494.1431202941
 20
173.0687775959
 11
494.7264534884
 21
173.2177137483
  0
LINE
  5
3D2
100
AcDbEntity
  8
0
100
AcDbLine
 62
7
  6
CONTINUOUS
 10
487.7264534884
 20
170.9836711485
 11
486.9972870999
 21
170.8347349961
  0
LINE
  5
3D3
100
AcDbEntity
  8
0
100
AcDbLine
 62
7
  6
CONTINUOUS
 10
494.7264534884
 20
174.1113307674
 11
493.9972866826
 21
173.9623946019
  0
LINE
  5
3D4
100
AcDbEntity
  8
0
100
AcDbLine
 62
7
  6
CONTINUOUS
 10
450.1014534884
 20
167.1113307674
 11
450.9764534884
 21
167.1113307674
  0
LINE
  5
3D5
100
AcDbEntity
  8
0
100
AcDbLine
 62
7
  6
CONTINUOUS
 10
455.0597879343
 20
167.1113307674
 11
455.9347879343
 21
167.1113307674
  0
LINE
  5
3D6
100
AcDbEntity
  8
0
100
AcDbLine
 62
7
  6
CONTINUOUS
 10
459.4347879343
 20
167.1113307674
 11
460.1639534884
 21
167.1113307674
  0
LINE
  5
3D7
100
AcDbEntity
  8
0
100
AcDbLine
 62
7
  6
CONTINUOUS
 10
465.9972879343
 20
167.1113307674
 11
467.1639534884
 21
167.1113307674
  0
LINE
  5
3D8
100
AcDbEntity
  8
0
100
AcDbLine
 62
7
  6
CONTINUOUS
 10
475.0389534884
 20
167.1113307674
 11
475.9139534884
 21
167.1113307674
  0
LINE
  5
3D9
100
AcDbEntity
  8
0
100
AcDbLine
 62
7
  6
CONTINUOUS
 10
477.0806207113
 20
167.1113307674
 11
477.9556207113
 21
167.1113307674
  0
LINE
  5
3DA
100
AcDbEntity
  8
0
100
AcDbLine
 62
7
  6
CONTINUOUS
 10
479.1222862654
 20
167.1113307674
 11
484.6639534884
 21
167.1113307674
  0
LINE
  5
3DB
100
AcDbEntity
  8
0
100
AcDbLine
 62
7
  6
CONTINUOUS
 10
487.7264534884
 20
167.1113307674
 11
491.2264534884
 21
167.1113307674
  0
LINE
  5
3DC
100
AcDbEntity
  8
0
100
AcDbLine
 62
7
  6
CONTINUOUS
 10
494.7264534884
 20
167.1113307674
 11
495.8931200855
 21
167.1113307674
  0
LINE
  5
3DD
100
AcDbEntity
  8
0
100
AcDbLine
 62
7
  6
CONTINUOUS
 10
490.3514534884
 20
167.8560115297
 11
487.5806198769
 21
167.8560115297
  0
LINE
  5
3DE
100
AcDbEntity
  8
0
100
AcDbLine
 62
7
  6
CONTINUOUS
 10
484.6639534884
 20
167.8560115297
 11
482.3306207113
 21
167.8560115297
  0
LINE
  5
3DF
100
AcDbEntity
  8
0
100
AcDbLine
 62
7
  6
CONTINUOUS
 10
481.4556207113
 20
167.8560115297
 11
479.1222862654
 21
167.8560115297
  0
LINE
  5
3E0
100
AcDbEntity
  8
0
100
AcDbLine
 62
7
  6
CONTINUOUS
 10
495.8931200855
 20
168.0049476821
 11
494.7264534884
 21
168.0049476821
  0
LINE
  5
3E1
100
AcDbEntity
  8
0
100
AcDbLine
 62
7
  6
CONTINUOUS
 10
460.1639534884
 20
168.0049476821
 11
459.2889534884
 21
168.0049476821
  0
LINE
  5
3E2
100
AcDbEntity
  8
0
100
AcDbLine
 62
7
  6
CONTINUOUS
 10
458.4139534884
 20
168.7496284444
 11
457.5389534884
 21
168.7496284444
  0
LINE
  5
3E3
100
AcDbEntity
  8
0
100
AcDbLine
 62
7
  6
CONTINUOUS
 10
450.9764534884
 20
169.9411180813
 11
455.0597879343
 21
169.9411180813
  0
LINE
  5
3E4
100
AcDbEntity
  8
0
100
AcDbLine
 62
7
  6
CONTINUOUS
 10
459.2889534884
 20
170.0900542338
 11
460.1639534884
 21
170.0900542338
  0
LINE
  5
3E5
100
AcDbEntity
  8
0
100
AcDbLine
 62
7
  6
CONTINUOUS
 10
487.5806198769
 20
170.0900542338
 11
490.3514534884
 21
170.0900542338
  0
LINE
  5
3E6
100
AcDbEntity
  8
0
100
AcDbLine
 62
7
  6
CONTINUOUS
 10
455.0597879343
 20
170.8347349961
 11
450.9764534884
 21
170.8347349961
  0
LINE
  5
3E7
100
AcDbEntity
  8
0
100
AcDbLine
 62
7
  6
CONTINUOUS
 10
490.3514534884
 20
170.9836711485
 11
487.7264534884
 21
170.9836711485
  0
LINE
  5
3E8
100
AcDbEntity
  8
0
100
AcDbLine
 62
7
  6
CONTINUOUS
 10
460.1639534884
 20
170.9836711485
 11
459.2889534884
 21
170.9836711485
  0
LINE
  5
3E9
100
AcDbEntity
  8
0
100
AcDbLine
 62
7
  6
CONTINUOUS
 10
458.7056190424
 20
167.2602669198
 11
459.4347879343
 21
167.1113307674
  0
LINE
  5
3EA
100
AcDbEntity
  8
0
100
AcDbLine
 62
7
  6
CONTINUOUS
 10
458.5597879343
 20
170.2389903862
 11
459.2889534884
 21
170.0900542338
  0
LINE
  5
3EB
100
AcDbEntity
  8
0
100
AcDbLine
 62
7
  6
CONTINUOUS
 10
486.9972870999
 20
167.2602669198
 11
487.7264534884
 21
167.1113307674
  0
LINE
  5
3EC
100
AcDbEntity
  8
0
100
AcDbLine
 62
7
  6
CONTINUOUS
 10
459.2889534884
 20
170.9836711485
 11
458.7056190424
 21
171.132607301
  0
LINE
  5
3ED
100
AcDbEntity
  8
0
100
AcDbLine
 62
7
  6
CONTINUOUS
 10
460.7472879343
 20
170.8347349961
 11
460.1639534884
 21
170.9836711485
  0
LINE
  5
3EE
100
AcDbEntity
  8
0
100
AcDbLine
 62
7
  6
CONTINUOUS
 10
459.2889534884
 20
168.0049476821
 11
458.8514534884
 21
168.1538838346
  0
LINE
  5
3EF
100
AcDbEntity
  8
0
100
AcDbLine
 62
7
  6
CONTINUOUS
 10
460.1639534884
 20
170.0900542338
 11
460.6014534884
 21
169.9411180813
  0
LINE
  5
3F0
100
AcDbEntity
  8
0
100
AcDbLine
 62
7
  6
CONTINUOUS
 10
457.9764534884
 20
170.5368626912
 11
458.5597879343
 21
170.2389903862
  0
LINE
  5
3F1
100
AcDbEntity
  8
0
100
AcDbLine
 62
7
  6
CONTINUOUS
 10
461.3306190424
 20
170.5368626912
 11
460.7472879343
 21
170.8347349961
  0
LINE
  5
3F2
100
AcDbEntity
  8
0
100
AcDbLine
 62
7
  6
CONTINUOUS
 10
458.7056190424
 20
171.132607301
 11
458.2681190424
 21
171.4304796059
  0
LINE
  5
3F3
100
AcDbEntity
  8
0
100
AcDbLine
 62
7
  6
CONTINUOUS
 10
460.6014534884
 20
169.9411180813
 11
461.0389534884
 21
169.6432457764
  0
LINE
  5
3F4
100
AcDbEntity
  8
0
100
AcDbLine
 62
7
  6
CONTINUOUS
 10
458.1222879343
 20
167.7070753772
 11
458.7056190424
 21
167.2602669198
  0
LINE
  5
3F5
100
AcDbEntity
  8
0
100
AcDbLine
 62
7
  6
CONTINUOUS
 10
460.1639534884
 20
167.1113307674
 11
460.7472879343
 21
167.2602669198
  0
LINE
  5
3F6
100
AcDbEntity
  8
0
100
AcDbLine
 62
7
  6
CONTINUOUS
 10
465.2681190424
 20
171.7283521194
 11
467.8931190424
 21
171.7283521194
  0
LINE
  5
3F7
100
AcDbEntity
  8
0
100
AcDbLine
 62
7
  6
CONTINUOUS
 10
461.6222879343
 20
172.1751605768
 11
462.4972879343
 21
172.1751605768
  0
LINE
  5
3F8
100
AcDbEntity
  8
0
100
AcDbLine
 62
7
  6
CONTINUOUS
 10
468.0389534884
 20
172.3240967293
 11
465.1222879343
 21
172.3240967293
  0
LINE
  5
3F9
100
AcDbEntity
  8
0
100
AcDbLine
 62
7
  6
CONTINUOUS
 10
459.2889534884
 20
173.2177137483
 11
460.4556190424
 21
173.2177137483
  0
LINE
  5
3FA
100
AcDbEntity
  8
0
100
AcDbLine
 62
7
  6
CONTINUOUS
 10
470.6639534884
 20
173.2177137483
 11
475.0389534884
 21
173.2177137483
  0
LINE
  5
3FB
100
AcDbEntity
  8
0
100
AcDbLine
 62
7
  6
CONTINUOUS
 10
494.7264534884
 20
173.2177137483
 11
495.8931200855
 21
173.2177137483
  0
LINE
  5
3FC
100
AcDbEntity
  8
0
100
AcDbLine
 62
7
  6
CONTINUOUS
 10
495.8931200855
 20
174.1113307674
 11
494.7264534884
 21
174.1113307674
  0
LINE
  5
3FD
100
AcDbEntity
  8
0
100
AcDbLine
 62
7
  6
CONTINUOUS
 10
491.2264534884
 20
174.1113307674
 11
490.3514534884
 21
174.1113307674
  0
LINE
  5
3FE
100
AcDbEntity
  8
0
100
AcDbLine
 62
7
  6
CONTINUOUS
 10
482.3306207113
 20
174.1113307674
 11
481.4556207113
 21
174.1113307674
  0
LINE
  5
3FF
100
AcDbEntity
  8
0
100
AcDbLine
 62
7
  6
CONTINUOUS
 10
477.9556207113
 20
174.1113307674
 11
477.0806207113
 21
174.1113307674
  0
LINE
  5
400
100
AcDbEntity
  8
0
100
AcDbLine
 62
7
  6
CONTINUOUS
 10
475.9139534884
 20
174.1113307674
 11
470.6639534884
 21
174.1113307674
  0
LINE
  5
401
100
AcDbEntity
  8
0
100
AcDbLine
 62
7
  6
CONTINUOUS
 10
469.4972879343
 20
174.1113307674
 11
468.6222879343
 21
174.1113307674
  0
LINE
  5
402
100
AcDbEntity
  8
0
100
AcDbLine
 62
7
  6
CONTINUOUS
 10
464.5389534884
 20
174.1113307674
 11
463.6639534884
 21
174.1113307674
  0
LINE
  5
403
100
AcDbEntity
  8
0
100
AcDbLine
 62
7
  6
CONTINUOUS
 10
460.4556190424
 20
174.1113307674
 11
459.2889534884
 21
174.1113307674
  0
LINE
  5
404
100
AcDbEntity
  8
0
100
AcDbLine
 62
7
  6
CONTINUOUS
 10
455.9347879343
 20
174.1113307674
 11
455.0597879343
 21
174.1113307674
  0
LINE
  5
405
100
AcDbEntity
  8
0
100
AcDbLine
 62
7
  6
CONTINUOUS
 10
450.9764534884
 20
174.1113307674
 11
450.1014534884
 21
174.1113307674
  0
LINE
  5
406
100
AcDbEntity
  8
0
100
AcDbLine
 62
7
  6
CONTINUOUS
 10
493.9972866826
 20
167.2602669198
 11
494.7264534884
 21
167.1113307674
  0
LINE
  5
407
100
AcDbEntity
  8
0
100
AcDbLine
 62
7
  6
CONTINUOUS
 10
461.1847879343
 20
173.9623946019
 11
460.4556190424
 21
174.1113307674
  0
LINE
  5
408
100
AcDbEntity
  8
0
100
AcDbLine
 62
7
  6
CONTINUOUS
 10
460.4556190424
 20
173.2177137483
 11
461.0389534884
 21
173.0687775959
  0
LINE
  5
409
100
AcDbEntity
  8
0
100
AcDbLine
 62
7
  6
CONTINUOUS
 10
494.7264534884
 20
168.0049476821
 11
494.1431202941
 21
168.1538838346
  0
LINE
  5
40A
100
AcDbEntity
  8
0
100
AcDbLine
 62
7
  6
CONTINUOUS
 10
487.5806198769
 20
167.8560115297
 11
487.1431198769
 21
168.0049476821
  0
LINE
  5
40B
100
AcDbEntity
  8
0
100
AcDbLine
 62
7
  6
CONTINUOUS
 10
461.9139534884
 20
173.5155861054
 11
461.1847879343
 21
173.9623946019
  0
LINE
  5
40C
100
AcDbEntity
  8
0
100
AcDbLine
 62
7
  6
CONTINUOUS
 10
458.8514534884
 20
168.1538838346
 11
458.5597879343
 21
168.4517561395
  0
LINE
  5
40D
100
AcDbEntity
  8
0
100
AcDbLine
 62
7
  6
CONTINUOUS
 10
457.3931190424
 20
171.132607301
 11
457.9764534884
 21
170.5368626912
  0
LINE
  5
40E
100
AcDbEntity
  8
0
100
AcDbLine
 62
7
  6
CONTINUOUS
 10
461.9139534884
 20
169.9411180813
 11
461.3306190424
 21
170.5368626912
  0
LINE
  5
40F
100
AcDbEntity
  8
0
100
AcDbLine
 62
7
  6
CONTINUOUS
 10
461.0389534884
 20
173.0687775959
 11
461.4764534884
 21
172.6219690342
  0
LINE
  5
410
100
AcDbEntity
  8
0
100
AcDbLine
 62
7
  6
CONTINUOUS
 10
457.6847879343
 20
168.3028199871
 11
458.1222879343
 21
167.7070753772
  0
LINE
  5
411
100
AcDbEntity
  8
RUNDUNGEN
100
AcDbLine
 62
7
  6
CONTINUOUS
 10
440.1639534884
 20
194.3919530439
 11
440.1639534884
 21
148.1113397345
  0
LINE
  5
412
100
AcDbEntity
  8
0
100
AcDbLine
 62
7
  6
CONTINUOUS
 10
458.7056190424
 20
173.0687775959
 11
459.2889534884
 21
173.2177137483
  0
LINE
  5
413
100
AcDbEntity
  8
0
100
AcDbLine
 62
7
  6
CONTINUOUS
 10
459.2889534884
 20
174.1113307674
 11
458.5597879343
 21
173.9623946019
  0
LINE
  5
414
100
AcDbEntity
  8
0
100
AcDbLine
 62
7
  6
CONTINUOUS
 10
407.1639534884
 20
181.6113307674
 11
421.1639534884
 21
181.6113307674
  0
LINE
  5
415
100
AcDbEntity
  8
0
100
AcDbLine
 62
7
  6
CONTINUOUS
 10
527.1639534884
 20
181.6113307674
 11
541.1639534884
 21
181.6113307674
  0
LINE
  5
416
100
AcDbEntity
  8
0
100
AcDbLine
 62
7
  6
CONTINUOUS
 10
496.6222867869
 20
173.9623946019
 11
495.8931200855
 21
174.1113307674
  0
LINE
  5
417
100
AcDbEntity
  8
0
100
AcDbLine
 62
7
  6
CONTINUOUS
 10
495.8931200855
 20
173.2177137483
 11
496.4764534884
 21
173.0687775959
  0
LINE
  5
418
100
AcDbEntity
  8
0
100
AcDbLine
 62
7
  6
CONTINUOUS
 10
493.4139534884
 20
167.5581392248
 11
493.9972866826
 21
167.2602669198
  0
LINE
  5
419
100
AcDbEntity
  8
0
100
AcDbLine
 62
7
  6
CONTINUOUS
 10
458.2681190424
 20
171.4304796059
 11
457.9764534884
 21
171.8772882719
  0
LINE
  5
41A
100
AcDbEntity
  8
0
100
AcDbLine
 62
7
  6
CONTINUOUS
 10
462.3514534884
 20
172.7709051866
 11
461.9139534884
 21
173.5155861054
  0
LINE
  5
41B
100
AcDbEntity
  8
0
100
AcDbLine
 62
7
  6
CONTINUOUS
 10
458.5597879343
 20
168.4517561395
 11
458.4139534884
 21
168.7496284444
  0
LINE
  5
41C
100
AcDbEntity
  8
0
100
AcDbLine
 62
7
  6
CONTINUOUS
 10
457.1014534884
 20
171.7283521194
 11
457.3931190424
 21
171.132607301
  0
LINE
  5
41D
100
AcDbEntity
  8
0
100
AcDbLine
 62
7
  6
CONTINUOUS
 10
497.2056201898
 20
173.6645222579
 11
496.6222867869
 21
173.9623946019
  0
LINE
  5
41E
100
AcDbEntity
  8
0
100
AcDbLine
 62
7
  6
CONTINUOUS
 10
494.1431202941
 20
168.1538838346
 11
493.7056202941
 21
168.4517561395
  0
LINE
  5
41F
100
AcDbEntity
  8
0
100
AcDbLine
 62
7
  6
CONTINUOUS
 10
486.4139534884
 20
167.7070753772
 11
486.9972870999
 21
167.2602669198
  0
LINE
  5
420
100
AcDbEntity
  8
0
100
AcDbLine
 62
7
  6
CONTINUOUS
 10
457.5389534884
 20
168.7496284444
 11
457.6847879343
 21
168.3028199871
  0
LINE
  5
421
100
AcDbEntity
  8
0
100
AcDbLine
 62
7
  6
CONTINUOUS
 10
461.0389534884
 20
169.6432457764
 11
461.1847879343
 21
169.196437319
  0
LINE
  5
422
100
AcDbEntity
  8
0
100
AcDbLine
 62
7
  6
CONTINUOUS
 10
461.4764534884
 20
172.6219690342
 11
461.6222879343
 21
172.1751605768
  0
LINE
  5
423
100
AcDbEntity
  8
0
100
AcDbLine
 62
7
  6
CONTINUOUS
 10
450.1014534884
 20
174.1113307674
 11
450.1014534884
 21
167.1113307674
  0
LINE
  5
424
100
AcDbEntity
  8
0
100
AcDbLine
 62
7
  6
CONTINUOUS
 10
450.9764534884
 20
167.1113307674
 11
450.9764534884
 21
169.9411180813
  0
LINE
  5
425
100
AcDbEntity
  8
0
100
AcDbLine
 62
7
  6
CONTINUOUS
 10
450.9764534884
 20
170.8347349961
 11
450.9764534884
 21
174.1113307674
  0
LINE
  5
426
100
AcDbEntity
  8
0
100
AcDbLine
 62
7
  6
CONTINUOUS
 10
455.0597879343
 20
174.1113307674
 11
455.0597879343
 21
170.8347349961
  0
LINE
  5
427
100
AcDbEntity
  8
0
100
AcDbLine
 62
7
  6
CONTINUOUS
 10
455.0597879343
 20
169.9411180813
 11
455.0597879343
 21
167.1113307674
  0
LINE
  5
428
100
AcDbEntity
  8
0
100
AcDbLine
 62
7
  6
CONTINUOUS
 10
496.4764534884
 20
173.0687775959
 11
496.9139534884
 21
172.7709051866
  0
LINE
  5
429
100
AcDbEntity
  8
0
100
AcDbLine
 62
7
  6
CONTINUOUS
 10
487.1431198769
 20
168.0049476821
 11
486.8514534884
 21
168.3028199871
  0
LINE
  5
42A
100
AcDbEntity
  8
0
100
AcDbLine
 62
7
  6
CONTINUOUS
 10
492.8306202941
 20
168.1538838346
 11
493.4139534884
 21
167.5581392248
  0
LINE
  5
42B
100
AcDbEntity
  8
0
100
AcDbLine
 62
7
  6
CONTINUOUS
 10
463.6639534884
 20
174.1113307674
 11
465.9972879343
 21
167.1113307674
  0
LINE
  5
42C
100
AcDbEntity
  8
0
100
AcDbLine
 62
7
  6
CONTINUOUS
 10
466.5806190424
 20
167.7070753772
 11
465.2681190424
 21
171.7283521194
  0
LINE
  5
42D
100
AcDbEntity
  8
0
100
AcDbLine
 62
7
  6
CONTINUOUS
 10
465.1222879343
 20
172.3240967293
 11
464.5389534884
 21
174.1113307674
  0
LINE
  5
42E
100
AcDbEntity
  8
RUNDUNGEN
100
AcDbLine
 62
7
  6
CONTINUOUS
 10
448.539700329
 20
218.1289638125
 11
447.5371929832
 21
221.2363307674
  0
LINE
  5
42F
100
AcDbEntity
  8
RUNDUNGEN
100
AcDbLine
 62
7
  6
CONTINUOUS
 10
445.1165783918
 20
230.6113307674
 11
447.5371929832
 21
221.2363307674
  0
LINE
  5
430
100
AcDbEntity
  8
0
100
AcDbLine
 62
7
  6
CONTINUOUS
 10
462.0597879343
 20
169.3453734715
 11
461.9139534884
 21
169.9411180813
  0
LINE
  5
431
100
AcDbEntity
  8
0
100
AcDbLine
 62
7
  6
CONTINUOUS
 10
462.4972879343
 20
172.1751605768
 11
462.3514534884
 21
172.7709051866
  0
LINE
  5
432
100
AcDbEntity
  8
0
100
AcDbLine
 62
7
  6
CONTINUOUS
 10
455.9347879343
 20
167.1113307674
 11
455.9347879343
 21
174.1113307674
  0
LINE
  5
433
100
AcDbEntity
  8
0
100
AcDbLine
 62
7
  6
CONTINUOUS
 10
457.1014534884
 20
172.4730328817
 11
457.1014534884
 21
171.7283521194
  0
LINE
  5
434
100
AcDbEntity
  8
0
100
AcDbLine
 62
7
  6
CONTINUOUS
 10
457.9764534884
 20
171.8772882719
 11
457.9764534884
 21
172.3240967293
  0
LINE
  5
435
100
AcDbEntity
  8
0
100
AcDbLine
 62
7
  6
CONTINUOUS
 10
461.1847879343
 20
169.196437319
 11
461.1847879343
 21
168.8985650141
  0
LINE
  5
436
100
AcDbEntity
  8
0
100
AcDbLine
 62
7
  6
CONTINUOUS
 10
497.7889534884
 20
173.0687775959
 11
497.2056201898
 21
173.6645222579
  0
LINE
  5
437
100
AcDbEntity
  8
0
100
AcDbLine
 62
7
  6
CONTINUOUS
 10
485.9764534884
 20
168.3028199871
 11
486.4139534884
 21
167.7070753772
  0
LINE
  5
438
100
AcDbEntity
  8
0
100
AcDbLine
 62
7
  6
CONTINUOUS
 10
462.0597879343
 20
168.7496284444
 11
462.0597879343
 21
169.3453734715
  0
LINE
  5
439
100
AcDbEntity
  8
0
100
AcDbLine
 62
7
  6
CONTINUOUS
 10
493.7056202941
 20
168.4517561395
 11
493.4139534884
 21
168.8985650141
  0
LINE
  5
43A
100
AcDbEntity
  8
0
100
AcDbLine
 62
7
  6
CONTINUOUS
 10
470.6639534884
 20
174.1113307674
 11
470.6639534884
 21
173.2177137483
  0
LINE
  5
43B
100
AcDbEntity
  8
0
100
AcDbLine
 62
7
  6
CONTINUOUS
 10
461.9139534884
 20
168.1538838346
 11
462.0597879343
 21
168.7496284444
  0
LINE
  5
43C
100
AcDbEntity
  8
0
100
AcDbLine
 62
7
  6
CONTINUOUS
 10
496.9139534884
 20
172.7709051866
 11
497.2056201898
 21
172.3240967293
  0
LINE
  5
43D
100
AcDbEntity
  8
0
100
AcDbLine
 62
7
  6
CONTINUOUS
 10
492.5389534884
 20
168.7496284444
 11
492.8306202941
 21
168.1538838346
  0
LINE
  5
43E
100
AcDbEntity
  8
0
100
AcDbLine
 62
7
  6
CONTINUOUS
 10
485.8306198769
 20
168.7496284444
 11
485.9764534884
 21
168.3028199871
  0
LINE
  5
43F
100
AcDbEntity
  8
0
100
AcDbLine
 62
7
  6
CONTINUOUS
 10
486.8514534884
 20
168.3028199871
 11
486.7056198769
 21
168.7496284444
  0
LINE
  5
440
100
AcDbEntity
  8
0
100
AcDbLine
 62
7
  6
CONTINUOUS
 10
475.0389534884
 20
173.2177137483
 11
475.0389534884
 21
167.1113307674
  0
LINE
  5
441
100
AcDbEntity
  8
0
100
AcDbLine
 62
7
  6
CONTINUOUS
 10
475.9139534884
 20
167.1113307674
 11
475.9139534884
 21
174.1113307674
  0
LINE
  5
442
100
AcDbEntity
  8
0
100
AcDbLine
 62
7
  6
CONTINUOUS
 10
477.0806207113
 20
174.1113307674
 11
477.0806207113
 21
167.1113307674
  0
LINE
  5
443
100
AcDbEntity
  8
0
100
AcDbLine
 62
7
  6
CONTINUOUS
 10
477.9556207113
 20
167.1113307674
 11
477.9556207113
 21
174.1113307674
  0
LINE
  5
444
100
AcDbEntity
  8
0
100
AcDbLine
 62
7
  6
CONTINUOUS
 10
479.1222862654
 20
167.8560115297
 11
479.1222862654
 21
167.1113307674
  0
LINE
  5
445
100
AcDbEntity
  8
0
100
AcDbLine
 62
7
  6
CONTINUOUS
 10
481.4556207113
 20
174.1113307674
 11
481.4556207113
 21
167.8560115297
  0
LINE
  5
446
100
AcDbEntity
  8
0
100
AcDbLine
 62
7
  6
CONTINUOUS
 10
461.1847879343
 20
168.8985650141
 11
461.0389534884
 21
168.4517561395
  0
LINE
  5
447
100
AcDbEntity
  8
0
100
AcDbLine
 62
7
  6
CONTINUOUS
 10
457.3931190424
 20
173.0687775959
 11
457.1014534884
 21
172.4730328817
  0
LINE
  5
448
100
AcDbEntity
  8
0
100
AcDbLine
 62
7
  6
CONTINUOUS
 10
498.0806201507
 20
172.4730328817
 11
497.7889534884
 21
173.0687775959
  0
LINE
  5
449
100
AcDbEntity
  8
0
100
AcDbLine
 62
7
  6
CONTINUOUS
 10
482.3306207113
 20
167.8560115297
 11
482.3306207113
 21
174.1113307674
  0
LINE
  5
44A
100
AcDbEntity
  8
0
100
AcDbLine
 62
7
  6
CONTINUOUS
 10
484.6639534884
 20
167.1113307674
 11
484.6639534884
 21
167.8560115297
  0
LINE
  5
44B
100
AcDbEntity
  8
0
100
AcDbLine
 62
7
  6
CONTINUOUS
 10
485.8306198769
 20
169.3453734715
 11
485.8306198769
 21
168.7496284444
  0
LINE
  5
44C
100
AcDbEntity
  8
0
100
AcDbLine
 62
7
  6
CONTINUOUS
 10
486.7056198769
 20
168.7496284444
 11
486.7056198769
 21
169.196437319
  0
LINE
  5
44D
100
AcDbEntity
  8
0
100
AcDbLine
 62
7
  6
CONTINUOUS
 10
468.6222879343
 20
174.1113307674
 11
468.0389534884
 21
172.3240967293
  0
LINE
  5
44E
100
AcDbEntity
  8
0
100
AcDbLine
 62
7
  6
CONTINUOUS
 10
467.8931190424
 20
171.7283521194
 11
466.5806190424
 21
167.7070753772
  0
LINE
  5
44F
100
AcDbEntity
  8
0
100
AcDbLine
 62
7
  6
CONTINUOUS
 10
467.1639534884
 20
167.1113307674
 11
469.4972879343
 21
174.1113307674
  0
LINE
  5
450
100
AcDbEntity
  8
0
100
AcDbLine
 62
7
  6
CONTINUOUS
 10
457.9764534884
 20
172.3240967293
 11
458.2681190424
 21
172.7709051866
  0
LINE
  5
451
100
AcDbEntity
  8
0
100
AcDbLine
 62
7
  6
CONTINUOUS
 10
493.4139534884
 20
168.8985650141
 11
493.2681202941
 21
169.494309624
  0
LINE
  5
452
100
AcDbEntity
  8
0
100
AcDbLine
 62
7
  6
CONTINUOUS
 10
497.2056201898
 20
172.3240967293
 11
497.3514534884
 21
171.7283521194
  0
LINE
  5
453
100
AcDbEntity
  8
0
100
AcDbLine
 62
7
  6
CONTINUOUS
 10
492.3931202941
 20
169.494309624
 11
492.5389534884
 21
168.7496284444
  0
LINE
  5
454
100
AcDbEntity
  8
0
100
AcDbLine
 62
7
  6
CONTINUOUS
 10
490.3514534884
 20
174.1113307674
 11
490.3514534884
 21
170.9836711485
  0
LINE
  5
455
100
AcDbEntity
  8
0
100
AcDbLine
 62
7
  6
CONTINUOUS
 10
490.3514534884
 20
170.0900542338
 11
490.3514534884
 21
167.8560115297
  0
LINE
  5
456
100
AcDbEntity
  8
0
100
AcDbLine
 62
7
  6
CONTINUOUS
 10
491.2264534884
 20
167.1113307674
 11
491.2264534884
 21
174.1113307674
  0
LINE
  5
457
100
AcDbEntity
  8
0
100
AcDbLine
 62
7
  6
CONTINUOUS
 10
492.3931202941
 20
171.7283521194
 11
492.3931202941
 21
169.494309624
  0
LINE
  5
458
100
AcDbEntity
  8
0
100
AcDbLine
 62
7
  6
CONTINUOUS
 10
493.2681202941
 20
169.494309624
 11
493.2681202941
 21
171.7283521194
  0
LINE
  5
459
100
AcDbEntity
  8
0
100
AcDbLine
 62
7
  6
CONTINUOUS
 10
457.9764534884
 20
173.6645222579
 11
457.3931190424
 21
173.0687775959
  0
LINE
  5
45A
100
AcDbEntity
  8
0
100
AcDbLine
 62
7
  6
CONTINUOUS
 10
498.2264534884
 20
171.7283521194
 11
498.0806201507
 21
172.4730328817
  0
LINE
  5
45B
100
AcDbEntity
  8
0
100
AcDbLine
 62
7
  6
CONTINUOUS
 10
497.3514534884
 20
171.7283521194
 11
497.3514534884
 21
169.494309624
  0
LINE
  5
45C
100
AcDbEntity
  8
0
100
AcDbLine
 62
7
  6
CONTINUOUS
 10
498.2264534884
 20
169.494309624
 11
498.2264534884
 21
171.7283521194
  0
LINE
  5
45D
100
AcDbEntity
  8
0
100
AcDbLine
 62
7
  6
CONTINUOUS
 10
492.5389534884
 20
172.4730328817
 11
492.3931202941
 21
171.7283521194
  0
LINE
  5
45E
100
AcDbEntity
  8
RUNDUNGEN
100
AcDbLine
 62
7
  6
CONTINUOUS
 10
500.7907139935
 20
221.2363307674
 11
503.2113285849
 21
230.6113307674
  0
LINE
  5
45F
100
AcDbEntity
  8
RUNDUNGEN
100
AcDbLine
 62
7
  6
CONTINUOUS
 10
500.7907139935
 20
221.2363307674
 11
499.7882066478
 21
218.1289638125
  0
LINE
  5
460
100
AcDbEntity
  8
0
100
AcDbLine
 62
7
  6
CONTINUOUS
 10
485.9764534884
 20
169.7921819289
 11
485.8306198769
 21
169.3453734715
  0
LINE
  5
461
100
AcDbEntity
  8
0
100
AcDbLine
 62
7
  6
CONTINUOUS
 10
486.7056198769
 20
169.196437319
 11
486.8514534884
 21
169.6432457764
  0
LINE
  5
462
100
AcDbEntity
  8
0
100
AcDbLine
 62
7
  6
CONTINUOUS
 10
461.3306190424
 20
167.5581392248
 11
461.9139534884
 21
168.1538838346
  0
LINE
  5
463
100
AcDbEntity
  8
0
100
AcDbLine
 62
7
  6
CONTINUOUS
 10
458.2681190424
 20
172.7709051866
 11
458.7056190424
 21
173.0687775959
  0
LINE
  5
464
100
AcDbEntity
  8
0
100
AcDbLine
 62
7
  6
CONTINUOUS
 10
498.0806201507
 20
168.7496284444
 11
498.2264534884
 21
169.494309624
  0
LINE
  5
465
100
AcDbEntity
  8
0
100
AcDbLine
 62
7
  6
CONTINUOUS
 10
493.2681202941
 20
171.7283521194
 11
493.4139534884
 21
172.3240967293
  0
LINE
  5
466
100
AcDbEntity
  8
0
100
AcDbLine
 62
7
  6
CONTINUOUS
 10
461.0389534884
 20
168.4517561395
 11
460.6014534884
 21
168.1538838346
  0
LINE
  5
467
100
AcDbEntity
  8
0
100
AcDbLine
 62
7
  6
CONTINUOUS
 10
458.5597879343
 20
173.9623946019
 11
457.9764534884
 21
173.6645222579
  0
LINE
  5
468
100
AcDbEntity
  8
RUNDUNGEN
100
AcDbLine
 62
7
  6
CONTINUOUS
 10
508.1639534884
 20
148.1113397345
 11
508.1639534884
 21
194.3919530439
  0
LINE
  5
469
100
AcDbEntity
  8
0
100
AcDbLine
 62
7
  6
CONTINUOUS
 10
497.3514534884
 20
169.494309624
 11
497.2056201898
 21
168.8985650141
  0
LINE
  5
46A
100
AcDbEntity
  8
0
100
AcDbLine
 62
7
  6
CONTINUOUS
 10
492.8306202941
 20
173.0687775959
 11
492.5389534884
 21
172.4730328817
  0
LINE
  5
46B
100
AcDbEntity
  8
0
100
AcDbLine
 62
7
  6
CONTINUOUS
 10
493.4139534884
 20
172.3240967293
 11
493.7056202941
 21
172.7709051866
  0
LINE
  5
46C
100
AcDbEntity
  8
0
100
AcDbLine
 62
7
  6
CONTINUOUS
 10
486.4139534884
 20
170.3879265387
 11
485.9764534884
 21
169.7921819289
  0
LINE
  5
46D
100
AcDbEntity
  8
0
100
AcDbLine
 62
7
  6
CONTINUOUS
 10
460.7472879343
 20
167.2602669198
 11
461.3306190424
 21
167.5581392248
  0
LINE
  5
46E
100
AcDbEntity
  8
0
100
AcDbLine
 62
7
  6
CONTINUOUS
 10
497.7889534884
 20
168.1538838346
 11
498.0806201507
 21
168.7496284444
  0
LINE
  5
46F
100
AcDbEntity
  8
0
100
AcDbLine
 62
7
  6
CONTINUOUS
 10
497.2056201898
 20
168.8985650141
 11
496.9139534884
 21
168.4517561395
  0
LINE
  5
470
100
AcDbEntity
  8
0
100
AcDbLine
 62
7
  6
CONTINUOUS
 10
486.8514534884
 20
169.6432457764
 11
487.1431198769
 21
169.9411180813
  0
LINE
  5
471
100
AcDbEntity
  8
0
100
AcDbLine
 62
7
  6
CONTINUOUS
 10
493.4139534884
 20
173.6645222579
 11
492.8306202941
 21
173.0687775959
  0
LINE
  5
472
100
AcDbEntity
  8
0
100
AcDbLine
 62
7
  6
CONTINUOUS
 10
486.9972870999
 20
170.8347349961
 11
486.4139534884
 21
170.3879265387
  0
LINE
  5
473
100
AcDbEntity
  8
0
100
AcDbLine
 62
7
  6
CONTINUOUS
 10
493.9972866826
 20
173.9623946019
 11
493.4139534884
 21
173.6645222579
  0
LINE
  5
474
100
AcDbEntity
  8
0
100
AcDbLine
 62
7
  6
CONTINUOUS
 10
460.6014534884
 20
168.1538838346
 11
460.1639534884
 21
168.0049476821
  0
LINE
  5
475
100
AcDbEntity
  8
RUNDUNGEN
100
AcDbLine
 62
7
  6
CONTINUOUS
 10
526.1639534884
 20
237.6900316098
 11
526.1244277967
 21
238.5782610585
  0
LINE
  5
476
100
AcDbEntity
  8
RUNDUNGEN
100
AcDbLine
 62
7
  6
CONTINUOUS
 10
526.1639534884
 20
149.611400521
 11
526.1639534884
 21
237.6900316098
  0
LINE
  5
477
100
AcDbEntity
  8
0
100
AcDbLine
 62
7
  6
CONTINUOUS
 10
497.2056201898
 20
167.5581392248
 11
497.7889534884
 21
168.1538838346
  0
LINE
  5
478
100
AcDbEntity
  8
0
100
AcDbLine
 62
7
  6
CONTINUOUS
 10
493.7056202941
 20
172.7709051866
 11
494.1431202941
 21
173.0687775959
  0
LINE
  5
479
100
AcDbEntity
  8
0
100
AcDbLine
 62
7
  6
CONTINUOUS
 10
496.9139534884
 20
168.4517561395
 11
496.4764534884
 21
168.1538838346
  0
LINE
  5
47A
100
AcDbEntity
  8
0
100
AcDbLine
 62
7
  6
CONTINUOUS
 10
487.1431198769
 20
169.9411180813
 11
487.5806198769
 21
170.0900542338
  0
LINE
  5
47B
100
AcDbEntity
  8
0
100
AcDbLine
 62
7
  6
CONTINUOUS
 10
496.6222867869
 20
167.2602669198
 11
497.2056201898
 21
167.5581392248
  0
LINE
  5
47C
100
AcDbEntity
  8
RUNDUNGEN
100
AcDbLine
 62
7
  6
CONTINUOUS
 10
542.1639534884
 20
180.6113257539
 11
542.1639534884
 21
160.6113355725
  0
LINE
  5
47D
100
AcDbEntity
  8
RUNDUNGEN
100
AcDbLine
 62
7
  6
CONTINUOUS
 10
132.8419331395
 20
339.1010707191
 11
132.8419331395
 21
356.101070711
  0
LINE
  5
47E
100
AcDbEntity
  8
RUNDUNGEN
100
AcDbLine
 62
7
  6
CONTINUOUS
 10
148.8419331395
 20
375.101070711
 11
148.8419331395
 21
328.1010867913
  0
LINE
  5
47F
100
AcDbEntity
  8
RUNDUNGEN
100
AcDbLine
 62
7
  6
CONTINUOUS
 10
166.8419331395
 20
375.3588623609
 11
166.8419331395
 21
326.601183718
  0
LINE
  5
480
100
AcDbEntity
  8
RUNDUNGEN
100
AcDbLine
 62
7
  6
CONTINUOUS
 10
170.8419331395
 20
378.101070711
 11
170.8419331395
 21
377.101070711
  0
LINE
  5
481
100
AcDbEntity
  8
0
100
AcDbLine
 62
7
  6
CONTINUOUS
 10
175.8419331395
 20
376.101070711
 11
175.8419331395
 21
376.601070711
  0
LINE
  5
482
100
AcDbEntity
  8
0
100
AcDbLine
 62
7
  6
CONTINUOUS
 10
176.7794331395
 20
334.1427197403
 11
176.7794331395
 21
333.101072478
  0
LINE
  5
483
100
AcDbEntity
  8
0
100
AcDbLine
 62
7
  6
CONTINUOUS
 10
176.9252664772
 20
334.217050271
 11
176.9252664772
 21
333.2097502983
  0
LINE
  5
484
100
AcDbEntity
  8
0
100
AcDbLine
 62
7
  6
CONTINUOUS
 10
152.8419331395
 20
324.101070711
 11
164.3419331395
 21
324.101070711
  0
LINE
  5
485
100
AcDbEntity
  8
0
100
AcDbLine
 62
7
  6
CONTINUOUS
 10
237.3419331395
 20
324.101070711
 11
248.8419331395
 21
324.101070711
  0
LINE
  5
486
100
AcDbEntity
  8
0
100
AcDbLine
 62
7
  6
CONTINUOUS
 10
177.2169331395
 20
334.3037414056
 11
177.2169331395
 21
333.2909171832
  0
LINE
  5
487
100
AcDbEntity
  8
0
100
AcDbLine
 62
7
  6
CONTINUOUS
 10
177.6544331395
 20
333.101072478
 11
177.6544331395
 21
333.1401100957
  0
LINE
  5
488
100
AcDbEntity
  8
0
100
AcDbLine
 62
7
  6
CONTINUOUS
 10
177.8002664381
 20
334.4150902738
 11
177.8002664381
 21
333.3950839097
  0
LINE
  5
489
100
AcDbEntity
  8
0
100
AcDbLine
 62
7
  6
CONTINUOUS
 10
178.383599841
 20
334.4801825339
 11
178.383599841
 21
333.4559318146
  0
LINE
  5
48A
100
AcDbEntity
  8
0
100
AcDbLine
 62
7
  6
CONTINUOUS
 10
179.1127665424
 20
334.5151185652
 11
179.1127665424
 21
333.488575715
  0
LINE
  5
48B
100
AcDbEntity
  8
0
100
AcDbLine
 62
7
  6
CONTINUOUS
 10
179.2169331395
 20
376.101070711
 11
179.2169331395
 21
376.601070711
  0
LINE
  5
48C
100
AcDbEntity
  8
0
100
AcDbLine
 62
7
  6
CONTINUOUS
 10
179.4044332289
 20
376.101070711
 11
179.4044332289
 21
376.601070711
  0
LINE
  5
48D
100
AcDbEntity
  8
0
100
AcDbLine
 62
7
  6
CONTINUOUS
 10
179.9669332289
 20
376.101070711
 11
179.9669332289
 21
376.601070711
  0
LINE
  5
48E
100
AcDbEntity
  8
0
100
AcDbLine
 62
7
  6
CONTINUOUS
 10
180.0606831395
 20
376.101070711
 11
180.0606831395
 21
376.601070711
  0
LINE
  5
48F
100
AcDbEntity
  8
0
100
AcDbLine
 62
7
  6
CONTINUOUS
 10
180.2481832289
 20
376.101070711
 11
180.2481832289
 21
376.601070711
  0
LINE
  5
490
100
AcDbEntity
  8
0
100
AcDbLine
 62
7
  6
CONTINUOUS
 10
180.2794331395
 20
334.5151185652
 11
180.2794331395
 21
333.488575715
  0
LINE
  5
491
100
AcDbEntity
  8
0
100
AcDbLine
 62
7
  6
CONTINUOUS
 10
180.6231831395
 20
376.101070711
 11
180.6231831395
 21
376.601070711
  0
LINE
  5
492
100
AcDbEntity
  8
0
100
AcDbLine
 62
7
  6
CONTINUOUS
 10
180.9981833183
 20
376.101070711
 11
180.9981833183
 21
376.601070711
  0
LINE
  5
493
100
AcDbEntity
  8
0
100
AcDbLine
 62
7
  6
CONTINUOUS
 10
181.0085999453
 20
334.4801825339
 11
181.0085999453
 21
333.4559318146
  0
LINE
  5
494
100
AcDbEntity
  8
0
100
AcDbLine
 62
7
  6
CONTINUOUS
 10
181.4669331395
 20
376.101070711
 11
181.4669331395
 21
376.601070711
  0
LINE
  5
495
100
AcDbEntity
  8
0
100
AcDbLine
 62
7
  6
CONTINUOUS
 10
181.5919331395
 20
334.4150902738
 11
181.5919331395
 21
333.3950839097
  0
LINE
  5
496
100
AcDbEntity
  8
0
100
AcDbLine
 62
7
  6
CONTINUOUS
 10
181.7377663338
 20
333.1401100957
 11
181.7377663338
 21
333.101072478
  0
LINE
  5
497
100
AcDbEntity
  8
0
100
AcDbLine
 62
7
  6
CONTINUOUS
 10
182.1752663338
 20
334.3037414056
 11
182.1752663338
 21
333.2909171832
  0
LINE
  5
498
100
AcDbEntity
  8
0
100
AcDbLine
 62
7
  6
CONTINUOUS
 10
182.3106831395
 20
376.101070711
 11
182.3106831395
 21
376.601070711
  0
LINE
  5
499
100
AcDbEntity
  8
0
100
AcDbLine
 62
7
  6
CONTINUOUS
 10
182.4669331395
 20
334.217050271
 11
182.4669331395
 21
333.2097502983
  0
LINE
  5
49A
100
AcDbEntity
  8
0
100
AcDbLine
 62
7
  6
CONTINUOUS
 10
182.6127663338
 20
333.101072478
 11
182.6127663338
 21
334.1427197403
  0
LINE
  5
49B
100
AcDbEntity
  8
0
100
AcDbLine
 62
7
  6
CONTINUOUS
 10
182.7794329607
 20
376.101070711
 11
182.7794329607
 21
376.601070711
  0
LINE
  5
49C
100
AcDbEntity
  8
0
100
AcDbLine
 62
7
  6
CONTINUOUS
 10
183.1544331395
 20
376.101070711
 11
183.1544331395
 21
376.601070711
  0
LINE
  5
49D
100
AcDbEntity
  8
0
100
AcDbLine
 62
7
  6
CONTINUOUS
 10
183.5294333183
 20
376.101070711
 11
183.5294333183
 21
376.601070711
  0
LINE
  5
49E
100
AcDbEntity
  8
0
100
AcDbLine
 62
7
  6
CONTINUOUS
 10
183.6231829607
 20
376.101070711
 11
183.6231829607
 21
376.601070711
  0
LINE
  5
49F
100
AcDbEntity
  8
0
100
AcDbLine
 62
7
  6
CONTINUOUS
 10
183.7794331395
 20
334.5151185652
 11
183.7794331395
 21
333.101070711
  0
LINE
  5
4A0
100
AcDbEntity
  8
0
100
AcDbLine
 62
7
  6
CONTINUOUS
 10
184.2794331395
 20
376.101070711
 11
184.2794331395
 21
376.601070711
  0
LINE
  5
4A1
100
AcDbEntity
  8
0
100
AcDbLine
 62
7
  6
CONTINUOUS
 10
184.6544331395
 20
333.1095645038
 11
184.6544331395
 21
333.3400994244
  0
LINE
  5
4A2
100
AcDbEntity
  8
0
100
AcDbLine
 62
7
  6
CONTINUOUS
 10
186.5294331395
 20
376.101070711
 11
186.5294331395
 21
376.601070711
  0
LINE
  5
4A3
100
AcDbEntity
  8
0
100
AcDbLine
 62
7
  6
CONTINUOUS
 10
176.7794331395
 20
333.101070711
 11
177.6544331395
 21
333.101070711
  0
LINE
  5
4A4
100
AcDbEntity
  8
0
100
AcDbLine
 62
7
  6
CONTINUOUS
 10
181.7377663338
 20
333.101070711
 11
182.6127663338
 21
333.101070711
  0
LINE
  5
4A5
100
AcDbEntity
  8
0
100
AcDbLine
 62
7
  6
CONTINUOUS
 10
183.7794331395
 20
333.101070711
 11
184.6544331395
 21
333.101070711
  0
LINE
  5
4A6
100
AcDbEntity
  8
0
100
AcDbLine
 62
7
  6
CONTINUOUS
 10
187.425266751
 20
333.101070711
 11
188.3002663338
 21
333.101070711
  0
LINE
  5
4A7
100
AcDbEntity
  8
0
100
AcDbLine
 62
7
  6
CONTINUOUS
 10
192.6752659166
 20
333.101070711
 11
193.5502659166
 21
333.101070711
  0
LINE
  5
4A8
100
AcDbEntity
  8
0
100
AcDbLine
 62
7
  6
CONTINUOUS
 10
197.0502659166
 20
333.101070711
 11
197.9252659166
 21
333.101070711
  0
LINE
  5
4A9
100
AcDbEntity
  8
0
100
AcDbLine
 62
7
  6
CONTINUOUS
 10
199.0919331395
 20
333.101070711
 11
199.9669331395
 21
333.101070711
  0
LINE
  5
4AA
100
AcDbEntity
  8
0
100
AcDbLine
 62
7
  6
CONTINUOUS
 10
206.6752659166
 20
333.101070711
 11
207.4773992383
 21
333.101070711
  0
LINE
  5
4AB
100
AcDbEntity
  8
0
100
AcDbLine
 62
7
  6
CONTINUOUS
 10
209.3731359327
 20
333.101070711
 11
210.1752659166
 21
333.101070711
  0
LINE
  5
4AC
100
AcDbEntity
  8
0
100
AcDbLine
 62
7
  6
CONTINUOUS
 10
213.8211004795
 20
333.101070711
 11
214.8419331395
 21
333.101070711
  0
LINE
  5
4AD
100
AcDbEntity
  8
0
100
AcDbLine
 62
7
  6
CONTINUOUS
 10
219.0710986936
 20
333.101070711
 11
224.9044331395
 21
333.101070711
  0
LINE
  5
4AE
100
AcDbEntity
  8
0
100
AcDbLine
 62
7
  6
CONTINUOUS
 10
215.7169331395
 20
333.1095645038
 11
214.8419331395
 21
333.1095645038
  0
LINE
  5
4AF
100
AcDbEntity
  8
0
100
AcDbLine
 62
7
  6
CONTINUOUS
 10
187.425266751
 20
333.1095645038
 11
184.6544331395
 21
333.1095645038
  0
LINE
  5
4B0
100
AcDbEntity
  8
0
100
AcDbLine
 62
7
  6
CONTINUOUS
 10
224.0294331395
 20
333.1151139065
 11
219.9460986936
 21
333.1151139065
  0
LINE
  5
4B1
100
AcDbEntity
  8
0
100
AcDbLine
 62
7
  6
CONTINUOUS
 10
209.021703661
 20
333.1401101103
 11
207.8288315131
 21
333.1401101103
  0
LINE
  5
4B2
100
AcDbEntity
  8
0
100
AcDbLine
 62
7
  6
CONTINUOUS
 10
212.9460986936
 20
333.1776779718
 11
212.5085986936
 21
333.1776779718
  0
LINE
  5
4B3
100
AcDbEntity
  8
0
100
AcDbLine
 62
7
  6
CONTINUOUS
 10
216.5919331395
 20
333.2097502983
 11
217.4669331395
 21
333.2097502983
  0
LINE
  5
4B4
100
AcDbEntity
  8
0
100
AcDbLine
 62
7
  6
CONTINUOUS
 10
204.3419331395
 20
333.3147865454
 11
199.9669331395
 21
333.3147865454
  0
LINE
  5
4B5
100
AcDbEntity
  8
0
100
AcDbLine
 62
7
  6
CONTINUOUS
 10
179.1127665424
 20
333.3147865627
 11
180.2794331395
 21
333.3147865627
  0
LINE
  5
4B6
100
AcDbEntity
  8
0
100
AcDbLine
 62
7
  6
CONTINUOUS
 10
214.8419331395
 20
333.3147865627
 11
215.7169331395
 21
333.3147865627
  0
LINE
  5
4B7
100
AcDbEntity
  8
0
100
AcDbLine
 62
7
  6
CONTINUOUS
 10
184.6544331395
 20
333.3400994244
 11
187.425266751
 21
333.3400994244
  0
LINE
  5
4B8
100
AcDbEntity
  8
0
100
AcDbLine
 62
7
  6
CONTINUOUS
 10
190.3419331395
 20
333.3400994244
 11
192.6752659166
 21
333.3400994244
  0
LINE
  5
4B9
100
AcDbEntity
  8
0
100
AcDbLine
 62
7
  6
CONTINUOUS
 10
193.5502659166
 20
333.3400994244
 11
195.8836003625
 21
333.3400994244
  0
LINE
  5
4BA
100
AcDbEntity
  8
0
100
AcDbLine
 62
7
  6
CONTINUOUS
 10
224.9044331395
 20
333.488575715
 11
224.0294331395
 21
333.488575715
  0
LINE
  5
4BB
100
AcDbEntity
  8
0
100
AcDbLine
 62
7
  6
CONTINUOUS
 10
219.9460986936
 20
333.488575715
 11
219.0710986936
 21
333.488575715
  0
LINE
  5
4BC
100
AcDbEntity
  8
0
100
AcDbLine
 62
7
  6
CONTINUOUS
 10
215.5710986936
 20
333.488575715
 11
214.8419331395
 21
333.488575715
  0
LINE
  5
4BD
100
AcDbEntity
  8
0
100
AcDbLine
 62
7
  6
CONTINUOUS
 10
209.0085986936
 20
333.488575715
 11
207.8419331395
 21
333.488575715
  0
LINE
  5
4BE
100
AcDbEntity
  8
0
100
AcDbLine
 62
7
  6
CONTINUOUS
 10
199.9669331395
 20
333.488575715
 11
199.0919331395
 21
333.488575715
  0
LINE
  5
4BF
100
AcDbEntity
  8
0
100
AcDbLine
 62
7
  6
CONTINUOUS
 10
197.9252659166
 20
333.488575715
 11
197.0502659166
 21
333.488575715
  0
LINE
  5
4C0
100
AcDbEntity
  8
0
100
AcDbLine
 62
7
  6
CONTINUOUS
 10
195.8836003625
 20
333.488575715
 11
190.3419331395
 21
333.488575715
  0
LINE
  5
4C1
100
AcDbEntity
  8
0
100
AcDbLine
 62
7
  6
CONTINUOUS
 10
187.2794331395
 20
333.488575715
 11
183.7794331395
 21
333.488575715
  0
LINE
  5
4C2
100
AcDbEntity
  8
0
100
AcDbLine
 62
7
  6
CONTINUOUS
 10
180.2794331395
 20
333.488575715
 11
179.1127665424
 21
333.488575715
  0
LINE
  5
4C3
100
AcDbEntity
  8
0
100
AcDbLine
 62
7
  6
CONTINUOUS
 10
169.3419331395
 20
334.101070711
 11
176.7794331395
 21
334.101070711
  0
LINE
  5
4C4
100
AcDbEntity
  8
0
100
AcDbLine
 62
7
  6
CONTINUOUS
 10
182.6127663338
 20
334.101070711
 11
183.7794331395
 21
334.101070711
  0
LINE
  5
4C5
100
AcDbEntity
  8
0
100
AcDbLine
 62
7
  6
CONTINUOUS
 10
189.175266751
 20
334.101070711
 11
190.3419331395
 21
334.101070711
  0
LINE
  5
4C6
100
AcDbEntity
  8
0
100
AcDbLine
 62
7
  6
CONTINUOUS
 10
195.8836003625
 20
334.101070711
 11
197.0502659166
 21
334.101070711
  0
LINE
  5
4C7
100
AcDbEntity
  8
0
100
AcDbLine
 62
7
  6
CONTINUOUS
 10
197.9252659166
 20
334.101070711
 11
199.0919331395
 21
334.101070711
  0
LINE
  5
4C8
100
AcDbEntity
  8
0
100
AcDbLine
 62
7
  6
CONTINUOUS
 10
199.9669331395
 20
334.101070711
 11
206.6752659178
 21
334.101070711
  0
LINE
  5
4C9
100
AcDbEntity
  8
0
100
AcDbLine
 62
7
  6
CONTINUOUS
 10
210.1752659153
 20
334.101070711
 11
212.9460986936
 21
334.101070711
  0
LINE
  5
4CA
100
AcDbEntity
  8
0
100
AcDbLine
 62
7
  6
CONTINUOUS
 10
217.4669331395
 20
334.101070711
 11
219.0710986936
 21
334.101070711
  0
LINE
  5
4CB
100
AcDbEntity
  8
0
100
AcDbLine
 62
7
  6
CONTINUOUS
 10
224.9044331395
 20
334.101070711
 11
232.3419331395
 21
334.101070711
  0
LINE
  5
4CC
100
AcDbEntity
  8
0
100
AcDbLine
 62
7
  6
CONTINUOUS
 10
219.9460986936
 20
334.1160510262
 11
224.0294331395
 21
334.1160510262
  0
LINE
  5
4CD
100
AcDbEntity
  8
0
100
AcDbLine
 62
7
  6
CONTINUOUS
 10
179.1127665424
 20
334.5151185652
 11
180.2794331395
 21
334.5151185652
  0
LINE
  5
4CE
100
AcDbEntity
  8
0
100
AcDbLine
 62
7
  6
CONTINUOUS
 10
183.7794331395
 20
334.5151185652
 11
187.2794331395
 21
334.5151185652
  0
LINE
  5
4CF
100
AcDbEntity
  8
0
100
AcDbLine
 62
7
  6
CONTINUOUS
 10
190.3419331395
 20
334.5151185652
 11
195.8836003625
 21
334.5151185652
  0
LINE
  5
4D0
100
AcDbEntity
  8
0
100
AcDbLine
 62
7
  6
CONTINUOUS
 10
197.0502659166
 20
334.5151185652
 11
197.9252659166
 21
334.5151185652
  0
LINE
  5
4D1
100
AcDbEntity
  8
0
100
AcDbLine
 62
7
  6
CONTINUOUS
 10
199.0919331395
 20
334.5151185652
 11
199.9669331395
 21
334.5151185652
  0
LINE
  5
4D2
100
AcDbEntity
  8
0
100
AcDbLine
 62
7
  6
CONTINUOUS
 10
207.8419331395
 20
334.5151185652
 11
209.0085986936
 21
334.5151185652
  0
LINE
  5
4D3
100
AcDbEntity
  8
0
100
AcDbLine
 62
7
  6
CONTINUOUS
 10
214.8419331395
 20
334.5151185652
 11
215.5710986936
 21
334.5151185652
  0
LINE
  5
4D4
100
AcDbEntity
  8
0
100
AcDbLine
 62
7
  6
CONTINUOUS
 10
219.0710986936
 20
334.5151185652
 11
219.9460986936
 21
334.5151185652
  0
LINE
  5
4D5
100
AcDbEntity
  8
0
100
AcDbLine
 62
7
  6
CONTINUOUS
 10
224.0294331395
 20
334.5151185652
 11
224.9044331395
 21
334.5151185652
  0
LINE
  5
4D6
100
AcDbEntity
  8
0
100
AcDbLine
 62
7
  6
CONTINUOUS
 10
217.1023531908
 20
333.10107075
 11
217.0294331395
 21
333.1012440087
  0
LINE
  5
4D7
100
AcDbEntity
  8
0
100
AcDbLine
 62
7
  6
CONTINUOUS
 10
186.9981834972
 20
376.101070711
 11
186.9981834972
 21
376.601070711
  0
LINE
  5
4D8
100
AcDbEntity
  8
0
100
AcDbLine
 62
7
  6
CONTINUOUS
 10
187.2794331395
 20
334.5151185652
 11
187.2794331395
 21
333.488575715
  0
LINE
  5
4D9
100
AcDbEntity
  8
0
100
AcDbLine
 62
7
  6
CONTINUOUS
 10
187.3731831395
 20
376.101070711
 11
187.3731831395
 21
376.601070711
  0
LINE
  5
4DA
100
AcDbEntity
  8
0
100
AcDbLine
 62
7
  6
CONTINUOUS
 10
187.425266751
 20
333.3400994244
 11
187.425266751
 21
333.1095645038
  0
LINE
  5
4DB
100
AcDbEntity
  8
0
100
AcDbLine
 62
7
  6
CONTINUOUS
 10
187.7481827819
 20
376.101070711
 11
187.7481827819
 21
376.601070711
  0
LINE
  5
4DC
100
AcDbEntity
  8
0
100
AcDbLine
 62
7
  6
CONTINUOUS
 10
187.862766751
 20
333.3147865627
 11
187.862766751
 21
333.1151139065
  0
LINE
  5
4DD
100
AcDbEntity
  8
0
100
AcDbLine
 62
7
  6
CONTINUOUS
 10
187.9356831395
 20
376.101070711
 11
187.9356831395
 21
376.601070711
  0
LINE
  5
4DE
100
AcDbEntity
  8
0
100
AcDbLine
 62
7
  6
CONTINUOUS
 10
188.008599528
 20
334.4801825339
 11
188.008599528
 21
333.4559318146
  0
LINE
  5
4DF
100
AcDbEntity
  8
0
100
AcDbLine
 62
7
  6
CONTINUOUS
 10
188.0294327819
 20
376.101070711
 11
188.0294327819
 21
376.601070711
  0
LINE
  5
4E0
100
AcDbEntity
  8
0
100
AcDbLine
 62
7
  6
CONTINUOUS
 10
188.1544331395
 20
333.2684847575
 11
188.1544331395
 21
333.1303847067
  0
LINE
  5
4E1
100
AcDbEntity
  8
0
100
AcDbLine
 62
7
  6
CONTINUOUS
 10
188.300266751
 20
333.2097502983
 11
188.300266751
 21
333.1637536053
  0
LINE
  5
4E2
100
AcDbEntity
  8
0
100
AcDbLine
 62
7
  6
CONTINUOUS
 10
188.5919331395
 20
334.3849129031
 11
188.5919331395
 21
333.3668627351
  0
LINE
  5
4E3
100
AcDbEntity
  8
0
100
AcDbLine
 62
7
  6
CONTINUOUS
 10
188.8731827819
 20
376.101070711
 11
188.8731827819
 21
376.601070711
  0
LINE
  5
4E4
100
AcDbEntity
  8
0
100
AcDbLine
 62
7
  6
CONTINUOUS
 10
189.0294331395
 20
334.279775964
 11
189.0294331395
 21
333.2684847575
  0
LINE
  5
4E5
100
AcDbEntity
  8
0
100
AcDbLine
 62
7
  6
CONTINUOUS
 10
189.175266751
 20
333.1512320872
 11
189.175266751
 21
334.217050271
  0
LINE
  5
4E6
100
AcDbEntity
  8
0
100
AcDbLine
 62
7
  6
CONTINUOUS
 10
189.4356827819
 20
376.101070711
 11
189.4356827819
 21
376.601070711
  0
LINE
  5
4E7
100
AcDbEntity
  8
0
100
AcDbLine
 62
7
  6
CONTINUOUS
 10
189.9981827819
 20
376.101070711
 11
189.9981827819
 21
376.601070711
  0
LINE
  5
4E8
100
AcDbEntity
  8
0
100
AcDbLine
 62
7
  6
CONTINUOUS
 10
190.3419331395
 20
334.5151185652
 11
190.3419331395
 21
333.3400994244
  0
LINE
  5
4E9
100
AcDbEntity
  8
0
100
AcDbLine
 62
7
  6
CONTINUOUS
 10
190.7481831395
 20
376.101070711
 11
190.7481831395
 21
376.601070711
  0
LINE
  5
4EA
100
AcDbEntity
  8
0
100
AcDbLine
 62
7
  6
CONTINUOUS
 10
190.8419327819
 20
376.101070711
 11
190.8419327819
 21
376.601070711
  0
LINE
  5
4EB
100
AcDbEntity
  8
0
100
AcDbLine
 62
7
  6
CONTINUOUS
 10
190.9356834972
 20
376.101070711
 11
190.9356834972
 21
376.601070711
  0
LINE
  5
4EC
100
AcDbEntity
  8
0
100
AcDbLine
 62
7
  6
CONTINUOUS
 10
191.1231827819
 20
376.101070711
 11
191.1231827819
 21
376.601070711
  0
LINE
  5
4ED
100
AcDbEntity
  8
0
100
AcDbLine
 62
7
  6
CONTINUOUS
 10
191.4044327819
 20
376.101070711
 11
191.4044327819
 21
376.601070711
  0
LINE
  5
4EE
100
AcDbEntity
  8
0
100
AcDbLine
 62
7
  6
CONTINUOUS
 10
267.8419331395
 20
338.101070711
 11
253.8419331395
 21
338.101070711
  0
LINE
  5
4EF
100
AcDbEntity
  8
0
100
AcDbLine
 62
7
  6
CONTINUOUS
 10
147.8419331395
 20
338.101070711
 11
133.8419331395
 21
338.101070711
  0
LINE
  5
4F0
100
AcDbEntity
  8
0
100
AcDbLine
 62
7
  6
CONTINUOUS
 10
191.8731831395
 20
376.101070711
 11
191.8731831395
 21
376.601070711
  0
LINE
  5
4F1
100
AcDbEntity
  8
0
100
AcDbLine
 62
7
  6
CONTINUOUS
 10
192.4356831395
 20
376.101070711
 11
192.4356831395
 21
376.601070711
  0
LINE
  5
4F2
100
AcDbEntity
  8
0
100
AcDbLine
 62
7
  6
CONTINUOUS
 10
192.6752659166
 20
333.3400994244
 11
192.6752659166
 21
333.1011553099
  0
LINE
  5
4F3
100
AcDbEntity
  8
0
100
AcDbLine
 62
7
  6
CONTINUOUS
 10
192.9981831395
 20
376.101070711
 11
192.9981831395
 21
376.601070711
  0
LINE
  5
4F4
100
AcDbEntity
  8
0
100
AcDbLine
 62
7
  6
CONTINUOUS
 10
193.4669334972
 20
376.101070711
 11
193.4669334972
 21
376.601070711
  0
LINE
  5
4F5
100
AcDbEntity
  8
0
100
AcDbLine
 62
7
  6
CONTINUOUS
 10
193.5502659166
 20
333.1011553099
 11
193.5502659166
 21
333.3400994244
  0
LINE
  5
4F6
100
AcDbEntity
  8
0
100
AcDbLine
 62
7
  6
CONTINUOUS
 10
193.7481834972
 20
376.101070711
 11
193.7481834972
 21
376.601070711
  0
LINE
  5
4F7
100
AcDbEntity
  8
0
100
AcDbLine
 62
7
  6
CONTINUOUS
 10
193.9356838548
 20
376.101070711
 11
193.9356838548
 21
376.601070711
  0
LINE
  5
4F8
100
AcDbEntity
  8
0
100
AcDbLine
 62
7
  6
CONTINUOUS
 10
194.0294324243
 20
376.101070711
 11
194.0294324243
 21
376.601070711
  0
LINE
  5
4F9
100
AcDbEntity
  8
0
100
AcDbLine
 62
7
  6
CONTINUOUS
 10
194.1231831395
 20
376.101070711
 11
194.1231831395
 21
376.601070711
  0
LINE
  5
4FA
100
AcDbEntity
  8
0
100
AcDbLine
 62
7
  6
CONTINUOUS
 10
194.8731824243
 20
376.101070711
 11
194.8731824243
 21
376.601070711
  0
LINE
  5
4FB
100
AcDbEntity
  8
0
100
AcDbLine
 62
7
  6
CONTINUOUS
 10
194.9669331395
 20
376.101070711
 11
194.9669331395
 21
376.601070711
  0
LINE
  5
4FC
100
AcDbEntity
  8
0
100
AcDbLine
 62
7
  6
CONTINUOUS
 10
195.0606838548
 20
376.101070711
 11
195.0606838548
 21
376.601070711
  0
LINE
  5
4FD
100
AcDbEntity
  8
0
100
AcDbLine
 62
7
  6
CONTINUOUS
 10
195.2481831395
 20
376.101070711
 11
195.2481831395
 21
376.601070711
  0
LINE
  5
4FE
100
AcDbEntity
  8
0
100
AcDbLine
 62
7
  6
CONTINUOUS
 10
195.5294331395
 20
376.101070711
 11
195.5294331395
 21
376.601070711
  0
LINE
  5
4FF
100
AcDbEntity
  8
0
100
AcDbLine
 62
7
  6
CONTINUOUS
 10
195.8836003625
 20
333.3400994244
 11
195.8836003625
 21
334.5151185652
  0
LINE
  5
500
100
AcDbEntity
  8
0
100
AcDbLine
 62
7
  6
CONTINUOUS
 10
195.9981824243
 20
376.101070711
 11
195.9981824243
 21
376.601070711
  0
LINE
  5
501
100
AcDbEntity
  8
0
100
AcDbLine
 62
7
  6
CONTINUOUS
 10
196.5606824243
 20
376.101070711
 11
196.5606824243
 21
376.601070711
  0
LINE
  5
502
100
AcDbEntity
  8
0
100
AcDbLine
 62
7
  6
CONTINUOUS
 10
197.0502659166
 20
334.5151185652
 11
197.0502659166
 21
333.101070711
  0
LINE
  5
503
100
AcDbEntity
  8
0
100
AcDbLine
 62
7
  6
CONTINUOUS
 10
197.1231824243
 20
376.101070711
 11
197.1231824243
 21
376.601070711
  0
LINE
  5
504
100
AcDbEntity
  8
0
100
AcDbLine
 62
7
  6
CONTINUOUS
 10
197.5919338548
 20
376.101070711
 11
197.5919338548
 21
376.601070711
  0
LINE
  5
505
100
AcDbEntity
  8
0
100
AcDbLine
 62
7
  6
CONTINUOUS
 10
197.8731838548
 20
376.101070711
 11
197.8731838548
 21
376.601070711
  0
LINE
  5
506
100
AcDbEntity
  8
0
100
AcDbLine
 62
7
  6
CONTINUOUS
 10
197.9252659166
 20
333.101070711
 11
197.9252659166
 21
334.5151185652
  0
LINE
  5
507
100
AcDbEntity
  8
0
100
AcDbLine
 62
7
  6
CONTINUOUS
 10
198.0606831395
 20
376.101070711
 11
198.0606831395
 21
376.601070711
  0
LINE
  5
508
100
AcDbEntity
  8
0
100
AcDbLine
 62
7
  6
CONTINUOUS
 10
198.1544338548
 20
376.101070711
 11
198.1544338548
 21
376.601070711
  0
LINE
  5
509
100
AcDbEntity
  8
0
100
AcDbLine
 62
7
  6
CONTINUOUS
 10
198.2481824243
 20
376.101070711
 11
198.2481824243
 21
376.601070711
  0
LINE
  5
50A
100
AcDbEntity
  8
0
100
AcDbLine
 62
7
  6
CONTINUOUS
 10
198.9981838548
 20
376.101070711
 11
198.9981838548
 21
376.601070711
  0
LINE
  5
50B
100
AcDbEntity
  8
0
100
AcDbLine
 62
7
  6
CONTINUOUS
 10
199.0919324243
 20
376.101070711
 11
199.0919324243
 21
376.601070711
  0
LINE
  5
50C
100
AcDbEntity
  8
0
100
AcDbLine
 62
7
  6
CONTINUOUS
 10
199.0919331395
 20
334.5151185652
 11
199.0919331395
 21
333.101070711
  0
LINE
  5
50D
100
AcDbEntity
  8
0
100
AcDbLine
 62
7
  6
CONTINUOUS
 10
199.1856831395
 20
376.101070711
 11
199.1856831395
 21
376.601070711
  0
LINE
  5
50E
100
AcDbEntity
  8
0
100
AcDbLine
 62
7
  6
CONTINUOUS
 10
199.3731824243
 20
376.101070711
 11
199.3731824243
 21
376.601070711
  0
LINE
  5
50F
100
AcDbEntity
  8
0
100
AcDbLine
 62
7
  6
CONTINUOUS
 10
199.6544324243
 20
376.101070711
 11
199.6544324243
 21
376.601070711
  0
LINE
  5
510
100
AcDbEntity
  8
0
100
AcDbLine
 62
7
  6
CONTINUOUS
 10
199.9669331395
 20
333.1011361702
 11
199.9669331395
 21
334.5151185652
  0
LINE
  5
511
100
AcDbEntity
  8
0
100
AcDbLine
 62
7
  6
CONTINUOUS
 10
200.1231838548
 20
376.101070711
 11
200.1231838548
 21
376.601070711
  0
LINE
  5
512
100
AcDbEntity
  8
0
100
AcDbLine
 62
7
  6
CONTINUOUS
 10
200.6856838548
 20
376.101070711
 11
200.6856838548
 21
376.601070711
  0
LINE
  5
513
100
AcDbEntity
  8
RUNDUNGEN
100
AcDbLine
 62
7
  6
CONTINUOUS
 10
200.8419331395
 20
367.4597878114
 11
200.8419331395
 21
369.101070711
  0
LINE
  5
514
100
AcDbEntity
  8
0
100
AcDbLine
 62
7
  6
CONTINUOUS
 10
201.2481838548
 20
376.101070711
 11
201.2481838548
 21
376.601070711
  0
LINE
  5
515
100
AcDbEntity
  8
0
100
AcDbLine
 62
7
  6
CONTINUOUS
 10
201.7169331395
 20
376.101070711
 11
201.7169331395
 21
376.601070711
  0
LINE
  5
516
100
AcDbEntity
  8
0
100
AcDbLine
 62
7
  6
CONTINUOUS
 10
201.9981831395
 20
376.101070711
 11
201.9981831395
 21
376.601070711
  0
LINE
  5
517
100
AcDbEntity
  8
0
100
AcDbLine
 62
7
  6
CONTINUOUS
 10
202.1856824243
 20
376.101070711
 11
202.1856824243
 21
376.601070711
  0
LINE
  5
518
100
AcDbEntity
  8
0
100
AcDbLine
 62
7
  6
CONTINUOUS
 10
202.2794331395
 20
376.101070711
 11
202.2794331395
 21
376.601070711
  0
LINE
  5
519
100
AcDbEntity
  8
0
100
AcDbLine
 62
7
  6
CONTINUOUS
 10
202.3731838548
 20
376.101070711
 11
202.3731838548
 21
376.601070711
  0
LINE
  5
51A
100
AcDbEntity
  8
0
100
AcDbLine
 62
7
  6
CONTINUOUS
 10
203.1231831395
 20
376.101070711
 11
203.1231831395
 21
376.601070711
  0
LINE
  5
51B
100
AcDbEntity
  8
0
100
AcDbLine
 62
7
  6
CONTINUOUS
 10
203.2169338548
 20
376.101070711
 11
203.2169338548
 21
376.601070711
  0
LINE
  5
51C
100
AcDbEntity
  8
0
100
AcDbLine
 62
7
  6
CONTINUOUS
 10
203.3106824243
 20
376.101070711
 11
203.3106824243
 21
376.601070711
  0
LINE
  5
51D
100
AcDbEntity
  8
0
100
AcDbLine
 62
7
  6
CONTINUOUS
 10
203.4981838548
 20
376.101070711
 11
203.4981838548
 21
376.601070711
  0
LINE
  5
51E
100
AcDbEntity
  8
0
100
AcDbLine
 62
7
  6
CONTINUOUS
 10
203.7794338548
 20
376.101070711
 11
203.7794338548
 21
376.601070711
  0
LINE
  5
51F
100
AcDbEntity
  8
0
100
AcDbLine
 62
7
  6
CONTINUOUS
 10
204.2481831395
 20
376.101070711
 11
204.2481831395
 21
376.601070711
  0
LINE
  5
520
100
AcDbEntity
  8
0
100
AcDbLine
 62
7
  6
CONTINUOUS
 10
204.3419331395
 20
334.101070711
 11
204.3419331395
 21
333.3147865454
  0
LINE
  5
521
100
AcDbEntity
  8
0
100
AcDbLine
 62
7
  6
CONTINUOUS
 10
204.8106831395
 20
376.101070711
 11
204.8106831395
 21
376.601070711
  0
LINE
  5
522
100
AcDbEntity
  8
0
100
AcDbLine
 62
7
  6
CONTINUOUS
 10
205.3731831395
 20
376.101070711
 11
205.3731831395
 21
376.601070711
  0
LINE
  5
523
100
AcDbEntity
  8
0
100
AcDbLine
 62
7
  6
CONTINUOUS
 10
205.5085986936
 20
334.101070711
 11
205.5085986936
 21
333.488575715
  0
LINE
  5
524
100
AcDbEntity
  8
0
100
AcDbLine
 62
7
  6
CONTINUOUS
 10
205.8419324243
 20
376.101070711
 11
205.8419324243
 21
376.601070711
  0
LINE
  5
525
100
AcDbEntity
  8
0
100
AcDbLine
 62
7
  6
CONTINUOUS
 10
206.1231824243
 20
376.101070711
 11
206.1231824243
 21
376.601070711
  0
LINE
  5
526
100
AcDbEntity
  8
0
100
AcDbLine
 62
7
  6
CONTINUOUS
 10
206.3106838548
 20
376.101070711
 11
206.3106838548
 21
376.601070711
  0
LINE
  5
527
100
AcDbEntity
  8
RUNDUNGEN
100
AcDbLine
 62
7
  6
CONTINUOUS
 10
133.8419331395
 20
357.101070711
 11
147.8419331395
 21
357.101070711
  0
LINE
  5
528
100
AcDbEntity
  8
RUNDUNGEN
100
AcDbLine
 62
7
  6
CONTINUOUS
 10
253.8419331395
 20
357.101070711
 11
267.8419331395
 21
357.101070711
  0
LINE
  5
529
100
AcDbEntity
  8
0
100
AcDbLine
 62
7
  6
CONTINUOUS
 10
206.4044324243
 20
376.101070711
 11
206.4044324243
 21
376.601070711
  0
LINE
  5
52A
100
AcDbEntity
  8
0
100
AcDbLine
 62
7
  6
CONTINUOUS
 10
206.4981831395
 20
376.101070711
 11
206.4981831395
 21
376.601070711
  0
LINE
  5
52B
100
AcDbEntity
  8
0
100
AcDbLine
 62
7
  6
CONTINUOUS
 10
207.2481824243
 20
376.101070711
 11
207.2481824243
 21
376.601070711
  0
LINE
  5
52C
100
AcDbEntity
  8
0
100
AcDbLine
 62
7
  6
CONTINUOUS
 10
207.3419331395
 20
376.101070711
 11
207.3419331395
 21
376.601070711
  0
LINE
  5
52D
100
AcDbEntity
  8
0
100
AcDbLine
 62
7
  6
CONTINUOUS
 10
207.4356838548
 20
376.101070711
 11
207.4356838548
 21
376.601070711
  0
LINE
  5
52E
100
AcDbEntity
  8
0
100
AcDbLine
 62
7
  6
CONTINUOUS
 10
207.7169338548
 20
376.101070711
 11
207.7169338548
 21
376.601070711
  0
LINE
  5
52F
100
AcDbEntity
  8
0
100
AcDbLine
 62
7
  6
CONTINUOUS
 10
207.8419331395
 20
334.5151185652
 11
207.8419331395
 21
333.488575715
  0
LINE
  5
530
100
AcDbEntity
  8
0
100
AcDbLine
 62
7
  6
CONTINUOUS
 10
207.9981838548
 20
376.101070711
 11
207.9981838548
 21
376.601070711
  0
LINE
  5
531
100
AcDbEntity
  8
0
100
AcDbLine
 62
7
  6
CONTINUOUS
 10
208.3731824243
 20
376.101070711
 11
208.3731824243
 21
376.601070711
  0
LINE
  5
532
100
AcDbEntity
  8
0
100
AcDbLine
 62
7
  6
CONTINUOUS
 10
208.9356824243
 20
376.101070711
 11
208.9356824243
 21
376.601070711
  0
LINE
  5
533
100
AcDbEntity
  8
0
100
AcDbLine
 62
7
  6
CONTINUOUS
 10
209.0085986936
 20
334.5151185652
 11
209.0085986936
 21
333.488575715
  0
LINE
  5
534
100
AcDbEntity
  8
0
100
AcDbLine
 62
7
  6
CONTINUOUS
 10
209.3106831395
 20
376.101070711
 11
209.3106831395
 21
376.601070711
  0
LINE
  5
535
100
AcDbEntity
  8
0
100
AcDbLine
 62
7
  6
CONTINUOUS
 10
209.4981824243
 20
376.101070711
 11
209.4981824243
 21
376.601070711
  0
LINE
  5
536
100
AcDbEntity
  8
0
100
AcDbLine
 62
7
  6
CONTINUOUS
 10
209.6856838548
 20
376.101070711
 11
209.6856838548
 21
376.601070711
  0
LINE
  5
537
100
AcDbEntity
  8
0
100
AcDbLine
 62
7
  6
CONTINUOUS
 10
209.7794324243
 20
376.101070711
 11
209.7794324243
 21
376.601070711
  0
LINE
  5
538
100
AcDbEntity
  8
0
100
AcDbLine
 62
7
  6
CONTINUOUS
 10
210.2481838548
 20
376.101070711
 11
210.2481838548
 21
376.601070711
  0
LINE
  5
539
100
AcDbEntity
  8
0
100
AcDbLine
 62
7
  6
CONTINUOUS
 10
210.9981831395
 20
376.101070711
 11
210.9981831395
 21
376.601070711
  0
LINE
  5
53A
100
AcDbEntity
  8
0
100
AcDbLine
 62
7
  6
CONTINUOUS
 10
211.0919338548
 20
376.101070711
 11
211.0919338548
 21
376.601070711
  0
LINE
  5
53B
100
AcDbEntity
  8
0
100
AcDbLine
 62
7
  6
CONTINUOUS
 10
211.3419331395
 20
334.101070711
 11
211.3419331395
 21
333.488575715
  0
LINE
  5
53C
100
AcDbEntity
  8
0
100
AcDbLine
 62
7
  6
CONTINUOUS
 10
211.3731838548
 20
376.101070711
 11
211.3731838548
 21
376.601070711
  0
LINE
  5
53D
100
AcDbEntity
  8
0
100
AcDbLine
 62
7
  6
CONTINUOUS
 10
211.5606831395
 20
376.101070711
 11
211.5606831395
 21
376.601070711
  0
LINE
  5
53E
100
AcDbEntity
  8
0
100
AcDbLine
 62
7
  6
CONTINUOUS
 10
211.935681709
 20
376.101070711
 11
211.935681709
 21
376.601070711
  0
LINE
  5
53F
100
AcDbEntity
  8
0
100
AcDbLine
 62
7
  6
CONTINUOUS
 10
212.498181709
 20
376.101070711
 11
212.498181709
 21
376.601070711
  0
LINE
  5
540
100
AcDbEntity
  8
0
100
AcDbLine
 62
7
  6
CONTINUOUS
 10
212.5085986936
 20
334.101070711
 11
212.5085986936
 21
333.1776779718
  0
LINE
  5
541
100
AcDbEntity
  8
0
100
AcDbLine
 62
7
  6
CONTINUOUS
 10
212.9460986936
 20
334.217050271
 11
212.9460986936
 21
333.1512320872
  0
LINE
  5
542
100
AcDbEntity
  8
0
100
AcDbLine
 62
7
  6
CONTINUOUS
 10
212.9669331395
 20
376.101070711
 11
212.9669331395
 21
376.601070711
  0
LINE
  5
543
100
AcDbEntity
  8
0
100
AcDbLine
 62
7
  6
CONTINUOUS
 10
213.0919331395
 20
334.3037414056
 11
213.0919331395
 21
333.2909171832
  0
LINE
  5
544
100
AcDbEntity
  8
0
100
AcDbLine
 62
7
  6
CONTINUOUS
 10
213.2481831395
 20
376.101070711
 11
213.2481831395
 21
376.601070711
  0
LINE
  5
545
100
AcDbEntity
  8
0
100
AcDbLine
 62
7
  6
CONTINUOUS
 10
213.341931709
 20
376.101070711
 11
213.341931709
 21
376.601070711
  0
LINE
  5
546
100
AcDbEntity
  8
0
100
AcDbLine
 62
7
  6
CONTINUOUS
 10
213.43568457
 20
376.101070711
 11
213.43568457
 21
376.601070711
  0
LINE
  5
547
100
AcDbEntity
  8
0
100
AcDbLine
 62
7
  6
CONTINUOUS
 10
213.5294331395
 20
376.101070711
 11
213.5294331395
 21
376.601070711
  0
LINE
  5
548
100
AcDbEntity
  8
0
100
AcDbLine
 62
7
  6
CONTINUOUS
 10
213.6752675855
 20
334.4150902738
 11
213.6752675855
 21
333.3950839097
  0
LINE
  5
549
100
AcDbEntity
  8
0
100
AcDbLine
 62
7
  6
CONTINUOUS
 10
213.8210986936
 20
333.1637536053
 11
213.8210986936
 21
333.1930088091
  0
LINE
  5
54A
100
AcDbEntity
  8
0
100
AcDbLine
 62
7
  6
CONTINUOUS
 10
213.9669331395
 20
333.2474831856
 11
213.9669331395
 21
333.1303847067
  0
LINE
  5
54B
100
AcDbEntity
  8
0
100
AcDbLine
 62
7
  6
CONTINUOUS
 10
213.99818457
 20
376.101070711
 11
213.99818457
 21
376.601070711
  0
LINE
  5
54C
100
AcDbEntity
  8
0
100
AcDbLine
 62
7
  6
CONTINUOUS
 10
214.2585986936
 20
334.4801825339
 11
214.2585986936
 21
333.4559318146
  0
LINE
  5
54D
100
AcDbEntity
  8
0
100
AcDbLine
 62
7
  6
CONTINUOUS
 10
214.4044331395
 20
333.2909171832
 11
214.4044331395
 21
333.1151139065
  0
LINE
  5
54E
100
AcDbEntity
  8
0
100
AcDbLine
 62
7
  6
CONTINUOUS
 10
214.748181709
 20
376.101070711
 11
214.748181709
 21
376.601070711
  0
LINE
  5
54F
100
AcDbEntity
  8
0
100
AcDbLine
 62
7
  6
CONTINUOUS
 10
214.8419331395
 20
334.5151185652
 11
214.8419331395
 21
333.488575715
  0
LINE
  5
550
100
AcDbEntity
  8
0
100
AcDbLine
 62
7
  6
CONTINUOUS
 10
214.8419331395
 20
333.3147865627
 11
214.8419331395
 21
333.1095645038
  0
LINE
  5
551
100
AcDbEntity
  8
0
100
AcDbLine
 62
7
  6
CONTINUOUS
 10
215.310681709
 20
376.101070711
 11
215.310681709
 21
376.601070711
  0
LINE
  5
552
100
AcDbEntity
  8
0
100
AcDbLine
 62
7
  6
CONTINUOUS
 10
215.5710986936
 20
334.5151185652
 11
215.5710986936
 21
333.488575715
  0
LINE
  5
553
100
AcDbEntity
  8
0
100
AcDbLine
 62
7
  6
CONTINUOUS
 10
215.7169331395
 20
333.3147865627
 11
215.7169331395
 21
333.1095645038
  0
LINE
  5
554
100
AcDbEntity
  8
0
100
AcDbLine
 62
7
  6
CONTINUOUS
 10
216.3002675855
 20
334.4801825339
 11
216.3002675855
 21
333.4559318146
  0
LINE
  5
555
100
AcDbEntity
  8
0
100
AcDbLine
 62
7
  6
CONTINUOUS
 10
216.4460986936
 20
333.2474831856
 11
216.4460986936
 21
333.1054037152
  0
LINE
  5
556
100
AcDbEntity
  8
0
100
AcDbLine
 62
7
  6
CONTINUOUS
 10
216.8835986936
 20
334.3849129031
 11
216.8835986936
 21
333.3668627351
  0
LINE
  5
557
100
AcDbEntity
  8
0
100
AcDbLine
 62
7
  6
CONTINUOUS
 10
217.0294331395
 20
333.2097502983
 11
217.0294331395
 21
333.1012440087
  0
LINE
  5
558
100
AcDbEntity
  8
0
100
AcDbLine
 62
7
  6
CONTINUOUS
 10
217.3210986936
 20
334.279775964
 11
217.3210986936
 21
333.2684847575
  0
LINE
  5
559
100
AcDbEntity
  8
0
100
AcDbLine
 62
7
  6
CONTINUOUS
 10
217.4669331395
 20
334.217050271
 11
217.4669331395
 21
333.2097502983
  0
LINE
  5
55A
100
AcDbEntity
  8
0
100
AcDbLine
 62
7
  6
CONTINUOUS
 10
217.6127675855
 20
334.1101310882
 11
217.6127675855
 21
333.1095645038
  0
LINE
  5
55B
100
AcDbEntity
  8
0
100
AcDbLine
 62
7
  6
CONTINUOUS
 10
217.65443457
 20
376.101070711
 11
217.65443457
 21
376.601070711
  0
LINE
  5
55C
100
AcDbEntity
  8
0
100
AcDbLine
 62
7
  6
CONTINUOUS
 10
217.9044331395
 20
334.101070711
 11
217.9044331395
 21
333.1401101103
  0
LINE
  5
55D
100
AcDbEntity
  8
0
100
AcDbLine
 62
7
  6
CONTINUOUS
 10
218.49818457
 20
376.101070711
 11
218.49818457
 21
376.601070711
  0
LINE
  5
55E
100
AcDbEntity
  8
0
100
AcDbLine
 62
7
  6
CONTINUOUS
 10
219.0710986936
 20
334.5151185652
 11
219.0710986936
 21
333.101070711
  0
LINE
  5
55F
100
AcDbEntity
  8
0
100
AcDbLine
 62
7
  6
CONTINUOUS
 10
219.9460986936
 20
333.1151139065
 11
219.9460986936
 21
334.5151185652
  0
LINE
  5
560
100
AcDbEntity
  8
RUNDUNGEN
100
AcDbLine
 62
7
  6
CONTINUOUS
 10
202.8419331395
 20
371.101070711
 11
232.9417196076
 21
371.101070711
  0
LINE
  5
561
100
AcDbEntity
  8
0
100
AcDbLine
 62
7
  6
CONTINUOUS
 10
224.0294331395
 20
334.5151185652
 11
224.0294331395
 21
333.1151139065
  0
LINE
  5
562
100
AcDbEntity
  8
RUNDUNGEN
100
AcDbLine
 62
7
  6
CONTINUOUS
 10
224.8419331395
 20
378.101070711
 11
224.8419331395
 21
377.101070711
  0
LINE
  5
563
100
AcDbEntity
  8
0
100
AcDbLine
 62
7
  6
CONTINUOUS
 10
224.9044331395
 20
333.101070711
 11
224.9044331395
 21
334.5151185652
  0
LINE
  5
564
100
AcDbEntity
  8
RUNDUNGEN
100
AcDbLine
 62
7
  6
CONTINUOUS
 10
223.841933139
 20
376.101070711
 11
171.8419331401
 21
376.101070711
  0
LINE
  5
565
100
AcDbEntity
  8
0
100
AcDbLine
 62
7
  6
CONTINUOUS
 10
175.8419331395
 20
376.601070711
 11
179.4044332289
 21
376.601070711
  0
LINE
  5
566
100
AcDbEntity
  8
0
100
AcDbLine
 62
7
  6
CONTINUOUS
 10
179.9669332289
 20
376.601070711
 11
183.6231829607
 21
376.601070711
  0
LINE
  5
567
100
AcDbEntity
  8
0
100
AcDbLine
 62
7
  6
CONTINUOUS
 10
184.2794331395
 20
376.601070711
 11
188.0294327819
 21
376.601070711
  0
LINE
  5
568
100
AcDbEntity
  8
0
100
AcDbLine
 62
7
  6
CONTINUOUS
 10
188.8731827819
 20
376.601070711
 11
189.9981827819
 21
376.601070711
  0
LINE
  5
569
100
AcDbEntity
  8
0
100
AcDbLine
 62
7
  6
CONTINUOUS
 10
190.7481831395
 20
376.601070711
 11
194.1231831395
 21
376.601070711
  0
LINE
  5
56A
100
AcDbEntity
  8
0
100
AcDbLine
 62
7
  6
CONTINUOUS
 10
194.8731824243
 20
376.601070711
 11
198.2481824243
 21
376.601070711
  0
LINE
  5
56B
100
AcDbEntity
  8
0
100
AcDbLine
 62
7
  6
CONTINUOUS
 10
198.9981838548
 20
376.601070711
 11
202.3731838548
 21
376.601070711
  0
LINE
  5
56C
100
AcDbEntity
  8
0
100
AcDbLine
 62
7
  6
CONTINUOUS
 10
203.1231831395
 20
376.601070711
 11
206.4981831395
 21
376.601070711
  0
LINE
  5
56D
100
AcDbEntity
  8
0
100
AcDbLine
 62
7
  6
CONTINUOUS
 10
207.2481824243
 20
376.601070711
 11
210.2481838548
 21
376.601070711
  0
LINE
  5
56E
100
AcDbEntity
  8
0
100
AcDbLine
 62
7
  6
CONTINUOUS
 10
210.9981831395
 20
376.601070711
 11
213.99818457
 21
376.601070711
  0
LINE
  5
56F
100
AcDbEntity
  8
0
100
AcDbLine
 62
7
  6
CONTINUOUS
 10
214.748181709
 20
376.601070711
 11
218.49818457
 21
376.601070711
  0
LINE
  5
570
100
AcDbEntity
  8
0
100
AcDbLine
 62
7
  6
CONTINUOUS
 10
152.8419331395
 20
379.101070711
 11
167.3268050203
 21
379.101070711
  0
LINE
  5
571
100
AcDbEntity
  8
RUNDUNGEN
100
AcDbLine
 62
7
  6
CONTINUOUS
 10
152.8419331395
 20
379.101070711
 11
248.8419331395
 21
379.101070711
  0
LINE
  5
572
100
AcDbEntity
  8
RUNDUNGEN
100
AcDbLine
 62
7
  6
CONTINUOUS
 10
234.8419331395
 20
373.101070711
 11
234.8419331395
 21
375.3588623609
  0
LINE
  5
573
100
AcDbEntity
  8
RUNDUNGEN
100
AcDbLine
 62
7
  6
CONTINUOUS
 10
234.8419331395
 20
326.601183718
 11
234.8419428331
 21
370.2903816495
  0
LINE
  5
574
100
AcDbEntity
  8
RUNDUNGEN
100
AcDbLine
 62
7
  6
CONTINUOUS
 10
252.8419331395
 20
328.1010867913
 11
252.8419331395
 21
375.101070711
  0
LINE
  5
575
100
AcDbEntity
  8
RUNDUNGEN
100
AcDbLine
 62
7
  6
CONTINUOUS
 10
268.8419331395
 20
356.101070711
 11
268.8419331395
 21
339.1010707165
  0
LINE
  5
576
100
AcDbEntity
  8
RUNDUNGEN
100
AcDbLine
 62
7
  6
CONTINUOUS
 10
132.8419331395
 20
72.057795568
 11
132.8419331395
 21
89.05779556
  0
LINE
  5
577
100
AcDbEntity
  8
RUNDUNGEN
100
AcDbLine
 62
7
  6
CONTINUOUS
 10
148.8419331395
 20
53.057795568
 11
148.8419331395
 21
100.0577794878
  0
LINE
  5
578
100
AcDbEntity
  8
RUNDUNGEN
100
AcDbLine
 62
7
  6
CONTINUOUS
 10
166.8419331395
 20
101.5576825611
 11
166.8419331395
 21
82.8685495495
  0
LINE
  5
579
100
AcDbEntity
  8
0
100
AcDbLine
 62
7
  6
CONTINUOUS
 10
176.7794331395
 20
94.0161465232
 11
176.7794331395
 21
95.057793801
  0
LINE
  5
57A
100
AcDbEntity
  8
0
100
AcDbLine
 62
7
  6
CONTINUOUS
 10
176.9252664772
 20
93.9418160342
 11
176.9252664772
 21
94.9491160052
  0
LINE
  5
57B
100
AcDbEntity
  8
RUNDUNGEN
100
AcDbLine
 62
7
  6
CONTINUOUS
 10
248.8419331395
 20
49.057795568
 11
152.8419331395
 21
49.057795568
  0
LINE
  5
57C
100
AcDbEntity
  8
0
100
AcDbLine
 62
7
  6
CONTINUOUS
 10
177.2169331395
 20
93.8551248908
 11
177.2169331395
 21
94.867949112
  0
LINE
  5
57D
100
AcDbEntity
  8
0
100
AcDbLine
 62
7
  6
CONTINUOUS
 10
177.6544331395
 20
95.0187561688
 11
177.6544331395
 21
95.057793801
  0
LINE
  5
57E
100
AcDbEntity
  8
0
100
AcDbLine
 62
7
  6
CONTINUOUS
 10
177.8002664381
 20
93.7437760162
 11
177.8002664381
 21
94.7637823795
  0
LINE
  5
57F
100
AcDbEntity
  8
0
100
AcDbLine
 62
7
  6
CONTINUOUS
 10
178.383599841
 20
93.6786837482
 11
178.383599841
 21
94.7029344673
  0
LINE
  5
580
100
AcDbEntity
  8
0
100
AcDbLine
 62
7
  6
CONTINUOUS
 10
179.1127665424
 20
93.6437477138
 11
179.1127665424
 21
94.670290564
  0
LINE
  5
581
100
AcDbEntity
  8
0
100
AcDbLine
 62
7
  6
CONTINUOUS
 10
180.2794331395
 20
93.6437477138
 11
180.2794331395
 21
94.670290564
  0
LINE
  5
582
100
AcDbEntity
  8
0
100
AcDbLine
 62
7
  6
CONTINUOUS
 10
181.0085999453
 20
93.6786837482
 11
181.0085999453
 21
94.7029344673
  0
LINE
  5
583
100
AcDbEntity
  8
0
100
AcDbLine
 62
7
  6
CONTINUOUS
 10
181.5919331395
 20
93.7437760162
 11
181.5919331395
 21
94.7637823795
  0
LINE
  5
584
100
AcDbEntity
  8
0
100
AcDbLine
 62
7
  6
CONTINUOUS
 10
181.7377663338
 20
95.057793801
 11
181.7377663338
 21
95.0187561688
  0
LINE
  5
585
100
AcDbEntity
  8
0
100
AcDbLine
 62
7
  6
CONTINUOUS
 10
182.1752663338
 20
93.8551248908
 11
182.1752663338
 21
94.867949112
  0
LINE
  5
586
100
AcDbEntity
  8
0
100
AcDbLine
 62
7
  6
CONTINUOUS
 10
182.4669331395
 20
93.9418160342
 11
182.4669331395
 21
94.9491160052
  0
LINE
  5
587
100
AcDbEntity
  8
0
100
AcDbLine
 62
7
  6
CONTINUOUS
 10
182.6127663338
 20
94.0161465232
 11
182.6127663338
 21
95.057793801
  0
LINE
  5
588
100
AcDbEntity
  8
0
100
AcDbLine
 62
7
  6
CONTINUOUS
 10
183.7794331395
 20
93.6437477138
 11
183.7794331395
 21
95.057795568
  0
LINE
  5
589
100
AcDbEntity
  8
0
100
AcDbLine
 62
7
  6
CONTINUOUS
 10
184.6544331395
 20
93.6437477138
 11
184.6544331395
 21
95.0534625638
  0
LINE
  5
58A
100
AcDbEntity
  8
0
100
AcDbLine
 62
7
  6
CONTINUOUS
 10
187.2794331395
 20
94.0531736106
 11
187.2794331395
 21
95.0534625638
  0
LINE
  5
58B
100
AcDbEntity
  8
0
100
AcDbLine
 62
7
  6
CONTINUOUS
 10
188.008599528
 20
94.0561318275
 11
188.008599528
 21
95.0562358217
  0
LINE
  5
58C
100
AcDbEntity
  8
0
100
AcDbLine
 62
7
  6
CONTINUOUS
 10
188.5919331395
 20
94.0561318275
 11
188.5919331395
 21
95.0562358217
  0
LINE
  5
58D
100
AcDbEntity
  8
0
100
AcDbLine
 62
7
  6
CONTINUOUS
 10
189.0294331395
 20
94.057795568
 11
189.0294331395
 21
95.0368129089
  0
LINE
  5
58E
100
AcDbEntity
  8
0
100
AcDbLine
 62
7
  6
CONTINUOUS
 10
189.175266751
 20
94.057795568
 11
189.175266751
 21
95.0076341918
  0
LINE
  5
58F
100
AcDbEntity
  8
0
100
AcDbLine
 62
7
  6
CONTINUOUS
 10
190.3419331395
 20
94.057795568
 11
190.3419331395
 21
94.8187668547
  0
LINE
  5
590
100
AcDbEntity
  8
RUNDUNGEN
100
AcDbLine
 62
7
  6
CONTINUOUS
 10
152.8419331395
 20
66.057795568
 11
248.8419331395
 21
66.057795568
  0
LINE
  5
591
100
AcDbEntity
  8
0
100
AcDbLine
 62
7
  6
CONTINUOUS
 10
192.6752659166
 20
93.6437477138
 11
192.6752659166
 21
95.0577109692
  0
LINE
  5
592
100
AcDbEntity
  8
0
100
AcDbLine
 62
7
  6
CONTINUOUS
 10
193.5502659166
 20
93.6437477138
 11
193.5502659166
 21
95.0577109692
  0
LINE
  5
593
100
AcDbEntity
  8
0
100
AcDbLine
 62
7
  6
CONTINUOUS
 10
195.8836003625
 20
94.057795568
 11
195.8836003625
 21
94.8187668547
  0
LINE
  5
594
100
AcDbEntity
  8
RUNDUNGEN
100
AcDbLine
 62
7
  6
CONTINUOUS
 10
133.8419331395
 20
71.057795568
 11
147.8419331395
 21
71.057795568
  0
LINE
  5
595
100
AcDbEntity
  8
RUNDUNGEN
100
AcDbLine
 62
7
  6
CONTINUOUS
 10
253.8419331395
 20
71.057795568
 11
267.8419331395
 21
71.057795568
  0
LINE
  5
596
100
AcDbEntity
  8
0
100
AcDbLine
 62
7
  6
CONTINUOUS
 10
197.0502659166
 20
93.6437477138
 11
197.0502659166
 21
95.057795568
  0
LINE
  5
597
100
AcDbEntity
  8
0
100
AcDbLine
 62
7
  6
CONTINUOUS
 10
197.9252659166
 20
93.6437477138
 11
197.9252659166
 21
95.057795568
  0
LINE
  5
598
100
AcDbEntity
  8
0
100
AcDbLine
 62
7
  6
CONTINUOUS
 10
199.0919331395
 20
93.6437477138
 11
199.0919331395
 21
95.057795568
  0
LINE
  5
599
100
AcDbEntity
  8
0
100
AcDbLine
 62
7
  6
CONTINUOUS
 10
199.9669331395
 20
94.8440797336
 11
199.9669331395
 21
95.0577301088
  0
LINE
  5
59A
100
AcDbEntity
  8
0
100
AcDbLine
 62
7
  6
CONTINUOUS
 10
204.3419331395
 20
93.6437477138
 11
204.3419331395
 21
94.8440797336
  0
LINE
  5
59B
100
AcDbEntity
  8
0
100
AcDbLine
 62
7
  6
CONTINUOUS
 10
205.5085986936
 20
93.6437477138
 11
205.5085986936
 21
94.670290564
  0
LINE
  5
59C
100
AcDbEntity
  8
0
100
AcDbLine
 62
7
  6
CONTINUOUS
 10
206.3835986936
 20
93.6437477138
 11
206.3835986936
 21
94.670290564
  0
LINE
  5
59D
100
AcDbEntity
  8
0
100
AcDbLine
 62
7
  6
CONTINUOUS
 10
206.9669331395
 20
93.9596891645
 11
206.9669331395
 21
94.9658574475
  0
LINE
  5
59E
100
AcDbEntity
  8
0
100
AcDbLine
 62
7
  6
CONTINUOUS
 10
209.8835986936
 20
93.9596891645
 11
209.8835986936
 21
94.9658574475
  0
LINE
  5
59F
100
AcDbEntity
  8
0
100
AcDbLine
 62
7
  6
CONTINUOUS
 10
210.4669331395
 20
93.6437477138
 11
210.4669331395
 21
94.670290564
  0
LINE
  5
5A0
100
AcDbEntity
  8
0
100
AcDbLine
 62
7
  6
CONTINUOUS
 10
211.3419331395
 20
93.6437477138
 11
211.3419331395
 21
94.670290564
  0
LINE
  5
5A1
100
AcDbEntity
  8
0
100
AcDbLine
 62
7
  6
CONTINUOUS
 10
212.5085986936
 20
93.9760540564
 11
212.5085986936
 21
94.9811883072
  0
LINE
  5
5A2
100
AcDbEntity
  8
0
100
AcDbLine
 62
7
  6
CONTINUOUS
 10
212.6544331395
 20
93.9015228064
 11
212.6544331395
 21
94.9113831219
  0
LINE
  5
5A3
100
AcDbEntity
  8
0
100
AcDbLine
 62
7
  6
CONTINUOUS
 10
212.9460986936
 20
94.9811883072
 11
212.9460986936
 21
95.0076341918
  0
LINE
  5
5A4
100
AcDbEntity
  8
0
100
AcDbLine
 62
7
  6
CONTINUOUS
 10
213.0919331395
 20
93.7739533863
 11
213.0919331395
 21
94.7920035536
  0
LINE
  5
5A5
100
AcDbEntity
  8
0
100
AcDbLine
 62
7
  6
CONTINUOUS
 10
213.0919331395
 20
94.9811883072
 11
213.0919331395
 21
95.0437523725
  0
LINE
  5
5A6
100
AcDbEntity
  8
0
100
AcDbLine
 62
7
  6
CONTINUOUS
 10
213.6752675855
 20
94.9113822163
 11
213.6752675855
 21
95.0576222704
  0
LINE
  5
5A7
100
AcDbEntity
  8
0
100
AcDbLine
 62
7
  6
CONTINUOUS
 10
213.8210986936
 20
93.6786837482
 11
213.8210986936
 21
94.7029344673
  0
LINE
  5
5A8
100
AcDbEntity
  8
0
100
AcDbLine
 62
7
  6
CONTINUOUS
 10
214.2585986936
 20
94.8561944745
 11
214.2585986936
 21
95.0562358217
  0
LINE
  5
5A9
100
AcDbEntity
  8
0
100
AcDbLine
 62
7
  6
CONTINUOUS
 10
214.5502675855
 20
93.6437477138
 11
214.5502675855
 21
94.670290564
  0
LINE
  5
5AA
100
AcDbEntity
  8
0
100
AcDbLine
 62
7
  6
CONTINUOUS
 10
214.8419331395
 20
94.8440797336
 11
214.8419331395
 21
95.0534625638
  0
LINE
  5
5AB
100
AcDbEntity
  8
0
100
AcDbLine
 62
7
  6
CONTINUOUS
 10
215.7169331395
 20
93.6437477138
 11
215.7169331395
 21
94.670290564
  0
LINE
  5
5AC
100
AcDbEntity
  8
0
100
AcDbLine
 62
7
  6
CONTINUOUS
 10
215.7169331395
 20
94.8440797336
 11
215.7169331395
 21
95.0534625638
  0
LINE
  5
5AD
100
AcDbEntity
  8
0
100
AcDbLine
 62
7
  6
CONTINUOUS
 10
267.8419331395
 20
90.057795568
 11
253.8419331395
 21
90.057795568
  0
LINE
  5
5AE
100
AcDbEntity
  8
0
100
AcDbLine
 62
7
  6
CONTINUOUS
 10
147.8419331395
 20
90.057795568
 11
133.8419331395
 21
90.057795568
  0
LINE
  5
5AF
100
AcDbEntity
  8
0
100
AcDbLine
 62
7
  6
CONTINUOUS
 10
216.3002675855
 20
94.867949112
 11
216.3002675855
 21
95.0493017753
  0
LINE
  5
5B0
100
AcDbEntity
  8
0
100
AcDbLine
 62
7
  6
CONTINUOUS
 10
216.4460986936
 20
93.6786837482
 11
216.4460986936
 21
94.7029344673
  0
LINE
  5
5B1
100
AcDbEntity
  8
0
100
AcDbLine
 62
7
  6
CONTINUOUS
 10
216.7377675855
 20
94.9113831219
 11
216.7377675855
 21
95.0368129089
  0
LINE
  5
5B2
100
AcDbEntity
  8
0
100
AcDbLine
 62
7
  6
CONTINUOUS
 10
217.0294331395
 20
95.0076341753
 11
217.0294331395
 21
94.9658574475
  0
LINE
  5
5B3
100
AcDbEntity
  8
0
100
AcDbLine
 62
7
  6
CONTINUOUS
 10
217.0294331395
 20
93.7437760162
 11
217.0294331395
 21
94.7637823795
  0
LINE
  5
5B4
100
AcDbEntity
  8
0
100
AcDbLine
 62
7
  6
CONTINUOUS
 10
217.6127675855
 20
93.8551248908
 11
217.6127675855
 21
94.867949112
  0
LINE
  5
5B5
100
AcDbEntity
  8
0
100
AcDbLine
 62
7
  6
CONTINUOUS
 10
217.9044331395
 20
93.9418160342
 11
217.9044331395
 21
95.0187561688
  0
LINE
  5
5B6
100
AcDbEntity
  8
0
100
AcDbLine
 62
7
  6
CONTINUOUS
 10
219.0710986936
 20
93.6437477138
 11
219.0710986936
 21
95.057795568
  0
LINE
  5
5B7
100
AcDbEntity
  8
0
100
AcDbLine
 62
7
  6
CONTINUOUS
 10
219.9460986936
 20
93.6437477138
 11
219.9460986936
 21
95.0562358217
  0
LINE
  5
5B8
100
AcDbEntity
  8
0
100
AcDbLine
 62
7
  6
CONTINUOUS
 10
179.1127665424
 20
93.6437477138
 11
180.2794331395
 21
93.6437477138
  0
LINE
  5
5B9
100
AcDbEntity
  8
0
100
AcDbLine
 62
7
  6
CONTINUOUS
 10
183.7794331395
 20
93.6437477138
 11
184.6544331395
 21
93.6437477138
  0
LINE
  5
5BA
100
AcDbEntity
  8
0
100
AcDbLine
 62
7
  6
CONTINUOUS
 10
192.6752659166
 20
93.6437477138
 11
193.5502659166
 21
93.6437477138
  0
LINE
  5
5BB
100
AcDbEntity
  8
0
100
AcDbLine
 62
7
  6
CONTINUOUS
 10
197.0502659166
 20
93.6437477138
 11
197.9252659166
 21
93.6437477138
  0
LINE
  5
5BC
100
AcDbEntity
  8
0
100
AcDbLine
 62
7
  6
CONTINUOUS
 10
199.0919331395
 20
93.6437477138
 11
204.3419331395
 21
93.6437477138
  0
LINE
  5
5BD
100
AcDbEntity
  8
0
100
AcDbLine
 62
7
  6
CONTINUOUS
 10
205.5085986936
 20
93.6437477138
 11
206.3835986936
 21
93.6437477138
  0
LINE
  5
5BE
100
AcDbEntity
  8
0
100
AcDbLine
 62
7
  6
CONTINUOUS
 10
210.4669331395
 20
93.6437477138
 11
211.3419331395
 21
93.6437477138
  0
LINE
  5
5BF
100
AcDbEntity
  8
0
100
AcDbLine
 62
7
  6
CONTINUOUS
 10
214.5502675855
 20
93.6437477138
 11
215.7169331395
 21
93.6437477138
  0
LINE
  5
5C0
100
AcDbEntity
  8
0
100
AcDbLine
 62
7
  6
CONTINUOUS
 10
219.0710986936
 20
93.6437477138
 11
219.9460986936
 21
93.6437477138
  0
LINE
  5
5C1
100
AcDbEntity
  8
0
100
AcDbLine
 62
7
  6
CONTINUOUS
 10
224.0294331395
 20
93.6437477138
 11
224.9044331395
 21
93.6437477138
  0
LINE
  5
5C2
100
AcDbEntity
  8
0
100
AcDbLine
 62
7
  6
CONTINUOUS
 10
206.9669331395
 20
93.9596891645
 11
209.8835986936
 21
93.9596891645
  0
LINE
  5
5C3
100
AcDbEntity
  8
0
100
AcDbLine
 62
7
  6
CONTINUOUS
 10
184.6544331395
 20
94.0531736106
 11
187.2794331395
 21
94.0531736106
  0
LINE
  5
5C4
100
AcDbEntity
  8
0
100
AcDbLine
 62
7
  6
CONTINUOUS
 10
219.9460986936
 20
94.0561318275
 11
224.0294331395
 21
94.0561318275
  0
LINE
  5
5C5
100
AcDbEntity
  8
0
100
AcDbLine
 62
7
  6
CONTINUOUS
 10
169.3419331395
 20
94.057795568
 11
176.7794331395
 21
94.057795568
  0
LINE
  5
5C6
100
AcDbEntity
  8
0
100
AcDbLine
 62
7
  6
CONTINUOUS
 10
182.6127663338
 20
94.057795568
 11
183.7794331395
 21
94.057795568
  0
LINE
  5
5C7
100
AcDbEntity
  8
0
100
AcDbLine
 62
7
  6
CONTINUOUS
 10
188.3002663338
 20
94.057795568
 11
192.6752659166
 21
94.057795568
  0
LINE
  5
5C8
100
AcDbEntity
  8
0
100
AcDbLine
 62
7
  6
CONTINUOUS
 10
193.5502659166
 20
94.057795568
 11
197.0502659166
 21
94.057795568
  0
LINE
  5
5C9
100
AcDbEntity
  8
0
100
AcDbLine
 62
7
  6
CONTINUOUS
 10
197.9252659166
 20
94.057795568
 11
199.0919331395
 21
94.057795568
  0
LINE
  5
5CA
100
AcDbEntity
  8
0
100
AcDbLine
 62
7
  6
CONTINUOUS
 10
204.3419331395
 20
94.057795568
 11
205.5085986936
 21
94.057795568
  0
LINE
  5
5CB
100
AcDbEntity
  8
0
100
AcDbLine
 62
7
  6
CONTINUOUS
 10
211.3419331395
 20
94.057795568
 11
212.5085986936
 21
94.057795568
  0
LINE
  5
5CC
100
AcDbEntity
  8
0
100
AcDbLine
 62
7
  6
CONTINUOUS
 10
217.9044331395
 20
94.057795568
 11
219.0710986936
 21
94.057795568
  0
LINE
  5
5CD
100
AcDbEntity
  8
0
100
AcDbLine
 62
7
  6
CONTINUOUS
 10
224.9044331395
 20
94.057795568
 11
232.3419331395
 21
94.057795568
  0
LINE
  5
5CE
100
AcDbEntity
  8
0
100
AcDbLine
 62
7
  6
CONTINUOUS
 10
179.1127665424
 20
94.670290564
 11
180.2794331395
 21
94.670290564
  0
LINE
  5
5CF
100
AcDbEntity
  8
0
100
AcDbLine
 62
7
  6
CONTINUOUS
 10
183.7794331395
 20
94.670290564
 11
184.6544331395
 21
94.670290564
  0
LINE
  5
5D0
100
AcDbEntity
  8
0
100
AcDbLine
 62
7
  6
CONTINUOUS
 10
192.6752659166
 20
94.670290564
 11
193.5502659166
 21
94.670290564
  0
LINE
  5
5D1
100
AcDbEntity
  8
0
100
AcDbLine
 62
7
  6
CONTINUOUS
 10
197.0502659166
 20
94.670290564
 11
197.9252659166
 21
94.670290564
  0
LINE
  5
5D2
100
AcDbEntity
  8
0
100
AcDbLine
 62
7
  6
CONTINUOUS
 10
199.0919331395
 20
94.670290564
 11
204.3419331395
 21
94.670290564
  0
LINE
  5
5D3
100
AcDbEntity
  8
0
100
AcDbLine
 62
7
  6
CONTINUOUS
 10
205.5085986936
 20
94.670290564
 11
206.3835986936
 21
94.670290564
  0
LINE
  5
5D4
100
AcDbEntity
  8
0
100
AcDbLine
 62
7
  6
CONTINUOUS
 10
210.4669331395
 20
94.670290564
 11
211.3419331395
 21
94.670290564
  0
LINE
  5
5D5
100
AcDbEntity
  8
0
100
AcDbLine
 62
7
  6
CONTINUOUS
 10
214.5502675855
 20
94.670290564
 11
215.7169331395
 21
94.670290564
  0
LINE
  5
5D6
100
AcDbEntity
  8
0
100
AcDbLine
 62
7
  6
CONTINUOUS
 10
219.0710986936
 20
94.670290564
 11
219.9460986936
 21
94.670290564
  0
LINE
  5
5D7
100
AcDbEntity
  8
0
100
AcDbLine
 62
7
  6
CONTINUOUS
 10
224.0294331395
 20
94.670290564
 11
224.9044331395
 21
94.670290564
  0
LINE
  5
5D8
100
AcDbEntity
  8
0
100
AcDbLine
 62
7
  6
CONTINUOUS
 10
190.3419331395
 20
94.8187668547
 11
192.6752659166
 21
94.8187668547
  0
LINE
  5
5D9
100
AcDbEntity
  8
0
100
AcDbLine
 62
7
  6
CONTINUOUS
 10
193.5502659166
 20
94.8187668547
 11
195.8836003625
 21
94.8187668547
  0
LINE
  5
5DA
100
AcDbEntity
  8
0
100
AcDbLine
 62
7
  6
CONTINUOUS
 10
215.7169331395
 20
94.8440797336
 11
214.5502675855
 21
94.8440797336
  0
LINE
  5
5DB
100
AcDbEntity
  8
0
100
AcDbLine
 62
7
  6
CONTINUOUS
 10
204.3419331395
 20
94.8440797336
 11
199.9669331395
 21
94.8440797336
  0
LINE
  5
5DC
100
AcDbEntity
  8
0
100
AcDbLine
 62
7
  6
CONTINUOUS
 10
180.2794331395
 20
94.8440797336
 11
179.1127665424
 21
94.8440797336
  0
LINE
  5
5DD
100
AcDbEntity
  8
0
100
AcDbLine
 62
7
  6
CONTINUOUS
 10
206.9669331395
 20
94.9658574475
 11
209.8835986936
 21
94.9658574475
  0
LINE
  5
5DE
100
AcDbEntity
  8
0
100
AcDbLine
 62
7
  6
CONTINUOUS
 10
213.3835986936
 20
94.9811883072
 11
212.5085986936
 21
94.9811883072
  0
LINE
  5
5DF
100
AcDbEntity
  8
0
100
AcDbLine
 62
7
  6
CONTINUOUS
 10
209.7377675855
 20
95.0187561688
 11
207.1127675855
 21
95.0187561688
  0
LINE
  5
5E0
100
AcDbEntity
  8
0
100
AcDbLine
 62
7
  6
CONTINUOUS
 10
184.6544331395
 20
95.0534625638
 11
187.2794331395
 21
95.0534625638
  0
LINE
  5
5E1
100
AcDbEntity
  8
0
100
AcDbLine
 62
7
  6
CONTINUOUS
 10
214.8419331395
 20
95.0534625638
 11
215.7169331395
 21
95.0534625638
  0
LINE
  5
5E2
100
AcDbEntity
  8
0
100
AcDbLine
 62
7
  6
CONTINUOUS
 10
176.7794331395
 20
95.057795568
 11
177.6544331395
 21
95.057795568
  0
LINE
  5
5E3
100
AcDbEntity
  8
0
100
AcDbLine
 62
7
  6
CONTINUOUS
 10
181.7377663338
 20
95.057795568
 11
182.6127663338
 21
95.057795568
  0
LINE
  5
5E4
100
AcDbEntity
  8
0
100
AcDbLine
 62
7
  6
CONTINUOUS
 10
183.7794331395
 20
95.057795568
 11
184.6544331395
 21
95.057795568
  0
LINE
  5
5E5
100
AcDbEntity
  8
0
100
AcDbLine
 62
7
  6
CONTINUOUS
 10
192.6752659166
 20
95.057795568
 11
193.5502659166
 21
95.057795568
  0
LINE
  5
5E6
100
AcDbEntity
  8
0
100
AcDbLine
 62
7
  6
CONTINUOUS
 10
197.0502659166
 20
95.057795568
 11
197.9252659166
 21
95.057795568
  0
LINE
  5
5E7
100
AcDbEntity
  8
0
100
AcDbLine
 62
7
  6
CONTINUOUS
 10
199.0919331395
 20
95.057795568
 11
199.9669331395
 21
95.057795568
  0
LINE
  5
5E8
100
AcDbEntity
  8
0
100
AcDbLine
 62
7
  6
CONTINUOUS
 10
206.6752659166
 20
95.057795568
 11
207.4773992383
 21
95.057795568
  0
LINE
  5
5E9
100
AcDbEntity
  8
0
100
AcDbLine
 62
7
  6
CONTINUOUS
 10
209.3731359327
 20
95.057795568
 11
210.1752659166
 21
95.057795568
  0
LINE
  5
5EA
100
AcDbEntity
  8
0
100
AcDbLine
 62
7
  6
CONTINUOUS
 10
216.3002675855
 20
95.057795568
 11
217.1023496524
 21
95.057795568
  0
LINE
  5
5EB
100
AcDbEntity
  8
0
100
AcDbLine
 62
7
  6
CONTINUOUS
 10
219.0710986936
 20
95.057795568
 11
224.9044331395
 21
95.057795568
  0
LINE
  5
5EC
100
AcDbEntity
  8
0
100
AcDbLine
 62
7
  6
CONTINUOUS
 10
224.0294331395
 20
93.6437477138
 11
224.0294331395
 21
95.0562358217
  0
LINE
  5
5ED
100
AcDbEntity
  8
0
100
AcDbLine
 62
7
  6
CONTINUOUS
 10
224.9044331395
 20
93.6437477138
 11
224.9044331395
 21
95.057795568
  0
LINE
  5
5EE
100
AcDbEntity
  8
0
100
AcDbLine
 62
7
  6
CONTINUOUS
 10
152.8419331395
 20
104.057795568
 11
164.3419331395
 21
104.057795568
  0
LINE
  5
5EF
100
AcDbEntity
  8
0
100
AcDbLine
 62
7
  6
CONTINUOUS
 10
237.3419331395
 20
104.057795568
 11
248.8419331395
 21
104.057795568
  0
LINE
  5
5F0
100
AcDbEntity
  8
RUNDUNGEN
100
AcDbLine
 62
7
  6
CONTINUOUS
 10
234.8419331395
 20
82.8685495495
 11
234.8419331395
 21
101.5576825611
  0
LINE
  5
5F1
100
AcDbEntity
  8
RUNDUNGEN
100
AcDbLine
 62
7
  6
CONTINUOUS
 10
252.8419331395
 20
53.057795568
 11
252.8419331395
 21
100.0577794878
  0
LINE
  5
5F2
100
AcDbEntity
  8
RUNDUNGEN
100
AcDbLine
 62
7
  6
CONTINUOUS
 10
268.8419331395
 20
89.0577955626
 11
268.8419331395
 21
72.057795568
  0
LINE
  5
5F3
100
AcDbEntity
  8
RUNDUNGEN
100
AcDbLine
 62
7
  6
CONTINUOUS
 10
51.904243334
 20
160.0458742239
 11
49.2465486581
 21
165.745318849
  0
LINE
  5
5F4
100
AcDbEntity
  8
RUNDUNGEN
100
AcDbLine
 62
7
  6
CONTINUOUS
 10
44.5619380099
 20
186.876231936
 11
44.5619380099
 21
282.1113307674
  0
LINE
  5
5F5
100
AcDbEntity
  8
RUNDUNGEN
100
AcDbLine
 62
7
  6
CONTINUOUS
 10
61.5619380099
 20
282.1113307674
 11
61.5619380099
 21
215.5879976785
  0
LINE
  5
5F6
100
AcDbEntity
  8
RUNDUNGEN
100
AcDbLine
 62
7
  6
CONTINUOUS
 10
70.4608143401
 20
201.8466290816
 11
87.0619380099
 21
192.261965862
  0
LINE
  5
5F7
100
AcDbEntity
  8
RUNDUNGEN
100
AcDbLine
 62
7
  6
CONTINUOUS
 10
63.628404607
 20
209.5003833884
 11
67.5272809372
 21
204.4192688294
  0
LINE
  5
5F8
100
AcDbEntity
  8
RUNDUNGEN
100
AcDbLine
 62
7
  6
CONTINUOUS
 10
66.5619380099
 20
177.7527591959
 11
66.5619380099
 21
163.4699023388
  0
LINE
  5
5F9
100
AcDbEntity
  8
0
100
AcDbLine
 62
7
  6
CONTINUOUS
 10
57.5619380099
 20
286.1113307674
 11
48.5619380099
 21
286.1113307674
  0
ARC
  5
5FA
100
AcDbEntity
  8
RUNDUNGEN
100
AcDbCircle
 62
7
  6
CONTINUOUS
 10
200.8419331395
 20
233.9446641007
 40
52.1666666667
100
AcDbArc
 50
5.0958955962
 51
174.9041044038
  0
ARC
  5
5FB
100
AcDbEntity
  8
RUNDUNGEN
100
AcDbCircle
 62
7
  6
CONTINUOUS
 10
200.8419331395
 20
238.1113307674
 40
30.0
100
AcDbArc
 50
345.5224878141
 51
194.4775121859
  0
ARC
  5
5FC
100
AcDbEntity
  8
RUNDUNGEN
100
AcDbCircle
 62
7
  6
CONTINUOUS
 10
200.8419331395
 20
228.1113307674
 40
27.5
100
AcDbArc
 50
194.4775121859
 51
345.5224878141
  0
ARC
  5
5FD
100
AcDbEntity
  8
RUNDUNGEN
100
AcDbCircle
 62
7
  6
CONTINUOUS
 10
242.8419331395
 20
237.6900316098
 40
10.0
100
AcDbArc
 50
0.0
 51
5.0958955962
  0
ARC
  5
5FE
100
AcDbEntity
  8
RUNDUNGEN
100
AcDbCircle
 62
7
  6
CONTINUOUS
 10
158.8419331395
 20
237.6900316098
 40
10.0
100
AcDbArc
 50
174.9041044038
 51
180.0
  0
ARC
  5
5FF
100
AcDbEntity
  8
RUNDUNGEN
100
AcDbCircle
 62
7
  6
CONTINUOUS
 10
248.8419331395
 20
149.6113307674
 40
4.0
100
AcDbArc
 50
270.0
 51
360.0
  0
ARC
  5
600
100
AcDbEntity
  8
RUNDUNGEN
100
AcDbCircle
 62
7
  6
CONTINUOUS
 10
152.8419331395
 20
149.6113307674
 40
4.0
100
AcDbArc
 50
180.0
 51
270.0
  0
ARC
  5
601
100
AcDbEntity
  8
RUNDUNGEN
100
AcDbCircle
 62
7
  6
CONTINUOUS
 10
164.3419331395
 20
148.1113307674
 40
2.5
100
AcDbArc
 50
270.0
 51
360.0
  0
ARC
  5
602
100
AcDbEntity
  8
RUNDUNGEN
100
AcDbCircle
 62
7
  6
CONTINUOUS
 10
169.3419331395
 20
153.1113307674
 40
2.5
100
AcDbArc
 50
90.0
 51
180.0
  0
ARC
  5
603
100
AcDbEntity
  8
RUNDUNGEN
100
AcDbCircle
 62
7
  6
CONTINUOUS
 10
237.3419331395
 20
148.1113307674
 40
2.5
100
AcDbArc
 50
180.0
 51
270.0
  0
ARC
  5
604
100
AcDbEntity
  8
RUNDUNGEN
100
AcDbCircle
 62
7
  6
CONTINUOUS
 10
232.3419331395
 20
153.1113307674
 40
2.5
100
AcDbArc
 50
0.0
 51
90.0
  0
ARC
  5
605
100
AcDbEntity
  8
RUNDUNGEN
100
AcDbCircle
 62
7
  6
CONTINUOUS
 10
232.8419331395
 20
162.6113307674
 40
2.0
100
AcDbArc
 50
6.4285684448
 51
90.0
  0
ARC
  5
606
100
AcDbEntity
  8
RUNDUNGEN
100
AcDbCircle
 62
7
  6
CONTINUOUS
 10
202.8419331395
 20
166.6113307674
 40
2.0
100
AcDbArc
 50
180.0002234839
 51
269.996333677
  0
ARC
  5
607
100
AcDbEntity
  8
RUNDUNGEN
100
AcDbCircle
 62
7
  6
CONTINUOUS
 10
253.8419331395
 20
158.6113307674
 40
1.0
100
AcDbArc
 50
90.0
 51
180.0
  0
ARC
  5
608
100
AcDbEntity
  8
RUNDUNGEN
100
AcDbCircle
 62
7
  6
CONTINUOUS
 10
253.8419331395
 20
182.6113307674
 40
1.0
100
AcDbArc
 50
180.0
 51
270.0
  0
ARC
  5
609
100
AcDbEntity
  8
RUNDUNGEN
100
AcDbCircle
 62
7
  6
CONTINUOUS
 10
147.8419331395
 20
158.6113307674
 40
1.0
100
AcDbArc
 50
0.0
 51
90.0
  0
ARC
  5
60A
100
AcDbEntity
  8
RUNDUNGEN
100
AcDbCircle
 62
7
  6
CONTINUOUS
 10
147.8419331395
 20
182.6113307674
 40
1.0
100
AcDbArc
 50
270.0
 51
360.0
  0
ARC
  5
60B
100
AcDbEntity
  8
RUNDUNGEN
100
AcDbCircle
 62
7
  6
CONTINUOUS
 10
267.8419331395
 20
160.6113307674
 40
1.0
100
AcDbArc
 50
270.0
 51
360.0
  0
ARC
  5
60C
100
AcDbEntity
  8
RUNDUNGEN
100
AcDbCircle
 62
7
  6
CONTINUOUS
 10
267.8419331395
 20
180.6113307674
 40
1.0
100
AcDbArc
 50
0.0
 51
90.0
  0
ARC
  5
60D
100
AcDbEntity
  8
RUNDUNGEN
100
AcDbCircle
 62
7
  6
CONTINUOUS
 10
133.8419331395
 20
160.6113307674
 40
1.0
100
AcDbArc
 50
180.0
 51
270.0
  0
ARC
  5
60E
100
AcDbEntity
  8
RUNDUNGEN
100
AcDbCircle
 62
7
  6
CONTINUOUS
 10
133.8419331395
 20
180.6113307674
 40
1.0
100
AcDbArc
 50
90.0
 51
180.0
  0
ARC
  5
60F
100
AcDbEntity
  8
RUNDUNGEN
100
AcDbCircle
 62
7
  6
CONTINUOUS
 10
310.0358090831
 20
186.876231936
 40
50.0
100
AcDbArc
 50
335.0
 51
360.0
  0
ARC
  5
610
100
AcDbEntity
  8
RUNDUNGEN
100
AcDbCircle
 62
7
  6
CONTINUOUS
 10
330.0358090831
 20
170.6113307674
 40
25.0
100
AcDbArc
 50
120.0
 51
335.0
  0
ARC
  5
611
100
AcDbEntity
  8
RUNDUNGEN
100
AcDbCircle
 62
7
  6
CONTINUOUS
 10
330.0358090831
 20
170.6113307674
 40
11.0
100
AcDbArc
 50
45.5729959992
 51
314.4270040008
  0
ARC
  5
612
100
AcDbEntity
  8
RUNDUNGEN
100
AcDbCircle
 62
7
  6
CONTINUOUS
 10
329.1369327529
 20
210.5068831195
 40
10.0
100
AcDbArc
 50
300.0
 51
322.5
  0
ARC
  5
613
100
AcDbEntity
  8
RUNDUNGEN
100
AcDbCircle
 62
7
  6
CONTINUOUS
 10
333.0358090831
 20
215.5879976785
 40
10.0
100
AcDbArc
 50
322.5
 51
360.0
  0
ARC
  5
614
100
AcDbEntity
  8
RUNDUNGEN
100
AcDbCircle
 62
7
  6
CONTINUOUS
 10
337.0358090831
 20
177.7527591959
 40
1.0
100
AcDbArc
 50
0.0
 51
45.5729959992
  0
ARC
  5
615
100
AcDbEntity
  8
RUNDUNGEN
100
AcDbCircle
 62
7
  6
CONTINUOUS
 10
337.0358090831
 20
163.4699023388
 40
1.0
100
AcDbArc
 50
314.4270040008
 51
360.0
  0
ARC
  5
616
100
AcDbEntity
  8
RUNDUNGEN
100
AcDbCircle
 62
7
  6
CONTINUOUS
 10
347.0358090831
 20
282.1113307674
 40
4.0
100
AcDbArc
 50
90.0
 51
180.0
  0
ARC
  5
617
100
AcDbEntity
  8
RUNDUNGEN
100
AcDbCircle
 62
7
  6
CONTINUOUS
 10
356.0358090831
 20
282.1113307674
 40
4.0
100
AcDbArc
 50
0.0
 51
90.0
  0
ARC
  5
618
100
AcDbEntity
  8
RUNDUNGEN
100
AcDbCircle
 62
7
  6
CONTINUOUS
 10
426.1639534884
 20
149.6113307674
 40
4.0
100
AcDbArc
 50
180.0
 51
270.0
  0
ARC
  5
619
100
AcDbEntity
  8
RUNDUNGEN
100
AcDbCircle
 62
7
  6
CONTINUOUS
 10
437.6639534884
 20
148.1113307674
 40
2.5
100
AcDbArc
 50
270.0
 51
360.0
  0
ARC
  5
61A
100
AcDbEntity
  8
RUNDUNGEN
100
AcDbCircle
 62
7
  6
CONTINUOUS
 10
442.6639534884
 20
153.1113307674
 40
2.5
100
AcDbArc
 50
90.0
 51
180.0
  0
ARC
  5
61B
100
AcDbEntity
  8
RUNDUNGEN
100
AcDbCircle
 62
7
  6
CONTINUOUS
 10
421.1639534884
 20
182.6113307674
 40
1.0
100
AcDbArc
 50
270.0
 51
360.0
  0
ARC
  5
61C
100
AcDbEntity
  8
RUNDUNGEN
100
AcDbCircle
 62
7
  6
CONTINUOUS
 10
421.1639534884
 20
158.6113307674
 40
1.0
100
AcDbArc
 50
0.0
 51
90.0
  0
ARC
  5
61D
100
AcDbEntity
  8
RUNDUNGEN
100
AcDbCircle
 62
7
  6
CONTINUOUS
 10
407.1639534884
 20
180.6113307674
 40
1.0
100
AcDbArc
 50
90.0
 51
180.0
  0
ARC
  5
61E
100
AcDbEntity
  8
RUNDUNGEN
100
AcDbCircle
 62
7
  6
CONTINUOUS
 10
407.1639534884
 20
160.6113307674
 40
1.0
100
AcDbArc
 50
180.0
 51
270.0
  0
ARC
  5
61F
100
AcDbEntity
  8
RUNDUNGEN
100
AcDbCircle
 62
7
  6
CONTINUOUS
 10
432.1639534884
 20
237.6900316098
 40
10.0
100
AcDbArc
 50
174.9041044038
 51
180.0
  0
ARC
  5
620
100
AcDbEntity
  8
RUNDUNGEN
100
AcDbCircle
 62
7
  6
CONTINUOUS
 10
522.1639534884
 20
149.6113307674
 40
4.0
100
AcDbArc
 50
270.0
 51
360.0
  0
ARC
  5
621
100
AcDbEntity
  8
RUNDUNGEN
100
AcDbCircle
 62
7
  6
CONTINUOUS
 10
510.6639534884
 20
148.1113307674
 40
2.5
100
AcDbArc
 50
180.0
 51
270.0
  0
ARC
  5
622
100
AcDbEntity
  8
RUNDUNGEN
100
AcDbCircle
 62
7
  6
CONTINUOUS
 10
505.6639534884
 20
153.1113307674
 40
2.5
100
AcDbArc
 50
0.0
 51
90.0
  0
ARC
  5
623
100
AcDbEntity
  8
RUNDUNGEN
100
AcDbCircle
 62
7
  6
CONTINUOUS
 10
527.1639534884
 20
182.6113307674
 40
1.0
100
AcDbArc
 50
180.0
 51
270.0
  0
ARC
  5
624
100
AcDbEntity
  8
RUNDUNGEN
100
AcDbCircle
 62
7
  6
CONTINUOUS
 10
527.1639534884
 20
158.6113307674
 40
1.0
100
AcDbArc
 50
90.0
 51
180.0
  0
ARC
  5
625
100
AcDbEntity
  8
RUNDUNGEN
100
AcDbCircle
 62
7
  6
CONTINUOUS
 10
541.1639534884
 20
180.6113307674
 40
1.0
100
AcDbArc
 50
0.0
 51
90.0
  0
ARC
  5
626
100
AcDbEntity
  8
RUNDUNGEN
100
AcDbCircle
 62
7
  6
CONTINUOUS
 10
541.1639534884
 20
160.6113307674
 40
1.0
100
AcDbArc
 50
270.0
 51
360.0
  0
ARC
  5
627
100
AcDbEntity
  8
RUNDUNGEN
100
AcDbCircle
 62
7
  6
CONTINUOUS
 10
474.1639534884
 20
233.9446641007
 40
52.1666666667
100
AcDbArc
 50
5.0958955962
 51
174.9041044038
  0
ARC
  5
628
100
AcDbEntity
  8
RUNDUNGEN
100
AcDbCircle
 62
7
  6
CONTINUOUS
 10
474.1639534884
 20
238.1113307674
 40
30.0
100
AcDbArc
 50
345.5224878141
 51
194.4775121859
  0
ARC
  5
629
100
AcDbEntity
  8
RUNDUNGEN
100
AcDbCircle
 62
7
  6
CONTINUOUS
 10
474.1639534884
 20
228.1113307674
 40
27.5
100
AcDbArc
 50
194.4775121859
 51
345.5224878141
  0
ARC
  5
62A
100
AcDbEntity
  8
RUNDUNGEN
100
AcDbCircle
 62
7
  6
CONTINUOUS
 10
516.1639534884
 20
237.6900316098
 40
10.0
100
AcDbArc
 50
0.0
 51
5.0958955962
  0
ARC
  5
62B
100
AcDbEntity
  8
RUNDUNGEN
100
AcDbCircle
 62
7
  6
CONTINUOUS
 10
152.8419331395
 20
328.101070711
 40
4.0
100
AcDbArc
 50
180.0
 51
270.0
  0
ARC
  5
62C
100
AcDbEntity
  8
RUNDUNGEN
100
AcDbCircle
 62
7
  6
CONTINUOUS
 10
164.3419331395
 20
326.601070711
 40
2.5
100
AcDbArc
 50
270.0
 51
360.0
  0
ARC
  5
62D
100
AcDbEntity
  8
RUNDUNGEN
100
AcDbCircle
 62
7
  6
CONTINUOUS
 10
169.3419331395
 20
331.601070711
 40
2.5
100
AcDbArc
 50
90.0
 51
180.0
  0
ARC
  5
62E
100
AcDbEntity
  8
RUNDUNGEN
100
AcDbCircle
 62
7
  6
CONTINUOUS
 10
147.8419331395
 20
337.101070711
 40
1.0
100
AcDbArc
 50
0.0
 51
90.0
  0
ARC
  5
62F
100
AcDbEntity
  8
RUNDUNGEN
100
AcDbCircle
 62
7
  6
CONTINUOUS
 10
133.8419331395
 20
339.101070711
 40
1.0
100
AcDbArc
 50
180.0
 51
270.0
  0
ARC
  5
630
100
AcDbEntity
  8
RUNDUNGEN
100
AcDbCircle
 62
7
  6
CONTINUOUS
 10
152.8419331395
 20
375.101070711
 40
4.0
100
AcDbArc
 50
90.0
 51
180.0
  0
ARC
  5
631
100
AcDbEntity
  8
RUNDUNGEN
100
AcDbCircle
 62
7
  6
CONTINUOUS
 10
147.8419331395
 20
358.101070711
 40
1.0
100
AcDbArc
 50
270.0
 51
360.0
  0
ARC
  5
632
100
AcDbEntity
  8
RUNDUNGEN
100
AcDbCircle
 62
7
  6
CONTINUOUS
 10
133.8419331395
 20
356.101070711
 40
1.0
100
AcDbArc
 50
90.0
 51
180.0
  0
ARC
  5
633
100
AcDbEntity
  8
RUNDUNGEN
100
AcDbCircle
 62
7
  6
CONTINUOUS
 10
169.8419331395
 20
378.101070711
 40
1.0
100
AcDbArc
 50
0.0
 51
90.0
  0
ARC
  5
634
100
AcDbEntity
  8
RUNDUNGEN
100
AcDbCircle
 62
7
  6
CONTINUOUS
 10
171.8419331395
 20
377.101070711
 40
1.0
100
AcDbArc
 50
180.0
 51
270.0078133132
  0
ARC
  5
635
100
AcDbEntity
  8
RUNDUNGEN
100
AcDbCircle
 62
7
  6
CONTINUOUS
 10
248.8419331395
 20
328.101070711
 40
4.0
100
AcDbArc
 50
270.0
 51
360.0
  0
ARC
  5
636
100
AcDbEntity
  8
RUNDUNGEN
100
AcDbCircle
 62
7
  6
CONTINUOUS
 10
237.3419331395
 20
326.601070711
 40
2.5
100
AcDbArc
 50
180.0
 51
270.0
  0
ARC
  5
637
100
AcDbEntity
  8
RUNDUNGEN
100
AcDbCircle
 62
7
  6
CONTINUOUS
 10
232.3419331395
 20
331.601070711
 40
2.5
100
AcDbArc
 50
0.0
 51
90.0
  0
ARC
  5
638
100
AcDbEntity
  8
RUNDUNGEN
100
AcDbCircle
 62
7
  6
CONTINUOUS
 10
253.8419331395
 20
337.101070711
 40
1.0
100
AcDbArc
 50
90.0
 51
180.0
  0
ARC
  5
639
100
AcDbEntity
  8
RUNDUNGEN
100
AcDbCircle
 62
7
  6
CONTINUOUS
 10
267.8419331395
 20
339.101070711
 40
1.0
100
AcDbArc
 50
270.0
 51
360.0
  0
ARC
  5
63A
100
AcDbEntity
  8
RUNDUNGEN
100
AcDbCircle
 62
7
  6
CONTINUOUS
 10
248.8419331395
 20
375.101070711
 40
4.0
100
AcDbArc
 50
0.0
 51
90.0
  0
ARC
  5
63B
100
AcDbEntity
  8
RUNDUNGEN
100
AcDbCircle
 62
7
  6
CONTINUOUS
 10
232.8419331395
 20
373.101070711
 40
2.0
100
AcDbArc
 50
272.8556721747
 51
360.0
  0
ARC
  5
63C
100
AcDbEntity
  8
RUNDUNGEN
100
AcDbCircle
 62
7
  6
CONTINUOUS
 10
202.8419331395
 20
369.101070711
 40
2.0
100
AcDbArc
 50
90.0
 51
179.9988242641
  0
ARC
  5
63D
100
AcDbEntity
  8
RUNDUNGEN
100
AcDbCircle
 62
7
  6
CONTINUOUS
 10
253.8419331395
 20
358.101070711
 40
1.0
100
AcDbArc
 50
180.0
 51
270.0
  0
ARC
  5
63E
100
AcDbEntity
  8
RUNDUNGEN
100
AcDbCircle
 62
7
  6
CONTINUOUS
 10
267.8419331395
 20
356.101070711
 40
1.0
100
AcDbArc
 50
0.0
 51
90.0
  0
ARC
  5
63F
100
AcDbEntity
  8
RUNDUNGEN
100
AcDbCircle
 62
7
  6
CONTINUOUS
 10
225.8419331395
 20
378.101070711
 40
1.0
100
AcDbArc
 50
90.0
 51
180.0
  0
ARC
  5
640
100
AcDbEntity
  8
RUNDUNGEN
100
AcDbCircle
 62
7
  6
CONTINUOUS
 10
223.8419331395
 20
377.101070711
 40
1.0
100
AcDbArc
 50
269.9918463356
 51
360.0
  0
ARC
  5
641
100
AcDbEntity
  8
RUNDUNGEN
100
AcDbCircle
 62
7
  6
CONTINUOUS
 10
248.8419331395
 20
53.057795568
 40
4.0
100
AcDbArc
 50
270.0
 51
360.0
  0
ARC
  5
642
100
AcDbEntity
  8
RUNDUNGEN
100
AcDbCircle
 62
7
  6
CONTINUOUS
 10
248.8419331395
 20
100.057795568
 40
4.0
100
AcDbArc
 50
0.0
 51
90.0
  0
ARC
  5
643
100
AcDbEntity
  8
RUNDUNGEN
100
AcDbCircle
 62
7
  6
CONTINUOUS
 10
248.8419331395
 20
62.057795568
 40
4.0
100
AcDbArc
 50
0.0
 51
90.0
  0
ARC
  5
644
100
AcDbEntity
  8
RUNDUNGEN
100
AcDbCircle
 62
7
  6
CONTINUOUS
 10
152.8419331395
 20
100.057795568
 40
4.0
100
AcDbArc
 50
90.0
 51
180.0
  0
ARC
  5
645
100
AcDbEntity
  8
RUNDUNGEN
100
AcDbCircle
 62
7
  6
CONTINUOUS
 10
152.8419331395
 20
53.057795568
 40
4.0
100
AcDbArc
 50
180.0
 51
270.0
  0
ARC
  5
646
100
AcDbEntity
  8
RUNDUNGEN
100
AcDbCircle
 62
7
  6
CONTINUOUS
 10
152.8419331395
 20
62.057795568
 40
4.0
100
AcDbArc
 50
90.0
 51
180.0
  0
ARC
  5
647
100
AcDbEntity
  8
RUNDUNGEN
100
AcDbCircle
 62
7
  6
CONTINUOUS
 10
164.3419331395
 20
101.557795568
 40
2.5
100
AcDbArc
 50
0.0
 51
90.0
  0
ARC
  5
648
100
AcDbEntity
  8
RUNDUNGEN
100
AcDbCircle
 62
7
  6
CONTINUOUS
 10
169.3419331395
 20
96.557795568
 40
2.5
100
AcDbArc
 50
180.0
 51
270.0
  0
ARC
  5
649
100
AcDbEntity
  8
RUNDUNGEN
100
AcDbCircle
 62
7
  6
CONTINUOUS
 10
237.3419331395
 20
101.557795568
 40
2.5
100
AcDbArc
 50
90.0
 51
180.0
  0
ARC
  5
64A
100
AcDbEntity
  8
RUNDUNGEN
100
AcDbCircle
 62
7
  6
CONTINUOUS
 10
232.3419331395
 20
96.557795568
 40
2.5
100
AcDbArc
 50
270.0
 51
360.0
  0
ARC
  5
64B
100
AcDbEntity
  8
RUNDUNGEN
100
AcDbCircle
 62
7
  6
CONTINUOUS
 10
253.8419331395
 20
91.057795568
 40
1.0
100
AcDbArc
 50
180.0
 51
270.0
  0
ARC
  5
64C
100
AcDbEntity
  8
RUNDUNGEN
100
AcDbCircle
 62
7
  6
CONTINUOUS
 10
147.8419331395
 20
91.057795568
 40
1.0
100
AcDbArc
 50
270.0
 51
360.0
  0
ARC
  5
64D
100
AcDbEntity
  8
RUNDUNGEN
100
AcDbCircle
 62
7
  6
CONTINUOUS
 10
267.8419331395
 20
89.057795568
 40
1.0
100
AcDbArc
 50
0.0
 51
90.0
  0
ARC
  5
64E
100
AcDbEntity
  8
RUNDUNGEN
100
AcDbCircle
 62
7
  6
CONTINUOUS
 10
133.8419331395
 20
89.057795568
 40
1.0
100
AcDbArc
 50
90.0
 51
180.0
  0
ARC
  5
64F
100
AcDbEntity
  8
RUNDUNGEN
100
AcDbCircle
 62
7
  6
CONTINUOUS
 10
253.8419331395
 20
70.057795568
 40
1.0
100
AcDbArc
 50
90.0
 51
180.0
  0
ARC
  5
650
100
AcDbEntity
  8
RUNDUNGEN
100
AcDbCircle
 62
7
  6
CONTINUOUS
 10
147.8419331395
 20
70.057795568
 40
1.0
100
AcDbArc
 50
0.0
 51
90.0
  0
ARC
  5
651
100
AcDbEntity
  8
RUNDUNGEN
100
AcDbCircle
 62
7
  6
CONTINUOUS
 10
267.8419331395
 20
72.057795568
 40
1.0
100
AcDbArc
 50
270.0
 51
360.0
  0
ARC
  5
652
100
AcDbEntity
  8
RUNDUNGEN
100
AcDbCircle
 62
7
  6
CONTINUOUS
 10
133.8419331395
 20
72.057795568
 40
1.0
100
AcDbArc
 50
180.0
 51
270.0
  0
ARC
  5
653
100
AcDbEntity
  8
RUNDUNGEN
100
AcDbCircle
 62
7
  6
CONTINUOUS
 10
67.5619380099
 20
163.4699023388
 40
1.0
100
AcDbArc
 50
180.0
 51
225.5729959992
  0
ARC
  5
654
100
AcDbEntity
  8
RUNDUNGEN
100
AcDbCircle
 62
7
  6
CONTINUOUS
 10
67.5619380099
 20
177.7527591959
 40
1.0
100
AcDbArc
 50
134.4270040008
 51
180.0
  0
ARC
  5
655
100
AcDbEntity
  8
RUNDUNGEN
100
AcDbCircle
 62
7
  6
CONTINUOUS
 10
57.5619380099
 20
282.1113307674
 40
4.0
100
AcDbArc
 50
0.0
 51
90.0
  0
ARC
  5
656
100
AcDbEntity
  8
RUNDUNGEN
100
AcDbCircle
 62
7
  6
CONTINUOUS
 10
48.5619380099
 20
282.1113307674
 40
4.0
100
AcDbArc
 50
90.0
 51
180.0
  0
ARC
  5
657
100
AcDbEntity
  8
RUNDUNGEN
100
AcDbCircle
 62
7
  6
CONTINUOUS
 10
74.5619380099
 20
170.6113307674
 40
25.0
100
AcDbArc
 50
205.0
 51
60.0000000001
  0
ARC
  5
658
100
AcDbEntity
  8
RUNDUNGEN
100
AcDbCircle
 62
7
  6
CONTINUOUS
 10
74.5619380099
 20
170.6113307674
 40
11.0
100
AcDbArc
 50
225.5729959992
 51
134.4270040008
  0
ARC
  5
659
100
AcDbEntity
  8
RUNDUNGEN
100
AcDbCircle
 62
7
  6
CONTINUOUS
 10
71.5619380099
 20
215.5879976785
 40
10.0
100
AcDbArc
 50
180.0
 51
217.5
  0
ARC
  5
65A
100
AcDbEntity
  8
RUNDUNGEN
100
AcDbCircle
 62
7
  6
CONTINUOUS
 10
75.4608143401
 20
210.5068831195
 40
10.0
100
AcDbArc
 50
217.5
 51
240.0
  0
ARC
  5
65B
100
AcDbEntity
  8
RUNDUNGEN
100
AcDbCircle
 62
7
  6
CONTINUOUS
 10
94.5619380099
 20
186.876231936
 40
50.0
100
AcDbArc
 50
180.0
 51
205.0
  0
ELLIPSE
  5
65C
100
AcDbEntity
  8
0
100
AcDbEllipse
 62
7
  6
CONTINUOUS
 10
207.4773509302
 20
349.101070711
 30
0.0
 11
-0.0
 21
16.0
 31
0.0
 40
0.326388877
 41
-3.1415754267
 42
-2.9590648505
  0
ELLIPSE
  5
65D
100
AcDbEntity
  8
0
100
AcDbEllipse
 62
7
  6
CONTINUOUS
 10
188.3002663338
 20
349.101070711
 30
0.0
 11
20.8889013396
 21
0.0
 31
0.0
 40
0.7659569903
 41
4.7123889804
 42
4.7263521984
  0
ELLIPSE
  5
65E
100
AcDbEntity
  8
0
100
AcDbEllipse
 62
7
  6
CONTINUOUS
 10
213.2559968912
 20
349.101070711
 30
0.0
 11
0.0
 21
16.0
 31
0.0
 40
0.2447935635
 41
3.0623875337
 42
3.0996921013
  0
ELLIPSE
  5
65F
100
AcDbEntity
  8
0
100
AcDbEllipse
 62
7
  6
CONTINUOUS
 10
213.7481843912
 20
349.101070711
 30
0.0
 11
-0.0
 21
16.0
 31
0.0
 40
0.979168651
 41
-3.1834932059
 42
-3.1462469252
  0
ELLIPSE
  5
660
100
AcDbEntity
  8
0
100
AcDbEllipse
 62
7
  6
CONTINUOUS
 10
213.8211003625
 20
349.101070711
 30
0.0
 11
31.3332175414
 21
0.0
 31
0.0
 40
0.5106401849
 41
-1.5754505984
 42
-1.5707963119
  0
ELLIPSE
  5
661
100
AcDbEntity
  8
0
100
AcDbEllipse
 62
7
  6
CONTINUOUS
 10
217.3575603151
 20
349.101070711
 30
0.0
 11
-0.0
 21
16.0
 31
0.0
 40
0.4895813526
 41
-3.1090071039
 42
-3.0717219826
  0
ELLIPSE
  5
662
100
AcDbEntity
  8
0
100
AcDbEllipse
 62
7
  6
CONTINUOUS
 10
217.1023499453
 20
349.101070711
 30
0.0
 11
-0.0
 21
16.0
 31
0.0
 40
0.979168651
 41
-3.1415924464
 42
-3.1090071039
  0
ELLIPSE
  5
663
100
AcDbEntity
  8
0
100
AcDbEllipse
 62
7
  6
CONTINUOUS
 10
213.2620671728
 20
349.101070711
 30
0.0
 11
0.0
 21
16.0
 31
0.0
 40
0.3263911132
 41
-3.0343392846
 42
-3.0062060225
  0
ELLIPSE
  5
664
100
AcDbEntity
  8
0
100
AcDbEllipse
 62
7
  6
CONTINUOUS
 10
210.7950575267
 20
349.101070711
 30
0.0
 11
23.5000028014
 21
0.0
 31
0.0
 40
0.6808509827
 41
-1.4354096957
 42
-1.4165955247
  0
ELLIPSE
  5
665
100
AcDbEntity
  8
0
100
AcDbEllipse
 62
7
  6
CONTINUOUS
 10
207.1856819139
 20
349.101070711
 30
0.0
 11
47.0000056028
 21
0.0
 31
0.0
 40
0.3404254913
 41
-1.4165955247
 42
-1.407168193
  0
ELLIPSE
  5
666
100
AcDbEntity
  8
0
100
AcDbEllipse
 62
7
  6
CONTINUOUS
 10
223.3731843652
 20
349.101070711
 30
0.0
 11
47.0000056028
 21
0.0
 31
0.0
 40
0.3404254913
 41
-1.7344244606
 42
-1.7249971289
  0
ELLIPSE
  5
667
100
AcDbEntity
  8
0
100
AcDbEllipse
 62
7
  6
CONTINUOUS
 10
218.560674369
 20
349.101070711
 30
0.0
 11
-0.0
 21
16.0
 31
0.0
 40
0.9791630482
 41
-3.2957934557
 42
-3.2769792847
  0
ELLIPSE
  5
668
100
AcDbEntity
  8
0
100
AcDbEllipse
 62
7
  6
CONTINUOUS
 10
217.503398631
 20
349.101070711
 30
0.0
 11
0.0
 21
16.0
 31
0.0
 40
0.4895871269
 41
-3.2769792847
 42
-3.2582132159
  0
ELLIPSE
  5
669
100
AcDbEntity
  8
0
100
AcDbEllipse
 62
7
  6
CONTINUOUS
 10
209.3731842408
 20
349.101070711
 30
0.0
 11
-0.0
 21
16.0
 31
0.0
 40
0.326388877
 41
-3.3241204566
 42
-3.1416098802
  0
ELLIPSE
  5
66A
100
AcDbEntity
  8
0
100
AcDbEllipse
 62
7
  6
CONTINUOUS
 10
195.5190179766
 20
349.101070711
 30
0.0
 11
47.0000056028
 21
0.0
 31
0.0
 40
0.3404254913
 41
-1.7438664893
 42
-1.7344244606
  0
ELLIPSE
  5
66B
100
AcDbEntity
  8
0
100
AcDbEllipse
 62
7
  6
CONTINUOUS
 10
190.414848059
 20
349.101070711
 30
0.0
 11
0.0
 21
16.0
 31
0.0
 40
0.9791658496
 41
-3.3052207874
 42
-3.2863799185
  0
ELLIPSE
  5
66C
100
AcDbEntity
  8
0
100
AcDbEllipse
 62
7
  6
CONTINUOUS
 10
188.9079069351
 20
349.101070711
 30
0.0
 11
0.0
 21
16.0
 31
0.0
 40
0.3263895503
 41
-3.2863799185
 42
-3.2582132159
  0
ELLIPSE
  5
66D
100
AcDbEntity
  8
0
100
AcDbEllipse
 62
7
  6
CONTINUOUS
 10
188.4278706395
 20
349.101070711
 30
0.0
 11
-0.0
 21
16.0
 31
0.0
 40
0.7343750875
 41
-3.1276294356
 42
-3.0903734593
  0
ELLIPSE
  5
66E
100
AcDbEntity
  8
0
100
AcDbEllipse
 62
7
  6
CONTINUOUS
 10
188.7620715185
 20
349.101070711
 30
0.0
 11
0.0
 21
16.0
 31
0.0
 40
0.3263895503
 41
-3.0903734593
 42
-3.0623875337
  0
ELLIPSE
  5
66F
100
AcDbEntity
  8
0
100
AcDbEllipse
 62
7
  6
CONTINUOUS
 10
190.4877656732
 20
349.101070711
 30
0.0
 11
62.6666591962
 21
0.0
 31
0.0
 40
0.2553191794
 41
-1.7344244606
 42
-1.7249971289
  0
ELLIPSE
  5
670
100
AcDbEntity
  8
0
100
AcDbEllipse
 62
7
  6
CONTINUOUS
 10
184.4721419466
 20
349.101070711
 30
0.0
 11
23.5000028014
 21
-0.0
 31
0.0
 40
0.6808509827
 41
-1.7249971289
 42
-1.7061829579
  0
ELLIPSE
  5
671
100
AcDbEntity
  8
0
100
AcDbEllipse
 62
7
  6
CONTINUOUS
 10
182.7099881842
 20
349.101070711
 30
0.0
 11
0.0
 21
16.0
 31
0.0
 40
0.6527775573
 41
-3.2769792847
 42
-3.2488460226
  0
ELLIPSE
  5
672
100
AcDbEntity
  8
0
100
AcDbEllipse
 62
7
  6
CONTINUOUS
 10
182.011203573
 20
349.101070711
 30
0.0
 11
0.0
 21
16.0
 31
0.0
 40
0.2447914624
 41
-3.2488460226
 42
-3.2114633115
  0
ELLIPSE
  5
673
100
AcDbEntity
  8
0
100
AcDbEllipse
 62
7
  6
CONTINUOUS
 10
177.3809957047
 20
349.101070711
 30
0.0
 11
-0.0
 21
16.0
 31
0.0
 40
0.2447916375
 41
-3.0717219956
 42
-3.0343392846
  0
ELLIPSE
  5
674
100
AcDbEntity
  8
0
100
AcDbEllipse
 62
7
  6
CONTINUOUS
 10
176.6822117933
 20
349.101070711
 30
0.0
 11
-0.0
 21
16.0
 31
0.0
 40
0.6527773238
 41
-3.0343392846
 42
-3.0062060225
  0
ELLIPSE
  5
675
100
AcDbEntity
  8
0
100
AcDbEllipse
 62
7
  6
CONTINUOUS
 10
174.9200575267
 20
349.101070711
 30
0.0
 11
23.5000028014
 21
0.0
 31
0.0
 40
0.6808509827
 41
-1.4354096957
 42
-1.4165955247
  0
ELLIPSE
  5
676
100
AcDbEntity
  8
0
100
AcDbEllipse
 62
7
  6
CONTINUOUS
 10
168.904430358
 20
349.101070711
 30
0.0
 11
62.6666816076
 21
-0.0
 31
0.0
 40
0.2553190881
 41
-1.4165955247
 42
-1.407168193
  0
ELLIPSE
  5
677
100
AcDbEntity
  8
0
100
AcDbEllipse
 62
7
  6
CONTINUOUS
 10
176.0138079532
 20
349.101070711
 30
0.0
 11
-0.0
 21
15.0
 31
0.0
 40
0.4895833844
 41
-3.0171582922
 42
-2.9770209915
  0
ELLIPSE
  5
678
100
AcDbEntity
  8
0
100
AcDbEllipse
 62
7
  6
CONTINUOUS
 10
176.5606832556
 20
349.101070711
 30
0.0
 11
-0.0
 21
15.0
 31
0.0
 40
0.1958332528
 41
-3.067055578
 42
-3.0171582922
  0
ELLIPSE
  5
679
100
AcDbEntity
  8
0
100
AcDbEllipse
 62
7
  6
CONTINUOUS
 10
210.1752659166
 20
349.101070711
 30
0.0
 11
-0.0
 21
16.0
 31
0.0
 40
0.3333334923
 41
-3.3621259145
 42
-2.9210593927
  0
ELLIPSE
  5
67A
100
AcDbEntity
  8
0
100
AcDbEllipse
 62
7
  6
CONTINUOUS
 10
218.0745768005
 20
349.101070711
 30
0.0
 11
-0.0
 21
16.0
 31
0.0
 40
0.3263914179
 41
-3.2863799185
 42
-3.2582132159
  0
ELLIPSE
  5
67B
100
AcDbEntity
  8
0
100
AcDbEllipse
 62
7
  6
CONTINUOUS
 10
219.0164115
 20
349.101070711
 30
0.0
 11
0.0
 21
16.0
 31
0.0
 40
0.7343750875
 41
-3.3241204566
 42
-3.2863799185
  0
ELLIPSE
  5
67C
100
AcDbEntity
  8
0
100
AcDbEllipse
 62
7
  6
CONTINUOUS
 10
220.6752514409
 20
349.101070711
 30
0.0
 11
20.8888116942
 21
0.0
 31
0.0
 40
0.7659602774
 41
-1.781800074
 42
-1.7533241298
  0
ELLIPSE
  5
67D
100
AcDbEntity
  8
0
100
AcDbEllipse
 62
7
  6
CONTINUOUS
 10
232.7065696961
 20
349.101070711
 30
0.0
 11
78.3335817258
 21
0.0
 31
0.0
 40
0.2042546715
 41
-1.7913295877
 42
-1.781800074
  0
ELLIPSE
  5
67E
100
AcDbEntity
  8
0
100
AcDbEllipse
 62
7
  6
CONTINUOUS
 10
201.1335720255
 20
349.101070711
 30
0.0
 11
62.6667936643
 21
-0.0
 31
0.0
 40
0.2553186315
 41
-1.3597925796
 42
-1.3502630659
  0
ELLIPSE
  5
67F
100
AcDbEntity
  8
0
100
AcDbEllipse
 62
7
  6
CONTINUOUS
 10
207.6961229105
 20
349.101070711
 30
0.0
 11
31.3332175414
 21
-0.0
 31
0.0
 40
0.5106401849
 41
-1.3787943434
 42
-1.3597925796
  0
ELLIPSE
  5
680
100
AcDbEntity
  8
0
100
AcDbEllipse
 62
7
  6
CONTINUOUS
 10
210.6856781414
 20
349.101070711
 30
0.0
 11
-0.0
 21
16.0
 31
0.0
 40
0.979168651
 41
-2.9873918515
 42
-2.9495906701
  0
ELLIPSE
  5
681
100
AcDbEntity
  8
0
100
AcDbEllipse
 62
7
  6
CONTINUOUS
 10
212.4903659478
 20
349.101070711
 30
0.0
 11
0.0
 21
16.0
 31
0.0
 40
0.2447935635
 41
-3.0249720913
 42
-2.9873918515
  0
ELLIPSE
  5
682
100
AcDbEntity
  8
0
100
AcDbEllipse
 62
7
  6
CONTINUOUS
 10
206.6752659166
 20
349.101070711
 30
0.0
 11
0.0
 21
15.0
 31
0.0
 40
0.3333334923
 41
-3.1415926533
 42
-2.9060884169
  0
ELLIPSE
  5
683
100
AcDbEntity
  8
0
100
AcDbEllipse
 62
7
  6
CONTINUOUS
 10
182.8315160026
 20
349.101070711
 30
0.0
 11
0.0
 21
15.0
 31
0.0
 40
0.1958330602
 41
-3.266027015
 42
-3.2161297292
  0
ELLIPSE
  5
684
100
AcDbEntity
  8
0
100
AcDbEllipse
 62
7
  6
CONTINUOUS
 10
189.7829069351
 20
349.101070711
 30
0.0
 11
-0.0
 21
15.0
 31
0.0
 40
0.3263895503
 41
-3.2961074746
 42
-3.266027015
  0
ELLIPSE
  5
685
100
AcDbEntity
  8
0
100
AcDbEllipse
 62
7
  6
CONTINUOUS
 10
210.1752659166
 20
349.101070711
 30
0.0
 11
0.0
 21
15.0
 31
0.0
 40
0.3333334923
 41
-3.3770968903
 42
-3.1415926538
  0
ELLIPSE
  5
686
100
AcDbEntity
  8
0
100
AcDbEllipse
 62
7
  6
CONTINUOUS
 10
190.7247459459
 20
349.101070711
 30
0.0
 11
-0.0
 21
15.0
 31
0.0
 40
0.7343750875
 41
-3.3364402586
 42
-3.2961074746
  0
ELLIPSE
  5
687
100
AcDbEntity
  8
0
100
AcDbEllipse
 62
7
  6
CONTINUOUS
 10
192.3836021589
 20
349.101070711
 30
0.0
 11
19.5833450059
 21
0.0
 31
0.0
 40
0.7659569903
 41
-1.7961019347
 42
-1.7656439319
  0
ELLIPSE
  5
688
100
AcDbEntity
  8
0
100
AcDbEllipse
 62
7
  6
CONTINUOUS
 10
218.0745768005
 20
349.101070711
 30
0.0
 11
0.0
 21
15.0
 31
0.0
 40
0.3263914179
 41
-3.2961074746
 42
-3.266027015
  0
ELLIPSE
  5
689
100
AcDbEntity
  8
0
100
AcDbEllipse
 62
7
  6
CONTINUOUS
 10
219.0164115
 20
349.101070711
 30
0.0
 11
0.0
 21
15.0
 31
0.0
 40
0.7343750875
 41
-3.3364402586
 42
-3.2961074746
  0
ELLIPSE
  5
68A
100
AcDbEntity
  8
0
100
AcDbEllipse
 62
7
  6
CONTINUOUS
 10
217.175266751
 20
349.101070711
 30
0.0
 11
31.3333968322
 21
0.0
 31
0.0
 40
0.510637263
 41
-1.5940697016
 42
-1.5754505984
  0
ELLIPSE
  5
68B
100
AcDbEntity
  8
0
100
AcDbEllipse
 62
7
  6
CONTINUOUS
 10
218.2690125787
 20
349.101070711
 30
0.0
 11
78.3332231442
 21
0.0
 31
0.0
 40
0.2042556065
 41
-1.6033818765
 42
-1.5940697016
  0
ELLIPSE
  5
68C
100
AcDbEntity
  8
0
100
AcDbEllipse
 62
7
  6
CONTINUOUS
 10
216.3731831395
 20
349.101070711
 30
0.0
 11
47.0000056028
 21
-0.0
 31
0.0
 40
0.3404254913
 41
-1.6126968791
 42
-1.6033818765
  0
ELLIPSE
  5
68D
100
AcDbEntity
  8
0
100
AcDbEllipse
 62
7
  6
CONTINUOUS
 10
215.3888081395
 20
349.101070711
 30
0.0
 11
23.5000028014
 21
0.0
 31
0.0
 40
0.6808509827
 41
-1.6313386169
 42
-1.6126968791
  0
ELLIPSE
  5
68E
100
AcDbEntity
  8
0
100
AcDbEllipse
 62
7
  6
CONTINUOUS
 10
214.2829077724
 20
349.101070711
 30
0.0
 11
0.0
 21
16.0
 31
0.0
 40
0.3263914179
 41
-3.2301391567
 42
-3.2021349437
  0
ELLIPSE
  5
68F
100
AcDbEntity
  8
0
100
AcDbEllipse
 62
7
  6
CONTINUOUS
 10
220.6752514409
 20
349.101070711
 30
0.0
 11
19.5832609634
 21
0.0
 31
0.0
 40
0.7659602774
 41
-1.7961019347
 42
-1.7656439319
  0
ELLIPSE
  5
690
100
AcDbEntity
  8
0
100
AcDbEllipse
 62
7
  6
CONTINUOUS
 10
232.7065696961
 20
349.101070711
 30
0.0
 11
73.4377328679
 21
0.0
 31
0.0
 40
0.2042546715
 41
-1.8063005635
 42
-1.7961019347
  0
ELLIPSE
  5
691
100
AcDbEntity
  8
0
100
AcDbEllipse
 62
7
  6
CONTINUOUS
 10
201.1335720255
 20
349.101070711
 30
0.0
 11
58.7501190603
 21
0.0
 31
0.0
 40
0.2553186315
 41
-1.3454907189
 42
-1.3352920901
  0
ELLIPSE
  5
692
100
AcDbEntity
  8
0
100
AcDbEllipse
 62
7
  6
CONTINUOUS
 10
207.6961229105
 20
349.101070711
 30
0.0
 11
29.374891445
 21
0.0
 31
0.0
 40
0.5106401849
 41
-1.3658178342
 42
-1.3454907189
  0
ELLIPSE
  5
693
100
AcDbEntity
  8
0
100
AcDbEllipse
 62
7
  6
CONTINUOUS
 10
210.6856781414
 20
349.101070711
 30
0.0
 11
0.0
 21
15.0
 31
0.0
 40
0.979168651
 41
-2.9770209915
 42
-2.9366141609
  0
ELLIPSE
  5
694
100
AcDbEntity
  8
0
100
AcDbEllipse
 62
7
  6
CONTINUOUS
 10
212.4903659478
 20
349.101070711
 30
0.0
 11
0.0
 21
15.0
 31
0.0
 40
0.2447935635
 41
-3.0171582922
 42
-2.9770209915
  0
ELLIPSE
  5
695
100
AcDbEntity
  8
0
100
AcDbEllipse
 62
7
  6
CONTINUOUS
 10
204.4148453123
 20
349.101070711
 30
0.0
 11
73.4374807402
 21
-0.0
 31
0.0
 40
0.2042553727
 41
-1.8063005635
 42
-1.7961019347
  0
ELLIPSE
  5
696
100
AcDbEntity
  8
0
100
AcDbEllipse
 62
7
  6
CONTINUOUS
 10
206.6752659166
 20
349.101070711
 30
0.0
 11
0.0
 21
16.0
 31
0.0
 40
0.3333334923
 41
2.9210593927
 42
3.3621259145
  0
ELLIPSE
  5
697
100
AcDbEntity
  8
0
100
AcDbEllipse
 62
7
  6
CONTINUOUS
 10
183.3783921118
 20
349.101070711
 30
0.0
 11
-0.0
 21
15.0
 31
0.0
 40
0.4895836251
 41
-3.3061643156
 42
-3.266027015
  0
ELLIPSE
  5
698
100
AcDbEntity
  8
0
100
AcDbEllipse
 62
7
  6
CONTINUOUS
 10
184.5815161686
 20
349.101070711
 30
0.0
 11
-0.0
 21
15.0
 31
0.0
 40
0.9791665499
 41
-3.3465711462
 42
-3.3061643156
  0
ELLIPSE
  5
699
100
AcDbEntity
  8
0
100
AcDbEllipse
 62
7
  6
CONTINUOUS
 10
187.5710991977
 20
349.101070711
 30
0.0
 11
29.3749964982
 21
-0.0
 31
0.0
 40
0.5106383587
 41
-1.7961019347
 42
-1.7757748194
  0
ELLIPSE
  5
69A
100
AcDbEntity
  8
0
100
AcDbEllipse
 62
7
  6
CONTINUOUS
 10
197.4148551172
 20
349.101070711
 30
0.0
 11
73.4375227615
 21
0.0
 31
0.0
 40
0.2042552558
 41
-1.8063005635
 42
-1.7961019347
  0
ELLIPSE
  5
69B
100
AcDbEntity
  8
0
100
AcDbEllipse
 62
7
  6
CONTINUOUS
 10
187.8384603146
 20
349.101070711
 30
0.0
 11
0.0
 21
16.0
 31
0.0
 40
0.3263895503
 41
-3.0810503635
 42
-3.0530461505
  0
ELLIPSE
  5
69C
100
AcDbEntity
  8
0
100
AcDbEllipse
 62
7
  6
CONTINUOUS
 10
187.2065173769
 20
349.101070711
 30
0.0
 11
0.0
 21
16.0
 31
0.0
 40
0.9791658496
 41
-3.0996921013
 42
-3.0810503635
  0
ELLIPSE
  5
69D
100
AcDbEntity
  8
0
100
AcDbEllipse
 62
7
  6
CONTINUOUS
 10
185.894016751
 20
349.101070711
 30
0.0
 11
47.0000056028
 21
-0.0
 31
0.0
 40
0.3404254913
 41
-1.5382107771
 42
-1.5288957745
  0
ELLIPSE
  5
69E
100
AcDbEntity
  8
0
100
AcDbEllipse
 62
7
  6
CONTINUOUS
 10
190.7247459459
 20
349.101070711
 30
0.0
 11
-0.0
 21
16.0
 31
0.0
 40
0.7343750875
 41
-3.3241204566
 42
-3.2863799185
  0
ELLIPSE
  5
69F
100
AcDbEntity
  8
0
100
AcDbEllipse
 62
7
  6
CONTINUOUS
 10
192.3836021589
 20
349.101070711
 30
0.0
 11
20.8889013396
 21
-0.0
 31
0.0
 40
0.7659569903
 41
-1.781800074
 42
-1.7533241298
  0
ELLIPSE
  5
6A0
100
AcDbEntity
  8
0
100
AcDbEllipse
 62
7
  6
CONTINUOUS
 10
204.4148453123
 20
349.101070711
 30
0.0
 11
78.3333127896
 21
0.0
 31
0.0
 40
0.2042553727
 41
-1.7913295877
 42
-1.781800074
  0
ELLIPSE
  5
6A1
100
AcDbEntity
  8
0
100
AcDbEllipse
 62
7
  6
CONTINUOUS
 10
189.7829069351
 20
349.101070711
 30
0.0
 11
0.0
 21
16.0
 31
0.0
 40
0.3263895503
 41
-3.2863799185
 42
-3.2582132159
  0
ELLIPSE
  5
6A2
100
AcDbEntity
  8
0
100
AcDbEllipse
 62
7
  6
CONTINUOUS
 10
161.977347016
 20
349.101070711
 30
0.0
 11
73.4375122562
 21
-0.0
 31
0.0
 40
0.2042552851
 41
-1.3454907189
 42
-1.3352920901
  0
ELLIPSE
  5
6A3
100
AcDbEntity
  8
0
100
AcDbEllipse
 62
7
  6
CONTINUOUS
 10
171.8210982416
 20
349.101070711
 30
0.0
 11
29.3750070035
 21
-0.0
 31
0.0
 40
0.5106381761
 41
-1.3658178342
 42
-1.3454907189
  0
ELLIPSE
  5
6A4
100
AcDbEntity
  8
0
100
AcDbEllipse
 62
7
  6
CONTINUOUS
 10
174.8106828744
 20
349.101070711
 30
0.0
 11
0.0
 21
15.0
 31
0.0
 40
0.979166725
 41
-2.9770209915
 42
-2.9366141609
  0
ELLIPSE
  5
6A5
100
AcDbEntity
  8
0
100
AcDbEllipse
 62
7
  6
CONTINUOUS
 10
171.8210982416
 20
349.101070711
 30
0.0
 11
31.3333408038
 21
0.0
 31
0.0
 40
0.5106381761
 41
-1.3787943434
 42
-1.3597925796
  0
ELLIPSE
  5
6A6
100
AcDbEntity
  8
0
100
AcDbEllipse
 62
7
  6
CONTINUOUS
 10
174.8106828744
 20
349.101070711
 30
0.0
 11
0.0
 21
16.0
 31
0.0
 40
0.979166725
 41
-2.9873918515
 42
-2.9495906701
  0
ELLIPSE
  5
6A7
100
AcDbEntity
  8
0
100
AcDbEllipse
 62
7
  6
CONTINUOUS
 10
176.0138079532
 20
349.101070711
 30
0.0
 11
0.0
 21
16.0
 31
0.0
 40
0.4895833844
 41
-3.0249720913
 42
-2.9873918515
  0
ELLIPSE
  5
6A8
100
AcDbEntity
  8
0
100
AcDbEllipse
 62
7
  6
CONTINUOUS
 10
176.5606832556
 20
349.101070711
 30
0.0
 11
0.0
 21
16.0
 31
0.0
 40
0.1958332528
 41
-3.0717219956
 42
-3.0249720913
  0
ELLIPSE
  5
6A9
100
AcDbEntity
  8
0
100
AcDbEllipse
 62
7
  6
CONTINUOUS
 10
182.8315160026
 20
349.101070711
 30
0.0
 11
-0.0
 21
16.0
 31
0.0
 40
0.1958330602
 41
-3.2582132159
 42
-3.2114633115
  0
ELLIPSE
  5
6AA
100
AcDbEntity
  8
0
100
AcDbEllipse
 62
7
  6
CONTINUOUS
 10
183.3783921118
 20
349.101070711
 30
0.0
 11
-0.0
 21
16.0
 31
0.0
 40
0.4895836251
 41
-3.2957934557
 42
-3.2582132159
  0
ELLIPSE
  5
6AB
100
AcDbEntity
  8
0
100
AcDbEllipse
 62
7
  6
CONTINUOUS
 10
184.5815161686
 20
349.101070711
 30
0.0
 11
-0.0
 21
16.0
 31
0.0
 40
0.9791665499
 41
-3.333594637
 42
-3.2957934557
  0
ELLIPSE
  5
6AC
100
AcDbEntity
  8
0
100
AcDbEllipse
 62
7
  6
CONTINUOUS
 10
187.5710991977
 20
349.101070711
 30
0.0
 11
31.3333295981
 21
0.0
 31
0.0
 40
0.5106383587
 41
-1.781800074
 42
-1.7627983102
  0
ELLIPSE
  5
6AD
100
AcDbEntity
  8
0
100
AcDbEllipse
 62
7
  6
CONTINUOUS
 10
197.4148551172
 20
349.101070711
 30
0.0
 11
78.3333576123
 21
-0.0
 31
0.0
 40
0.2042552558
 41
-1.7913295877
 42
-1.781800074
  0
ELLIPSE
  5
6AE
100
AcDbEntity
  8
0
100
AcDbEllipse
 62
7
  6
CONTINUOUS
 10
161.977347016
 20
349.101070711
 30
0.0
 11
78.3333464066
 21
0.0
 31
0.0
 40
0.2042552851
 41
-1.3597925796
 42
-1.3502630659
  0
ELLIPSE
  5
6AF
100
AcDbEntity
  8
0
100
AcDbEllipse
 62
7
  6
CONTINUOUS
 10
206.6752659166
 20
79.057795568
 30
0.0
 11
0.0
 21
16.0
 31
0.0
 40
0.3333334923
 41
-0.0
 42
0.2205332609
  0
ELLIPSE
  5
6B0
100
AcDbEntity
  8
0
100
AcDbEllipse
 62
7
  6
CONTINUOUS
 10
213.2559968912
 20
79.057795568
 30
0.0
 11
0.0
 21
16.0
 31
0.0
 40
0.2447935635
 41
0.0419005523
 42
0.0792051199
  0
ELLIPSE
  5
6B1
100
AcDbEntity
  8
0
100
AcDbEllipse
 62
7
  6
CONTINUOUS
 10
213.7481843912
 20
79.057795568
 30
0.0
 11
0.0
 21
16.0
 31
0.0
 40
0.979168651
 41
0.0046542716
 42
0.0419005523
  0
ELLIPSE
  5
6B2
100
AcDbEntity
  8
0
100
AcDbEllipse
 62
7
  6
CONTINUOUS
 10
218.1474845662
 20
79.057795568
 30
0.0
 11
-0.0
 21
16.0
 31
0.0
 40
0.6527753654
 41
0.1072533821
 42
0.135386618
  0
ELLIPSE
  5
6B3
100
AcDbEntity
  8
0
100
AcDbEllipse
 62
7
  6
CONTINUOUS
 10
219.9096417812
 20
79.057795568
 30
0.0
 11
23.4999945723
 21
0.0
 31
0.0
 40
0.6808512211
 41
1.7061829448
 42
1.7249971223
  0
ELLIPSE
  5
6B4
100
AcDbEntity
  8
0
100
AcDbEllipse
 62
7
  6
CONTINUOUS
 10
225.9252871693
 20
79.057795568
 30
0.0
 11
62.6667936643
 21
0.0
 31
0.0
 40
0.2553186315
 41
1.7249971223
 42
1.734424454
  0
ELLIPSE
  5
6B5
100
AcDbEntity
  8
0
100
AcDbEllipse
 62
7
  6
CONTINUOUS
 10
204.3419135557
 20
79.057795568
 30
0.0
 11
62.6667936643
 21
-0.0
 31
0.0
 40
0.2553186315
 41
1.4071681996
 42
1.4165955313
  0
ELLIPSE
  5
6B6
100
AcDbEntity
  8
0
100
AcDbEllipse
 62
7
  6
CONTINUOUS
 10
211.5606833949
 20
79.057795568
 30
0.0
 11
0.0
 21
16.0
 31
0.0
 40
0.9791665548
 41
-0.1542007955
 42
-0.1259980073
  0
ELLIPSE
  5
6B7
100
AcDbEntity
  8
0
100
AcDbEllipse
 62
7
  6
CONTINUOUS
 10
212.8731780647
 20
79.057795568
 30
0.0
 11
0.0
 21
16.0
 31
0.0
 40
0.3263914179
 41
-0.1259980073
 42
-0.097895653
  0
ELLIPSE
  5
6B8
100
AcDbEntity
  8
0
100
AcDbEllipse
 62
7
  6
CONTINUOUS
 10
217.3575603151
 20
79.057795568
 30
0.0
 11
-0.0
 21
16.0
 31
0.0
 40
0.4895813526
 41
6.2133146362
 42
6.2505997575
  0
ELLIPSE
  5
6B9
100
AcDbEntity
  8
0
100
AcDbEllipse
 62
7
  6
CONTINUOUS
 10
217.1023499453
 20
79.057795568
 30
0.0
 11
-0.0
 21
16.0
 31
0.0
 40
0.979168651
 41
-0.0325855497
 42
-0.0000002072
  0
ELLIPSE
  5
6BA
100
AcDbEntity
  8
0
100
AcDbEllipse
 62
7
  6
CONTINUOUS
 10
210.1752659166
 20
79.057795568
 30
0.0
 11
0.0
 21
16.0
 31
0.0
 40
0.3333334923
 41
-0.2205332609
 42
-0.0
  0
ELLIPSE
  5
6BB
100
AcDbEntity
  8
0
100
AcDbEllipse
 62
7
  6
CONTINUOUS
 10
188.4278706395
 20
79.057795568
 30
0.0
 11
0.0
 21
16.0
 31
0.0
 40
0.7343750875
 41
-0.0512191943
 42
-0.013963218
  0
ELLIPSE
  5
6BC
100
AcDbEntity
  8
0
100
AcDbEllipse
 62
7
  6
CONTINUOUS
 10
188.7620715185
 20
79.057795568
 30
0.0
 11
-0.0
 21
16.0
 31
0.0
 40
0.3263895503
 41
-0.0792051199
 42
-0.0512191943
  0
ELLIPSE
  5
6BD
100
AcDbEntity
  8
0
100
AcDbEllipse
 62
7
  6
CONTINUOUS
 10
182.0112036241
 20
79.057795568
 30
0.0
 11
0.0
 21
16.0
 31
0.0
 40
0.2447914624
 41
0.069870671
 42
0.1072533821
  0
ELLIPSE
  5
6BE
100
AcDbEntity
  8
0
100
AcDbEllipse
 62
7
  6
CONTINUOUS
 10
182.7099893644
 20
79.057795568
 30
0.0
 11
0.0
 21
16.0
 31
0.0
 40
0.6527781669
 41
0.1072533821
 42
0.135386618
  0
ELLIPSE
  5
6BF
100
AcDbEntity
  8
0
100
AcDbEllipse
 62
7
  6
CONTINUOUS
 10
184.4721405295
 20
79.057795568
 30
0.0
 11
23.4999945723
 21
0.0
 31
0.0
 40
0.6808512211
 41
1.7061829448
 42
1.7249971223
  0
ELLIPSE
  5
6C0
100
AcDbEntity
  8
0
100
AcDbEllipse
 62
7
  6
CONTINUOUS
 10
190.4877652646
 20
79.057795568
 30
0.0
 11
62.6666591962
 21
0.0
 31
0.0
 40
0.2553191794
 41
1.7249971223
 42
1.734424454
  0
ELLIPSE
  5
6C1
100
AcDbEntity
  8
0
100
AcDbEllipse
 62
7
  6
CONTINUOUS
 10
168.9044307665
 20
79.057795568
 30
0.0
 11
62.6666816076
 21
-0.0
 31
0.0
 40
0.2553190881
 41
1.4071681996
 42
1.4165955313
  0
ELLIPSE
  5
6C2
100
AcDbEntity
  8
0
100
AcDbEllipse
 62
7
  6
CONTINUOUS
 10
174.9200589438
 20
79.057795568
 30
0.0
 11
23.4999945723
 21
0.0
 31
0.0
 40
0.6808512211
 41
1.4165955313
 42
1.4354097088
  0
ELLIPSE
  5
6C3
100
AcDbEntity
  8
0
100
AcDbEllipse
 62
7
  6
CONTINUOUS
 10
176.6822106131
 20
79.057795568
 30
0.0
 11
-0.0
 21
16.0
 31
0.0
 40
0.6527779334
 41
-0.135386618
 42
-0.1072533821
  0
ELLIPSE
  5
6C4
100
AcDbEntity
  8
0
100
AcDbEllipse
 62
7
  6
CONTINUOUS
 10
177.3809956537
 20
79.057795568
 30
0.0
 11
-0.0
 21
16.0
 31
0.0
 40
0.2447916375
 41
-0.1072533821
 42
-0.069870671
  0
ELLIPSE
  5
6C5
100
AcDbEntity
  8
0
100
AcDbEllipse
 62
7
  6
CONTINUOUS
 10
176.5606830922
 20
79.057795568
 30
0.0
 11
0.0
 21
15.0
 31
0.0
 40
0.1958333625
 41
-0.1244343474
 42
-0.0745370896
  0
ELLIPSE
  5
6C6
100
AcDbEntity
  8
0
100
AcDbEllipse
 62
7
  6
CONTINUOUS
 10
176.0138082149
 20
79.057795568
 30
0.0
 11
-0.0
 21
15.0
 31
0.0
 40
0.4895832987
 41
-0.164571655
 42
-0.1244343474
  0
ELLIPSE
  5
6C7
100
AcDbEntity
  8
0
100
AcDbEllipse
 62
7
  6
CONTINUOUS
 10
174.8106831872
 20
79.057795568
 30
0.0
 11
0.0
 21
15.0
 31
0.0
 40
0.9791666393
 41
-0.2049784891
 42
-0.164571655
  0
ELLIPSE
  5
6C8
100
AcDbEntity
  8
0
100
AcDbEllipse
 62
7
  6
CONTINUOUS
 10
171.8210991289
 20
79.057795568
 30
0.0
 11
29.3750031461
 21
-0.0
 31
0.0
 40
0.5106382432
 41
1.3454907198
 42
1.3658178377
  0
ELLIPSE
  5
6C9
100
AcDbEntity
  8
0
100
AcDbEllipse
 62
7
  6
CONTINUOUS
 10
161.9773485161
 20
79.057795568
 30
0.0
 11
73.4375058272
 21
-0.0
 31
0.0
 40
0.2042553029
 41
1.3352920901
 42
1.3454907198
  0
ELLIPSE
  5
6CA
100
AcDbEntity
  8
0
100
AcDbEllipse
 62
7
  6
CONTINUOUS
 10
197.4148536171
 20
79.057795568
 30
0.0
 11
73.4375163325
 21
-0.0
 31
0.0
 40
0.2042552737
 41
1.7961019338
 42
1.8063005635
  0
ELLIPSE
  5
6CB
100
AcDbEntity
  8
0
100
AcDbEllipse
 62
7
  6
CONTINUOUS
 10
187.5710983104
 20
79.057795568
 30
0.0
 11
29.3749926408
 21
-0.0
 31
0.0
 40
0.5106384258
 41
1.7757748159
 42
1.7961019338
  0
ELLIPSE
  5
6CC
100
AcDbEntity
  8
0
100
AcDbEllipse
 62
7
  6
CONTINUOUS
 10
184.5815158558
 20
79.057795568
 30
0.0
 11
0.0
 21
15.0
 31
0.0
 40
0.9791664642
 41
0.164571655
 42
0.2049784891
  0
ELLIPSE
  5
6CD
100
AcDbEntity
  8
0
100
AcDbEllipse
 62
7
  6
CONTINUOUS
 10
183.37839185
 20
79.057795568
 30
0.0
 11
0.0
 21
15.0
 31
0.0
 40
0.4895835394
 41
0.1244343474
 42
0.164571655
  0
ELLIPSE
  5
6CE
100
AcDbEntity
  8
0
100
AcDbEllipse
 62
7
  6
CONTINUOUS
 10
182.831516166
 20
79.057795568
 30
0.0
 11
0.0
 21
15.0
 31
0.0
 40
0.1958331699
 41
0.0745370896
 42
0.1244343474
  0
ELLIPSE
  5
6CF
100
AcDbEntity
  8
0
100
AcDbEllipse
 62
7
  6
CONTINUOUS
 10
213.3835970247
 20
79.057795568
 30
0.0
 11
62.6667936643
 21
0.0
 31
0.0
 40
0.2553186315
 41
1.547522952
 42
1.5568331088
  0
ELLIPSE
  5
6D0
100
AcDbEntity
  8
0
100
AcDbEllipse
 62
7
  6
CONTINUOUS
 10
207.5259619864
 20
79.057795568
 30
0.0
 11
0.0
 21
15.0
 31
0.0
 40
0.3263895122
 41
0.1144339888
 42
0.2355042367
  0
ELLIPSE
  5
6D1
100
AcDbEntity
  8
0
100
AcDbEllipse
 62
7
  6
CONTINUOUS
 10
214.2585970247
 20
79.057795568
 30
0.0
 11
62.6667936643
 21
0.0
 31
0.0
 40
0.2553186315
 41
1.5382107771
 42
1.547522952
  0
ELLIPSE
  5
6D2
100
AcDbEntity
  8
0
100
AcDbEllipse
 62
7
  6
CONTINUOUS
 10
215.5346425855
 20
79.057795568
 30
0.0
 11
23.5000028014
 21
0.0
 31
0.0
 40
0.6808509827
 41
1.5195771325
 42
1.5382107771
  0
ELLIPSE
  5
6D3
100
AcDbEntity
  8
0
100
AcDbEllipse
 62
7
  6
CONTINUOUS
 10
209.3245698467
 20
79.057795568
 30
0.0
 11
-0.0
 21
15.0
 31
0.0
 40
0.3263895122
 41
-0.2355042367
 42
-0.1144339888
  0
ELLIPSE
  5
6D4
100
AcDbEntity
  8
0
100
AcDbEllipse
 62
7
  6
CONTINUOUS
 10
216.2030476527
 20
79.057795568
 30
0.0
 11
0.0
 21
16.0
 31
0.0
 40
0.6527750607
 41
-0.079205133
 42
-0.0512191943
  0
ELLIPSE
  5
6D5
100
AcDbEntity
  8
0
100
AcDbEllipse
 62
7
  6
CONTINUOUS
 10
212.1257832219
 20
79.057795568
 30
0.0
 11
0.0
 21
16.0
 31
0.0
 40
0.2447935635
 41
-0.135386618
 42
-0.097895653
  0
ELLIPSE
  5
6D6
100
AcDbEntity
  8
0
100
AcDbEllipse
 62
7
  6
CONTINUOUS
 10
211.3856832835
 20
79.057795568
 30
0.0
 11
0.0
 21
16.0
 31
0.0
 40
0.5874999466
 41
-0.1825277997
 42
-0.135386618
  0
ELLIPSE
  5
6D7
100
AcDbEntity
  8
0
100
AcDbEllipse
 62
7
  6
CONTINUOUS
 10
208.3523568574
 20
79.057795568
 30
0.0
 11
26.1110720955
 21
0.0
 31
0.0
 40
0.6127668731
 41
1.3597925804
 42
1.3882685271
  0
ELLIPSE
  5
6D8
100
AcDbEntity
  8
0
100
AcDbEllipse
 62
7
  6
CONTINUOUS
 10
197.4147980831
 20
79.057795568
 30
0.0
 11
78.3335748681
 21
-0.0
 31
0.0
 40
0.2042546893
 41
1.3502630659
 42
1.3597925804
  0
ELLIPSE
  5
6D9
100
AcDbEntity
  8
0
100
AcDbEllipse
 62
7
  6
CONTINUOUS
 10
232.8523242022
 20
79.057795568
 30
0.0
 11
78.3332162866
 21
-0.0
 31
0.0
 40
0.2042556244
 41
1.7818000732
 42
1.7913295877
  0
ELLIPSE
  5
6DA
100
AcDbEntity
  8
0
100
AcDbEllipse
 62
7
  6
CONTINUOUS
 10
223.0086111403
 20
79.057795568
 30
0.0
 11
31.3333927176
 21
-0.0
 31
0.0
 40
0.5106373301
 41
1.7627983069
 42
1.7818000732
  0
ELLIPSE
  5
6DB
100
AcDbEntity
  8
0
100
AcDbEllipse
 62
7
  6
CONTINUOUS
 10
220.0190222708
 20
79.057795568
 30
0.0
 11
0.0
 21
16.0
 31
0.0
 40
0.9791685653
 41
0.1542007955
 42
0.1920019801
  0
ELLIPSE
  5
6DC
100
AcDbEntity
  8
0
100
AcDbEllipse
 62
7
  6
CONTINUOUS
 10
218.8158879385
 20
79.057795568
 30
0.0
 11
0.0
 21
16.0
 31
0.0
 40
0.4895814384
 41
0.1166205492
 42
0.1542007955
  0
ELLIPSE
  5
6DD
100
AcDbEntity
  8
0
100
AcDbEllipse
 62
7
  6
CONTINUOUS
 10
188.3002663338
 20
79.057795568
 30
0.0
 11
19.5833450059
 21
0.0
 31
0.0
 40
0.7659569903
 41
1.5707963268
 42
1.5856904927
  0
ELLIPSE
  5
6DE
100
AcDbEntity
  8
0
100
AcDbEllipse
 62
7
  6
CONTINUOUS
 10
207.4773509302
 20
79.057795568
 30
0.0
 11
0.0
 21
16.0
 31
0.0
 40
0.326388877
 41
6.2158191001
 42
6.3530559782
  0
ELLIPSE
  5
6DF
100
AcDbEntity
  8
0
100
AcDbEllipse
 62
7
  6
CONTINUOUS
 10
207.5259619864
 20
79.057795568
 30
0.0
 11
0.0
 21
16.0
 31
0.0
 40
0.3263895122
 41
0.1072533821
 42
0.2205332609
  0
ELLIPSE
  5
6E0
100
AcDbEntity
  8
0
100
AcDbEllipse
 62
7
  6
CONTINUOUS
 10
209.3245698467
 20
79.057795568
 30
0.0
 11
-0.0
 21
16.0
 31
0.0
 40
0.3263895122
 41
-0.2205332609
 42
-0.1072533821
  0
ELLIPSE
  5
6E1
100
AcDbEntity
  8
0
100
AcDbEllipse
 62
7
  6
CONTINUOUS
 10
209.3731842408
 20
79.057795568
 30
0.0
 11
-0.0
 21
16.0
 31
0.0
 40
0.326388877
 41
-0.069870671
 42
0.0673662065
  0
ELLIPSE
  5
6E2
100
AcDbEntity
  8
0
100
AcDbEllipse
 62
7
  6
CONTINUOUS
 10
212.1257832219
 20
79.057795568
 30
0.0
 11
-0.0
 21
15.0
 31
0.0
 40
0.2447935635
 41
-0.1444736951
 42
-0.1044451119
  0
ELLIPSE
  5
6E3
100
AcDbEntity
  8
0
100
AcDbEllipse
 62
7
  6
CONTINUOUS
 10
211.3856832835
 20
79.057795568
 30
0.0
 11
-0.0
 21
15.0
 31
0.0
 40
0.5874999466
 41
-0.1948476015
 42
-0.1444736951
  0
ELLIPSE
  5
6E4
100
AcDbEntity
  8
0
100
AcDbEllipse
 62
7
  6
CONTINUOUS
 10
208.3523568574
 20
79.057795568
 30
0.0
 11
24.4791300896
 21
-0.0
 31
0.0
 40
0.6127668731
 41
1.3454907198
 42
1.3759487253
  0
ELLIPSE
  5
6E5
100
AcDbEntity
  8
0
100
AcDbEllipse
 62
7
  6
CONTINUOUS
 10
197.4147980831
 20
79.057795568
 30
0.0
 11
73.4377264389
 21
-0.0
 31
0.0
 40
0.2042546893
 41
1.3352920901
 42
1.3454907198
  0
ELLIPSE
  5
6E6
100
AcDbEntity
  8
0
100
AcDbEllipse
 62
7
  6
CONTINUOUS
 10
189.1023491108
 20
79.057795568
 30
0.0
 11
78.3333127896
 21
-0.0
 31
0.0
 40
0.2042553727
 41
1.5847595448
 42
1.5940697016
  0
ELLIPSE
  5
6E7
100
AcDbEntity
  8
0
100
AcDbEllipse
 62
7
  6
CONTINUOUS
 10
188.3002663338
 20
79.057795568
 30
0.0
 11
20.8889013396
 21
-0.0
 31
0.0
 40
0.7659569903
 41
7.8400184159
 42
7.867944852
  0
ELLIPSE
  5
6E8
100
AcDbEntity
  8
0
100
AcDbEllipse
 62
7
  6
CONTINUOUS
 10
232.8523242022
 20
79.057795568
 30
0.0
 11
73.4373902687
 21
0.0
 31
0.0
 40
0.2042556244
 41
1.7961019338
 42
1.8063005635
  0
ELLIPSE
  5
6E9
100
AcDbEntity
  8
0
100
AcDbEllipse
 62
7
  6
CONTINUOUS
 10
223.0086111403
 20
79.057795568
 30
0.0
 11
29.3750556727
 21
0.0
 31
0.0
 40
0.5106373301
 41
1.7757748159
 42
1.7961019338
  0
ELLIPSE
  5
6EA
100
AcDbEntity
  8
0
100
AcDbEllipse
 62
7
  6
CONTINUOUS
 10
220.0190222708
 20
79.057795568
 30
0.0
 11
-0.0
 21
15.0
 31
0.0
 40
0.9791685653
 41
0.164571655
 42
0.2049784891
  0
ELLIPSE
  5
6EB
100
AcDbEntity
  8
0
100
AcDbEllipse
 62
7
  6
CONTINUOUS
 10
218.8158879385
 20
79.057795568
 30
0.0
 11
0.0
 21
15.0
 31
0.0
 40
0.4895814384
 41
0.1244343474
 42
0.164571655
  0
ELLIPSE
  5
6EC
100
AcDbEntity
  8
0
100
AcDbEllipse
 62
7
  6
CONTINUOUS
 10
213.8211003625
 20
79.057795568
 30
0.0
 11
31.3332175414
 21
-0.0
 31
0.0
 40
0.5106401849
 41
1.5568331088
 42
1.5754505984
  0
ELLIPSE
  5
6ED
100
AcDbEntity
  8
0
100
AcDbEllipse
 62
7
  6
CONTINUOUS
 10
176.5606830922
 20
79.057795568
 30
0.0
 11
0.0
 21
16.0
 31
0.0
 40
0.1958333625
 41
-0.1166205492
 42
-0.069870671
  0
ELLIPSE
  5
6EE
100
AcDbEntity
  8
0
100
AcDbEllipse
 62
7
  6
CONTINUOUS
 10
176.0138082149
 20
79.057795568
 30
0.0
 11
0.0
 21
16.0
 31
0.0
 40
0.4895832987
 41
-0.1542007955
 42
-0.1166205492
  0
ELLIPSE
  5
6EF
100
AcDbEntity
  8
0
100
AcDbEllipse
 62
7
  6
CONTINUOUS
 10
174.8106831872
 20
79.057795568
 30
0.0
 11
-0.0
 21
16.0
 31
0.0
 40
0.9791666393
 41
-0.1920019801
 42
-0.1542007955
  0
ELLIPSE
  5
6F0
100
AcDbEntity
  8
0
100
AcDbEllipse
 62
7
  6
CONTINUOUS
 10
171.8210991289
 20
79.057795568
 30
0.0
 11
31.3333366892
 21
0.0
 31
0.0
 40
0.5106382432
 41
1.3597925804
 42
1.3787943467
  0
ELLIPSE
  5
6F1
100
AcDbEntity
  8
0
100
AcDbEllipse
 62
7
  6
CONTINUOUS
 10
161.9773485161
 20
79.057795568
 30
0.0
 11
78.333339549
 21
-0.0
 31
0.0
 40
0.2042553029
 41
1.3502630659
 42
1.3597925804
  0
ELLIPSE
  5
6F2
100
AcDbEntity
  8
0
100
AcDbEllipse
 62
7
  6
CONTINUOUS
 10
197.4148536171
 20
79.057795568
 30
0.0
 11
78.3333507547
 21
-0.0
 31
0.0
 40
0.2042552737
 41
1.7818000732
 42
1.7913295877
  0
ELLIPSE
  5
6F3
100
AcDbEntity
  8
0
100
AcDbEllipse
 62
7
  6
CONTINUOUS
 10
187.5710983104
 20
79.057795568
 30
0.0
 11
31.3333254835
 21
0.0
 31
0.0
 40
0.5106384258
 41
1.7627983069
 42
1.7818000732
  0
ELLIPSE
  5
6F4
100
AcDbEntity
  8
0
100
AcDbEllipse
 62
7
  6
CONTINUOUS
 10
184.5815158558
 20
79.057795568
 30
0.0
 11
0.0
 21
16.0
 31
0.0
 40
0.9791664642
 41
0.1542007955
 42
0.1920019801
  0
ELLIPSE
  5
6F5
100
AcDbEntity
  8
0
100
AcDbEllipse
 62
7
  6
CONTINUOUS
 10
183.37839185
 20
79.057795568
 30
0.0
 11
0.0
 21
16.0
 31
0.0
 40
0.4895835394
 41
0.1166205492
 42
0.1542007955
  0
ELLIPSE
  5
6F6
100
AcDbEntity
  8
0
100
AcDbEllipse
 62
7
  6
CONTINUOUS
 10
182.831516166
 20
79.057795568
 30
0.0
 11
-0.0
 21
16.0
 31
0.0
 40
0.1958331699
 41
0.069870671
 42
0.1166205492
  0
ELLIPSE
  5
6F7
100
AcDbEntity
  8
0
100
AcDbEllipse
 62
7
  6
CONTINUOUS
 10
189.1023491108
 20
79.057795568
 30
0.0
 11
73.4374807402
 21
-0.0
 31
0.0
 40
0.2042553727
 41
1.5856904927
 42
1.5956215687
  0
ENDSEC
  0
SECTION
  2
OBJECTS
  0
DICTIONARY
  5
C
100
AcDbDictionary
280
0
281
1
  3
ACAD_GROUP
350
D
  3
ACAD_MLINESTYLE
350
17
  3
ACAD_LAYOUT
350
1A
  3
ACAD_PLOTSETTINGS
350
19
  3
ACAD_PLOTSTYLENAME
350
E
  0
DICTIONARY
  5
D
102
{ACAD_REACTORS
330
C
102
}
100
AcDbDictionary
280
0
281
1
  0
ACDBDICTIONARYWDFLT
  5
E
102
{ACAD_REACTORS
330
C
102
}
100
AcDbDictionary
281
1
  3
Normal
350
F
100
AcDbDictionaryWithDefault
340
F
  0
DICTIONARY
  5
17
102
{ACAD_REACTORS
330
C
102
}
100
AcDbDictionary
280
0
281
1
  3
Standard
350
18
  0
DICTIONARY
  5
19
102
{ACAD_REACTORS
330
C
102
}
100
AcDbDictionary
281
1
  0
DICTIONARY
  5
1A
102
{ACAD_REACTORS
330
C
102
}
100
AcDbDictionary
281
1
  3
Model
350
6F8
  3
Layout1
350
6F9
  0
ACDBPLACEHOLDER
  5
F
102
{ACAD_REACTORS
330
E
102
}
  0
MLINESTYLE
  5
18
102
{ACAD_REACTORS
330
17
102
}
100
AcDbMlineStyle
  2
STANDARD
 70
0
  3

 62
256
 51
90.0
 52
90.0
 71
2
 49
0.5
 62
256
  6
BYLAYER
 49
-0.5
 62
256
  6
BYLAYER
  0
LAYOUT
  5
6F8
102
{ACAD_REACTORS
330
1A
102
}
100
AcDbPlotSettings
  1

  2
none_device
  4
ISO_A2_(594.00_x_420.00_MM)
  6

 40
0.0
 41
0.0
 42
0.0
 43
0.0
 44
594.0
 45
420.0
 46
0.0
 47
0.0
 48
0.0
 49
0.0
140
0.0
141
0.0
142
1.0
143
1.0
 70
1024
 72
1
 73
0
 74
0
  7

 75
0
147
1.0
148
0.0
149
0.0
100
AcDbLayout
  1
Model
 70
0
 71
0
 10
0.0
 20
0.0
 11
594.0
 21
420.0
 12
0.0
 22
0.0
 32
0.0
 14
0.0
 24
0.0
 34
0.0
 15
0.0
 25
0.0
 35
0.0
146
0.0
 13
0.0
 23
0.0
 33
0.0
 16
1.0
 26
0.0
 36
0.0
 17
0.0
 27
1.0
 37
0.0
 76
0
330
209
345
0
346
0
  0
LAYOUT
  5
6F9
102
{ACAD_REACTORS
330
1A
102
}
100
AcDbPlotSettings
  1

  2
none_device
  4
ISO_A2_(594.00_x_420.00_MM)
  6

 40
0.0
 41
0.0
 42
0.0
 43
0.0
 44
594.0
 45
420.0
 46
0.0
 47
0.0
 48
0.0
 49
0.0
140
0.0
141
0.0
142
1.0
143
1.0
 70
0
 72
1
 73
0
 74
0
  7

 75
0
147
1.0
148
0.0
149
0.0
100
AcDbLayout
  1
Layout1
 70
0
 71
1
 10
0.0
 20
0.0
 11
594.0
 21
420.0
 12
0.0
 22
0.0
 32
0.0
 14
0.0
 24
0.0
 34
0.0
 15
0.0
 25
0.0
 35
0.0
146
0.0
 13
0.0
 23
0.0
 33
0.0
 16
1.0
 26
0.0
 36
0.0
 17
0.0
 27
1.0
 37
0.0
 76
0
330
20A
345
0
346
0
  0
ENDSEC
  0
EOF
