999
DXF file: L-ABA_3200daN_7902667_M34469-P1.dxf
999
Pro/ENGINEER 2010140 by Parametric Technology Corporation
  0
SECTION
  2
HEADER
  9
$ACADVER
  1
AC1015
  9
$DWGCODEPAGE
  3
ANSI_1252
  9
$EXTMAX
 10
420.0
 20
297.0
 30
0.0
  9
$EXTMIN
 10
0.0
 20
0.0
 30
0.0
  9
$LIMMIN
 10
0.0
 20
0.0
  9
$LIMMAX
 10
420.0
 20
297.0
  9
$VIEWCTR
 10
210.0
 20
148.5
  9
$VIEWSIZE
 40
297.0
  9
$CLAYER
  8
0
  9
$LTSCALE
 40
23.1
  9
$CELTYPE
  6
BYLAYER
  9
$DIMSCALE
 40
1.0
  9
$DIMASZ
 40
3.5
  9
$DIMEXO
 40
2.625
  9
$DIMDLI
 40
15.96
  9
$DIMEXE
 40
7.56
  9
$DIMCEN
 40
3.78
  9
$DIMLFAC
 40
1.0
  9
$DIMBLK
  1
_FILLED
  9
$DIMTXT
 40
3.5
  9
$DIMTOL
 70
1
  9
$DIMLIM
 70
0
  9
$DIMTFAC
 40
1.0
  9
$DIMTP
 40
0.005
  9
$DIMTM
 40
0.005
  9
$PDMODE
 70
3
  9
$PDSIZE
 40
0.3125
  9
$HANDSEED
  5
48F
  9
$TILEMODE
 70
1
  9
$MEASUREMENT
 70
1
  9
$INSUNITS
 70
4
  0
ENDSEC
  0
SECTION
  2
CLASSES
  0
CLASS
  1
ACDBDICTIONARYWDFLT
  2
AcDbDictionaryWithDefault
  3
AutoCAD 2000
 90
0
280
0
281
0
  0
CLASS
  1
ACDBPLACEHOLDER
  2
AcDbPlaceHolder
  3
AutoCAD 2000
 90
0
280
0
281
0
  0
CLASS
  1
LAYOUT
  2
AcDbLayout
  3
AutoCAD 2000
 90
0
280
0
281
0
  0
ENDSEC
  0
SECTION
  2
TABLES
  0
TABLE
  2
VPORT
  5
8
100
AcDbSymbolTable
 70
2
  0
VPORT
  5
1F4
100
AcDbSymbolTableRecord
100
AcDbViewportTableRecord
  2
*ACTIVE
 70
0
 10
0.0
 20
0.0
 11
1.0
 21
1.0
 12
210.0
 22
148.5
 13
0.0
 23
0.0
 14
1.0
 24
1.0
 15
0.0
 25
0.0
 16
0.0
 26
0.0
 36
1.0
 17
0.0
 27
0.0
 37
0.0
 40
297.0
 41
1.4141414141
 42
50.0
 43
0.0
 44
0.0
 50
0.0
 51
0.0
 71
0
 72
100
 73
1
 74
1
 75
0
 76
0
 77
0
 78
0
  0
ENDTAB
  0
TABLE
  2
LTYPE
  5
5
100
AcDbSymbolTable
 70
6
  0
LTYPE
  5
14
100
AcDbSymbolTableRecord
100
AcDbLinetypeTableRecord
  2
BYBLOCK
 70
0
  3

 72
65
 73
0
 40
0.0
  0
LTYPE
  5
15
100
AcDbSymbolTableRecord
100
AcDbLinetypeTableRecord
  2
BYLAYER
 70
0
  3

 72
65
 73
0
 40
0.0
  0
LTYPE
  5
16
100
AcDbSymbolTableRecord
100
AcDbLinetypeTableRecord
  2
CONTINUOUS
 70
64
  3
Solid line
 72
65
 73
0
 40
0.0
  0
LTYPE
  5
1F5
100
AcDbSymbolTableRecord
100
AcDbLinetypeTableRecord
  2
CENTER
 70
64
  3
____ _ ____ _ ____ _ ____ _ ____ _ ____ _ ____
 72
65
 73
4
 40
0.6
 49
0.375
 74
0
 49
-0.075
 74
0
 49
0.075
 74
0
 49
-0.075
 74
0
  0
LTYPE
  5
1F6
100
AcDbSymbolTableRecord
100
AcDbLinetypeTableRecord
  2
HIDDEN
 70
64
  3
- - - - - - - - - - - - - - - - - - - -
 72
65
 73
2
 40
0.2
 49
0.1
 74
0
 49
-0.1
 74
0
  0
LTYPE
  5
1F7
100
AcDbSymbolTableRecord
100
AcDbLinetypeTableRecord
  2
PHANTOM
 70
64
  3
_____ _ _ _____ _ _ _____ _ _ _____
 72
65
 73
6
 40
0.8
 49
0.45
 74
0
 49
-0.05
 74
0
 49
0.1
 74
0
 49
-0.05
 74
0
 49
0.1
 74
0
 49
-0.05
 74
0
  0
LTYPE
  5
1F8
100
AcDbSymbolTableRecord
100
AcDbLinetypeTableRecord
  2
DOT
 70
64
  3
. . . . . . . . . . . . . . . . . . . .
 72
65
 73
2
 40
0.2
 49
0.1
 74
0
 49
-0.1
 74
0
  0
LTYPE
  5
1F9
100
AcDbSymbolTableRecord
100
AcDbLinetypeTableRecord
  2
DASHED
 70
64
  3
- - - - - - - - - - - - - - - - - - - -
 72
65
 73
2
 40
0.2
 49
0.1
 74
0
 49
-0.1
 74
0
  0
ENDTAB
  0
TABLE
  2
LAYER
  5
2
100
AcDbSymbolTable
 70
36
  0
LAYER
  5
10
100
AcDbSymbolTableRecord
100
AcDbLayerTableRecord
  2
0
 70
0
 62
7
  6
CONTINUOUS
370
-3
390
F
  0
LAYER
  5
1FA
100
AcDbSymbolTableRecord
100
AcDbLayerTableRecord
  2
DEFAULT_1
 70
0
 62
7
  6
CENTER
370
-3
390
F
  0
LAYER
  5
1FB
100
AcDbSymbolTableRecord
100
AcDbLayerTableRecord
  2
DEFAULT_2
 70
0
 62
8
  6
HIDDEN
370
-3
390
F
  0
LAYER
  5
1FC
100
AcDbSymbolTableRecord
100
AcDbLayerTableRecord
  2
DEFAULT_3
 70
0
 62
7
  6
PHANTOM
370
-3
390
F
  0
LAYER
  5
1FD
100
AcDbSymbolTableRecord
100
AcDbLayerTableRecord
  2
AUSFORMSCHRAEGEN
 70
0
 62
7
  6
CONTINUOUS
370
-3
390
F
  0
LAYER
  5
1FE
100
AcDbSymbolTableRecord
100
AcDbLayerTableRecord
  2
BEZUGSACHSEN
 70
0
 62
7
  6
CONTINUOUS
370
-3
390
F
  0
LAYER
  5
1FF
100
AcDbSymbolTableRecord
100
AcDbLayerTableRecord
  2
BEZUGSEBENEN
 70
0
 62
7
  6
CONTINUOUS
370
-3
390
F
  0
LAYER
  5
200
100
AcDbSymbolTableRecord
100
AcDbLayerTableRecord
  2
FLAECHEN
 70
0
 62
7
  6
CONTINUOUS
370
-3
390
F
  0
LAYER
  5
201
100
AcDbSymbolTableRecord
100
AcDbLayerTableRecord
  2
HILFEN
 70
0
 62
7
  6
CONTINUOUS
370
-3
390
F
  0
LAYER
  5
202
100
AcDbSymbolTableRecord
100
AcDbLayerTableRecord
  2
KURVEN
 70
0
 62
7
  6
CONTINUOUS
370
-3
390
F
  0
LAYER
  5
203
100
AcDbSymbolTableRecord
100
AcDbLayerTableRecord
  2
PLATZIERUNG
 70
0
 62
7
  6
CONTINUOUS
370
-3
390
F
  0
LAYER
  5
204
100
AcDbSymbolTableRecord
100
AcDbLayerTableRecord
  2
RUNDUNGEN
 70
0
 62
7
  6
CONTINUOUS
370
-3
390
F
  0
LAYER
  5
205
100
AcDbSymbolTableRecord
100
AcDbLayerTableRecord
  2
TEIL_STARTBEZUEGE
 70
0
 62
7
  6
CONTINUOUS
370
-3
390
F
  0
LAYER
  5
206
100
AcDbSymbolTableRecord
100
AcDbLayerTableRecord
  2
ZEICHNUNGSBEMASSUNGEN
 70
0
 62
7
  6
CONTINUOUS
370
-3
390
F
  0
ENDTAB
  0
TABLE
  2
STYLE
  5
3
100
AcDbSymbolTable
 70
1
  0
STYLE
  5
11
100
AcDbSymbolTableRecord
100
AcDbTextStyleTableRecord
  2
STANDARD
 70
0
 40
0.0
 41
0.7
 50
0.0
 71
0
 42
0.2
  3
txt
  4

  0
STYLE
  5
207
100
AcDbSymbolTableRecord
100
AcDbTextStyleTableRecord
  2
TEXTSTYLE_1
 70
0
 40
0.0
 41
0.8
 50
0.0
 71
0
 42
0.2
  3
gdt
  4

  0
ENDTAB
  0
TABLE
  2
VIEW
  5
6
100
AcDbSymbolTable
 70
0
  0
ENDTAB
  0
TABLE
  2
UCS
  5
7
100
AcDbSymbolTable
 70
0
  0
ENDTAB
  0
TABLE
  2
APPID
  5
9
100
AcDbSymbolTable
 70
1
  0
APPID
  5
208
100
AcDbSymbolTableRecord
100
AcDbRegAppTableRecord
  2
ACAD
 70
0
  0
ENDTAB
  0
TABLE
  2
BLOCK_RECORD
  5
1
100
AcDbSymbolTable
 70
0
  0
BLOCK_RECORD
  5
209
100
AcDbSymbolTableRecord
100
AcDbBlockTableRecord
  2
*Model_Space
  0
BLOCK_RECORD
  5
20A
100
AcDbSymbolTableRecord
100
AcDbBlockTableRecord
  2
*Paper_Space
  0
ENDTAB
  0
TABLE
  2
DIMSTYLE
  5
A
100
AcDbSymbolTable
 70
1
100
AcDbDimStyleTable
 71
0
  0
DIMSTYLE
105
20B
100
AcDbSymbolTableRecord
100
AcDbDimStyleTableRecord
  2
STANDARD
 70
0
  3

  4

 40
1.0
 41
3.5
 42
0.0625
 43
0.38
 44
0.18
 45
0.0
 46
0.0
 47
0.005
 48
0.005
140
3.5
141
0.09
142
0.0
143
25.4
144
1.0
145
0.0
146
1.0
147
0.09
 71
1.0
 72
0.0
 73
0
 74
0
 75
0
 76
0
 77
1
 78
8
170
0
171
2
172
0
173
0
174
0
175
0
176
0
177
0
178
5
270
2
271
3
272
3
273
2
274
2
275
0
280
0
281
0
282
0
283
1
284
8
285
0
286
0
287
3
288
0
340
11
  0
ENDTAB
  0
ENDSEC
  0
SECTION
  2
BLOCKS
  0
BLOCK
  5
20
100
AcDbEntity
  8
0
100
AcDbBlockBegin
  2
*Model_Space
 70
0
 10
0.0
 20
0.0
 30
0.0
  3
*Model_Space
  1

  0
ENDBLK
  5
21
100
AcDbEntity
  8
0
100
AcDbBlockEnd
  0
BLOCK
  5
1C
100
AcDbEntity
  8
0
100
AcDbBlockBegin
  2
*Paper_Space
 70
0
 10
0.0
 20
0.0
 30
0.0
  3
*Paper_Space
  1

  0
ENDBLK
  5
1D
100
AcDbEntity
  8
0
100
AcDbBlockEnd
  0
ENDSEC
  0
SECTION
  2
ENTITIES
  0
MTEXT
  5
20C
100
AcDbEntity
  8
0
100
AcDbMText
 62
5
  6
CONTINUOUS
  7
STANDARD
 71
1
 72
1
 10
265.2468394305
 20
191.9305282729
 30
0.0
 11
0.0
 21
1.0
 31
0.0
 44
0.9
  1
RUD\PL-ABA 3.200 daN
 40
3.0
 41
33.8571428571
  0
MTEXT
  5
20D
100
AcDbEntity
  8
0
100
AcDbMText
 62
5
  6
CONTINUOUS
  7
STANDARD
 71
1
 72
1
 10
68.1409869481
 20
105.5515684041
 30
0.0
 11
1.0
 21
0.0
 31
0.0
 44
0.9
  1
RUD\PL-ABA 3.200 daN
 40
3.0
 41
33.8571428571
  0
LINE
  5
20E
100
AcDbEntity
  8
0
100
AcDbLine
 62
7
  6
CONTINUOUS
 10
0.0
 20
0.0
 11
0.0
 21
297.0
  0
LINE
  5
20F
100
AcDbEntity
  8
0
100
AcDbLine
 62
7
  6
CONTINUOUS
 10
0.0
 20
0.0
 11
420.0
 21
0.0
  0
LINE
  5
210
100
AcDbEntity
  8
0
100
AcDbLine
 62
7
  6
CONTINUOUS
 10
0.0
 20
297.0
 11
420.0
 21
297.0
  0
LINE
  5
211
100
AcDbEntity
  8
0
100
AcDbLine
 62
7
  6
CONTINUOUS
 10
420.0
 20
0.0
 11
420.0
 21
297.0
  0
LINE
  5
212
100
AcDbEntity
  8
RUNDUNGEN
100
AcDbLine
 62
7
  6
CONTINUOUS
 10
63.4051192946
 20
191.2225
 11
63.4051192946
 21
199.0945943763
  0
LINE
  5
213
100
AcDbEntity
  8
BEZUGSACHSEN
100
AcDbLine
 62
7
  6
CONTINUOUS
 10
64.5469263069
 20
204.8028369212
 11
70.8604668225
 21
220.0450720604
  0
LINE
  5
214
100
AcDbEntity
  8
0
100
AcDbLine
 62
7
  6
CONTINUOUS
 10
74.3321315185
 20
218.066380129
 11
73.7727412793
 21
216.6745863421
  0
LINE
  5
215
100
AcDbEntity
  8
0
100
AcDbLine
 62
7
  6
CONTINUOUS
 10
72.6539608008
 20
213.8909987684
 11
72.0945705616
 21
212.4992049815
  0
LINE
  5
216
100
AcDbEntity
  8
0
100
AcDbLine
 62
7
  6
CONTINUOUS
 10
70.7177381577
 20
209.0735699758
 11
69.2976193655
 21
205.540236047
  0
LINE
  5
217
100
AcDbEntity
  8
0
100
AcDbLine
 62
7
  6
CONTINUOUS
 10
70.4566010857
 20
205.0719770368
 11
71.691100997
 21
208.1434809458
  0
LINE
  5
218
100
AcDbEntity
  8
0
100
AcDbLine
 62
7
  6
CONTINUOUS
 10
76.1828915957
 20
222.5818740644
 11
74.9167213099
 21
219.447992636
  0
LINE
  5
219
100
AcDbEntity
  8
0
100
AcDbLine
 62
7
  6
CONTINUOUS
 10
76.0757011281
 20
218.9797343942
 11
77.2246195501
 21
221.8234072761
  0
LINE
  5
21A
100
AcDbEntity
  8
0
100
AcDbLine
 62
7
  6
CONTINUOUS
 10
77.3329989092
 20
220.089555231
 11
76.7710890191
 21
218.6987794491
  0
LINE
  5
21B
100
AcDbEntity
  8
0
100
AcDbLine
 62
7
  6
CONTINUOUS
 10
71.6202483596
 20
205.9500014488
 11
71.1519901178
 21
204.7910216306
  0
LINE
  5
21C
100
AcDbEntity
  8
0
100
AcDbLine
 62
7
  6
CONTINUOUS
 10
73.4311330723
 20
207.4422951723
 11
72.6586942767
 21
205.5304420642
  0
LINE
  5
21D
100
AcDbEntity
  8
0
100
AcDbLine
 62
7
  6
CONTINUOUS
 10
73.8176740949
 20
205.0621838224
 11
74.2963576936
 21
206.2469673045
  0
LINE
  5
21E
100
AcDbEntity
  8
0
100
AcDbLine
 62
7
  6
CONTINUOUS
 10
81.860538823
 20
219.9503743091
 11
81.2735302911
 21
218.497477209
  0
LINE
  5
21F
100
AcDbEntity
  8
0
100
AcDbLine
 62
7
  6
CONTINUOUS
 10
76.2515013179
 20
202.7306853668
 11
76.7197595597
 21
203.889665185
  0
LINE
  5
220
100
AcDbEntity
  8
0
100
AcDbLine
 62
7
  6
CONTINUOUS
 10
78.1457461313
 20
207.4191058015
 11
78.6864441751
 21
208.7573804215
  0
LINE
  5
221
100
AcDbEntity
  8
0
100
AcDbLine
 62
7
  6
CONTINUOUS
 10
81.8706002192
 20
216.6384431853
 11
83.1367705049
 21
219.7723246138
  0
LINE
  5
222
100
AcDbEntity
  8
0
100
AcDbLine
 62
7
  6
CONTINUOUS
 10
157.250072063
 20
203.2215602644
 11
156.6888380757
 21
203.0753413475
  0
LINE
  5
223
100
AcDbEntity
  8
0
100
AcDbLine
 62
7
  6
CONTINUOUS
 10
156.8413132731
 20
202.707233658
 11
157.3140914179
 21
202.816810991
  0
LINE
  5
224
100
AcDbEntity
  8
RUNDUNGEN
100
AcDbLine
 62
7
  6
CONTINUOUS
 10
63.4051192946
 20
191.2225
 11
163.4051192946
 21
191.2225
  0
LINE
  5
225
100
AcDbEntity
  8
0
100
AcDbLine
 62
7
  6
CONTINUOUS
 10
69.2976193655
 20
205.540236047
 11
70.4566010857
 21
205.0719770368
  0
LINE
  5
226
100
AcDbEntity
  8
0
100
AcDbLine
 62
7
  6
CONTINUOUS
 10
71.1519901178
 20
204.7910216306
 11
76.2515013179
 21
202.7306853668
  0
LINE
  5
227
100
AcDbEntity
  8
0
100
AcDbLine
 62
7
  6
CONTINUOUS
 10
76.7197595597
 20
203.889665185
 11
73.8176740949
 21
205.0621838224
  0
LINE
  5
228
100
AcDbEntity
  8
0
100
AcDbLine
 62
7
  6
CONTINUOUS
 10
72.6586942767
 20
205.5304420642
 11
71.6202483596
 21
205.9500014488
  0
LINE
  5
229
100
AcDbEntity
  8
BEZUGSACHSEN
100
AcDbLine
 62
7
  6
CONTINUOUS
 10
85.0114480544
 20
210.6033601606
 11
83.5737600467
 21
214.0742460472
  0
LINE
  5
22A
100
AcDbEntity
  8
BEZUGSACHSEN
100
AcDbLine
 62
7
  6
CONTINUOUS
 10
83.5736757821
 20
216.3705505201
 11
91.4993090788
 21
235.5047219153
  0
LINE
  5
22B
100
AcDbEntity
  8
RUNDUNGEN
100
AcDbLine
 62
7
  6
CONTINUOUS
 10
93.1228973793
 20
237.1283102158
 11
112.2570689975
 21
245.0539436048
  0
LINE
  5
22C
100
AcDbEntity
  8
0
100
AcDbLine
 62
7
  6
CONTINUOUS
 10
157.0763958423
 20
205.3922019002
 11
157.6376304036
 21
205.5384190807
  0
LINE
  5
22D
100
AcDbEntity
  8
0
100
AcDbLine
 62
7
  6
CONTINUOUS
 10
155.9082885109
 20
206.4609123135
 11
155.3470538257
 21
206.3146950818
  0
LINE
  5
22E
100
AcDbEntity
  8
0
100
AcDbLine
 62
7
  6
CONTINUOUS
 10
157.4851545082
 20
205.9065284553
 11
157.0123771853
 21
205.7969494885
  0
LINE
  5
22F
100
AcDbEntity
  8
0
100
AcDbLine
 62
7
  6
CONTINUOUS
 10
155.4995297211
 20
205.9465857072
 11
155.9723071679
 21
206.0561647253
  0
LINE
  5
230
100
AcDbEntity
  8
RUNDUNGEN
100
AcDbLine
 62
7
  6
CONTINUOUS
 10
161.4051192946
 20
195.7225
 11
118.5805146392
 21
195.7225
  0
LINE
  5
231
100
AcDbEntity
  8
RUNDUNGEN
100
AcDbLine
 62
7
  6
CONTINUOUS
 10
108.2297356982
 20
195.7225
 11
65.4051192946
 21
195.7225
  0
LINE
  5
232
100
AcDbEntity
  8
BEZUGSACHSEN
100
AcDbLine
 62
7
  6
CONTINUOUS
 10
84.2091447313
 20
204.8390786269
 11
85.0114478001
 21
206.7760095766
  0
LINE
  5
233
100
AcDbEntity
  8
0
100
AcDbLine
 62
7
  6
CONTINUOUS
 10
155.7346122902
 20
208.6315539494
 11
156.2958461535
 21
208.7777728149
  0
LINE
  5
234
100
AcDbEntity
  8
0
100
AcDbLine
 62
7
  6
CONTINUOUS
 10
156.1433709561
 20
209.1458805045
 11
155.6705929352
 21
209.0363032227
  0
LINE
  5
235
100
AcDbEntity
  8
0
100
AcDbLine
 62
7
  6
CONTINUOUS
 10
156.5454483331
 20
202.6709361737
 11
156.8413132731
 21
202.707233658
  0
LINE
  5
236
100
AcDbEntity
  8
0
100
AcDbLine
 62
7
  6
CONTINUOUS
 10
157.781019696
 20
205.9428260422
 11
157.4851545082
 21
205.9065284553
  0
LINE
  5
237
100
AcDbEntity
  8
0
100
AcDbLine
 62
7
  6
CONTINUOUS
 10
155.2036647811
 20
205.9102882229
 11
155.4995297211
 21
205.9465857072
  0
LINE
  5
238
100
AcDbEntity
  8
0
100
AcDbLine
 62
7
  6
CONTINUOUS
 10
72.0945705616
 20
212.4992049815
 11
76.2618654526
 21
210.8155085547
  0
LINE
  5
239
100
AcDbEntity
  8
0
100
AcDbLine
 62
7
  6
CONTINUOUS
 10
76.8237753427
 20
212.2062843366
 11
72.6539608008
 21
213.8909987684
  0
LINE
  5
23A
100
AcDbEntity
  8
0
100
AcDbLine
 62
7
  6
CONTINUOUS
 10
155.573050242
 20
209.7721778724
 11
155.9573717224
 21
209.8451152554
  0
LINE
  5
23B
100
AcDbEntity
  8
0
100
AcDbLine
 62
7
  6
CONTINUOUS
 10
155.4512784046
 20
212.568090578
 11
155.0669569242
 21
212.495153195
  0
LINE
  5
23C
100
AcDbEntity
  8
0
100
AcDbLine
 62
7
  6
CONTINUOUS
 10
156.4392361439
 20
209.1821780914
 11
156.1433709561
 21
209.1458805045
  0
LINE
  5
23D
100
AcDbEntity
  8
0
100
AcDbLine
 62
7
  6
CONTINUOUS
 10
156.1306321701
 20
202.6716192919
 11
156.5454483331
 21
202.6709361737
  0
LINE
  5
23E
100
AcDbEntity
  8
0
100
AcDbLine
 62
7
  6
CONTINUOUS
 10
73.7727412793
 20
216.6745863421
 11
77.9475951229
 21
214.9878359003
  0
LINE
  5
23F
100
AcDbEntity
  8
0
100
AcDbLine
 62
7
  6
CONTINUOUS
 10
78.5095050131
 20
216.3786116821
 11
74.3321315185
 21
218.066380129
  0
LINE
  5
240
100
AcDbEntity
  8
0
100
AcDbLine
 62
7
  6
CONTINUOUS
 10
154.2007717202
 20
213.085151291
 11
154.5850928517
 21
213.1580895165
  0
LINE
  5
241
100
AcDbEntity
  8
0
100
AcDbLine
 62
7
  6
CONTINUOUS
 10
154.1094945036
 20
215.8074434697
 11
153.7251733721
 21
215.7345052442
  0
LINE
  5
242
100
AcDbEntity
  8
RUNDUNGEN
100
AcDbLine
 62
7
  6
CONTINUOUS
 10
65.0922503645
 20
199.393818627
 11
80.3718071535
 21
201.8138626774
  0
LINE
  5
243
100
AcDbEntity
  8
0
100
AcDbLine
 62
7
  6
CONTINUOUS
 10
147.6547714813
 20
213.0152439634
 11
147.2650687467
 21
212.9552980773
  0
LINE
  5
244
100
AcDbEntity
  8
0
100
AcDbLine
 62
7
  6
CONTINUOUS
 10
152.2852226144
 20
212.2054520725
 11
152.5810872673
 21
212.241750425
  0
LINE
  5
245
100
AcDbEntity
  8
0
100
AcDbLine
 62
7
  6
CONTINUOUS
 10
147.9949489487
 20
208.6912822608
 11
148.2961951075
 21
208.7145883335
  0
LINE
  5
246
100
AcDbEntity
  8
0
100
AcDbLine
 62
7
  6
CONTINUOUS
 10
154.788848618
 20
205.9109713411
 11
155.2036647811
 21
205.9102882229
  0
LINE
  5
247
100
AcDbEntity
  8
0
100
AcDbLine
 62
7
  6
CONTINUOUS
 10
158.1958357971
 20
205.9421428983
 11
157.781019696
 21
205.9428260422
  0
LINE
  5
248
100
AcDbEntity
  8
0
100
AcDbLine
 62
7
  6
CONTINUOUS
 10
156.6888380757
 20
203.0753413475
 11
156.0361181944
 21
203.1499890922
  0
LINE
  5
249
100
AcDbEntity
  8
RUNDUNGEN
100
AcDbLine
 62
7
  6
CONTINUOUS
 10
161.7179882247
 20
199.393818627
 11
146.4384314357
 21
201.8138626774
  0
LINE
  5
24A
100
AcDbEntity
  8
0
100
AcDbLine
 62
7
  6
CONTINUOUS
 10
74.9167213099
 20
219.447992636
 11
76.0757011281
 21
218.9797343942
  0
LINE
  5
24B
100
AcDbEntity
  8
0
100
AcDbLine
 62
7
  6
CONTINUOUS
 10
76.7710890191
 20
218.6987794491
 11
81.8706002192
 21
216.6384431853
  0
LINE
  5
24C
100
AcDbEntity
  8
0
100
AcDbLine
 62
7
  6
CONTINUOUS
 10
81.2735302911
 20
218.497477209
 11
77.3329989092
 21
220.089555231
  0
LINE
  5
24D
100
AcDbEntity
  8
0
100
AcDbLine
 62
7
  6
CONTINUOUS
 10
149.3912182186
 20
218.9420038561
 11
149.8639959524
 21
219.051582006
  0
LINE
  5
24E
100
AcDbEntity
  8
0
100
AcDbLine
 62
7
  6
CONTINUOUS
 10
75.2813711356
 20
207.0165441487
 11
78.1457461313
 21
207.4191058015
  0
LINE
  5
24F
100
AcDbEntity
  8
0
100
AcDbLine
 62
7
  6
CONTINUOUS
 10
147.3559950609
 20
212.485589658
 11
147.6572412583
 21
212.5088956377
  0
LINE
  5
250
100
AcDbEntity
  8
0
100
AcDbLine
 62
7
  6
CONTINUOUS
 10
156.8540522451
 20
209.1814949475
 11
156.4392361439
 21
209.1821780914
  0
LINE
  5
251
100
AcDbEntity
  8
0
100
AcDbLine
 62
7
  6
CONTINUOUS
 10
155.7744012063
 20
210.2868451569
 11
155.3595851052
 21
210.2875283008
  0
LINE
  5
252
100
AcDbEntity
  8
0
100
AcDbLine
 62
7
  6
CONTINUOUS
 10
152.4286120699
 20
212.6098581145
 11
152.2212036703
 21
212.610200529
  0
LINE
  5
253
100
AcDbEntity
  8
0
100
AcDbLine
 62
7
  6
CONTINUOUS
 10
148.057408005
 20
206.7891423488
 11
148.2701975518
 21
206.7758087833
  0
LINE
  5
254
100
AcDbEntity
  8
0
100
AcDbLine
 62
7
  6
CONTINUOUS
 10
148.8009368563
 20
206.9956482013
 11
148.5881473405
 21
207.0089817796
  0
LINE
  5
255
100
AcDbEntity
  8
0
100
AcDbLine
 62
7
  6
CONTINUOUS
 10
148.4180584759
 20
209.1709627718
 11
147.9924791364
 21
209.1976306718
  0
LINE
  5
256
100
AcDbEntity
  8
0
100
AcDbLine
 62
7
  6
CONTINUOUS
 10
149.2333406387
 20
209.2042408944
 11
149.4461302572
 21
209.1909070683
  0
LINE
  5
257
100
AcDbEntity
  8
0
100
AcDbLine
 62
7
  6
CONTINUOUS
 10
149.4436605476
 20
209.6972552314
 11
149.2308708265
 21
209.7105893053
  0
LINE
  5
258
100
AcDbEntity
  8
0
100
AcDbLine
 62
7
  6
CONTINUOUS
 10
146.7825547834
 20
210.1171031647
 11
146.9953444328
 21
210.1037693514
  0
LINE
  5
259
100
AcDbEntity
  8
0
100
AcDbLine
 62
7
  6
CONTINUOUS
 10
157.6376304036
 20
205.5384190807
 11
158.2903497728
 21
205.4637730981
  0
LINE
  5
25A
100
AcDbEntity
  8
0
100
AcDbLine
 62
7
  6
CONTINUOUS
 10
155.3470538257
 20
206.3146950818
 11
154.6943346423
 21
206.3893411413
  0
LINE
  5
25B
100
AcDbEntity
  8
0
100
AcDbLine
 62
7
  6
CONTINUOUS
 10
79.2593180203
 20
222.6870855353
 11
80.9968605638
 21
221.9850727793
  0
LINE
  5
25C
100
AcDbEntity
  8
0
100
AcDbLine
 62
7
  6
CONTINUOUS
 10
81.6171830368
 20
223.3522483457
 11
79.7628153276
 21
224.1014615326
  0
LINE
  5
25D
100
AcDbEntity
  8
0
100
AcDbLine
 62
7
  6
CONTINUOUS
 10
150.8281400842
 20
222.7285622985
 11
150.3553620773
 21
222.6189842822
  0
LINE
  5
25E
100
AcDbEntity
  8
0
100
AcDbLine
 62
7
  6
CONTINUOUS
 10
150.5383325061
 20
222.1772545914
 11
150.9226538121
 21
222.2501923956
  0
LINE
  5
25F
100
AcDbEntity
  8
0
100
AcDbLine
 62
7
  6
CONTINUOUS
 10
78.6864441751
 20
208.7573804215
 11
74.9357270116
 21
208.2302515006
  0
LINE
  5
260
100
AcDbEntity
  8
0
100
AcDbLine
 62
7
  6
CONTINUOUS
 10
149.6810254363
 20
219.4933119075
 11
149.3851608453
 21
219.4570135807
  0
LINE
  5
261
100
AcDbEntity
  8
TEIL_STARTBEZUEGE
100
AcDbLine
 62
7
  6
CENTER
 10
166.4051192946
 20
215.2225
 11
60.4051192946
 21
215.2225
  0
LINE
  5
262
100
AcDbEntity
  8
0
100
AcDbLine
 62
7
  6
CONTINUOUS
 10
154.4326173053
 20
213.5261980486
 11
154.0178012041
 21
213.5268811925
  0
LINE
  5
263
100
AcDbEntity
  8
0
100
AcDbLine
 62
7
  6
CONTINUOUS
 10
147.867561135
 20
213.0019100521
 11
147.6547714813
 21
213.0152439634
  0
LINE
  5
264
100
AcDbEntity
  8
0
100
AcDbLine
 62
7
  6
CONTINUOUS
 10
156.2958461535
 20
208.7777728149
 11
156.9485662207
 21
208.7031251473
  0
LINE
  5
265
100
AcDbEntity
  8
0
100
AcDbLine
 62
7
  6
CONTINUOUS
 10
155.2466906813
 20
209.809500915
 11
155.573050242
 21
209.7721778724
  0
LINE
  5
266
100
AcDbEntity
  8
0
100
AcDbLine
 62
7
  6
CONTINUOUS
 10
155.7737772597
 20
202.7825645337
 11
156.1306321701
 21
202.6716192919
  0
LINE
  5
267
100
AcDbEntity
  8
TEIL_STARTBEZUEGE
100
AcDbLine
 62
7
  6
CENTER
 10
113.4051192946
 20
188.2225
 11
113.4051192946
 21
251.4725
  0
LINE
  5
268
100
AcDbEntity
  8
0
100
AcDbLine
 62
7
  6
CONTINUOUS
 10
151.9588627047
 20
212.2427759577
 11
152.2852226144
 21
212.2054520725
  0
LINE
  5
269
100
AcDbEntity
  8
0
100
AcDbLine
 62
7
  6
CONTINUOUS
 10
155.2194324706
 20
212.1270446629
 11
155.5457923803
 21
212.0897207778
  0
LINE
  5
26A
100
AcDbEntity
  8
0
100
AcDbLine
 62
7
  6
CONTINUOUS
 10
153.8744118105
 20
213.1224751761
 11
154.2007717202
 21
213.085151291
  0
LINE
  5
26B
100
AcDbEntity
  8
0
100
AcDbLine
 62
7
  6
CONTINUOUS
 10
153.8776485695
 20
215.3663975546
 11
154.2040084792
 21
215.3290736695
  0
LINE
  5
26C
100
AcDbEntity
  8
0
100
AcDbLine
 62
7
  6
CONTINUOUS
 10
147.437627197
 20
210.2869688707
 11
147.1005043359
 21
210.3502766438
  0
LINE
  5
26D
100
AcDbEntity
  8
0
100
AcDbLine
 62
7
  6
CONTINUOUS
 10
147.6572412583
 20
212.5088956377
 11
147.9943640317
 21
212.4455879009
  0
LINE
  5
26E
100
AcDbEntity
  8
0
100
AcDbLine
 62
7
  6
CONTINUOUS
 10
154.4319937076
 20
206.0219165828
 11
154.788848618
 21
205.9109713411
  0
LINE
  5
26F
100
AcDbEntity
  8
0
100
AcDbLine
 62
7
  6
CONTINUOUS
 10
158.5526906765
 20
205.8311976437
 11
158.1958357971
 21
205.9421428983
  0
LINE
  5
270
100
AcDbEntity
  8
0
100
AcDbLine
 62
7
  6
CONTINUOUS
 10
151.2429564471
 20
222.7278785227
 11
150.8281400842
 21
222.7285622985
  0
LINE
  5
271
100
AcDbEntity
  8
0
100
AcDbLine
 62
7
  6
CONTINUOUS
 10
157.2109071244
 20
209.0705496929
 11
156.8540522451
 21
209.1814949475
  0
LINE
  5
272
100
AcDbEntity
  8
0
100
AcDbLine
 62
7
  6
CONTINUOUS
 10
148.5881473405
 20
207.0089817796
 11
148.2151479419
 21
207.1589031763
  0
LINE
  5
273
100
AcDbEntity
  8
0
100
AcDbLine
 62
7
  6
CONTINUOUS
 10
148.2961951075
 20
208.7145883335
 11
148.5448613662
 21
208.614640636
  0
LINE
  5
274
100
AcDbEntity
  8
0
100
AcDbLine
 62
7
  6
CONTINUOUS
 10
148.6667248585
 20
209.0710151256
 11
148.4180584759
 21
209.1709627718
  0
LINE
  5
275
100
AcDbEntity
  8
0
100
AcDbLine
 62
7
  6
CONTINUOUS
 10
146.5338885092
 20
210.2170508557
 11
146.7825547834
 21
210.1171031647
  0
LINE
  5
276
100
AcDbEntity
  8
0
100
AcDbLine
 62
7
  6
CONTINUOUS
 10
149.6923267036
 20
209.5973077817
 11
149.4436605476
 21
209.6972552314
  0
LINE
  5
277
100
AcDbEntity
  8
0
100
AcDbLine
 62
7
  6
CONTINUOUS
 10
150.4288831583
 20
226.4445754456
 11
146.271425262
 21
224.7225
  0
LINE
  5
278
100
AcDbEntity
  8
0
100
AcDbLine
 62
7
  6
CONTINUOUS
 10
150.9226538121
 20
222.2501923956
 11
151.2490137951
 21
222.2128690344
  0
LINE
  5
279
100
AcDbEntity
  8
0
100
AcDbLine
 62
7
  6
CONTINUOUS
 10
152.2212036703
 20
212.610200529
 11
151.9833005881
 21
212.6841634447
  0
LINE
  5
27A
100
AcDbEntity
  8
0
100
AcDbLine
 62
7
  6
CONTINUOUS
 10
155.9270847941
 20
212.4201638528
 11
155.4512784046
 21
212.568090578
  0
LINE
  5
27B
100
AcDbEntity
  8
0
100
AcDbLine
 62
7
  6
CONTINUOUS
 10
154.0178012041
 20
213.5268811925
 11
153.7798978349
 21
213.6008449764
  0
LINE
  5
27C
100
AcDbEntity
  8
0
100
AcDbLine
 62
7
  6
CONTINUOUS
 10
155.3595851052
 20
210.2875283008
 11
152.2943087672
 21
211.4329375241
  0
LINE
  5
27D
100
AcDbEntity
  8
0
100
AcDbLine
 62
7
  6
CONTINUOUS
 10
152.5382695717
 20
210.8439640413
 11
155.2466906813
 21
209.809500915
  0
LINE
  5
27E
100
AcDbEntity
  8
0
100
AcDbLine
 62
7
  6
CONTINUOUS
 10
148.2405604653
 20
212.8519886453
 11
147.867561135
 21
213.0019100521
  0
LINE
  5
27F
100
AcDbEntity
  8
0
100
AcDbLine
 62
7
  6
CONTINUOUS
 10
156.0361181944
 20
203.1499890922
 11
155.7677198555
 21
203.2975742454
  0
LINE
  5
280
100
AcDbEntity
  8
0
100
AcDbLine
 62
7
  6
CONTINUOUS
 10
154.6943346423
 20
206.3893411413
 11
154.4259363034
 21
206.5369262946
  0
LINE
  5
281
100
AcDbEntity
  8
0
100
AcDbLine
 62
7
  6
CONTINUOUS
 10
155.3559324177
 20
203.0407525174
 11
155.7737772597
 21
202.7825645337
  0
LINE
  5
282
100
AcDbEntity
  8
0
100
AcDbLine
 62
7
  6
CONTINUOUS
 10
147.7728651855
 20
206.9757036602
 11
148.057408005
 21
206.7891423488
  0
LINE
  5
283
100
AcDbEntity
  8
0
100
AcDbLine
 62
7
  6
CONTINUOUS
 10
146.9851350827
 20
224.5006095166
 11
150.6118536744
 21
226.0028455442
  0
LINE
  5
284
100
AcDbEntity
  8
0
100
AcDbLine
 62
7
  6
CONTINUOUS
 10
147.3692483586
 20
222.0721205911
 11
147.8999876632
 21
222.2919600092
  0
LINE
  5
285
100
AcDbEntity
  8
0
100
AcDbLine
 62
7
  6
CONTINUOUS
 10
150.3553620773
 20
222.6189842822
 11
149.0285138468
 21
222.0693857499
  0
LINE
  5
286
100
AcDbEntity
  8
0
100
AcDbLine
 62
7
  6
CONTINUOUS
 10
154.5853008931
 20
215.6595167445
 11
154.1094945036
 21
215.8074434697
  0
LINE
  5
287
100
AcDbEntity
  8
0
100
AcDbLine
 62
7
  6
CONTINUOUS
 10
148.9154116236
 20
219.0899309898
 11
149.3912182186
 21
218.9420038561
  0
LINE
  5
288
100
AcDbEntity
  8
0
100
AcDbLine
 62
7
  6
CONTINUOUS
 10
153.4870619615
 20
213.3070418001
 11
153.8744118105
 21
213.1224751761
  0
LINE
  5
289
100
AcDbEntity
  8
0
100
AcDbLine
 62
7
  6
CONTINUOUS
 10
158.2903497728
 20
205.4637730981
 11
158.5587481117
 21
205.3161879448
  0
LINE
  5
28A
100
AcDbEntity
  8
0
100
AcDbLine
 62
7
  6
CONTINUOUS
 10
156.9485662207
 20
208.7031251473
 11
157.2169645596
 21
208.555539994
  0
LINE
  5
28B
100
AcDbEntity
  8
0
100
AcDbLine
 62
7
  6
CONTINUOUS
 10
151.6904643348
 20
212.3903610981
 11
151.9588627047
 21
212.2427759577
  0
LINE
  5
28C
100
AcDbEntity
  8
0
100
AcDbLine
 62
7
  6
CONTINUOUS
 10
154.0141481677
 20
206.2801062516
 11
154.4319937076
 21
206.0219165828
  0
LINE
  5
28D
100
AcDbEntity
  8
0
100
AcDbLine
 62
7
  6
CONTINUOUS
 10
158.9705361932
 20
205.5730079653
 11
158.5526906765
 21
205.8311976437
  0
LINE
  5
28E
100
AcDbEntity
  8
0
100
AcDbLine
 62
7
  6
CONTINUOUS
 10
147.1005043359
 20
210.3502766438
 11
146.815961591
 21
210.5368378409
  0
LINE
  5
28F
100
AcDbEntity
  8
0
100
AcDbLine
 62
7
  6
CONTINUOUS
 10
149.2114842756
 20
221.6276560591
 11
150.5383325061
 21
222.1772545914
  0
LINE
  5
290
100
AcDbEntity
  8
0
100
AcDbLine
 62
7
  6
CONTINUOUS
 10
151.7187629238
 20
222.5799515869
 11
151.2429564471
 21
222.7278785227
  0
LINE
  5
291
100
AcDbEntity
  8
0
100
AcDbLine
 62
7
  6
CONTINUOUS
 10
155.5457923803
 20
212.0897207778
 11
155.8141903702
 21
211.942136467
  0
LINE
  5
292
100
AcDbEntity
  8
0
100
AcDbLine
 62
7
  6
CONTINUOUS
 10
154.2040084792
 20
215.3290736695
 11
154.4724068182
 21
215.1814885162
  0
LINE
  5
293
100
AcDbEntity
  8
0
100
AcDbLine
 62
7
  6
CONTINUOUS
 10
157.6287519432
 20
208.8123616996
 11
157.2109071244
 21
209.0705496929
  0
LINE
  5
294
100
AcDbEntity
  8
0
100
AcDbLine
 62
7
  6
CONTINUOUS
 10
148.5251032743
 20
212.6654272933
 11
148.2405604653
 21
212.8519886453
  0
LINE
  5
295
100
AcDbEntity
  8
0
100
AcDbLine
 62
7
  6
CONTINUOUS
 10
146.3736788346
 20
210.3536383248
 11
146.5338885092
 21
210.2170508557
  0
LINE
  5
296
100
AcDbEntity
  8
0
100
AcDbLine
 62
7
  6
CONTINUOUS
 10
148.5448613662
 20
208.614640636
 11
148.7050709818
 21
208.4780532876
  0
LINE
  5
297
100
AcDbEntity
  8
0
100
AcDbLine
 62
7
  6
CONTINUOUS
 10
148.9871441923
 20
208.797840181
 11
148.6667248585
 21
209.0710151256
  0
LINE
  5
298
100
AcDbEntity
  8
0
100
AcDbLine
 62
7
  6
CONTINUOUS
 10
149.4461302572
 20
209.1909070683
 11
149.6063399754
 21
209.0543194721
  0
LINE
  5
299
100
AcDbEntity
  8
0
100
AcDbLine
 62
7
  6
CONTINUOUS
 10
149.8525364218
 20
209.4607201855
 11
149.6923267036
 21
209.5973077817
  0
LINE
  5
29A
100
AcDbEntity
  8
0
100
AcDbLine
 62
7
  6
CONTINUOUS
 10
148.2151479419
 20
207.1589031763
 11
147.8588518343
 21
207.5186922273
  0
LINE
  5
29B
100
AcDbEntity
  8
0
100
AcDbLine
 62
7
  6
CONTINUOUS
 10
148.888153258
 20
221.4074746735
 11
149.2114842756
 21
221.6276560591
  0
LINE
  5
29C
100
AcDbEntity
  8
0
100
AcDbLine
 62
7
  6
CONTINUOUS
 10
149.0285138468
 20
222.0693857499
 11
148.6167262015
 21
221.8125646762
  0
LINE
  5
29D
100
AcDbEntity
  8
0
100
AcDbLine
 62
7
  6
CONTINUOUS
 10
147.2650687467
 20
212.9552980773
 11
146.5574162992
 21
212.6621788361
  0
LINE
  5
29E
100
AcDbEntity
  8
0
100
AcDbLine
 62
7
  6
CONTINUOUS
 10
149.3851608453
 20
219.4570135807
 11
149.1167624444
 21
219.6045987083
  0
LINE
  5
29F
100
AcDbEntity
  8
0
100
AcDbLine
 62
7
  6
CONTINUOUS
 10
151.3915710029
 20
212.6115676112
 11
151.6904643348
 21
212.3903610981
  0
LINE
  5
2A0
100
AcDbEntity
  8
0
100
AcDbLine
 62
7
  6
CONTINUOUS
 10
151.9833005881
 20
212.6841634447
 11
151.8338537593
 21
212.7947671273
  0
LINE
  5
2A1
100
AcDbEntity
  8
0
100
AcDbLine
 62
7
  6
CONTINUOUS
 10
156.2259784517
 20
212.1989564876
 11
155.9270847941
 21
212.4201638528
  0
LINE
  5
2A2
100
AcDbEntity
  8
0
100
AcDbLine
 62
7
  6
CONTINUOUS
 10
147.9943640317
 20
212.4455879009
 11
148.3147833912
 21
212.1724128943
  0
LINE
  5
2A3
100
AcDbEntity
  8
0
100
AcDbLine
 62
7
  6
CONTINUOUS
 10
148.6167262015
 20
221.8125646762
 11
148.3238901789
 21
221.518761685
  0
LINE
  5
2A4
100
AcDbEntity
  8
0
100
AcDbLine
 62
7
  6
CONTINUOUS
 10
151.9504008898
 20
220.5195707979
 11
151.7155259903
 21
220.3360296296
  0
LINE
  5
2A5
100
AcDbEntity
  8
0
100
AcDbLine
 62
7
  6
CONTINUOUS
 10
151.8984965064
 20
219.8942997281
 11
152.3102844867
 21
220.1511206939
  0
LINE
  5
2A6
100
AcDbEntity
  8
0
100
AcDbLine
 62
7
  6
CONTINUOUS
 10
146.8252556943
 20
212.2657502143
 11
147.3559950609
 21
212.485589658
  0
LINE
  5
2A7
100
AcDbEntity
  8
0
100
AcDbLine
 62
7
  6
CONTINUOUS
 10
153.2980340102
 20
214.2637814005
 11
152.9442078484
 21
214.1172218056
  0
LINE
  5
2A8
100
AcDbEntity
  8
0
100
AcDbLine
 62
7
  6
CONTINUOUS
 10
154.6095306339
 20
213.5994779487
 11
154.4326173053
 21
213.5261980486
  0
LINE
  5
2A9
100
AcDbEntity
  8
0
100
AcDbLine
 62
7
  6
CONTINUOUS
 10
152.7824382317
 20
212.7564177095
 11
152.4286120699
 21
212.6098581145
  0
LINE
  5
2AA
100
AcDbEntity
  8
0
100
AcDbLine
 62
7
  6
CONTINUOUS
 10
150.6220630245
 20
211.606005379
 11
148.7644754275
 21
210.836567403
  0
LINE
  5
2AB
100
AcDbEntity
  8
0
100
AcDbLine
 62
7
  6
CONTINUOUS
 10
148.3221927253
 20
210.6533679093
 11
147.437627197
 21
210.2869688707
  0
LINE
  5
2AC
100
AcDbEntity
  8
0
100
AcDbLine
 62
7
  6
CONTINUOUS
 10
146.9953444328
 20
210.1037693514
 11
146.4646051282
 21
209.8839299333
  0
LINE
  5
2AD
100
AcDbEntity
  8
0
100
AcDbLine
 62
7
  6
CONTINUOUS
 10
154.5850928517
 20
213.1580895165
 11
154.7620061803
 21
213.2313694166
  0
LINE
  5
2AE
100
AcDbEntity
  8
0
100
AcDbLine
 62
7
  6
CONTINUOUS
 10
152.5810872673
 20
212.241750425
 11
152.9349134291
 21
212.3883100199
  0
LINE
  5
2AF
100
AcDbEntity
  8
0
100
AcDbLine
 62
7
  6
CONTINUOUS
 10
146.6439880214
 20
209.4508613199
 11
150.8014459177
 21
211.1729367655
  0
LINE
  5
2B0
100
AcDbEntity
  8
0
100
AcDbLine
 62
7
  6
CONTINUOUS
 10
152.2943087672
 20
211.4329375241
 11
151.852026003
 21
211.2497380048
  0
LINE
  5
2B1
100
AcDbEntity
  8
0
100
AcDbLine
 62
7
  6
CONTINUOUS
 10
149.2308708265
 20
209.7105893053
 11
149.0539577456
 21
209.6373095079
  0
LINE
  5
2B2
100
AcDbEntity
  8
0
100
AcDbLine
 62
7
  6
CONTINUOUS
 10
147.9924791364
 20
209.1976306718
 11
147.7271095151
 21
209.0877109756
  0
LINE
  5
2B3
100
AcDbEntity
  8
0
100
AcDbLine
 62
7
  6
CONTINUOUS
 10
147.8180358058
 20
208.6180024377
 11
147.9949489487
 21
208.6912822608
  0
LINE
  5
2B4
100
AcDbEntity
  8
0
100
AcDbLine
 62
7
  6
CONTINUOUS
 10
151.2490137951
 20
222.2128690344
 11
151.517412134
 21
222.0652838811
  0
LINE
  5
2B5
100
AcDbEntity
  8
0
100
AcDbLine
 62
7
  6
CONTINUOUS
 10
148.6165181173
 20
219.3111379241
 11
148.9154116236
 21
219.0899309898
  0
LINE
  5
2B6
100
AcDbEntity
  8
0
100
AcDbLine
 62
7
  6
CONTINUOUS
 10
154.8841945507
 20
215.4383093793
 11
154.5853008931
 21
215.6595167445
  0
LINE
  5
2B7
100
AcDbEntity
  8
0
100
AcDbLine
 62
7
  6
CONTINUOUS
 10
146.1417159822
 20
210.6634532889
 11
146.3736788346
 21
210.3536383248
  0
LINE
  5
2B8
100
AcDbEntity
  8
0
100
AcDbLine
 62
7
  6
CONTINUOUS
 10
146.815961591
 20
210.5368378409
 11
146.5839987463
 21
210.8466528082
  0
LINE
  5
2B9
100
AcDbEntity
  8
0
100
AcDbLine
 62
7
  6
CONTINUOUS
 10
148.7050709818
 20
208.4780532876
 11
148.9370338778
 21
208.1682381964
  0
LINE
  5
2BA
100
AcDbEntity
  8
0
100
AcDbLine
 62
7
  6
CONTINUOUS
 10
149.6063399754
 20
209.0543194721
 11
149.8383028714
 21
208.7445043809
  0
LINE
  5
2BB
100
AcDbEntity
  8
0
100
AcDbLine
 62
7
  6
CONTINUOUS
 10
147.5050256415
 20
207.3721326195
 11
147.7728651855
 21
206.9757036602
  0
LINE
  5
2BC
100
AcDbEntity
  8
RUNDUNGEN
100
AcDbLine
 62
7
  6
CONTINUOUS
 10
142.6010938579
 20
204.8390786269
 11
141.7987907891
 21
206.7760095766
  0
LINE
  5
2BD
100
AcDbEntity
  8
0
100
AcDbLine
 62
7
  6
CONTINUOUS
 10
148.6837737506
 20
221.1503118172
 11
148.888153258
 21
221.4074746735
  0
LINE
  5
2BE
100
AcDbEntity
  8
0
100
AcDbLine
 62
7
  6
CONTINUOUS
 10
151.4832641707
 20
214.8921298339
 11
151.2483898061
 21
214.7085879001
  0
LINE
  5
2BF
100
AcDbEntity
  8
0
100
AcDbLine
 62
7
  6
CONTINUOUS
 10
146.5574162992
 20
212.6621788361
 11
146.2394666484
 21
212.4290055068
  0
LINE
  5
2C0
100
AcDbEntity
  8
0
100
AcDbLine
 62
7
  6
CONTINUOUS
 10
155.951314535
 20
210.360125057
 11
155.7744012063
 21
210.2868451569
  0
LINE
  5
2C1
100
AcDbEntity
  8
0
100
AcDbLine
 62
7
  6
CONTINUOUS
 10
149.950872006
 20
207.4719669361
 11
149.6855023847
 21
207.36204724
  0
LINE
  5
2C2
100
AcDbEntity
  8
0
100
AcDbLine
 62
7
  6
CONTINUOUS
 10
149.331676099
 20
207.2154875937
 11
148.8009368563
 21
206.9956482013
  0
LINE
  5
2C3
100
AcDbEntity
  8
0
100
AcDbLine
 62
7
  6
CONTINUOUS
 10
152.9498490996
 20
208.5993585959
 11
153.3921318638
 21
208.7825581152
  0
LINE
  5
2C4
100
AcDbEntity
  8
0
100
AcDbLine
 62
7
  6
CONTINUOUS
 10
155.9573717224
 20
209.8451152554
 11
156.1342850511
 21
209.9183951555
  0
LINE
  5
2C5
100
AcDbEntity
  8
0
100
AcDbLine
 62
7
  6
CONTINUOUS
 10
148.7149501689
 20
206.4526596182
 11
150.1302550018
 21
207.0388980749
  0
LINE
  5
2C6
100
AcDbEntity
  8
0
100
AcDbLine
 62
7
  6
CONTINUOUS
 10
155.6705929352
 20
209.0363032227
 11
154.8744840713
 21
208.7065441342
  0
LINE
  5
2C7
100
AcDbEntity
  8
0
100
AcDbLine
 62
7
  6
CONTINUOUS
 10
155.1154165071
 20
208.3750746583
 11
155.7346122902
 21
208.6315539494
  0
LINE
  5
2C8
100
AcDbEntity
  8
0
100
AcDbLine
 62
7
  6
CONTINUOUS
 10
152.5235212607
 20
207.015479117
 11
148.3660633644
 21
205.2934036714
  0
LINE
  5
2C9
100
AcDbEntity
  8
0
100
AcDbLine
 62
7
  6
CONTINUOUS
 10
148.5813227951
 20
204.7737214343
 11
152.2080414487
 21
206.2759574876
  0
LINE
  5
2CA
100
AcDbEntity
  8
RUNDUNGEN
100
AcDbLine
 62
7
  6
CONTINUOUS
 10
133.68734121
 20
237.1283102158
 11
114.5531695917
 21
245.0539436048
  0
LINE
  5
2CB
100
AcDbEntity
  8
0
100
AcDbLine
 62
7
  6
CONTINUOUS
 10
152.0176564069
 20
222.3587446429
 11
151.7187629238
 21
222.5799515869
  0
LINE
  5
2CC
100
AcDbEntity
  8
0
100
AcDbLine
 62
7
  6
CONTINUOUS
 10
153.7798978349
 20
213.6008449764
 11
153.4200142379
 21
213.9692950804
  0
LINE
  5
2CD
100
AcDbEntity
  8
0
100
AcDbLine
 62
7
  6
CONTINUOUS
 10
151.181134227
 20
212.8694140294
 11
151.3915710029
 21
212.6115676112
  0
LINE
  5
2CE
100
AcDbEntity
  8
0
100
AcDbLine
 62
7
  6
CONTINUOUS
 10
148.7570660934
 20
212.355612388
 11
148.5251032743
 21
212.6654272933
  0
LINE
  5
2CF
100
AcDbEntity
  8
0
100
AcDbLine
 62
7
  6
CONTINUOUS
 10
155.7677198555
 20
203.2975742454
 11
155.5267881176
 21
203.6290420362
  0
LINE
  5
2D0
100
AcDbEntity
  8
0
100
AcDbLine
 62
7
  6
CONTINUOUS
 10
154.4259363034
 20
206.5369262946
 11
154.1850038676
 21
206.8683957705
  0
LINE
  5
2D1
100
AcDbEntity
  8
0
100
AcDbLine
 62
7
  6
CONTINUOUS
 10
151.8338537593
 20
212.7947671273
 11
151.5929216725
 21
213.1262357606
  0
LINE
  5
2D2
100
AcDbEntity
  8
0
100
AcDbLine
 62
7
  6
CONTINUOUS
 10
155.0845053535
 20
203.4458425169
 11
155.3559324177
 21
203.0407525174
  0
LINE
  5
2D3
100
AcDbEntity
  8
0
100
AcDbLine
 62
7
  6
CONTINUOUS
 10
153.7427211034
 20
206.6851962512
 11
154.0141481677
 21
206.2801062516
  0
LINE
  5
2D4
100
AcDbEntity
  8
0
100
AcDbLine
 62
7
  6
CONTINUOUS
 10
149.2908601635
 20
208.3147978427
 11
148.9871441923
 21
208.797840181
  0
LINE
  5
2D5
100
AcDbEntity
  8
0
100
AcDbLine
 62
7
  6
CONTINUOUS
 10
150.1921290332
 20
208.8910639758
 11
149.8525364218
 21
209.4607201855
  0
LINE
  5
2D6
100
AcDbEntity
  8
RUNDUNGEN
100
AcDbLine
 62
7
  6
CONTINUOUS
 10
143.2365628071
 20
216.3705505201
 11
135.3109295104
 21
235.5047219153
  0
LINE
  5
2D7
100
AcDbEntity
  8
0
100
AcDbLine
 62
7
  6
CONTINUOUS
 10
145.9264565515
 20
211.1831355259
 11
146.1417159822
 21
210.6634532889
  0
LINE
  5
2D8
100
AcDbEntity
  8
0
100
AcDbLine
 62
7
  6
CONTINUOUS
 10
146.4646051282
 20
209.8839299333
 11
146.6439880214
 21
209.4508613199
  0
LINE
  5
2D9
100
AcDbEntity
  8
0
100
AcDbLine
 62
7
  6
CONTINUOUS
 10
147.2897662108
 20
207.8918148566
 11
147.5050256415
 21
207.3721326195
  0
LINE
  5
2DA
100
AcDbEntity
  8
0
100
AcDbLine
 62
7
  6
CONTINUOUS
 10
147.899668068
 20
206.4193815212
 11
148.0790508585
 21
205.9863131555
  0
LINE
  5
2DB
100
AcDbEntity
  8
0
100
AcDbLine
 62
7
  6
CONTINUOUS
 10
148.3660633644
 20
205.2934036714
 11
148.5813227951
 21
204.7737214343
  0
LINE
  5
2DC
100
AcDbEntity
  8
0
100
AcDbLine
 62
7
  6
CONTINUOUS
 10
149.4782371581
 20
202.6083786148
 11
149.8011263042
 21
201.8288552592
  0
LINE
  5
2DD
100
AcDbEntity
  8
0
100
AcDbLine
 62
7
  6
CONTINUOUS
 10
147.8588518343
 20
207.5186922273
 11
147.6435924036
 21
208.0383744643
  0
LINE
  5
2DE
100
AcDbEntity
  8
0
100
AcDbLine
 62
7
  6
CONTINUOUS
 10
146.5839987463
 20
210.8466528082
 11
146.4404924421
 21
211.1931076742
  0
LINE
  5
2DF
100
AcDbEntity
  8
RUNDUNGEN
100
AcDbLine
 62
7
  6
CONTINUOUS
 10
141.7987905348
 20
210.6033601606
 11
143.2364785425
 21
214.0742460472
  0
LINE
  5
2E0
100
AcDbEntity
  8
0
100
AcDbLine
 62
7
  6
CONTINUOUS
 10
148.3238901789
 20
221.518761685
 11
148.0920443011
 21
221.0777155464
  0
LINE
  5
2E1
100
AcDbEntity
  8
0
100
AcDbLine
 62
7
  6
CONTINUOUS
 10
146.2394666484
 20
212.4290055068
 11
146.0984301404
 21
212.2691120005
  0
LINE
  5
2E2
100
AcDbEntity
  8
0
100
AcDbLine
 62
7
  6
CONTINUOUS
 10
151.4893216059
 20
214.3771201349
 11
151.6357397171
 21
214.5240213018
  0
LINE
  5
2E3
100
AcDbEntity
  8
0
100
AcDbLine
 62
7
  6
CONTINUOUS
 10
146.4547260695
 20
211.9093232929
 11
146.8252556943
 21
212.2657502143
  0
LINE
  5
2E4
100
AcDbEntity
  8
0
100
AcDbLine
 62
7
  6
CONTINUOUS
 10
147.7271095151
 20
209.0877109756
 11
147.4091599316
 21
208.8545374836
  0
LINE
  5
2E5
100
AcDbEntity
  8
0
100
AcDbLine
 62
7
  6
CONTINUOUS
 10
152.9349134291
 20
212.3883100199
 11
153.2582447451
 21
212.6084910356
  0
LINE
  5
2E6
100
AcDbEntity
  8
0
100
AcDbLine
 62
7
  6
CONTINUOUS
 10
154.7620061803
 20
213.2313694166
 11
155.0853373724
 21
213.451550381
  0
LINE
  5
2E7
100
AcDbEntity
  8
0
100
AcDbLine
 62
7
  6
CONTINUOUS
 10
148.3085438706
 20
206.1828467359
 11
148.7149501689
 21
206.4526596182
  0
LINE
  5
2E8
100
AcDbEntity
  8
0
100
AcDbLine
 62
7
  6
CONTINUOUS
 10
154.6151717613
 20
208.0816146877
 11
155.1154165071
 21
208.3750746583
  0
LINE
  5
2E9
100
AcDbEntity
  8
0
100
AcDbLine
 62
7
  6
CONTINUOUS
 10
156.527484294
 20
206.7173916047
 11
155.9082885109
 21
206.4609123135
  0
LINE
  5
2EA
100
AcDbEntity
  8
0
100
AcDbLine
 62
7
  6
CONTINUOUS
 10
155.9723071679
 20
206.0561647253
 11
156.7684160318
 21
206.3859238138
  0
LINE
  5
2EB
100
AcDbEntity
  8
0
100
AcDbLine
 62
7
  6
CONTINUOUS
 10
157.0123771853
 20
205.7969494885
 11
156.2162683213
 21
205.4671903999
  0
LINE
  5
2EC
100
AcDbEntity
  8
0
100
AcDbLine
 62
7
  6
CONTINUOUS
 10
153.7433247698
 20
204.0706129419
 11
150.2050627185
 21
202.6050168131
  0
LINE
  5
2ED
100
AcDbEntity
  8
0
100
AcDbLine
 62
7
  6
CONTINUOUS
 10
156.4572000592
 20
205.1357226091
 11
157.0763958423
 21
205.3922019002
  0
LINE
  5
2EE
100
AcDbEntity
  8
0
100
AcDbLine
 62
7
  6
CONTINUOUS
 10
149.8011263042
 20
201.8288552592
 11
153.9585842005
 21
203.5509307049
  0
LINE
  5
2EF
100
AcDbEntity
  8
0
100
AcDbLine
 62
7
  6
CONTINUOUS
 10
149.1167624444
 20
219.6045987083
 11
148.9063255017
 21
219.862445551
  0
LINE
  5
2F0
100
AcDbEntity
  8
0
100
AcDbLine
 62
7
  6
CONTINUOUS
 10
151.517412134
 20
222.0652838811
 11
151.7278490767
 21
221.8074370384
  0
LINE
  5
2F1
100
AcDbEntity
  8
0
100
AcDbLine
 62
7
  6
CONTINUOUS
 10
158.5587481117
 20
205.3161879448
 11
158.7996805476
 21
204.9847184689
  0
LINE
  5
2F2
100
AcDbEntity
  8
0
100
AcDbLine
 62
7
  6
CONTINUOUS
 10
148.3755861971
 20
219.642606133
 11
148.6165181173
 21
219.3111379241
  0
LINE
  5
2F3
100
AcDbEntity
  8
0
100
AcDbLine
 62
7
  6
CONTINUOUS
 10
157.2169645596
 20
208.555539994
 11
157.4578962975
 21
208.2240722032
  0
LINE
  5
2F4
100
AcDbEntity
  8
0
100
AcDbLine
 62
7
  6
CONTINUOUS
 10
155.8141903702
 20
211.942136467
 11
156.0551228061
 21
211.6106669911
  0
LINE
  5
2F5
100
AcDbEntity
  8
0
100
AcDbLine
 62
7
  6
CONTINUOUS
 10
154.4724068182
 20
215.1814885162
 11
154.713338905
 21
214.8500198829
  0
LINE
  5
2F6
100
AcDbEntity
  8
0
100
AcDbLine
 62
7
  6
CONTINUOUS
 10
159.2419632498
 20
205.1679179626
 11
158.9705361932
 21
205.5730079653
  0
LINE
  5
2F7
100
AcDbEntity
  8
0
100
AcDbLine
 62
7
  6
CONTINUOUS
 10
157.9001789997
 20
208.4072716968
 11
157.6287519432
 21
208.8123616996
  0
LINE
  5
2F8
100
AcDbEntity
  8
0
100
AcDbLine
 62
7
  6
CONTINUOUS
 10
148.9370338778
 20
208.1682381964
 11
149.331676099
 21
207.2154875937
  0
LINE
  5
2F9
100
AcDbEntity
  8
0
100
AcDbLine
 62
7
  6
CONTINUOUS
 10
149.6855023847
 20
207.36204724
 11
149.2908601635
 21
208.3147978427
  0
LINE
  5
2FA
100
AcDbEntity
  8
0
100
AcDbLine
 62
7
  6
CONTINUOUS
 10
149.0539577456
 20
209.6373095079
 11
149.2333406387
 21
209.2042408944
  0
LINE
  5
2FB
100
AcDbEntity
  8
0
100
AcDbLine
 62
7
  6
CONTINUOUS
 10
148.3147833912
 20
212.1724128943
 11
148.5300428219
 21
211.6527306573
  0
LINE
  5
2FC
100
AcDbEntity
  8
0
100
AcDbLine
 62
7
  6
CONTINUOUS
 10
149.8383028714
 20
208.7445043809
 11
150.0535623021
 21
208.2248221439
  0
LINE
  5
2FD
100
AcDbEntity
  8
0
100
AcDbLine
 62
7
  6
CONTINUOUS
 10
150.4073884639
 20
208.3713817388
 11
150.1921290332
 21
208.8910639758
  0
LINE
  5
2FE
100
AcDbEntity
  8
0
100
AcDbLine
 62
7
  6
CONTINUOUS
 10
148.9723255241
 20
211.8359301509
 11
148.7570660934
 21
212.355612388
  0
LINE
  5
2FF
100
AcDbEntity
  8
0
100
AcDbLine
 62
7
  6
CONTINUOUS
 10
153.9585842005
 20
203.5509307049
 11
153.7433247698
 21
204.0706129419
  0
LINE
  5
300
100
AcDbEntity
  8
0
100
AcDbLine
 62
7
  6
CONTINUOUS
 10
152.8464104067
 20
206.2359557615
 11
152.5235212607
 21
207.015479117
  0
LINE
  5
301
100
AcDbEntity
  8
0
100
AcDbLine
 62
7
  6
CONTINUOUS
 10
150.8014459177
 20
211.1729367655
 11
150.6220630245
 21
211.606005379
  0
LINE
  5
302
100
AcDbEntity
  8
0
100
AcDbLine
 62
7
  6
CONTINUOUS
 10
145.8714068211
 20
211.5662302319
 11
145.9264565515
 21
211.1831355259
  0
LINE
  5
303
100
AcDbEntity
  8
0
100
AcDbLine
 62
7
  6
CONTINUOUS
 10
147.2514199791
 20
208.4847766497
 11
147.2347165061
 21
208.2749095006
  0
LINE
  5
304
100
AcDbEntity
  8
0
100
AcDbLine
 62
7
  6
CONTINUOUS
 10
147.6435924036
 20
208.0383744643
 11
147.6769992625
 21
208.4581090167
  0
LINE
  5
305
100
AcDbEntity
  8
0
100
AcDbLine
 62
7
  6
CONTINUOUS
 10
148.0920443011
 20
221.0777155464
 11
148.0371115993
 21
220.7099489979
  0
LINE
  5
306
100
AcDbEntity
  8
0
100
AcDbLine
 62
7
  6
CONTINUOUS
 10
145.940690197
 20
211.8993511885
 11
145.8714068211
 21
211.5662302319
  0
LINE
  5
307
100
AcDbEntity
  8
0
100
AcDbLine
 62
7
  6
CONTINUOUS
 10
146.3854427039
 20
211.576202377
 11
146.4547260695
 21
211.9093232929
  0
LINE
  5
308
100
AcDbEntity
  8
0
100
AcDbLine
 62
7
  6
CONTINUOUS
 10
148.5983458658
 20
220.8561670434
 11
148.6837737506
 21
221.1503118172
  0
LINE
  5
309
100
AcDbEntity
  8
0
100
AcDbLine
 62
7
  6
CONTINUOUS
 10
146.0984301404
 20
212.2691120005
 11
145.940690197
 21
211.8993511885
  0
LINE
  5
30A
100
AcDbEntity
  8
0
100
AcDbLine
 62
7
  6
CONTINUOUS
 10
152.3102844867
 20
220.1511206939
 11
152.5421302463
 21
220.5921670302
  0
LINE
  5
30B
100
AcDbEntity
  8
0
100
AcDbLine
 62
7
  6
CONTINUOUS
 10
148.5158091688
 20
210.9365151005
 11
148.3221927253
 21
210.6533679093
  0
LINE
  5
30C
100
AcDbEntity
  8
0
100
AcDbLine
 62
7
  6
CONTINUOUS
 10
151.2483898061
 20
214.7085879001
 11
151.0440101242
 21
214.4514254651
  0
LINE
  5
30D
100
AcDbEntity
  8
0
100
AcDbLine
 62
7
  6
CONTINUOUS
 10
148.7644754275
 20
210.836567403
 11
148.9055119708
 21
210.996460824
  0
LINE
  5
30E
100
AcDbEntity
  8
0
100
AcDbLine
 62
7
  6
CONTINUOUS
 10
147.6769992625
 20
208.4581090167
 11
147.8180358058
 21
208.6180024377
  0
LINE
  5
30F
100
AcDbEntity
  8
0
100
AcDbLine
 62
7
  6
CONTINUOUS
 10
148.0407045242
 20
206.5792751965
 11
147.899668068
 21
206.4193815212
  0
LINE
  5
310
100
AcDbEntity
  8
0
100
AcDbLine
 62
7
  6
CONTINUOUS
 10
153.075274229
 20
213.050220937
 11
152.7824382317
 21
212.7564177095
  0
LINE
  5
311
100
AcDbEntity
  8
0
100
AcDbLine
 62
7
  6
CONTINUOUS
 10
148.2701975518
 20
206.7758087833
 11
148.0407045242
 21
206.5792751965
  0
LINE
  5
312
100
AcDbEntity
  8
0
100
AcDbLine
 62
7
  6
CONTINUOUS
 10
148.0790508585
 20
205.9863131555
 11
148.3085438706
 21
206.1828467359
  0
LINE
  5
313
100
AcDbEntity
  8
0
100
AcDbLine
 62
7
  6
CONTINUOUS
 10
150.1302550018
 20
207.0388980749
 11
150.3597479829
 21
207.2354316424
  0
LINE
  5
314
100
AcDbEntity
  8
0
100
AcDbLine
 62
7
  6
CONTINUOUS
 10
154.4626965639
 20
208.4497223772
 11
154.2278222612
 21
208.2661804691
  0
LINE
  5
315
100
AcDbEntity
  8
0
100
AcDbLine
 62
7
  6
CONTINUOUS
 10
156.1342850511
 20
209.9183951555
 11
156.4576158942
 21
210.1385769624
  0
LINE
  5
316
100
AcDbEntity
  8
0
100
AcDbLine
 62
7
  6
CONTINUOUS
 10
154.8744840713
 20
208.7065441342
 11
154.4626965639
 21
208.4497223772
  0
LINE
  5
317
100
AcDbEntity
  8
0
100
AcDbLine
 62
7
  6
CONTINUOUS
 10
156.7684160318
 20
206.3859238138
 11
157.1802041133
 21
206.6427438344
  0
LINE
  5
318
100
AcDbEntity
  8
0
100
AcDbLine
 62
7
  6
CONTINUOUS
 10
156.2162683213
 20
205.4671903999
 11
155.8044801159
 21
205.2103703281
  0
LINE
  5
319
100
AcDbEntity
  8
0
100
AcDbLine
 62
7
  6
CONTINUOUS
 10
157.0277282179
 20
207.010853209
 11
156.527484294
 21
206.7173916047
  0
LINE
  5
31A
100
AcDbEntity
  8
0
100
AcDbLine
 62
7
  6
CONTINUOUS
 10
155.9569560113
 20
204.8422609534
 11
156.4572000592
 21
205.1357226091
  0
LINE
  5
31B
100
AcDbEntity
  8
0
100
AcDbLine
 62
7
  6
CONTINUOUS
 10
157.869267846
 20
203.4780395555
 11
157.250072063
 21
203.2215602644
  0
LINE
  5
31C
100
AcDbEntity
  8
0
100
AcDbLine
 62
7
  6
CONTINUOUS
 10
157.3140914179
 20
202.816810991
 11
158.1102002819
 21
203.1465700796
  0
LINE
  5
31D
100
AcDbEntity
  8
0
100
AcDbLine
 62
7
  6
CONTINUOUS
 10
152.2585883193
 20
222.0272764308
 11
152.0176564069
 21
222.3587446429
  0
LINE
  5
31E
100
AcDbEntity
  8
0
100
AcDbLine
 62
7
  6
CONTINUOUS
 10
156.527900129
 20
211.7202459579
 11
156.2259784517
 21
212.1989564876
  0
LINE
  5
31F
100
AcDbEntity
  8
0
100
AcDbLine
 62
7
  6
CONTINUOUS
 10
155.1861165769
 20
214.9595980071
 11
154.8841945507
 21
215.4383093793
  0
LINE
  5
320
100
AcDbEntity
  8
0
100
AcDbLine
 62
7
  6
CONTINUOUS
 10
146.271425262
 20
224.7225
 11
147.3692483586
 21
222.0721205911
  0
LINE
  5
321
100
AcDbEntity
  8
0
100
AcDbLine
 62
7
  6
CONTINUOUS
 10
148.101130423
 20
220.3052009852
 11
148.3755861971
 21
219.642606133
  0
LINE
  5
322
100
AcDbEntity
  8
0
100
AcDbLine
 62
7
  6
CONTINUOUS
 10
150.9371734225
 20
213.4583875122
 11
151.181134227
 21
212.8694140294
  0
LINE
  5
323
100
AcDbEntity
  8
0
100
AcDbLine
 62
7
  6
CONTINUOUS
 10
151.852026003
 20
211.2497380048
 11
152.9498490996
 21
208.5993585959
  0
LINE
  5
324
100
AcDbEntity
  8
0
100
AcDbLine
 62
7
  6
CONTINUOUS
 10
153.3921318638
 20
208.7825581152
 11
152.5382695717
 21
210.8439640413
  0
LINE
  5
325
100
AcDbEntity
  8
0
100
AcDbLine
 62
7
  6
CONTINUOUS
 10
151.5929216725
 20
213.1262357606
 11
151.4099511564
 21
213.5679656621
  0
LINE
  5
326
100
AcDbEntity
  8
0
100
AcDbLine
 62
7
  6
CONTINUOUS
 10
148.9063255017
 20
219.862445551
 11
148.6318697276
 21
220.5250404032
  0
LINE
  5
327
100
AcDbEntity
  8
0
100
AcDbLine
 62
7
  6
CONTINUOUS
 10
147.8999876632
 20
222.2919600092
 11
146.9851350827
 21
224.5006095166
  0
LINE
  5
328
100
AcDbEntity
  8
0
100
AcDbLine
 62
7
  6
CONTINUOUS
 10
151.6357397171
 20
214.5240213018
 11
151.4832641707
 21
214.8921298339
  0
LINE
  5
329
100
AcDbEntity
  8
0
100
AcDbLine
 62
7
  6
CONTINUOUS
 10
149.8639959524
 20
219.051582006
 11
149.6810254363
 21
219.4933119075
  0
LINE
  5
32A
100
AcDbEntity
  8
0
100
AcDbLine
 62
7
  6
CONTINUOUS
 10
152.9442078484
 20
214.1172218056
 11
153.0661880761
 21
213.8227354855
  0
LINE
  5
32B
100
AcDbEntity
  8
0
100
AcDbLine
 62
7
  6
CONTINUOUS
 10
153.4200142379
 20
213.9692950804
 11
153.2980340102
 21
214.2637814005
  0
LINE
  5
32C
100
AcDbEntity
  8
0
100
AcDbLine
 62
7
  6
CONTINUOUS
 10
150.5341913541
 20
207.815059603
 11
150.4073884639
 21
208.3713817388
  0
LINE
  5
32D
100
AcDbEntity
  8
0
100
AcDbLine
 62
7
  6
CONTINUOUS
 10
148.0371115993
 20
220.7099489979
 11
148.101130423
 21
220.3052009852
  0
LINE
  5
32E
100
AcDbEntity
  8
0
100
AcDbLine
 62
7
  6
CONTINUOUS
 10
146.4404924421
 20
211.1931076742
 11
146.3854427039
 21
211.576202377
  0
LINE
  5
32F
100
AcDbEntity
  8
0
100
AcDbLine
 62
7
  6
CONTINUOUS
 10
147.2347165061
 20
208.2749095006
 11
147.2897662108
 21
207.8918148566
  0
LINE
  5
330
100
AcDbEntity
  8
0
100
AcDbLine
 62
7
  6
CONTINUOUS
 10
148.5300428219
 20
211.6527306573
 11
148.5850925857
 21
211.2696358925
  0
LINE
  5
331
100
AcDbEntity
  8
0
100
AcDbLine
 62
7
  6
CONTINUOUS
 10
149.0273752879
 20
211.4528353862
 11
148.9723255241
 21
211.8359301509
  0
LINE
  5
332
100
AcDbEntity
  8
0
100
AcDbLine
 62
7
  6
CONTINUOUS
 10
150.0535623021
 20
208.2248221439
 11
150.1086119119
 21
207.8417277509
  0
LINE
  5
333
100
AcDbEntity
  8
0
100
AcDbLine
 62
7
  6
CONTINUOUS
 10
148.6318697276
 20
220.5250404032
 11
148.5983458658
 21
220.8561670434
  0
LINE
  5
334
100
AcDbEntity
  8
0
100
AcDbLine
 62
7
  6
CONTINUOUS
 10
150.903649743
 20
213.7895137343
 11
150.9371734225
 21
213.4583875122
  0
LINE
  5
335
100
AcDbEntity
  8
0
100
AcDbLine
 62
7
  6
CONTINUOUS
 10
152.0023048508
 20
221.1448421862
 11
152.0358287126
 21
220.8137155461
  0
LINE
  5
336
100
AcDbEntity
  8
0
100
AcDbLine
 62
7
  6
CONTINUOUS
 10
149.0106718739
 20
211.2429681164
 11
149.0273752879
 21
211.4528353862
  0
LINE
  5
337
100
AcDbEntity
  8
0
100
AcDbLine
 62
7
  6
CONTINUOUS
 10
150.1086119119
 20
207.8417277509
 11
150.0919086519
 21
207.6318601094
  0
LINE
  5
338
100
AcDbEntity
  8
0
100
AcDbLine
 62
7
  6
CONTINUOUS
 10
150.9585822704
 20
214.1572807041
 11
150.903649743
 21
213.7895137343
  0
LINE
  5
339
100
AcDbEntity
  8
0
100
AcDbLine
 62
7
  6
CONTINUOUS
 10
151.3459324994
 20
213.9727132504
 11
151.3733987515
 21
214.1565967305
  0
LINE
  5
33A
100
AcDbEntity
  8
0
100
AcDbLine
 62
7
  6
CONTINUOUS
 10
152.5421302463
 20
220.5921670302
 11
152.5970629249
 21
220.9599335691
  0
LINE
  5
33B
100
AcDbEntity
  8
0
100
AcDbLine
 62
7
  6
CONTINUOUS
 10
148.5850925857
 20
211.2696358925
 11
148.5158091688
 21
210.9365151005
  0
LINE
  5
33C
100
AcDbEntity
  8
0
100
AcDbLine
 62
7
  6
CONTINUOUS
 10
150.4649079886
 20
207.4819386871
 11
150.5341913541
 21
207.815059603
  0
LINE
  5
33D
100
AcDbEntity
  8
0
100
AcDbLine
 62
7
  6
CONTINUOUS
 10
152.0358287126
 20
220.8137155461
 11
151.9504008898
 21
220.5195707979
  0
LINE
  5
33E
100
AcDbEntity
  8
0
100
AcDbLine
 62
7
  6
CONTINUOUS
 10
151.0440101242
 20
214.4514254651
 11
150.9585822704
 21
214.1572807041
  0
LINE
  5
33F
100
AcDbEntity
  8
0
100
AcDbLine
 62
7
  6
CONTINUOUS
 10
147.4091599316
 20
208.8545374836
 11
147.2514199791
 21
208.4847766497
  0
LINE
  5
340
100
AcDbEntity
  8
0
100
AcDbLine
 62
7
  6
CONTINUOUS
 10
148.9055119708
 20
210.996460824
 11
149.0106718739
 21
211.2429681164
  0
LINE
  5
341
100
AcDbEntity
  8
0
100
AcDbLine
 62
7
  6
CONTINUOUS
 10
151.3733987515
 20
214.1565967305
 11
151.4893216059
 21
214.3771201349
  0
LINE
  5
342
100
AcDbEntity
  8
0
100
AcDbLine
 62
7
  6
CONTINUOUS
 10
153.2582447451
 20
212.6084910356
 11
153.462624078
 21
212.8656543131
  0
LINE
  5
343
100
AcDbEntity
  8
0
100
AcDbLine
 62
7
  6
CONTINUOUS
 10
154.8139103159
 20
213.8566403837
 11
154.6095306339
 21
213.5994779487
  0
LINE
  5
344
100
AcDbEntity
  8
0
100
AcDbLine
 62
7
  6
CONTINUOUS
 10
150.0919086519
 20
207.6318601094
 11
149.950872006
 21
207.4719669361
  0
LINE
  5
345
100
AcDbEntity
  8
0
100
AcDbLine
 62
7
  6
CONTINUOUS
 10
154.2278222612
 20
208.2661804691
 11
153.9349859769
 21
207.9723781097
  0
LINE
  5
346
100
AcDbEntity
  8
0
100
AcDbLine
 62
7
  6
CONTINUOUS
 10
157.1802041133
 20
206.6427438344
 11
157.4150786638
 21
206.8262858451
  0
LINE
  5
347
100
AcDbEntity
  8
0
100
AcDbLine
 62
7
  6
CONTINUOUS
 10
155.8044801159
 20
205.2103703281
 11
155.5696058133
 21
205.0268284199
  0
LINE
  5
348
100
AcDbEntity
  8
0
100
AcDbLine
 62
7
  6
CONTINUOUS
 10
158.1102002819
 20
203.1465700796
 11
158.5219876654
 21
203.4033917852
  0
LINE
  5
349
100
AcDbEntity
  8
0
100
AcDbLine
 62
7
  6
CONTINUOUS
 10
158.369512468
 20
203.7714994747
 11
157.869267846
 21
203.4780395555
  0
LINE
  5
34A
100
AcDbEntity
  8
0
100
AcDbLine
 62
7
  6
CONTINUOUS
 10
151.7155259903
 20
220.3360296296
 11
151.8984965064
 21
219.8942997281
  0
LINE
  5
34B
100
AcDbEntity
  8
0
100
AcDbLine
 62
7
  6
CONTINUOUS
 10
153.7251733721
 20
215.7345052442
 11
153.8776485695
 21
215.3663975546
  0
LINE
  5
34C
100
AcDbEntity
  8
0
100
AcDbLine
 62
7
  6
CONTINUOUS
 10
155.0669569242
 20
212.495153195
 11
155.2194324706
 21
212.1270446629
  0
LINE
  5
34D
100
AcDbEntity
  8
0
100
AcDbLine
 62
7
  6
CONTINUOUS
 10
151.7278490767
 20
221.8074370384
 11
152.0023048508
 21
221.1448421862
  0
LINE
  5
34E
100
AcDbEntity
  8
0
100
AcDbLine
 62
7
  6
CONTINUOUS
 10
154.713338905
 20
214.8500198829
 11
154.8353191327
 21
214.5555335627
  0
LINE
  5
34F
100
AcDbEntity
  8
0
100
AcDbLine
 62
7
  6
CONTINUOUS
 10
156.0551228061
 20
211.6106669911
 11
156.1771026848
 21
211.3161815135
  0
LINE
  5
350
100
AcDbEntity
  8
0
100
AcDbLine
 62
7
  6
CONTINUOUS
 10
156.6498807057
 20
211.4257587953
 11
156.527900129
 21
211.7202459579
  0
LINE
  5
351
100
AcDbEntity
  8
0
100
AcDbLine
 62
7
  6
CONTINUOUS
 10
155.2471068653
 20
214.8123544258
 11
155.1861165769
 21
214.9595980071
  0
LINE
  5
352
100
AcDbEntity
  8
0
100
AcDbLine
 62
7
  6
CONTINUOUS
 10
152.5330440934
 20
221.3646815786
 11
152.2585883193
 21
222.0272764308
  0
LINE
  5
353
100
AcDbEntity
  8
0
100
AcDbLine
 62
7
  6
CONTINUOUS
 10
150.6118536744
 20
226.0028455442
 11
150.4288831583
 21
226.4445754456
  0
LINE
  5
354
100
AcDbEntity
  8
0
100
AcDbLine
 62
7
  6
CONTINUOUS
 10
153.6482071355
 20
207.1635660546
 11
153.7427211034
 21
206.6851962512
  0
LINE
  5
355
100
AcDbEntity
  8
0
100
AcDbLine
 62
7
  6
CONTINUOUS
 10
154.9899913855
 20
203.9242123204
 11
155.0845053535
 21
203.4458425169
  0
LINE
  5
356
100
AcDbEntity
  8
0
100
AcDbLine
 62
7
  6
CONTINUOUS
 10
153.0661880761
 20
213.8227354855
 11
153.1607020518
 21
213.3443656852
  0
LINE
  5
357
100
AcDbEntity
  8
0
100
AcDbLine
 62
7
  6
CONTINUOUS
 10
151.4099511564
 20
213.5679656621
 11
151.3459324994
 21
213.9727132504
  0
LINE
  5
358
100
AcDbEntity
  8
0
100
AcDbLine
 62
7
  6
CONTINUOUS
 10
154.1850038676
 20
206.8683957705
 11
154.1209852106
 21
207.2731433588
  0
LINE
  5
359
100
AcDbEntity
  8
0
100
AcDbLine
 62
7
  6
CONTINUOUS
 10
152.5970629249
 20
220.9599335691
 11
152.5330440934
 21
221.3646815786
  0
LINE
  5
35A
100
AcDbEntity
  8
0
100
AcDbLine
 62
7
  6
CONTINUOUS
 10
153.462624078
 20
212.8656543131
 11
153.4870619615
 21
213.3070418001
  0
LINE
  5
35B
100
AcDbEntity
  8
0
100
AcDbLine
 62
7
  6
CONTINUOUS
 10
155.3171829575
 20
213.8925971386
 11
155.3721158106
 21
214.2603632562
  0
LINE
  5
35C
100
AcDbEntity
  8
0
100
AcDbLine
 62
7
  6
CONTINUOUS
 10
153.7611015826
 20
207.64159345
 11
153.6482071355
 21
207.1635660546
  0
LINE
  5
35D
100
AcDbEntity
  8
0
100
AcDbLine
 62
7
  6
CONTINUOUS
 10
153.1607020518
 20
213.3443656852
 11
153.075274229
 21
213.050220937
  0
LINE
  5
35E
100
AcDbEntity
  8
0
100
AcDbLine
 62
7
  6
CONTINUOUS
 10
154.8993381387
 20
214.1507851319
 11
154.8139103159
 21
213.8566403837
  0
LINE
  5
35F
100
AcDbEntity
  8
0
100
AcDbLine
 62
7
  6
CONTINUOUS
 10
154.1209852106
 20
207.2731433588
 11
154.2064130334
 21
207.567288107
  0
LINE
  5
360
100
AcDbEntity
  8
0
100
AcDbLine
 62
7
  6
CONTINUOUS
 10
150.3597479829
 20
207.2354316424
 11
150.4649079886
 21
207.4819386871
  0
LINE
  5
361
100
AcDbEntity
  8
0
100
AcDbLine
 62
7
  6
CONTINUOUS
 10
155.0853373724
 20
213.451550381
 11
155.3171829575
 21
213.8925971386
  0
LINE
  5
362
100
AcDbEntity
  8
0
100
AcDbLine
 62
7
  6
CONTINUOUS
 10
153.9349859769
 20
207.9723781097
 11
153.7611015826
 21
207.64159345
  0
LINE
  5
363
100
AcDbEntity
  8
0
100
AcDbLine
 62
7
  6
CONTINUOUS
 10
156.4576158942
 20
210.1385769624
 11
156.6894621772
 21
210.5796220349
  0
LINE
  5
364
100
AcDbEntity
  8
0
100
AcDbLine
 62
7
  6
CONTINUOUS
 10
150.2050627185
 20
202.6050168131
 11
152.8464104067
 21
206.2359557615
  0
LINE
  5
365
100
AcDbEntity
  8
0
100
AcDbLine
 62
7
  6
CONTINUOUS
 10
152.2080414487
 20
206.2759574876
 11
149.4782371581
 21
202.6083786148
  0
LINE
  5
366
100
AcDbEntity
  8
0
100
AcDbLine
 62
7
  6
CONTINUOUS
 10
156.1556942169
 20
210.617287492
 11
155.951314535
 21
210.360125057
  0
LINE
  5
367
100
AcDbEntity
  8
0
100
AcDbLine
 62
7
  6
CONTINUOUS
 10
154.2064130334
 20
207.567288107
 11
154.6151717613
 21
208.0816146877
  0
LINE
  5
368
100
AcDbEntity
  8
0
100
AcDbLine
 62
7
  6
CONTINUOUS
 10
157.4364878296
 20
207.5251781816
 11
157.0277282179
 21
207.010853209
  0
LINE
  5
369
100
AcDbEntity
  8
0
100
AcDbLine
 62
7
  6
CONTINUOUS
 10
155.5481965855
 20
204.3279360578
 11
155.9569560113
 21
204.8422609534
  0
LINE
  5
36A
100
AcDbEntity
  8
0
100
AcDbLine
 62
7
  6
CONTINUOUS
 10
155.5696058133
 20
205.0268284199
 11
155.2767695289
 21
204.7330260605
  0
LINE
  5
36B
100
AcDbEntity
  8
0
100
AcDbLine
 62
7
  6
CONTINUOUS
 10
157.4150786638
 20
206.8262858451
 11
157.7079148862
 21
207.1200881789
  0
LINE
  5
36C
100
AcDbEntity
  8
0
100
AcDbLine
 62
7
  6
CONTINUOUS
 10
158.5219876654
 20
203.4033917852
 11
158.7568622159
 21
203.586933796
  0
LINE
  5
36D
100
AcDbEntity
  8
RUNDUNGEN
100
AcDbLine
 62
7
  6
CONTINUOUS
 10
162.2633122823
 20
204.8028369212
 11
155.9497717668
 21
220.0450720604
  0
LINE
  5
36E
100
AcDbEntity
  8
0
100
AcDbLine
 62
7
  6
CONTINUOUS
 10
155.3721158106
 20
214.2603632562
 11
155.2471068653
 21
214.8123544258
  0
LINE
  5
36F
100
AcDbEntity
  8
0
100
AcDbLine
 62
7
  6
CONTINUOUS
 10
156.7443946813
 20
210.947388995
 11
156.6498807057
 21
211.4257587953
  0
LINE
  5
370
100
AcDbEntity
  8
0
100
AcDbLine
 62
7
  6
CONTINUOUS
 10
157.9946929754
 20
207.9289018966
 11
157.9001789997
 21
208.4072716968
  0
LINE
  5
371
100
AcDbEntity
  8
0
100
AcDbLine
 62
7
  6
CONTINUOUS
 10
159.3364772254
 20
204.6895481624
 11
159.2419632498
 21
205.1679179626
  0
LINE
  5
372
100
AcDbEntity
  8
0
100
AcDbLine
 62
7
  6
CONTINUOUS
 10
155.5267881176
 20
203.6290420362
 11
155.4627687626
 21
204.0337913096
  0
LINE
  5
373
100
AcDbEntity
  8
0
100
AcDbLine
 62
7
  6
CONTINUOUS
 10
154.8353191327
 20
214.5555335627
 11
154.8993381387
 21
214.1507851319
  0
LINE
  5
374
100
AcDbEntity
  8
0
100
AcDbLine
 62
7
  6
CONTINUOUS
 10
156.1771026848
 20
211.3161815135
 11
156.2411220398
 21
210.9114322402
  0
LINE
  5
375
100
AcDbEntity
  8
0
100
AcDbLine
 62
7
  6
CONTINUOUS
 10
157.4578962975
 20
208.2240722032
 11
157.5219156525
 21
207.8193229298
  0
LINE
  5
376
100
AcDbEntity
  8
0
100
AcDbLine
 62
7
  6
CONTINUOUS
 10
158.7996805476
 20
204.9847184689
 11
158.8636992045
 21
204.5799708806
  0
LINE
  5
377
100
AcDbEntity
  8
0
100
AcDbLine
 62
7
  6
CONTINUOUS
 10
156.6894621772
 20
210.5796220349
 11
156.7443946813
 21
210.947388995
  0
LINE
  5
378
100
AcDbEntity
  8
0
100
AcDbLine
 62
7
  6
CONTINUOUS
 10
155.1028851347
 20
204.4022414008
 11
154.9899913855
 21
203.9242123204
  0
LINE
  5
379
100
AcDbEntity
  8
0
100
AcDbLine
 62
7
  6
CONTINUOUS
 10
157.8817992494
 20
207.4508728258
 11
157.9946929754
 21
207.9289018966
  0
LINE
  5
37A
100
AcDbEntity
  8
0
100
AcDbLine
 62
7
  6
CONTINUOUS
 10
156.2411220398
 20
210.9114322402
 11
156.1556942169
 21
210.617287492
  0
LINE
  5
37B
100
AcDbEntity
  8
0
100
AcDbLine
 62
7
  6
CONTINUOUS
 10
155.4627687626
 20
204.0337913096
 11
155.5481965855
 21
204.3279360578
  0
LINE
  5
37C
100
AcDbEntity
  8
0
100
AcDbLine
 62
7
  6
CONTINUOUS
 10
157.5219156525
 20
207.8193229298
 11
157.4364878296
 21
207.5251781816
  0
LINE
  5
37D
100
AcDbEntity
  8
0
100
AcDbLine
 62
7
  6
CONTINUOUS
 10
155.2767695289
 20
204.7330260605
 11
155.1028851347
 21
204.4022414008
  0
LINE
  5
37E
100
AcDbEntity
  8
0
100
AcDbLine
 62
7
  6
CONTINUOUS
 10
157.7079148862
 20
207.1200881789
 11
157.8817992494
 21
207.4508728258
  0
LINE
  5
37F
100
AcDbEntity
  8
0
100
AcDbLine
 62
7
  6
CONTINUOUS
 10
158.7782713817
 20
204.2858261324
 11
158.369512468
 21
203.7714994747
  0
LINE
  5
380
100
AcDbEntity
  8
0
100
AcDbLine
 62
7
  6
CONTINUOUS
 10
158.7568622159
 20
203.586933796
 11
159.0496984382
 21
203.8807361297
  0
LINE
  5
381
100
AcDbEntity
  8
RUNDUNGEN
100
AcDbLine
 62
7
  6
CONTINUOUS
 10
163.4051192946
 20
191.2225
 11
163.4051192946
 21
199.0945943763
  0
LINE
  5
382
100
AcDbEntity
  8
0
100
AcDbLine
 62
7
  6
CONTINUOUS
 10
159.2235828015
 20
204.2115207766
 11
159.3364772254
 21
204.6895481624
  0
LINE
  5
383
100
AcDbEntity
  8
0
100
AcDbLine
 62
7
  6
CONTINUOUS
 10
158.8636992045
 20
204.5799708806
 11
158.7782713817
 21
204.2858261324
  0
LINE
  5
384
100
AcDbEntity
  8
0
100
AcDbLine
 62
7
  6
CONTINUOUS
 10
159.0496984382
 20
203.8807361297
 11
159.2235828015
 21
204.2115207766
  0
LINE
  5
385
100
AcDbEntity
  8
RUNDUNGEN
100
AcDbLine
 62
7
  6
CONTINUOUS
 10
288.4125391326
 20
191.2225
 11
258.4125391326
 21
191.2225
  0
LINE
  5
386
100
AcDbEntity
  8
0
100
AcDbLine
 62
7
  6
CONTINUOUS
 10
277.9125391326
 20
202.7306853668
 11
278.5125391326
 21
202.7306853668
  0
LINE
  5
387
100
AcDbEntity
  8
RUNDUNGEN
100
AcDbLine
 62
7
  6
CONTINUOUS
 10
258.4125391326
 20
191.2225
 11
258.4125391326
 21
195.7225
  0
LINE
  5
388
100
AcDbEntity
  8
0
100
AcDbLine
 62
7
  6
CONTINUOUS
 10
277.9125391326
 20
204.7910216306
 11
278.5125391326
 21
204.7910216306
  0
LINE
  5
389
100
AcDbEntity
  8
0
100
AcDbLine
 62
7
  6
CONTINUOUS
 10
277.9125391326
 20
205.0719770368
 11
278.5125391326
 21
205.0719770368
  0
LINE
  5
38A
100
AcDbEntity
  8
0
100
AcDbLine
 62
7
  6
CONTINUOUS
 10
277.9125391326
 20
205.540236047
 11
278.5125391326
 21
205.540236047
  0
LINE
  5
38B
100
AcDbEntity
  8
0
100
AcDbLine
 62
7
  6
CONTINUOUS
 10
277.9125391326
 20
210.4456074192
 11
278.5125391326
 21
210.4456074192
  0
LINE
  5
38C
100
AcDbEntity
  8
0
100
AcDbLine
 62
7
  6
CONTINUOUS
 10
277.9125391326
 20
210.5970601184
 11
278.5125391326
 21
210.5970601184
  0
LINE
  5
38D
100
AcDbEntity
  8
BEZUGSACHSEN
100
AcDbLine
 62
7
  6
CONTINUOUS
 10
265.4125391326
 20
217.5997563367
 11
265.4125391326
 21
242.8235011075
  0
LINE
  5
38E
100
AcDbEntity
  8
0
100
AcDbLine
 62
7
  6
CONTINUOUS
 10
277.9125391326
 20
212.4992049815
 11
278.5125391326
 21
212.4992049815
  0
LINE
  5
38F
100
AcDbEntity
  8
BEZUGSACHSEN
100
AcDbLine
 62
7
  6
CONTINUOUS
 10
268.4125391326
 20
227.0400995402
 11
268.4125391326
 21
231.0400995402
  0
LINE
  5
390
100
AcDbEntity
  8
BEZUGSACHSEN
100
AcDbLine
 62
7
  6
CONTINUOUS
 10
268.4125391326
 20
236.2745468261
 11
268.4125391326
 21
240.2745468261
  0
LINE
  5
391
100
AcDbEntity
  8
BEZUGSACHSEN
100
AcDbLine
 62
7
  6
CONTINUOUS
 10
268.4125391326
 20
241.3664155156
 11
268.4125391326
 21
245.3664155156
  0
LINE
  5
392
100
AcDbEntity
  8
RUNDUNGEN
100
AcDbLine
 62
7
  6
CONTINUOUS
 10
268.9125391326
 20
197.4184419458
 11
268.9125391326
 21
199.0945943763
  0
LINE
  5
393
100
AcDbEntity
  8
RUNDUNGEN
100
AcDbLine
 62
7
  6
CONTINUOUS
 10
268.9125391326
 20
199.1266249683
 11
268.9125391326
 21
204.8028369212
  0
LINE
  5
394
100
AcDbEntity
  8
BEZUGSACHSEN
100
AcDbLine
 62
7
  6
CONTINUOUS
 10
268.9125391326
 20
204.8028369212
 11
268.9125391326
 21
248.4725
  0
LINE
  5
395
100
AcDbEntity
  8
RUNDUNGEN
100
AcDbLine
 62
7
  6
CONTINUOUS
 10
258.4125391326
 20
195.7225
 11
261.6936341903
 21
204.7372345823
  0
LINE
  5
396
100
AcDbEntity
  8
BEZUGSACHSEN
100
AcDbLine
 62
7
  6
CONTINUOUS
 10
260.042105854
 20
200.1996977706
 11
264.5079284444
 21
212.4694444969
  0
LINE
  5
397
100
AcDbEntity
  8
0
100
AcDbLine
 62
7
  6
CONTINUOUS
 10
277.9125391326
 20
213.8909987684
 11
278.5125391326
 21
213.8909987684
  0
LINE
  5
398
100
AcDbEntity
  8
0
100
AcDbLine
 62
7
  6
CONTINUOUS
 10
277.9125391326
 20
216.6745863421
 11
278.5125391326
 21
216.6745863421
  0
LINE
  5
399
100
AcDbEntity
  8
TEIL_STARTBEZUEGE
100
AcDbLine
 62
7
  6
CENTER
 10
273.4125391326
 20
188.2225
 11
273.4125391326
 21
251.4725
  0
LINE
  5
39A
100
AcDbEntity
  8
0
100
AcDbLine
 62
7
  6
CONTINUOUS
 10
277.9125391326
 20
218.066380129
 11
278.5125391326
 21
218.066380129
  0
LINE
  5
39B
100
AcDbEntity
  8
0
100
AcDbLine
 62
7
  6
CONTINUOUS
 10
277.9125391326
 20
218.6987794491
 11
278.5125391326
 21
218.6987794491
  0
LINE
  5
39C
100
AcDbEntity
  8
0
100
AcDbLine
 62
7
  6
CONTINUOUS
 10
277.9125391326
 20
218.9797343942
 11
278.5125391326
 21
218.9797343942
  0
LINE
  5
39D
100
AcDbEntity
  8
0
100
AcDbLine
 62
7
  6
CONTINUOUS
 10
277.9125391326
 20
219.447992636
 11
278.5125391326
 21
219.447992636
  0
LINE
  5
39E
100
AcDbEntity
  8
RUNDUNGEN
100
AcDbLine
 62
7
  6
CONTINUOUS
 10
277.9125391326
 20
197.4184419458
 11
277.9125391326
 21
199.0945943763
  0
LINE
  5
39F
100
AcDbEntity
  8
RUNDUNGEN
100
AcDbLine
 62
7
  6
CONTINUOUS
 10
277.9125391326
 20
199.1266249683
 11
277.9125391326
 21
204.8028369212
  0
LINE
  5
3A0
100
AcDbEntity
  8
BEZUGSACHSEN
100
AcDbLine
 62
7
  6
CONTINUOUS
 10
277.9125391326
 20
204.8028369212
 11
277.9125391326
 21
248.4725
  0
LINE
  5
3A1
100
AcDbEntity
  8
0
100
AcDbLine
 62
7
  6
CONTINUOUS
 10
277.9125391326
 20
224.3017059325
 11
278.5125391326
 21
224.3017059325
  0
LINE
  5
3A2
100
AcDbEntity
  8
BEZUGSACHSEN
100
AcDbLine
 62
7
  6
CONTINUOUS
 10
278.4125391326
 20
227.0400995402
 11
278.4125391326
 21
231.0400995402
  0
LINE
  5
3A3
100
AcDbEntity
  8
BEZUGSACHSEN
100
AcDbLine
 62
7
  6
CONTINUOUS
 10
278.4125391326
 20
236.2745468261
 11
278.4125391326
 21
240.2745468261
  0
LINE
  5
3A4
100
AcDbEntity
  8
BEZUGSACHSEN
100
AcDbLine
 62
7
  6
CONTINUOUS
 10
278.4125391326
 20
241.3664155156
 11
278.4125391326
 21
245.3664155156
  0
LINE
  5
3A5
100
AcDbEntity
  8
0
100
AcDbLine
 62
7
  6
CONTINUOUS
 10
278.5125391326
 20
224.3014075573
 11
278.5125391326
 21
210.5973856186
  0
LINE
  5
3A6
100
AcDbEntity
  8
0
100
AcDbLine
 62
7
  6
CONTINUOUS
 10
278.5125391326
 20
210.4454050749
 11
278.5125391326
 21
202.7306853668
  0
LINE
  5
3A7
100
AcDbEntity
  8
RUNDUNGEN
100
AcDbLine
 62
7
  6
CONTINUOUS
 10
288.4125391326
 20
195.7225
 11
285.1314440748
 21
204.7372345823
  0
LINE
  5
3A8
100
AcDbEntity
  8
BEZUGSACHSEN
100
AcDbLine
 62
7
  6
CONTINUOUS
 10
286.7829724112
 20
200.1996977706
 11
282.3171498208
 21
212.4694444969
  0
LWPOLYLINE
  5
3A9
100
AcDbEntity
  8
RUNDUNGEN
100
AcDbPolyline
 62
7
  6
CONTINUOUS
 90
15
 70
0
 10
281.412537858
 20
242.8243859003
 10
281.4060491567
 20
242.9993719322
 10
281.3661022298
 20
243.2948347581
 10
281.2903874255
 20
243.5819748373
 10
281.180508062
 20
243.8572868056
 10
281.0386807308
 20
244.1161732599
 10
280.8663750632
 20
244.3566937371
 10
280.6652249487
 20
244.5761311057
 10
280.4379962039
 20
244.77093937
 10
280.1882207587
 20
244.9376468602
 10
279.9195061261
 20
245.0737485952
 10
279.6363094822
 20
245.1768492463
 10
279.3425216139
 20
245.2456020324
 10
279.0419223136
 20
245.2789476105
 10
278.9125391117
 20
245.282270319
  0
LINE
  5
3AA
100
AcDbEntity
  8
BEZUGSACHSEN
100
AcDbLine
 62
7
  6
CONTINUOUS
 10
281.4125391326
 20
217.5997563367
 11
281.4125391326
 21
234.8186113845
  0
LINE
  5
3AB
100
AcDbEntity
  8
RUNDUNGEN
100
AcDbLine
 62
7
  6
CONTINUOUS
 10
281.4125391326
 20
234.8186113845
 11
281.4125391326
 21
242.8235011075
  0
LINE
  5
3AC
100
AcDbEntity
  8
BEZUGSACHSEN
100
AcDbLine
 62
7
  6
CONTINUOUS
 10
278.4125391326
 20
227.0400995402
 11
277.9125391326
 21
227.0400995402
  0
LINE
  5
3AD
100
AcDbEntity
  8
BEZUGSACHSEN
100
AcDbLine
 62
7
  6
CONTINUOUS
 10
268.9125391326
 20
227.0400995402
 11
268.4125391326
 21
227.0400995402
  0
LINE
  5
3AE
100
AcDbEntity
  8
BEZUGSACHSEN
100
AcDbLine
 62
7
  6
CONTINUOUS
 10
278.4125391326
 20
231.0400995402
 11
277.9125391326
 21
231.0400995402
  0
LINE
  5
3AF
100
AcDbEntity
  8
BEZUGSACHSEN
100
AcDbLine
 62
7
  6
CONTINUOUS
 10
268.9125391326
 20
231.0400995402
 11
268.4125391326
 21
231.0400995402
  0
LINE
  5
3B0
100
AcDbEntity
  8
RUNDUNGEN
100
AcDbLine
 62
7
  6
CONTINUOUS
 10
288.4125391326
 20
195.7225
 11
288.4125391326
 21
191.2225
  0
LINE
  5
3B1
100
AcDbEntity
  8
BEZUGSACHSEN
100
AcDbLine
 62
7
  6
CONTINUOUS
 10
278.4125391326
 20
236.2745468261
 11
277.9125391326
 21
236.2745468261
  0
LINE
  5
3B2
100
AcDbEntity
  8
BEZUGSACHSEN
100
AcDbLine
 62
7
  6
CONTINUOUS
 10
268.9125391326
 20
236.2745468261
 11
268.4125391326
 21
236.2745468261
  0
LINE
  5
3B3
100
AcDbEntity
  8
BEZUGSACHSEN
100
AcDbLine
 62
7
  6
CONTINUOUS
 10
278.4125391326
 20
240.2745468261
 11
277.9125391326
 21
240.2745468261
  0
LINE
  5
3B4
100
AcDbEntity
  8
BEZUGSACHSEN
100
AcDbLine
 62
7
  6
CONTINUOUS
 10
268.9125391326
 20
240.2745468261
 11
268.4125391326
 21
240.2745468261
  0
LINE
  5
3B5
100
AcDbEntity
  8
BEZUGSACHSEN
100
AcDbLine
 62
7
  6
CONTINUOUS
 10
278.4125391326
 20
241.3664155156
 11
277.9125391326
 21
241.3664155156
  0
LINE
  5
3B6
100
AcDbEntity
  8
BEZUGSACHSEN
100
AcDbLine
 62
7
  6
CONTINUOUS
 10
268.9125391326
 20
241.3664155156
 11
268.4125391326
 21
241.3664155156
  0
LWPOLYLINE
  5
3B7
100
AcDbEntity
  8
BEZUGSACHSEN
100
AcDbPolyline
 62
7
  6
CONTINUOUS
 90
15
 70
0
 10
267.9125391535
 20
245.2822703191
 10
267.7830502931
 20
245.2789422074
 10
267.4823744484
 20
245.2455707348
 10
267.1885398376
 20
245.1767810217
 10
266.905333524
 20
245.0736451967
 10
266.6366468875
 20
244.9375237966
 10
266.3869314965
 20
244.770825255
 10
266.1597971341
 20
244.5760767433
 10
265.9587293136
 20
244.3567259064
 10
265.7864745831
 20
244.1162957536
 10
265.6446566876
 20
243.8574701711
 10
265.534740308
 20
243.5821246205
 10
265.4589925181
 20
243.2949176385
 10
265.4190319248
 20
242.9994105543
 10
265.4125404083
 20
242.8243865875
  0
LINE
  5
3B8
100
AcDbEntity
  8
BEZUGSACHSEN
100
AcDbLine
 62
7
  6
CONTINUOUS
 10
267.912539148
 20
245.2823050073
 11
268.4125391326
 21
245.2823050073
  0
LINE
  5
3B9
100
AcDbEntity
  8
RUNDUNGEN
100
AcDbLine
 62
7
  6
CONTINUOUS
 10
278.4125391326
 20
245.2823050073
 11
278.9125391172
 21
245.2823050073
  0
LINE
  5
3BA
100
AcDbEntity
  8
BEZUGSACHSEN
100
AcDbLine
 62
7
  6
CONTINUOUS
 10
278.4125391326
 20
245.3664155156
 11
277.9125391326
 21
245.3664155156
  0
LINE
  5
3BB
100
AcDbEntity
  8
BEZUGSACHSEN
100
AcDbLine
 62
7
  6
CONTINUOUS
 10
268.9125391326
 20
245.3664155156
 11
268.4125391326
 21
245.3664155156
  0
LINE
  5
3BC
100
AcDbEntity
  8
0
100
AcDbLine
 62
7
  6
CONTINUOUS
 10
268.9125391326
 20
248.4725
 11
277.9125391326
 21
248.4725
  0
LINE
  5
3BD
100
AcDbEntity
  8
RUNDUNGEN
100
AcDbLine
 62
7
  6
CONTINUOUS
 10
63.4051192946
 20
98.7391076516
 11
63.4051192946
 21
124.7391076516
  0
LINE
  5
3BE
100
AcDbEntity
  8
0
100
AcDbLine
 62
7
  6
CONTINUOUS
 10
69.2976193655
 20
107.2391076516
 11
69.2976193655
 21
106.6391076516
  0
LINE
  5
3BF
100
AcDbEntity
  8
0
100
AcDbLine
 62
7
  6
CONTINUOUS
 10
72.0945705616
 20
107.2391076516
 11
72.0945705616
 21
106.6391076516
  0
LINE
  5
3C0
100
AcDbEntity
  8
0
100
AcDbLine
 62
7
  6
CONTINUOUS
 10
72.6539608008
 20
107.2391076516
 11
72.6539608008
 21
106.6391076516
  0
LINE
  5
3C1
100
AcDbEntity
  8
0
100
AcDbLine
 62
7
  6
CONTINUOUS
 10
73.7727412793
 20
107.2391076516
 11
73.7727412793
 21
106.6391076516
  0
LINE
  5
3C2
100
AcDbEntity
  8
0
100
AcDbLine
 62
7
  6
CONTINUOUS
 10
74.3321315185
 20
107.2391076516
 11
74.3321315185
 21
106.6391076516
  0
LINE
  5
3C3
100
AcDbEntity
  8
0
100
AcDbLine
 62
7
  6
CONTINUOUS
 10
74.9167213099
 20
107.2391076516
 11
74.9167213099
 21
106.6391076516
  0
LINE
  5
3C4
100
AcDbEntity
  8
BEZUGSACHSEN
100
AcDbLine
 62
7
  6
CONTINUOUS
 10
78.0464830853
 20
106.7391076516
 11
78.0464830853
 21
107.2391076516
  0
LINE
  5
3C5
100
AcDbEntity
  8
BEZUGSACHSEN
100
AcDbLine
 62
7
  6
CONTINUOUS
 10
78.0464830853
 20
116.2391076516
 11
78.0464830853
 21
116.7391076516
  0
LINE
  5
3C6
100
AcDbEntity
  8
BEZUGSACHSEN
100
AcDbLine
 62
7
  6
CONTINUOUS
 10
82.0464830853
 20
106.7391076516
 11
82.0464830853
 21
107.2391076516
  0
LINE
  5
3C7
100
AcDbEntity
  8
BEZUGSACHSEN
100
AcDbLine
 62
7
  6
CONTINUOUS
 10
82.0464830853
 20
116.2391076516
 11
82.0464830853
 21
116.7391076516
  0
LWPOLYLINE
  5
3C8
100
AcDbEntity
  8
BEZUGSACHSEN
100
AcDbPolyline
 62
7
  6
CONTINUOUS
 90
16
 70
0
 10
83.3453145437
 20
106.0769086907
 10
83.3577635199
 20
105.8272519599
 10
83.3961512276
 20
105.5743414842
 10
83.4568055771
 20
105.3371847069
 10
83.5371791685
 20
105.1144559468
 10
83.6352251738
 20
104.9058392889
 10
83.7502389474
 20
104.7097347099
 10
83.8797948116
 20
104.5282313276
 10
84.0218946148
 20
104.3620892307
 10
84.1743255394
 20
104.2120213622
 10
84.3350504161
 20
104.0782653479
 10
84.5015700194
 20
103.9611458598
 10
84.6718748268
 20
103.8603042303
 10
84.843015741
 20
103.7755940761
 10
85.0123544529
 20
103.7062090159
 10
85.035823982
 20
103.6976335473
  0
LINE
  5
3C9
100
AcDbEntity
  8
0
100
AcDbLine
 62
7
  6
CONTINUOUS
 10
83.3370149049
 20
107.2391076516
 11
83.3370149049
 21
106.6391076516
  0
LINE
  5
3CA
100
AcDbEntity
  8
BEZUGSACHSEN
100
AcDbLine
 62
7
  6
CONTINUOUS
 10
83.3453142873
 20
106.0768954383
 11
83.3453142873
 21
106.6391076516
  0
LINE
  5
3CB
100
AcDbEntity
  8
BEZUGSACHSEN
100
AcDbLine
 62
7
  6
CONTINUOUS
 10
83.3453142873
 20
116.2391076516
 11
83.3453142873
 21
117.401319865
  0
LINE
  5
3CC
100
AcDbEntity
  8
BEZUGSACHSEN
100
AcDbLine
 62
7
  6
CONTINUOUS
 10
88.3530724685
 20
106.7391076516
 11
88.3530724685
 21
107.2391076516
  0
LINE
  5
3CD
100
AcDbEntity
  8
BEZUGSACHSEN
100
AcDbLine
 62
7
  6
CONTINUOUS
 10
88.3530724685
 20
116.2391076516
 11
88.3530724685
 21
116.7391076516
  0
LINE
  5
3CE
100
AcDbEntity
  8
BEZUGSACHSEN
100
AcDbLine
 62
7
  6
CONTINUOUS
 10
85.6710582955
 20
120.1923457861
 11
85.6484491852
 21
120.1724791185
  0
LINE
  5
3CF
100
AcDbEntity
  8
BEZUGSACHSEN
100
AcDbLine
 62
7
  6
CONTINUOUS
 10
85.6482745726
 20
120.172325865
 11
85.5565939254
 21
120.0947406581
  0
LINE
  5
3D0
100
AcDbEntity
  8
BEZUGSACHSEN
100
AcDbLine
 62
7
  6
CONTINUOUS
 10
85.5566537787
 20
103.383425949
 11
85.6482726418
 21
103.3058911353
  0
LINE
  5
3D1
100
AcDbEntity
  8
BEZUGSACHSEN
100
AcDbLine
 62
7
  6
CONTINUOUS
 10
85.6482727398
 20
103.3058912468
 11
85.6710582955
 21
103.2858695172
  0
LINE
  5
3D2
100
AcDbEntity
  8
BEZUGSACHSEN
100
AcDbLine
 62
7
  6
CONTINUOUS
 10
92.3530724685
 20
106.7391076516
 11
92.3530724685
 21
107.2391076516
  0
LINE
  5
3D3
100
AcDbEntity
  8
BEZUGSACHSEN
100
AcDbLine
 62
7
  6
CONTINUOUS
 10
92.3530724685
 20
116.2391076516
 11
92.3530724685
 21
116.7391076516
  0
LWPOLYLINE
  5
3D4
100
AcDbEntity
  8
BEZUGSACHSEN
100
AcDbPolyline
 62
7
  6
CONTINUOUS
 90
6
 70
0
 10
85.5565939254
 20
120.0947406581
 10
85.4344583794
 20
120.0008400796
 10
85.3215000807
 20
119.9241439381
 10
85.215490675
 20
119.861770274
 10
85.1151550282
 20
119.8122609106
 10
85.0406178175
 20
119.7823081452
  0
LWPOLYLINE
  5
3D5
100
AcDbEntity
  8
BEZUGSACHSEN
100
AcDbPolyline
 62
7
  6
CONTINUOUS
 90
16
 70
0
 10
85.035882222
 20
119.7806027669
 10
85.0129164054
 20
119.7722145012
 10
84.8440713577
 20
119.703096432
 10
84.6733318668
 20
119.6186993847
 10
84.5033782597
 20
119.518235354
 10
84.3371893569
 20
119.4015840065
 10
84.1767508336
 20
119.2683848147
 10
84.024543688
 20
119.1189602435
 10
83.8826055823
 20
118.9535677037
 10
83.7531415141
 20
118.7729430721
 10
83.6381160992
 20
118.5778426583
 10
83.539928779
 20
118.3703566189
 10
83.459236079
 20
118.1488658052
 10
83.3980370221
 20
117.9130135506
 10
83.3588377522
 20
117.6614838327
 10
83.3453145438
 20
117.4013066
  0
LINE
  5
3D6
100
AcDbEntity
  8
BEZUGSACHSEN
100
AcDbLine
 62
7
  6
CONTINUOUS
 10
85.0406189242
 20
119.7823050906
 11
85.035882222
 21
119.7806027669
  0
LINE
  5
3D7
100
AcDbEntity
  8
BEZUGSACHSEN
100
AcDbLine
 62
7
  6
CONTINUOUS
 10
85.0406179582
 20
103.6959105585
 11
85.035823982
 21
103.6976335473
  0
LWPOLYLINE
  5
3D8
100
AcDbEntity
  8
BEZUGSACHSEN
100
AcDbPolyline
 62
7
  6
CONTINUOUS
 90
6
 70
0
 10
85.0406168514
 20
103.695907504
 10
85.1151461018
 20
103.6659583442
 10
85.2154903856
 20
103.616445186
 10
85.3215421139
 20
103.5540447303
 10
85.4345358106
 20
103.477319226
 10
85.5566537787
 20
103.383425949
  0
LINE
  5
3D9
100
AcDbEntity
  8
BEZUGSACHSEN
100
AcDbLine
 62
7
  6
CONTINUOUS
 10
99.7475277898
 20
106.7391076516
 11
99.7475277898
 21
107.2391076516
  0
LINE
  5
3DA
100
AcDbEntity
  8
BEZUGSACHSEN
100
AcDbLine
 62
7
  6
CONTINUOUS
 10
99.7475277898
 20
116.2391076516
 11
99.7475277898
 21
116.7391076516
  0
LINE
  5
3DB
100
AcDbEntity
  8
RUNDUNGEN
100
AcDbLine
 62
7
  6
CONTINUOUS
 10
65.4051192946
 20
96.7391076516
 11
161.4051192946
 21
96.7391076516
  0
LINE
  5
3DC
100
AcDbEntity
  8
BEZUGSACHSEN
100
AcDbLine
 62
7
  6
CONTINUOUS
 10
103.7475277898
 20
106.7391076516
 11
103.7475277898
 21
107.2391076516
  0
LINE
  5
3DD
100
AcDbEntity
  8
BEZUGSACHSEN
100
AcDbLine
 62
7
  6
CONTINUOUS
 10
103.7475277898
 20
116.2391076516
 11
103.7475277898
 21
116.7391076516
  0
LINE
  5
3DE
100
AcDbEntity
  8
BEZUGSACHSEN
100
AcDbLine
 62
7
  6
CONTINUOUS
 10
86.788810003
 20
103.7391076516
 11
94.0796059602
 21
103.7391076516
  0
LINE
  5
3DF
100
AcDbEntity
  8
RUNDUNGEN
100
AcDbLine
 62
7
  6
CONTINUOUS
 10
94.0796059602
 20
103.7391076516
 11
140.0214285862
 21
103.7391076516
  0
LINE
  5
3E0
100
AcDbEntity
  8
0
100
AcDbLine
 62
7
  6
CONTINUOUS
 10
159.3364772254
 20
106.6391076516
 11
145.8714068211
 21
106.6391076516
  0
LINE
  5
3E1
100
AcDbEntity
  8
0
100
AcDbLine
 62
7
  6
CONTINUOUS
 10
83.3367165297
 20
106.6391076516
 11
69.2976193655
 21
106.6391076516
  0
LINE
  5
3E2
100
AcDbEntity
  8
0
100
AcDbLine
 62
7
  6
CONTINUOUS
 10
148.763755504
 20
106.7391076516
 11
144.763755504
 21
106.7391076516
  0
LINE
  5
3E3
100
AcDbEntity
  8
0
100
AcDbLine
 62
7
  6
CONTINUOUS
 10
138.4571661207
 20
106.7391076516
 11
134.4571661207
 21
106.7391076516
  0
LINE
  5
3E4
100
AcDbEntity
  8
0
100
AcDbLine
 62
7
  6
CONTINUOUS
 10
127.0627107994
 20
106.7391076516
 11
123.0627107994
 21
106.7391076516
  0
LINE
  5
3E5
100
AcDbEntity
  8
BEZUGSACHSEN
100
AcDbLine
 62
7
  6
CONTINUOUS
 10
78.0464830853
 20
106.7391076516
 11
82.0464830853
 21
106.7391076516
  0
LINE
  5
3E6
100
AcDbEntity
  8
BEZUGSACHSEN
100
AcDbLine
 62
7
  6
CONTINUOUS
 10
88.3530724685
 20
106.7391076516
 11
92.3530724685
 21
106.7391076516
  0
LINE
  5
3E7
100
AcDbEntity
  8
BEZUGSACHSEN
100
AcDbLine
 62
7
  6
CONTINUOUS
 10
99.7475277898
 20
106.7391076516
 11
103.7475277898
 21
106.7391076516
  0
LINE
  5
3E8
100
AcDbEntity
  8
RUNDUNGEN
100
AcDbLine
 62
7
  6
CONTINUOUS
 10
163.4049825919
 20
107.2391076516
 11
155.9497717668
 21
107.2391076516
  0
LINE
  5
3E9
100
AcDbEntity
  8
RUNDUNGEN
100
AcDbLine
 62
7
  6
CONTINUOUS
 10
63.4052559973
 20
107.2391076516
 11
64.5469263069
 21
107.2391076516
  0
LINE
  5
3EA
100
AcDbEntity
  8
BEZUGSACHSEN
100
AcDbLine
 62
7
  6
CONTINUOUS
 10
64.5469263069
 20
107.2391076516
 11
155.9497717668
 21
107.2391076516
  0
LINE
  5
3EB
100
AcDbEntity
  8
TEIL_STARTBEZUEGE
100
AcDbLine
 62
7
  6
CENTER
 10
113.4051192946
 20
93.2764873265
 11
113.4051192946
 21
130.201728024
  0
LINE
  5
3EC
100
AcDbEntity
  8
TEIL_STARTBEZUEGE
100
AcDbLine
 62
7
  6
CENTER
 10
166.4051192946
 20
111.7391076516
 11
60.4051192946
 21
111.7391076516
  0
LINE
  5
3ED
100
AcDbEntity
  8
RUNDUNGEN
100
AcDbLine
 62
7
  6
CONTINUOUS
 10
163.4049825919
 20
116.2391076516
 11
162.2633122823
 21
116.2391076516
  0
LINE
  5
3EE
100
AcDbEntity
  8
RUNDUNGEN
100
AcDbLine
 62
7
  6
CONTINUOUS
 10
63.4052559973
 20
116.2391076516
 11
64.5469263069
 21
116.2391076516
  0
LINE
  5
3EF
100
AcDbEntity
  8
BEZUGSACHSEN
100
AcDbLine
 62
7
  6
CONTINUOUS
 10
64.5469263069
 20
116.2391076516
 11
162.2633122823
 21
116.2391076516
  0
LINE
  5
3F0
100
AcDbEntity
  8
BEZUGSACHSEN
100
AcDbLine
 62
7
  6
CONTINUOUS
 10
138.4571661207
 20
116.7391076516
 11
134.4571661207
 21
116.7391076516
  0
LINE
  5
3F1
100
AcDbEntity
  8
BEZUGSACHSEN
100
AcDbLine
 62
7
  6
CONTINUOUS
 10
127.0627107994
 20
116.7391076516
 11
123.0627107994
 21
116.7391076516
  0
LINE
  5
3F2
100
AcDbEntity
  8
BEZUGSACHSEN
100
AcDbLine
 62
7
  6
CONTINUOUS
 10
78.0464830853
 20
116.7391076516
 11
82.0464830853
 21
116.7391076516
  0
LINE
  5
3F3
100
AcDbEntity
  8
BEZUGSACHSEN
100
AcDbLine
 62
7
  6
CONTINUOUS
 10
88.3530724685
 20
116.7391076516
 11
92.3530724685
 21
116.7391076516
  0
LINE
  5
3F4
100
AcDbEntity
  8
BEZUGSACHSEN
100
AcDbLine
 62
7
  6
CONTINUOUS
 10
99.7475277898
 20
116.7391076516
 11
103.7475277898
 21
116.7391076516
  0
LINE
  5
3F5
100
AcDbEntity
  8
0
100
AcDbLine
 62
7
  6
CONTINUOUS
 10
144.7639424849
 20
116.7391076516
 11
148.7635551889
 21
116.7391076516
  0
LINE
  5
3F6
100
AcDbEntity
  8
0
100
AcDbLine
 62
7
  6
CONTINUOUS
 10
141.8648916021
 20
116.8391076516
 11
157.1513780399
 21
116.8391076516
  0
LINE
  5
3F7
100
AcDbEntity
  8
BEZUGSACHSEN
100
AcDbLine
 62
7
  6
CONTINUOUS
 10
123.0627107994
 20
116.7391076516
 11
123.0627107994
 21
116.2391076516
  0
LINE
  5
3F8
100
AcDbEntity
  8
0
100
AcDbLine
 62
7
  6
CONTINUOUS
 10
123.0627107994
 20
107.2391076516
 11
123.0627107994
 21
106.7391076516
  0
LINE
  5
3F9
100
AcDbEntity
  8
BEZUGSACHSEN
100
AcDbLine
 62
7
  6
CONTINUOUS
 10
86.788810003
 20
119.7391076516
 11
140.0214285862
 21
119.7391076516
  0
LINE
  5
3FA
100
AcDbEntity
  8
BEZUGSACHSEN
100
AcDbLine
 62
7
  6
CONTINUOUS
 10
127.0627107994
 20
116.7391076516
 11
127.0627107994
 21
116.2391076516
  0
LINE
  5
3FB
100
AcDbEntity
  8
0
100
AcDbLine
 62
7
  6
CONTINUOUS
 10
127.0627107994
 20
107.2391076516
 11
127.0627107994
 21
106.7391076516
  0
LWPOLYLINE
  5
3FC
100
AcDbEntity
  8
RUNDUNGEN
100
AcDbPolyline
 62
7
  6
CONTINUOUS
 90
16
 70
0
 10
141.7743563672
 20
103.6976125364
 10
141.7973221838
 20
103.7060008021
 10
141.9661672316
 20
103.7751188713
 10
142.1369067224
 20
103.8595159186
 10
142.3068603295
 20
103.9599799493
 10
142.4730492323
 20
104.0766312968
 10
142.6334877556
 20
104.2098304886
 10
142.7856949012
 20
104.3592550598
 10
142.9276330069
 20
104.5246475995
 10
143.0570970751
 20
104.7052722312
 10
143.17212249
 20
104.900372645
 10
143.2703098102
 20
105.1078586844
 10
143.3510025102
 20
105.3293494981
 10
143.4122015671
 20
105.5652017527
 10
143.451400837
 20
105.8167314706
 10
143.4649240454
 20
106.0769087033
  0
LINE
  5
3FD
100
AcDbEntity
  8
RUNDUNGEN
100
AcDbLine
 62
7
  6
CONTINUOUS
 10
141.769619665
 20
103.6959102127
 11
141.7743563672
 21
103.6976125364
  0
LINE
  5
3FE
100
AcDbEntity
  8
RUNDUNGEN
100
AcDbLine
 62
7
  6
CONTINUOUS
 10
161.4051192946
 20
126.7391076516
 11
65.4051192946
 21
126.7391076516
  0
LINE
  5
3FF
100
AcDbEntity
  8
BEZUGSACHSEN
100
AcDbLine
 62
7
  6
CONTINUOUS
 10
141.769620631
 20
119.7823047447
 11
141.7744146072
 21
119.780581756
  0
LINE
  5
400
100
AcDbEntity
  8
BEZUGSACHSEN
100
AcDbLine
 62
7
  6
CONTINUOUS
 10
134.4571661207
 20
116.7391076516
 11
134.4571661207
 21
116.2391076516
  0
LINE
  5
401
100
AcDbEntity
  8
0
100
AcDbLine
 62
7
  6
CONTINUOUS
 10
134.4571661207
 20
107.2391076516
 11
134.4571661207
 21
106.7391076516
  0
LWPOLYLINE
  5
402
100
AcDbEntity
  8
BEZUGSACHSEN
100
AcDbPolyline
 62
7
  6
CONTINUOUS
 90
6
 70
0
 10
141.7696217378
 20
119.7823077993
 10
141.6950924874
 20
119.8122569591
 10
141.5947482036
 20
119.8617701173
 10
141.4886964753
 20
119.924170573
 10
141.3757027786
 20
120.0008960773
 10
141.2535848105
 20
120.0947893543
  0
LINE
  5
403
100
AcDbEntity
  8
RUNDUNGEN
100
AcDbLine
 62
7
  6
CONTINUOUS
 10
141.1389897695
 20
103.2857021255
 11
141.161789404
 21
103.3057361848
  0
LINE
  5
404
100
AcDbEntity
  8
RUNDUNGEN
100
AcDbLine
 62
7
  6
CONTINUOUS
 10
141.1619640166
 20
103.3058894383
 11
141.2536446638
 21
103.3834746452
  0
LWPOLYLINE
  5
405
100
AcDbEntity
  8
RUNDUNGEN
100
AcDbPolyline
 62
7
  6
CONTINUOUS
 90
6
 70
0
 10
141.2536446638
 20
103.3834746452
 10
141.3757802099
 20
103.4773752237
 10
141.4887385085
 20
103.5540713652
 10
141.5947479142
 20
103.6164450293
 10
141.6950835611
 20
103.6659543926
 10
141.7696207717
 20
103.6959071581
  0
LINE
  5
406
100
AcDbEntity
  8
BEZUGSACHSEN
100
AcDbLine
 62
7
  6
CONTINUOUS
 10
141.2535848105
 20
120.0947893543
 11
141.1619659474
 21
120.172324168
  0
LINE
  5
407
100
AcDbEntity
  8
BEZUGSACHSEN
100
AcDbLine
 62
7
  6
CONTINUOUS
 10
141.161789404
 20
120.1724791185
 11
141.1391802937
 21
120.1923457861
  0
LINE
  5
408
100
AcDbEntity
  8
BEZUGSACHSEN
100
AcDbLine
 62
7
  6
CONTINUOUS
 10
138.4571661207
 20
116.7391076516
 11
138.4571661207
 21
116.2391076516
  0
LINE
  5
409
100
AcDbEntity
  8
0
100
AcDbLine
 62
7
  6
CONTINUOUS
 10
138.4571661207
 20
107.2391076516
 11
138.4571661207
 21
106.7391076516
  0
LWPOLYLINE
  5
40A
100
AcDbEntity
  8
BEZUGSACHSEN
100
AcDbPolyline
 62
7
  6
CONTINUOUS
 90
16
 70
0
 10
143.4649240455
 20
117.4013066126
 10
143.4524750693
 20
117.6509633434
 10
143.4140873616
 20
117.9038738191
 10
143.3534330121
 20
118.1410305964
 10
143.2730594207
 20
118.3637593565
 10
143.1750134154
 20
118.5723760144
 10
143.0599996418
 20
118.7684805934
 10
142.9304437776
 20
118.9499839757
 10
142.7883439744
 20
119.1161260726
 10
142.6359130498
 20
119.2661939411
 10
142.4751881731
 20
119.3999499554
 10
142.3086685698
 20
119.5170694435
 10
142.1383637625
 20
119.617911073
 10
141.9672228482
 20
119.7026212272
 10
141.7978841364
 20
119.7720062874
 10
141.7744146072
 20
119.780581756
  0
LINE
  5
40B
100
AcDbEntity
  8
0
100
AcDbLine
 62
7
  6
CONTINUOUS
 10
141.8648916021
 20
116.2391076516
 11
141.8648916021
 21
116.8391076516
  0
LINE
  5
40C
100
AcDbEntity
  8
BEZUGSACHSEN
100
AcDbLine
 62
7
  6
CONTINUOUS
 10
143.4649243019
 20
117.401319865
 11
143.4649243019
 21
116.8391076516
  0
LINE
  5
40D
100
AcDbEntity
  8
RUNDUNGEN
100
AcDbLine
 62
7
  6
CONTINUOUS
 10
143.4649243019
 20
107.2391076516
 11
143.4649243019
 21
106.0768954383
  0
LINE
  5
40E
100
AcDbEntity
  8
BEZUGSACHSEN
100
AcDbLine
 62
7
  6
CONTINUOUS
 10
144.763755504
 20
116.7391076516
 11
144.763755504
 21
116.2391076516
  0
LINE
  5
40F
100
AcDbEntity
  8
0
100
AcDbLine
 62
7
  6
CONTINUOUS
 10
144.763755504
 20
107.2391076516
 11
144.763755504
 21
106.7391076516
  0
LINE
  5
410
100
AcDbEntity
  8
0
100
AcDbLine
 62
7
  6
CONTINUOUS
 10
145.8714068211
 20
106.7391076516
 11
145.8714068211
 21
106.6391076516
  0
LINE
  5
411
100
AcDbEntity
  8
0
100
AcDbLine
 62
7
  6
CONTINUOUS
 10
145.940690197
 20
106.7391076516
 11
145.940690197
 21
106.6391076516
  0
LINE
  5
412
100
AcDbEntity
  8
0
100
AcDbLine
 62
7
  6
CONTINUOUS
 10
146.0984301404
 20
106.7391076516
 11
146.0984301404
 21
106.6391076516
  0
LINE
  5
413
100
AcDbEntity
  8
0
100
AcDbLine
 62
7
  6
CONTINUOUS
 10
146.2394666484
 20
106.7391076516
 11
146.2394666484
 21
106.6391076516
  0
LINE
  5
414
100
AcDbEntity
  8
0
100
AcDbLine
 62
7
  6
CONTINUOUS
 10
146.271425262
 20
106.7391076516
 11
146.271425262
 21
106.6391076516
  0
LINE
  5
415
100
AcDbEntity
  8
0
100
AcDbLine
 62
7
  6
CONTINUOUS
 10
148.6163416124
 20
116.7391076516
 11
148.6163416124
 21
116.8391076516
  0
LINE
  5
416
100
AcDbEntity
  8
BEZUGSACHSEN
100
AcDbLine
 62
7
  6
CONTINUOUS
 10
148.763755504
 20
116.7391076516
 11
148.763755504
 21
116.2391076516
  0
LINE
  5
417
100
AcDbEntity
  8
0
100
AcDbLine
 62
7
  6
CONTINUOUS
 10
148.763755504
 20
107.2391076516
 11
148.763755504
 21
106.7391076516
  0
LINE
  5
418
100
AcDbEntity
  8
0
100
AcDbLine
 62
7
  6
CONTINUOUS
 10
148.9894581369
 20
116.2391076516
 11
148.9894581369
 21
116.8391076516
  0
LINE
  5
419
100
AcDbEntity
  8
0
100
AcDbLine
 62
7
  6
CONTINUOUS
 10
149.1332820746
 20
116.2391076516
 11
149.1332820746
 21
116.8391076516
  0
LINE
  5
41A
100
AcDbEntity
  8
0
100
AcDbLine
 62
7
  6
CONTINUOUS
 10
149.7842829382
 20
116.2391076516
 11
149.7842829382
 21
116.8391076516
  0
LINE
  5
41B
100
AcDbEntity
  8
0
100
AcDbLine
 62
7
  6
CONTINUOUS
 10
150.3541526088
 20
116.2391076516
 11
150.3541526088
 21
116.8391076516
  0
LINE
  5
41C
100
AcDbEntity
  8
0
100
AcDbLine
 62
7
  6
CONTINUOUS
 10
150.4288831583
 20
107.2391076516
 11
150.4288831583
 21
106.6391076516
  0
LINE
  5
41D
100
AcDbEntity
  8
0
100
AcDbLine
 62
7
  6
CONTINUOUS
 10
150.6118536744
 20
107.2391076516
 11
150.6118536744
 21
106.6391076516
  0
LINE
  5
41E
100
AcDbEntity
  8
0
100
AcDbLine
 62
7
  6
CONTINUOUS
 10
150.7151210618
 20
116.2391076516
 11
150.7151210618
 21
116.8391076516
  0
LINE
  5
41F
100
AcDbEntity
  8
0
100
AcDbLine
 62
7
  6
CONTINUOUS
 10
150.8281400842
 20
107.2391076516
 11
150.8281400842
 21
106.6391076516
  0
LINE
  5
420
100
AcDbEntity
  8
0
100
AcDbLine
 62
7
  6
CONTINUOUS
 10
151.2429564471
 20
107.2391076516
 11
151.2429564471
 21
106.6391076516
  0
LINE
  5
421
100
AcDbEntity
  8
0
100
AcDbLine
 62
7
  6
CONTINUOUS
 10
151.7187629238
 20
107.2391076516
 11
151.7187629238
 21
106.6391076516
  0
LINE
  5
422
100
AcDbEntity
  8
0
100
AcDbLine
 62
7
  6
CONTINUOUS
 10
151.8344701014
 20
116.2391076516
 11
151.8344701014
 21
116.8391076516
  0
LINE
  5
423
100
AcDbEntity
  8
0
100
AcDbLine
 62
7
  6
CONTINUOUS
 10
152.0176564069
 20
107.2391076516
 11
152.0176564069
 21
106.6391076516
  0
LINE
  5
424
100
AcDbEntity
  8
0
100
AcDbLine
 62
7
  6
CONTINUOUS
 10
152.2585883193
 20
107.2391076516
 11
152.2585883193
 21
106.6391076516
  0
LINE
  5
425
100
AcDbEntity
  8
0
100
AcDbLine
 62
7
  6
CONTINUOUS
 10
152.5330440934
 20
107.2391076516
 11
152.5330440934
 21
106.6391076516
  0
LINE
  5
426
100
AcDbEntity
  8
0
100
AcDbLine
 62
7
  6
CONTINUOUS
 10
152.5970629249
 20
107.2391076516
 11
152.5970629249
 21
106.6391076516
  0
LINE
  5
427
100
AcDbEntity
  8
0
100
AcDbLine
 62
7
  6
CONTINUOUS
 10
152.7824382317
 20
107.2391076516
 11
152.7824382317
 21
106.6391076516
  0
LINE
  5
428
100
AcDbEntity
  8
0
100
AcDbLine
 62
7
  6
CONTINUOUS
 10
152.9442078484
 20
107.2391076516
 11
152.9442078484
 21
106.6391076516
  0
LINE
  5
429
100
AcDbEntity
  8
0
100
AcDbLine
 62
7
  6
CONTINUOUS
 10
152.9538191411
 20
116.2391076516
 11
152.9538191411
 21
116.8391076516
  0
LINE
  5
42A
100
AcDbEntity
  8
0
100
AcDbLine
 62
7
  6
CONTINUOUS
 10
153.2980340102
 20
107.2391076516
 11
153.2980340102
 21
106.6391076516
  0
LINE
  5
42B
100
AcDbEntity
  8
0
100
AcDbLine
 62
7
  6
CONTINUOUS
 10
153.3269353987
 20
116.2391076516
 11
153.3269353987
 21
116.8391076516
  0
LINE
  5
42C
100
AcDbEntity
  8
0
100
AcDbLine
 62
7
  6
CONTINUOUS
 10
153.4200142379
 20
107.2391076516
 11
153.4200142379
 21
106.6391076516
  0
LINE
  5
42D
100
AcDbEntity
  8
0
100
AcDbLine
 62
7
  6
CONTINUOUS
 10
153.7251733721
 20
107.2391076516
 11
153.7251733721
 21
106.6391076516
  0
LINE
  5
42E
100
AcDbEntity
  8
0
100
AcDbLine
 62
7
  6
CONTINUOUS
 10
154.1094945036
 20
107.2391076516
 11
154.1094945036
 21
106.6391076516
  0
LINE
  5
42F
100
AcDbEntity
  8
0
100
AcDbLine
 62
7
  6
CONTINUOUS
 10
154.5853008931
 20
107.2391076516
 11
154.5853008931
 21
106.6391076516
  0
LINE
  5
430
100
AcDbEntity
  8
0
100
AcDbLine
 62
7
  6
CONTINUOUS
 10
154.8841945507
 20
107.2391076516
 11
154.8841945507
 21
106.6391076516
  0
LINE
  5
431
100
AcDbEntity
  8
0
100
AcDbLine
 62
7
  6
CONTINUOUS
 10
155.1861165769
 20
107.2391076516
 11
155.1861165769
 21
106.6391076516
  0
LINE
  5
432
100
AcDbEntity
  8
0
100
AcDbLine
 62
7
  6
CONTINUOUS
 10
155.2471068653
 20
107.2391076516
 11
155.2471068653
 21
106.6391076516
  0
LINE
  5
433
100
AcDbEntity
  8
0
100
AcDbLine
 62
7
  6
CONTINUOUS
 10
155.3721158106
 20
107.2391076516
 11
155.3721158106
 21
106.6391076516
  0
LINE
  5
434
100
AcDbEntity
  8
0
100
AcDbLine
 62
7
  6
CONTINUOUS
 10
155.4512784046
 20
107.2391076516
 11
155.4512784046
 21
106.6391076516
  0
LINE
  5
435
100
AcDbEntity
  8
0
100
AcDbLine
 62
7
  6
CONTINUOUS
 10
155.9270847941
 20
107.2391076516
 11
155.9270847941
 21
106.6391076516
  0
LINE
  5
436
100
AcDbEntity
  8
0
100
AcDbLine
 62
7
  6
CONTINUOUS
 10
156.2259784517
 20
107.2391076516
 11
156.2259784517
 21
106.6391076516
  0
LINE
  5
437
100
AcDbEntity
  8
0
100
AcDbLine
 62
7
  6
CONTINUOUS
 10
156.527900129
 20
107.2391076516
 11
156.527900129
 21
106.6391076516
  0
LINE
  5
438
100
AcDbEntity
  8
0
100
AcDbLine
 62
7
  6
CONTINUOUS
 10
156.6498807057
 20
107.2391076516
 11
156.6498807057
 21
106.6391076516
  0
LINE
  5
439
100
AcDbEntity
  8
0
100
AcDbLine
 62
7
  6
CONTINUOUS
 10
156.7443946813
 20
107.2391076516
 11
156.7443946813
 21
106.6391076516
  0
LINE
  5
43A
100
AcDbEntity
  8
0
100
AcDbLine
 62
7
  6
CONTINUOUS
 10
156.8540522451
 20
107.2391076516
 11
156.8540522451
 21
106.6391076516
  0
LINE
  5
43B
100
AcDbEntity
  8
0
100
AcDbLine
 62
7
  6
CONTINUOUS
 10
156.8715407799
 20
116.2391076516
 11
156.8715407799
 21
116.8391076516
  0
LINE
  5
43C
100
AcDbEntity
  8
0
100
AcDbLine
 62
7
  6
CONTINUOUS
 10
157.1513780399
 20
116.2391076516
 11
157.1513780399
 21
116.8391076516
  0
LINE
  5
43D
100
AcDbEntity
  8
0
100
AcDbLine
 62
7
  6
CONTINUOUS
 10
157.2109071244
 20
107.2391076516
 11
157.2109071244
 21
106.6391076516
  0
LINE
  5
43E
100
AcDbEntity
  8
0
100
AcDbLine
 62
7
  6
CONTINUOUS
 10
157.6287519432
 20
107.2391076516
 11
157.6287519432
 21
106.6391076516
  0
LINE
  5
43F
100
AcDbEntity
  8
0
100
AcDbLine
 62
7
  6
CONTINUOUS
 10
157.9001789997
 20
107.2391076516
 11
157.9001789997
 21
106.6391076516
  0
LINE
  5
440
100
AcDbEntity
  8
0
100
AcDbLine
 62
7
  6
CONTINUOUS
 10
157.9946929754
 20
107.2391076516
 11
157.9946929754
 21
106.6391076516
  0
LINE
  5
441
100
AcDbEntity
  8
0
100
AcDbLine
 62
7
  6
CONTINUOUS
 10
158.1958357971
 20
107.2391076516
 11
158.1958357971
 21
106.6391076516
  0
LINE
  5
442
100
AcDbEntity
  8
0
100
AcDbLine
 62
7
  6
CONTINUOUS
 10
158.5526906765
 20
107.2391076516
 11
158.5526906765
 21
106.6391076516
  0
LINE
  5
443
100
AcDbEntity
  8
0
100
AcDbLine
 62
7
  6
CONTINUOUS
 10
158.9705361932
 20
107.2391076516
 11
158.9705361932
 21
106.6391076516
  0
LINE
  5
444
100
AcDbEntity
  8
0
100
AcDbLine
 62
7
  6
CONTINUOUS
 10
159.2419632498
 20
107.2391076516
 11
159.2419632498
 21
106.6391076516
  0
LINE
  5
445
100
AcDbEntity
  8
0
100
AcDbLine
 62
7
  6
CONTINUOUS
 10
159.3364772254
 20
107.2391076516
 11
159.3364772254
 21
106.6391076516
  0
LINE
  5
446
100
AcDbEntity
  8
RUNDUNGEN
100
AcDbLine
 62
7
  6
CONTINUOUS
 10
163.4051192946
 20
124.7391076516
 11
163.4051192946
 21
98.7391076516
  0
ARC
  5
447
100
AcDbEntity
  8
RUNDUNGEN
100
AcDbCircle
 62
7
  6
CONTINUOUS
 10
78.4051192946
 20
199.0625854358
 40
15.0
100
AcDbArc
 50
157.5
 51
179.7553862611
  0
ARC
  5
448
100
AcDbEntity
  8
BEZUGSACHSEN
100
AcDbCircle
 62
7
  6
CONTINUOUS
 10
79.5896700987
 20
206.7523099667
 40
5.0
100
AcDbArc
 50
278.9995907923
 51
337.502304799
  0
ARC
  5
449
100
AcDbEntity
  8
BEZUGSACHSEN
100
AcDbCircle
 62
7
  6
CONTINUOUS
 10
80.3921571857
 20
208.6896851756
 40
5.0
100
AcDbArc
 50
337.4967945069
 51
22.5031978334
  0
ARC
  5
44A
100
AcDbEntity
  8
0
100
AcDbCircle
 62
7
  6
CONTINUOUS
 10
77.3856852328
 20
213.5970601184
 40
3.0
100
AcDbArc
 50
248.0
 51
68.0
  0
ARC
  5
44B
100
AcDbEntity
  8
BEZUGSACHSEN
100
AcDbCircle
 62
7
  6
CONTINUOUS
 10
86.3453142873
 20
215.2225
 40
3.0
100
AcDbArc
 50
157.4999953894
 51
202.504209983
  0
ARC
  5
44C
100
AcDbEntity
  8
0
100
AcDbCircle
 62
7
  6
CONTINUOUS
 10
72.7478980298
 20
208.2576074192
 40
2.188
100
AcDbArc
 50
359.2836291046
 51
158.1038019258
  0
ARC
  5
44D
100
AcDbEntity
  8
RUNDUNGEN
100
AcDbCircle
 62
7
  6
CONTINUOUS
 10
65.4051192946
 20
197.4184419458
 40
2.0
100
AcDbArc
 50
99.0
 51
180.0
  0
ARC
  5
44E
100
AcDbEntity
  8
0
100
AcDbCircle
 62
7
  6
CONTINUOUS
 10
77.3856852328
 20
213.5970601184
 40
1.5
100
AcDbArc
 50
248.0
 51
68.0
  0
ARC
  5
44F
100
AcDbEntity
  8
0
100
AcDbCircle
 62
7
  6
CONTINUOUS
 10
75.4553375118
 20
205.7787090627
 40
1.25
100
AcDbArc
 50
98.0
 51
158.0
  0
ARC
  5
450
100
AcDbEntity
  8
0
100
AcDbCircle
 62
7
  6
CONTINUOUS
 10
72.5614346167
 20
207.7936761569
 40
0.938
100
AcDbArc
 50
338.0
 51
158.1038019258
  0
ARC
  5
451
100
AcDbEntity
  8
BEZUGSACHSEN
100
AcDbCircle
 62
7
  6
CONTINUOUS
 10
94.2709476764
 20
234.3566716183
 40
3.0
100
AcDbArc
 50
112.5
 51
157.5
  0
ARC
  5
452
100
AcDbEntity
  8
0
100
AcDbCircle
 62
7
  6
CONTINUOUS
 10
80.5870149049
 20
220.8024927457
 40
2.75
100
AcDbArc
 50
338.0
 51
68.0
  0
ARC
  5
453
100
AcDbEntity
  8
0
100
AcDbCircle
 62
7
  6
CONTINUOUS
 10
78.7326471957
 20
221.5517059325
 40
2.75
100
AcDbArc
 50
68.0
 51
158.0
  0
CIRCLE
  5
454
100
AcDbEntity
  8
BEZUGSACHSEN
100
AcDbCircle
 62
7
  6
CONTINUOUS
 10
90.3530724685
 20
238.2745468261
 40
2.0
  0
CIRCLE
  5
455
100
AcDbEntity
  8
BEZUGSACHSEN
100
AcDbCircle
 62
7
  6
CONTINUOUS
 10
80.0464830853
 20
229.0400995402
 40
2.0
  0
CIRCLE
  5
456
100
AcDbEntity
  8
BEZUGSACHSEN
100
AcDbCircle
 62
7
  6
CONTINUOUS
 10
101.7475277898
 20
243.3664155156
 40
2.0
  0
ARC
  5
457
100
AcDbEntity
  8
0
100
AcDbCircle
 62
7
  6
CONTINUOUS
 10
78.6738079148
 20
221.2378971706
 40
1.563
100
AcDbArc
 50
68.0
 51
158.0
  0
ARC
  5
458
100
AcDbEntity
  8
0
100
AcDbCircle
 62
7
  6
CONTINUOUS
 10
80.4113504583
 20
220.5358844146
 40
1.563
100
AcDbArc
 50
338.0
 51
68.0
  0
ARC
  5
459
100
AcDbEntity
  8
BEZUGSACHSEN
100
AcDbCircle
 62
7
  6
CONTINUOUS
 10
113.4051192946
 20
202.4225
 40
46.05
100
AcDbArc
 50
22.5
 51
157.5
  0
CIRCLE
  5
45A
100
AcDbEntity
  8
RUNDUNGEN
100
AcDbCircle
 62
7
  6
CONTINUOUS
 10
113.4051192946
 20
215.2225
 40
17.5
  0
ARC
  5
45B
100
AcDbEntity
  8
RUNDUNGEN
100
AcDbCircle
 62
7
  6
CONTINUOUS
 10
148.4051192946
 20
199.0625854358
 40
15.0
100
AcDbArc
 50
0.2446137389
 51
22.5
  0
ARC
  5
45C
100
AcDbEntity
  8
RUNDUNGEN
100
AcDbCircle
 62
7
  6
CONTINUOUS
 10
147.2205684905
 20
206.7523099667
 40
5.0
100
AcDbArc
 50
202.497695201
 51
261.0004092077
  0
ARC
  5
45D
100
AcDbEntity
  8
RUNDUNGEN
100
AcDbCircle
 62
7
  6
CONTINUOUS
 10
146.4180814035
 20
208.6896851756
 40
5.0
100
AcDbArc
 50
157.4968021666
 51
202.5032054931
  0
ARC
  5
45E
100
AcDbEntity
  8
RUNDUNGEN
100
AcDbCircle
 62
7
  6
CONTINUOUS
 10
140.4649243019
 20
215.2225
 40
3.0
100
AcDbArc
 50
337.495790017
 51
22.5000046106
  0
ARC
  5
45F
100
AcDbEntity
  8
RUNDUNGEN
100
AcDbCircle
 62
7
  6
CONTINUOUS
 10
161.4051192946
 20
197.4184343278
 40
2.0
100
AcDbArc
 50
0.0002182397
 51
81.000034136
  0
ARC
  5
460
100
AcDbEntity
  8
RUNDUNGEN
100
AcDbCircle
 62
7
  6
CONTINUOUS
 10
132.5392909129
 20
234.3566716183
 40
3.0
100
AcDbArc
 50
22.5
 51
67.5
  0
ARC
  5
461
100
AcDbEntity
  8
RUNDUNGEN
100
AcDbCircle
 62
7
  6
CONTINUOUS
 10
113.4051192946
 20
242.2823110467
 40
2.9999665217
100
AcDbArc
 50
67.4999558594
 51
112.5000441232
  0
CIRCLE
  5
462
100
AcDbEntity
  8
0
100
AcDbCircle
 62
7
  6
CONTINUOUS
 10
125.0627107994
 20
243.3664155156
 40
2.0
  0
CIRCLE
  5
463
100
AcDbEntity
  8
0
100
AcDbCircle
 62
7
  6
CONTINUOUS
 10
146.763755504
 20
229.0400995402
 40
2.0
  0
CIRCLE
  5
464
100
AcDbEntity
  8
0
100
AcDbCircle
 62
7
  6
CONTINUOUS
 10
136.4571661207
 20
238.2745468261
 40
2.0
  0
ARC
  5
465
100
AcDbEntity
  8
BEZUGSACHSEN
100
AcDbCircle
 62
7
  6
CONTINUOUS
 10
296.4125391326
 20
217.5997466468
 40
15.0
100
AcDbArc
 50
179.9999629874
 51
200.0000353717
  0
ARC
  5
466
100
AcDbEntity
  8
RUNDUNGEN
100
AcDbCircle
 62
7
  6
CONTINUOUS
 10
296.4125391326
 20
217.5997466468
 40
15.0
100
AcDbArc
 50
182.5485510127
 51
186.1700737757
  0
ARC
  5
467
100
AcDbEntity
  8
RUNDUNGEN
100
AcDbCircle
 62
7
  6
CONTINUOUS
 10
296.4125391326
 20
217.5997466468
 40
15.0
100
AcDbArc
 50
191.6347168162
 51
194.1731730075
  0
ARC
  5
468
100
AcDbEntity
  8
BEZUGSACHSEN
100
AcDbCircle
 62
7
  6
CONTINUOUS
 10
250.4125391326
 20
217.5997466468
 40
15.0
100
AcDbArc
 50
339.9999646283
 51
0.0000370126
  0
ARC
  5
469
100
AcDbEntity
  8
RUNDUNGEN
100
AcDbCircle
 62
7
  6
CONTINUOUS
 10
250.4125391326
 20
217.5997466468
 40
15.0
100
AcDbArc
 50
345.8267257427
 51
348.3652270229
  0
ARC
  5
46A
100
AcDbEntity
  8
RUNDUNGEN
100
AcDbCircle
 62
7
  6
CONTINUOUS
 10
250.4125391326
 20
217.5997466468
 40
15.0
100
AcDbArc
 50
353.8298898484
 51
357.4514513994
  0
ARC
  5
46B
100
AcDbEntity
  8
RUNDUNGEN
100
AcDbCircle
 62
7
  6
CONTINUOUS
 10
92.1481691727
 20
107.1576599825
 40
3.4548203704
100
AcDbArc
 50
266.5035391774
 51
278.2200859584
  0
ARC
  5
46C
100
AcDbEntity
  8
RUNDUNGEN
100
AcDbCircle
 62
7
  6
CONTINUOUS
 10
134.6619957508
 20
116.3226637003
 40
3.45272045
100
AcDbArc
 50
86.5001910012
 51
98.1722351895
  0
ARC
  5
46D
100
AcDbEntity
  8
RUNDUNGEN
100
AcDbCircle
 62
7
  6
CONTINUOUS
 10
92.1483060163
 20
116.3230583899
 40
3.452330292
100
AcDbArc
 50
81.8032417774
 51
93.5012632999
  0
ARC
  5
46E
100
AcDbEntity
  8
RUNDUNGEN
100
AcDbCircle
 62
7
  6
CONTINUOUS
 10
134.6618779094
 20
107.1535561865
 40
3.4507358308
100
AcDbArc
 50
261.8679773058
 51
273.5037904845
  0
ARC
  5
46F
100
AcDbEntity
  8
RUNDUNGEN
100
AcDbCircle
 62
7
  6
CONTINUOUS
 10
65.4051192946
 20
98.7391076516
 40
2.0
100
AcDbArc
 50
180.0
 51
270.0
  0
ARC
  5
470
100
AcDbEntity
  8
RUNDUNGEN
100
AcDbCircle
 62
7
  6
CONTINUOUS
 10
65.4051192946
 20
124.7391076516
 40
2.0
100
AcDbArc
 50
90.0
 51
180.0
  0
ARC
  5
471
100
AcDbEntity
  8
RUNDUNGEN
100
AcDbCircle
 62
7
  6
CONTINUOUS
 10
161.4051192946
 20
98.7391076516
 40
2.0
100
AcDbArc
 50
270.0
 51
360.0
  0
ARC
  5
472
100
AcDbEntity
  8
RUNDUNGEN
100
AcDbCircle
 62
7
  6
CONTINUOUS
 10
161.4051192946
 20
124.7391076516
 40
2.0
100
AcDbArc
 50
0.0
 51
90.0
  0
SPLINE
  5
473
100
AcDbEntity
  8
RUNDUNGEN
100
AcDbSpline
 62
7
  6
CONTINUOUS
 70
0
 71
3
 72
22
 73
18
 74
0
 42
0.0000001
 43
0.0000001
 44
0.0000000001
 40
0.0
 40
0.0
 40
0.0
 40
0.0
 40
0.0669430194
 40
0.1353482186
 40
0.2724286635
 40
0.3391383742
 40
0.4027727902
 40
0.4614150033
 40
0.5141338664
 40
0.5391411428
 40
0.5640906192
 40
0.6159285355
 40
0.6721839141
 40
0.732789097
 40
0.796911931
 40
0.863545278
 40
1.0
 40
1.0
 40
1.0
 40
1.0
 10
131.1947881
 20
217.2012325634
 30
0.0
 10
131.155198731
 20
217.349548863
 30
0.0
 10
131.0846252972
 20
217.6519484765
 30
0.0
 10
130.9634687074
 20
218.2648029436
 30
0.0
 10
130.8606452828
 20
218.8807928725
 30
0.0
 10
130.78997609
 20
219.4901448141
 30
0.0
 10
130.7692401797
 20
219.9235759343
 30
0.0
 10
130.8009863994
 20
220.3254686197
 30
0.0
 10
130.9048641889
 20
220.6268346551
 30
0.0
 10
131.0421285867
 20
220.8198492918
 30
0.0
 10
131.2105293984
 20
220.9832001032
 30
0.0
 10
131.4782524436
 20
221.1377316358
 30
0.0
 10
131.8460410891
 20
221.2612819884
 30
0.0
 10
132.2532355089
 20
221.3451805397
 30
0.0
 10
132.6903986786
 20
221.3922165805
 30
0.0
 10
133.303104523
 20
221.3964555798
 30
0.0
 10
133.771746077
 20
221.307064622
 30
0.0
 10
134.0610111234
 20
221.1877437299
 30
0.0
  0
SPLINE
  5
474
100
AcDbEntity
  8
RUNDUNGEN
100
AcDbSpline
 62
7
  6
CONTINUOUS
 70
0
 71
3
 72
14
 73
10
 74
0
 42
0.0000001
 43
0.0000001
 44
0.0000000001
 40
0.0
 40
0.0
 40
0.0
 40
0.0
 40
0.2495171872
 40
0.3746183166
 40
0.4996979832
 40
0.6247480103
 40
0.7497914183
 40
0.8748914076
 40
1.0
 40
1.0
 40
1.0
 40
1.0
 10
134.060944367
 20
221.1873828202
 30
0.0
 10
134.4015992253
 20
221.0468637976
 30
0.0
 10
134.8899755442
 20
220.7605368063
 30
0.0
 10
135.4034398464
 20
220.2247529155
 30
0.0
 10
135.6964167713
 20
219.7486010377
 30
0.0
 10
135.8688711905
 20
219.2161549661
 30
0.0
 10
135.9047861428
 20
218.6574627633
 30
0.0
 10
135.8068624045
 20
218.107174038
 30
0.0
 10
135.6643679834
 20
217.7630659643
 30
0.0
 10
135.5779655828
 20
217.5997466468
 30
0.0
  0
SPLINE
  5
475
100
AcDbEntity
  8
RUNDUNGEN
100
AcDbSpline
 62
7
  6
CONTINUOUS
 70
0
 71
3
 72
9
 73
5
 74
0
 42
0.0000001
 43
0.0000001
 44
0.0000000001
 40
0.0
 40
0.0
 40
0.0
 40
0.0
 40
0.2503838578
 40
1.0
 40
1.0
 40
1.0
 40
1.0
 10
135.5779655828
 20
217.5997466468
 30
0.0
 10
135.5318511694
 20
217.5125803821
 30
0.0
 10
135.334697908
 20
217.1714924386
 30
0.0
 10
135.0845570747
 20
216.8608704191
 30
0.0
 10
134.8732429325
 20
216.6546924167
 30
0.0
  0
SPLINE
  5
476
100
AcDbEntity
  8
RUNDUNGEN
100
AcDbSpline
 62
7
  6
CONTINUOUS
 70
0
 71
3
 72
19
 73
15
 74
0
 42
0.0000001
 43
0.0000001
 44
0.0000000001
 40
0.0
 40
0.0
 40
0.0
 40
0.0
 40
0.1432721832
 40
0.2845848282
 40
0.4191645401
 40
0.4823571849
 40
0.5420037594
 40
0.5977230972
 40
0.6497914106
 40
0.7000043949
 40
0.7516035071
 40
0.8073582546
 40
0.8679368433
 40
1.0
 40
1.0
 40
1.0
 40
1.0
 10
134.8727681543
 20
216.6541446108
 30
0.0
 10
134.7118945855
 20
216.49719209
 30
0.0
 10
134.3439808171
 20
216.2327275719
 30
0.0
 10
133.7325380151
 20
215.9821072977
 30
0.0
 10
133.2148893145
 20
215.852977564
 30
0.0
 10
132.815189711
 20
215.79362084
 30
0.0
 10
132.5353173437
 20
215.7745965322
 30
0.0
 10
132.2721260289
 20
215.7868081705
 30
0.0
 10
132.0284595776
 20
215.8416809673
 30
0.0
 10
131.8111893015
 20
215.9542431846
 30
0.0
 10
131.631814589
 20
216.1287547133
 30
0.0
 10
131.4897683151
 20
216.3524808257
 30
0.0
 10
131.3327703903
 20
216.709992396
 30
0.0
 10
131.2482171263
 20
217.0010708245
 30
0.0
 10
131.1947860221
 20
217.2012323332
 30
0.0
  0
SPLINE
  5
477
100
AcDbEntity
  8
RUNDUNGEN
100
AcDbSpline
 62
7
  6
CONTINUOUS
 70
0
 71
3
 72
15
 73
11
 74
0
 42
0.0000001
 43
0.0000001
 44
0.0000000001
 40
0.0
 40
0.0
 40
0.0
 40
0.0
 40
0.1250798112
 40
0.2501465193
 40
0.3751080754
 40
0.4999977582
 40
0.6248874151
 40
0.7498495577
 40
0.8749187105
 40
1.0
 40
1.0
 40
1.0
 40
1.0
 10
126.9046508126
 20
231.9564060556
 30
0.0
 10
127.1325261466
 20
232.0072754658
 30
0.0
 10
127.5987304506
 20
232.0688542335
 30
0.0
 10
128.3027475328
 20
232.0135274049
 30
0.0
 10
128.9730896559
 20
231.7831950682
 30
0.0
 10
129.548735589
 20
231.3659484324
 30
0.0
 10
129.965921063
 20
230.7902580699
 30
0.0
 10
130.1961953912
 20
230.1198906469
 30
0.0
 10
130.2514629985
 20
229.4158614159
 30
0.0
 10
130.1898675356
 20
228.9496543027
 30
0.0
 10
130.1389975243
 20
228.7217762754
 30
0.0
  0
SPLINE
  5
478
100
AcDbEntity
  8
RUNDUNGEN
100
AcDbSpline
 62
7
  6
CONTINUOUS
 70
0
 71
3
 72
17
 73
13
 74
0
 42
0.0000001
 43
0.0000001
 44
0.0000000001
 40
0.0
 40
0.0
 40
0.0
 40
0.0
 40
0.1890155448
 40
0.3708334225
 40
0.5382425985
 40
0.6852960721
 40
0.8069209484
 40
0.8570583647
 40
0.8996739157
 40
0.9347306475
 40
0.9624595481
 40
1.0
 40
1.0
 40
1.0
 40
1.0
 10
161.4051192946
 20
195.7225
 30
0.0
 10
161.5361390686
 20
195.7225
 30
0.0
 10
161.7932135748
 20
195.7180734977
 30
0.0
 10
162.1658675698
 20
195.6984042804
 30
0.0
 10
162.5085200667
 20
195.6666260978
 30
0.0
 10
162.8079333955
 20
195.6241872233
 30
0.0
 10
163.0246040548
 20
195.5793929844
 30
0.0
 10
163.1673967872
 20
195.5377340527
 30
0.0
 10
163.2505395826
 20
195.5073009907
 30
0.0
 10
163.3167895361
 20
195.4750688509
 30
0.0
 10
163.3739160461
 20
195.4375692838
 30
0.0
 10
163.4051192946
 20
195.3958679275
 30
0.0
 10
163.4051192946
 20
195.3698460386
 30
0.0
  0
SPLINE
  5
479
100
AcDbEntity
  8
RUNDUNGEN
100
AcDbSpline
 62
7
  6
CONTINUOUS
 70
0
 71
3
 72
29
 73
25
 74
0
 42
0.0000001
 43
0.0000001
 44
0.0000000001
 40
0.0
 40
0.0
 40
0.0
 40
0.0
 40
0.0700122116
 40
0.1389786742
 40
0.2053424733
 40
0.2674887247
 40
0.2965489421
 40
0.3241380453
 40
0.3503857567
 40
0.3758296949
 40
0.4014323543
 40
0.4283008387
 40
0.4570437457
 40
0.4877045155
 40
0.5532799715
 40
0.6221638134
 40
0.692265549
 40
0.7620356231
 40
0.8297613235
 40
0.892906344
 40
0.9218569244
 40
0.9489031843
 40
0.9745901303
 40
1.0
 40
1.0
 40
1.0
 40
1.0
 10
126.9061262741
 20
231.9548880704
 30
0.0
 10
126.7127626654
 20
231.9117228338
 30
0.0
 10
126.3379184441
 20
231.7797142031
 30
0.0
 10
125.839395629
 20
231.4759777323
 30
0.0
 10
125.4054204557
 20
231.1220691292
 30
0.0
 10
125.0939753395
 20
230.8008934419
 30
0.0
 10
124.8898945687
 20
230.5332153822
 30
0.0
 10
124.7680634165
 20
230.332053185
 30
0.0
 10
124.6807192367
 20
230.12419639
 30
0.0
 10
124.6373592504
 20
229.9079926152
 30
0.0
 10
124.6453195861
 20
229.6855726944
 30
0.0
 10
124.7055656108
 20
229.4621263487
 30
0.0
 10
124.8094307558
 20
229.2402355164
 30
0.0
 10
124.9980631706
 20
228.940385049
 30
0.0
 10
125.2928991025
 20
228.5764564309
 30
0.0
 10
125.6856069393
 20
228.1511595368
 30
0.0
 10
126.100448906
 20
227.7304639952
 30
0.0
 10
126.5239584526
 20
227.3230662857
 30
0.0
 10
126.9498579646
 20
226.9476788543
 30
0.0
 10
127.3174782038
 20
226.6802440127
 30
0.0
 10
127.6214396623
 20
226.5318422589
 30
0.0
 10
127.8448362413
 20
226.4667087277
 30
0.0
 10
128.067534716
 20
226.4530270379
 30
0.0
 10
128.2112941833
 20
226.4784349891
 30
0.0
 10
128.2804908387
 20
226.4979864019
 30
0.0
  0
SPLINE
  5
47A
100
AcDbEntity
  8
RUNDUNGEN
100
AcDbSpline
 62
7
  6
CONTINUOUS
 70
0
 71
3
 72
29
 73
25
 74
0
 42
0.0000001
 43
0.0000001
 44
0.0000000001
 40
0.0
 40
0.0
 40
0.0
 40
0.0
 40
0.0700171282
 40
0.1389846891
 40
0.2053479295
 40
0.2674898349
 40
0.2965469462
 40
0.3241325288
 40
0.3503774074
 40
0.3758210956
 40
0.4014279836
 40
0.428304959
 40
0.4570579245
 40
0.4877283125
 40
0.5533183404
 40
0.6222111322
 40
0.6923174781
 40
0.7620874747
 40
0.8298062096
 40
0.8929327444
 40
0.9218704213
 40
0.9489049996
 40
0.9745866544
 40
1.0
 40
1.0
 40
1.0
 40
1.0
 10
96.6722533226
 20
228.7229146738
 30
0.0
 10
96.7154283059
 20
228.5295074039
 30
0.0
 10
96.8484510033
 20
228.1549290396
 30
0.0
 10
97.1519213866
 20
227.6562165229
 30
0.0
 10
97.5060585356
 20
227.2222839912
 30
0.0
 10
97.8272936069
 20
226.9108463966
 30
0.0
 10
98.095048618
 20
226.706826293
 30
0.0
 10
98.2962736852
 20
226.5850786934
 30
0.0
 10
98.5041993332
 20
226.4978476858
 30
0.0
 10
98.7204805633
 20
226.454668388
 30
0.0
 10
98.9429634099
 20
226.4628359836
 30
0.0
 10
99.1664508324
 20
226.5233078503
 30
0.0
 10
99.3883810069
 20
226.6273600943
 30
0.0
 10
99.6882699048
 20
226.816214452
 30
0.0
 10
100.0522561548
 20
227.1112366593
 30
0.0
 10
100.4776316859
 20
227.5041100563
 30
0.0
 10
100.8983885098
 20
227.9190744451
 30
0.0
 10
101.305805551
 20
228.3426840358
 30
0.0
 10
101.681119602
 20
228.7686688992
 30
0.0
 10
101.9483627426
 20
229.1363986618
 30
0.0
 10
102.0964277075
 20
229.440454553
 30
0.0
 10
102.1612172543
 20
229.6639073079
 30
0.0
 10
102.174493949
 20
229.8866295444
 30
0.0
 10
102.1488252761
 20
230.0303577809
 30
0.0
 10
102.1291574009
 20
230.0995432809
 30
0.0
  0
SPLINE
  5
47B
100
AcDbEntity
  8
RUNDUNGEN
100
AcDbSpline
 62
7
  6
CONTINUOUS
 70
0
 71
3
 72
17
 73
13
 74
0
 42
0.0000001
 43
0.0000001
 44
0.0000000001
 40
0.0
 40
0.0
 40
0.0
 40
0.0
 40
0.0375404519
 40
0.0652693525
 40
0.1003260843
 40
0.1429416353
 40
0.1930790516
 40
0.3147039279
 40
0.4617574015
 40
0.6291665775
 40
0.8109844552
 40
1.0
 40
1.0
 40
1.0
 40
1.0
 10
63.4051192946
 20
195.3698460386
 30
0.0
 10
63.4051192946
 20
195.3958679275
 30
0.0
 10
63.4363225431
 20
195.4375692838
 30
0.0
 10
63.4934490531
 20
195.4750688509
 30
0.0
 10
63.5596990066
 20
195.5073009907
 30
0.0
 10
63.642841802
 20
195.5377340527
 30
0.0
 10
63.7856345344
 20
195.5793929844
 30
0.0
 10
64.0023051937
 20
195.6241872233
 30
0.0
 10
64.3017185225
 20
195.6666260978
 30
0.0
 10
64.6443710194
 20
195.6984042804
 30
0.0
 10
65.0170250144
 20
195.7180734977
 30
0.0
 10
65.2740995206
 20
195.7225
 30
0.0
 10
65.4051192946
 20
195.7225
 30
0.0
  0
SPLINE
  5
47C
100
AcDbEntity
  8
RUNDUNGEN
100
AcDbSpline
 62
7
  6
CONTINUOUS
 70
0
 71
3
 72
11
 73
7
 74
0
 42
0.0000001
 43
0.0000001
 44
0.0000000001
 40
0.0
 40
0.0
 40
0.0
 40
0.0
 40
0.2499940055
 40
0.4999972767
 40
0.7499990935
 40
1.0
 40
1.0
 40
1.0
 40
1.0
 10
108.2308354614
 20
195.7225
 30
0.0
 10
108.6620926866
 20
195.7224997238
 30
0.0
 10
109.5244827768
 20
195.6982701745
 30
0.0
 10
110.8173342596
 20
195.6506320893
 30
0.0
 10
112.1107049017
 20
195.6146738964
 30
0.0
 10
112.9732630631
 20
195.6060468743
 30
0.0
 10
113.4045321929
 20
195.6060517473
 30
0.0
  0
SPLINE
  5
47D
100
AcDbEntity
  8
RUNDUNGEN
100
AcDbSpline
 62
7
  6
CONTINUOUS
 70
0
 71
3
 72
11
 73
7
 74
0
 42
0.0000001
 43
0.0000001
 44
0.0000000001
 40
0.0
 40
0.0
 40
0.0
 40
0.0
 40
0.2500008489
 40
0.5000027538
 40
0.7500061449
 40
1.0
 40
1.0
 40
1.0
 40
1.0
 10
113.4045321929
 20
195.6060517473
 30
0.0
 10
113.8358990722
 20
195.6060396469
 30
0.0
 10
114.6986531742
 20
195.614653135
 30
0.0
 10
115.992317869
 20
195.6506099995
 30
0.0
 10
117.2854626606
 20
195.6982616616
 30
0.0
 10
118.1480483159
 20
195.722499726
 30
0.0
 10
118.5794031278
 20
195.7225
 30
0.0
  0
SPLINE
  5
47E
100
AcDbEntity
  8
RUNDUNGEN
100
AcDbSpline
 62
7
  6
CONTINUOUS
 70
0
 71
3
 72
22
 73
18
 74
0
 42
0.0000001
 43
0.0000001
 44
0.0000000001
 40
0.0
 40
0.0
 40
0.0
 40
0.0
 40
0.0698351026
 40
0.1392725955
 40
0.2076519258
 40
0.2742509846
 40
0.338347673
 40
0.3992358997
 40
0.4563281345
 40
0.5095496687
 40
0.5602315935
 40
0.6117634177
 40
0.6675768537
 40
0.7285551094
 40
0.7935498355
 40
0.8611416636
 40
1.0
 40
1.0
 40
1.0
 40
1.0
 10
115.6907547054
 20
236.6006634096
 30
0.0
 10
115.7624269647
 20
236.4877956302
 30
0.0
 10
115.8872563337
 20
236.2506926163
 30
0.0
 10
116.0185232451
 20
235.8741891835
 30
0.0
 10
116.1013416178
 20
235.4909231099
 30
0.0
 10
116.1469583048
 20
235.1120766809
 30
0.0
 10
116.1608248261
 20
234.7451460758
 30
0.0
 10
116.1445944755
 20
234.3964400278
 30
0.0
 10
116.0939018771
 20
234.0717237134
 30
0.0
 10
115.997257308
 20
233.7768729143
 30
0.0
 10
115.8341626891
 20
233.522544578
 30
0.0
 10
115.5934078802
 20
233.3310173512
 30
0.0
 10
115.2934210937
 20
233.206061105
 30
0.0
 10
114.9528695338
 20
233.1299275058
 30
0.0
 10
114.5846408903
 20
233.0853897912
 30
0.0
 10
114.065877866
 20
233.0522229691
 30
0.0
 10
113.6704649605
 20
233.0461671557
 30
0.0
 10
113.4046166266
 20
233.0461576758
 30
0.0
  0
SPLINE
  5
47F
100
AcDbEntity
  8
RUNDUNGEN
100
AcDbSpline
 62
7
  6
CONTINUOUS
 70
0
 71
3
 72
22
 73
18
 74
0
 42
0.0000001
 43
0.0000001
 44
0.0000000001
 40
0.0
 40
0.0
 40
0.0
 40
0.0
 40
0.138854762
 40
0.206442508
 40
0.2714298369
 40
0.3324022384
 40
0.3882087896
 40
0.4397382381
 40
0.4904246324
 40
0.5436523991
 40
0.6007481485
 40
0.6616368634
 40
0.7257353352
 40
0.7923370989
 40
0.860720682
 40
0.9301627237
 40
1.0
 40
1.0
 40
1.0
 40
1.0
 10
113.4046166266
 20
233.0461576758
 30
0.0
 10
113.1388217777
 20
233.0461481977
 30
0.0
 10
112.7434940418
 20
233.0522737141
 30
0.0
 10
112.224850832
 20
233.0854447937
 30
0.0
 10
111.8567296652
 20
233.1300483997
 30
0.0
 10
111.516283099
 20
233.2062073644
 30
0.0
 10
111.2164288755
 20
233.3312680122
 30
0.0
 10
110.9758069159
 20
233.5228569496
 30
0.0
 10
110.8128279982
 20
233.7772125356
 30
0.0
 10
110.7162604621
 20
234.0720573817
 30
0.0
 10
110.6656251804
 20
234.3967430564
 30
0.0
 10
110.6494130007
 20
234.7453989136
 30
0.0
 10
110.6632965018
 20
235.1122744359
 30
0.0
 10
110.7089246143
 20
235.4910678515
 30
0.0
 10
110.7917294332
 20
235.8742907773
 30
0.0
 10
110.9230302769
 20
236.2507293018
 30
0.0
 10
111.0478219966
 20
236.4878119232
 30
0.0
 10
111.1194839115
 20
236.6006634126
 30
0.0
  0
SPLINE
  5
480
100
AcDbEntity
  8
RUNDUNGEN
100
AcDbSpline
 62
7
  6
CONTINUOUS
 70
0
 71
3
 72
11
 73
7
 74
0
 42
0.0000001
 43
0.0000001
 44
0.0000000001
 40
0.0
 40
0.0
 40
0.0
 40
0.0
 40
0.2497444497
 40
0.4996582168
 40
0.7497679812
 40
1.0
 40
1.0
 40
1.0
 40
1.0
 10
113.4051192946
 20
238.0155621069
 30
0.0
 10
113.1720914076
 20
238.0155621069
 30
0.0
 10
112.7029261632
 20
237.9409308667
 30
0.0
 10
112.0668003872
 20
237.6299376722
 30
0.0
 10
111.5297205842
 20
237.1715264413
 30
0.0
 10
111.2436476022
 20
236.7984221072
 30
0.0
 10
111.1184862445
 20
236.6013209602
 30
0.0
  0
SPLINE
  5
481
100
AcDbEntity
  8
RUNDUNGEN
100
AcDbSpline
 62
7
  6
CONTINUOUS
 70
0
 71
3
 72
21
 73
17
 74
0
 42
0.0000001
 43
0.0000001
 44
0.0000000001
 40
0.0
 40
0.0
 40
0.0
 40
0.0
 40
0.136489032
 40
0.2031432411
 40
0.2672846131
 40
0.327904173
 40
0.384171146
 40
0.4360187561
 40
0.4857859077
 40
0.5385140175
 40
0.5971592677
 40
0.6608033179
 40
0.7275247853
 40
0.8646289691
 40
0.9330445924
 40
1.0
 40
1.0
 40
1.0
 40
1.0
 10
92.7492274191
 20
221.1877435683
 30
0.0
 10
93.0385040698
 20
221.3070692471
 30
0.0
 10
93.5071749424
 20
221.3964455016
 30
0.0
 10
94.1199209728
 20
221.3922400634
 30
0.0
 10
94.5571119986
 20
221.3451347855
 30
0.0
 10
94.9643146444
 20
221.261313875
 30
0.0
 10
95.3320996248
 20
221.1374020957
 30
0.0
 10
95.6497250796
 20
220.955200897
 30
0.0
 10
95.8872742145
 20
220.681493062
 30
0.0
 10
96.0089915799
 20
220.3253603477
 30
0.0
 10
96.0410782551
 20
219.9235361663
 30
0.0
 10
96.0202515125
 20
219.4901297926
 30
0.0
 10
95.949603689
 20
218.8808092508
 30
0.0
 10
95.8467723731
 20
218.2648438061
 30
0.0
 10
95.7256239513
 20
217.652014241
 30
0.0
 10
95.655058555
 20
217.3496262787
 30
0.0
 10
95.615472007
 20
217.2013133969
 30
0.0
  0
SPLINE
  5
482
100
AcDbEntity
  8
RUNDUNGEN
100
AcDbSpline
 62
7
  6
CONTINUOUS
 70
0
 71
3
 72
19
 73
15
 74
0
 42
0.0000001
 43
0.0000001
 44
0.0000000001
 40
0.0
 40
0.0
 40
0.0
 40
0.0
 40
0.1320523199
 40
0.1926190157
 40
0.2483736962
 40
0.2999596699
 40
0.3501613828
 40
0.4022242989
 40
0.4579316802
 40
0.5175821271
 40
0.580777034
 40
0.7153713261
 40
0.8566982626
 40
1.0
 40
1.0
 40
1.0
 40
1.0
 10
95.6154739954
 20
217.2013131765
 30
0.0
 10
95.5620479108
 20
217.001163772
 30
0.0
 10
95.4775518674
 20
216.7100852397
 30
0.0
 10
95.3204849758
 20
216.3526577066
 30
0.0
 10
95.1786323867
 20
216.1288240117
 30
0.0
 10
94.9991580018
 20
215.9544911162
 30
0.0
 10
94.7820864545
 20
215.8416454362
 30
0.0
 10
94.5383994975
 20
215.7869676465
 30
0.0
 10
94.2752520528
 20
215.7744957802
 30
0.0
 10
93.995380441
 20
215.7936497907
 30
0.0
 10
93.5956228158
 20
215.8528346199
 30
0.0
 10
93.0779282141
 20
215.9820710289
 30
0.0
 10
92.4663560633
 20
216.2326301122
 30
0.0
 10
92.0983803429
 20
216.4971565697
 30
0.0
 10
91.9374704423
 20
216.6541444739
 30
0.0
  0
SPLINE
  5
483
100
AcDbEntity
  8
RUNDUNGEN
100
AcDbSpline
 62
7
  6
CONTINUOUS
 70
0
 71
3
 72
9
 73
5
 74
0
 42
0.0000001
 43
0.0000001
 44
0.0000000001
 40
0.0
 40
0.0
 40
0.0
 40
0.0
 40
0.2503838418
 40
1.0
 40
1.0
 40
1.0
 40
1.0
 10
91.2322730064
 20
217.5997466468
 30
0.0
 10
91.2783886315
 20
217.5125780917
 30
0.0
 10
91.4755476595
 20
217.1714814271
 30
0.0
 10
91.7256963997
 20
216.860852466
 30
0.0
 10
91.9370158695
 20
216.6546687793
 30
0.0
  0
SPLINE
  5
484
100
AcDbEntity
  8
RUNDUNGEN
100
AcDbSpline
 62
7
  6
CONTINUOUS
 70
0
 71
3
 72
14
 73
10
 74
0
 42
0.0000001
 43
0.0000001
 44
0.0000000001
 40
0.0
 40
0.0
 40
0.0
 40
0.0
 40
0.2495172321
 40
0.3746183483
 40
0.4996980126
 40
0.6247480319
 40
0.7497914332
 40
0.8748914137
 40
1.0
 40
1.0
 40
1.0
 40
1.0
 10
92.7493192108
 20
221.18739631
 30
0.0
 10
92.4086620984
 20
221.0468763576
 30
0.0
 10
91.9202813095
 20
220.7605507483
 30
0.0
 10
91.4068094783
 20
220.2247672683
 30
0.0
 10
91.113827658
 20
219.7486141777
 30
0.0
 10
90.941369114
 20
219.2161656273
 30
0.0
 10
90.905451736
 20
218.6574699156
 30
0.0
 10
91.003374913
 20
218.1071773985
 30
0.0
 10
91.1458700538
 20
217.7630670077
 30
0.0
 10
91.2322730064
 20
217.5997466468
 30
0.0
  0
SPLINE
  5
485
100
AcDbEntity
  8
RUNDUNGEN
100
AcDbSpline
 62
7
  6
CONTINUOUS
 70
0
 71
3
 72
15
 73
11
 74
0
 42
0.0000001
 43
0.0000001
 44
0.0000000001
 40
0.0
 40
0.0
 40
0.0
 40
0.0
 40
0.125079812
 40
0.2501465236
 40
0.3751080837
 40
0.4999977713
 40
0.6248874306
 40
0.7498495787
 40
0.8749187237
 40
1.0
 40
1.0
 40
1.0
 40
1.0
 10
99.9055877766
 20
231.9564060556
 30
0.0
 10
99.677713607
 20
232.0072752058
 30
0.0
 10
99.2115117439
 20
232.0688538624
 30
0.0
 10
98.5074982312
 20
232.0135285252
 30
0.0
 10
97.8371588437
 20
231.7831997217
 30
0.0
 10
97.2615136284
 20
231.3659585152
 30
0.0
 10
96.8443261605
 20
230.7902741503
 30
0.0
 10
96.6140477727
 20
230.1199120112
 30
0.0
 10
96.5587746658
 20
229.4158867737
 30
0.0
 10
96.6203682223
 20
228.9496816413
 30
0.0
 10
96.671237968
 20
228.7218048039
 30
0.0
  0
SPLINE
  5
486
100
AcDbEntity
  8
RUNDUNGEN
100
AcDbSpline
 62
7
  6
CONTINUOUS
 70
0
 71
3
 72
11
 73
7
 74
0
 42
0.0000001
 43
0.0000001
 44
0.0000000001
 40
0.0
 40
0.0
 40
0.0
 40
0.0
 40
0.2497444497
 40
0.4996582168
 40
0.7497679812
 40
1.0
 40
1.0
 40
1.0
 40
1.0
 10
113.4051192946
 20
238.0155621069
 30
0.0
 10
113.6381471816
 20
238.0155621069
 30
0.0
 10
114.107312426
 20
237.9409308667
 30
0.0
 10
114.743438202
 20
237.6299376722
 30
0.0
 10
115.280518005
 20
237.1715264413
 30
0.0
 10
115.5665909871
 20
236.7984221072
 30
0.0
 10
115.6917523448
 20
236.6013209602
 30
0.0
  0
SPLINE
  5
487
100
AcDbEntity
  8
RUNDUNGEN
100
AcDbSpline
 62
7
  6
CONTINUOUS
 70
0
 71
3
 72
15
 73
11
 74
0
 42
0.0000001
 43
0.0000001
 44
0.0000000001
 40
0.0
 40
0.0
 40
0.0
 40
0.0
 40
0.1035374601
 40
0.2146735366
 40
0.3336590925
 40
0.4593782998
 40
0.5903700833
 40
0.7251400108
 40
0.8621588128
 40
1.0
 40
1.0
 40
1.0
 40
1.0
 10
128.2804908387
 20
226.4979864019
 30
0.0
 10
128.3800565741
 20
226.5261185533
 30
0.0
 10
128.5780891604
 20
226.6146172158
 30
0.0
 10
128.8530709335
 20
226.8047709319
 30
0.0
 10
129.1200897979
 20
227.0405536944
 30
0.0
 10
129.3786023197
 20
227.3133827103
 30
0.0
 10
129.6232682582
 20
227.6192386895
 30
0.0
 10
129.8445608528
 20
227.9563935974
 30
0.0
 10
130.0253215559
 20
228.3250467708
 30
0.0
 10
130.1079750541
 20
228.5884804996
 30
0.0
 10
130.1379852664
 20
228.722914674
 30
0.0
  0
SPLINE
  5
488
100
AcDbEntity
  8
RUNDUNGEN
100
AcDbSpline
 62
7
  6
CONTINUOUS
 70
0
 71
3
 72
15
 73
11
 74
0
 42
0.0000001
 43
0.0000001
 44
0.0000000001
 40
0.0
 40
0.0
 40
0.0
 40
0.0
 40
0.1035576316
 40
0.2147161604
 40
0.3337165063
 40
0.459437699
 40
0.5904230272
 40
0.7251893934
 40
0.8621760888
 40
1.0
 40
1.0
 40
1.0
 40
1.0
 10
102.1291574009
 20
230.0995432809
 30
0.0
 10
102.1008729245
 20
230.1990393181
 30
0.0
 10
102.0121559441
 20
230.3969024345
 30
0.0
 10
101.8218645259
 20
230.6716727078
 30
0.0
 10
101.5860569208
 20
230.9385082076
 30
0.0
 10
101.3132612856
 20
231.196833414
 30
0.0
 10
101.007443318
 20
231.4412475862
 30
0.0
 10
100.670543244
 20
231.6625251728
 30
0.0
 10
100.3018884534
 20
231.8428481241
 30
0.0
 10
100.0384703062
 20
231.9248948641
 30
0.0
 10
99.9041123144
 20
231.9548880699
 30
0.0
  0
SPLINE
  5
489
100
AcDbEntity
  8
RUNDUNGEN
100
AcDbSpline
 62
7
  6
CONTINUOUS
 70
0
 71
3
 72
9
 73
5
 74
0
 42
0.0000001
 43
0.0000001
 44
0.0000000001
 40
0.0
 40
0.0
 40
0.0
 40
0.0
 40
0.4475442315
 40
1.0
 40
1.0
 40
1.0
 40
1.0
 10
135.5779655828
 20
119.7391076516
 30
0.0
 10
135.4727294248
 20
119.7391076516
 30
0.0
 10
135.2376263177
 20
119.7471392999
 30
0.0
 10
135.002902472
 20
119.7609218826
 30
0.0
 10
134.8732429976
 20
119.7689082134
 30
0.0
  0
SPLINE
  5
48A
100
AcDbEntity
  8
RUNDUNGEN
100
AcDbSpline
 62
7
  6
CONTINUOUS
 70
0
 71
3
 72
9
 73
5
 74
0
 42
0.0000001
 43
0.0000001
 44
0.0000000001
 40
0.0
 40
0.0
 40
0.0
 40
0.0
 40
0.4475443472
 40
1.0
 40
1.0
 40
1.0
 40
1.0
 10
91.2322730064
 20
103.7391076516
 30
0.0
 10
91.3375122238
 20
103.7391076516
 30
0.0
 10
91.5726221021
 20
103.731075585
 30
0.0
 10
91.8073526996
 20
103.7172924159
 30
0.0
 10
91.9370158695
 20
103.7093056405
 30
0.0
  0
SPLINE
  5
48B
100
AcDbEntity
  8
RUNDUNGEN
100
AcDbSpline
 62
7
  6
CONTINUOUS
 70
0
 71
3
 72
9
 73
5
 74
0
 42
0.0000001
 43
0.0000001
 44
0.0000000001
 40
0.0
 40
0.0
 40
0.0
 40
0.0
 40
0.4475442994
 40
1.0
 40
1.0
 40
1.0
 40
1.0
 10
91.2322730064
 20
119.7391076516
 30
0.0
 10
91.337512186
 20
119.7391076516
 30
0.0
 10
91.5726220048
 20
119.7471397177
 30
0.0
 10
91.8073525439
 20
119.7609228688
 30
0.0
 10
91.9370156924
 20
119.7689096408
 30
0.0
  0
SPLINE
  5
48C
100
AcDbEntity
  8
RUNDUNGEN
100
AcDbSpline
 62
7
  6
CONTINUOUS
 70
0
 71
3
 72
9
 73
5
 74
0
 42
0.0000001
 43
0.0000001
 44
0.0000000001
 40
0.0
 40
0.0
 40
0.0
 40
0.0
 40
0.4475439952
 40
1.0
 40
1.0
 40
1.0
 40
1.0
 10
135.5779655828
 20
103.7391076516
 30
0.0
 10
135.4727294711
 20
103.7391076516
 30
0.0
 10
135.237626344
 20
103.7310759872
 30
0.0
 10
135.002902474
 20
103.7172934652
 30
0.0
 10
134.8732429325
 20
103.7093071327
 30
0.0
  0
ENDSEC
  0
SECTION
  2
OBJECTS
  0
DICTIONARY
  5
C
100
AcDbDictionary
280
0
281
1
  3
ACAD_GROUP
350
D
  3
ACAD_MLINESTYLE
350
17
  3
ACAD_LAYOUT
350
1A
  3
ACAD_PLOTSETTINGS
350
19
  3
ACAD_PLOTSTYLENAME
350
E
  0
DICTIONARY
  5
D
102
{ACAD_REACTORS
330
C
102
}
100
AcDbDictionary
280
0
281
1
  0
ACDBDICTIONARYWDFLT
  5
E
102
{ACAD_REACTORS
330
C
102
}
100
AcDbDictionary
281
1
  3
Normal
350
F
100
AcDbDictionaryWithDefault
340
F
  0
DICTIONARY
  5
17
102
{ACAD_REACTORS
330
C
102
}
100
AcDbDictionary
280
0
281
1
  3
Standard
350
18
  0
DICTIONARY
  5
19
102
{ACAD_REACTORS
330
C
102
}
100
AcDbDictionary
281
1
  0
DICTIONARY
  5
1A
102
{ACAD_REACTORS
330
C
102
}
100
AcDbDictionary
281
1
  3
Model
350
48D
  3
Layout1
350
48E
  0
ACDBPLACEHOLDER
  5
F
102
{ACAD_REACTORS
330
E
102
}
  0
MLINESTYLE
  5
18
102
{ACAD_REACTORS
330
17
102
}
100
AcDbMlineStyle
  2
STANDARD
 70
0
  3

 62
256
 51
90.0
 52
90.0
 71
2
 49
0.5
 62
256
  6
BYLAYER
 49
-0.5
 62
256
  6
BYLAYER
  0
LAYOUT
  5
48D
102
{ACAD_REACTORS
330
1A
102
}
100
AcDbPlotSettings
  1

  2
none_device
  4
ISO_A3_(420.00_x_297.00_MM)
  6

 40
0.0
 41
0.0
 42
0.0
 43
0.0
 44
420.0
 45
297.0
 46
0.0
 47
0.0
 48
0.0
 49
0.0
140
0.0
141
0.0
142
1.0
143
1.0
 70
1024
 72
1
 73
0
 74
0
  7

 75
0
147
1.0
148
0.0
149
0.0
100
AcDbLayout
  1
Model
 70
0
 71
0
 10
0.0
 20
0.0
 11
420.0
 21
297.0
 12
0.0
 22
0.0
 32
0.0
 14
0.0
 24
0.0
 34
0.0
 15
0.0
 25
0.0
 35
0.0
146
0.0
 13
0.0
 23
0.0
 33
0.0
 16
1.0
 26
0.0
 36
0.0
 17
0.0
 27
1.0
 37
0.0
 76
0
330
209
345
0
346
0
  0
LAYOUT
  5
48E
102
{ACAD_REACTORS
330
1A
102
}
100
AcDbPlotSettings
  1

  2
none_device
  4
ISO_A3_(420.00_x_297.00_MM)
  6

 40
0.0
 41
0.0
 42
0.0
 43
0.0
 44
420.0
 45
297.0
 46
0.0
 47
0.0
 48
0.0
 49
0.0
140
0.0
141
0.0
142
1.0
143
1.0
 70
0
 72
1
 73
0
 74
0
  7

 75
0
147
1.0
148
0.0
149
0.0
100
AcDbLayout
  1
Layout1
 70
0
 71
1
 10
0.0
 20
0.0
 11
420.0
 21
297.0
 12
0.0
 22
0.0
 32
0.0
 14
0.0
 24
0.0
 34
0.0
 15
0.0
 25
0.0
 35
0.0
146
0.0
 13
0.0
 23
0.0
 33
0.0
 16
1.0
 26
0.0
 36
0.0
 17
0.0
 27
1.0
 37
0.0
 76
0
330
20A
345
0
346
0
  0
ENDSEC
  0
EOF
