999
DXF file: L-ABA-2000daN-7909394-M35648-P-1.dxf
999
Pro/ENGINEER 2011490 by Parametric Technology Corporation
  0
SECTION
  2
HEADER
  9
$ACADVER
  1
AC1015
  9
$DWGCODEPAGE
  3
ANSI_1252
  9
$EXTMAX
 10
420.0
 20
297.0
 30
0.0
  9
$EXTMIN
 10
0.0
 20
0.0
 30
0.0
  9
$LIMMIN
 10
0.0
 20
0.0
  9
$LIMMAX
 10
420.0
 20
297.0
  9
$VIEWCTR
 10
210.0
 20
148.5
  9
$VIEWSIZE
 40
297.0
  9
$CLAYER
  8
0
  9
$LTSCALE
 40
23.1
  9
$CELTYPE
  6
BYLAYER
  9
$DIMSCALE
 40
1.0
  9
$DIMASZ
 40
3.5
  9
$DIMEXO
 40
2.625
  9
$DIMDLI
 40
15.96
  9
$DIMEXE
 40
7.56
  9
$DIMCEN
 40
3.78
  9
$DIMLFAC
 40
1.0
  9
$DIMBLK
  1
_FILLED
  9
$DIMTXT
 40
3.5
  9
$DIMTOL
 70
1
  9
$DIMLIM
 70
0
  9
$DIMTFAC
 40
1.0
  9
$DIMTP
 40
0.005
  9
$DIMTM
 40
0.005
  9
$PDMODE
 70
3
  9
$PDSIZE
 40
0.3125
  9
$HANDSEED
  5
372
  9
$TILEMODE
 70
1
  9
$MEASUREMENT
 70
1
  9
$INSUNITS
 70
4
  0
ENDSEC
  0
SECTION
  2
CLASSES
  0
CLASS
  1
ACDBDICTIONARYWDFLT
  2
AcDbDictionaryWithDefault
  3
AutoCAD 2000
 90
0
280
0
281
0
  0
CLASS
  1
ACDBPLACEHOLDER
  2
AcDbPlaceHolder
  3
AutoCAD 2000
 90
0
280
0
281
0
  0
CLASS
  1
LAYOUT
  2
AcDbLayout
  3
AutoCAD 2000
 90
0
280
0
281
0
  0
ENDSEC
  0
SECTION
  2
TABLES
  0
TABLE
  2
VPORT
  5
8
100
AcDbSymbolTable
 70
2
  0
VPORT
  5
1F4
100
AcDbSymbolTableRecord
100
AcDbViewportTableRecord
  2
*ACTIVE
 70
0
 10
0.0
 20
0.0
 11
1.0
 21
1.0
 12
210.0
 22
148.5
 13
0.0
 23
0.0
 14
1.0
 24
1.0
 15
0.0
 25
0.0
 16
0.0
 26
0.0
 36
1.0
 17
0.0
 27
0.0
 37
0.0
 40
297.0
 41
1.4141414141
 42
50.0
 43
0.0
 44
0.0
 50
0.0
 51
0.0
 71
0
 72
100
 73
1
 74
1
 75
0
 76
0
 77
0
 78
0
  0
ENDTAB
  0
TABLE
  2
LTYPE
  5
5
100
AcDbSymbolTable
 70
6
  0
LTYPE
  5
14
100
AcDbSymbolTableRecord
100
AcDbLinetypeTableRecord
  2
BYBLOCK
 70
0
  3

 72
65
 73
0
 40
0.0
  0
LTYPE
  5
15
100
AcDbSymbolTableRecord
100
AcDbLinetypeTableRecord
  2
BYLAYER
 70
0
  3

 72
65
 73
0
 40
0.0
  0
LTYPE
  5
16
100
AcDbSymbolTableRecord
100
AcDbLinetypeTableRecord
  2
CONTINUOUS
 70
64
  3
Solid line
 72
65
 73
0
 40
0.0
  0
LTYPE
  5
1F5
100
AcDbSymbolTableRecord
100
AcDbLinetypeTableRecord
  2
CENTER
 70
64
  3
____ _ ____ _ ____ _ ____ _ ____ _ ____ _ ____
 72
65
 73
4
 40
0.6
 49
0.375
 74
0
 49
-0.075
 74
0
 49
0.075
 74
0
 49
-0.075
 74
0
  0
LTYPE
  5
1F6
100
AcDbSymbolTableRecord
100
AcDbLinetypeTableRecord
  2
HIDDEN
 70
64
  3
- - - - - - - - - - - - - - - - - - - -
 72
65
 73
2
 40
0.2
 49
0.1
 74
0
 49
-0.1
 74
0
  0
LTYPE
  5
1F7
100
AcDbSymbolTableRecord
100
AcDbLinetypeTableRecord
  2
PHANTOM
 70
64
  3
_____ _ _ _____ _ _ _____ _ _ _____
 72
65
 73
6
 40
0.8
 49
0.45
 74
0
 49
-0.05
 74
0
 49
0.1
 74
0
 49
-0.05
 74
0
 49
0.1
 74
0
 49
-0.05
 74
0
  0
LTYPE
  5
1F8
100
AcDbSymbolTableRecord
100
AcDbLinetypeTableRecord
  2
DOT
 70
64
  3
. . . . . . . . . . . . . . . . . . . .
 72
65
 73
2
 40
0.2
 49
0.1
 74
0
 49
-0.1
 74
0
  0
LTYPE
  5
1F9
100
AcDbSymbolTableRecord
100
AcDbLinetypeTableRecord
  2
DASHED
 70
64
  3
- - - - - - - - - - - - - - - - - - - -
 72
65
 73
2
 40
0.2
 49
0.1
 74
0
 49
-0.1
 74
0
  0
ENDTAB
  0
TABLE
  2
LAYER
  5
2
100
AcDbSymbolTable
 70
36
  0
LAYER
  5
10
100
AcDbSymbolTableRecord
100
AcDbLayerTableRecord
  2
0
 70
0
 62
7
  6
CONTINUOUS
370
-3
390
F
  0
LAYER
  5
1FA
100
AcDbSymbolTableRecord
100
AcDbLayerTableRecord
  2
DEFAULT_1
 70
0
 62
7
  6
CENTER
370
-3
390
F
  0
LAYER
  5
1FB
100
AcDbSymbolTableRecord
100
AcDbLayerTableRecord
  2
DEFAULT_2
 70
0
 62
8
  6
HIDDEN
370
-3
390
F
  0
LAYER
  5
1FC
100
AcDbSymbolTableRecord
100
AcDbLayerTableRecord
  2
DEFAULT_3
 70
0
 62
7
  6
PHANTOM
370
-3
390
F
  0
LAYER
  5
1FD
100
AcDbSymbolTableRecord
100
AcDbLayerTableRecord
  2
AUSFORMSCHRAEGEN
 70
0
 62
7
  6
CONTINUOUS
370
-3
390
F
  0
LAYER
  5
1FE
100
AcDbSymbolTableRecord
100
AcDbLayerTableRecord
  2
BESCHRIFTUNG
 70
0
 62
7
  6
CONTINUOUS
370
-3
390
F
  0
LAYER
  5
1FF
100
AcDbSymbolTableRecord
100
AcDbLayerTableRecord
  2
BEZUGSACHSEN
 70
0
 62
7
  6
CONTINUOUS
370
-3
390
F
  0
LAYER
  5
200
100
AcDbSymbolTableRecord
100
AcDbLayerTableRecord
  2
BEZUGSEBENEN
 70
0
 62
7
  6
CONTINUOUS
370
-3
390
F
  0
LAYER
  5
201
100
AcDbSymbolTableRecord
100
AcDbLayerTableRecord
  2
FLAECHEN
 70
0
 62
7
  6
CONTINUOUS
370
-3
390
F
  0
LAYER
  5
202
100
AcDbSymbolTableRecord
100
AcDbLayerTableRecord
  2
HILFEN
 70
0
 62
7
  6
CONTINUOUS
370
-3
390
F
  0
LAYER
  5
203
100
AcDbSymbolTableRecord
100
AcDbLayerTableRecord
  2
KURVEN
 70
0
 62
7
  6
CONTINUOUS
370
-3
390
F
  0
LAYER
  5
204
100
AcDbSymbolTableRecord
100
AcDbLayerTableRecord
  2
PLATZIERUNG
 70
0
 62
7
  6
CONTINUOUS
370
-3
390
F
  0
LAYER
  5
205
100
AcDbSymbolTableRecord
100
AcDbLayerTableRecord
  2
RUNDUNGEN
 70
0
 62
7
  6
CONTINUOUS
370
-3
390
F
  0
LAYER
  5
206
100
AcDbSymbolTableRecord
100
AcDbLayerTableRecord
  2
TEIL_STARTBEZUEGE
 70
0
 62
7
  6
CONTINUOUS
370
-3
390
F
  0
LAYER
  5
207
100
AcDbSymbolTableRecord
100
AcDbLayerTableRecord
  2
ZEICHNUNGSBEMASSUNGEN
 70
0
 62
7
  6
CONTINUOUS
370
-3
390
F
  0
ENDTAB
  0
TABLE
  2
STYLE
  5
3
100
AcDbSymbolTable
 70
1
  0
STYLE
  5
11
100
AcDbSymbolTableRecord
100
AcDbTextStyleTableRecord
  2
STANDARD
 70
0
 40
0.0
 41
0.7
 50
0.0
 71
0
 42
0.2
  3
txt
  4

  0
STYLE
  5
208
100
AcDbSymbolTableRecord
100
AcDbTextStyleTableRecord
  2
TEXTSTYLE_1
 70
0
 40
0.0
 41
0.8
 50
0.0
 71
0
 42
0.2
  3
gdt
  4

  0
ENDTAB
  0
TABLE
  2
VIEW
  5
6
100
AcDbSymbolTable
 70
0
  0
ENDTAB
  0
TABLE
  2
UCS
  5
7
100
AcDbSymbolTable
 70
0
  0
ENDTAB
  0
TABLE
  2
APPID
  5
9
100
AcDbSymbolTable
 70
1
  0
APPID
  5
209
100
AcDbSymbolTableRecord
100
AcDbRegAppTableRecord
  2
ACAD
 70
0
  0
ENDTAB
  0
TABLE
  2
BLOCK_RECORD
  5
1
100
AcDbSymbolTable
 70
0
  0
BLOCK_RECORD
  5
20A
100
AcDbSymbolTableRecord
100
AcDbBlockTableRecord
  2
*Model_Space
  0
BLOCK_RECORD
  5
20B
100
AcDbSymbolTableRecord
100
AcDbBlockTableRecord
  2
*Paper_Space
  0
ENDTAB
  0
TABLE
  2
DIMSTYLE
  5
A
100
AcDbSymbolTable
 70
1
100
AcDbDimStyleTable
 71
0
  0
DIMSTYLE
105
20C
100
AcDbSymbolTableRecord
100
AcDbDimStyleTableRecord
  2
STANDARD
 70
0
  3

  4

 40
1.0
 41
3.5
 42
0.0625
 43
0.38
 44
0.18
 45
0.0
 46
0.0
 47
0.005
 48
0.005
140
3.5
141
0.09
142
0.0
143
25.4
144
1.0
145
0.0
146
1.0
147
0.09
 71
1.0
 72
0.0
 73
0
 74
0
 75
0
 76
0
 77
1
 78
8
170
0
171
2
172
0
173
0
174
0
175
0
176
0
177
0
178
5
270
2
271
3
272
3
273
2
274
2
275
0
280
0
281
0
282
0
283
1
284
8
285
0
286
0
287
3
288
0
340
11
  0
ENDTAB
  0
ENDSEC
  0
SECTION
  2
BLOCKS
  0
BLOCK
  5
20
100
AcDbEntity
  8
0
100
AcDbBlockBegin
  2
*Model_Space
 70
0
 10
0.0
 20
0.0
 30
0.0
  3
*Model_Space
  1

  0
ENDBLK
  5
21
100
AcDbEntity
  8
0
100
AcDbBlockEnd
  0
BLOCK
  5
1C
100
AcDbEntity
  8
0
100
AcDbBlockBegin
  2
*Paper_Space
 70
0
 10
0.0
 20
0.0
 30
0.0
  3
*Paper_Space
  1

  0
ENDBLK
  5
1D
100
AcDbEntity
  8
0
100
AcDbBlockEnd
  0
ENDSEC
  0
SECTION
  2
ENTITIES
  0
MTEXT
  5
20D
100
AcDbEntity
  8
0
100
AcDbMText
 62
5
  6
CONTINUOUS
  7
STANDARD
 71
1
 72
1
 10
261.1072316744
 20
179.2229221404
 30
0.0
 11
0.0
 21
1.0
 31
0.0
 44
0.9
  1
RUD\PL-ABA 2000daN
 40
2.0
 41
20.0
  0
MTEXT
  5
20E
100
AcDbEntity
  8
0
100
AcDbMText
 62
5
  6
CONTINUOUS
  7
STANDARD
 71
1
 72
1
 10
122.5813198894
 20
97.040013354
 30
0.0
 11
1.0
 21
0.0
 31
0.0
 44
0.9
  1
RUD\PL-ABA 2000daN
 40
2.5
 41
25.0
  0
LINE
  5
20F
100
AcDbEntity
  8
0
100
AcDbLine
 62
7
  6
CONTINUOUS
 10
0.0
 20
0.0
 11
0.0
 21
297.0
  0
LINE
  5
210
100
AcDbEntity
  8
0
100
AcDbLine
 62
7
  6
CONTINUOUS
 10
0.0
 20
0.0
 11
420.0
 21
0.0
  0
LINE
  5
211
100
AcDbEntity
  8
0
100
AcDbLine
 62
7
  6
CONTINUOUS
 10
0.0
 20
297.0
 11
420.0
 21
297.0
  0
LINE
  5
212
100
AcDbEntity
  8
0
100
AcDbLine
 62
7
  6
CONTINUOUS
 10
420.0
 20
0.0
 11
420.0
 21
297.0
  0
LINE
  5
213
100
AcDbEntity
  8
BEZUGSACHSEN
100
AcDbLine
 62
7
  6
CONTINUOUS
 10
120.9007341341
 20
179.1012284424
 11
120.9007341341
 21
190.1288046164
  0
LINE
  5
214
100
AcDbEntity
  8
BEZUGSACHSEN
100
AcDbLine
 62
7
  6
CONTINUOUS
 10
121.0470161841
 20
192.0625866792
 11
122.2876333717
 21
200.2158601138
  0
LINE
  5
215
100
AcDbEntity
  8
0
100
AcDbLine
 62
7
  6
CONTINUOUS
 10
122.447591913
 20
189.2668244084
 11
123.1220239718
 21
188.9874655028
  0
LINE
  5
216
100
AcDbEntity
  8
0
100
AcDbLine
 62
7
  6
CONTINUOUS
 10
123.3899490362
 20
188.8764873074
 11
126.4110351075
 21
187.6251124836
  0
LINE
  5
217
100
AcDbEntity
  8
0
100
AcDbLine
 62
7
  6
CONTINUOUS
 10
126.7439696937
 20
188.4288876768
 11
125.1271805118
 21
189.0985836835
  0
LINE
  5
218
100
AcDbEntity
  8
0
100
AcDbLine
 62
7
  6
CONTINUOUS
 10
124.4619872484
 20
189.3741157548
 11
123.7228836223
 21
189.6802625007
  0
LINE
  5
219
100
AcDbEntity
  8
0
100
AcDbLine
 62
7
  6
CONTINUOUS
 10
126.5193436334
 20
199.0969026343
 11
125.7386694314
 21
197.212188388
  0
LINE
  5
21A
100
AcDbEntity
  8
0
100
AcDbLine
 62
7
  6
CONTINUOUS
 10
125.4057348452
 20
196.4084131947
 11
125.0728002591
 21
195.6046380014
  0
LINE
  5
21B
100
AcDbEntity
  8
0
100
AcDbLine
 62
7
  6
CONTINUOUS
 10
124.4260652584
 20
194.0432815915
 11
124.0931306722
 21
193.2395063982
  0
LINE
  5
21C
100
AcDbEntity
  8
0
100
AcDbLine
 62
7
  6
CONTINUOUS
 10
123.2722747098
 20
191.257784801
 11
122.447591913
 21
189.2668244084
  0
LINE
  5
21D
100
AcDbEntity
  8
0
100
AcDbLine
 62
7
  6
CONTINUOUS
 10
123.1220239718
 20
188.9874655028
 11
123.893131088
 21
190.8490827608
  0
LINE
  5
21E
100
AcDbEntity
  8
0
100
AcDbLine
 62
7
  6
CONTINUOUS
 10
126.4131014901
 20
196.9328294824
 11
127.0827974967
 21
198.5496186643
  0
LINE
  5
21F
100
AcDbEntity
  8
0
100
AcDbLine
 62
7
  6
CONTINUOUS
 10
127.0139611407
 20
197.6256264803
 11
126.6810265545
 21
196.821851287
  0
LINE
  5
220
100
AcDbEntity
  8
0
100
AcDbLine
 62
7
  6
CONTINUOUS
 10
123.7228836223
 20
189.6802625007
 11
123.3899490362
 21
188.8764873074
  0
LINE
  5
221
100
AcDbEntity
  8
0
100
AcDbLine
 62
7
  6
CONTINUOUS
 10
124.9001597784
 20
190.4319578195
 11
124.4619872484
 21
189.3741157548
  0
LINE
  5
222
100
AcDbEntity
  8
BEZUGSACHSEN
100
AcDbLine
 62
7
  6
CONTINUOUS
 10
130.319603127
 20
202.0579373383
 11
137.1356477111
 21
218.5133246151
  0
LINE
  5
223
100
AcDbEntity
  8
0
100
AcDbLine
 62
7
  6
CONTINUOUS
 10
125.1271805118
 20
189.0985836835
 11
125.3015077002
 21
189.5194467462
  0
LINE
  5
224
100
AcDbEntity
  8
RUNDUNGEN
100
AcDbLine
 62
7
  6
CONTINUOUS
 10
190.9007341341
 20
179.1012284424
 11
188.9007341341
 21
179.1012284424
  0
LINE
  5
225
100
AcDbEntity
  8
BEZUGSACHSEN
100
AcDbLine
 62
7
  6
CONTINUOUS
 10
120.9007341341
 20
179.1012284424
 11
188.9007341341
 21
179.1012284424
  0
LINE
  5
226
100
AcDbEntity
  8
BEZUGSACHSEN
100
AcDbLine
 62
7
  6
CONTINUOUS
 10
131.3746827841
 20
197.5973319291
 11
130.3196716157
 21
200.1443542001
  0
LINE
  5
227
100
AcDbEntity
  8
0
100
AcDbLine
 62
7
  6
CONTINUOUS
 10
129.6973765737
 20
197.4666245507
 11
129.3606151533
 21
196.6536105621
  0
LINE
  5
228
100
AcDbEntity
  8
0
100
AcDbLine
 62
7
  6
CONTINUOUS
 10
126.4110351075
 20
187.6251124836
 11
126.7439696937
 21
188.4288876768
  0
LINE
  5
229
100
AcDbEntity
  8
0
100
AcDbLine
 62
7
  6
CONTINUOUS
 10
127.417626667
 20
190.0552394783
 11
127.8921541231
 21
191.2008500986
  0
LINE
  5
22A
100
AcDbEntity
  8
0
100
AcDbLine
 62
7
  6
CONTINUOUS
 10
129.7021126258
 20
195.5704764632
 11
130.4827868279
 21
197.4551907095
  0
LINE
  5
22B
100
AcDbEntity
  8
RUNDUNGEN
100
AcDbLine
 62
7
  6
CONTINUOUS
 10
138.4886379615
 20
219.8663148654
 11
154.752683837
 21
226.6031032461
  0
LINE
  5
22C
100
AcDbEntity
  8
BEZUGSACHSEN
100
AcDbLine
 62
7
  6
CONTINUOUS
 10
152.9947648559
 20
183.1012284424
 11
122.9007341341
 21
183.1012284424
  0
LINE
  5
22D
100
AcDbEntity
  8
RUNDUNGEN
100
AcDbLine
 62
7
  6
CONTINUOUS
 10
158.8067034123
 20
183.1012284424
 11
188.9007341341
 21
183.1012284424
  0
LINE
  5
22E
100
AcDbEntity
  8
0
100
AcDbLine
 62
7
  6
CONTINUOUS
 10
124.0931306722
 20
193.2395063982
 11
126.4721204684
 21
192.2540965599
  0
LINE
  5
22F
100
AcDbEntity
  8
0
100
AcDbLine
 62
7
  6
CONTINUOUS
 10
126.8050550546
 20
193.0578717531
 11
124.4260652584
 21
194.0432815915
  0
LINE
  5
230
100
AcDbEntity
  8
BEZUGSACHSEN
100
AcDbLine
 62
7
  6
CONTINUOUS
 10
129.4441308176
 20
189.4918564966
 11
131.3746836678
 21
194.1526233702
  0
LINE
  5
231
100
AcDbEntity
  8
0
100
AcDbLine
 62
7
  6
CONTINUOUS
 10
125.0728002591
 20
195.6046380014
 11
127.4517900553
 21
194.6192281631
  0
LINE
  5
232
100
AcDbEntity
  8
0
100
AcDbLine
 62
7
  6
CONTINUOUS
 10
127.7847246414
 20
195.4230033564
 11
125.4057348452
 21
196.4084131947
  0
LINE
  5
233
100
AcDbEntity
  8
0
100
AcDbLine
 62
7
  6
CONTINUOUS
 10
125.7386694314
 20
197.212188388
 11
126.4131014901
 21
196.9328294824
  0
LINE
  5
234
100
AcDbEntity
  8
0
100
AcDbLine
 62
7
  6
CONTINUOUS
 10
126.6810265545
 20
196.821851287
 11
129.7021126258
 21
195.5704764632
  0
LINE
  5
235
100
AcDbEntity
  8
0
100
AcDbLine
 62
7
  6
CONTINUOUS
 10
129.3606151533
 20
196.6536105621
 11
127.0139611407
 21
197.6256264803
  0
LINE
  5
236
100
AcDbEntity
  8
0
100
AcDbLine
 62
7
  6
CONTINUOUS
 10
128.2195072762
 20
199.0204592714
 11
129.2265359666
 21
198.6033343301
  0
LINE
  5
237
100
AcDbEntity
  8
BEZUGSACHSEN
100
AcDbLine
 62
7
  6
CONTINUOUS
 10
122.5883354463
 20
186.2310656968
 11
125.9894213977
 21
186.7689148931
  0
LINE
  5
238
100
AcDbEntity
  8
0
100
AcDbLine
 62
7
  6
CONTINUOUS
 10
186.2830695374
 20
194.5589422579
 11
187.8464373579
 21
194.680377931
  0
LINE
  5
239
100
AcDbEntity
  8
0
100
AcDbLine
 62
7
  6
CONTINUOUS
 10
184.6476279914
 20
194.4341061318
 11
185.5313657102
 21
194.5003546623
  0
LINE
  5
23A
100
AcDbEntity
  8
RUNDUNGEN
100
AcDbLine
 62
7
  6
CONTINUOUS
 10
189.2131328219
 20
186.2310656968
 11
185.8120468706
 21
186.7689148931
  0
LINE
  5
23B
100
AcDbEntity
  8
0
100
AcDbLine
 62
7
  6
CONTINUOUS
 10
125.7061179038
 20
189.829915075
 11
127.417626667
 21
190.0552394783
  0
LINE
  5
23C
100
AcDbEntity
  8
0
100
AcDbLine
 62
7
  6
CONTINUOUS
 10
127.8921541231
 20
191.2008500986
 11
125.7169924843
 21
190.9144846362
  0
LINE
  5
23D
100
AcDbEntity
  8
0
100
AcDbLine
 62
7
  6
CONTINUOUS
 10
188.5551417564
 20
195.4530371242
 11
184.3171641969
 21
195.2319163065
  0
LINE
  5
23E
100
AcDbEntity
  8
0
100
AcDbLine
 62
7
  6
CONTINUOUS
 10
183.2610913433
 20
201.8546429991
 11
184.8244591639
 21
201.9760786722
  0
LINE
  5
23F
100
AcDbEntity
  8
0
100
AcDbLine
 62
7
  6
CONTINUOUS
 10
181.6256499799
 20
201.7298064324
 11
182.5093875162
 21
201.7960554035
  0
LINE
  5
240
100
AcDbEntity
  8
0
100
AcDbLine
 62
7
  6
CONTINUOUS
 10
185.5331637449
 20
202.7487374249
 11
181.2874838934
 21
202.5272151831
  0
LINE
  5
241
100
AcDbEntity
  8
0
100
AcDbLine
 62
7
  6
CONTINUOUS
 10
183.0962522642
 20
208.6319621719
 11
179.3940178919
 21
207.0984464838
  0
LINE
  5
242
100
AcDbEntity
  8
0
100
AcDbLine
 62
7
  6
CONTINUOUS
 10
180.3748257229
 20
206.6229244878
 11
183.4080106595
 21
207.8793108257
  0
LINE
  5
243
100
AcDbEntity
  8
0
100
AcDbLine
 62
7
  6
CONTINUOUS
 10
180.4560748294
 20
204.5344142213
 11
181.125124265
 21
204.8115435715
  0
LINE
  5
244
100
AcDbEntity
  8
0
100
AcDbLine
 62
7
  6
CONTINUOUS
 10
182.28020351
 20
204.8755536033
 11
181.6003085162
 21
204.5939318759
  0
LINE
  5
245
100
AcDbEntity
  8
0
100
AcDbLine
 62
7
  6
CONTINUOUS
 10
182.1677088126
 20
203.2241063851
 11
182.8476038063
 21
203.5057281125
  0
LINE
  5
246
100
AcDbEntity
  8
0
100
AcDbLine
 62
7
  6
CONTINUOUS
 10
186.6326317318
 20
200.0943868995
 11
182.9371136017
 21
198.5636531701
  0
LINE
  5
247
100
AcDbEntity
  8
0
100
AcDbLine
 62
7
  6
CONTINUOUS
 10
183.9112051677
 20
198.0853492705
 11
184.8143868051
 21
198.459459354
  0
LINE
  5
248
100
AcDbEntity
  8
0
100
AcDbLine
 62
7
  6
CONTINUOUS
 10
185.4767199985
 20
198.7338067455
 11
186.282057021
 21
199.0673882625
  0
LINE
  5
249
100
AcDbEntity
  8
RUNDUNGEN
100
AcDbLine
 62
7
  6
CONTINUOUS
 10
182.3573374506
 20
189.4918564966
 11
180.4267846004
 21
194.1526233702
  0
LINE
  5
24A
100
AcDbEntity
  8
0
100
AcDbLine
 62
7
  6
CONTINUOUS
 10
182.732392257
 20
199.0578942169
 11
185.8854507751
 21
201.8982412986
  0
LINE
  5
24B
100
AcDbEntity
  8
0
100
AcDbLine
 62
7
  6
CONTINUOUS
 10
184.8244591639
 20
201.9760786722
 11
183.6372798476
 21
200.94644361
  0
LINE
  5
24C
100
AcDbEntity
  8
0
100
AcDbLine
 62
7
  6
CONTINUOUS
 10
183.06327826
 20
200.4588448578
 11
182.3915363586
 21
199.8807931498
  0
LINE
  5
24D
100
AcDbEntity
  8
RUNDUNGEN
100
AcDbLine
 62
7
  6
CONTINUOUS
 10
173.3128303067
 20
219.8663148654
 11
157.0487844312
 21
226.6031032461
  0
LINE
  5
24E
100
AcDbEntity
  8
0
100
AcDbLine
 62
7
  6
CONTINUOUS
 10
181.4835443322
 20
202.058632513
 11
181.6256499799
 21
201.7298064324
  0
LINE
  5
24F
100
AcDbEntity
  8
RUNDUNGEN
100
AcDbLine
 62
7
  6
CONTINUOUS
 10
181.4818651412
 20
202.0579373383
 11
174.6658205571
 21
218.5133246151
  0
LINE
  5
250
100
AcDbEntity
  8
0
100
AcDbLine
 62
7
  6
CONTINUOUS
 10
182.3915363586
 20
199.8807931498
 11
182.732392257
 21
199.0578942169
  0
LINE
  5
251
100
AcDbEntity
  8
0
100
AcDbLine
 62
7
  6
CONTINUOUS
 10
182.9371136017
 20
198.5636531701
 11
183.6105117155
 21
196.9379263108
  0
LINE
  5
252
100
AcDbEntity
  8
0
100
AcDbLine
 62
7
  6
CONTINUOUS
 10
184.3171641969
 20
195.2319163065
 11
184.6476279914
 21
194.4341061318
  0
LINE
  5
253
100
AcDbEntity
  8
0
100
AcDbLine
 62
7
  6
CONTINUOUS
 10
185.4135141876
 20
192.5850932896
 11
185.7543700861
 21
191.7621943567
  0
LINE
  5
254
100
AcDbEntity
  8
RUNDUNGEN
100
AcDbLine
 62
7
  6
CONTINUOUS
 10
180.4267854841
 20
197.5973319291
 11
181.4817966525
 21
200.1443542001
  0
LINE
  5
255
100
AcDbEntity
  8
0
100
AcDbLine
 62
7
  6
CONTINUOUS
 10
184.2333556441
 20
197.3076092212
 11
183.9112051677
 21
198.0853492705
  0
LINE
  5
256
100
AcDbEntity
  8
0
100
AcDbLine
 62
7
  6
CONTINUOUS
 10
181.125124265
 20
204.8115435715
 11
180.3748257229
 21
206.6229244878
  0
LINE
  5
257
100
AcDbEntity
  8
0
100
AcDbLine
 62
7
  6
CONTINUOUS
 10
182.5093875162
 20
201.7960554035
 11
183.06327826
 21
200.4588448578
  0
LINE
  5
258
100
AcDbEntity
  8
0
100
AcDbLine
 62
7
  6
CONTINUOUS
 10
185.5313657102
 20
194.5003546623
 11
186.0852562715
 21
193.1631445571
  0
LINE
  5
259
100
AcDbEntity
  8
0
100
AcDbLine
 62
7
  6
CONTINUOUS
 10
181.6003085162
 20
204.5939318759
 11
182.1677088126
 21
203.2241063851
  0
LINE
  5
25A
100
AcDbEntity
  8
0
100
AcDbLine
 62
7
  6
CONTINUOUS
 10
186.6592578592
 20
193.6507433093
 11
186.2830695374
 21
194.5589422579
  0
LINE
  5
25B
100
AcDbEntity
  8
0
100
AcDbLine
 62
7
  6
CONTINUOUS
 10
183.6372798476
 20
200.94644361
 11
183.2610913433
 21
201.8546429991
  0
LINE
  5
25C
100
AcDbEntity
  8
0
100
AcDbLine
 62
7
  6
CONTINUOUS
 10
184.8143868051
 20
198.459459354
 11
185.1313410471
 21
197.6942641244
  0
LINE
  5
25D
100
AcDbEntity
  8
0
100
AcDbLine
 62
7
  6
CONTINUOUS
 10
182.8476038063
 20
203.5057281125
 11
182.28020351
 21
204.8755536033
  0
LINE
  5
25E
100
AcDbEntity
  8
0
100
AcDbLine
 62
7
  6
CONTINUOUS
 10
185.7978310821
 20
197.9585760126
 11
185.4767199985
 21
198.7338067455
  0
LINE
  5
25F
100
AcDbEntity
  8
0
100
AcDbLine
 62
7
  6
CONTINUOUS
 10
186.282057021
 20
199.0673882625
 11
186.6499320246
 21
198.1792594394
  0
LINE
  5
260
100
AcDbEntity
  8
0
100
AcDbLine
 62
7
  6
CONTINUOUS
 10
187.8464373579
 20
194.680377931
 11
186.6592578592
 21
193.6507433093
  0
LINE
  5
261
100
AcDbEntity
  8
0
100
AcDbLine
 62
7
  6
CONTINUOUS
 10
186.0852562715
 20
193.1631445571
 11
185.4135141876
 21
192.5850932896
  0
LINE
  5
262
100
AcDbEntity
  8
0
100
AcDbLine
 62
7
  6
CONTINUOUS
 10
188.9074287867
 20
194.6025409979
 11
188.5551417564
 21
195.4530371242
  0
LINE
  5
263
100
AcDbEntity
  8
0
100
AcDbLine
 62
7
  6
CONTINUOUS
 10
187.3330489508
 20
198.4034301501
 11
186.6326317318
 21
200.0943868995
  0
LINE
  5
264
100
AcDbEntity
  8
0
100
AcDbLine
 62
7
  6
CONTINUOUS
 10
185.8854507751
 20
201.8982412986
 11
185.5331637449
 21
202.7487374249
  0
LINE
  5
265
100
AcDbEntity
  8
0
100
AcDbLine
 62
7
  6
CONTINUOUS
 10
183.4080106595
 20
207.8793108257
 11
183.0962522642
 21
208.6319621719
  0
LINE
  5
266
100
AcDbEntity
  8
0
100
AcDbLine
 62
7
  6
CONTINUOUS
 10
185.7543700861
 20
191.7621943567
 11
188.9074287867
 21
194.6025409979
  0
LINE
  5
267
100
AcDbEntity
  8
RUNDUNGEN
100
AcDbLine
 62
7
  6
CONTINUOUS
 10
190.7544520841
 20
192.0625866792
 11
189.5138348966
 21
200.2158601138
  0
LINE
  5
268
100
AcDbEntity
  8
RUNDUNGEN
100
AcDbLine
 62
7
  6
CONTINUOUS
 10
190.9007341341
 20
179.1012284424
 11
190.9007341341
 21
190.1288046164
  0
LINE
  5
269
100
AcDbEntity
  8
BEZUGSACHSEN
100
AcDbLine
 62
7
  6
CONTINUOUS
 10
120.9007341341
 20
92.1579014406
 11
120.9007341341
 21
110.1579014406
  0
LINE
  5
26A
100
AcDbEntity
  8
0
100
AcDbLine
 62
7
  6
CONTINUOUS
 10
121.2812226248
 20
104.1579014406
 11
121.2812226248
 21
104.6579014406
  0
LINE
  5
26B
100
AcDbEntity
  8
0
100
AcDbLine
 62
7
  6
CONTINUOUS
 10
121.5677060461
 20
104.1579014406
 11
121.5677060461
 21
104.6579014406
  0
LINE
  5
26C
100
AcDbEntity
  8
0
100
AcDbLine
 62
7
  6
CONTINUOUS
 10
122.1139333897
 20
104.1579014406
 11
122.1139333897
 21
104.6579014406
  0
LINE
  5
26D
100
AcDbEntity
  8
0
100
AcDbLine
 62
7
  6
CONTINUOUS
 10
122.4137858898
 20
104.1579014406
 11
122.4137858898
 21
104.6579014406
  0
LINE
  5
26E
100
AcDbEntity
  8
0
100
AcDbLine
 62
7
  6
CONTINUOUS
 10
122.447591913
 20
98.1579014406
 11
122.447591913
 21
97.4079014406
  0
LINE
  5
26F
100
AcDbEntity
  8
0
100
AcDbLine
 62
7
  6
CONTINUOUS
 10
123.7535718878
 20
104.1579014406
 11
123.7535718878
 21
104.6579014406
  0
LINE
  5
270
100
AcDbEntity
  8
0
100
AcDbLine
 62
7
  6
CONTINUOUS
 10
124.0266858949
 20
104.1579014406
 11
124.0266858949
 21
104.6579014406
  0
LINE
  5
271
100
AcDbEntity
  8
0
100
AcDbLine
 62
7
  6
CONTINUOUS
 10
124.0931306722
 20
98.1579014406
 11
124.0931306722
 21
97.4079014406
  0
LINE
  5
272
100
AcDbEntity
  8
0
100
AcDbLine
 62
7
  6
CONTINUOUS
 10
124.4260652584
 20
98.1579014406
 11
124.4260652584
 21
97.4079014406
  0
LINE
  5
273
100
AcDbEntity
  8
0
100
AcDbLine
 62
7
  6
CONTINUOUS
 10
125.0728002591
 20
98.1579014406
 11
125.0728002591
 21
97.4079014406
  0
LINE
  5
274
100
AcDbEntity
  8
0
100
AcDbLine
 62
7
  6
CONTINUOUS
 10
125.1637650559
 20
104.6579014406
 11
125.1637650559
 21
104.1579014406
  0
LINE
  5
275
100
AcDbEntity
  8
0
100
AcDbLine
 62
7
  6
CONTINUOUS
 10
125.3259911751
 20
104.6579014406
 11
125.3259911751
 21
104.1579014406
  0
LINE
  5
276
100
AcDbEntity
  8
0
100
AcDbLine
 62
7
  6
CONTINUOUS
 10
125.4057348452
 20
98.1579014406
 11
125.4057348452
 21
97.4079014406
  0
LINE
  5
277
100
AcDbEntity
  8
0
100
AcDbLine
 62
7
  6
CONTINUOUS
 10
125.7386694314
 20
98.1579014406
 11
125.7386694314
 21
97.4079014406
  0
LINE
  5
278
100
AcDbEntity
  8
0
100
AcDbLine
 62
7
  6
CONTINUOUS
 10
126.4442302355
 20
104.6579014406
 11
126.4442302355
 21
104.1579014406
  0
LINE
  5
279
100
AcDbEntity
  8
0
100
AcDbLine
 62
7
  6
CONTINUOUS
 10
127.562469315
 20
104.6579014406
 11
127.562469315
 21
104.1579014406
  0
LINE
  5
27A
100
AcDbEntity
  8
BEZUGSACHSEN
100
AcDbLine
 62
7
  6
CONTINUOUS
 10
128.0249207147
 20
97.4079014406
 11
128.0249207147
 21
98.1579014406
  0
LINE
  5
27B
100
AcDbEntity
  8
BEZUGSACHSEN
100
AcDbLine
 62
7
  6
CONTINUOUS
 10
128.0249207147
 20
104.1579014406
 11
128.0249207147
 21
104.9079014406
  0
LWPOLYLINE
  5
27C
100
AcDbEntity
  8
BEZUGSACHSEN
100
AcDbPolyline
 62
7
  6
CONTINUOUS
 90
14
 70
0
 10
130.129302017
 20
96.9692355274
 10
130.141430813
 20
96.7485831106
 10
130.1788621448
 20
96.5252863465
 10
130.2378226649
 20
96.3171512145
 10
130.3160331189
 20
96.1223682876
 10
130.4112206298
 20
95.9415248245
 10
130.5224640887
 20
95.7735463164
 10
130.6468366463
 20
95.620781571
 10
130.7817142896
 20
95.4841650093
 10
130.9244898058
 20
95.3641078178
 10
131.073073212
 20
95.260280773
 10
131.2239096835
 20
95.1729572669
 10
131.3736905983
 20
95.1015123846
 10
131.3917561203
 20
95.0938200002
  0
LINE
  5
27D
100
AcDbEntity
  8
BEZUGSACHSEN
100
AcDbLine
 62
7
  6
CONTINUOUS
 10
130.1293018278
 20
96.9692142843
 11
130.1293018278
 21
97.4079014406
  0
LINE
  5
27E
100
AcDbEntity
  8
BEZUGSACHSEN
100
AcDbLine
 62
7
  6
CONTINUOUS
 10
130.1293018278
 20
104.9079014406
 11
130.1293018278
 21
105.346588597
  0
LINE
  5
27F
100
AcDbEntity
  8
BEZUGSACHSEN
100
AcDbLine
 62
7
  6
CONTINUOUS
 10
131.0249207147
 20
97.4079014406
 11
131.0249207147
 21
98.1579014406
  0
LINE
  5
280
100
AcDbEntity
  8
BEZUGSACHSEN
100
AcDbLine
 62
7
  6
CONTINUOUS
 10
131.0249207147
 20
104.1579014406
 11
131.0249207147
 21
104.9079014406
  0
LINE
  5
281
100
AcDbEntity
  8
0
100
AcDbLine
 62
7
  6
CONTINUOUS
 10
132.9007341341
 20
104.6579014406
 11
132.9007341341
 21
104.1579014406
  0
LINE
  5
282
100
AcDbEntity
  8
BEZUGSACHSEN
100
AcDbLine
 62
7
  6
CONTINUOUS
 10
135.4562015596
 20
97.4079014406
 11
135.4562015596
 21
98.1579014406
  0
LINE
  5
283
100
AcDbEntity
  8
BEZUGSACHSEN
100
AcDbLine
 62
7
  6
CONTINUOUS
 10
135.4562015596
 20
104.1579014406
 11
135.4562015596
 21
104.9079014406
  0
LINE
  5
284
100
AcDbEntity
  8
BEZUGSACHSEN
100
AcDbLine
 62
7
  6
CONTINUOUS
 10
138.4562015596
 20
97.4079014406
 11
138.4562015596
 21
98.1579014406
  0
LINE
  5
285
100
AcDbEntity
  8
BEZUGSACHSEN
100
AcDbLine
 62
7
  6
CONTINUOUS
 10
138.4562015596
 20
104.1579014406
 11
138.4562015596
 21
104.9079014406
  0
LINE
  5
286
100
AcDbEntity
  8
BEZUGSACHSEN
100
AcDbLine
 62
7
  6
CONTINUOUS
 10
132.1362591276
 20
107.6773976525
 11
131.6274970204
 21
107.3482862759
  0
LWPOLYLINE
  5
287
100
AcDbEntity
  8
BEZUGSACHSEN
100
AcDbPolyline
 62
7
  6
CONTINUOUS
 90
7
 70
0
 10
131.6274473938
 20
107.3482542258
 10
131.6060025391
 20
107.3345863495
 10
131.5578186823
 20
107.3053873312
 10
131.5109273903
 20
107.2790453964
 10
131.4650975192
 20
107.2553662469
 10
131.4201450931
 20
107.2342274401
 10
131.3950308762
 20
107.2233615916
  0
LINE
  5
288
100
AcDbEntity
  8
BEZUGSACHSEN
100
AcDbLine
 62
7
  6
CONTINUOUS
 10
131.6274296153
 20
94.9675602113
 11
132.1362591276
 21
94.6384052287
  0
LWPOLYLINE
  5
289
100
AcDbEntity
  8
BEZUGSACHSEN
100
AcDbPolyline
 62
7
  6
CONTINUOUS
 90
14
 70
0
 10
131.3917990814
 20
107.2220009735
 10
131.3741804329
 20
107.2145015995
 10
131.2248376337
 20
107.143332672
 10
131.0743652386
 20
107.0563428004
 10
130.9260995988
 20
106.9529271208
 10
130.7836075424
 20
106.8333808547
 10
130.6489604427
 20
106.6973820338
 10
130.5247443284
 20
106.5453470092
 10
130.4135715106
 20
106.3782334692
 10
130.3183540734
 20
106.1984261525
 10
130.2399420541
 20
106.0048117693
 10
130.1805503388
 20
105.7979192178
 10
130.1424132583
 20
105.5759537939
 10
130.129302017
 20
105.3465673551
  0
LINE
  5
28A
100
AcDbEntity
  8
BEZUGSACHSEN
100
AcDbLine
 62
7
  6
CONTINUOUS
 10
131.3950321829
 20
107.2233584805
 11
131.3917990814
 21
107.2220009735
  0
LINE
  5
28B
100
AcDbEntity
  8
BEZUGSACHSEN
100
AcDbLine
 62
7
  6
CONTINUOUS
 10
131.3950151584
 20
95.092451528
 11
131.3917561203
 21
95.0938200002
  0
LWPOLYLINE
  5
28C
100
AcDbEntity
  8
BEZUGSACHSEN
100
AcDbPolyline
 62
7
  6
CONTINUOUS
 90
7
 70
0
 10
131.3950138517
 20
95.0924484168
 10
131.4197409024
 20
95.0817557812
 10
131.4646325944
 20
95.0606660342
 10
131.510955698
 20
95.0367422176
 10
131.5583537974
 20
95.0101029706
 10
131.6064728437
 20
94.9809211731
 10
131.6274295906
 20
94.9675601732
  0
LINE
  5
28D
100
AcDbEntity
  8
BEZUGSACHSEN
100
AcDbLine
 62
7
  6
CONTINUOUS
 10
144.6489850286
 20
97.4079014406
 11
144.6489850286
 21
98.1579014406
  0
LINE
  5
28E
100
AcDbEntity
  8
BEZUGSACHSEN
100
AcDbLine
 62
7
  6
CONTINUOUS
 10
144.6489850286
 20
104.1579014406
 11
144.6489850286
 21
104.9079014406
  0
LINE
  5
28F
100
AcDbEntity
  8
BEZUGSACHSEN
100
AcDbLine
 62
7
  6
CONTINUOUS
 10
122.9007341341
 20
90.1579014406
 11
158.8067034123
 21
90.1579014406
  0
LINE
  5
290
100
AcDbEntity
  8
RUNDUNGEN
100
AcDbLine
 62
7
  6
CONTINUOUS
 10
158.8067034123
 20
90.1579014406
 11
188.9007341341
 21
90.1579014406
  0
LINE
  5
291
100
AcDbEntity
  8
BEZUGSACHSEN
100
AcDbLine
 62
7
  6
CONTINUOUS
 10
147.6489850286
 20
97.4079014406
 11
147.6489850286
 21
98.1579014406
  0
LINE
  5
292
100
AcDbEntity
  8
BEZUGSACHSEN
100
AcDbLine
 62
7
  6
CONTINUOUS
 10
147.6489850286
 20
104.1579014406
 11
147.6489850286
 21
104.9079014406
  0
LINE
  5
293
100
AcDbEntity
  8
BEZUGSACHSEN
100
AcDbLine
 62
7
  6
CONTINUOUS
 10
133.0705149587
 20
95.1579014406
 11
155.9007341341
 21
95.1579014406
  0
LINE
  5
294
100
AcDbEntity
  8
RUNDUNGEN
100
AcDbLine
 62
7
  6
CONTINUOUS
 10
139.2540048262
 20
95.1579014406
 11
178.7309533095
 21
95.1579014406
  0
LINE
  5
295
100
AcDbEntity
  8
0
100
AcDbLine
 62
7
  6
CONTINUOUS
 10
188.9074287867
 20
97.4079014406
 11
179.3940178919
 21
97.4079014406
  0
LINE
  5
296
100
AcDbEntity
  8
0
100
AcDbLine
 62
7
  6
CONTINUOUS
 10
176.3452071412
 20
97.4079014406
 11
173.3454818212
 21
97.4079014406
  0
LINE
  5
297
100
AcDbEntity
  8
0
100
AcDbLine
 62
7
  6
CONTINUOUS
 10
167.1522877018
 20
97.4079014406
 11
164.1526939636
 21
97.4079014406
  0
LINE
  5
298
100
AcDbEntity
  8
BEZUGSACHSEN
100
AcDbLine
 62
7
  6
CONTINUOUS
 10
147.6487743046
 20
97.4079014406
 11
144.6491805665
 21
97.4079014406
  0
LINE
  5
299
100
AcDbEntity
  8
BEZUGSACHSEN
100
AcDbLine
 62
7
  6
CONTINUOUS
 10
138.455986447
 20
97.4079014406
 11
135.456261127
 21
97.4079014406
  0
LINE
  5
29A
100
AcDbEntity
  8
0
100
AcDbLine
 62
7
  6
CONTINUOUS
 10
128.0249207147
 20
97.4079014406
 11
122.447591913
 21
97.4079014406
  0
LINE
  5
29B
100
AcDbEntity
  8
BEZUGSACHSEN
100
AcDbLine
 62
7
  6
CONTINUOUS
 10
128.0249207147
 20
97.4079014406
 11
131.0249207147
 21
97.4079014406
  0
LINE
  5
29C
100
AcDbEntity
  8
RUNDUNGEN
100
AcDbLine
 62
7
  6
CONTINUOUS
 10
190.9007341341
 20
98.1579014406
 11
189.5138348966
 21
98.1579014406
  0
LINE
  5
29D
100
AcDbEntity
  8
BEZUGSACHSEN
100
AcDbLine
 62
7
  6
CONTINUOUS
 10
120.9007341341
 20
98.1579014406
 11
189.5138348966
 21
98.1579014406
  0
LINE
  5
29E
100
AcDbEntity
  8
BEZUGSACHSEN
100
AcDbLine
 62
7
  6
CONTINUOUS
 10
120.9007341341
 20
104.1579014406
 11
190.9007341341
 21
104.1579014406
  0
LINE
  5
29F
100
AcDbEntity
  8
0
100
AcDbLine
 62
7
  6
CONTINUOUS
 10
132.9007341341
 20
104.6579014406
 11
131.0249207147
 21
104.6579014406
  0
LINE
  5
2A0
100
AcDbEntity
  8
0
100
AcDbLine
 62
7
  6
CONTINUOUS
 10
128.0249207147
 20
104.6579014406
 11
127.5615351185
 21
104.6579014406
  0
LINE
  5
2A1
100
AcDbEntity
  8
0
100
AcDbLine
 62
7
  6
CONTINUOUS
 10
127.501063188
 20
104.6579014406
 11
126.4432960395
 21
104.6579014406
  0
LINE
  5
2A2
100
AcDbEntity
  8
0
100
AcDbLine
 62
7
  6
CONTINUOUS
 10
126.382823954
 20
104.6579014406
 11
125.3250569791
 21
104.6579014406
  0
LINE
  5
2A3
100
AcDbEntity
  8
0
100
AcDbLine
 62
7
  6
CONTINUOUS
 10
125.2983971609
 20
104.6579014406
 11
121.2812226248
 21
104.6579014406
  0
LINE
  5
2A4
100
AcDbEntity
  8
BEZUGSACHSEN
100
AcDbLine
 62
7
  6
CONTINUOUS
 10
183.7765475535
 20
104.9079014406
 11
180.7765475535
 21
104.9079014406
  0
LINE
  5
2A5
100
AcDbEntity
  8
BEZUGSACHSEN
100
AcDbLine
 62
7
  6
CONTINUOUS
 10
128.0249207147
 20
104.9079014406
 11
131.0249207147
 21
104.9079014406
  0
LINE
  5
2A6
100
AcDbEntity
  8
BEZUGSACHSEN
100
AcDbLine
 62
7
  6
CONTINUOUS
 10
135.456261127
 20
104.9079014406
 11
138.455986447
 21
104.9079014406
  0
LINE
  5
2A7
100
AcDbEntity
  8
BEZUGSACHSEN
100
AcDbLine
 62
7
  6
CONTINUOUS
 10
144.6491805665
 20
104.9079014406
 11
147.6487743046
 21
104.9079014406
  0
LINE
  5
2A8
100
AcDbEntity
  8
BEZUGSACHSEN
100
AcDbLine
 62
7
  6
CONTINUOUS
 10
164.1526939636
 20
104.9079014406
 11
167.1522877018
 21
104.9079014406
  0
LINE
  5
2A9
100
AcDbEntity
  8
BEZUGSACHSEN
100
AcDbLine
 62
7
  6
CONTINUOUS
 10
173.3454818212
 20
104.9079014406
 11
176.3452071412
 21
104.9079014406
  0
LINE
  5
2AA
100
AcDbEntity
  8
0
100
AcDbLine
 62
7
  6
CONTINUOUS
 10
183.7765475535
 20
104.9079014406
 11
188.5962522642
 21
104.9079014406
  0
LINE
  5
2AB
100
AcDbEntity
  8
BEZUGSACHSEN
100
AcDbLine
 62
7
  6
CONTINUOUS
 10
133.0705149587
 20
107.1579014406
 11
178.7309533095
 21
107.1579014406
  0
LINE
  5
2AC
100
AcDbEntity
  8
BEZUGSACHSEN
100
AcDbLine
 62
7
  6
CONTINUOUS
 10
164.1524832396
 20
104.9079014406
 11
164.1524832396
 21
104.1579014406
  0
LINE
  5
2AD
100
AcDbEntity
  8
0
100
AcDbLine
 62
7
  6
CONTINUOUS
 10
164.1524832396
 20
98.1579014406
 11
164.1524832396
 21
97.4079014406
  0
LINE
  5
2AE
100
AcDbEntity
  8
BEZUGSACHSEN
100
AcDbLine
 62
7
  6
CONTINUOUS
 10
167.1524832396
 20
104.9079014406
 11
167.1524832396
 21
104.1579014406
  0
LINE
  5
2AF
100
AcDbEntity
  8
0
100
AcDbLine
 62
7
  6
CONTINUOUS
 10
167.1524832396
 20
98.1579014406
 11
167.1524832396
 21
97.4079014406
  0
LINE
  5
2B0
100
AcDbEntity
  8
BEZUGSACHSEN
100
AcDbLine
 62
7
  6
CONTINUOUS
 10
122.9007341341
 20
112.1579014406
 11
188.9007341341
 21
112.1579014406
  0
LINE
  5
2B1
100
AcDbEntity
  8
BEZUGSACHSEN
100
AcDbLine
 62
7
  6
CONTINUOUS
 10
173.3452667087
 20
104.9079014406
 11
173.3452667087
 21
104.1579014406
  0
LINE
  5
2B2
100
AcDbEntity
  8
0
100
AcDbLine
 62
7
  6
CONTINUOUS
 10
173.3452667087
 20
98.1579014406
 11
173.3452667087
 21
97.4079014406
  0
LWPOLYLINE
  5
2B3
100
AcDbEntity
  8
RUNDUNGEN
100
AcDbPolyline
 62
7
  6
CONTINUOUS
 90
14
 70
0
 10
180.4096691868
 20
95.0938019078
 10
180.4272878353
 20
95.1013012818
 10
180.5766306345
 20
95.1724702093
 10
180.7271030296
 20
95.2594600809
 10
180.8753686694
 20
95.3628757605
 10
181.0178607258
 20
95.4824220266
 10
181.1525078255
 20
95.6184208475
 10
181.2767239398
 20
95.770455872
 10
181.3878967576
 20
95.9375694121
 10
181.4831141948
 20
96.1173767288
 10
181.5615262141
 20
96.310991112
 10
181.6209179294
 20
96.5178836635
 10
181.6590550099
 20
96.7398490873
 10
181.6721662512
 20
96.9692355261
  0
LINE
  5
2B4
100
AcDbEntity
  8
RUNDUNGEN
100
AcDbLine
 62
7
  6
CONTINUOUS
 10
180.4064360854
 20
95.0924444008
 11
180.4096691868
 21
95.0938019078
  0
LINE
  5
2B5
100
AcDbEntity
  8
BEZUGSACHSEN
100
AcDbLine
 62
7
  6
CONTINUOUS
 10
180.4064531098
 20
107.2233513532
 11
180.409712148
 21
107.2219828811
  0
LWPOLYLINE
  5
2B6
100
AcDbEntity
  8
BEZUGSACHSEN
100
AcDbPolyline
 62
7
  6
CONTINUOUS
 90
7
 70
0
 10
180.4064544165
 20
107.2233544645
 10
180.3817273658
 20
107.2340471001
 10
180.3368356739
 20
107.2551368471
 10
180.2905125702
 20
107.2790606637
 10
180.2431144709
 20
107.3056999107
 10
180.1949954245
 20
107.3348817082
 10
180.1740386776
 20
107.3482427081
  0
LINE
  5
2B7
100
AcDbEntity
  8
RUNDUNGEN
100
AcDbLine
 62
7
  6
CONTINUOUS
 10
179.6652091407
 20
94.6384052287
 11
180.1739712478
 21
94.9675166054
  0
LWPOLYLINE
  5
2B8
100
AcDbEntity
  8
RUNDUNGEN
100
AcDbPolyline
 62
7
  6
CONTINUOUS
 90
7
 70
0
 10
180.1740208744
 20
94.9675486554
 10
180.1954657291
 20
94.9812165317
 10
180.2436495859
 20
95.0104155501
 10
180.2905408779
 20
95.0367574849
 10
180.336370749
 20
95.0604366343
 10
180.3813231751
 20
95.0815754412
 10
180.406437392
 20
95.0924412896
  0
LINE
  5
2B9
100
AcDbEntity
  8
BEZUGSACHSEN
100
AcDbLine
 62
7
  6
CONTINUOUS
 10
180.1739712478
 20
107.3482862759
 11
179.6652091407
 21
107.6773976525
  0
LINE
  5
2BA
100
AcDbEntity
  8
BEZUGSACHSEN
100
AcDbLine
 62
7
  6
CONTINUOUS
 10
176.3452667087
 20
104.9079014406
 11
176.3452667087
 21
104.1579014406
  0
LINE
  5
2BB
100
AcDbEntity
  8
0
100
AcDbLine
 62
7
  6
CONTINUOUS
 10
176.3452667087
 20
98.1579014406
 11
176.3452667087
 21
97.4079014406
  0
LINE
  5
2BC
100
AcDbEntity
  8
0
100
AcDbLine
 62
7
  6
CONTINUOUS
 10
179.3940178919
 20
98.1579014406
 11
179.3940178919
 21
97.4079014406
  0
LWPOLYLINE
  5
2BD
100
AcDbEntity
  8
BEZUGSACHSEN
100
AcDbPolyline
 62
7
  6
CONTINUOUS
 90
14
 70
0
 10
181.6721662512
 20
105.3465673539
 10
181.6600374552
 20
105.5672197707
 10
181.6226061234
 20
105.7905165348
 10
181.5636456033
 20
105.9986516668
 10
181.4854351493
 20
106.1934345936
 10
181.3902476384
 20
106.3742780567
 10
181.2790041795
 20
106.5422565649
 10
181.1546316219
 20
106.6950213103
 10
181.0197539787
 20
106.831637872
 10
180.8769784624
 20
106.9516950635
 10
180.7283950562
 20
107.0555221083
 10
180.5775585848
 20
107.1428456143
 10
180.4277776699
 20
107.2142904966
 10
180.409712148
 20
107.2219828811
  0
LINE
  5
2BE
100
AcDbEntity
  8
BEZUGSACHSEN
100
AcDbLine
 62
7
  6
CONTINUOUS
 10
180.7765475535
 20
104.9079014406
 11
180.7765475535
 21
104.1579014406
  0
LINE
  5
2BF
100
AcDbEntity
  8
0
100
AcDbLine
 62
7
  6
CONTINUOUS
 10
180.7765475535
 20
98.1579014406
 11
180.7765475535
 21
97.4079014406
  0
LINE
  5
2C0
100
AcDbEntity
  8
BEZUGSACHSEN
100
AcDbLine
 62
7
  6
CONTINUOUS
 10
181.6721664404
 20
105.346588597
 11
181.6721664404
 21
104.9079014406
  0
LINE
  5
2C1
100
AcDbEntity
  8
RUNDUNGEN
100
AcDbLine
 62
7
  6
CONTINUOUS
 10
181.6721664404
 20
97.4079014406
 11
181.6721664404
 21
96.9692142843
  0
LINE
  5
2C2
100
AcDbEntity
  8
BEZUGSACHSEN
100
AcDbLine
 62
7
  6
CONTINUOUS
 10
183.7765475535
 20
104.9079014406
 11
183.7765475535
 21
104.1579014406
  0
LINE
  5
2C3
100
AcDbEntity
  8
0
100
AcDbLine
 62
7
  6
CONTINUOUS
 10
183.7765475535
 20
98.1579014406
 11
183.7765475535
 21
97.4079014406
  0
LINE
  5
2C4
100
AcDbEntity
  8
0
100
AcDbLine
 62
7
  6
CONTINUOUS
 10
183.9260498174
 20
104.1579014406
 11
183.9260498174
 21
104.9079014406
  0
LINE
  5
2C5
100
AcDbEntity
  8
0
100
AcDbLine
 62
7
  6
CONTINUOUS
 10
184.800362999
 20
104.1579014406
 11
184.800362999
 21
104.9079014406
  0
LINE
  5
2C6
100
AcDbEntity
  8
0
100
AcDbLine
 62
7
  6
CONTINUOUS
 10
185.5331637449
 20
98.1579014406
 11
185.5331637449
 21
97.4079014406
  0
LINE
  5
2C7
100
AcDbEntity
  8
0
100
AcDbLine
 62
7
  6
CONTINUOUS
 10
185.8854507751
 20
98.1579014406
 11
185.8854507751
 21
97.4079014406
  0
LINE
  5
2C8
100
AcDbEntity
  8
0
100
AcDbLine
 62
7
  6
CONTINUOUS
 10
186.6326317318
 20
98.1579014406
 11
186.6326317318
 21
97.4079014406
  0
LINE
  5
2C9
100
AcDbEntity
  8
0
100
AcDbLine
 62
7
  6
CONTINUOUS
 10
186.8913358012
 20
104.1579014406
 11
186.8913358012
 21
104.9079014406
  0
LINE
  5
2CA
100
AcDbEntity
  8
0
100
AcDbLine
 62
7
  6
CONTINUOUS
 10
187.4980702468
 20
97.4079014406
 11
187.4980702468
 21
98.1579014406
  0
LINE
  5
2CB
100
AcDbEntity
  8
0
100
AcDbLine
 62
7
  6
CONTINUOUS
 10
188.2844938688
 20
104.1579014406
 11
188.2844938688
 21
104.9079014406
  0
LINE
  5
2CC
100
AcDbEntity
  8
0
100
AcDbLine
 62
7
  6
CONTINUOUS
 10
188.5551417564
 20
98.1579014406
 11
188.5551417564
 21
97.4079014406
  0
LINE
  5
2CD
100
AcDbEntity
  8
0
100
AcDbLine
 62
7
  6
CONTINUOUS
 10
188.5962522642
 20
104.1579014406
 11
188.5962522642
 21
104.9079014406
  0
LINE
  5
2CE
100
AcDbEntity
  8
0
100
AcDbLine
 62
7
  6
CONTINUOUS
 10
188.9074287867
 20
98.1579014406
 11
188.9074287867
 21
97.4079014406
  0
LINE
  5
2CF
100
AcDbEntity
  8
BEZUGSACHSEN
100
AcDbLine
 62
7
  6
CONTINUOUS
 10
190.9007341341
 20
110.1579014406
 11
190.9007341341
 21
98.1579014406
  0
LINE
  5
2D0
100
AcDbEntity
  8
0
100
AcDbLine
 62
7
  6
CONTINUOUS
 10
190.9007341341
 20
98.1579014406
 11
190.9007341341
 21
92.5377706385
  0
LINE
  5
2D1
100
AcDbEntity
  8
RUNDUNGEN
100
AcDbLine
 62
7
  6
CONTINUOUS
 10
190.9007341341
 20
92.1579014406
 11
190.9007341341
 21
104.1579014406
  0
LINE
  5
2D2
100
AcDbEntity
  8
BEZUGSACHSEN
100
AcDbLine
 62
7
  6
CONTINUOUS
 10
248.9229124868
 20
179.1012284424
 11
270.9229124868
 21
179.1012284424
  0
LINE
  5
2D3
100
AcDbEntity
  8
0
100
AcDbLine
 62
7
  6
CONTINUOUS
 10
262.9229124868
 20
187.6251124836
 11
263.6729124868
 21
187.6251124836
  0
LINE
  5
2D4
100
AcDbEntity
  8
0
100
AcDbLine
 62
7
  6
CONTINUOUS
 10
262.9229124868
 20
188.8764873074
 11
263.6729124868
 21
188.8764873074
  0
LINE
  5
2D5
100
AcDbEntity
  8
0
100
AcDbLine
 62
7
  6
CONTINUOUS
 10
262.9229124868
 20
188.9874655028
 11
263.6729124868
 21
188.9874655028
  0
LINE
  5
2D6
100
AcDbEntity
  8
0
100
AcDbLine
 62
7
  6
CONTINUOUS
 10
262.9229124868
 20
189.2668244084
 11
263.6729124868
 21
189.2668244084
  0
LINE
  5
2D7
100
AcDbEntity
  8
0
100
AcDbLine
 62
7
  6
CONTINUOUS
 10
256.9229124868
 20
190.4016689107
 11
256.4229124868
 21
190.4016689107
  0
LINE
  5
2D8
100
AcDbEntity
  8
BEZUGSACHSEN
100
AcDbLine
 62
7
  6
CONTINUOUS
 10
248.9229124868
 20
179.1012284424
 11
248.9229124868
 21
183.1012284424
  0
LINE
  5
2D9
100
AcDbEntity
  8
0
100
AcDbLine
 62
7
  6
CONTINUOUS
 10
256.9229124868
 20
191.9645934246
 11
256.4229124868
 21
191.9645934246
  0
LINE
  5
2DA
100
AcDbEntity
  8
0
100
AcDbLine
 62
7
  6
CONTINUOUS
 10
262.9229124868
 20
192.0448634247
 11
263.6729124868
 21
192.0448634247
  0
LINE
  5
2DB
100
AcDbEntity
  8
0
100
AcDbLine
 62
7
  6
CONTINUOUS
 10
262.9229124868
 20
192.1235499581
 11
263.6729124868
 21
192.1235499581
  0
LINE
  5
2DC
100
AcDbEntity
  8
0
100
AcDbLine
 62
7
  6
CONTINUOUS
 10
256.9229124868
 20
192.6395060705
 11
256.4229124868
 21
192.6395060705
  0
LINE
  5
2DD
100
AcDbEntity
  8
0
100
AcDbLine
 62
7
  6
CONTINUOUS
 10
262.9229124868
 20
193.2395063982
 11
263.6729124868
 21
193.2395063982
  0
LINE
  5
2DE
100
AcDbEntity
  8
0
100
AcDbLine
 62
7
  6
CONTINUOUS
 10
256.9229124868
 20
193.9263370501
 11
256.4229124868
 21
193.9263370501
  0
LINE
  5
2DF
100
AcDbEntity
  8
0
100
AcDbLine
 62
7
  6
CONTINUOUS
 10
262.9229124868
 20
194.0432815915
 11
263.6729124868
 21
194.0432815915
  0
LINE
  5
2E0
100
AcDbEntity
  8
0
100
AcDbLine
 62
7
  6
CONTINUOUS
 10
256.9229124868
 20
194.6327452718
 11
256.4229124868
 21
194.6327452718
  0
LINE
  5
2E1
100
AcDbEntity
  8
0
100
AcDbLine
 62
7
  6
CONTINUOUS
 10
262.9229124868
 20
195.6046380014
 11
263.6729124868
 21
195.6046380014
  0
LINE
  5
2E2
100
AcDbEntity
  8
0
100
AcDbLine
 62
7
  6
CONTINUOUS
 10
262.9229124868
 20
196.4084131947
 11
263.6729124868
 21
196.4084131947
  0
LINE
  5
2E3
100
AcDbEntity
  8
0
100
AcDbLine
 62
7
  6
CONTINUOUS
 10
256.9229124868
 20
196.5689182989
 11
256.4229124868
 21
196.5689182989
  0
LINE
  5
2E4
100
AcDbEntity
  8
0
100
AcDbLine
 62
7
  6
CONTINUOUS
 10
262.9229124868
 20
196.821851287
 11
263.6729124868
 21
196.821851287
  0
LINE
  5
2E5
100
AcDbEntity
  8
0
100
AcDbLine
 62
7
  6
CONTINUOUS
 10
262.9229124868
 20
196.9328294824
 11
263.6729124868
 21
196.9328294824
  0
LINE
  5
2E6
100
AcDbEntity
  8
BEZUGSACHSEN
100
AcDbLine
 62
7
  6
CONTINUOUS
 10
253.9229124868
 20
203.4729741319
 11
253.9229124868
 21
224.9138568489
  0
LINE
  5
2E7
100
AcDbEntity
  8
0
100
AcDbLine
 62
7
  6
CONTINUOUS
 10
262.9229124868
 20
197.212188388
 11
263.6729124868
 21
197.212188388
  0
LINE
  5
2E8
100
AcDbEntity
  8
0
100
AcDbLine
 62
7
  6
CONTINUOUS
 10
256.9229124868
 20
197.7890832849
 11
256.4229124868
 21
197.7890832849
  0
LINE
  5
2E9
100
AcDbEntity
  8
0
100
AcDbLine
 62
7
  6
CONTINUOUS
 10
256.9229124868
 20
198.4324995648
 11
256.4229124868
 21
198.4324995648
  0
LINE
  5
2EA
100
AcDbEntity
  8
BEZUGSACHSEN
100
AcDbLine
 62
7
  6
CONTINUOUS
 10
256.1729124868
 20
210.5264480794
 11
256.1729124868
 21
213.5264480794
  0
LINE
  5
2EB
100
AcDbEntity
  8
BEZUGSACHSEN
100
AcDbLine
 62
7
  6
CONTINUOUS
 10
256.1729124868
 20
218.545975033
 11
256.1729124868
 21
221.5457047814
  0
LINE
  5
2EC
100
AcDbEntity
  8
BEZUGSACHSEN
100
AcDbLine
 62
7
  6
CONTINUOUS
 10
256.1729124868
 20
223.144062395
 11
256.1729124868
 21
226.1439941553
  0
LINE
  5
2ED
100
AcDbEntity
  8
0
100
AcDbLine
 62
7
  6
CONTINUOUS
 10
256.4229124868
 20
210.2472023485
 11
256.4229124868
 21
199.3855080374
  0
LINE
  5
2EE
100
AcDbEntity
  8
0
100
AcDbLine
 62
7
  6
CONTINUOUS
 10
256.4229124868
 20
199.3354947286
 11
256.4229124868
 21
194.6978897514
  0
LINE
  5
2EF
100
AcDbEntity
  8
0
100
AcDbLine
 62
7
  6
CONTINUOUS
 10
256.4229124868
 20
194.6327452718
 11
256.4229124868
 21
190.4016689107
  0
LINE
  5
2F0
100
AcDbEntity
  8
BEZUGSACHSEN
100
AcDbLine
 62
7
  6
CONTINUOUS
 10
248.9229124868
 20
183.1012284424
 11
253.47994735
 21
200.1083140839
  0
LINE
  5
2F1
100
AcDbEntity
  8
0
100
AcDbLine
 62
7
  6
CONTINUOUS
 10
256.9229124868
 20
199.3356748385
 11
256.4229124868
 21
199.3356748385
  0
LINE
  5
2F2
100
AcDbEntity
  8
0
100
AcDbLine
 62
7
  6
CONTINUOUS
 10
256.4229124868
 20
199.3875895863
 11
256.9229124868
 21
199.3875895863
  0
LINE
  5
2F3
100
AcDbEntity
  8
0
100
AcDbLine
 62
7
  6
CONTINUOUS
 10
263.6729124868
 20
199.8550460128
 11
262.9229124868
 21
199.8550460128
  0
LINE
  5
2F4
100
AcDbEntity
  8
BEZUGSACHSEN
100
AcDbLine
 62
7
  6
CONTINUOUS
 10
256.9229124868
 20
184.2556145939
 11
256.9229124868
 21
229.1012284424
  0
LINE
  5
2F5
100
AcDbEntity
  8
0
100
AcDbLine
 62
7
  6
CONTINUOUS
 10
256.9229124868
 20
202.2735567669
 11
256.4229124868
 21
202.2735567669
  0
LINE
  5
2F6
100
AcDbEntity
  8
0
100
AcDbLine
 62
7
  6
CONTINUOUS
 10
256.9229124868
 20
204.9079627804
 11
256.4229124868
 21
204.9079627804
  0
LINE
  5
2F7
100
AcDbEntity
  8
BEZUGSACHSEN
100
AcDbLine
 62
7
  6
CONTINUOUS
 10
262.9229124868
 20
184.2556145939
 11
262.9229124868
 21
229.1012284424
  0
LINE
  5
2F8
100
AcDbEntity
  8
BEZUGSACHSEN
100
AcDbLine
 62
7
  6
CONTINUOUS
 10
263.6729124868
 20
226.1439941553
 11
263.6729124868
 21
223.144062395
  0
LINE
  5
2F9
100
AcDbEntity
  8
BEZUGSACHSEN
100
AcDbLine
 62
7
  6
CONTINUOUS
 10
263.6729124868
 20
221.5457047814
 11
263.6729124868
 21
218.545975033
  0
LINE
  5
2FA
100
AcDbEntity
  8
0
100
AcDbLine
 62
7
  6
CONTINUOUS
 10
263.6729124868
 20
199.8550350184
 11
263.6729124868
 21
192.1237833534
  0
LINE
  5
2FB
100
AcDbEntity
  8
0
100
AcDbLine
 62
7
  6
CONTINUOUS
 10
263.6729124868
 20
192.0445309224
 11
263.6729124868
 21
187.6251124836
  0
LINE
  5
2FC
100
AcDbEntity
  8
BEZUGSACHSEN
100
AcDbLine
 62
7
  6
CONTINUOUS
 10
263.6729124868
 20
210.5264480794
 11
263.6729124868
 21
213.5264480794
  0
LINE
  5
2FD
100
AcDbEntity
  8
0
100
AcDbLine
 62
7
  6
CONTINUOUS
 10
256.9229124868
 20
207.5423688837
 11
256.4229124868
 21
207.5423688837
  0
LINE
  5
2FE
100
AcDbEntity
  8
0
100
AcDbLine
 62
7
  6
CONTINUOUS
 10
256.4229124868
 20
207.8471250485
 11
256.9229124868
 21
207.8471250485
  0
LINE
  5
2FF
100
AcDbEntity
  8
RUNDUNGEN
100
AcDbLine
 62
7
  6
CONTINUOUS
 10
270.3307766813
 20
185.3111093537
 11
269.2769931245
 21
189.2438831277
  0
LINE
  5
300
100
AcDbEntity
  8
BEZUGSACHSEN
100
AcDbLine
 62
7
  6
CONTINUOUS
 10
270.9229124868
 20
183.1012284424
 11
266.3658776236
 21
200.1083140839
  0
LWPOLYLINE
  5
301
100
AcDbEntity
  8
RUNDUNGEN
100
AcDbPolyline
 62
7
  6
CONTINUOUS
 90
15
 70
0
 10
265.9229114822
 20
224.9145106135
 10
265.9179231947
 20
225.0480255909
 10
265.8866449338
 20
225.2764279412
 10
265.8270962898
 20
225.4987313418
 10
265.7403620555
 20
225.712485939
 10
265.6280824846
 20
225.9140497764
 10
265.4910292222
 20
226.1021872865
 10
265.3301244096
 20
226.2747526001
 10
265.147478523
 20
226.4285664008
 10
264.9460094042
 20
226.5604860582
 10
264.728663584
 20
226.6682660904
 10
264.4991996471
 20
226.7497587659
 10
264.2609278194
 20
226.8037441045
 10
264.0169345645
 20
226.829283751
 10
263.922912469
 20
226.831431391
  0
LINE
  5
302
100
AcDbEntity
  8
BEZUGSACHSEN
100
AcDbLine
 62
7
  6
CONTINUOUS
 10
265.9229124868
 20
203.4729741319
 11
265.9229124868
 21
224.9138568489
  0
LINE
  5
303
100
AcDbEntity
  8
RUNDUNGEN
100
AcDbLine
 62
7
  6
CONTINUOUS
 10
265.9229124868
 20
218.0185558004
 11
265.9229124868
 21
224.9138568489
  0
LINE
  5
304
100
AcDbEntity
  8
0
100
AcDbLine
 62
7
  6
CONTINUOUS
 10
256.9229124868
 20
210.2472036877
 11
256.4229124868
 21
210.2472036877
  0
LINE
  5
305
100
AcDbEntity
  8
BEZUGSACHSEN
100
AcDbLine
 62
7
  6
CONTINUOUS
 10
263.6729124868
 20
210.5264480794
 11
262.9229124868
 21
210.5264480794
  0
LINE
  5
306
100
AcDbEntity
  8
BEZUGSACHSEN
100
AcDbLine
 62
7
  6
CONTINUOUS
 10
256.9229124868
 20
210.5264480794
 11
256.1729124868
 21
210.5264480794
  0
LINE
  5
307
100
AcDbEntity
  8
BEZUGSACHSEN
100
AcDbLine
 62
7
  6
CONTINUOUS
 10
270.9229124868
 20
183.1012284424
 11
270.9229124868
 21
179.1012284424
  0
LINE
  5
308
100
AcDbEntity
  8
BEZUGSACHSEN
100
AcDbLine
 62
7
  6
CONTINUOUS
 10
263.6729124868
 20
213.5264480794
 11
262.9229124868
 21
213.5264480794
  0
LINE
  5
309
100
AcDbEntity
  8
BEZUGSACHSEN
100
AcDbLine
 62
7
  6
CONTINUOUS
 10
256.9229124868
 20
213.5264480794
 11
256.1729124868
 21
213.5264480794
  0
LINE
  5
30A
100
AcDbEntity
  8
BEZUGSACHSEN
100
AcDbLine
 62
7
  6
CONTINUOUS
 10
263.6729124868
 20
218.545761017
 11
262.9229124868
 21
218.545761017
  0
LINE
  5
30B
100
AcDbEntity
  8
BEZUGSACHSEN
100
AcDbLine
 62
7
  6
CONTINUOUS
 10
256.9229124868
 20
218.545761017
 11
256.1729124868
 21
218.545761017
  0
LINE
  5
30C
100
AcDbEntity
  8
BEZUGSACHSEN
100
AcDbLine
 62
7
  6
CONTINUOUS
 10
263.6729124868
 20
221.545761017
 11
262.9229124868
 21
221.545761017
  0
LINE
  5
30D
100
AcDbEntity
  8
BEZUGSACHSEN
100
AcDbLine
 62
7
  6
CONTINUOUS
 10
256.9229124868
 20
221.545761017
 11
256.1729124868
 21
221.545761017
  0
LINE
  5
30E
100
AcDbEntity
  8
BEZUGSACHSEN
100
AcDbLine
 62
7
  6
CONTINUOUS
 10
263.6729124868
 20
223.1440333897
 11
262.9229124868
 21
223.1440333897
  0
LINE
  5
30F
100
AcDbEntity
  8
BEZUGSACHSEN
100
AcDbLine
 62
7
  6
CONTINUOUS
 10
256.9229124868
 20
223.1440333897
 11
256.1729124868
 21
223.1440333897
  0
LINE
  5
310
100
AcDbEntity
  8
BEZUGSACHSEN
100
AcDbLine
 62
7
  6
CONTINUOUS
 10
263.6729124868
 20
226.1440333897
 11
262.9229124868
 21
226.1440333897
  0
LINE
  5
311
100
AcDbEntity
  8
BEZUGSACHSEN
100
AcDbLine
 62
7
  6
CONTINUOUS
 10
256.9229124868
 20
226.1440333897
 11
256.1729124868
 21
226.1440333897
  0
LWPOLYLINE
  5
312
100
AcDbEntity
  8
BEZUGSACHSEN
100
AcDbPolyline
 62
7
  6
CONTINUOUS
 90
15
 70
0
 10
255.9229125046
 20
226.831431391
 10
255.8288701949
 20
226.8292828328
 10
255.5848496193
 20
226.8037362649
 10
255.3465400335
 20
226.7497340447
 10
255.1170474246
 20
226.6682178169
 10
254.8996920525
 20
226.5604153116
 10
254.6982398429
 20
226.4284870737
 10
254.5156493175
 20
226.2747038626
 10
254.3547978025
 20
226.1021897715
 10
254.2177815397
 20
225.9141108423
 10
254.1055096013
 20
225.712583289
 10
254.0187461703
 20
225.4987834445
 10
253.9591787399
 20
225.2764215006
 10
253.9279004956
 20
225.0480081064
 10
253.922913493
 20
224.914511552
  0
LINE
  5
313
100
AcDbEntity
  8
BEZUGSACHSEN
100
AcDbLine
 62
7
  6
CONTINUOUS
 10
255.9229124995
 20
226.8314646486
 11
256.9229124868
 21
226.8314646486
  0
LINE
  5
314
100
AcDbEntity
  8
RUNDUNGEN
100
AcDbLine
 62
7
  6
CONTINUOUS
 10
262.9229124868
 20
226.8314646486
 11
263.9229124741
 21
226.8314646486
  0
LINE
  5
315
100
AcDbEntity
  8
0
100
AcDbLine
 62
7
  6
CONTINUOUS
 10
256.9229124868
 20
229.1012284424
 11
262.9229124868
 21
229.1012284424
  0
ARC
  5
316
100
AcDbEntity
  8
BEZUGSACHSEN
100
AcDbCircle
 62
7
  6
CONTINUOUS
 10
133.7557341341
 20
190.1288046164
 40
12.855
100
AcDbArc
 50
171.3481336035
 51
180.0
  0
ARC
  5
317
100
AcDbEntity
  8
BEZUGSACHSEN
100
AcDbCircle
 62
7
  6
CONTINUOUS
 10
125.286571607
 20
191.2136873479
 40
4.5
100
AcDbArc
 50
278.9857517134
 51
337.5033708524
  0
ARC
  5
318
100
AcDbEntity
  8
BEZUGSACHSEN
100
AcDbCircle
 62
7
  6
CONTINUOUS
 10
127.2173408264
 20
195.8749765829
 40
4.5
100
AcDbArc
 50
337.4961719455
 51
22.5038574035
  0
ARC
  5
319
100
AcDbEntity
  8
BEZUGSACHSEN
100
AcDbCircle
 62
7
  6
CONTINUOUS
 10
132.6293018278
 20
201.1012284424
 40
2.5
100
AcDbArc
 50
157.4999921881
 51
202.5041094716
  0
ARC
  5
31A
100
AcDbEntity
  8
BEZUGSACHSEN
100
AcDbCircle
 62
7
  6
CONTINUOUS
 10
122.9007341341
 20
184.2556145939
 40
2.0
100
AcDbArc
 50
98.986360897
 51
180.0
  0
ARC
  5
31B
100
AcDbEntity
  8
0
100
AcDbCircle
 62
7
  6
CONTINUOUS
 10
127.1284225549
 20
193.8385499581
 40
1.715
100
AcDbArc
 50
247.5
 51
67.5
  0
ARC
  5
31C
100
AcDbEntity
  8
0
100
AcDbCircle
 62
7
  6
CONTINUOUS
 10
124.4502211137
 20
190.7698634247
 40
1.275
100
AcDbArc
 50
6.5129859294
 51
157.5
  0
ARC
  5
31D
100
AcDbEntity
  8
0
100
AcDbCircle
 62
7
  6
CONTINUOUS
 10
127.88657269
 20
198.2166840781
 40
0.87
100
AcDbArc
 50
67.5
 51
157.5
  0
ARC
  5
31E
100
AcDbEntity
  8
0
100
AcDbCircle
 62
7
  6
CONTINUOUS
 10
128.8936013805
 20
197.7995591368
 40
0.87
100
AcDbArc
 50
337.5
 51
67.5
  0
ARC
  5
31F
100
AcDbEntity
  8
0
100
AcDbCircle
 62
7
  6
CONTINUOUS
 10
127.1284225549
 20
193.8385499581
 40
0.845
100
AcDbArc
 50
247.5
 51
67.5
  0
ARC
  5
320
100
AcDbEntity
  8
0
100
AcDbCircle
 62
7
  6
CONTINUOUS
 10
124.3966454332
 20
190.6405202901
 40
0.545
100
AcDbArc
 50
337.5
 51
157.5
  0
ARC
  5
321
100
AcDbEntity
  8
0
100
AcDbCircle
 62
7
  6
CONTINUOUS
 10
125.7726862618
 20
189.3242781957
 40
0.51
100
AcDbArc
 50
97.5
 51
157.5
  0
ARC
  5
322
100
AcDbEntity
  8
BEZUGSACHSEN
100
AcDbCircle
 62
7
  6
CONTINUOUS
 10
139.4453465424
 20
217.5566160341
 40
2.5
100
AcDbArc
 50
112.5
 51
157.5
  0
CIRCLE
  5
323
100
AcDbEntity
  8
BEZUGSACHSEN
100
AcDbCircle
 62
7
  6
CONTINUOUS
 10
129.5249207147
 20
212.0264480794
 40
1.5
  0
ARC
  5
324
100
AcDbEntity
  8
BEZUGSACHSEN
100
AcDbCircle
 62
7
  6
CONTINUOUS
 10
136.9562015596
 20
220.045761017
 40
1.5
100
AcDbArc
 50
352.3800584535
 51
277.6199415465
  0
ARC
  5
325
100
AcDbEntity
  8
BEZUGSACHSEN
100
AcDbCircle
 62
7
  6
CONTINUOUS
 10
146.1489850286
 20
224.6440333897
 40
1.5
100
AcDbArc
 50
301.2484475462
 51
283.7515524538
  0
ARC
  5
326
100
AcDbEntity
  8
BEZUGSACHSEN
100
AcDbCircle
 62
7
  6
CONTINUOUS
 10
155.9007341341
 20
195.1012284424
 40
34.0
100
AcDbArc
 50
8.6518663965
 51
171.3481336035
  0
ARC
  5
327
100
AcDbEntity
  8
RUNDUNGEN
100
AcDbCircle
 62
7
  6
CONTINUOUS
 10
155.9007341341
 20
201.1012284424
 40
16.0
100
AcDbArc
 50
354.6566087724
 51
7.1708368072
  0
CIRCLE
  5
328
100
AcDbEntity
  8
BEZUGSACHSEN
100
AcDbCircle
 62
7
  6
CONTINUOUS
 10
155.9007341341
 20
201.1012284424
 40
16.0
  0
ARC
  5
329
100
AcDbEntity
  8
RUNDUNGEN
100
AcDbCircle
 62
7
  6
CONTINUOUS
 10
178.0457341341
 20
190.1288046164
 40
12.855
100
AcDbArc
 50
0.0
 51
8.6518663965
  0
ARC
  5
32A
100
AcDbEntity
  8
RUNDUNGEN
100
AcDbCircle
 62
7
  6
CONTINUOUS
 10
186.5148966612
 20
191.2136873479
 40
4.5
100
AcDbArc
 50
202.4966291476
 51
261.0142482866
  0
ARC
  5
32B
100
AcDbEntity
  8
RUNDUNGEN
100
AcDbCircle
 62
7
  6
CONTINUOUS
 10
184.5841274419
 20
195.8749765829
 40
4.5
100
AcDbArc
 50
157.4961425965
 51
202.5038280545
  0
ARC
  5
32C
100
AcDbEntity
  8
RUNDUNGEN
100
AcDbCircle
 62
7
  6
CONTINUOUS
 10
179.1721664404
 20
201.1012284424
 40
2.5
100
AcDbArc
 50
337.4958905284
 51
22.5000078119
  0
ARC
  5
32D
100
AcDbEntity
  8
RUNDUNGEN
100
AcDbCircle
 62
7
  6
CONTINUOUS
 10
188.9007341341
 20
184.2556145939
 40
2.0
100
AcDbArc
 50
0.0
 51
81.013639103
  0
ARC
  5
32E
100
AcDbEntity
  8
RUNDUNGEN
100
AcDbCircle
 62
7
  6
CONTINUOUS
 10
155.9007341341
 20
223.8314786936
 40
2.9999610723
100
AcDbArc
 50
67.4998973484
 51
112.5001026298
  0
ARC
  5
32F
100
AcDbEntity
  8
RUNDUNGEN
100
AcDbCircle
 62
7
  6
CONTINUOUS
 10
172.3561217258
 20
217.5566160341
 40
2.5
100
AcDbArc
 50
22.5
 51
67.5
  0
CIRCLE
  5
330
100
AcDbEntity
  8
0
100
AcDbCircle
 62
7
  6
CONTINUOUS
 10
182.2765475535
 20
212.0264480794
 40
1.5
  0
ARC
  5
331
100
AcDbEntity
  8
0
100
AcDbCircle
 62
7
  6
CONTINUOUS
 10
174.8452667087
 20
220.045761017
 40
1.5
100
AcDbArc
 50
262.3800584535
 51
187.6199415465
  0
ARC
  5
332
100
AcDbEntity
  8
0
100
AcDbCircle
 62
7
  6
CONTINUOUS
 10
165.6524832396
 20
224.6440333897
 40
1.5
100
AcDbArc
 50
256.2484475462
 51
238.7515524538
  0
ARC
  5
333
100
AcDbEntity
  8
0
100
AcDbCircle
 62
7
  6
CONTINUOUS
 10
174.6149353033
 20
97.5106146108
 40
2.490741847
100
AcDbArc
 50
251.0811462746
 51
253.7497587479
  0
ARC
  5
334
100
AcDbEntity
  8
BEZUGSACHSEN
100
AcDbCircle
 62
7
  6
CONTINUOUS
 10
174.6149353032
 20
104.8051882705
 40
2.4907418469
100
AcDbArc
 50
106.2502412521
 51
108.9188537254
  0
ARC
  5
335
100
AcDbEntity
  8
BEZUGSACHSEN
100
AcDbCircle
 62
7
  6
CONTINUOUS
 10
137.186532965
 20
97.5106146108
 40
2.490741847
100
AcDbArc
 50
286.2502412521
 51
288.9188537254
  0
ARC
  5
336
100
AcDbEntity
  8
BEZUGSACHSEN
100
AcDbCircle
 62
7
  6
CONTINUOUS
 10
137.186532965
 20
104.8051882705
 40
2.4907418469
100
AcDbArc
 50
71.0811462746
 51
73.7497587479
  0
ARC
  5
337
100
AcDbEntity
  8
RUNDUNGEN
100
AcDbCircle
 62
7
  6
CONTINUOUS
 10
188.9007341341
 20
92.1579014406
 40
2.0
100
AcDbArc
 50
270.0
 51
360.0
  0
ARC
  5
338
100
AcDbEntity
  8
BEZUGSACHSEN
100
AcDbCircle
 62
7
  6
CONTINUOUS
 10
122.9007341341
 20
92.1579014406
 40
2.0
100
AcDbArc
 50
180.0
 51
270.0
  0
ARC
  5
339
100
AcDbEntity
  8
BEZUGSACHSEN
100
AcDbCircle
 62
7
  6
CONTINUOUS
 10
188.9007341341
 20
110.1579014406
 40
2.0
100
AcDbArc
 50
0.0
 51
90.0
  0
ARC
  5
33A
100
AcDbEntity
  8
BEZUGSACHSEN
100
AcDbCircle
 62
7
  6
CONTINUOUS
 10
122.9007341341
 20
110.1579014406
 40
2.0
100
AcDbArc
 50
90.0
 51
180.0
  0
ARC
  5
33B
100
AcDbEntity
  8
0
100
AcDbCircle
 62
7
  6
CONTINUOUS
 10
278.9229124868
 20
203.4729649489
 40
13.0
100
AcDbArc
 50
182.7573225527
 51
185.3881798641
  0
ARC
  5
33C
100
AcDbEntity
  8
BEZUGSACHSEN
100
AcDbCircle
 62
7
  6
CONTINUOUS
 10
278.9229124868
 20
203.4729649489
 40
13.0
100
AcDbArc
 50
179.9999595273
 51
195.0000149602
  0
ARC
  5
33D
100
AcDbEntity
  8
BEZUGSACHSEN
100
AcDbCircle
 62
7
  6
CONTINUOUS
 10
240.9229124868
 20
203.4729649489
 40
13.0
100
AcDbArc
 50
344.9999850398
 51
0.0000404727
  0
SPLINE
  5
33E
100
AcDbEntity
  8
0
100
AcDbSpline
 62
7
  6
CONTINUOUS
 70
0
 71
3
 72
8
 73
4
 74
0
 42
0.0000001
 43
0.0000001
 44
0.0000000001
 40
0.0
 40
0.0
 40
0.0
 40
0.0
 40
1.0
 40
1.0
 40
1.0
 40
1.0
 10
186.6499320246
 20
198.1792594394
 30
0.0
 10
186.7933408687
 20
197.8330398632
 30
0.0
 10
186.7245500449
 20
197.6017355549
 30
0.0
 10
186.4485778901
 20
197.4874241456
 30
0.0
  0
SPLINE
  5
33F
100
AcDbEntity
  8
0
100
AcDbSpline
 62
7
  6
CONTINUOUS
 70
0
 71
3
 72
8
 73
4
 74
0
 42
0.0000001
 43
0.0000001
 44
0.0000000001
 40
0.0
 40
0.0
 40
0.0
 40
0.0
 40
1.0
 40
1.0
 40
1.0
 40
1.0
 10
186.4485778901
 20
197.4874241456
 30
0.0
 10
186.3582596823
 20
197.450013119
 30
0.0
 10
186.2690547218
 20
197.4453953378
 30
0.0
 10
186.182002087
 20
197.4710617308
 30
0.0
  0
SPLINE
  5
340
100
AcDbEntity
  8
0
100
AcDbSpline
 62
7
  6
CONTINUOUS
 70
0
 71
3
 72
8
 73
4
 74
0
 42
0.0000001
 43
0.0000001
 44
0.0000000001
 40
0.0
 40
0.0
 40
0.0
 40
0.0
 40
1.0
 40
1.0
 40
1.0
 40
1.0
 10
186.182002087
 20
197.4710617308
 30
0.0
 10
186.0949490553
 20
197.4967282408
 30
0.0
 10
186.0273581428
 20
197.5392740764
 30
0.0
 10
185.9820060224
 20
197.6024099202
 30
0.0
  0
SPLINE
  5
341
100
AcDbEntity
  8
0
100
AcDbSpline
 62
7
  6
CONTINUOUS
 70
0
 71
3
 72
8
 73
4
 74
0
 42
0.0000001
 43
0.0000001
 44
0.0000000001
 40
0.0
 40
0.0
 40
0.0
 40
0.0
 40
1.0
 40
1.0
 40
1.0
 40
1.0
 10
185.9820060224
 20
197.6024099202
 30
0.0
 10
185.923217076
 20
197.6842515121
 30
0.0
 10
185.8622610314
 20
197.8030283552
 30
0.0
 10
185.7978310821
 20
197.9585760126
 30
0.0
  0
SPLINE
  5
342
100
AcDbEntity
  8
0
100
AcDbSpline
 62
7
  6
CONTINUOUS
 70
0
 71
3
 72
8
 73
4
 74
0
 42
0.0000001
 43
0.0000001
 44
0.0000000001
 40
0.0
 40
0.0
 40
0.0
 40
0.0
 40
1.0
 40
1.0
 40
1.0
 40
1.0
 10
185.1313410471
 20
197.6942641244
 30
0.0
 10
185.2051240724
 20
197.516136144
 30
0.0
 10
185.2528530213
 20
197.3654280292
 30
0.0
 10
185.2772464673
 20
197.2464750128
 30
0.0
  0
SPLINE
  5
343
100
AcDbEntity
  8
0
100
AcDbSpline
 62
7
  6
CONTINUOUS
 70
0
 71
3
 72
8
 73
4
 74
0
 42
0.0000001
 43
0.0000001
 44
0.0000000001
 40
0.0
 40
0.0
 40
0.0
 40
0.0
 40
1.0
 40
1.0
 40
1.0
 40
1.0
 10
185.2772464673
 20
197.2464750128
 30
0.0
 10
185.2989647439
 20
197.140567282
 30
0.0
 10
185.2810029731
 20
197.0420095648
 30
0.0
 10
185.2290362518
 20
196.9515853073
 30
0.0
  0
SPLINE
  5
344
100
AcDbEntity
  8
0
100
AcDbSpline
 62
7
  6
CONTINUOUS
 70
0
 71
3
 72
8
 73
4
 74
0
 42
0.0000001
 43
0.0000001
 44
0.0000000001
 40
0.0
 40
0.0
 40
0.0
 40
0.0
 40
1.0
 40
1.0
 40
1.0
 40
1.0
 10
185.2290362518
 20
196.9515853073
 30
0.0
 10
185.176806202
 20
196.8607028473
 30
0.0
 10
185.0989581539
 20
196.793186192
 30
0.0
 10
184.9935870216
 20
196.7495400399
 30
0.0
  0
SPLINE
  5
345
100
AcDbEntity
  8
0
100
AcDbSpline
 62
7
  6
CONTINUOUS
 70
0
 71
3
 72
8
 73
4
 74
0
 42
0.0000001
 43
0.0000001
 44
0.0000000001
 40
0.0
 40
0.0
 40
0.0
 40
0.0
 40
1.0
 40
1.0
 40
1.0
 40
1.0
 10
184.9935870216
 20
196.7495400399
 30
0.0
 10
184.890724655
 20
196.7069330526
 30
0.0
 10
184.7914841912
 20
196.6981584298
 30
0.0
 10
184.7007186048
 20
196.7203002858
 30
0.0
  0
SPLINE
  5
346
100
AcDbEntity
  8
0
100
AcDbSpline
 62
7
  6
CONTINUOUS
 70
0
 71
3
 72
8
 73
4
 74
0
 42
0.0000001
 43
0.0000001
 44
0.0000000001
 40
0.0
 40
0.0
 40
0.0
 40
0.0
 40
1.0
 40
1.0
 40
1.0
 40
1.0
 10
184.7007186048
 20
196.7203002858
 30
0.0
 10
184.6083825795
 20
196.7428252434
 30
0.0
 10
184.5332651497
 20
196.7822534934
 30
0.0
 10
184.4785807631
 20
196.8416468689
 30
0.0
  0
SPLINE
  5
347
100
AcDbEntity
  8
0
100
AcDbSpline
 62
7
  6
CONTINUOUS
 70
0
 71
3
 72
8
 73
4
 74
0
 42
0.0000001
 43
0.0000001
 44
0.0000000001
 40
0.0
 40
0.0
 40
0.0
 40
0.0
 40
1.0
 40
1.0
 40
1.0
 40
1.0
 10
184.4785807631
 20
196.8416468689
 30
0.0
 10
184.4157188143
 20
196.9099219939
 30
0.0
 10
184.3341574096
 20
197.0642522318
 30
0.0
 10
184.2333556441
 20
197.3076092212
 30
0.0
  0
SPLINE
  5
348
100
AcDbEntity
  8
0
100
AcDbSpline
 62
7
  6
CONTINUOUS
 70
0
 71
3
 72
8
 73
4
 74
0
 42
0.0000001
 43
0.0000001
 44
0.0000000001
 40
0.0
 40
0.0
 40
0.0
 40
0.0
 40
1.0
 40
1.0
 40
1.0
 40
1.0
 10
183.6105117155
 20
196.9379263108
 30
0.0
 10
183.8110762186
 20
196.4537207673
 30
0.0
 10
184.0579563878
 20
196.1415419085
 30
0.0
 10
184.3546997309
 20
195.9999213838
 30
0.0
  0
SPLINE
  5
349
100
AcDbEntity
  8
0
100
AcDbSpline
 62
7
  6
CONTINUOUS
 70
0
 71
3
 72
8
 73
4
 74
0
 42
0.0000001
 43
0.0000001
 44
0.0000000001
 40
0.0
 40
0.0
 40
0.0
 40
0.0
 40
1.0
 40
1.0
 40
1.0
 40
1.0
 10
184.3546997309
 20
195.9999213838
 30
0.0
 10
184.6514430875
 20
195.8583008527
 30
0.0
 10
184.9666522801
 20
195.8565974675
 30
0.0
 10
185.3003277527
 20
195.9948103736
 30
0.0
  0
SPLINE
  5
34A
100
AcDbEntity
  8
0
100
AcDbSpline
 62
7
  6
CONTINUOUS
 70
0
 71
3
 72
8
 73
4
 74
0
 42
0.0000001
 43
0.0000001
 44
0.0000000001
 40
0.0
 40
0.0
 40
0.0
 40
0.0
 40
1.0
 40
1.0
 40
1.0
 40
1.0
 10
185.3003277527
 20
195.9948103736
 30
0.0
 10
185.4909993411
 20
196.0737891315
 30
0.0
 10
185.6364078171
 20
196.1839863705
 30
0.0
 10
185.7415702858
 20
196.3274819596
 30
0.0
  0
SPLINE
  5
34B
100
AcDbEntity
  8
0
100
AcDbSpline
 62
7
  6
CONTINUOUS
 70
0
 71
3
 72
8
 73
4
 74
0
 42
0.0000001
 43
0.0000001
 44
0.0000000001
 40
0.0
 40
0.0
 40
0.0
 40
0.0
 40
1.0
 40
1.0
 40
1.0
 40
1.0
 10
185.7415702858
 20
196.3274819596
 30
0.0
 10
185.8467324017
 20
196.4709770673
 30
0.0
 10
185.8972781578
 20
196.6682715918
 30
0.0
 10
185.8952866213
 20
196.9143463332
 30
0.0
  0
SPLINE
  5
34C
100
AcDbEntity
  8
0
100
AcDbSpline
 62
7
  6
CONTINUOUS
 70
0
 71
3
 72
8
 73
4
 74
0
 42
0.0000001
 43
0.0000001
 44
0.0000000001
 40
0.0
 40
0.0
 40
0.0
 40
0.0
 40
1.0
 40
1.0
 40
1.0
 40
1.0
 10
185.8952866213
 20
196.9143463332
 30
0.0
 10
186.2202662049
 20
196.6903651134
 30
0.0
 10
186.5470851222
 20
196.6464413399
 30
0.0
 10
186.8732339123
 20
196.7815365921
 30
0.0
  0
SPLINE
  5
34D
100
AcDbEntity
  8
0
100
AcDbSpline
 62
7
  6
CONTINUOUS
 70
0
 71
3
 72
8
 73
4
 74
0
 42
0.0000001
 43
0.0000001
 44
0.0000000001
 40
0.0
 40
0.0
 40
0.0
 40
0.0
 40
1.0
 40
1.0
 40
1.0
 40
1.0
 10
186.8732339123
 20
196.7815365921
 30
0.0
 10
187.1592415703
 20
196.900004843
 30
0.0
 10
187.3509958113
 20
197.0970032199
 30
0.0
 10
187.4461724773
 20
197.3692812154
 30
0.0
  0
SPLINE
  5
34E
100
AcDbEntity
  8
0
100
AcDbSpline
 62
7
  6
CONTINUOUS
 70
0
 71
3
 72
8
 73
4
 74
0
 42
0.0000001
 43
0.0000001
 44
0.0000000001
 40
0.0
 40
0.0
 40
0.0
 40
0.0
 40
1.0
 40
1.0
 40
1.0
 40
1.0
 10
187.4461724773
 20
197.3692812154
 30
0.0
 10
187.5420185908
 20
197.6434743422
 30
0.0
 10
187.5055553208
 20
197.986962932
 30
0.0
 10
187.3330489508
 20
198.4034301501
 30
0.0
  0
SPLINE
  5
34F
100
AcDbEntity
  8
BEZUGSACHSEN
100
AcDbSpline
 62
7
  6
CONTINUOUS
 70
0
 71
3
 72
10
 73
6
 74
0
 42
0.0000001
 43
0.0000001
 44
0.0000000001
 40
0.0
 40
0.0
 40
0.0
 40
0.0
 40
0.2499998826
 40
0.5000011939
 40
1.0
 40
1.0
 40
1.0
 40
1.0
 10
152.9947648559
 20
183.1012284424
 30
0.0
 10
153.2369403119
 20
183.1012254341
 30
0.0
 10
153.7212824649
 20
183.0959254648
 30
0.0
 10
154.6898571944
 20
183.0809509092
 30
0.0
 10
155.4163841512
 20
183.074073164
 30
0.0
 10
155.9007341341
 20
183.0740782369
 30
0.0
  0
SPLINE
  5
350
100
AcDbEntity
  8
BEZUGSACHSEN
100
AcDbSpline
 62
7
  6
CONTINUOUS
 70
0
 71
3
 72
10
 73
6
 74
0
 42
0.0000001
 43
0.0000001
 44
0.0000000001
 40
0.0
 40
0.0
 40
0.0
 40
0.0
 40
0.2499998826
 40
0.5000011939
 40
1.0
 40
1.0
 40
1.0
 40
1.0
 10
158.8067034123
 20
183.1012284424
 30
0.0
 10
158.5645279563
 20
183.1012254341
 30
0.0
 10
158.0801858033
 20
183.0959254648
 30
0.0
 10
157.1116110738
 20
183.0809509092
 30
0.0
 10
156.3850841171
 20
183.074073164
 30
0.0
 10
155.9007341341
 20
183.0740782369
 30
0.0
  0
SPLINE
  5
351
100
AcDbEntity
  8
BEZUGSACHSEN
100
AcDbSpline
 62
7
  6
CONTINUOUS
 70
0
 71
3
 72
20
 73
16
 74
0
 42
0.0000001
 43
0.0000001
 44
0.0000000001
 40
0.0
 40
0.0
 40
0.0
 40
0.0
 40
0.1356377441
 40
0.2023174271
 40
0.2667874596
 40
0.3280347678
 40
0.3851523121
 40
0.4381929438
 40
0.4896102061
 40
0.5436895726
 40
0.6023959963
 40
0.6649249373
 40
0.7299080136
 40
0.8638529647
 40
1.0
 40
1.0
 40
1.0
 40
1.0
 10
158.3347058992
 20
219.9446830473
 30
0.0
 10
158.4811362585
 20
219.7646993355
 30
0.0
 10
158.6519840804
 20
219.4535276118
 30
0.0
 10
158.7705566743
 20
219.0119278881
 30
0.0
 10
158.8132081205
 20
218.6845709376
 30
0.0
 10
158.8133991913
 20
218.3708426361
 30
0.0
 10
158.7680512658
 20
218.0796670131
 30
0.0
 10
158.6632144224
 20
217.8195367136
 30
0.0
 10
158.4766321193
 20
217.6139915261
 30
0.0
 10
158.2232205812
 20
217.4833204479
 30
0.0
 10
157.9316938855
 20
217.4081108532
 30
0.0
 10
157.6153900667
 20
217.3669798822
 30
0.0
 10
157.1689373601
 20
217.3380096434
 30
0.0
 10
156.5956180215
 20
217.3297478021
 30
0.0
 10
156.1336311742
 20
217.3289795417
 30
0.0
 10
155.9007341341
 20
217.3289795417
 30
0.0
  0
SPLINE
  5
352
100
AcDbEntity
  8
0
100
AcDbSpline
 62
7
  6
CONTINUOUS
 70
0
 71
3
 72
23
 73
19
 74
0
 42
0.0000001
 43
0.0000001
 44
0.0000000001
 40
0.0
 40
0.0
 40
0.0
 40
0.0
 40
0.1345110643
 40
0.2019176284
 40
0.2690107078
 40
0.3354035179
 40
0.4005051649
 40
0.4633260094
 40
0.5222740908
 40
0.5760397082
 40
0.6015987291
 40
0.6270783715
 40
0.6802436961
 40
0.7381967421
 40
0.8004426268
 40
0.8656747776
 40
0.9325588384
 40
1.0
 40
1.0
 40
1.0
 40
1.0
 10
172.0244921652
 20
203.1297954416
 30
0.0
 10
171.9752602593
 20
203.3913683783
 30
0.0
 10
171.9054425542
 20
203.7847818887
 30
0.0
 10
171.8134477582
 20
204.3090789344
 30
0.0
 10
171.7465342491
 20
204.7009279121
 30
0.0
 10
171.6849614057
 20
205.0890544544
 30
0.0
 10
171.6346490004
 20
205.4703158095
 30
0.0
 10
171.6069323592
 20
205.8394720962
 30
0.0
 10
171.6203214586
 20
206.1876222855
 30
0.0
 10
171.696176212
 20
206.4562221118
 30
0.0
 10
171.8107718124
 20
206.6308899368
 30
0.0
 10
171.9576690891
 20
206.7775614837
 30
0.0
 10
172.1996194561
 20
206.908626555
 30
0.0
 10
172.5322027191
 20
206.9984704928
 30
0.0
 10
172.8982733831
 20
207.0387262012
 30
0.0
 10
173.2841635821
 20
207.0236772822
 30
0.0
 10
173.6725459133
 20
206.9412535114
 30
0.0
 10
173.9186895987
 20
206.8353188002
 30
0.0
 10
174.035259561
 20
206.7703542604
 30
0.0
  0
SPLINE
  5
353
100
AcDbEntity
  8
0
100
AcDbSpline
 62
7
  6
CONTINUOUS
 70
0
 71
3
 72
9
 73
5
 74
0
 42
0.0000001
 43
0.0000001
 44
0.0000000001
 40
0.0
 40
0.0
 40
0.0
 40
0.0
 40
0.5011287868
 40
1.0
 40
1.0
 40
1.0
 40
1.0
 10
175.6145858622
 20
203.4729649489
 30
0.0
 10
175.5566228714
 20
203.17265615
 30
0.0
 10
175.3927489334
 20
202.5810617381
 30
0.0
 10
175.0901891085
 20
202.0389305687
 30
0.0
 10
174.8981297762
 20
201.8026735954
 30
0.0
  0
SPLINE
  5
354
100
AcDbEntity
  8
0
100
AcDbSpline
 62
7
  6
CONTINUOUS
 70
0
 71
3
 72
22
 73
18
 74
0
 42
0.0000001
 43
0.0000001
 44
0.0000000001
 40
0.0
 40
0.0
 40
0.0
 40
0.0
 40
0.0699303892
 40
0.140057225
 40
0.2774105281
 40
0.3426583568
 40
0.4039363555
 40
0.4602056555
 40
0.5111593458
 40
0.5354351128
 40
0.5597853877
 40
0.6113037937
 40
0.6686101897
 40
0.7305772973
 40
0.795647872
 40
0.862665669
 40
1.0
 40
1.0
 40
1.0
 40
1.0
 10
174.8981291991
 20
201.802672931
 30
0.0
 10
174.8306547808
 20
201.7196709666
 30
0.0
 10
174.6798060123
 20
201.5654564323
 30
0.0
 10
174.3304558112
 20
201.3209894624
 30
0.0
 10
173.9367155069
 20
201.1674218823
 30
0.0
 10
173.5437386637
 20
201.075114099
 30
0.0
 10
173.2663108599
 20
201.0361511422
 30
0.0
 10
173.0078474189
 20
201.0301297864
 30
0.0
 10
172.8074106431
 20
201.069872779
 30
0.0
 10
172.6704830179
 20
201.1388291065
 30
0.0
 10
172.5500011102
 20
201.2351260138
 30
0.0
 10
172.4309807307
 20
201.4049617103
 30
0.0
 10
172.3347680536
 20
201.6487875129
 30
0.0
 10
172.2596108194
 20
201.9208197961
 30
0.0
 10
172.1966592736
 20
202.2109681008
 30
0.0
 10
172.1188212503
 20
202.6156754663
 30
0.0
 10
172.0633510738
 20
202.9233038117
 30
0.0
 10
172.0244990855
 20
203.1297509599
 30
0.0
  0
SPLINE
  5
355
100
AcDbEntity
  8
0
100
AcDbSpline
 62
7
  6
CONTINUOUS
 70
0
 71
3
 72
29
 73
25
 74
0
 42
0.0000001
 43
0.0000001
 44
0.0000000001
 40
0.0
 40
0.0
 40
0.0
 40
0.0
 40
0.0681515371
 40
0.1349396061
 40
0.1980373011
 40
0.2274684511
 40
0.2552043554
 40
0.2814833517
 40
0.3072212045
 40
0.3338245935
 40
0.3621688501
 40
0.3922888337
 40
0.4237618859
 40
0.4893034707
 40
0.5566986622
 40
0.6248607506
 40
0.6931259134
 40
0.7608852775
 40
0.8272601614
 40
0.8905613091
 40
0.9202173309
 40
0.9480157393
 40
0.9742501376
 40
1.0
 40
1.0
 40
1.0
 40
1.0
 10
170.9461466065
 20
212.7044850342
 30
0.0
 10
170.9274262519
 20
212.5223694868
 30
0.0
 10
170.8387709669
 20
212.1650969361
 30
0.0
 10
170.5793716675
 20
211.6957736894
 30
0.0
 10
170.2992294384
 20
211.367883401
 30
0.0
 10
170.0505094866
 20
211.160489015
 30
0.0
 10
169.8580955706
 20
211.0433877275
 30
0.0
 10
169.654101487
 20
210.97106891
 30
0.0
 10
169.4403046476
 20
210.9581860343
 30
0.0
 10
169.2264742353
 20
211.005972833
 30
0.0
 10
169.018589007
 20
211.1036280756
 30
0.0
 10
168.8156044523
 20
211.2354394605
 30
0.0
 10
168.5460843875
 20
211.4456019605
 30
0.0
 10
168.2192334337
 20
211.7432009616
 30
0.0
 10
167.8323997376
 20
212.1202150453
 30
0.0
 10
167.4444719117
 20
212.5066420265
 30
0.0
 10
167.0569394423
 20
212.8947799636
 30
0.0
 10
166.6751536959
 20
213.2820035966
 30
0.0
 10
166.3120852438
 20
213.6684315629
 30
0.0
 10
166.0393230465
 20
214.0000356627
 30
0.0
 10
165.8708264221
 20
214.2781665522
 30
0.0
 10
165.7861467851
 20
214.4880275591
 30
0.0
 10
165.7546887647
 20
214.7026245179
 30
0.0
 10
165.7753427907
 20
214.8429527303
 30
0.0
 10
165.7942086461
 20
214.909502036
 30
0.0
  0
SPLINE
  5
356
100
AcDbEntity
  8
BEZUGSACHSEN
100
AcDbSpline
 62
7
  6
CONTINUOUS
 70
0
 71
3
 72
29
 73
25
 74
0
 42
0.0000001
 43
0.0000001
 44
0.0000000001
 40
0.0
 40
0.0
 40
0.0
 40
0.0
 40
0.0681515371
 40
0.1349396061
 40
0.1980373011
 40
0.2274684511
 40
0.2552043554
 40
0.2814833517
 40
0.3072212045
 40
0.3338245935
 40
0.3621688501
 40
0.3922888337
 40
0.4237618859
 40
0.4893034707
 40
0.5566986622
 40
0.6248607506
 40
0.6931259134
 40
0.7608852775
 40
0.8272601614
 40
0.8905613091
 40
0.9202173309
 40
0.9480157393
 40
0.9742501376
 40
1.0
 40
1.0
 40
1.0
 40
1.0
 10
140.8553216617
 20
212.7044850342
 30
0.0
 10
140.8740420163
 20
212.5223694868
 30
0.0
 10
140.9626973013
 20
212.1650969361
 30
0.0
 10
141.2220966007
 20
211.6957736894
 30
0.0
 10
141.5022388298
 20
211.367883401
 30
0.0
 10
141.7509587817
 20
211.160489015
 30
0.0
 10
141.9433726976
 20
211.0433877275
 30
0.0
 10
142.1473667812
 20
210.97106891
 30
0.0
 10
142.3611636206
 20
210.9581860343
 30
0.0
 10
142.574994033
 20
211.005972833
 30
0.0
 10
142.7828792613
 20
211.1036280756
 30
0.0
 10
142.9858638159
 20
211.2354394605
 30
0.0
 10
143.2553838807
 20
211.4456019605
 30
0.0
 10
143.5822348345
 20
211.7432009616
 30
0.0
 10
143.9690685306
 20
212.1202150453
 30
0.0
 10
144.3569963565
 20
212.5066420265
 30
0.0
 10
144.7445288259
 20
212.8947799636
 30
0.0
 10
145.1263145724
 20
213.2820035966
 30
0.0
 10
145.4893830244
 20
213.6684315629
 30
0.0
 10
145.7621452217
 20
214.0000356627
 30
0.0
 10
145.9306418461
 20
214.2781665522
 30
0.0
 10
146.0153214831
 20
214.4880275591
 30
0.0
 10
146.0467795035
 20
214.7026245179
 30
0.0
 10
146.0261254776
 20
214.8429527303
 30
0.0
 10
146.0072596221
 20
214.909502036
 30
0.0
  0
SPLINE
  5
357
100
AcDbEntity
  8
BEZUGSACHSEN
100
AcDbSpline
 62
7
  6
CONTINUOUS
 70
0
 71
3
 72
9
 73
5
 74
0
 42
0.0000001
 43
0.0000001
 44
0.0000000001
 40
0.0
 40
0.0
 40
0.0
 40
0.0
 40
0.5011287868
 40
1.0
 40
1.0
 40
1.0
 40
1.0
 10
136.186882406
 20
203.4729649489
 30
0.0
 10
136.2448453968
 20
203.17265615
 30
0.0
 10
136.4087193348
 20
202.5810617381
 30
0.0
 10
136.7112791597
 20
202.0389305687
 30
0.0
 10
136.903338492
 20
201.8026735954
 30
0.0
  0
SPLINE
  5
358
100
AcDbEntity
  8
BEZUGSACHSEN
100
AcDbSpline
 62
7
  6
CONTINUOUS
 70
0
 71
3
 72
22
 73
18
 74
0
 42
0.0000001
 43
0.0000001
 44
0.0000000001
 40
0.0
 40
0.0
 40
0.0
 40
0.0
 40
0.0699303892
 40
0.140057225
 40
0.2774105281
 40
0.3426583568
 40
0.4039363555
 40
0.4602056555
 40
0.5111593458
 40
0.5354351128
 40
0.5597853877
 40
0.6113037937
 40
0.6686101897
 40
0.7305772973
 40
0.795647872
 40
0.862665669
 40
1.0
 40
1.0
 40
1.0
 40
1.0
 10
136.9033390691
 20
201.802672931
 30
0.0
 10
136.9708134875
 20
201.7196709666
 30
0.0
 10
137.1216622559
 20
201.5654564323
 30
0.0
 10
137.4710124571
 20
201.3209894624
 30
0.0
 10
137.8647527613
 20
201.1674218823
 30
0.0
 10
138.2577296045
 20
201.075114099
 30
0.0
 10
138.5351574083
 20
201.0361511422
 30
0.0
 10
138.7936208493
 20
201.0301297864
 30
0.0
 10
138.9940576251
 20
201.069872779
 30
0.0
 10
139.1309852503
 20
201.1388291065
 30
0.0
 10
139.251467158
 20
201.2351260138
 30
0.0
 10
139.3704875375
 20
201.4049617103
 30
0.0
 10
139.4667002146
 20
201.6487875129
 30
0.0
 10
139.5418574488
 20
201.9208197961
 30
0.0
 10
139.6048089946
 20
202.2109681008
 30
0.0
 10
139.6826470179
 20
202.6156754663
 30
0.0
 10
139.7381171944
 20
202.9233038117
 30
0.0
 10
139.7769691827
 20
203.1297509599
 30
0.0
  0
SPLINE
  5
359
100
AcDbEntity
  8
BEZUGSACHSEN
100
AcDbSpline
 62
7
  6
CONTINUOUS
 70
0
 71
3
 72
23
 73
19
 74
0
 42
0.0000001
 43
0.0000001
 44
0.0000000001
 40
0.0
 40
0.0
 40
0.0
 40
0.0
 40
0.1345110643
 40
0.2019176284
 40
0.2690107078
 40
0.3354035179
 40
0.4005051649
 40
0.4633260094
 40
0.5222740908
 40
0.5760397082
 40
0.6015987291
 40
0.6270783715
 40
0.6802436961
 40
0.7381967421
 40
0.8004426268
 40
0.8656747776
 40
0.9325588384
 40
1.0
 40
1.0
 40
1.0
 40
1.0
 10
139.776976103
 20
203.1297954416
 30
0.0
 10
139.8262080089
 20
203.3913683783
 30
0.0
 10
139.896025714
 20
203.7847818887
 30
0.0
 10
139.98802051
 20
204.3090789344
 30
0.0
 10
140.0549340191
 20
204.7009279121
 30
0.0
 10
140.1165068626
 20
205.0890544544
 30
0.0
 10
140.1668192678
 20
205.4703158095
 30
0.0
 10
140.194535909
 20
205.8394720962
 30
0.0
 10
140.1811468096
 20
206.1876222855
 30
0.0
 10
140.1052920562
 20
206.4562221118
 30
0.0
 10
139.9906964558
 20
206.6308899368
 30
0.0
 10
139.8437991791
 20
206.7775614837
 30
0.0
 10
139.6018488122
 20
206.908626555
 30
0.0
 10
139.2692655491
 20
206.9984704928
 30
0.0
 10
138.9031948851
 20
207.0387262012
 30
0.0
 10
138.5173046861
 20
207.0236772822
 30
0.0
 10
138.1289223549
 20
206.9412535114
 30
0.0
 10
137.8827786695
 20
206.8353188002
 30
0.0
 10
137.7662087072
 20
206.7703542604
 30
0.0
  0
SPLINE
  5
35A
100
AcDbEntity
  8
BEZUGSACHSEN
100
AcDbSpline
 62
7
  6
CONTINUOUS
 70
0
 71
3
 72
20
 73
16
 74
0
 42
0.0000001
 43
0.0000001
 44
0.0000000001
 40
0.0
 40
0.0
 40
0.0
 40
0.0
 40
0.1356377441
 40
0.2023174271
 40
0.2667874596
 40
0.3280347678
 40
0.3851523121
 40
0.4381929438
 40
0.4896102061
 40
0.5436895726
 40
0.6023959963
 40
0.6649249373
 40
0.7299080136
 40
0.8638529647
 40
1.0
 40
1.0
 40
1.0
 40
1.0
 10
153.466762369
 20
219.9446830473
 30
0.0
 10
153.3203320097
 20
219.7646993355
 30
0.0
 10
153.1494841878
 20
219.4535276118
 30
0.0
 10
153.0309115939
 20
219.0119278881
 30
0.0
 10
152.9882601477
 20
218.6845709376
 30
0.0
 10
152.9880690769
 20
218.3708426361
 30
0.0
 10
153.0334170024
 20
218.0796670131
 30
0.0
 10
153.1382538458
 20
217.8195367136
 30
0.0
 10
153.3248361489
 20
217.6139915261
 30
0.0
 10
153.578247687
 20
217.4833204479
 30
0.0
 10
153.8697743827
 20
217.4081108532
 30
0.0
 10
154.1860782015
 20
217.3669798822
 30
0.0
 10
154.6325309081
 20
217.3380096434
 30
0.0
 10
155.2058502467
 20
217.3297478021
 30
0.0
 10
155.6678370941
 20
217.3289795417
 30
0.0
 10
155.9007341341
 20
217.3289795417
 30
0.0
  0
SPLINE
  5
35B
100
AcDbEntity
  8
BEZUGSACHSEN
100
AcDbSpline
 62
7
  6
CONTINUOUS
 70
0
 71
3
 72
15
 73
11
 74
0
 42
0.0000001
 43
0.0000001
 44
0.0000000001
 40
0.0
 40
0.0
 40
0.0
 40
0.0
 40
0.3753388582
 40
0.6934581608
 40
0.8160919005
 40
0.8662682109
 40
0.9085552383
 40
0.9427405144
 40
0.9688565074
 40
1.0
 40
1.0
 40
1.0
 40
1.0
 10
122.9007341341
 20
183.1012284424
 30
0.0
 10
122.6445304363
 20
183.1012284424
 30
0.0
 10
122.1711637028
 20
183.0895012733
 30
0.0
 10
121.6152258481
 20
183.0455367557
 30
0.0
 10
121.2838341455
 20
182.9948942683
 30
0.0
 10
121.1401753657
 20
182.9636749156
 30
0.0
 10
121.0569937461
 20
182.9411101192
 30
0.0
 10
120.9902186462
 20
182.916923523
 30
0.0
 10
120.9362839229
 20
182.89075291
 30
0.0
 10
120.9007341341
 20
182.859181779
 30
0.0
 10
120.9007341341
 20
182.8379234473
 30
0.0
  0
SPLINE
  5
35C
100
AcDbEntity
  8
RUNDUNGEN
100
AcDbSpline
 62
7
  6
CONTINUOUS
 70
0
 71
3
 72
15
 73
11
 74
0
 42
0.0000001
 43
0.0000001
 44
0.0000000001
 40
0.0
 40
0.0
 40
0.0
 40
0.0
 40
0.3753388582
 40
0.6934581608
 40
0.8160919005
 40
0.8662682109
 40
0.9085552383
 40
0.9427405144
 40
0.9688565074
 40
1.0
 40
1.0
 40
1.0
 40
1.0
 10
188.9007341341
 20
183.1012284424
 30
0.0
 10
189.1569378319
 20
183.1012284424
 30
0.0
 10
189.6303045654
 20
183.0895012733
 30
0.0
 10
190.1862424201
 20
183.0455367557
 30
0.0
 10
190.5176341227
 20
182.9948942683
 30
0.0
 10
190.6612929025
 20
182.9636749156
 30
0.0
 10
190.7444745221
 20
182.9411101192
 30
0.0
 10
190.811249622
 20
182.916923523
 30
0.0
 10
190.8651843453
 20
182.89075291
 30
0.0
 10
190.9007341341
 20
182.859181779
 30
0.0
 10
190.9007341341
 20
182.8379234473
 30
0.0
  0
SPLINE
  5
35D
100
AcDbEntity
  8
0
100
AcDbSpline
 62
7
  6
CONTINUOUS
 70
0
 71
3
 72
12
 73
8
 74
0
 42
0.0000001
 43
0.0000001
 44
0.0000000001
 40
0.0
 40
0.0
 40
0.0
 40
0.0
 40
0.218282974
 40
0.338599926
 40
0.4649270453
 40
0.7291117788
 40
1.0
 40
1.0
 40
1.0
 40
1.0
 10
165.7942086461
 20
214.909502036
 30
0.0
 10
165.8379817121
 20
215.0639115279
 30
0.0
 10
165.9743905632
 20
215.2829082352
 30
0.0
 10
166.2084895901
 20
215.5311836866
 30
0.0
 10
166.4961004358
 20
215.7742146228
 30
0.0
 10
166.9185768334
 20
216.0246443005
 30
0.0
 10
167.3058622017
 20
216.126274525
 30
0.0
 10
167.5039907259
 20
216.1466409149
 30
0.0
  0
SPLINE
  5
35E
100
AcDbEntity
  8
BEZUGSACHSEN
100
AcDbSpline
 62
7
  6
CONTINUOUS
 70
0
 71
3
 72
12
 73
8
 74
0
 42
0.0000001
 43
0.0000001
 44
0.0000000001
 40
0.0
 40
0.0
 40
0.0
 40
0.0
 40
0.218282974
 40
0.338599926
 40
0.4649270453
 40
0.7291117788
 40
1.0
 40
1.0
 40
1.0
 40
1.0
 10
146.0072596221
 20
214.909502036
 30
0.0
 10
145.9634865561
 20
215.0639115279
 30
0.0
 10
145.827077705
 20
215.2829082352
 30
0.0
 10
145.5929786781
 20
215.5311836866
 30
0.0
 10
145.3053678324
 20
215.7742146228
 30
0.0
 10
144.8828914348
 20
216.0246443005
 30
0.0
 10
144.4956060665
 20
216.126274525
 30
0.0
 10
144.2974775423
 20
216.1466409149
 30
0.0
  0
SPLINE
  5
35F
100
AcDbEntity
  8
0
100
AcDbSpline
 62
7
  6
CONTINUOUS
 70
0
 71
3
 72
10
 73
6
 74
0
 42
0.0000001
 43
0.0000001
 44
0.0000000001
 40
0.0
 40
0.0
 40
0.0
 40
0.0
 40
0.1476728865
 40
0.3572028935
 40
1.0
 40
1.0
 40
1.0
 40
1.0
 10
175.6145858622
 20
95.1579014406
 30
0.0
 10
175.5789024569
 20
95.1579014406
 30
0.0
 10
175.4927278165
 20
95.1496774068
 30
0.0
 10
175.2541272933
 20
95.1120293745
 30
0.0
 10
175.051518307
 20
95.0745979654
 30
0.0
 10
174.8981297762
 20
95.0501520895
 30
0.0
  0
SPLINE
  5
360
100
AcDbEntity
  8
0
100
AcDbSpline
 62
7
  6
CONTINUOUS
 70
0
 71
3
 72
9
 73
5
 74
0
 42
0.0000001
 43
0.0000001
 44
0.0000000001
 40
0.0
 40
0.0
 40
0.0
 40
0.0
 40
0.2099584365
 40
1.0
 40
1.0
 40
1.0
 40
1.0
 10
174.8981291991
 20
95.0501519131
 30
0.0
 10
174.8299312958
 20
95.0392830596
 30
0.0
 10
174.5026210386
 20
95.0043112063
 30
0.0
 10
174.1674217192
 20
95.0466752448
 30
0.0
 10
173.9179433994
 20
95.119381198
 30
0.0
  0
SPLINE
  5
361
100
AcDbEntity
  8
BEZUGSACHSEN
100
AcDbSpline
 62
7
  6
CONTINUOUS
 70
0
 71
3
 72
9
 73
5
 74
0
 42
0.0000001
 43
0.0000001
 44
0.0000000001
 40
0.0
 40
0.0
 40
0.0
 40
0.0
 40
0.2099584365
 40
1.0
 40
1.0
 40
1.0
 40
1.0
 10
174.8981291991
 20
107.2656509681
 30
0.0
 10
174.8299312958
 20
107.2765198217
 30
0.0
 10
174.5026210386
 20
107.3114916749
 30
0.0
 10
174.1674217192
 20
107.2691276365
 30
0.0
 10
173.9179433994
 20
107.1964216833
 30
0.0
  0
SPLINE
  5
362
100
AcDbEntity
  8
BEZUGSACHSEN
100
AcDbSpline
 62
7
  6
CONTINUOUS
 70
0
 71
3
 72
10
 73
6
 74
0
 42
0.0000001
 43
0.0000001
 44
0.0000000001
 40
0.0
 40
0.0
 40
0.0
 40
0.0
 40
0.1476728865
 40
0.3572028935
 40
1.0
 40
1.0
 40
1.0
 40
1.0
 10
175.6145858622
 20
107.1579014406
 30
0.0
 10
175.5789024569
 20
107.1579014406
 30
0.0
 10
175.4927278165
 20
107.1661254745
 30
0.0
 10
175.2541272933
 20
107.2037735068
 30
0.0
 10
175.051518307
 20
107.2412049159
 30
0.0
 10
174.8981297762
 20
107.2656507917
 30
0.0
  0
SPLINE
  5
363
100
AcDbEntity
  8
BEZUGSACHSEN
100
AcDbSpline
 62
7
  6
CONTINUOUS
 70
0
 71
3
 72
9
 73
5
 74
0
 42
0.0000001
 43
0.0000001
 44
0.0000000001
 40
0.0
 40
0.0
 40
0.0
 40
0.0
 40
0.2099584365
 40
1.0
 40
1.0
 40
1.0
 40
1.0
 10
136.9033390691
 20
95.0501519131
 30
0.0
 10
136.9715369724
 20
95.0392830596
 30
0.0
 10
137.2988472296
 20
95.0043112063
 30
0.0
 10
137.634046549
 20
95.0466752448
 30
0.0
 10
137.8835248688
 20
95.119381198
 30
0.0
  0
SPLINE
  5
364
100
AcDbEntity
  8
BEZUGSACHSEN
100
AcDbSpline
 62
7
  6
CONTINUOUS
 70
0
 71
3
 72
10
 73
6
 74
0
 42
0.0000001
 43
0.0000001
 44
0.0000000001
 40
0.0
 40
0.0
 40
0.0
 40
0.0
 40
0.1476728865
 40
0.3572028935
 40
1.0
 40
1.0
 40
1.0
 40
1.0
 10
136.186882406
 20
95.1579014406
 30
0.0
 10
136.2225658113
 20
95.1579014406
 30
0.0
 10
136.3087404517
 20
95.1496774068
 30
0.0
 10
136.5473409749
 20
95.1120293745
 30
0.0
 10
136.7499499612
 20
95.0745979654
 30
0.0
 10
136.903338492
 20
95.0501520895
 30
0.0
  0
SPLINE
  5
365
100
AcDbEntity
  8
BEZUGSACHSEN
100
AcDbSpline
 62
7
  6
CONTINUOUS
 70
0
 71
3
 72
10
 73
6
 74
0
 42
0.0000001
 43
0.0000001
 44
0.0000000001
 40
0.0
 40
0.0
 40
0.0
 40
0.0
 40
0.1476728865
 40
0.3572028935
 40
1.0
 40
1.0
 40
1.0
 40
1.0
 10
136.186882406
 20
107.1579014406
 30
0.0
 10
136.2225658113
 20
107.1579014406
 30
0.0
 10
136.3087404517
 20
107.1661254745
 30
0.0
 10
136.5473409749
 20
107.2037735068
 30
0.0
 10
136.7499499612
 20
107.2412049159
 30
0.0
 10
136.903338492
 20
107.2656507917
 30
0.0
  0
SPLINE
  5
366
100
AcDbEntity
  8
BEZUGSACHSEN
100
AcDbSpline
 62
7
  6
CONTINUOUS
 70
0
 71
3
 72
9
 73
5
 74
0
 42
0.0000001
 43
0.0000001
 44
0.0000000001
 40
0.0
 40
0.0
 40
0.0
 40
0.0
 40
0.2099584365
 40
1.0
 40
1.0
 40
1.0
 40
1.0
 10
136.9033390691
 20
107.2656509681
 30
0.0
 10
136.9715369724
 20
107.2765198217
 30
0.0
 10
137.2988472296
 20
107.3114916749
 30
0.0
 10
137.634046549
 20
107.2691276365
 30
0.0
 10
137.8835248688
 20
107.1964216833
 30
0.0
  0
LINE
  5
367
100
AcDbEntity
  8
BEZUGSACHSEN
100
AcDbLine
 62
7
  6
CONTINUOUS
 10
270.9229124868
 20
183.1012284424
 11
268.9229124868
 21
182.8379234473
  0
LINE
  5
368
100
AcDbEntity
  8
BEZUGSACHSEN
100
AcDbLine
 62
7
  6
CONTINUOUS
 10
248.9229124868
 20
183.1012284424
 11
250.9229124868
 21
182.8379234473
  0
ELLIPSE
  5
369
100
AcDbEntity
  8
0
100
AcDbEllipse
 62
7
  6
CONTINUOUS
 10
128.5010652306
 20
198.2760466719
 30
0.0
 11
-1.9817215972
 21
0.8208559624
 31
0.0
 40
0.6806526807
 41
-3.1415926536
 42
0.0
  0
ELLIPSE
  5
36A
100
AcDbEntity
  8
BEZUGSACHSEN
100
AcDbEllipse
 62
7
  6
CONTINUOUS
 10
155.9007341341
 20
217.6928486793
 30
0.0
 11
-0.0
 21
3.4362136489
 31
0.0
 40
0.9377530996
 41
-0.8561844229
 42
0.0
  0
ELLIPSE
  5
36B
100
AcDbEntity
  8
0
100
AcDbEllipse
 62
7
  6
CONTINUOUS
 10
172.2402903784
 20
203.9823330611
 30
0.0
 11
3.3840098425
 21
0.5966922382
 31
0.0
 40
0.9377530996
 41
-0.3442719737
 42
0.8561844229
  0
ELLIPSE
  5
36C
100
AcDbEntity
  8
0
100
AcDbEllipse
 62
7
  6
CONTINUOUS
 10
167.6327813145
 20
212.8332756228
 30
0.0
 11
2.4297699728
 21
2.4297699728
 31
0.0
 40
0.9377530996
 41
-0.8561844229
 42
0.8561844229
  0
ELLIPSE
  5
36D
100
AcDbEntity
  8
BEZUGSACHSEN
100
AcDbEllipse
 62
7
  6
CONTINUOUS
 10
144.1686869538
 20
212.8332756228
 30
0.0
 11
-2.4297699728
 21
2.4297699728
 31
0.0
 40
0.9377530996
 41
-0.8561844229
 42
0.8561844229
  0
ELLIPSE
  5
36E
100
AcDbEntity
  8
BEZUGSACHSEN
100
AcDbEllipse
 62
7
  6
CONTINUOUS
 10
139.5611778898
 20
203.9823330611
 30
0.0
 11
-3.3840098425
 21
0.5966922382
 31
0.0
 40
0.9377530996
 41
-0.8561844229
 42
0.3442719737
  0
ELLIPSE
  5
36F
100
AcDbEntity
  8
BEZUGSACHSEN
100
AcDbEllipse
 62
7
  6
CONTINUOUS
 10
155.9007341341
 20
217.6928486793
 30
0.0
 11
0.0
 21
-3.4362136489
 31
0.0
 40
0.9377530996
 41
3.1415926536
 42
3.9977770765
  0
ENDSEC
  0
SECTION
  2
OBJECTS
  0
DICTIONARY
  5
C
100
AcDbDictionary
280
0
281
1
  3
ACAD_GROUP
350
D
  3
ACAD_MLINESTYLE
350
17
  3
ACAD_LAYOUT
350
1A
  3
ACAD_PLOTSETTINGS
350
19
  3
ACAD_PLOTSTYLENAME
350
E
  0
DICTIONARY
  5
D
102
{ACAD_REACTORS
330
C
102
}
100
AcDbDictionary
280
0
281
1
  0
ACDBDICTIONARYWDFLT
  5
E
102
{ACAD_REACTORS
330
C
102
}
100
AcDbDictionary
281
1
  3
Normal
350
F
100
AcDbDictionaryWithDefault
340
F
  0
DICTIONARY
  5
17
102
{ACAD_REACTORS
330
C
102
}
100
AcDbDictionary
280
0
281
1
  3
Standard
350
18
  0
DICTIONARY
  5
19
102
{ACAD_REACTORS
330
C
102
}
100
AcDbDictionary
281
1
  0
DICTIONARY
  5
1A
102
{ACAD_REACTORS
330
C
102
}
100
AcDbDictionary
281
1
  3
Model
350
370
  3
Layout1
350
371
  0
ACDBPLACEHOLDER
  5
F
102
{ACAD_REACTORS
330
E
102
}
  0
MLINESTYLE
  5
18
102
{ACAD_REACTORS
330
17
102
}
100
AcDbMlineStyle
  2
STANDARD
 70
0
  3

 62
256
 51
90.0
 52
90.0
 71
2
 49
0.5
 62
256
  6
BYLAYER
 49
-0.5
 62
256
  6
BYLAYER
  0
LAYOUT
  5
370
102
{ACAD_REACTORS
330
1A
102
}
100
AcDbPlotSettings
  1

  2
none_device
  4
ISO_A3_(420.00_x_297.00_MM)
  6

 40
0.0
 41
0.0
 42
0.0
 43
0.0
 44
420.0
 45
297.0
 46
0.0
 47
0.0
 48
0.0
 49
0.0
140
0.0
141
0.0
142
1.0
143
1.0
 70
1024
 72
1
 73
0
 74
0
  7

 75
0
147
1.0
148
0.0
149
0.0
100
AcDbLayout
  1
Model
 70
0
 71
0
 10
0.0
 20
0.0
 11
420.0
 21
297.0
 12
0.0
 22
0.0
 32
0.0
 14
0.0
 24
0.0
 34
0.0
 15
0.0
 25
0.0
 35
0.0
146
0.0
 13
0.0
 23
0.0
 33
0.0
 16
1.0
 26
0.0
 36
0.0
 17
0.0
 27
1.0
 37
0.0
 76
0
330
20A
345
0
346
0
  0
LAYOUT
  5
371
102
{ACAD_REACTORS
330
1A
102
}
100
AcDbPlotSettings
  1

  2
none_device
  4
ISO_A3_(420.00_x_297.00_MM)
  6

 40
0.0
 41
0.0
 42
0.0
 43
0.0
 44
420.0
 45
297.0
 46
0.0
 47
0.0
 48
0.0
 49
0.0
140
0.0
141
0.0
142
1.0
143
1.0
 70
0
 72
1
 73
0
 74
0
  7

 75
0
147
1.0
148
0.0
149
0.0
100
AcDbLayout
  1
Layout1
 70
0
 71
1
 10
0.0
 20
0.0
 11
420.0
 21
297.0
 12
0.0
 22
0.0
 32
0.0
 14
0.0
 24
0.0
 34
0.0
 15
0.0
 25
0.0
 35
0.0
146
0.0
 13
0.0
 23
0.0
 33
0.0
 16
1.0
 26
0.0
 36
0.0
 17
0.0
 27
1.0
 37
0.0
 76
0
330
20B
345
0
346
0
  0
ENDSEC
  0
EOF
