999
DXF file: IAK-4-4_7905033_M34924-P-11.dxf
999
Pro/ENGINEER 2011490 by Parametric Technology Corporation
  0
SECTION
  2
HEADER
  9
$ACADVER
  1
AC1015
  9
$DWGCODEPAGE
  3
ANSI_1252
  9
$EXTMAX
 10
297.0
 20
210.0
 30
0.0
  9
$EXTMIN
 10
0.0
 20
0.0
 30
0.0
  9
$LIMMIN
 10
0.0
 20
0.0
  9
$LIMMAX
 10
297.0
 20
210.0
  9
$VIEWCTR
 10
148.5
 20
105.0
  9
$VIEWSIZE
 40
210.0
  9
$CLAYER
  8
0
  9
$LTSCALE
 40
16.335
  9
$CELTYPE
  6
BYLAYER
  9
$DIMSCALE
 40
1.0
  9
$DIMASZ
 40
3.5
  9
$DIMEXO
 40
1.85625
  9
$DIMDLI
 40
11.286
  9
$DIMEXE
 40
5.346
  9
$DIMCEN
 40
2.673
  9
$DIMLFAC
 40
1.0
  9
$DIMBLK
  1
_FILLED
  9
$DIMTXT
 40
3.5
  9
$DIMTOL
 70
1
  9
$DIMLIM
 70
0
  9
$DIMTFAC
 40
1.0
  9
$DIMTP
 40
0.005
  9
$DIMTM
 40
0.005
  9
$PDMODE
 70
3
  9
$PDSIZE
 40
0.3125
  9
$HANDSEED
  5
797
  9
$TILEMODE
 70
1
  9
$MEASUREMENT
 70
1
  9
$INSUNITS
 70
4
  0
ENDSEC
  0
SECTION
  2
CLASSES
  0
CLASS
  1
ACDBDICTIONARYWDFLT
  2
AcDbDictionaryWithDefault
  3
AutoCAD 2000
 90
0
280
0
281
0
  0
CLASS
  1
ACDBPLACEHOLDER
  2
AcDbPlaceHolder
  3
AutoCAD 2000
 90
0
280
0
281
0
  0
CLASS
  1
LAYOUT
  2
AcDbLayout
  3
AutoCAD 2000
 90
0
280
0
281
0
  0
ENDSEC
  0
SECTION
  2
TABLES
  0
TABLE
  2
VPORT
  5
8
100
AcDbSymbolTable
 70
2
  0
VPORT
  5
1F4
100
AcDbSymbolTableRecord
100
AcDbViewportTableRecord
  2
*ACTIVE
 70
0
 10
0.0
 20
0.0
 11
1.0
 21
1.0
 12
148.5
 22
105.0
 13
0.0
 23
0.0
 14
1.0
 24
1.0
 15
0.0
 25
0.0
 16
0.0
 26
0.0
 36
1.0
 17
0.0
 27
0.0
 37
0.0
 40
210.0
 41
1.4142857143
 42
50.0
 43
0.0
 44
0.0
 50
0.0
 51
0.0
 71
0
 72
100
 73
1
 74
1
 75
0
 76
0
 77
0
 78
0
  0
ENDTAB
  0
TABLE
  2
LTYPE
  5
5
100
AcDbSymbolTable
 70
6
  0
LTYPE
  5
14
100
AcDbSymbolTableRecord
100
AcDbLinetypeTableRecord
  2
BYBLOCK
 70
0
  3

 72
65
 73
0
 40
0.0
  0
LTYPE
  5
15
100
AcDbSymbolTableRecord
100
AcDbLinetypeTableRecord
  2
BYLAYER
 70
0
  3

 72
65
 73
0
 40
0.0
  0
LTYPE
  5
16
100
AcDbSymbolTableRecord
100
AcDbLinetypeTableRecord
  2
CONTINUOUS
 70
64
  3
Solid line
 72
65
 73
0
 40
0.0
  0
LTYPE
  5
1F5
100
AcDbSymbolTableRecord
100
AcDbLinetypeTableRecord
  2
CENTER
 70
64
  3
____ _ ____ _ ____ _ ____ _ ____ _ ____ _ ____
 72
65
 73
4
 40
0.6
 49
0.375
 74
0
 49
-0.075
 74
0
 49
0.075
 74
0
 49
-0.075
 74
0
  0
LTYPE
  5
1F6
100
AcDbSymbolTableRecord
100
AcDbLinetypeTableRecord
  2
HIDDEN
 70
64
  3
- - - - - - - - - - - - - - - - - - - -
 72
65
 73
2
 40
0.2
 49
0.1
 74
0
 49
-0.1
 74
0
  0
LTYPE
  5
1F7
100
AcDbSymbolTableRecord
100
AcDbLinetypeTableRecord
  2
PHANTOM
 70
64
  3
_____ _ _ _____ _ _ _____ _ _ _____
 72
65
 73
6
 40
0.8
 49
0.45
 74
0
 49
-0.05
 74
0
 49
0.1
 74
0
 49
-0.05
 74
0
 49
0.1
 74
0
 49
-0.05
 74
0
  0
LTYPE
  5
1F8
100
AcDbSymbolTableRecord
100
AcDbLinetypeTableRecord
  2
DOT
 70
64
  3
. . . . . . . . . . . . . . . . . . . .
 72
65
 73
2
 40
0.2
 49
0.1
 74
0
 49
-0.1
 74
0
  0
LTYPE
  5
1F9
100
AcDbSymbolTableRecord
100
AcDbLinetypeTableRecord
  2
DASHED
 70
64
  3
- - - - - - - - - - - - - - - - - - - -
 72
65
 73
2
 40
0.2
 49
0.1
 74
0
 49
-0.1
 74
0
  0
ENDTAB
  0
TABLE
  2
LAYER
  5
2
100
AcDbSymbolTable
 70
36
  0
LAYER
  5
10
100
AcDbSymbolTableRecord
100
AcDbLayerTableRecord
  2
0
 70
0
 62
7
  6
CONTINUOUS
370
-3
390
F
  0
LAYER
  5
1FA
100
AcDbSymbolTableRecord
100
AcDbLayerTableRecord
  2
DEFAULT_1
 70
0
 62
7
  6
CENTER
370
-3
390
F
  0
LAYER
  5
1FB
100
AcDbSymbolTableRecord
100
AcDbLayerTableRecord
  2
DEFAULT_2
 70
0
 62
8
  6
HIDDEN
370
-3
390
F
  0
LAYER
  5
1FC
100
AcDbSymbolTableRecord
100
AcDbLayerTableRecord
  2
DEFAULT_3
 70
0
 62
7
  6
PHANTOM
370
-3
390
F
  0
LAYER
  5
1FD
100
AcDbSymbolTableRecord
100
AcDbLayerTableRecord
  2
AUSFORMSCHRAEGEN
 70
0
 62
7
  6
CONTINUOUS
370
-3
390
F
  0
LAYER
  5
1FE
100
AcDbSymbolTableRecord
100
AcDbLayerTableRecord
  2
BEZUGSACHSEN
 70
0
 62
7
  6
CONTINUOUS
370
-3
390
F
  0
LAYER
  5
1FF
100
AcDbSymbolTableRecord
100
AcDbLayerTableRecord
  2
BEZUGSEBENEN
 70
0
 62
7
  6
CONTINUOUS
370
-3
390
F
  0
LAYER
  5
200
100
AcDbSymbolTableRecord
100
AcDbLayerTableRecord
  2
BG_STARTBEZUEGE
 70
0
 62
7
  6
CONTINUOUS
370
-3
390
F
  0
LAYER
  5
201
100
AcDbSymbolTableRecord
100
AcDbLayerTableRecord
  2
FASEN
 70
0
 62
7
  6
CONTINUOUS
370
-3
390
F
  0
LAYER
  5
202
100
AcDbSymbolTableRecord
100
AcDbLayerTableRecord
  2
HILFEN
 70
0
 62
7
  6
CONTINUOUS
370
-3
390
F
  0
LAYER
  5
203
100
AcDbSymbolTableRecord
100
AcDbLayerTableRecord
  2
KONSTRUKTIONSELEMENTE
 70
0
 62
7
  6
CONTINUOUS
370
-3
390
F
  0
LAYER
  5
204
100
AcDbSymbolTableRecord
100
AcDbLayerTableRecord
  2
KURVEN
 70
0
 62
7
  6
CONTINUOUS
370
-3
390
F
  0
LAYER
  5
205
100
AcDbSymbolTableRecord
100
AcDbLayerTableRecord
  2
PLATZIERUNG
 70
0
 62
7
  6
CONTINUOUS
370
-3
390
F
  0
LAYER
  5
206
100
AcDbSymbolTableRecord
100
AcDbLayerTableRecord
  2
RUNDUNGEN
 70
0
 62
7
  6
CONTINUOUS
370
-3
390
F
  0
LAYER
  5
207
100
AcDbSymbolTableRecord
100
AcDbLayerTableRecord
  2
TEIL_STARTBEZUEGE
 70
0
 62
7
  6
CONTINUOUS
370
-3
390
F
  0
LAYER
  5
208
100
AcDbSymbolTableRecord
100
AcDbLayerTableRecord
  2
ZEICHNUNGSBEMASSUNGEN
 70
0
 62
7
  6
CONTINUOUS
370
-3
390
F
  0
ENDTAB
  0
TABLE
  2
STYLE
  5
3
100
AcDbSymbolTable
 70
1
  0
STYLE
  5
11
100
AcDbSymbolTableRecord
100
AcDbTextStyleTableRecord
  2
STANDARD
 70
0
 40
0.0
 41
0.7
 50
0.0
 71
0
 42
0.2
  3
txt
  4

  0
STYLE
  5
209
100
AcDbSymbolTableRecord
100
AcDbTextStyleTableRecord
  2
TEXTSTYLE_1
 70
0
 40
0.0
 41
0.8
 50
0.0
 71
0
 42
0.2
  3
gdt
  4

  0
ENDTAB
  0
TABLE
  2
VIEW
  5
6
100
AcDbSymbolTable
 70
0
  0
ENDTAB
  0
TABLE
  2
UCS
  5
7
100
AcDbSymbolTable
 70
0
  0
ENDTAB
  0
TABLE
  2
APPID
  5
9
100
AcDbSymbolTable
 70
1
  0
APPID
  5
20A
100
AcDbSymbolTableRecord
100
AcDbRegAppTableRecord
  2
ACAD
 70
0
  0
ENDTAB
  0
TABLE
  2
BLOCK_RECORD
  5
1
100
AcDbSymbolTable
 70
0
  0
BLOCK_RECORD
  5
20B
100
AcDbSymbolTableRecord
100
AcDbBlockTableRecord
  2
*Model_Space
  0
BLOCK_RECORD
  5
20C
100
AcDbSymbolTableRecord
100
AcDbBlockTableRecord
  2
*Paper_Space
  0
ENDTAB
  0
TABLE
  2
DIMSTYLE
  5
A
100
AcDbSymbolTable
 70
1
100
AcDbDimStyleTable
 71
0
  0
DIMSTYLE
105
20D
100
AcDbSymbolTableRecord
100
AcDbDimStyleTableRecord
  2
STANDARD
 70
0
  3

  4

 40
1.0
 41
3.5
 42
0.0625
 43
0.38
 44
0.18
 45
0.0
 46
0.0
 47
0.005
 48
0.005
140
3.5
141
0.09
142
0.0
143
25.4
144
1.0
145
0.0
146
1.0
147
0.09
 71
1.0
 72
0.0
 73
0
 74
0
 75
0
 76
0
 77
1
 78
8
170
0
171
2
172
0
173
0
174
0
175
0
176
0
177
0
178
5
270
2
271
3
272
3
273
2
274
2
275
0
280
0
281
0
282
0
283
1
284
8
285
0
286
0
287
3
288
0
340
11
  0
ENDTAB
  0
ENDSEC
  0
SECTION
  2
BLOCKS
  0
BLOCK
  5
20
100
AcDbEntity
  8
0
100
AcDbBlockBegin
  2
*Model_Space
 70
0
 10
0.0
 20
0.0
 30
0.0
  3
*Model_Space
  1

  0
ENDBLK
  5
21
100
AcDbEntity
  8
0
100
AcDbBlockEnd
  0
BLOCK
  5
1C
100
AcDbEntity
  8
0
100
AcDbBlockBegin
  2
*Paper_Space
 70
0
 10
0.0
 20
0.0
 30
0.0
  3
*Paper_Space
  1

  0
ENDBLK
  5
1D
100
AcDbEntity
  8
0
100
AcDbBlockEnd
  0
ENDSEC
  0
SECTION
  2
ENTITIES
  0
MTEXT
  5
20E
100
AcDbEntity
  8
0
100
AcDbMText
 62
5
  6
CONTINUOUS
  7
STANDARD
 71
1
 72
1
 10
43.835231068
 20
124.809818949
 30
0.0
 11
0.0
 21
1.0
 31
0.0
 44
0.9
  1
RUD
 40
5.0
 41
13.3333333333
  0
MTEXT
  5
20F
100
AcDbEntity
  8
0
100
AcDbMText
 62
5
  6
CONTINUOUS
  7
STANDARD
 71
1
 72
1
 10
89.6877266593
 20
116.9696425255
 30
0.0
 11
0.0
 21
1.0
 31
0.0
 44
0.9
  1
IAK 4-4
 40
5.0
 41
27.7380952381
  0
LINE
  5
210
100
AcDbEntity
  8
0
100
AcDbLine
 62
7
  6
CONTINUOUS
 10
0.0
 20
0.0
 11
0.0
 21
210.0
  0
LINE
  5
211
100
AcDbEntity
  8
0
100
AcDbLine
 62
7
  6
CONTINUOUS
 10
0.0
 20
0.0
 11
297.0
 21
0.0
  0
LINE
  5
212
100
AcDbEntity
  8
0
100
AcDbLine
 62
7
  6
CONTINUOUS
 10
0.0
 20
210.0
 11
297.0
 21
210.0
  0
LINE
  5
213
100
AcDbEntity
  8
0
100
AcDbLine
 62
7
  6
CONTINUOUS
 10
297.0
 20
0.0
 11
297.0
 21
210.0
  0
LINE
  5
214
100
AcDbEntity
  8
RUNDUNGEN
100
AcDbLine
 62
7
  6
CONTINUOUS
 10
26.976163333
 20
45.4017290118
 11
35.4333969201
 21
42.3235477218
  0
LINE
  5
215
100
AcDbEntity
  8
RUNDUNGEN
100
AcDbLine
 62
7
  6
CONTINUOUS
 10
40.131860024
 20
40.6134470052
 11
46.2398620592
 21
38.3903160736
  0
LINE
  5
216
100
AcDbEntity
  8
0
100
AcDbLine
 62
7
  6
CONTINUOUS
 10
41.4315365687
 20
44.1842789642
 11
36.7330734648
 21
45.8943796808
  0
LINE
  5
217
100
AcDbEntity
  8
0
100
AcDbLine
 62
7
  6
CONTINUOUS
 10
41.7086588249
 20
44.9456661056
 11
37.010195721
 21
46.6557668223
  0
LINE
  5
218
100
AcDbEntity
  8
0
100
AcDbLine
 62
7
  6
CONTINUOUS
 10
43.0697271151
 20
48.6851704992
 11
38.3712640111
 21
50.3952712158
  0
LINE
  5
219
100
AcDbEntity
  8
0
100
AcDbLine
 62
7
  6
CONTINUOUS
 10
43.3468493713
 20
49.4465576406
 11
38.6483862674
 21
51.1566583572
  0
LINE
  5
21A
100
AcDbEntity
  8
BEZUGSACHSEN
100
AcDbLine
 62
7
  6
CENTER
 10
32.6163897138
 20
50.372427793
 11
32.6163897138
 21
45.872427793
  0
LINE
  5
21B
100
AcDbEntity
  8
BEZUGSACHSEN
100
AcDbLine
 62
7
  6
CENTER
 10
32.6163897138
 20
50.372427793
 11
32.6163897138
 21
54.872427793
  0
LINE
  5
21C
100
AcDbEntity
  8
BEZUGSACHSEN
100
AcDbLine
 62
7
  6
CENTER
 10
106.1832150911
 20
50.372427793
 11
101.6832150911
 21
50.372427793
  0
LINE
  5
21D
100
AcDbEntity
  8
BEZUGSACHSEN
100
AcDbLine
 62
7
  6
CENTER
 10
32.6163897138
 20
50.372427793
 11
28.1163897138
 21
50.372427793
  0
LINE
  5
21E
100
AcDbEntity
  8
BEZUGSACHSEN
100
AcDbLine
 62
7
  6
CENTER
 10
32.6163897138
 20
50.372427793
 11
37.1163897138
 21
50.372427793
  0
LINE
  5
21F
100
AcDbEntity
  8
BEZUGSACHSEN
100
AcDbLine
 62
7
  6
CENTER
 10
106.1832150911
 20
50.372427793
 11
110.6832150911
 21
50.372427793
  0
LINE
  5
220
100
AcDbEntity
  8
KONSTRUKTIONSELEMENTE
100
AcDbLine
 62
7
  6
CONTINUOUS
 10
41.0998024025
 20
119.5645556037
 11
41.0998024025
 21
144.5645556037
  0
LINE
  5
221
100
AcDbEntity
  8
0
100
AcDbLine
 62
7
  6
CONTINUOUS
 10
45.2452134273
 20
73.6669986194
 11
44.9633056411
 21
73.7696046624
  0
LINE
  5
222
100
AcDbEntity
  8
RUNDUNGEN
100
AcDbLine
 62
7
  6
CONTINUOUS
 10
52.1339902143
 20
55.0809754144
 11
51.107942957
 21
60.8999785703
  0
LINE
  5
223
100
AcDbEntity
  8
RUNDUNGEN
100
AcDbLine
 62
7
  6
CONTINUOUS
 10
30.1081957901
 20
56.9307218646
 11
26.3784908556
 21
46.6834417759
  0
LINE
  5
224
100
AcDbEntity
  8
0
100
AcDbLine
 62
7
  6
CONTINUOUS
 10
46.8484318335
 20
78.071804989
 11
46.5665240473
 21
78.174411032
  0
LINE
  5
225
100
AcDbEntity
  8
0
100
AcDbLine
 62
7
  6
CONTINUOUS
 10
47.0640282063
 20
78.6641511549
 11
46.7821204201
 21
78.7667571979
  0
LINE
  5
226
100
AcDbEntity
  8
0
100
AcDbLine
 62
7
  6
CONTINUOUS
 10
47.2047212065
 20
79.050701996
 11
46.9228134202
 21
79.153308039
  0
LINE
  5
227
100
AcDbEntity
  8
0
100
AcDbLine
 62
7
  6
CONTINUOUS
 10
47.5610105794
 20
80.029599003
 11
47.2791027932
 21
80.132205046
  0
LINE
  5
228
100
AcDbEntity
  8
KONSTRUKTIONSELEMENTE
100
AcDbLine
 62
7
  6
CONTINUOUS
 10
51.8998024025
 20
119.5645556037
 11
51.8998024025
 21
144.5645556037
  0
LINE
  5
229
100
AcDbEntity
  8
0
100
AcDbLine
 62
7
  6
CONTINUOUS
 10
48.2735893254
 20
81.9873930169
 11
47.9916815391
 21
82.0899990599
  0
LINE
  5
22A
100
AcDbEntity
  8
0
100
AcDbLine
 62
7
  6
CONTINUOUS
 10
48.6298786983
 20
82.9662900239
 11
48.3479709121
 21
83.0688960669
  0
LINE
  5
22B
100
AcDbEntity
  8
0
100
AcDbLine
 62
7
  6
CONTINUOUS
 10
48.6381053098
 20
82.9888924534
 11
48.3561975236
 21
83.0914984964
  0
LINE
  5
22C
100
AcDbEntity
  8
0
100
AcDbLine
 62
7
  6
CONTINUOUS
 10
48.9164560364
 20
83.7536547892
 11
48.6345482501
 21
83.8562608322
  0
LINE
  5
22D
100
AcDbEntity
  8
0
100
AcDbLine
 62
7
  6
CONTINUOUS
 10
44.9634890855
 20
73.7701086719
 11
46.5665240473
 21
78.174411032
  0
LINE
  5
22E
100
AcDbEntity
  8
0
100
AcDbLine
 62
7
  6
CONTINUOUS
 10
46.7822480523
 20
78.7671078646
 11
48.3479709121
 21
83.0688960669
  0
LINE
  5
22F
100
AcDbEntity
  8
0
100
AcDbLine
 62
7
  6
CONTINUOUS
 10
48.3561975236
 20
83.0914984964
 11
50.1294177769
 21
87.9633811019
  0
LINE
  5
230
100
AcDbEntity
  8
0
100
AcDbLine
 62
7
  6
CONTINUOUS
 10
55.5302708349
 20
102.8021029247
 11
59.8043844615
 21
114.5451336019
  0
LINE
  5
231
100
AcDbEntity
  8
RUNDUNGEN
100
AcDbLine
 62
7
  6
CONTINUOUS
 10
61.5306875851
 20
118.4109711332
 11
44.2219836471
 21
70.8556979033
  0
LINE
  5
232
100
AcDbEntity
  8
RUNDUNGEN
100
AcDbLine
 62
7
  6
CONTINUOUS
 10
37.4855177801
 20
47.9617034466
 11
35.4333969201
 21
42.3235477218
  0
LINE
  5
233
100
AcDbEntity
  8
KONSTRUKTIONSELEMENTE
100
AcDbLine
 62
7
  6
CONTINUOUS
 10
37.4855177801
 20
47.9617034466
 11
39.5718406544
 21
53.6938284334
  0
LINE
  5
234
100
AcDbEntity
  8
0
100
AcDbLine
 62
7
  6
CONTINUOUS
 10
50.4113255631
 20
87.8607750589
 11
50.1294177769
 21
87.9633811019
  0
LINE
  5
235
100
AcDbEntity
  8
RUNDUNGEN
100
AcDbLine
 62
7
  6
CONTINUOUS
 10
103.2608250184
 20
61.1211380414
 11
98.7344450153
 21
64.9192218327
  0
LINE
  5
236
100
AcDbEntity
  8
RUNDUNGEN
100
AcDbLine
 62
7
  6
CONTINUOUS
 10
40.131860024
 20
40.6134470052
 11
42.183980884
 21
46.2516027299
  0
LINE
  5
237
100
AcDbEntity
  8
KONSTRUKTIONSELEMENTE
100
AcDbLine
 62
7
  6
CONTINUOUS
 10
42.183980884
 20
46.2516027299
 11
44.2703037583
 21
51.9837277167
  0
LINE
  5
238
100
AcDbEntity
  8
RUNDUNGEN
100
AcDbLine
 62
7
  6
CONTINUOUS
 10
51.7395246135
 20
68.1195367571
 11
69.0482285514
 21
115.6748099866
  0
LINE
  5
239
100
AcDbEntity
  8
RUNDUNGEN
100
AcDbLine
 62
7
  6
CONTINUOUS
 10
86.5862494586
 20
51.8785495951
 11
91.2780299817
 21
38.9879885511
  0
LINE
  5
23A
100
AcDbEntity
  8
RUNDUNGEN
100
AcDbLine
 62
7
  6
CONTINUOUS
 10
47.5215748233
 20
38.9879885511
 11
52.2133553463
 21
51.8785495951
  0
LINE
  5
23B
100
AcDbEntity
  8
AUSFORMSCHRAEGEN
100
AcDbLine
 62
7
  6
CONTINUOUS
 10
75.9872044557
 20
119.0086436106
 11
70.349048731
 21
116.9565227507
  0
LINE
  5
23C
100
AcDbEntity
  8
0
100
AcDbLine
 62
7
  6
CONTINUOUS
 10
55.8121786211
 20
102.6994968817
 11
55.5302708349
 21
102.8021029247
  0
LINE
  5
23D
100
AcDbEntity
  8
0
100
AcDbLine
 62
7
  6
CONTINUOUS
 10
55.9966656666
 20
103.2063708732
 11
55.7147578804
 21
103.3089769162
  0
LINE
  5
23E
100
AcDbEntity
  8
0
100
AcDbLine
 62
7
  6
CONTINUOUS
 10
56.3392733683
 20
104.1476777975
 11
56.0573655821
 21
104.2502838405
  0
LINE
  5
23F
100
AcDbEntity
  8
0
100
AcDbLine
 62
7
  6
CONTINUOUS
 10
56.5237604138
 20
104.6545517891
 11
56.2418526276
 21
104.7571578321
  0
LINE
  5
240
100
AcDbEntity
  8
RUNDUNGEN
100
AcDbLine
 62
7
  6
CONTINUOUS
 10
69.7513762535
 20
115.6748099866
 11
87.0600802819
 21
68.1195365085
  0
LINE
  5
241
100
AcDbEntity
  8
RUNDUNGEN
100
AcDbLine
 62
7
  6
CONTINUOUS
 10
98.6677447809
 20
40.6134470052
 11
96.6156239209
 21
46.2516027299
  0
LINE
  5
242
100
AcDbEntity
  8
KONSTRUKTIONSELEMENTE
100
AcDbLine
 62
7
  6
CONTINUOUS
 10
96.6156239209
 20
46.2516027299
 11
94.5293010466
 21
51.9837277167
  0
LINE
  5
243
100
AcDbEntity
  8
0
100
AcDbLine
 62
7
  6
CONTINUOUS
 10
78.9948557045
 20
114.546135439
 11
78.7129479183
 21
114.443529396
  0
LINE
  5
244
100
AcDbEntity
  8
0
100
AcDbLine
 62
7
  6
CONTINUOUS
 10
78.7522068196
 20
114.3356664513
 11
79.0341146058
 21
114.4382724943
  0
LINE
  5
245
100
AcDbEntity
  8
0
100
AcDbLine
 62
7
  6
CONTINUOUS
 10
78.7892887895
 20
114.2337845762
 11
79.0711965757
 21
114.3363906192
  0
LINE
  5
246
100
AcDbEntity
  8
0
100
AcDbLine
 62
7
  6
CONTINUOUS
 10
79.0717416229
 20
113.4577517945
 11
79.3536494091
 21
113.5603578375
  0
LINE
  5
247
100
AcDbEntity
  8
0
100
AcDbLine
 62
7
  6
CONTINUOUS
 10
79.1441713332
 20
113.2587528009
 11
79.4260791194
 21
113.3613588439
  0
LINE
  5
248
100
AcDbEntity
  8
0
100
AcDbLine
 62
7
  6
CONTINUOUS
 10
79.3949446939
 20
112.5697586548
 11
79.6768524802
 21
112.6723646978
  0
LINE
  5
249
100
AcDbEntity
  8
0
100
AcDbLine
 62
7
  6
CONTINUOUS
 10
79.5823947572
 20
112.0547438387
 11
79.8643025434
 21
112.1573498817
  0
LINE
  5
24A
100
AcDbEntity
  8
0
100
AcDbLine
 62
7
  6
CONTINUOUS
 10
79.8650418224
 20
111.2781774095
 11
80.1469496086
 21
111.3807834525
  0
LINE
  5
24B
100
AcDbEntity
  8
0
100
AcDbLine
 62
7
  6
CONTINUOUS
 10
80.0122538391
 20
110.8737157178
 11
80.2941616253
 21
110.9763217608
  0
LINE
  5
24C
100
AcDbEntity
  8
0
100
AcDbLine
 62
7
  6
CONTINUOUS
 10
80.6744802629
 20
109.0542635717
 11
80.9563880491
 21
109.1568696147
  0
LINE
  5
24D
100
AcDbEntity
  8
0
100
AcDbLine
 62
7
  6
CONTINUOUS
 10
56.683457091
 20
105.0933148036
 11
56.4015493048
 21
105.1959208466
  0
LINE
  5
24E
100
AcDbEntity
  8
0
100
AcDbLine
 62
7
  6
CONTINUOUS
 10
56.8679441058
 20
105.6001887109
 11
56.5860363195
 21
105.7027947539
  0
LINE
  5
24F
100
AcDbEntity
  8
0
100
AcDbLine
 62
7
  6
CONTINUOUS
 10
57.6983355034
 20
107.8816703251
 11
57.4164277171
 21
107.9842763681
  0
LINE
  5
250
100
AcDbEntity
  8
0
100
AcDbLine
 62
7
  6
CONTINUOUS
 10
58.6046255898
 20
110.371681873
 11
58.3227178035
 21
110.474287916
  0
LINE
  5
251
100
AcDbEntity
  8
RUNDUNGEN
100
AcDbLine
 62
7
  6
CONTINUOUS
 10
103.3662078848
 20
42.3235477218
 11
101.3140870248
 21
47.9617034466
  0
LINE
  5
252
100
AcDbEntity
  8
KONSTRUKTIONSELEMENTE
100
AcDbLine
 62
7
  6
CONTINUOUS
 10
101.3140870248
 20
47.9617034466
 11
99.2277641506
 21
53.6938284334
  0
LINE
  5
253
100
AcDbEntity
  8
KONSTRUKTIONSELEMENTE
100
AcDbLine
 62
7
  6
CONTINUOUS
 10
86.8998024025
 20
144.5645556037
 11
86.8998024025
 21
119.5645556037
  0
LINE
  5
254
100
AcDbEntity
  8
0
100
AcDbLine
 62
7
  6
CONTINUOUS
 10
80.9067448916
 20
108.416121749
 11
81.1886526779
 21
108.518727792
  0
LINE
  5
255
100
AcDbEntity
  8
0
100
AcDbLine
 62
7
  6
CONTINUOUS
 10
81.6086032194
 20
106.4877818416
 11
81.8905110057
 21
106.5903878846
  0
LINE
  5
256
100
AcDbEntity
  8
0
100
AcDbLine
 62
7
  6
CONTINUOUS
 10
81.8479740575
 20
105.8301158691
 11
82.1298818438
 21
105.9327219121
  0
LINE
  5
257
100
AcDbEntity
  8
0
100
AcDbLine
 62
7
  6
CONTINUOUS
 10
59.079146044
 20
111.6754161061
 11
58.7972382578
 21
111.7780221491
  0
LINE
  5
258
100
AcDbEntity
  8
0
100
AcDbLine
 62
7
  6
CONTINUOUS
 10
59.2231646833
 20
112.0711040655
 11
58.9412568971
 21
112.1737101085
  0
LINE
  5
259
100
AcDbEntity
  8
0
100
AcDbLine
 62
7
  6
CONTINUOUS
 10
59.7211509785
 20
113.4393101668
 11
59.4392431923
 21
113.5419162098
  0
LINE
  5
25A
100
AcDbEntity
  8
0
100
AcDbLine
 62
7
  6
CONTINUOUS
 10
59.7995719874
 20
113.6547701178
 11
59.5176642011
 21
113.7573761608
  0
LINE
  5
25B
100
AcDbEntity
  8
0
100
AcDbLine
 62
7
  6
CONTINUOUS
 10
60.0866568866
 20
114.443529396
 11
59.8047491004
 21
114.546135439
  0
LINE
  5
25C
100
AcDbEntity
  8
KONSTRUKTIONSELEMENTE
100
AcDbLine
 62
7
  6
CONTINUOUS
 10
105.1209455728
 20
91.4353904791
 11
111.1831233993
 21
87.9353904791
  0
LINE
  5
25D
100
AcDbEntity
  8
KONSTRUKTIONSELEMENTE
100
AcDbLine
 62
7
  6
CONTINUOUS
 10
107.1209455728
 20
94.8994920943
 11
113.1831233993
 21
91.3994920943
  0
LINE
  5
25E
100
AcDbEntity
  8
RUNDUNGEN
100
AcDbLine
 62
7
  6
CONTINUOUS
 10
94.577621248
 20
70.8556976555
 11
77.2689172198
 21
118.4109711332
  0
LINE
  5
25F
100
AcDbEntity
  8
0
100
AcDbLine
 62
7
  6
CONTINUOUS
 10
78.9952203434
 20
114.5451336019
 11
83.1235843079
 21
103.2025468302
  0
LINE
  5
260
100
AcDbEntity
  8
0
100
AcDbLine
 62
7
  6
CONTINUOUS
 10
88.6701870281
 20
87.9633811019
 11
90.4434072813
 21
83.0914984964
  0
LINE
  5
261
100
AcDbEntity
  8
0
100
AcDbLine
 62
7
  6
CONTINUOUS
 10
90.4516338928
 20
83.0688960669
 11
92.0173567526
 21
78.7671078646
  0
LINE
  5
262
100
AcDbEntity
  8
0
100
AcDbLine
 62
7
  6
CONTINUOUS
 10
92.2330807576
 20
78.174411032
 11
93.8361157194
 21
73.7701086719
  0
LINE
  5
263
100
AcDbEntity
  8
RUNDUNGEN
100
AcDbLine
 62
7
  6
CONTINUOUS
 10
40.0651630883
 20
64.9192246005
 11
35.5387797862
 21
61.1211380412
  0
LINE
  5
264
100
AcDbEntity
  8
0
100
AcDbLine
 62
7
  6
CONTINUOUS
 10
82.8416765217
 20
103.0999407872
 11
83.1235843079
 21
103.2025468302
  0
LINE
  5
265
100
AcDbEntity
  8
AUSFORMSCHRAEGEN
100
AcDbLine
 62
7
  6
CONTINUOUS
 10
62.8124003492
 20
119.0086436106
 11
68.450556074
 21
116.9565227507
  0
LINE
  5
266
100
AcDbEntity
  8
KONSTRUKTIONSELEMENTE
100
AcDbLine
 62
7
  6
CONTINUOUS
 10
106.9379328709
 20
95.5825047962
 11
81.8231961611
 21
110.0825047962
  0
LINE
  5
267
100
AcDbEntity
  8
RUNDUNGEN
100
AcDbLine
 62
7
  6
CONTINUOUS
 10
113.1561773493
 20
93.147100211
 11
147.0291502303
 21
73.5905301999
  0
LINE
  5
268
100
AcDbEntity
  8
RUNDUNGEN
100
AcDbLine
 62
7
  6
CONTINUOUS
 10
114.1561815474
 20
94.8791485948
 11
148.0291502303
 21
75.3225810075
  0
LINE
  5
269
100
AcDbEntity
  8
KONSTRUKTIONSELEMENTE
100
AcDbLine
 62
7
  6
CONTINUOUS
 10
108.9379328709
 20
99.0466064113
 11
83.8231961611
 21
113.5466064113
  0
LINE
  5
26A
100
AcDbEntity
  8
KONSTRUKTIONSELEMENTE
100
AcDbLine
 62
7
  6
CONTINUOUS
 10
115.6831233993
 20
95.7296191132
 11
112.868540837
 21
97.3546191132
  0
LINE
  5
26B
100
AcDbEntity
  8
KONSTRUKTIONSELEMENTE
100
AcDbLine
 62
7
  6
CONTINUOUS
 10
112.4355281351
 20
97.6046191132
 11
109.6209455728
 21
99.2296191132
  0
LINE
  5
26C
100
AcDbEntity
  8
RUNDUNGEN
100
AcDbLine
 62
7
  6
CONTINUOUS
 10
112.4211139493
 20
46.6834417759
 11
108.6914090149
 21
56.9307218646
  0
LINE
  5
26D
100
AcDbEntity
  8
KONSTRUKTIONSELEMENTE
100
AcDbLine
 62
7
  6
CONTINUOUS
 10
97.6998024025
 20
144.5645556037
 11
97.6998024025
 21
119.5645556037
  0
LINE
  5
26E
100
AcDbEntity
  8
RUNDUNGEN
100
AcDbLine
 62
7
  6
CONTINUOUS
 10
87.6916621828
 20
60.8999804696
 11
86.6656145906
 21
55.080975414
  0
LINE
  5
26F
100
AcDbEntity
  8
KONSTRUKTIONSELEMENTE
100
AcDbLine
 62
7
  6
CONTINUOUS
 10
117.6831233993
 20
99.1937207283
 11
114.868540837
 21
100.8187207283
  0
LINE
  5
270
100
AcDbEntity
  8
KONSTRUKTIONSELEMENTE
100
AcDbLine
 62
7
  6
CONTINUOUS
 10
114.4355281351
 20
101.0687207283
 11
111.6209455728
 21
102.6937207283
  0
LINE
  5
271
100
AcDbEntity
  8
0
100
AcDbLine
 62
7
  6
CONTINUOUS
 10
88.3882792418
 20
87.8607750589
 11
88.6701870281
 21
87.9633811019
  0
LINE
  5
272
100
AcDbEntity
  8
0
100
AcDbLine
 62
7
  6
CONTINUOUS
 10
88.4260017535
 20
87.7571333099
 11
88.7079095397
 21
87.8597393529
  0
LINE
  5
273
100
AcDbEntity
  8
0
100
AcDbLine
 62
7
  6
CONTINUOUS
 10
88.4487209934
 20
87.6947127111
 11
88.7306287797
 21
87.7973187541
  0
LINE
  5
274
100
AcDbEntity
  8
0
100
AcDbLine
 62
7
  6
CONTINUOUS
 10
88.6141856468
 20
87.2401023123
 11
88.896093433
 21
87.3427083553
  0
LINE
  5
275
100
AcDbEntity
  8
0
100
AcDbLine
 62
7
  6
CONTINUOUS
 10
88.9127900737
 20
86.4196933921
 11
89.1946978599
 21
86.5222994351
  0
LINE
  5
276
100
AcDbEntity
  8
BEZUGSACHSEN
100
AcDbLine
 62
7
  6
CENTER
 10
106.1832150911
 20
50.372427793
 11
106.1832150911
 21
45.872427793
  0
LINE
  5
277
100
AcDbEntity
  8
BEZUGSACHSEN
100
AcDbLine
 62
7
  6
CENTER
 10
106.1832150911
 20
50.372427793
 11
106.1832150911
 21
54.872427793
  0
LINE
  5
278
100
AcDbEntity
  8
0
100
AcDbLine
 62
7
  6
CONTINUOUS
 10
89.8167008026
 20
83.9362190751
 11
90.0986085889
 21
84.0388251181
  0
LINE
  5
279
100
AcDbEntity
  8
0
100
AcDbLine
 62
7
  6
CONTINUOUS
 10
90.1614994951
 20
82.9888924534
 11
90.4434072813
 21
83.0914984964
  0
LINE
  5
27A
100
AcDbEntity
  8
0
100
AcDbLine
 62
7
  6
CONTINUOUS
 10
90.1697261066
 20
82.9662900239
 11
90.4516338928
 21
83.0688960669
  0
LINE
  5
27B
100
AcDbEntity
  8
KONSTRUKTIONSELEMENTE
100
AcDbLine
 62
7
  6
CONTINUOUS
 10
112.4355281351
 20
97.6046191132
 11
114.4355281351
 21
101.0687207283
  0
LINE
  5
27C
100
AcDbEntity
  8
KONSTRUKTIONSELEMENTE
100
AcDbLine
 62
7
  6
CONTINUOUS
 10
112.868540837
 20
97.3546191132
 11
114.868540837
 21
100.8187207283
  0
LINE
  5
27D
100
AcDbEntity
  8
RUNDUNGEN
100
AcDbLine
 62
7
  6
CONTINUOUS
 10
114.1562357369
 20
94.8791173085
 11
113.1562357369
 21
93.1470665009
  0
LINE
  5
27E
100
AcDbEntity
  8
0
100
AcDbLine
 62
7
  6
CONTINUOUS
 10
91.7355765986
 20
78.6641511549
 11
92.0174843848
 21
78.7667571979
  0
LINE
  5
27F
100
AcDbEntity
  8
0
100
AcDbLine
 62
7
  6
CONTINUOUS
 10
91.9511729714
 20
78.071804989
 11
92.2330807576
 21
78.174411032
  0
LINE
  5
280
100
AcDbEntity
  8
0
100
AcDbLine
 62
7
  6
CONTINUOUS
 10
91.988895483
 20
77.96816324
 11
92.2708032693
 21
78.070769283
  0
LINE
  5
281
100
AcDbEntity
  8
0
100
AcDbLine
 62
7
  6
CONTINUOUS
 10
92.011614723
 20
77.9057426412
 11
92.2935225092
 21
78.0083486842
  0
LINE
  5
282
100
AcDbEntity
  8
0
100
AcDbLine
 62
7
  6
CONTINUOUS
 10
92.1762220466
 20
77.4534877367
 11
92.4581298328
 21
77.5560937797
  0
LINE
  5
283
100
AcDbEntity
  8
RUNDUNGEN
100
AcDbLine
 62
7
  6
CONTINUOUS
 10
118.1446238149
 20
90.2670193013
 11
119.1446238149
 21
91.9990701089
  0
LINE
  5
284
100
AcDbEntity
  8
0
100
AcDbLine
 62
7
  6
CONTINUOUS
 10
93.5543913776
 20
73.6669986194
 11
93.8362991639
 21
73.7696046624
  0
LINE
  5
285
100
AcDbEntity
  8
0
100
AcDbLine
 62
7
  6
CONTINUOUS
 10
100.1512185375
 20
51.1566583572
 11
95.4527554336
 21
49.4465576406
  0
LINE
  5
286
100
AcDbEntity
  8
0
100
AcDbLine
 62
7
  6
CONTINUOUS
 10
95.7298776898
 20
48.6851704992
 11
100.4283407938
 21
50.3952712158
  0
LINE
  5
287
100
AcDbEntity
  8
0
100
AcDbLine
 62
7
  6
CONTINUOUS
 10
97.09094598
 20
44.9456661056
 11
101.7894090839
 21
46.6557668223
  0
LINE
  5
288
100
AcDbEntity
  8
0
100
AcDbLine
 62
7
  6
CONTINUOUS
 10
102.0665313402
 20
45.8943796808
 11
97.3680682362
 21
44.1842789642
  0
LINE
  5
289
100
AcDbEntity
  8
RUNDUNGEN
100
AcDbLine
 62
7
  6
CONTINUOUS
 10
92.5597427458
 20
38.3903160736
 11
98.6677447809
 21
40.6134470052
  0
LINE
  5
28A
100
AcDbEntity
  8
RUNDUNGEN
100
AcDbLine
 62
7
  6
CONTINUOUS
 10
103.3662078848
 20
42.3235477218
 11
111.8234414719
 21
45.4017290118
  0
LINE
  5
28B
100
AcDbEntity
  8
RUNDUNGEN
100
AcDbLine
 62
7
  6
CONTINUOUS
 10
148.0291502303
 20
75.3225810075
 11
147.0291502303
 21
73.5905301999
  0
LINE
  5
28C
100
AcDbEntity
  8
RUNDUNGEN
100
AcDbLine
 62
7
  6
CONTINUOUS
 10
222.1319515306
 20
38.3300086944
 11
253.1319515306
 21
38.3300086944
  0
LINE
  5
28D
100
AcDbEntity
  8
RUNDUNGEN
100
AcDbLine
 62
7
  6
CONTINUOUS
 10
253.1319515306
 20
40.6134470052
 11
222.1319515306
 21
40.6134470052
  0
LINE
  5
28E
100
AcDbEntity
  8
RUNDUNGEN
100
AcDbLine
 62
7
  6
CONTINUOUS
 10
253.1319515306
 20
42.3235477218
 11
222.1319515306
 21
42.3235477218
  0
LINE
  5
28F
100
AcDbEntity
  8
0
100
AcDbLine
 62
7
  6
CONTINUOUS
 10
224.3927687022
 20
51.872427793
 11
229.4672875321
 21
51.872427793
  0
LINE
  5
290
100
AcDbEntity
  8
0
100
AcDbLine
 62
7
  6
CONTINUOUS
 10
235.0927687022
 20
51.872427793
 11
240.1672875321
 21
51.872427793
  0
LINE
  5
291
100
AcDbEntity
  8
0
100
AcDbLine
 62
7
  6
CONTINUOUS
 10
245.7927687022
 20
51.872427793
 11
250.8672875321
 21
51.872427793
  0
LINE
  5
292
100
AcDbEntity
  8
RUNDUNGEN
100
AcDbLine
 62
7
  6
CONTINUOUS
 10
228.7141036946
 20
65.0283935623
 11
228.0552778027
 21
65.4201947133
  0
LWPOLYLINE
  5
293
100
AcDbEntity
  8
RUNDUNGEN
100
AcDbPolyline
 62
7
  6
CONTINUOUS
 90
6
 70
0
 10
215.8527879338
 20
56.6392946126
 10
216.0560483715
 20
56.2102250261
 10
216.2509654154
 20
55.7744077382
 10
216.4373630384
 20
55.3319918995
 10
216.6150665274
 20
54.8831290805
 10
216.7347363149
 20
54.563685319
  0
LINE
  5
294
100
AcDbEntity
  8
RUNDUNGEN
100
AcDbLine
 62
7
  6
CONTINUOUS
 10
228.064796944
 20
65.4141202899
 11
227.3437957372
 21
65.9130747993
  0
LINE
  5
295
100
AcDbEntity
  8
RUNDUNGEN
100
AcDbLine
 62
7
  6
CONTINUOUS
 10
227.3527976
 20
65.9063250194
 11
226.6892293495
 21
66.4445488545
  0
LINE
  5
296
100
AcDbEntity
  8
RUNDUNGEN
100
AcDbLine
 62
7
  6
CONTINUOUS
 10
226.6977093549
 20
66.4371110459
 11
226.0905985958
 21
67.0124715963
  0
LINE
  5
297
100
AcDbEntity
  8
RUNDUNGEN
100
AcDbLine
 62
7
  6
CONTINUOUS
 10
226.0985379605
 20
67.0043394358
 11
225.5471757258
 21
67.6143547648
  0
LWPOLYLINE
  5
298
100
AcDbEntity
  8
RUNDUNGEN
100
AcDbPolyline
 62
7
  6
CONTINUOUS
 90
7
 70
0
 10
214.2247280771
 20
60.3898483578
 10
214.4072578646
 20
59.8928601469
 10
214.6564649416
 20
59.2537036188
 10
214.9185586687
 20
58.6235891394
 10
215.193277039
 20
58.0027852388
 10
215.4803704084
 20
57.3915246565
 10
215.8527879338
 20
56.6392946126
  0
LINE
  5
299
100
AcDbEntity
  8
RUNDUNGEN
100
AcDbLine
 62
7
  6
CONTINUOUS
 10
216.7347357744
 20
54.5636862418
 11
216.866876006
 21
54.1995416113
  0
LWPOLYLINE
  5
29A
100
AcDbEntity
  8
RUNDUNGEN
100
AcDbPolyline
 62
7
  6
CONTINUOUS
 90
3
 70
0
 10
216.866876006
 20
54.1995416113
 10
216.9832782086
 20
53.8724143016
 10
216.9982143707
 20
53.8299109036
  0
LWPOLYLINE
  5
29B
100
AcDbEntity
  8
RUNDUNGEN
100
AcDbPolyline
 62
7
  6
CONTINUOUS
 90
6
 70
0
 10
216.9982137353
 20
53.8299104375
 10
217.0377340464
 20
53.7158452521
 10
217.1296542289
 20
53.4387430792
 10
217.2162130459
 20
53.1608908117
 10
217.2974653038
 20
52.8828127909
 10
217.3734845835
 20
52.6050425977
  0
LINE
  5
29C
100
AcDbEntity
  8
RUNDUNGEN
100
AcDbLine
 62
7
  6
CONTINUOUS
 10
213.8882195023
 20
61.371744546
 11
214.2247252968
 21
60.3898633011
  0
LINE
  5
29D
100
AcDbEntity
  8
RUNDUNGEN
100
AcDbLine
 62
7
  6
CONTINUOUS
 10
213.5427644328
 20
62.4860969204
 11
213.5445676816
 21
62.4795150355
  0
LINE
  5
29E
100
AcDbEntity
  8
AUSFORMSCHRAEGEN
100
AcDbLine
 62
7
  6
CONTINUOUS
 10
207.4073615614
 20
90.6068187043
 11
207.4073615614
 21
88.5546978444
  0
LINE
  5
29F
100
AcDbEntity
  8
0
100
AcDbLine
 62
7
  6
CONTINUOUS
 10
216.4648052366
 20
73.6812994504
 11
217.8438446714
 21
73.8450063039
  0
LINE
  5
2A0
100
AcDbEntity
  8
0
100
AcDbLine
 62
7
  6
CONTINUOUS
 10
216.4648052366
 20
73.7839054934
 11
217.8438446714
 21
73.9476123469
  0
LINE
  5
2A1
100
AcDbEntity
  8
RUNDUNGEN
100
AcDbLine
 62
7
  6
CONTINUOUS
 10
249.1669515306
 20
73.5905301999
 11
248.4784515306
 21
73.5905301999
  0
LINE
  5
2A2
100
AcDbEntity
  8
RUNDUNGEN
100
AcDbLine
 62
7
  6
CONTINUOUS
 10
226.7854515306
 20
73.5905301999
 11
226.0969515306
 21
73.5905301999
  0
LINE
  5
2A3
100
AcDbEntity
  8
RUNDUNGEN
100
AcDbLine
 62
7
  6
CONTINUOUS
 10
246.3169515306
 20
75.9485301999
 11
243.3851222048
 21
75.9485301999
  0
LINE
  5
2A4
100
AcDbEntity
  8
RUNDUNGEN
100
AcDbLine
 62
7
  6
CONTINUOUS
 10
231.8787808564
 20
75.9485301999
 11
228.9469515306
 21
75.9485301999
  0
LINE
  5
2A5
100
AcDbEntity
  8
RUNDUNGEN
100
AcDbLine
 62
7
  6
CONTINUOUS
 10
225.5545497084
 20
67.6055352908
 11
225.0585757302
 21
68.2469580289
  0
LINE
  5
2A6
100
AcDbEntity
  8
RUNDUNGEN
100
AcDbLine
 62
7
  6
CONTINUOUS
 10
225.0653555278
 20
68.237462659
 11
224.6243069169
 21
68.9065605801
  0
LINE
  5
2A7
100
AcDbEntity
  8
RUNDUNGEN
100
AcDbLine
 62
7
  6
CONTINUOUS
 10
224.6304620998
 20
68.8964284938
 11
224.2436714858
 21
69.5888559656
  0
LINE
  5
2A8
100
AcDbEntity
  8
RUNDUNGEN
100
AcDbLine
 62
7
  6
CONTINUOUS
 10
217.5079961779
 20
52.0963391621
 11
217.5478828715
 21
51.9518797064
  0
LWPOLYLINE
  5
2A9
100
AcDbEntity
  8
RUNDUNGEN
100
AcDbPolyline
 62
7
  6
CONTINUOUS
 90
3
 70
0
 10
217.4437181784
 20
52.3355149921
 10
217.4758143647
 20
52.2150367804
 10
217.5079961779
 20
52.0963391621
  0
LINE
  5
2AA
100
AcDbEntity
  8
RUNDUNGEN
100
AcDbLine
 62
7
  6
CONTINUOUS
 10
217.3734845835
 20
52.6050425977
 11
217.4437181784
 21
52.3355149921
  0
LWPOLYLINE
  5
2AB
100
AcDbEntity
  8
RUNDUNGEN
100
AcDbPolyline
 62
7
  6
CONTINUOUS
 90
5
 70
0
 10
212.7676937945
 20
65.769670274
 10
212.9788904204
 20
64.6974450085
 10
213.2369278776
 20
63.6033324921
 10
213.5406806487
 20
62.492818691
 10
213.8906475598
 20
61.364659782
  0
LINE
  5
2AC
100
AcDbEntity
  8
RUNDUNGEN
100
AcDbLine
 62
7
  6
CONTINUOUS
 10
212.6265559458
 20
66.6489396207
 11
212.7701011351
 21
65.7561007156
  0
LINE
  5
2AD
100
AcDbEntity
  8
RUNDUNGEN
100
AcDbLine
 62
7
  6
CONTINUOUS
 10
211.4637584497
 20
74.4582322141
 11
212.5038713085
 21
67.4952604228
  0
LINE
  5
2AE
100
AcDbEntity
  8
RUNDUNGEN
100
AcDbLine
 62
7
  6
CONTINUOUS
 10
212.5038713085
 20
67.4952604228
 11
212.6265535469
 21
66.6489312906
  0
LINE
  5
2AF
100
AcDbEntity
  8
0
100
AcDbLine
 62
7
  6
CONTINUOUS
 10
212.6765030446
 20
87.2401023123
 11
212.6765030446
 21
87.3427083553
  0
LINE
  5
2B0
100
AcDbEntity
  8
0
100
AcDbLine
 62
7
  6
CONTINUOUS
 10
212.7867962901
 20
86.4196933921
 11
212.7867962901
 21
86.5222994351
  0
LINE
  5
2B1
100
AcDbEntity
  8
0
100
AcDbLine
 62
7
  6
CONTINUOUS
 10
213.1206669196
 20
83.9362190751
 11
213.1206669196
 21
84.0388251181
  0
LINE
  5
2B2
100
AcDbEntity
  8
0
100
AcDbLine
 62
7
  6
CONTINUOUS
 10
213.2480225896
 20
82.9888924534
 11
213.2480225896
 21
83.0914984964
  0
LINE
  5
2B3
100
AcDbEntity
  8
0
100
AcDbLine
 62
7
  6
CONTINUOUS
 10
241.6638005443
 20
78.8772270152
 11
241.7507927318
 21
78.8946472259
  0
LINE
  5
2B4
100
AcDbEntity
  8
0
100
AcDbLine
 62
7
  6
CONTINUOUS
 10
241.7060518982
 20
78.9722904014
 11
241.7507927318
 21
78.9812497663
  0
LINE
  5
2B5
100
AcDbEntity
  8
0
100
AcDbLine
 62
7
  6
CONTINUOUS
 10
241.5478109056
 20
78.8598068045
 11
241.6638005443
 21
78.8772270152
  0
LINE
  5
2B6
100
AcDbEntity
  8
0
100
AcDbLine
 62
7
  6
CONTINUOUS
 10
241.6638005443
 20
78.946907858
 11
241.5478109056
 21
78.9294876473
  0
LINE
  5
2B7
100
AcDbEntity
  8
0
100
AcDbLine
 62
7
  6
CONTINUOUS
 10
241.5478109056
 20
79.1385301999
 11
241.6638005443
 21
79.1559504122
  0
LINE
  5
2B8
100
AcDbEntity
  8
0
100
AcDbLine
 62
7
  6
CONTINUOUS
 10
241.6638005443
 20
79.2430514763
 11
241.5478109056
 21
79.2256312656
  0
LINE
  5
2B9
100
AcDbEntity
  8
0
100
AcDbLine
 62
7
  6
CONTINUOUS
 10
241.3738265306
 20
79.6959769908
 11
241.2578369749
 21
79.6785567801
  0
LINE
  5
2BA
100
AcDbEntity
  8
0
100
AcDbLine
 62
7
  6
CONTINUOUS
 10
217.6725601881
 20
74.9217983653
 11
216.3728899294
 21
74.767513489
  0
LINE
  5
2BB
100
AcDbEntity
  8
0
100
AcDbLine
 62
7
  6
CONTINUOUS
 10
215.0290163028
 20
76.5796583352
 11
217.9536646393
 21
76.9268456342
  0
LINE
  5
2BC
100
AcDbEntity
  8
0
100
AcDbLine
 62
7
  6
CONTINUOUS
 10
215.0170051234
 20
76.6808385217
 11
217.9536646393
 21
77.0294516772
  0
LINE
  5
2BD
100
AcDbEntity
  8
0
100
AcDbLine
 62
7
  6
CONTINUOUS
 10
219.2209464729
 20
78.174411032
 11
218.3478855358
 21
78.070769283
  0
LINE
  5
2BE
100
AcDbEntity
  8
0
100
AcDbLine
 62
7
  6
CONTINUOUS
 10
217.8220647441
 20
78.0083486842
 11
214.012344291
 21
77.5560937797
  0
LINE
  5
2BF
100
AcDbEntity
  8
0
100
AcDbLine
 62
7
  6
CONTINUOUS
 10
215.9641852686
 20
78.6797116446
 11
219.0893465777
 21
79.050701996
  0
LINE
  5
2C0
100
AcDbEntity
  8
0
100
AcDbLine
 62
7
  6
CONTINUOUS
 10
215.9641852686
 20
78.7823176876
 11
219.0893465777
 21
79.153308039
  0
LINE
  5
2C1
100
AcDbEntity
  8
0
100
AcDbLine
 62
7
  6
CONTINUOUS
 10
232.8504515306
 20
78.6995301999
 11
242.4134515306
 21
78.6995301999
  0
LINE
  5
2C2
100
AcDbEntity
  8
0
100
AcDbLine
 62
7
  6
CONTINUOUS
 10
242.2169515306
 20
78.7977801999
 11
233.0469515306
 21
78.7977801999
  0
LINE
  5
2C3
100
AcDbEntity
  8
0
100
AcDbLine
 62
7
  6
CONTINUOUS
 10
241.3738265306
 20
78.8598068045
 11
241.5478109056
 21
78.8598068045
  0
LINE
  5
2C4
100
AcDbEntity
  8
0
100
AcDbLine
 62
7
  6
CONTINUOUS
 10
232.8504515306
 20
78.8697041918
 11
233.0469515306
 21
78.8697041918
  0
LINE
  5
2C5
100
AcDbEntity
  8
0
100
AcDbLine
 62
7
  6
CONTINUOUS
 10
242.2169515306
 20
78.8697041918
 11
242.4134515306
 21
78.8697041918
  0
LINE
  5
2C6
100
AcDbEntity
  8
0
100
AcDbLine
 62
7
  6
CONTINUOUS
 10
241.5478109056
 20
78.9294876473
 11
241.3738265306
 21
78.9294876473
  0
LINE
  5
2C7
100
AcDbEntity
  8
0
100
AcDbLine
 62
7
  6
CONTINUOUS
 10
241.1708447874
 20
79.0688493511
 11
241.0258577806
 21
79.0688493511
  0
LINE
  5
2C8
100
AcDbEntity
  8
0
100
AcDbLine
 62
7
  6
CONTINUOUS
 10
239.9819515306
 20
79.1385301999
 11
240.1269385063
 21
79.1385301999
  0
LINE
  5
2C9
100
AcDbEntity
  8
0
100
AcDbLine
 62
7
  6
CONTINUOUS
 10
240.6198942528
 20
79.1385301999
 11
240.7938785863
 21
79.1385301999
  0
LINE
  5
2CA
100
AcDbEntity
  8
0
100
AcDbLine
 62
7
  6
CONTINUOUS
 10
241.3738265306
 20
79.1385301999
 11
241.5478109056
 21
79.1385301999
  0
LINE
  5
2CB
100
AcDbEntity
  8
0
100
AcDbLine
 62
7
  6
CONTINUOUS
 10
239.9819515306
 20
79.2251327403
 11
240.1269385063
 21
79.2251327403
  0
LINE
  5
2CC
100
AcDbEntity
  8
0
100
AcDbLine
 62
7
  6
CONTINUOUS
 10
240.6198942528
 20
79.2251327403
 11
240.6800703277
 21
79.2251327403
  0
LINE
  5
2CD
100
AcDbEntity
  8
0
100
AcDbLine
 62
7
  6
CONTINUOUS
 10
241.5478109056
 20
79.2256312656
 11
241.3738265306
 21
79.2251327403
  0
LINE
  5
2CE
100
AcDbEntity
  8
0
100
AcDbLine
 62
7
  6
CONTINUOUS
 10
241.3738265306
 20
79.6088759374
 11
241.5478109056
 21
79.6088759374
  0
LINE
  5
2CF
100
AcDbEntity
  8
0
100
AcDbLine
 62
7
  6
CONTINUOUS
 10
241.953774392
 20
79.6959769908
 11
241.8087874681
 21
79.6959769908
  0
LINE
  5
2D0
100
AcDbEntity
  8
0
100
AcDbLine
 62
7
  6
CONTINUOUS
 10
241.5478109056
 20
79.6959769908
 11
241.3738265306
 21
79.6959769908
  0
LINE
  5
2D1
100
AcDbEntity
  8
0
100
AcDbLine
 62
7
  6
CONTINUOUS
 10
240.6778890306
 20
79.6959769908
 11
240.5039046556
 21
79.6959769908
  0
LINE
  5
2D2
100
AcDbEntity
  8
0
100
AcDbLine
 62
7
  6
CONTINUOUS
 10
240.1269385063
 20
79.9572801999
 11
239.9819515306
 21
79.9572801999
  0
LINE
  5
2D3
100
AcDbEntity
  8
0
100
AcDbLine
 62
7
  6
CONTINUOUS
 10
233.0469515306
 20
80.2715301999
 11
242.2169515306
 21
80.2715301999
  0
LINE
  5
2D4
100
AcDbEntity
  8
0
100
AcDbLine
 62
7
  6
CONTINUOUS
 10
241.173654219
 20
80.3697801999
 11
233.9755338339
 21
80.3697801999
  0
LINE
  5
2D5
100
AcDbEntity
  8
0
100
AcDbLine
 62
7
  6
CONTINUOUS
 10
233.4212974564
 20
80.4417041918
 11
233.9755338339
 21
80.4417041918
  0
LINE
  5
2D6
100
AcDbEntity
  8
0
100
AcDbLine
 62
7
  6
CONTINUOUS
 10
241.173654219
 20
80.4417041918
 11
241.7105022027
 21
80.4417041918
  0
LINE
  5
2D7
100
AcDbEntity
  8
0
100
AcDbLine
 62
7
  6
CONTINUOUS
 10
241.2578369749
 20
78.8772270152
 11
241.3738265306
 21
78.8598068045
  0
LINE
  5
2D8
100
AcDbEntity
  8
0
100
AcDbLine
 62
7
  6
CONTINUOUS
 10
241.2578369749
 20
79.1559504122
 11
241.3738265306
 21
79.1385301999
  0
LINE
  5
2D9
100
AcDbEntity
  8
0
100
AcDbLine
 62
7
  6
CONTINUOUS
 10
241.2578369749
 20
79.2425529525
 11
241.3738265306
 21
79.2251327403
  0
LINE
  5
2DA
100
AcDbEntity
  8
0
100
AcDbLine
 62
7
  6
CONTINUOUS
 10
241.431821267
 20
79.2256312656
 11
241.3158317113
 21
79.2430514763
  0
LINE
  5
2DB
100
AcDbEntity
  8
0
100
AcDbLine
 62
7
  6
CONTINUOUS
 10
241.5478109056
 20
79.6088759374
 11
241.6638005443
 21
79.5914557267
  0
LINE
  5
2DC
100
AcDbEntity
  8
0
100
AcDbLine
 62
7
  6
CONTINUOUS
 10
241.6638005443
 20
79.6785567801
 11
241.5478109056
 21
79.6959769908
  0
LINE
  5
2DD
100
AcDbEntity
  8
0
100
AcDbLine
 62
7
  6
CONTINUOUS
 10
241.3738265306
 20
78.9294876473
 11
241.2578369749
 21
78.9643280687
  0
LINE
  5
2DE
100
AcDbEntity
  8
RUNDUNGEN
100
AcDbLine
 62
7
  6
CONTINUOUS
 10
224.2491818949
 20
69.5780920344
 11
223.9157071486
 21
70.2889163458
  0
LINE
  5
2DF
100
AcDbEntity
  8
RUNDUNGEN
100
AcDbLine
 62
7
  6
CONTINUOUS
 10
223.9205641923
 20
70.2775572965
 11
223.6903822373
 21
70.8574737387
  0
LINE
  5
2E0
100
AcDbEntity
  8
0
100
AcDbLine
 62
7
  6
CONTINUOUS
 10
212.6765030446
 20
87.2401023123
 11
212.7867962901
 21
86.4196933921
  0
LINE
  5
2E1
100
AcDbEntity
  8
0
100
AcDbLine
 62
7
  6
CONTINUOUS
 10
213.1206669196
 20
83.9362190751
 11
213.2480225896
 21
82.9888924534
  0
LINE
  5
2E2
100
AcDbEntity
  8
0
100
AcDbLine
 62
7
  6
CONTINUOUS
 10
212.6765030446
 20
87.3427083553
 11
212.7867962901
 21
86.5222994351
  0
LINE
  5
2E3
100
AcDbEntity
  8
0
100
AcDbLine
 62
7
  6
CONTINUOUS
 10
213.1206669196
 20
84.0388251181
 11
213.2480225896
 21
83.0914984964
  0
LINE
  5
2E4
100
AcDbEntity
  8
0
100
AcDbLine
 62
7
  6
CONTINUOUS
 10
214.012344291
 20
77.4534877367
 11
214.3081307222
 21
75.2533001781
  0
LINE
  5
2E5
100
AcDbEntity
  8
0
100
AcDbLine
 62
7
  6
CONTINUOUS
 10
214.012344291
 20
77.5560937797
 11
214.3081307222
 21
75.3559062211
  0
LINE
  5
2E6
100
AcDbEntity
  8
0
100
AcDbLine
 62
7
  6
CONTINUOUS
 10
215.1548716804
 20
75.6553273715
 11
215.0170051234
 21
76.6808385217
  0
LINE
  5
2E7
100
AcDbEntity
  8
0
100
AcDbLine
 62
7
  6
CONTINUOUS
 10
214.959527486
 20
86.6776200174
 11
215.0712493048
 21
85.8465847509
  0
LINE
  5
2E8
100
AcDbEntity
  8
0
100
AcDbLine
 62
7
  6
CONTINUOUS
 10
214.959527486
 20
86.7802260604
 11
215.0712493048
 21
85.9491907939
  0
LINE
  5
2E9
100
AcDbEntity
  8
0
100
AcDbLine
 62
7
  6
CONTINUOUS
 10
216.0130682795
 20
85.5413804855
 11
215.8325884232
 21
86.8838678093
  0
LINE
  5
2EA
100
AcDbEntity
  8
0
100
AcDbLine
 62
7
  6
CONTINUOUS
 10
218.2512641045
 20
85.2913404878
 11
218.2395872541
 21
85.4741858555
  0
LINE
  5
2EB
100
AcDbEntity
  8
0
100
AcDbLine
 62
7
  6
CONTINUOUS
 10
219.5314151749
 20
75.7433751242
 11
219.5167329041
 21
75.9742234734
  0
LINE
  5
2EC
100
AcDbEntity
  8
0
100
AcDbLine
 62
7
  6
CONTINUOUS
 10
215.0712493048
 20
85.9491907939
 11
215.0777982648
 21
85.8433803676
  0
LINE
  5
2ED
100
AcDbEntity
  8
0
100
AcDbLine
 62
7
  6
CONTINUOUS
 10
217.3226596852
 20
85.6968431089
 11
217.3273842417
 21
85.6168893076
  0
LINE
  5
2EE
100
AcDbEntity
  8
0
100
AcDbLine
 62
7
  6
CONTINUOUS
 10
218.6173519879
 20
76.0663611259
 11
218.6251546645
 21
75.9343162116
  0
LINE
  5
2EF
100
AcDbEntity
  8
0
100
AcDbLine
 62
7
  6
CONTINUOUS
 10
214.012344291
 20
77.4534877367
 11
214.012344291
 21
77.5560937797
  0
LINE
  5
2F0
100
AcDbEntity
  8
0
100
AcDbLine
 62
7
  6
CONTINUOUS
 10
214.959527486
 20
86.6776200174
 11
214.959527486
 21
86.7802260604
  0
LINE
  5
2F1
100
AcDbEntity
  8
0
100
AcDbLine
 62
7
  6
CONTINUOUS
 10
215.3762017914
 20
84.5068492999
 11
215.3762017914
 21
84.6094553429
  0
LINE
  5
2F2
100
AcDbEntity
  8
0
100
AcDbLine
 62
7
  6
CONTINUOUS
 10
216.6163590372
 20
86.874303791
 11
216.6163590372
 21
86.976909834
  0
LINE
  5
2F3
100
AcDbEntity
  8
0
100
AcDbLine
 62
7
  6
CONTINUOUS
 10
217.0318865834
 20
87.7571333099
 11
217.0318865834
 21
87.8597393529
  0
LINE
  5
2F4
100
AcDbEntity
  8
0
100
AcDbLine
 62
7
  6
CONTINUOUS
 10
217.9536646393
 20
76.9268456342
 11
217.9536646393
 21
77.0294516772
  0
LINE
  5
2F5
100
AcDbEntity
  8
BEZUGSACHSEN
100
AcDbLine
 62
7
  6
CONTINUOUS
 10
218.1319515306
 20
49.859397578
 11
218.1319515306
 21
49.3384122617
  0
LINE
  5
2F6
100
AcDbEntity
  8
KONSTRUKTIONSELEMENTE
100
AcDbLine
 62
7
  6
CONTINUOUS
 10
218.1319515306
 20
47.9617034466
 11
218.1319515306
 21
46.2516027299
  0
LINE
  5
2F7
100
AcDbEntity
  8
RUNDUNGEN
100
AcDbLine
 62
7
  6
CONTINUOUS
 10
218.1319515306
 20
44.0284717983
 11
218.1319515306
 21
46.2516027299
  0
LINE
  5
2F8
100
AcDbEntity
  8
BEZUGSACHSEN
100
AcDbLine
 62
7
  6
CONTINUOUS
 10
218.1319515306
 20
47.9617034466
 11
218.1319515306
 21
48.8725546918
  0
LINE
  5
2F9
100
AcDbEntity
  8
RUNDUNGEN
100
AcDbLine
 62
7
  6
CONTINUOUS
 10
218.1319515306
 20
50.2788121793
 11
218.1319515306
 21
54.7051848271
  0
LINE
  5
2FA
100
AcDbEntity
  8
0
100
AcDbLine
 62
7
  6
CONTINUOUS
 10
218.191638534
 20
105.8301158691
 11
218.191638534
 21
105.9327219121
  0
LINE
  5
2FB
100
AcDbEntity
  8
0
100
AcDbLine
 62
7
  6
CONTINUOUS
 10
218.3478855358
 20
77.96816324
 11
218.3478855358
 21
78.070769283
  0
LINE
  5
2FC
100
AcDbEntity
  8
RUNDUNGEN
100
AcDbLine
 62
7
  6
CONTINUOUS
 10
207.4923155285
 20
91.010168128
 11
216.05200015
 21
110.4288284659
  0
LINE
  5
2FD
100
AcDbEntity
  8
0
100
AcDbLine
 62
7
  6
CONTINUOUS
 10
233.9755338339
 20
80.3697801999
 11
237.6319515306
 21
81.3921817002
  0
LINE
  5
2FE
100
AcDbEntity
  8
0
100
AcDbLine
 62
7
  6
CONTINUOUS
 10
233.9755338339
 20
80.5399541918
 11
237.6319515306
 21
81.5623556921
  0
LINE
  5
2FF
100
AcDbEntity
  8
0
100
AcDbLine
 62
7
  6
CONTINUOUS
 10
237.6319515306
 20
81.619080356
 11
236.3055125201
 21
81.2481836623
  0
LINE
  5
300
100
AcDbEntity
  8
0
100
AcDbLine
 62
7
  6
CONTINUOUS
 10
236.1340093101
 20
81.2002282169
 11
233.0469515306
 21
80.3370301999
  0
LINE
  5
301
100
AcDbEntity
  8
0
100
AcDbLine
 62
7
  6
CONTINUOUS
 10
236.4004365327
 20
82.1248534696
 11
236.4898852865
 21
82.1497188613
  0
LINE
  5
302
100
AcDbEntity
  8
0
100
AcDbLine
 62
7
  6
CONTINUOUS
 10
236.4004365327
 20
82.2114560099
 11
236.4898852865
 21
82.2363214016
  0
LINE
  5
303
100
AcDbEntity
  8
0
100
AcDbLine
 62
7
  6
CONTINUOUS
 10
236.4444933972
 20
82.2495143705
 11
236.3550445957
 21
82.2246489253
  0
LINE
  5
304
100
AcDbEntity
  8
0
100
AcDbLine
 62
7
  6
CONTINUOUS
 10
235.6790103787
 20
81.9078890131
 11
235.761237391
 21
81.9297201903
  0
LINE
  5
305
100
AcDbEntity
  8
0
100
AcDbLine
 62
7
  6
CONTINUOUS
 10
235.6199805572
 20
82.3553450531
 11
235.5377535061
 21
82.3335138991
  0
LINE
  5
306
100
AcDbEntity
  8
0
100
AcDbLine
 62
7
  6
CONTINUOUS
 10
234.5331158181
 20
82.3897127242
 11
234.5870783982
 21
82.4010250008
  0
LINE
  5
307
100
AcDbEntity
  8
0
100
AcDbLine
 62
7
  6
CONTINUOUS
 10
241.6738005443
 20
83.5341270152
 11
241.7607927318
 21
83.5515472259
  0
LINE
  5
308
100
AcDbEntity
  8
0
100
AcDbLine
 62
7
  6
CONTINUOUS
 10
241.7160518982
 20
83.6291904014
 11
241.7607927318
 21
83.6381497663
  0
LINE
  5
309
100
AcDbEntity
  8
0
100
AcDbLine
 62
7
  6
CONTINUOUS
 10
235.7317679526
 20
81.9791366964
 11
235.5918566029
 21
81.9523977687
  0
LINE
  5
30A
100
AcDbEntity
  8
0
100
AcDbLine
 62
7
  6
CONTINUOUS
 10
235.5672228626
 20
82.2840973864
 11
235.707134333
 21
82.3108362975
  0
LINE
  5
30B
100
AcDbEntity
  8
0
100
AcDbLine
 62
7
  6
CONTINUOUS
 10
241.5578109056
 20
83.5167068045
 11
241.6738005443
 21
83.5341270152
  0
LINE
  5
30C
100
AcDbEntity
  8
0
100
AcDbLine
 62
7
  6
CONTINUOUS
 10
241.6738005443
 20
83.603807858
 11
241.5578109056
 21
83.5863876473
  0
LINE
  5
30D
100
AcDbEntity
  8
0
100
AcDbLine
 62
7
  6
CONTINUOUS
 10
241.5578109056
 20
83.7954301999
 11
241.6738005443
 21
83.8128504122
  0
LINE
  5
30E
100
AcDbEntity
  8
0
100
AcDbLine
 62
7
  6
CONTINUOUS
 10
241.6738005443
 20
83.8999514763
 11
241.5578109056
 21
83.8825312656
  0
LINE
  5
30F
100
AcDbEntity
  8
0
100
AcDbLine
 62
7
  6
CONTINUOUS
 10
241.3838265306
 20
84.3528769908
 11
241.2678369749
 21
84.3354567801
  0
LINE
  5
310
100
AcDbEntity
  8
0
100
AcDbLine
 62
7
  6
CONTINUOUS
 10
218.9577466825
 20
80.132205046
 11
215.8325853733
 21
79.7612146946
  0
LINE
  5
311
100
AcDbEntity
  8
0
100
AcDbLine
 62
7
  6
CONTINUOUS
 10
215.5693855828
 20
81.6164026656
 11
218.694546892
 21
81.9873930169
  0
LINE
  5
312
100
AcDbEntity
  8
0
100
AcDbLine
 62
7
  6
CONTINUOUS
 10
215.5693855828
 20
81.7190087086
 11
218.694546892
 21
82.0899990599
  0
LINE
  5
313
100
AcDbEntity
  8
0
100
AcDbLine
 62
7
  6
CONTINUOUS
 10
218.5629469967
 20
83.0688960669
 11
215.4377856876
 21
82.6979057156
  0
LINE
  5
314
100
AcDbEntity
  8
0
100
AcDbLine
 62
7
  6
CONTINUOUS
 10
234.8317714479
 20
82.1906544947
 11
234.7589473235
 21
82.1833175064
  0
LINE
  5
315
100
AcDbEntity
  8
0
100
AcDbLine
 62
7
  6
CONTINUOUS
 10
234.5870783982
 20
82.4010250008
 11
234.6599025226
 21
82.408361989
  0
LINE
  5
316
100
AcDbEntity
  8
0
100
AcDbLine
 62
7
  6
CONTINUOUS
 10
234.6816396725
 20
82.4604944178
 11
234.5359914169
 21
82.4458204427
  0
LINE
  5
317
100
AcDbEntity
  8
0
100
AcDbLine
 62
7
  6
CONTINUOUS
 10
234.7251139817
 20
82.564759305
 11
234.7979381061
 21
82.5720962933
  0
LINE
  5
318
100
AcDbEntity
  8
0
100
AcDbLine
 62
7
  6
CONTINUOUS
 10
235.5924838207
 20
81.9005274016
 11
235.6790103787
 21
81.9078890131
  0
LINE
  5
319
100
AcDbEntity
  8
0
100
AcDbLine
 62
7
  6
CONTINUOUS
 10
235.7065071109
 20
82.3627066617
 11
235.6199805572
 21
82.3553450531
  0
LINE
  5
31A
100
AcDbEntity
  8
0
100
AcDbLine
 62
7
  6
CONTINUOUS
 10
234.737210209
 20
82.1311850633
 11
234.8558771362
 21
82.1402029111
  0
LINE
  5
31B
100
AcDbEntity
  8
0
100
AcDbLine
 62
7
  6
CONTINUOUS
 10
234.8196752561
 20
82.624228722
 11
234.7010082905
 21
82.6152108852
  0
LINE
  5
31C
100
AcDbEntity
  8
0
100
AcDbLine
 62
7
  6
CONTINUOUS
 10
233.0469515306
 20
82.4002801999
 11
232.8504515306
 21
82.4002801999
  0
LINE
  5
31D
100
AcDbEntity
  8
0
100
AcDbLine
 62
7
  6
CONTINUOUS
 10
232.8504515306
 20
83.3172801999
 11
242.4134515306
 21
83.3172801999
  0
LINE
  5
31E
100
AcDbEntity
  8
0
100
AcDbLine
 62
7
  6
CONTINUOUS
 10
242.2169515306
 20
83.4155301999
 11
233.0469515306
 21
83.4155301999
  0
LINE
  5
31F
100
AcDbEntity
  8
0
100
AcDbLine
 62
7
  6
CONTINUOUS
 10
232.8504515306
 20
83.4874541918
 11
233.0469515306
 21
83.4874541918
  0
LINE
  5
320
100
AcDbEntity
  8
0
100
AcDbLine
 62
7
  6
CONTINUOUS
 10
242.2169515306
 20
83.4874541918
 11
242.4134515306
 21
83.4874541918
  0
LINE
  5
321
100
AcDbEntity
  8
0
100
AcDbLine
 62
7
  6
CONTINUOUS
 10
241.3838265306
 20
83.5167068045
 11
241.5578109056
 21
83.5167068045
  0
LINE
  5
322
100
AcDbEntity
  8
0
100
AcDbLine
 62
7
  6
CONTINUOUS
 10
241.5578109056
 20
83.5863876473
 11
241.3838265306
 21
83.5863876473
  0
LINE
  5
323
100
AcDbEntity
  8
0
100
AcDbLine
 62
7
  6
CONTINUOUS
 10
241.1808447874
 20
83.7257493511
 11
241.0358577806
 21
83.7257493511
  0
LINE
  5
324
100
AcDbEntity
  8
0
100
AcDbLine
 62
7
  6
CONTINUOUS
 10
239.9919515306
 20
83.7954301999
 11
240.1369385063
 21
83.7954301999
  0
LINE
  5
325
100
AcDbEntity
  8
0
100
AcDbLine
 62
7
  6
CONTINUOUS
 10
240.6298942528
 20
83.7954301999
 11
240.8038785863
 21
83.7954301999
  0
LINE
  5
326
100
AcDbEntity
  8
0
100
AcDbLine
 62
7
  6
CONTINUOUS
 10
241.3838265306
 20
83.7954301999
 11
241.5578109056
 21
83.7954301999
  0
LINE
  5
327
100
AcDbEntity
  8
0
100
AcDbLine
 62
7
  6
CONTINUOUS
 10
239.9919515306
 20
83.8820327403
 11
240.1369385063
 21
83.8820327403
  0
LINE
  5
328
100
AcDbEntity
  8
0
100
AcDbLine
 62
7
  6
CONTINUOUS
 10
240.6298942528
 20
83.8820327403
 11
240.6900703277
 21
83.8820327403
  0
LINE
  5
329
100
AcDbEntity
  8
0
100
AcDbLine
 62
7
  6
CONTINUOUS
 10
241.5578109056
 20
83.8825312656
 11
241.3838265306
 21
83.8820327403
  0
LINE
  5
32A
100
AcDbEntity
  8
0
100
AcDbLine
 62
7
  6
CONTINUOUS
 10
241.3838265306
 20
84.2657759374
 11
241.5578109056
 21
84.2657759374
  0
LINE
  5
32B
100
AcDbEntity
  8
0
100
AcDbLine
 62
7
  6
CONTINUOUS
 10
241.963774392
 20
84.3528769908
 11
241.8187874681
 21
84.3528769908
  0
LINE
  5
32C
100
AcDbEntity
  8
0
100
AcDbLine
 62
7
  6
CONTINUOUS
 10
241.5578109056
 20
84.3528769908
 11
241.3838265306
 21
84.3528769908
  0
LINE
  5
32D
100
AcDbEntity
  8
0
100
AcDbLine
 62
7
  6
CONTINUOUS
 10
240.6878890306
 20
84.3528769908
 11
240.5139046556
 21
84.3528769908
  0
LINE
  5
32E
100
AcDbEntity
  8
0
100
AcDbLine
 62
7
  6
CONTINUOUS
 10
240.1369385063
 20
84.6141801999
 11
239.9919515306
 21
84.6141801999
  0
LINE
  5
32F
100
AcDbEntity
  8
0
100
AcDbLine
 62
7
  6
CONTINUOUS
 10
233.0469515306
 20
84.8892801999
 11
242.2169515306
 21
84.8892801999
  0
LINE
  5
330
100
AcDbEntity
  8
0
100
AcDbLine
 62
7
  6
CONTINUOUS
 10
241.859403457
 20
84.9875301999
 11
233.4056341039
 21
84.9875301999
  0
LINE
  5
331
100
AcDbEntity
  8
0
100
AcDbLine
 62
7
  6
CONTINUOUS
 10
233.0469515306
 20
85.0594541918
 11
233.4056341039
 21
85.0594541918
  0
LINE
  5
332
100
AcDbEntity
  8
0
100
AcDbLine
 62
7
  6
CONTINUOUS
 10
241.859403457
 20
85.0594541918
 11
242.2169515306
 21
85.0594541918
  0
LINE
  5
333
100
AcDbEntity
  8
0
100
AcDbLine
 62
7
  6
CONTINUOUS
 10
235.5918566029
 20
81.9523977687
 11
235.5176013822
 21
81.9534978705
  0
LINE
  5
334
100
AcDbEntity
  8
0
100
AcDbLine
 62
7
  6
CONTINUOUS
 10
235.707134333
 20
82.3108362975
 11
235.7813895536
 21
82.3097361957
  0
LINE
  5
335
100
AcDbEntity
  8
0
100
AcDbLine
 62
7
  6
CONTINUOUS
 10
234.7589473235
 20
82.1833175064
 11
234.6942429649
 21
82.1856119406
  0
LINE
  5
336
100
AcDbEntity
  8
0
100
AcDbLine
 62
7
  6
CONTINUOUS
 10
234.6599025226
 20
82.408361989
 11
234.7246069081
 21
82.4060675492
  0
LINE
  5
337
100
AcDbEntity
  8
0
100
AcDbLine
 62
7
  6
CONTINUOUS
 10
234.7979381061
 20
82.5720962933
 11
234.8626424917
 21
82.5698018535
  0
LINE
  5
338
100
AcDbEntity
  8
0
100
AcDbLine
 62
7
  6
CONTINUOUS
 10
235.4728154976
 20
81.9051814954
 11
235.5924838207
 21
81.9005274016
  0
LINE
  5
339
100
AcDbEntity
  8
0
100
AcDbLine
 62
7
  6
CONTINUOUS
 10
235.8261753359
 20
82.3580526
 11
235.7065071109
 21
82.3627066617
  0
LINE
  5
33A
100
AcDbEntity
  8
0
100
AcDbLine
 62
7
  6
CONTINUOUS
 10
234.634782707
 20
82.1414300846
 11
234.737210209
 21
82.1311850633
  0
LINE
  5
33B
100
AcDbEntity
  8
0
100
AcDbLine
 62
7
  6
CONTINUOUS
 10
234.7840671604
 20
82.4502493984
 11
234.6816396725
 21
82.4604944178
  0
LINE
  5
33C
100
AcDbEntity
  8
0
100
AcDbLine
 62
7
  6
CONTINUOUS
 10
234.9221027439
 20
82.6139837026
 11
234.8196752561
 21
82.624228722
  0
LINE
  5
33D
100
AcDbEntity
  8
0
100
AcDbLine
 62
7
  6
CONTINUOUS
 10
241.2678369749
 20
83.5341270152
 11
241.3838265306
 21
83.5167068045
  0
LINE
  5
33E
100
AcDbEntity
  8
0
100
AcDbLine
 62
7
  6
CONTINUOUS
 10
241.2678369749
 20
83.8128504122
 11
241.3838265306
 21
83.7954301999
  0
LINE
  5
33F
100
AcDbEntity
  8
0
100
AcDbLine
 62
7
  6
CONTINUOUS
 10
241.2678369749
 20
83.8994529525
 11
241.3838265306
 21
83.8820327403
  0
LINE
  5
340
100
AcDbEntity
  8
0
100
AcDbLine
 62
7
  6
CONTINUOUS
 10
241.441821267
 20
83.8825312656
 11
241.3258317113
 21
83.8999514763
  0
LINE
  5
341
100
AcDbEntity
  8
0
100
AcDbLine
 62
7
  6
CONTINUOUS
 10
241.5578109056
 20
84.2657759374
 11
241.6738005443
 21
84.2483557267
  0
LINE
  5
342
100
AcDbEntity
  8
0
100
AcDbLine
 62
7
  6
CONTINUOUS
 10
241.6738005443
 20
84.3354567801
 11
241.5578109056
 21
84.3528769908
  0
LINE
  5
343
100
AcDbEntity
  8
0
100
AcDbLine
 62
7
  6
CONTINUOUS
 10
234.5404749715
 20
82.1613065292
 11
234.634782707
 21
82.1414300846
  0
LINE
  5
344
100
AcDbEntity
  8
0
100
AcDbLine
 62
7
  6
CONTINUOUS
 10
234.6942429649
 20
82.1856119406
 11
234.5622121137
 21
82.2134389675
  0
LINE
  5
345
100
AcDbEntity
  8
0
100
AcDbLine
 62
7
  6
CONTINUOUS
 10
234.7246069081
 20
82.4060675492
 11
234.8566377594
 21
82.3782405223
  0
LINE
  5
346
100
AcDbEntity
  8
0
100
AcDbLine
 62
7
  6
CONTINUOUS
 10
234.8783748958
 20
82.4303729538
 11
234.7840671604
 21
82.4502493984
  0
LINE
  5
347
100
AcDbEntity
  8
0
100
AcDbLine
 62
7
  6
CONTINUOUS
 10
235.0779857609
 20
82.4563592311
 11
235.1722934694
 21
82.4364827922
  0
LINE
  5
348
100
AcDbEntity
  8
0
100
AcDbLine
 62
7
  6
CONTINUOUS
 10
234.8626424917
 20
82.5698018535
 11
234.975811785
 21
82.5459501177
  0
LINE
  5
349
100
AcDbEntity
  8
0
100
AcDbLine
 62
7
  6
CONTINUOUS
 10
235.0779857609
 20
82.5429617715
 11
235.1388784715
 21
82.5301279294
  0
LINE
  5
34A
100
AcDbEntity
  8
0
100
AcDbLine
 62
7
  6
CONTINUOUS
 10
234.9975489215
 20
82.5980825492
 11
234.9221027439
 21
82.6139837026
  0
LINE
  5
34B
100
AcDbEntity
  8
0
100
AcDbLine
 62
7
  6
CONTINUOUS
 10
236.3443641596
 20
82.1373696243
 11
236.4004365327
 21
82.1248534696
  0
LINE
  5
34C
100
AcDbEntity
  8
0
100
AcDbLine
 62
7
  6
CONTINUOUS
 10
236.3543938096
 20
82.2217334035
 11
236.4004365327
 21
82.2114560099
  0
LINE
  5
34D
100
AcDbEntity
  8
0
100
AcDbLine
 62
7
  6
CONTINUOUS
 10
236.5005657703
 20
82.2369982157
 11
236.4444933972
 21
82.2495143705
  0
LINE
  5
34E
100
AcDbEntity
  8
0
100
AcDbLine
 62
7
  6
CONTINUOUS
 10
235.5176013822
 20
81.9534978705
 11
235.4224757285
 21
81.9750753874
  0
LINE
  5
34F
100
AcDbEntity
  8
0
100
AcDbLine
 62
7
  6
CONTINUOUS
 10
235.7813895536
 20
82.3097361957
 11
235.8765151125
 21
82.2881587132
  0
LINE
  5
350
100
AcDbEntity
  8
0
100
AcDbLine
 62
7
  6
CONTINUOUS
 10
235.3611190546
 20
81.9327668295
 11
235.4728154976
 21
81.9051814954
  0
LINE
  5
351
100
AcDbEntity
  8
0
100
AcDbLine
 62
7
  6
CONTINUOUS
 10
235.9378717779
 20
82.3304672652
 11
235.8261753359
 21
82.3580526
  0
LINE
  5
352
100
AcDbEntity
  8
0
100
AcDbLine
 62
7
  6
CONTINUOUS
 10
237.6319515306
 20
81.3921817002
 11
241.173654219
 21
80.3697801999
  0
LINE
  5
353
100
AcDbEntity
  8
0
100
AcDbLine
 62
7
  6
CONTINUOUS
 10
237.6319515306
 20
81.5623556921
 11
241.173654219
 21
80.5399541918
  0
LINE
  5
354
100
AcDbEntity
  8
0
100
AcDbLine
 62
7
  6
CONTINUOUS
 10
242.4134515306
 20
80.2387801999
 11
237.6319515306
 21
81.619080356
  0
LINE
  5
355
100
AcDbEntity
  8
0
100
AcDbLine
 62
7
  6
CONTINUOUS
 10
241.7217952806
 20
79.6611365694
 11
241.6638005443
 21
79.6785567801
  0
LINE
  5
356
100
AcDbEntity
  8
0
100
AcDbLine
 62
7
  6
CONTINUOUS
 10
241.3838265306
 20
83.5863876473
 11
241.2678369749
 21
83.6212280687
  0
LINE
  5
357
100
AcDbEntity
  8
0
100
AcDbLine
 62
7
  6
CONTINUOUS
 10
241.7317952806
 20
84.3180365694
 11
241.6738005443
 21
84.3354567801
  0
LINE
  5
358
100
AcDbEntity
  8
0
100
AcDbLine
 62
7
  6
CONTINUOUS
 10
234.4542869621
 20
82.1908144056
 11
234.5404749715
 21
82.1613065292
  0
LINE
  5
359
100
AcDbEntity
  8
0
100
AcDbLine
 62
7
  6
CONTINUOUS
 10
234.4542869621
 20
82.2774169459
 11
234.4714607467
 21
82.2715372196
  0
LINE
  5
35A
100
AcDbEntity
  8
0
100
AcDbLine
 62
7
  6
CONTINUOUS
 10
234.9645629194
 20
82.4008650755
 11
234.8783748958
 21
82.4303729538
  0
LINE
  5
35B
100
AcDbEntity
  8
0
100
AcDbLine
 62
7
  6
CONTINUOUS
 10
235.0837369181
 20
82.5685746766
 11
234.9975489215
 21
82.5980825492
  0
LINE
  5
35C
100
AcDbEntity
  8
0
100
AcDbLine
 62
7
  6
CONTINUOUS
 10
241.1708447874
 20
78.9120674366
 11
241.2578369749
 21
78.8772270152
  0
LINE
  5
35D
100
AcDbEntity
  8
0
100
AcDbLine
 62
7
  6
CONTINUOUS
 10
241.1708447874
 20
78.998669977
 11
241.2578369749
 21
78.9638295556
  0
LINE
  5
35E
100
AcDbEntity
  8
0
100
AcDbLine
 62
7
  6
CONTINUOUS
 10
241.1708447874
 20
79.1907908381
 11
241.2578369749
 21
79.1559504122
  0
LINE
  5
35F
100
AcDbEntity
  8
0
100
AcDbLine
 62
7
  6
CONTINUOUS
 10
241.1708447874
 20
79.2773933785
 11
241.2578369749
 21
79.2425529525
  0
LINE
  5
360
100
AcDbEntity
  8
0
100
AcDbLine
 62
7
  6
CONTINUOUS
 10
241.3158317113
 20
79.2430514763
 11
241.2288395238
 21
79.2778918977
  0
LINE
  5
361
100
AcDbEntity
  8
0
100
AcDbLine
 62
7
  6
CONTINUOUS
 10
241.6638005443
 20
79.5914557267
 11
241.7507927318
 21
79.5566153053
  0
LINE
  5
362
100
AcDbEntity
  8
0
100
AcDbLine
 62
7
  6
CONTINUOUS
 10
241.6638005443
 20
79.678058267
 11
241.719619095
 21
79.6557029052
  0
LINE
  5
363
100
AcDbEntity
  8
0
100
AcDbLine
 62
7
  6
CONTINUOUS
 10
241.1808447874
 20
83.5689674366
 11
241.2678369749
 21
83.5341270152
  0
LINE
  5
364
100
AcDbEntity
  8
0
100
AcDbLine
 62
7
  6
CONTINUOUS
 10
241.1808447874
 20
83.655569977
 11
241.2678369749
 21
83.6207295556
  0
LINE
  5
365
100
AcDbEntity
  8
0
100
AcDbLine
 62
7
  6
CONTINUOUS
 10
234.5622121137
 20
82.2134389675
 11
234.5137472058
 21
82.2349962635
  0
LINE
  5
366
100
AcDbEntity
  8
0
100
AcDbLine
 62
7
  6
CONTINUOUS
 10
234.8566377594
 20
82.3782405223
 11
234.9051026402
 21
82.356683232
  0
LINE
  5
367
100
AcDbEntity
  8
0
100
AcDbLine
 62
7
  6
CONTINUOUS
 10
234.975811785
 20
82.5459501177
 11
235.0242766928
 21
82.5243928217
  0
LINE
  5
368
100
AcDbEntity
  8
0
100
AcDbLine
 62
7
  6
CONTINUOUS
 10
235.2739652798
 20
81.9772755858
 11
235.3611190546
 21
81.9327668295
  0
LINE
  5
369
100
AcDbEntity
  8
0
100
AcDbLine
 62
7
  6
CONTINUOUS
 10
235.2739652798
 20
82.0638781262
 11
235.3399249246
 21
82.0301930476
  0
LINE
  5
36A
100
AcDbEntity
  8
0
100
AcDbLine
 62
7
  6
CONTINUOUS
 10
236.0250255537
 20
82.2859585096
 11
235.9378717779
 21
82.3304672652
  0
LINE
  5
36B
100
AcDbEntity
  8
0
100
AcDbLine
 62
7
  6
CONTINUOUS
 10
235.4224757285
 20
81.9750753874
 11
235.3518928358
 21
82.0135762906
  0
LINE
  5
36C
100
AcDbEntity
  8
0
100
AcDbLine
 62
7
  6
CONTINUOUS
 10
235.8765151125
 20
82.2881587132
 11
235.9470981001
 21
82.2496577756
  0
LINE
  5
36D
100
AcDbEntity
  8
0
100
AcDbLine
 62
7
  6
CONTINUOUS
 10
241.0838525999
 20
78.9643280687
 11
241.1708447874
 21
78.9120674366
  0
LINE
  5
36E
100
AcDbEntity
  8
0
100
AcDbLine
 62
7
  6
CONTINUOUS
 10
241.0838525999
 20
79.050930609
 11
241.1708447874
 21
78.998669977
  0
LINE
  5
36F
100
AcDbEntity
  8
0
100
AcDbLine
 62
7
  6
CONTINUOUS
 10
241.0838525999
 20
79.2430514763
 11
241.1708447874
 21
79.1907908381
  0
LINE
  5
370
100
AcDbEntity
  8
0
100
AcDbLine
 62
7
  6
CONTINUOUS
 10
241.0838525999
 20
79.3296540167
 11
241.1708447874
 21
79.2773933785
  0
LINE
  5
371
100
AcDbEntity
  8
0
100
AcDbLine
 62
7
  6
CONTINUOUS
 10
241.779790017
 20
79.626296148
 11
241.7217952806
 21
79.6611365694
  0
LINE
  5
372
100
AcDbEntity
  8
0
100
AcDbLine
 62
7
  6
CONTINUOUS
 10
234.3843384319
 20
82.2395851397
 11
234.4542869621
 21
82.1908144056
  0
LINE
  5
373
100
AcDbEntity
  8
0
100
AcDbLine
 62
7
  6
CONTINUOUS
 10
234.3843384319
 20
82.3261876801
 11
234.4542869621
 21
82.2774169459
  0
LINE
  5
374
100
AcDbEntity
  8
0
100
AcDbLine
 62
7
  6
CONTINUOUS
 10
235.0345114113
 20
82.3520943524
 11
234.9645629194
 21
82.4008650755
  0
LINE
  5
375
100
AcDbEntity
  8
0
100
AcDbLine
 62
7
  6
CONTINUOUS
 10
235.1536854639
 20
82.5198039421
 11
235.0837369181
 21
82.5685746766
  0
LINE
  5
376
100
AcDbEntity
  8
RUNDUNGEN
100
AcDbLine
 62
7
  6
CONTINUOUS
 10
241.7754884378
 20
76.3674913512
 11
239.563512051
 21
77.9470061851
  0
LINE
  5
377
100
AcDbEntity
  8
RUNDUNGEN
100
AcDbLine
 62
7
  6
CONTINUOUS
 10
230.4667424971
 20
84.4427728382
 11
220.8913377944
 21
91.2803204082
  0
LINE
  5
378
100
AcDbEntity
  8
0
100
AcDbLine
 62
7
  6
CONTINUOUS
 10
240.7938785863
 20
79.1385301999
 11
240.3589176903
 21
79.4695142518
  0
LINE
  5
379
100
AcDbEntity
  8
0
100
AcDbLine
 62
7
  6
CONTINUOUS
 10
234.5137472058
 20
82.2349962635
 11
234.4734020369
 21
82.2661849875
  0
LINE
  5
37A
100
AcDbEntity
  8
0
100
AcDbLine
 62
7
  6
CONTINUOUS
 10
234.9051026402
 20
82.356683232
 11
234.9454478091
 21
82.325494508
  0
LINE
  5
37B
100
AcDbEntity
  8
0
100
AcDbLine
 62
7
  6
CONTINUOUS
 10
235.0242766928
 20
82.5243928217
 11
235.0646218618
 21
82.4932040977
  0
LINE
  5
37C
100
AcDbEntity
  8
RUNDUNGEN
100
AcDbLine
 62
7
  6
CONTINUOUS
 10
223.0375310684
 20
73.4140806084
 11
220.7961263297
 21
88.4006964031
  0
LINE
  5
37D
100
AcDbEntity
  8
0
100
AcDbLine
 62
7
  6
CONTINUOUS
 10
217.9536646393
 20
77.0294516772
 11
217.8220647441
 21
78.0083486842
  0
LINE
  5
37E
100
AcDbEntity
  8
0
100
AcDbLine
 62
7
  6
CONTINUOUS
 10
216.6163590372
 20
86.976909834
 11
216.5060657917
 21
87.7973187541
  0
LINE
  5
37F
100
AcDbEntity
  8
0
100
AcDbLine
 62
7
  6
CONTINUOUS
 10
217.0318865834
 20
87.7571333099
 11
217.3197523216
 21
85.6158632958
  0
LINE
  5
380
100
AcDbEntity
  8
0
100
AcDbLine
 62
7
  6
CONTINUOUS
 10
218.3478855358
 20
77.96816324
 11
218.6173519879
 21
75.9637550829
  0
LINE
  5
381
100
AcDbEntity
  8
0
100
AcDbLine
 62
7
  6
CONTINUOUS
 10
217.0318865834
 20
87.8597393529
 11
217.3226596852
 21
85.6968431089
  0
LINE
  5
382
100
AcDbEntity
  8
0
100
AcDbLine
 62
7
  6
CONTINUOUS
 10
218.3478855358
 20
78.070769283
 11
218.6173519879
 21
76.0663611259
  0
LINE
  5
383
100
AcDbEntity
  8
0
100
AcDbLine
 62
7
  6
CONTINUOUS
 10
219.5167329041
 20
75.9742234734
 11
219.2209464729
 21
78.174411032
  0
LINE
  5
384
100
AcDbEntity
  8
0
100
AcDbLine
 62
7
  6
CONTINUOUS
 10
219.0893465777
 20
79.153308039
 11
218.9577466825
 21
80.132205046
  0
LINE
  5
385
100
AcDbEntity
  8
0
100
AcDbLine
 62
7
  6
CONTINUOUS
 10
218.694546892
 20
82.0899990599
 11
218.5629469967
 21
83.0688960669
  0
LINE
  5
386
100
AcDbEntity
  8
0
100
AcDbLine
 62
7
  6
CONTINUOUS
 10
218.2395872541
 20
85.4741858555
 11
217.9049475205
 21
87.9633811019
  0
LINE
  5
387
100
AcDbEntity
  8
0
100
AcDbLine
 62
7
  6
CONTINUOUS
 10
218.694546892
 20
81.9873930169
 11
218.694546892
 21
82.0899990599
  0
LINE
  5
388
100
AcDbEntity
  8
0
100
AcDbLine
 62
7
  6
CONTINUOUS
 10
219.0893465777
 20
79.050701996
 11
219.0893465777
 21
79.153308039
  0
LINE
  5
389
100
AcDbEntity
  8
0
100
AcDbLine
 62
7
  6
CONTINUOUS
 10
220.8019661714
 20
108.416121749
 11
220.8019661714
 21
108.518727792
  0
LINE
  5
38A
100
AcDbEntity
  8
0
100
AcDbLine
 62
7
  6
CONTINUOUS
 10
221.6280173598
 20
103.0999407872
 11
221.6280173598
 21
103.2025468302
  0
LINE
  5
38B
100
AcDbEntity
  8
0
100
AcDbLine
 62
7
  6
CONTINUOUS
 10
222.2197468359
 20
103.7576067597
 11
222.2197468359
 21
103.8602128027
  0
LINE
  5
38C
100
AcDbEntity
  8
0
100
AcDbLine
 62
7
  6
CONTINUOUS
 10
222.5487281121
 20
104.2408922361
 11
222.5487281121
 21
104.3434982791
  0
LINE
  5
38D
100
AcDbEntity
  8
0
100
AcDbLine
 62
7
  6
CONTINUOUS
 10
223.282200236
 20
104.8395030515
 11
223.282200236
 21
104.9421090945
  0
LINE
  5
38E
100
AcDbEntity
  8
0
100
AcDbLine
 62
7
  6
CONTINUOUS
 10
218.78336801
 20
106.5903878846
 11
218.191638534
 21
105.9327219121
  0
LINE
  5
38F
100
AcDbEntity
  8
0
100
AcDbLine
 62
7
  6
CONTINUOUS
 10
244.6732016868
 20
88.4666950848
 11
244.7550763744
 21
88.4875993377
  0
LINE
  5
390
100
AcDbEntity
  8
0
100
AcDbLine
 62
7
  6
CONTINUOUS
 10
242.8310139525
 20
88.4666950848
 11
242.9128891087
 21
88.4875993377
  0
LINE
  5
391
100
AcDbEntity
  8
0
100
AcDbLine
 62
7
  6
CONTINUOUS
 10
235.6450611111
 20
88.9314517993
 11
235.6014515404
 21
88.9203174415
  0
LINE
  5
392
100
AcDbEntity
  8
0
100
AcDbLine
 62
7
  6
CONTINUOUS
 10
235.2585393066
 20
86.9842676847
 11
235.3510074865
 21
87.0077845353
  0
LINE
  5
393
100
AcDbEntity
  8
0
100
AcDbLine
 62
7
  6
CONTINUOUS
 10
244.7960141868
 20
88.571216349
 11
244.6732016868
 21
88.5503120962
  0
LINE
  5
394
100
AcDbEntity
  8
0
100
AcDbLine
 62
7
  6
CONTINUOUS
 10
244.0182013744
 20
88.4666950848
 11
244.1410138744
 21
88.4875993377
  0
LINE
  5
395
100
AcDbEntity
  8
0
100
AcDbLine
 62
7
  6
CONTINUOUS
 10
244.1410138744
 20
88.571216349
 11
244.0182013744
 21
88.5503120962
  0
LINE
  5
396
100
AcDbEntity
  8
0
100
AcDbLine
 62
7
  6
CONTINUOUS
 10
242.9538264525
 20
88.571216349
 11
242.8310139525
 21
88.5503120962
  0
LINE
  5
397
100
AcDbEntity
  8
0
100
AcDbLine
 62
7
  6
CONTINUOUS
 10
242.1760141087
 20
88.4666950848
 11
242.2988266087
 21
88.4875993377
  0
LINE
  5
398
100
AcDbEntity
  8
0
100
AcDbLine
 62
7
  6
CONTINUOUS
 10
242.2988266087
 20
88.571216349
 11
242.1760141087
 21
88.5503120962
  0
LINE
  5
399
100
AcDbEntity
  8
0
100
AcDbLine
 62
7
  6
CONTINUOUS
 10
212.7867962901
 20
86.4196933921
 11
214.959527486
 21
86.6776200174
  0
LINE
  5
39A
100
AcDbEntity
  8
0
100
AcDbLine
 62
7
  6
CONTINUOUS
 10
215.8445996025
 20
86.7826876229
 11
216.6163590372
 21
86.874303791
  0
LINE
  5
39B
100
AcDbEntity
  8
0
100
AcDbLine
 62
7
  6
CONTINUOUS
 10
212.7867962901
 20
86.5222994351
 11
214.959527486
 21
86.7802260604
  0
LINE
  5
39C
100
AcDbEntity
  8
0
100
AcDbLine
 62
7
  6
CONTINUOUS
 10
215.8325884232
 20
86.8838678093
 11
216.6163590372
 21
86.976909834
  0
LINE
  5
39D
100
AcDbEntity
  8
0
100
AcDbLine
 62
7
  6
CONTINUOUS
 10
217.9049475205
 20
87.9633811019
 11
217.0318865834
 21
87.8597393529
  0
LINE
  5
39E
100
AcDbEntity
  8
0
100
AcDbLine
 62
7
  6
CONTINUOUS
 10
216.5060657917
 20
87.7973187541
 11
212.6765030446
 21
87.3427083553
  0
LINE
  5
39F
100
AcDbEntity
  8
0
100
AcDbLine
 62
7
  6
CONTINUOUS
 10
234.9797907761
 20
87.2534866132
 11
235.0811293771
 21
87.2630636804
  0
LINE
  5
3A0
100
AcDbEntity
  8
0
100
AcDbLine
 62
7
  6
CONTINUOUS
 10
234.9797907761
 20
87.3400891536
 11
234.9873035452
 21
87.3407991525
  0
LINE
  5
3A1
100
AcDbEntity
  8
0
100
AcDbLine
 62
7
  6
CONTINUOUS
 10
235.2413359267
 20
87.0354208299
 11
235.1676839484
 21
87.0305714799
  0
LINE
  5
3A2
100
AcDbEntity
  8
0
100
AcDbLine
 62
7
  6
CONTINUOUS
 10
235.1389219704
 20
86.9792966993
 11
235.2585393066
 21
86.9842676847
  0
LINE
  5
3A3
100
AcDbEntity
  8
0
100
AcDbLine
 62
7
  6
CONTINUOUS
 10
235.1098913494
 20
87.3143384552
 11
234.9902740156
 21
87.3093674723
  0
LINE
  5
3A4
100
AcDbEntity
  8
0
100
AcDbLine
 62
7
  6
CONTINUOUS
 10
233.0469515306
 20
87.3455301999
 11
232.8504515306
 21
87.3455301999
  0
LINE
  5
3A5
100
AcDbEntity
  8
0
100
AcDbLine
 62
7
  6
CONTINUOUS
 10
229.5754515306
 20
87.9022801999
 11
234.8809515306
 21
87.9022801999
  0
LINE
  5
3A6
100
AcDbEntity
  8
0
100
AcDbLine
 62
7
  6
CONTINUOUS
 10
240.9069515306
 20
87.9022801999
 11
241.1525765306
 21
87.9022801999
  0
LINE
  5
3A7
100
AcDbEntity
  8
0
100
AcDbLine
 62
7
  6
CONTINUOUS
 10
241.8894515306
 20
87.9022801999
 11
242.0941389525
 21
87.9022801999
  0
LINE
  5
3A8
100
AcDbEntity
  8
0
100
AcDbLine
 62
7
  6
CONTINUOUS
 10
242.5444516087
 20
87.9022801999
 11
242.7491390306
 21
87.9022801999
  0
LINE
  5
3A9
100
AcDbEntity
  8
0
100
AcDbLine
 62
7
  6
CONTINUOUS
 10
243.1994514525
 20
87.9022801999
 11
243.4041391087
 21
87.9022801999
  0
LINE
  5
3AA
100
AcDbEntity
  8
0
100
AcDbLine
 62
7
  6
CONTINUOUS
 10
243.7316390306
 20
87.9022801999
 11
243.9363266868
 21
87.9022801999
  0
LINE
  5
3AB
100
AcDbEntity
  8
0
100
AcDbLine
 62
7
  6
CONTINUOUS
 10
244.3866388744
 20
87.9022801999
 11
244.5913265306
 21
87.9022801999
  0
LINE
  5
3AC
100
AcDbEntity
  8
0
100
AcDbLine
 62
7
  6
CONTINUOUS
 10
245.0416391868
 20
87.9022801999
 11
245.2463263744
 21
87.9022801999
  0
LINE
  5
3AD
100
AcDbEntity
  8
0
100
AcDbLine
 62
7
  6
CONTINUOUS
 10
234.6844515306
 20
88.0005301999
 11
229.7719515306
 21
88.0005301999
  0
LINE
  5
3AE
100
AcDbEntity
  8
0
100
AcDbLine
 62
7
  6
CONTINUOUS
 10
235.8470765111
 20
88.0005301999
 11
235.9438287806
 21
88.0005301999
  0
LINE
  5
3AF
100
AcDbEntity
  8
0
100
AcDbLine
 62
7
  6
CONTINUOUS
 10
229.5754515306
 20
88.0724541918
 11
229.7719515306
 21
88.0724541918
  0
LINE
  5
3B0
100
AcDbEntity
  8
0
100
AcDbLine
 62
7
  6
CONTINUOUS
 10
234.6844515306
 20
88.0724541918
 11
234.8809515306
 21
88.0724541918
  0
LINE
  5
3B1
100
AcDbEntity
  8
0
100
AcDbLine
 62
7
  6
CONTINUOUS
 10
240.9069515306
 20
88.0724541918
 11
241.1525765306
 21
88.0724541918
  0
LINE
  5
3B2
100
AcDbEntity
  8
0
100
AcDbLine
 62
7
  6
CONTINUOUS
 10
241.8894515306
 20
88.0724541918
 11
242.0941389525
 21
88.0724541918
  0
LINE
  5
3B3
100
AcDbEntity
  8
0
100
AcDbLine
 62
7
  6
CONTINUOUS
 10
242.5444516087
 20
88.0724541918
 11
242.7491390306
 21
88.0724541918
  0
LINE
  5
3B4
100
AcDbEntity
  8
0
100
AcDbLine
 62
7
  6
CONTINUOUS
 10
243.1994514525
 20
88.0724541918
 11
243.4041391087
 21
88.0724541918
  0
LINE
  5
3B5
100
AcDbEntity
  8
0
100
AcDbLine
 62
7
  6
CONTINUOUS
 10
243.7316390306
 20
88.0724541918
 11
243.9363266868
 21
88.0724541918
  0
LINE
  5
3B6
100
AcDbEntity
  8
0
100
AcDbLine
 62
7
  6
CONTINUOUS
 10
244.3866388744
 20
88.0724541918
 11
244.5913265306
 21
88.0724541918
  0
LINE
  5
3B7
100
AcDbEntity
  8
0
100
AcDbLine
 62
7
  6
CONTINUOUS
 10
245.0416391868
 20
88.0724541918
 11
245.2463263744
 21
88.0724541918
  0
LINE
  5
3B8
100
AcDbEntity
  8
0
100
AcDbLine
 62
7
  6
CONTINUOUS
 10
235.8767874372
 20
88.1259557316
 11
235.8470765111
 21
88.1259557316
  0
LINE
  5
3B9
100
AcDbEntity
  8
0
100
AcDbLine
 62
7
  6
CONTINUOUS
 10
239.9244515306
 20
88.1949397688
 11
240.9069515306
 21
88.1949397688
  0
LINE
  5
3BA
100
AcDbEntity
  8
0
100
AcDbLine
 62
7
  6
CONTINUOUS
 10
241.1525765306
 20
88.1949397688
 11
241.5619514916
 21
88.1949397688
  0
LINE
  5
3BB
100
AcDbEntity
  8
0
100
AcDbLine
 62
7
  6
CONTINUOUS
 10
235.5195765306
 20
88.272285516
 11
235.2739515306
 21
88.272285516
  0
LINE
  5
3BC
100
AcDbEntity
  8
0
100
AcDbLine
 62
7
  6
CONTINUOUS
 10
241.5619514916
 20
88.3203653151
 11
241.1525765306
 21
88.3203653151
  0
LINE
  5
3BD
100
AcDbEntity
  8
0
100
AcDbLine
 62
7
  6
CONTINUOUS
 10
240.9069515306
 20
88.3203653151
 11
240.2110140209
 21
88.3203653151
  0
LINE
  5
3BE
100
AcDbEntity
  8
0
100
AcDbLine
 62
7
  6
CONTINUOUS
 10
240.0023469742
 20
88.3651137607
 11
240.2110140209
 21
88.3651137607
  0
LINE
  5
3BF
100
AcDbEntity
  8
0
100
AcDbLine
 62
7
  6
CONTINUOUS
 10
242.2988266087
 20
88.4875993377
 11
242.3807015306
 21
88.4875993377
  0
LINE
  5
3C0
100
AcDbEntity
  8
0
100
AcDbLine
 62
7
  6
CONTINUOUS
 10
242.9128891087
 20
88.4875993377
 11
243.0357016087
 21
88.4875993377
  0
LINE
  5
3C1
100
AcDbEntity
  8
0
100
AcDbLine
 62
7
  6
CONTINUOUS
 10
244.1410138744
 20
88.4875993377
 11
244.2228890306
 21
88.4875993377
  0
LINE
  5
3C2
100
AcDbEntity
  8
0
100
AcDbLine
 62
7
  6
CONTINUOUS
 10
244.7550763744
 20
88.4875993377
 11
244.8778888744
 21
88.4875993377
  0
LINE
  5
3C3
100
AcDbEntity
  8
0
100
AcDbLine
 62
7
  6
CONTINUOUS
 10
244.9597640306
 20
88.571216349
 11
244.7960141868
 21
88.571216349
  0
LINE
  5
3C4
100
AcDbEntity
  8
0
100
AcDbLine
 62
7
  6
CONTINUOUS
 10
244.3047641868
 20
88.571216349
 11
244.1410138744
 21
88.571216349
  0
LINE
  5
3C5
100
AcDbEntity
  8
0
100
AcDbLine
 62
7
  6
CONTINUOUS
 10
243.9363266868
 20
88.571216349
 11
243.7316390306
 21
88.571216349
  0
LINE
  5
3C6
100
AcDbEntity
  8
0
100
AcDbLine
 62
7
  6
CONTINUOUS
 10
243.1175765306
 20
88.571216349
 11
242.9538264525
 21
88.571216349
  0
LINE
  5
3C7
100
AcDbEntity
  8
0
100
AcDbLine
 62
7
  6
CONTINUOUS
 10
242.4625764525
 20
88.571216349
 11
242.2988266087
 21
88.571216349
  0
LINE
  5
3C8
100
AcDbEntity
  8
0
100
AcDbLine
 62
7
  6
CONTINUOUS
 10
242.0941389525
 20
88.571216349
 11
241.8894515306
 21
88.571216349
  0
LINE
  5
3C9
100
AcDbEntity
  8
0
100
AcDbLine
 62
7
  6
CONTINUOUS
 10
241.1525765306
 20
88.8847801999
 11
240.9069515306
 21
88.8847801999
  0
LINE
  5
3CA
100
AcDbEntity
  8
0
100
AcDbLine
 62
7
  6
CONTINUOUS
 10
229.7719515306
 20
89.3105301999
 11
234.6844515306
 21
89.3105301999
  0
LINE
  5
3CB
100
AcDbEntity
  8
0
100
AcDbLine
 62
7
  6
CONTINUOUS
 10
234.8809515306
 20
89.4087801999
 11
229.5754515306
 21
89.4087801999
  0
LINE
  5
3CC
100
AcDbEntity
  8
0
100
AcDbLine
 62
7
  6
CONTINUOUS
 10
235.6423890306
 20
88.0214344546
 11
235.8470765111
 21
88.0005301999
  0
LINE
  5
3CD
100
AcDbEntity
  8
0
100
AcDbLine
 62
7
  6
CONTINUOUS
 10
235.1676839484
 20
87.0305714799
 11
235.0851614411
 21
87.0396619364
  0
LINE
  5
3CE
100
AcDbEntity
  8
0
100
AcDbLine
 62
7
  6
CONTINUOUS
 10
235.0811293771
 20
87.2630636804
 11
235.1636518844
 21
87.2539732239
  0
LINE
  5
3CF
100
AcDbEntity
  8
0
100
AcDbLine
 62
7
  6
CONTINUOUS
 10
234.1823520386
 20
87.1611355667
 11
234.3014076068
 21
87.1460633916
  0
LINE
  5
3D0
100
AcDbEntity
  8
0
100
AcDbLine
 62
7
  6
CONTINUOUS
 10
234.2235647437
 20
87.2425206686
 11
234.3014076068
 21
87.232665932
  0
LINE
  5
3D1
100
AcDbEntity
  8
0
100
AcDbLine
 62
7
  6
CONTINUOUS
 10
233.7779631098
 20
87.3632777073
 11
234.2541853824
 21
87.3029890069
  0
LINE
  5
3D2
100
AcDbEntity
  8
0
100
AcDbLine
 62
7
  6
CONTINUOUS
 10
234.3732409505
 20
87.2879168318
 11
234.5716668785
 21
87.2627965423
  0
LINE
  5
3D3
100
AcDbEntity
  8
0
100
AcDbLine
 62
7
  6
CONTINUOUS
 10
234.6024526014
 20
87.323590882
 11
234.4040266734
 21
87.3487111714
  0
LINE
  5
3D4
100
AcDbEntity
  8
0
100
AcDbLine
 62
7
  6
CONTINUOUS
 10
234.2849711053
 20
87.3637833465
 11
233.9476469908
 21
87.4064878432
  0
LINE
  5
3D5
100
AcDbEntity
  8
0
100
AcDbLine
 62
7
  6
CONTINUOUS
 10
233.8550189942
 20
87.4401251409
 11
233.9503770943
 21
87.4280530135
  0
LINE
  5
3D6
100
AcDbEntity
  8
0
100
AcDbLine
 62
7
  6
CONTINUOUS
 10
234.3732409505
 20
87.3745193722
 11
234.4067567769
 21
87.3702763417
  0
LINE
  5
3D7
100
AcDbEntity
  8
0
100
AcDbLine
 62
7
  6
CONTINUOUS
 10
234.5425624083
 20
87.6222856642
 11
234.4235068402
 21
87.6373578393
  0
LINE
  5
3D8
100
AcDbEntity
  8
0
100
AcDbLine
 62
7
  6
CONTINUOUS
 10
235.8470765111
 20
88.1259557316
 11
235.6833265209
 21
88.1468599844
  0
LINE
  5
3D9
100
AcDbEntity
  8
0
100
AcDbLine
 62
7
  6
CONTINUOUS
 10
235.0381209387
 20
86.9929931866
 11
235.1389219704
 21
86.9792966993
  0
LINE
  5
3DA
100
AcDbEntity
  8
0
100
AcDbLine
 62
7
  6
CONTINUOUS
 10
235.2106923802
 20
87.3006419672
 11
235.1098913494
 21
87.3143384552
  0
LINE
  5
3DB
100
AcDbEntity
  8
0
100
AcDbLine
 62
7
  6
CONTINUOUS
 10
242.5853889525
 20
88.5503120962
 11
242.4625764525
 21
88.571216349
  0
LINE
  5
3DC
100
AcDbEntity
  8
0
100
AcDbLine
 62
7
  6
CONTINUOUS
 10
243.2403890306
 20
88.5503120962
 11
243.1175765306
 21
88.571216349
  0
LINE
  5
3DD
100
AcDbEntity
  8
0
100
AcDbLine
 62
7
  6
CONTINUOUS
 10
244.4275766868
 20
88.5503120962
 11
244.3047641868
 21
88.571216349
  0
LINE
  5
3DE
100
AcDbEntity
  8
0
100
AcDbLine
 62
7
  6
CONTINUOUS
 10
245.0825765306
 20
88.5503120962
 11
244.9597640306
 21
88.571216349
  0
LINE
  5
3DF
100
AcDbEntity
  8
0
100
AcDbLine
 62
7
  6
CONTINUOUS
 10
236.0362882077
 20
87.2587276522
 11
236.0941937079
 21
87.2485090346
  0
LINE
  5
3E0
100
AcDbEntity
  8
0
100
AcDbLine
 62
7
  6
CONTINUOUS
 10
236.0362882077
 20
87.3453301926
 11
236.0941937079
 21
87.3351115749
  0
LINE
  5
3E1
100
AcDbEntity
  8
0
100
AcDbLine
 62
7
  6
CONTINUOUS
 10
236.1759426493
 20
87.3643200349
 11
236.1180371491
 21
87.3745386526
  0
LINE
  5
3E2
100
AcDbEntity
  8
0
100
AcDbLine
 62
7
  6
CONTINUOUS
 10
234.9284493789
 20
87.0206294812
 11
235.0381209387
 21
86.9929931866
  0
LINE
  5
3E3
100
AcDbEntity
  8
0
100
AcDbLine
 62
7
  6
CONTINUOUS
 10
235.0851614411
 20
87.0396619364
 11
234.9754898813
 21
87.067298231
  0
LINE
  5
3E4
100
AcDbEntity
  8
0
100
AcDbLine
 62
7
  6
CONTINUOUS
 10
234.8768392423
 20
87.1740889201
 11
234.7671676824
 21
87.2017252147
  0
LINE
  5
3E5
100
AcDbEntity
  8
0
100
AcDbLine
 62
7
  6
CONTINUOUS
 10
234.8518405881
 20
87.2857289657
 11
234.9797907761
 21
87.2534866132
  0
LINE
  5
3E6
100
AcDbEntity
  8
0
100
AcDbLine
 62
7
  6
CONTINUOUS
 10
235.1636518844
 20
87.2539732239
 11
235.2733234442
 21
87.2263369293
  0
LINE
  5
3E7
100
AcDbEntity
  8
0
100
AcDbLine
 62
7
  6
CONTINUOUS
 10
234.9214518189
 20
87.3547900716
 11
234.9797907761
 21
87.3400891536
  0
LINE
  5
3E8
100
AcDbEntity
  8
0
100
AcDbLine
 62
7
  6
CONTINUOUS
 10
235.3203639401
 20
87.2730056726
 11
235.2106923802
 21
87.3006419672
  0
LINE
  5
3E9
100
AcDbEntity
  8
0
100
AcDbLine
 62
7
  6
CONTINUOUS
 10
235.1408036286
 20
87.458707477
 11
235.6708829043
 21
87.3251320356
  0
LINE
  5
3EA
100
AcDbEntity
  8
0
100
AcDbLine
 62
7
  6
CONTINUOUS
 10
235.7179234001
 20
87.3718007789
 11
235.0964511928
 21
87.5284064571
  0
LINE
  5
3EB
100
AcDbEntity
  8
0
100
AcDbLine
 62
7
  6
CONTINUOUS
 10
235.6014515404
 20
88.5022323264
 11
235.7327705521
 21
88.46870407
  0
LINE
  5
3EC
100
AcDbEntity
  8
0
100
AcDbLine
 62
7
  6
CONTINUOUS
 10
235.6014515404
 20
88.6724063182
 11
235.6646485469
 21
88.6562709133
  0
LINE
  5
3ED
100
AcDbEntity
  8
0
100
AcDbLine
 62
7
  6
CONTINUOUS
 10
242.3807015306
 20
88.4875993377
 11
242.4625764525
 21
88.4666950848
  0
LINE
  5
3EE
100
AcDbEntity
  8
0
100
AcDbLine
 62
7
  6
CONTINUOUS
 10
243.0357016087
 20
88.4875993377
 11
243.1175765306
 21
88.4666950848
  0
LINE
  5
3EF
100
AcDbEntity
  8
0
100
AcDbLine
 62
7
  6
CONTINUOUS
 10
244.2228890306
 20
88.4875993377
 11
244.3047641868
 21
88.4666950848
  0
LINE
  5
3F0
100
AcDbEntity
  8
0
100
AcDbLine
 62
7
  6
CONTINUOUS
 10
244.8778888744
 20
88.4875993377
 11
244.9597640306
 21
88.4666950848
  0
LINE
  5
3F1
100
AcDbEntity
  8
0
100
AcDbLine
 62
7
  6
CONTINUOUS
 10
235.4377015355
 20
88.0841472186
 11
235.6423890306
 21
88.0214344546
  0
LINE
  5
3F2
100
AcDbEntity
  8
0
100
AcDbLine
 62
7
  6
CONTINUOUS
 10
235.4377015355
 20
88.2543212104
 11
235.5547036483
 21
88.2184737549
  0
LINE
  5
3F3
100
AcDbEntity
  8
0
100
AcDbLine
 62
7
  6
CONTINUOUS
 10
234.8464645472
 20
87.0529934674
 11
234.9284493789
 21
87.0206294812
  0
LINE
  5
3F4
100
AcDbEntity
  8
0
100
AcDbLine
 62
7
  6
CONTINUOUS
 10
234.8464645472
 20
87.1395960077
 11
234.8759306776
 21
87.1279640825
  0
LINE
  5
3F5
100
AcDbEntity
  8
0
100
AcDbLine
 62
7
  6
CONTINUOUS
 10
235.4023487726
 20
87.2406416872
 11
235.3203639401
 21
87.2730056726
  0
LINE
  5
3F6
100
AcDbEntity
  8
0
100
AcDbLine
 62
7
  6
CONTINUOUS
 10
241.1808447874
 20
83.8476908381
 11
241.2678369749
 21
83.8128504122
  0
LINE
  5
3F7
100
AcDbEntity
  8
0
100
AcDbLine
 62
7
  6
CONTINUOUS
 10
241.1808447874
 20
83.9342933785
 11
241.2678369749
 21
83.8994529525
  0
LINE
  5
3F8
100
AcDbEntity
  8
0
100
AcDbLine
 62
7
  6
CONTINUOUS
 10
241.3258317113
 20
83.8999514763
 11
241.2388395238
 21
83.9347918977
  0
LINE
  5
3F9
100
AcDbEntity
  8
0
100
AcDbLine
 62
7
  6
CONTINUOUS
 10
241.6738005443
 20
84.2483557267
 11
241.7607927318
 21
84.2135153053
  0
LINE
  5
3FA
100
AcDbEntity
  8
0
100
AcDbLine
 62
7
  6
CONTINUOUS
 10
241.6738005443
 20
84.334958267
 11
241.729619095
 21
84.3126029052
  0
LINE
  5
3FB
100
AcDbEntity
  8
0
100
AcDbLine
 62
7
  6
CONTINUOUS
 10
234.9754898813
 20
87.067298231
 11
234.9117835723
 21
87.0950561849
  0
LINE
  5
3FC
100
AcDbEntity
  8
0
100
AcDbLine
 62
7
  6
CONTINUOUS
 10
235.2733234442
 20
87.2263369293
 11
235.3370297532
 21
87.1985789754
  0
LINE
  5
3FD
100
AcDbEntity
  8
0
100
AcDbLine
 62
7
  6
CONTINUOUS
 10
237.7150961825
 20
87.0727446372
 11
241.859403457
 21
84.9875301999
  0
LINE
  5
3FE
100
AcDbEntity
  8
0
100
AcDbLine
 62
7
  6
CONTINUOUS
 10
237.9979450116
 20
87.1006028153
 11
241.859403457
 21
85.1577041918
  0
LINE
  5
3FF
100
AcDbEntity
  8
0
100
AcDbLine
 62
7
  6
CONTINUOUS
 10
242.4134515306
 20
84.9875301999
 11
238.1387401174
 21
87.1383576756
  0
LINE
  5
400
100
AcDbEntity
  8
0
100
AcDbLine
 62
7
  6
CONTINUOUS
 10
235.6833265209
 20
88.1468599844
 11
235.5605140209
 21
88.2095727575
  0
LINE
  5
401
100
AcDbEntity
  8
0
100
AcDbLine
 62
7
  6
CONTINUOUS
 10
235.4377015355
 20
88.5858493377
 11
235.6014515404
 21
88.5022323264
  0
LINE
  5
402
100
AcDbEntity
  8
0
100
AcDbLine
 62
7
  6
CONTINUOUS
 10
235.4377015355
 20
88.7560233295
 11
235.6014515404
 21
88.6724063182
  0
LINE
  5
403
100
AcDbEntity
  8
0
100
AcDbLine
 62
7
  6
CONTINUOUS
 10
241.0938525999
 20
83.6212280687
 11
241.1808447874
 21
83.5689674366
  0
LINE
  5
404
100
AcDbEntity
  8
0
100
AcDbLine
 62
7
  6
CONTINUOUS
 10
241.0938525999
 20
83.707830609
 11
241.1808447874
 21
83.655569977
  0
LINE
  5
405
100
AcDbEntity
  8
0
100
AcDbLine
 62
7
  6
CONTINUOUS
 10
241.0938525999
 20
83.8999514763
 11
241.1808447874
 21
83.8476908381
  0
LINE
  5
406
100
AcDbEntity
  8
0
100
AcDbLine
 62
7
  6
CONTINUOUS
 10
241.0938525999
 20
83.9865540167
 11
241.1808447874
 21
83.9342933785
  0
LINE
  5
407
100
AcDbEntity
  8
0
100
AcDbLine
 62
7
  6
CONTINUOUS
 10
241.789790017
 20
84.283196148
 11
241.7317952806
 21
84.3180365694
  0
LINE
  5
408
100
AcDbEntity
  8
RUNDUNGEN
100
AcDbLine
 62
7
  6
CONTINUOUS
 10
226.9440039635
 20
90.7938517961
 11
223.9728780232
 21
92.9154555908
  0
LINE
  5
409
100
AcDbEntity
  8
RUNDUNGEN
100
AcDbLine
 62
7
  6
CONTINUOUS
 10
226.9440039635
 20
92.5259026037
 11
223.9728780232
 21
94.6475063984
  0
LINE
  5
40A
100
AcDbEntity
  8
RUNDUNGEN
100
AcDbLine
 62
7
  6
CONTINUOUS
 10
244.7971605641
 20
81.0615397459
 11
250.7765852976
 21
76.7917879886
  0
LINE
  5
40B
100
AcDbEntity
  8
RUNDUNGEN
100
AcDbLine
 62
7
  6
CONTINUOUS
 10
244.7971605641
 20
82.7935905535
 11
250.7765852976
 21
78.5238387962
  0
LINE
  5
40C
100
AcDbEntity
  8
0
100
AcDbLine
 62
7
  6
CONTINUOUS
 10
240.8038785863
 20
83.7954301999
 11
240.3689176903
 21
84.1264142518
  0
LINE
  5
40D
100
AcDbEntity
  8
0
100
AcDbLine
 62
7
  6
CONTINUOUS
 10
240.271925482
 20
79.4172535954
 11
240.6198942528
 21
79.1385301999
  0
LINE
  5
40E
100
AcDbEntity
  8
0
100
AcDbLine
 62
7
  6
CONTINUOUS
 10
240.271925482
 20
79.5038561358
 11
240.6198942528
 21
79.2251327403
  0
LINE
  5
40F
100
AcDbEntity
  8
0
100
AcDbLine
 62
7
  6
CONTINUOUS
 10
240.281925482
 20
84.0741535954
 11
240.6298942528
 21
83.7954301999
  0
LINE
  5
410
100
AcDbEntity
  8
0
100
AcDbLine
 62
7
  6
CONTINUOUS
 10
240.281925482
 20
84.1607561358
 11
240.6298942528
 21
83.8820327403
  0
LINE
  5
411
100
AcDbEntity
  8
0
100
AcDbLine
 62
7
  6
CONTINUOUS
 10
234.7832958109
 20
87.1040249789
 11
234.8464645472
 21
87.0529934674
  0
LINE
  5
412
100
AcDbEntity
  8
0
100
AcDbLine
 62
7
  6
CONTINUOUS
 10
234.7832958109
 20
87.1906275192
 11
234.8464645472
 21
87.1395960077
  0
LINE
  5
413
100
AcDbEntity
  8
0
100
AcDbLine
 62
7
  6
CONTINUOUS
 10
235.4655175113
 20
87.1896101781
 11
235.4023487726
 21
87.2406416872
  0
LINE
  5
414
100
AcDbEntity
  8
0
100
AcDbLine
 62
7
  6
CONTINUOUS
 10
235.3148890318
 20
88.1886685047
 11
235.4377015355
 21
88.0841472186
  0
LINE
  5
415
100
AcDbEntity
  8
0
100
AcDbLine
 62
7
  6
CONTINUOUS
 10
235.4165934777
 20
88.272285516
 11
235.4377015355
 21
88.2543212104
  0
LINE
  5
416
100
AcDbEntity
  8
0
100
AcDbLine
 62
7
  6
CONTINUOUS
 10
241.2578369749
 20
78.9643280687
 11
241.1998421556
 21
79.0165887129
  0
LINE
  5
417
100
AcDbEntity
  8
0
100
AcDbLine
 62
7
  6
CONTINUOUS
 10
241.7507927318
 20
79.5566153053
 11
241.8087874681
 21
79.5043546732
  0
LINE
  5
418
100
AcDbEntity
  8
0
100
AcDbLine
 62
7
  6
CONTINUOUS
 10
241.7507927318
 20
79.6432178457
 11
241.775210585
 21
79.6212142549
  0
LINE
  5
419
100
AcDbEntity
  8
0
100
AcDbLine
 62
7
  6
CONTINUOUS
 10
234.9117835723
 20
87.0950561849
 11
234.8757639908
 21
87.1275418295
  0
LINE
  5
41A
100
AcDbEntity
  8
0
100
AcDbLine
 62
7
  6
CONTINUOUS
 10
235.3370297532
 20
87.1985789754
 11
235.3730493348
 21
87.1660933308
  0
LINE
  5
41B
100
AcDbEntity
  8
0
100
AcDbLine
 62
7
  6
CONTINUOUS
 10
241.0548551488
 20
79.2778918977
 11
241.0838525999
 21
79.2430514763
  0
LINE
  5
41C
100
AcDbEntity
  8
0
100
AcDbLine
 62
7
  6
CONTINUOUS
 10
241.0548551488
 20
79.364494438
 11
241.0838525999
 21
79.3296540167
  0
LINE
  5
41D
100
AcDbEntity
  8
0
100
AcDbLine
 62
7
  6
CONTINUOUS
 10
235.2279250564
 20
82.0326999121
 11
235.2739652798
 21
81.9772755858
  0
LINE
  5
41E
100
AcDbEntity
  8
0
100
AcDbLine
 62
7
  6
CONTINUOUS
 10
235.2279250564
 20
82.1193024525
 11
235.2739652798
 21
82.0638781262
  0
LINE
  5
41F
100
AcDbEntity
  8
0
100
AcDbLine
 62
7
  6
CONTINUOUS
 10
236.0710658752
 20
82.2305341511
 11
236.0250255537
 21
82.2859585096
  0
LINE
  5
420
100
AcDbEntity
  8
0
100
AcDbLine
 62
7
  6
CONTINUOUS
 10
234.9454478091
 20
82.325494508
 11
234.9669314472
 21
82.2982810694
  0
LINE
  5
421
100
AcDbEntity
  8
0
100
AcDbLine
 62
7
  6
CONTINUOUS
 10
234.9505191115
 20
82.4056732026
 11
234.9669314472
 21
82.3848836098
  0
LINE
  5
422
100
AcDbEntity
  8
0
100
AcDbLine
 62
7
  6
CONTINUOUS
 10
235.0667368413
 20
82.3112742003
 11
235.0345114113
 21
82.3520943524
  0
LINE
  5
423
100
AcDbEntity
  8
0
100
AcDbLine
 62
7
  6
CONTINUOUS
 10
235.3518928358
 20
82.0135762906
 11
235.3267229475
 21
82.048523234
  0
LINE
  5
424
100
AcDbEntity
  8
0
100
AcDbLine
 62
7
  6
CONTINUOUS
 10
235.9470981001
 20
82.2496577756
 11
235.9722679884
 21
82.2147108322
  0
LINE
  5
425
100
AcDbEntity
  8
0
100
AcDbLine
 62
7
  6
CONTINUOUS
 10
235.9590660387
 20
82.319643521
 11
235.9722679884
 21
82.3013133726
  0
LINE
  5
426
100
AcDbEntity
  8
0
100
AcDbLine
 62
7
  6
CONTINUOUS
 10
220.8019661714
 20
108.416121749
 11
222.5487281121
 21
104.2408922361
  0
LINE
  5
427
100
AcDbEntity
  8
0
100
AcDbLine
 62
7
  6
CONTINUOUS
 10
220.8019661714
 20
108.518727792
 11
222.5487281121
 21
104.3434982791
  0
LINE
  5
428
100
AcDbEntity
  8
0
100
AcDbLine
 62
7
  6
CONTINUOUS
 10
224.1104581748
 20
110.8737157178
 11
224.1104581748
 21
110.9763217608
  0
LINE
  5
429
100
AcDbEntity
  8
0
100
AcDbLine
 62
7
  6
CONTINUOUS
 10
224.1258356605
 20
106.7067414301
 11
224.1258356605
 21
106.8093474731
  0
LINE
  5
42A
100
AcDbEntity
  8
RUNDUNGEN
100
AcDbLine
 62
7
  6
CONTINUOUS
 10
224.1319515306
 20
74.5730301999
 11
224.1319515306
 21
77.9602999474
  0
LINE
  5
42B
100
AcDbEntity
  8
0
100
AcDbLine
 62
7
  6
CONTINUOUS
 10
224.9821027061
 20
106.2268495783
 11
224.9821027061
 21
106.3294556213
  0
LINE
  5
42C
100
AcDbEntity
  8
0
100
AcDbLine
 62
7
  6
CONTINUOUS
 10
225.7386401389
 20
106.8442847537
 11
225.7386401389
 21
106.9468907967
  0
LINE
  5
42D
100
AcDbEntity
  8
0
100
AcDbLine
 62
7
  6
CONTINUOUS
 10
226.2238163291
 20
107.1404365794
 11
226.2238163291
 21
107.2430426224
  0
LINE
  5
42E
100
AcDbEntity
  8
0
100
AcDbLine
 62
7
  6
CONTINUOUS
 10
226.5178624807
 20
109.3717264953
 11
226.5178624807
 21
109.4743325383
  0
LINE
  5
42F
100
AcDbEntity
  8
RUNDUNGEN
100
AcDbLine
 62
7
  6
CONTINUOUS
 10
226.9819515306
 20
74.9660301999
 11
226.9819515306
 21
73.6887801999
  0
LINE
  5
430
100
AcDbEntity
  8
0
100
AcDbLine
 62
7
  6
CONTINUOUS
 10
227.0329553036
 20
107.5448982711
 11
227.0329553036
 21
107.6475043141
  0
LINE
  5
431
100
AcDbEntity
  8
0
100
AcDbLine
 62
7
  6
CONTINUOUS
 10
227.5034480942
 20
112.5697586548
 11
227.5034480942
 21
112.6723646978
  0
LINE
  5
432
100
AcDbEntity
  8
0
100
AcDbLine
 62
7
  6
CONTINUOUS
 10
226.4731439425
 20
112.1573498817
 11
225.8263468777
 21
109.7789963452
  0
LINE
  5
433
100
AcDbEntity
  8
0
100
AcDbLine
 62
7
  6
CONTINUOUS
 10
226.7817599134
 20
110.3346151585
 11
227.5034480942
 21
112.6723646978
  0
LINE
  5
434
100
AcDbEntity
  8
0
100
AcDbLine
 62
7
  6
CONTINUOUS
 10
226.8106793992
 20
110.3256874052
 11
227.5034480942
 21
112.5697586548
  0
LINE
  5
435
100
AcDbEntity
  8
0
100
AcDbLine
 62
7
  6
CONTINUOUS
 10
226.3227636812
 20
108.9020685547
 11
226.5178624807
 21
109.4743325383
  0
LINE
  5
436
100
AcDbEntity
  8
0
100
AcDbLine
 62
7
  6
CONTINUOUS
 10
226.3445960731
 20
108.8635013043
 11
226.5178624807
 21
109.3717264953
  0
LINE
  5
437
100
AcDbEntity
  8
0
100
AcDbLine
 62
7
  6
CONTINUOUS
 10
221.6280173598
 20
103.2025468302
 11
222.2197468359
 21
103.8602128027
  0
LINE
  5
438
100
AcDbEntity
  8
0
100
AcDbLine
 62
7
  6
CONTINUOUS
 10
221.6280173598
 20
103.0999407872
 11
222.2197468359
 21
103.7576067597
  0
LINE
  5
439
100
AcDbEntity
  8
0
100
AcDbLine
 62
7
  6
CONTINUOUS
 10
221.5838752617
 20
109.1568696147
 11
220.8019661714
 21
108.518727792
  0
LINE
  5
43A
100
AcDbEntity
  8
0
100
AcDbLine
 62
7
  6
CONTINUOUS
 10
223.4009279177
 20
107.2215392213
 11
222.5659691638
 21
106.5401018167
  0
LINE
  5
43B
100
AcDbEntity
  8
0
100
AcDbLine
 62
7
  6
CONTINUOUS
 10
222.8964623322
 20
105.806015313
 11
224.1258356605
 21
106.8093474731
  0
LINE
  5
43C
100
AcDbEntity
  8
0
100
AcDbLine
 62
7
  6
CONTINUOUS
 10
222.9300403248
 20
105.7308133784
 11
224.1258356605
 21
106.7067414301
  0
LINE
  5
43D
100
AcDbEntity
  8
0
100
AcDbLine
 62
7
  6
CONTINUOUS
 10
227.5034480942
 20
112.6723646978
 11
226.4731439425
 21
112.1573498817
  0
LINE
  5
43E
100
AcDbEntity
  8
0
100
AcDbLine
 62
7
  6
CONTINUOUS
 10
224.9195971493
 20
111.3807834525
 11
224.1104581748
 21
110.9763217608
  0
LINE
  5
43F
100
AcDbEntity
  8
RUNDUNGEN
100
AcDbLine
 62
7
  6
CONTINUOUS
 10
216.604321042
 20
110.9573752125
 11
232.2319515306
 21
117.040171399
  0
LINE
  5
440
100
AcDbEntity
  8
0
100
AcDbLine
 62
7
  6
CONTINUOUS
 10
230.7054252475
 20
113.5603578375
 11
230.0643455619
 21
113.3613588439
  0
LINE
  5
441
100
AcDbEntity
  8
RUNDUNGEN
100
AcDbLine
 62
7
  6
CONTINUOUS
 10
250.0428986107
 20
88.7024989488
 11
248.4635734693
 21
89.2554266334
  0
LINE
  5
442
100
AcDbEntity
  8
RUNDUNGEN
100
AcDbLine
 62
7
  6
CONTINUOUS
 10
240.735181454
 20
92.2498789973
 11
242.74892156
 21
91.5448609962
  0
LINE
  5
443
100
AcDbEntity
  8
RUNDUNGEN
100
AcDbLine
 62
7
  6
CONTINUOUS
 10
250.0428986107
 20
90.4345497563
 11
249.2863519485
 21
90.6994195943
  0
LINE
  5
444
100
AcDbEntity
  8
RUNDUNGEN
100
AcDbLine
 62
7
  6
CONTINUOUS
 10
242.0262371636
 20
93.5299263348
 11
242.74892156
 21
93.2769118038
  0
LINE
  5
445
100
AcDbEntity
  8
RUNDUNGEN
100
AcDbLine
 62
7
  6
CONTINUOUS
 10
250.7292003929
 20
90.8732519209
 11
252.3085255343
 21
90.3203242362
  0
LINE
  5
446
100
AcDbEntity
  8
0
100
AcDbLine
 62
7
  6
CONTINUOUS
 10
242.4625764525
 20
88.4666950848
 11
242.5035140306
 21
88.445790832
  0
LINE
  5
447
100
AcDbEntity
  8
0
100
AcDbLine
 62
7
  6
CONTINUOUS
 10
242.7082014525
 20
88.4875993377
 11
242.5853889525
 21
88.5503120962
  0
LINE
  5
448
100
AcDbEntity
  8
0
100
AcDbLine
 62
7
  6
CONTINUOUS
 10
243.1175765306
 20
88.4666950848
 11
243.1585141087
 21
88.445790832
  0
LINE
  5
449
100
AcDbEntity
  8
0
100
AcDbLine
 62
7
  6
CONTINUOUS
 10
243.3222639525
 20
88.5085035905
 11
243.2403890306
 21
88.5503120962
  0
LINE
  5
44A
100
AcDbEntity
  8
0
100
AcDbLine
 62
7
  6
CONTINUOUS
 10
244.3047641868
 20
88.4666950848
 11
244.3457015306
 21
88.445790832
  0
LINE
  5
44B
100
AcDbEntity
  8
0
100
AcDbLine
 62
7
  6
CONTINUOUS
 10
244.5503891868
 20
88.4875993377
 11
244.4275766868
 21
88.5503120962
  0
LINE
  5
44C
100
AcDbEntity
  8
0
100
AcDbLine
 62
7
  6
CONTINUOUS
 10
244.9597640306
 20
88.4666950848
 11
245.0007013744
 21
88.445790832
  0
LINE
  5
44D
100
AcDbEntity
  8
0
100
AcDbLine
 62
7
  6
CONTINUOUS
 10
245.1644516868
 20
88.5085035905
 11
245.0825765306
 21
88.5503120962
  0
LINE
  5
44E
100
AcDbEntity
  8
0
100
AcDbLine
 62
7
  6
CONTINUOUS
 10
218.191638534
 20
105.8301158691
 11
221.6280173598
 21
103.0999407872
  0
LINE
  5
44F
100
AcDbEntity
  8
0
100
AcDbLine
 62
7
  6
CONTINUOUS
 10
218.191638534
 20
105.9327219121
 11
221.6280173598
 21
103.2025468302
  0
LINE
  5
450
100
AcDbEntity
  8
0
100
AcDbLine
 62
7
  6
CONTINUOUS
 10
222.2197468359
 20
103.8602128027
 11
218.78336801
 21
106.5903878846
  0
LINE
  5
451
100
AcDbEntity
  8
0
100
AcDbLine
 62
7
  6
CONTINUOUS
 10
241.2678369749
 20
83.6212280687
 11
241.2098421556
 21
83.6734887129
  0
LINE
  5
452
100
AcDbEntity
  8
0
100
AcDbLine
 62
7
  6
CONTINUOUS
 10
241.7607927318
 20
84.2135153053
 11
241.8187874681
 21
84.1612546732
  0
LINE
  5
453
100
AcDbEntity
  8
0
100
AcDbLine
 62
7
  6
CONTINUOUS
 10
241.7607927318
 20
84.3001178457
 11
241.785210585
 21
84.2781142549
  0
LINE
  5
454
100
AcDbEntity
  8
0
100
AcDbLine
 62
7
  6
CONTINUOUS
 10
241.2288395238
 20
79.2778918977
 11
241.1998421556
 21
79.3127323312
  0
LINE
  5
455
100
AcDbEntity
  8
0
100
AcDbLine
 62
7
  6
CONTINUOUS
 10
241.8087874681
 20
79.5914557267
 11
241.779790017
 21
79.626296148
  0
LINE
  5
456
100
AcDbEntity
  8
0
100
AcDbLine
 62
7
  6
CONTINUOUS
 10
241.0648551488
 20
83.9347918977
 11
241.0938525999
 21
83.8999514763
  0
LINE
  5
457
100
AcDbEntity
  8
0
100
AcDbLine
 62
7
  6
CONTINUOUS
 10
241.0648551488
 20
84.021394438
 11
241.0938525999
 21
83.9865540167
  0
LINE
  5
458
100
AcDbEntity
  8
0
100
AcDbLine
 62
7
  6
CONTINUOUS
 10
241.2388395238
 20
83.9347918977
 11
241.2098421556
 21
83.9696323312
  0
LINE
  5
459
100
AcDbEntity
  8
0
100
AcDbLine
 62
7
  6
CONTINUOUS
 10
241.8187874681
 20
84.2483557267
 11
241.789790017
 21
84.283196148
  0
LINE
  5
45A
100
AcDbEntity
  8
0
100
AcDbLine
 62
7
  6
CONTINUOUS
 10
235.5605140209
 20
88.2095727575
 11
235.5195765306
 21
88.272285516
  0
LINE
  5
45B
100
AcDbEntity
  8
0
100
AcDbLine
 62
7
  6
CONTINUOUS
 10
235.6833265209
 20
88.6276578433
 11
235.6423890306
 21
88.6903706018
  0
LINE
  5
45C
100
AcDbEntity
  8
0
100
AcDbLine
 62
7
  6
CONTINUOUS
 10
236.0056323287
 20
87.3075498999
 11
236.0362882077
 21
87.2587276522
  0
LINE
  5
45D
100
AcDbEntity
  8
0
100
AcDbLine
 62
7
  6
CONTINUOUS
 10
236.2065984893
 20
87.315497732
 11
236.1759426493
 21
87.3643200349
  0
LINE
  5
45E
100
AcDbEntity
  8
0
100
AcDbLine
 62
7
  6
CONTINUOUS
 10
241.0258577806
 20
79.0688493511
 11
241.0838525999
 21
78.9643280687
  0
LINE
  5
45F
100
AcDbEntity
  8
0
100
AcDbLine
 62
7
  6
CONTINUOUS
 10
241.0739101826
 20
79.0688493511
 11
241.0838525999
 21
79.050930609
  0
LINE
  5
460
100
AcDbEntity
  8
0
100
AcDbLine
 62
7
  6
CONTINUOUS
 10
241.1998421556
 20
79.0165887129
 11
241.1708447874
 21
79.0688493511
  0
LINE
  5
461
100
AcDbEntity
  8
0
100
AcDbLine
 62
7
  6
CONTINUOUS
 10
241.1998421556
 20
79.3127323312
 11
241.1708447874
 21
79.3649929633
  0
LINE
  5
462
100
AcDbEntity
  8
0
100
AcDbLine
 62
7
  6
CONTINUOUS
 10
235.2739515306
 20
88.272285516
 11
235.3148890318
 21
88.1886685047
  0
LINE
  5
463
100
AcDbEntity
  8
0
100
AcDbLine
 62
7
  6
CONTINUOUS
 10
235.3967640306
 20
88.669466349
 11
235.4377015355
 21
88.5858493377
  0
LINE
  5
464
100
AcDbEntity
  8
0
100
AcDbLine
 62
7
  6
CONTINUOUS
 10
235.4179524489
 20
88.7963618798
 11
235.4377015355
 21
88.7560233295
  0
LINE
  5
465
100
AcDbEntity
  8
0
100
AcDbLine
 62
7
  6
CONTINUOUS
 10
234.3602327436
 20
82.2900367233
 11
234.3843384319
 21
82.2395851397
  0
LINE
  5
466
100
AcDbEntity
  8
0
100
AcDbLine
 62
7
  6
CONTINUOUS
 10
234.3692691597
 20
82.3577266527
 11
234.3843384319
 21
82.3261876801
  0
LINE
  5
467
100
AcDbEntity
  8
0
100
AcDbLine
 62
7
  6
CONTINUOUS
 10
235.1777911551
 20
82.4693523619
 11
235.1536854639
 21
82.5198039421
  0
LINE
  5
468
100
AcDbEntity
  8
0
100
AcDbLine
 62
7
  6
CONTINUOUS
 10
236.3216681672
 20
82.1872673254
 11
236.3443641596
 21
82.1373696243
  0
LINE
  5
469
100
AcDbEntity
  8
0
100
AcDbLine
 62
7
  6
CONTINUOUS
 10
236.523261715
 20
82.1871004612
 11
236.5005657703
 21
82.2369982157
  0
LINE
  5
46A
100
AcDbEntity
  8
0
100
AcDbLine
 62
7
  6
CONTINUOUS
 10
222.5659691638
 20
106.5401018167
 11
221.8790602338
 21
108.0669671655
  0
LINE
  5
46B
100
AcDbEntity
  8
0
100
AcDbLine
 62
7
  6
CONTINUOUS
 10
223.282200236
 20
104.9421090945
 11
222.8964623322
 21
105.806015313
  0
LINE
  5
46C
100
AcDbEntity
  8
0
100
AcDbLine
 62
7
  6
CONTINUOUS
 10
234.4734020369
 20
82.2661849875
 11
234.4600381569
 21
82.303029858
  0
LINE
  5
46D
100
AcDbEntity
  8
0
100
AcDbLine
 62
7
  6
CONTINUOUS
 10
235.0646218618
 20
82.4932040977
 11
235.0779857609
 21
82.4563592311
  0
LINE
  5
46E
100
AcDbEntity
  8
0
100
AcDbLine
 62
7
  6
CONTINUOUS
 10
235.0665631592
 20
82.5744543943
 11
235.0779857609
 21
82.5429617715
  0
LINE
  5
46F
100
AcDbEntity
  8
0
100
AcDbLine
 62
7
  6
CONTINUOUS
 10
228.6728106203
 20
108.3646074638
 11
228.6728106203
 21
108.4672135068
  0
LINE
  5
470
100
AcDbEntity
  8
0
100
AcDbLine
 62
7
  6
CONTINUOUS
 10
229.1619925395
 20
112.237936496
 11
229.1619925395
 21
112.340542539
  0
LINE
  5
471
100
AcDbEntity
  8
0
100
AcDbLine
 62
7
  6
CONTINUOUS
 10
229.3498072017
 20
111.7036646841
 11
229.3498072017
 21
111.8062707271
  0
LINE
  5
472
100
AcDbEntity
  8
0
100
AcDbLine
 62
7
  6
CONTINUOUS
 10
229.5754515306
 20
89.4087801999
 11
229.5754515306
 21
87.9022801999
  0
LINE
  5
473
100
AcDbEntity
  8
0
100
AcDbLine
 62
7
  6
CONTINUOUS
 10
229.7192968506
 20
108.8877111634
 11
229.7192968506
 21
108.9903172064
  0
LINE
  5
474
100
AcDbEntity
  8
0
100
AcDbLine
 62
7
  6
CONTINUOUS
 10
229.7719515306
 20
88.0005301999
 11
229.7719515306
 21
89.4087801999
  0
LINE
  5
475
100
AcDbEntity
  8
0
100
AcDbLine
 62
7
  6
CONTINUOUS
 10
230.3070772208
 20
112.0008130335
 11
230.3070772208
 21
112.1034190765
  0
LINE
  5
476
100
AcDbEntity
  8
0
100
AcDbLine
 62
7
  6
CONTINUOUS
 10
231.2480671209
 20
109.3240018985
 11
231.2480671209
 21
109.4266079415
  0
LINE
  5
477
100
AcDbEntity
  8
0
100
AcDbLine
 62
7
  6
CONTINUOUS
 10
232.0689981796
 20
109.5788289631
 11
232.0689981796
 21
109.6814350061
  0
LINE
  5
478
100
AcDbEntity
  8
KONSTRUKTIONSELEMENTE
100
AcDbLine
 62
7
  6
CONTINUOUS
 10
232.2319515306
 20
96.6645556037
 11
232.2319515306
 21
167.4645556037
  0
LINE
  5
479
100
AcDbEntity
  8
0
100
AcDbLine
 62
7
  6
CONTINUOUS
 10
232.8504515306
 20
78.6995301999
 11
232.8504515306
 21
82.4002801999
  0
LINE
  5
47A
100
AcDbEntity
  8
0
100
AcDbLine
 62
7
  6
CONTINUOUS
 10
232.8504515306
 20
83.3172801999
 11
232.8504515306
 21
87.3455301999
  0
LINE
  5
47B
100
AcDbEntity
  8
0
100
AcDbLine
 62
7
  6
CONTINUOUS
 10
233.0469515306
 20
78.7977801999
 11
233.0469515306
 21
82.4002801999
  0
LINE
  5
47C
100
AcDbEntity
  8
0
100
AcDbLine
 62
7
  6
CONTINUOUS
 10
233.0469515306
 20
83.4155301999
 11
233.0469515306
 21
85.0594541918
  0
LINE
  5
47D
100
AcDbEntity
  8
0
100
AcDbLine
 62
7
  6
CONTINUOUS
 10
233.0469515306
 20
85.0857801999
 11
233.0469515306
 21
87.3455301999
  0
LINE
  5
47E
100
AcDbEntity
  8
0
100
AcDbLine
 62
7
  6
CONTINUOUS
 10
222.5487281121
 20
104.3434982791
 11
223.282200236
 21
104.9421090945
  0
LINE
  5
47F
100
AcDbEntity
  8
0
100
AcDbLine
 62
7
  6
CONTINUOUS
 10
224.9821027061
 20
106.3294556213
 11
225.7386401389
 21
106.9468907967
  0
LINE
  5
480
100
AcDbEntity
  8
0
100
AcDbLine
 62
7
  6
CONTINUOUS
 10
222.5487281121
 20
104.2408922361
 11
223.282200236
 21
104.8395030515
  0
LINE
  5
481
100
AcDbEntity
  8
0
100
AcDbLine
 62
7
  6
CONTINUOUS
 10
224.9821027061
 20
106.2268495783
 11
225.7386401389
 21
106.8442847537
  0
LINE
  5
482
100
AcDbEntity
  8
0
100
AcDbLine
 62
7
  6
CONTINUOUS
 10
226.2238163291
 20
107.2430426224
 11
227.0329553036
 21
107.6475043141
  0
LINE
  5
483
100
AcDbEntity
  8
0
100
AcDbLine
 62
7
  6
CONTINUOUS
 10
228.6728106203
 20
108.4672135068
 11
229.7192968506
 21
108.9903172064
  0
LINE
  5
484
100
AcDbEntity
  8
0
100
AcDbLine
 62
7
  6
CONTINUOUS
 10
226.2238163291
 20
107.1404365794
 11
227.0329553036
 21
107.5448982711
  0
LINE
  5
485
100
AcDbEntity
  8
0
100
AcDbLine
 62
7
  6
CONTINUOUS
 10
228.6728106203
 20
108.3646074638
 11
229.7192968506
 21
108.8877111634
  0
LINE
  5
486
100
AcDbEntity
  8
0
100
AcDbLine
 62
7
  6
CONTINUOUS
 10
229.3498072017
 20
111.8062707271
 11
230.3070772208
 21
112.1034190765
  0
LINE
  5
487
100
AcDbEntity
  8
0
100
AcDbLine
 62
7
  6
CONTINUOUS
 10
229.3498072017
 20
111.7036646841
 11
230.3070772208
 21
112.0008130335
  0
LINE
  5
488
100
AcDbEntity
  8
0
100
AcDbLine
 62
7
  6
CONTINUOUS
 10
231.2480671209
 20
109.4266079415
 11
232.0689981796
 21
109.6814350061
  0
LINE
  5
489
100
AcDbEntity
  8
0
100
AcDbLine
 62
7
  6
CONTINUOUS
 10
231.2480671209
 20
109.3240018985
 11
232.0689981796
 21
109.5788289631
  0
LINE
  5
48A
100
AcDbEntity
  8
RUNDUNGEN
100
AcDbLine
 62
7
  6
CONTINUOUS
 10
253.1248082427
 20
92.673244857
 11
253.6613528317
 21
92.4853985741
  0
LINE
  5
48B
100
AcDbEntity
  8
RUNDUNGEN
100
AcDbLine
 62
7
  6
CONTINUOUS
 10
253.1248082427
 20
94.4052956645
 11
253.4810264147
 21
94.2805823399
  0
LINE
  5
48C
100
AcDbEntity
  8
0
100
AcDbLine
 62
7
  6
CONTINUOUS
 10
225.7386401389
 20
106.9468907967
 11
221.5838752617
 21
109.1568696147
  0
LINE
  5
48D
100
AcDbEntity
  8
0
100
AcDbLine
 62
7
  6
CONTINUOUS
 10
221.9406009882
 20
107.9301740023
 11
223.3261232539
 21
107.1604886655
  0
LINE
  5
48E
100
AcDbEntity
  8
0
100
AcDbLine
 62
7
  6
CONTINUOUS
 10
221.8790602338
 20
108.0669671655
 11
223.4009279177
 21
107.2215392213
  0
LINE
  5
48F
100
AcDbEntity
  8
0
100
AcDbLine
 62
7
  6
CONTINUOUS
 10
224.1258356605
 20
106.7067414301
 11
224.9821027061
 21
106.2268495783
  0
LINE
  5
490
100
AcDbEntity
  8
0
100
AcDbLine
 62
7
  6
CONTINUOUS
 10
224.1258356605
 20
106.8093474731
 11
224.9821027061
 21
106.3294556213
  0
LINE
  5
491
100
AcDbEntity
  8
0
100
AcDbLine
 62
7
  6
CONTINUOUS
 10
242.5035140306
 20
88.445790832
 11
242.5444516087
 21
88.4039823264
  0
LINE
  5
492
100
AcDbEntity
  8
0
100
AcDbLine
 62
7
  6
CONTINUOUS
 10
243.1585141087
 20
88.445790832
 11
243.1994514525
 21
88.4039823264
  0
LINE
  5
493
100
AcDbEntity
  8
0
100
AcDbLine
 62
7
  6
CONTINUOUS
 10
244.3457015306
 20
88.445790832
 11
244.3866388744
 21
88.4039823264
  0
LINE
  5
494
100
AcDbEntity
  8
0
100
AcDbLine
 62
7
  6
CONTINUOUS
 10
245.0007013744
 20
88.445790832
 11
245.0416391868
 21
88.4039823264
  0
LINE
  5
495
100
AcDbEntity
  8
0
100
AcDbLine
 62
7
  6
CONTINUOUS
 10
243.4041391087
 20
88.4039823264
 11
243.3222639525
 21
88.5085035905
  0
LINE
  5
496
100
AcDbEntity
  8
0
100
AcDbLine
 62
7
  6
CONTINUOUS
 10
245.2463263744
 20
88.4039823264
 11
245.1644516868
 21
88.5085035905
  0
LINE
  5
497
100
AcDbEntity
  8
0
100
AcDbLine
 62
7
  6
CONTINUOUS
 10
224.1104581748
 20
110.8737157178
 11
226.2238163291
 21
107.1404365794
  0
LINE
  5
498
100
AcDbEntity
  8
0
100
AcDbLine
 62
7
  6
CONTINUOUS
 10
224.1104581748
 20
110.9763217608
 11
226.2238163291
 21
107.2430426224
  0
LINE
  5
499
100
AcDbEntity
  8
0
100
AcDbLine
 62
7
  6
CONTINUOUS
 10
227.0329553036
 20
107.6475043141
 11
226.3227636812
 21
108.9020685547
  0
LINE
  5
49A
100
AcDbEntity
  8
0
100
AcDbLine
 62
7
  6
CONTINUOUS
 10
225.8263468777
 20
109.7789963452
 11
224.9195971493
 21
111.3807834525
  0
LINE
  5
49B
100
AcDbEntity
  8
0
100
AcDbLine
 62
7
  6
CONTINUOUS
 10
241.0358577806
 20
83.7257493511
 11
241.0938525999
 21
83.6212280687
  0
LINE
  5
49C
100
AcDbEntity
  8
0
100
AcDbLine
 62
7
  6
CONTINUOUS
 10
241.0839101826
 20
83.7257493511
 11
241.0938525999
 21
83.707830609
  0
LINE
  5
49D
100
AcDbEntity
  8
0
100
AcDbLine
 62
7
  6
CONTINUOUS
 10
241.2098421556
 20
83.6734887129
 11
241.1808447874
 21
83.7257493511
  0
LINE
  5
49E
100
AcDbEntity
  8
0
100
AcDbLine
 62
7
  6
CONTINUOUS
 10
241.2098421556
 20
83.9696323312
 11
241.1808447874
 21
84.0218929633
  0
LINE
  5
49F
100
AcDbEntity
  8
0
100
AcDbLine
 62
7
  6
CONTINUOUS
 10
241.0258577806
 20
79.3475727526
 11
241.0548551488
 21
79.2778918977
  0
LINE
  5
4A0
100
AcDbEntity
  8
0
100
AcDbLine
 62
7
  6
CONTINUOUS
 10
241.0258577806
 20
79.434175293
 11
241.0548551488
 21
79.364494438
  0
LINE
  5
4A1
100
AcDbEntity
  8
0
100
AcDbLine
 62
7
  6
CONTINUOUS
 10
241.0358577806
 20
84.0044727526
 11
241.0648551488
 21
83.9347918977
  0
LINE
  5
4A2
100
AcDbEntity
  8
0
100
AcDbLine
 62
7
  6
CONTINUOUS
 10
241.0358577806
 20
84.091075293
 11
241.0648551488
 21
84.021394438
  0
LINE
  5
4A3
100
AcDbEntity
  8
0
100
AcDbLine
 62
7
  6
CONTINUOUS
 10
229.1619925395
 20
112.237936496
 11
229.3498072017
 21
111.7036646841
  0
LINE
  5
4A4
100
AcDbEntity
  8
0
100
AcDbLine
 62
7
  6
CONTINUOUS
 10
229.1619925395
 20
112.340542539
 11
229.3498072017
 21
111.8062707271
  0
LINE
  5
4A5
100
AcDbEntity
  8
0
100
AcDbLine
 62
7
  6
CONTINUOUS
 10
230.3070772208
 20
112.0008130335
 11
231.2480671209
 21
109.3240018985
  0
LINE
  5
4A6
100
AcDbEntity
  8
0
100
AcDbLine
 62
7
  6
CONTINUOUS
 10
230.3070772208
 20
112.1034190765
 11
231.2480671209
 21
109.4266079415
  0
LINE
  5
4A7
100
AcDbEntity
  8
0
100
AcDbLine
 62
7
  6
CONTINUOUS
 10
234.7660924309
 20
87.1551781241
 11
234.7832958109
 21
87.1040249789
  0
LINE
  5
4A8
100
AcDbEntity
  8
0
100
AcDbLine
 62
7
  6
CONTINUOUS
 10
234.7807113211
 20
87.1983123336
 11
234.7832958109
 21
87.1906275192
  0
LINE
  5
4A9
100
AcDbEntity
  8
0
100
AcDbLine
 62
7
  6
CONTINUOUS
 10
235.4827208946
 20
87.1384570362
 11
235.4655175113
 21
87.1896101781
  0
LINE
  5
4AA
100
AcDbEntity
  8
0
100
AcDbLine
 62
7
  6
CONTINUOUS
 10
235.2150265055
 20
82.0761085688
 11
235.2279250564
 21
82.0326999121
  0
LINE
  5
4AB
100
AcDbEntity
  8
0
100
AcDbLine
 62
7
  6
CONTINUOUS
 10
236.0839644304
 20
82.1871254974
 11
236.0710658752
 21
82.2305341511
  0
LINE
  5
4AC
100
AcDbEntity
  8
0
100
AcDbLine
 62
7
  6
CONTINUOUS
 10
235.3730493348
 20
87.1660933308
 11
235.381382189
 21
87.1288799954
  0
LINE
  5
4AD
100
AcDbEntity
  8
0
100
AcDbLine
 62
7
  6
CONTINUOUS
 10
235.3730493348
 20
87.2526958712
 11
235.381382189
 21
87.2154825358
  0
LINE
  5
4AE
100
AcDbEntity
  8
0
100
AcDbLine
 62
7
  6
CONTINUOUS
 10
233.4056341039
 20
84.9875301999
 11
233.4056341039
 21
85.1577041918
  0
LINE
  5
4AF
100
AcDbEntity
  8
0
100
AcDbLine
 62
7
  6
CONTINUOUS
 10
233.9476469908
 20
87.4064878432
 11
233.9476469908
 21
87.4722617465
  0
LINE
  5
4B0
100
AcDbEntity
  8
0
100
AcDbLine
 62
7
  6
CONTINUOUS
 10
233.9755338339
 20
80.3697801999
 11
233.9755338339
 21
80.5399541918
  0
LINE
  5
4B1
100
AcDbEntity
  8
0
100
AcDbLine
 62
7
  6
CONTINUOUS
 10
234.2541853824
 20
87.3029890069
 11
234.2541853824
 21
87.3637833465
  0
LINE
  5
4B2
100
AcDbEntity
  8
0
100
AcDbLine
 62
7
  6
CONTINUOUS
 10
234.3014076068
 20
87.1460633916
 11
234.3014076068
 21
87.232665932
  0
LINE
  5
4B3
100
AcDbEntity
  8
0
100
AcDbLine
 62
7
  6
CONTINUOUS
 10
234.3732409505
 20
87.2879168318
 11
234.3732409505
 21
87.3745193722
  0
LINE
  5
4B4
100
AcDbEntity
  8
0
100
AcDbLine
 62
7
  6
CONTINUOUS
 10
234.3824592193
 20
87.5562987387
 11
234.3824592193
 21
87.6231166676
  0
LINE
  5
4B5
100
AcDbEntity
  8
0
100
AcDbLine
 62
7
  6
CONTINUOUS
 10
234.3843384319
 20
82.2395851397
 11
234.3843384319
 21
82.3261876801
  0
LINE
  5
4B6
100
AcDbEntity
  8
0
100
AcDbLine
 62
7
  6
CONTINUOUS
 10
234.4040266734
 20
87.3487111714
 11
234.4040266734
 21
87.4353137118
  0
LINE
  5
4B7
100
AcDbEntity
  8
0
100
AcDbLine
 62
7
  6
CONTINUOUS
 10
234.4542869621
 20
82.1908144056
 11
234.4542869621
 21
82.2774169459
  0
LINE
  5
4B8
100
AcDbEntity
  8
0
100
AcDbLine
 62
7
  6
CONTINUOUS
 10
234.4600381569
 20
82.3358994306
 11
234.4600381569
 21
82.3896323984
  0
LINE
  5
4B9
100
AcDbEntity
  8
0
100
AcDbLine
 62
7
  6
CONTINUOUS
 10
234.4655358291
 20
82.3358994306
 11
234.4655358291
 21
82.422501971
  0
LINE
  5
4BA
100
AcDbEntity
  8
0
100
AcDbLine
 62
7
  6
CONTINUOUS
 10
234.4898950457
 20
82.3647937148
 11
234.4898950457
 21
82.4513962552
  0
LINE
  5
4BB
100
AcDbEntity
  8
0
100
AcDbLine
 62
7
  6
CONTINUOUS
 10
234.5331158181
 20
82.3897127242
 11
234.5331158181
 21
82.4763152646
  0
LINE
  5
4BC
100
AcDbEntity
  8
0
100
AcDbLine
 62
7
  6
CONTINUOUS
 10
234.5359914169
 20
82.4458204427
 11
234.5359914169
 21
82.532422983
  0
LINE
  5
4BD
100
AcDbEntity
  8
0
100
AcDbLine
 62
7
  6
CONTINUOUS
 10
234.5404749715
 20
82.1613065292
 11
234.5404749715
 21
82.2231076954
  0
LINE
  5
4BE
100
AcDbEntity
  8
0
100
AcDbLine
 62
7
  6
CONTINUOUS
 10
234.5522308947
 20
82.4650832988
 11
234.5522308947
 21
82.5516858392
  0
LINE
  5
4BF
100
AcDbEntity
  8
0
100
AcDbLine
 62
7
  6
CONTINUOUS
 10
234.5716668785
 20
87.2627965423
 11
234.5716668785
 21
87.323590882
  0
LINE
  5
4C0
100
AcDbEntity
  8
0
100
AcDbLine
 62
7
  6
CONTINUOUS
 10
234.5870783982
 20
82.4010250008
 11
234.5870783982
 21
82.4509674256
  0
LINE
  5
4C1
100
AcDbEntity
  8
0
100
AcDbLine
 62
7
  6
CONTINUOUS
 10
234.619810879
 20
82.5188965775
 11
234.619810879
 21
82.5886110408
  0
LINE
  5
4C2
100
AcDbEntity
  8
0
100
AcDbLine
 62
7
  6
CONTINUOUS
 10
234.634782707
 20
82.1414300846
 11
234.634782707
 21
82.1981438767
  0
LINE
  5
4C3
100
AcDbEntity
  8
0
100
AcDbLine
 62
7
  6
CONTINUOUS
 10
234.6599025226
 20
82.408361989
 11
234.6599025226
 21
82.4604944178
  0
LINE
  5
4C4
100
AcDbEntity
  8
0
100
AcDbLine
 62
7
  6
CONTINUOUS
 10
234.6630316628
 20
82.5438156003
 11
234.6630316628
 21
82.6038687391
  0
LINE
  5
4C5
100
AcDbEntity
  8
0
100
AcDbLine
 62
7
  6
CONTINUOUS
 10
234.6844515306
 20
88.0005301999
 11
234.6844515306
 21
89.4087801999
  0
LINE
  5
4C6
100
AcDbEntity
  8
0
100
AcDbLine
 62
7
  6
CONTINUOUS
 10
234.7246069081
 20
82.4060675492
 11
234.7246069081
 21
82.4561967417
  0
LINE
  5
4C7
100
AcDbEntity
  8
0
100
AcDbLine
 62
7
  6
CONTINUOUS
 10
234.7251139817
 20
82.564759305
 11
234.7251139817
 21
82.6152108852
  0
LINE
  5
4C8
100
AcDbEntity
  8
0
100
AcDbLine
 62
7
  6
CONTINUOUS
 10
234.737210209
 20
82.1311850633
 11
234.737210209
 21
82.1833175064
  0
LINE
  5
4C9
100
AcDbEntity
  8
0
100
AcDbLine
 62
7
  6
CONTINUOUS
 10
234.7832958109
 20
87.1040249789
 11
234.7832958109
 21
87.1906275192
  0
LINE
  5
4CA
100
AcDbEntity
  8
0
100
AcDbLine
 62
7
  6
CONTINUOUS
 10
234.7979381061
 20
82.5720962933
 11
234.7979381061
 21
82.624228722
  0
LINE
  5
4CB
100
AcDbEntity
  8
0
100
AcDbLine
 62
7
  6
CONTINUOUS
 10
234.8464645472
 20
87.0529934674
 11
234.8464645472
 21
87.1395960077
  0
LINE
  5
4CC
100
AcDbEntity
  8
0
100
AcDbLine
 62
7
  6
CONTINUOUS
 10
234.8558771362
 20
82.1402029111
 11
234.8558771362
 21
82.1987866387
  0
LINE
  5
4CD
100
AcDbEntity
  8
0
100
AcDbLine
 62
7
  6
CONTINUOUS
 10
234.8566377594
 20
82.3782405223
 11
234.8566377594
 21
82.4303729538
  0
LINE
  5
4CE
100
AcDbEntity
  8
0
100
AcDbLine
 62
7
  6
CONTINUOUS
 10
234.8626424917
 20
82.5698018535
 11
234.8626424917
 21
82.6199310459
  0
LINE
  5
4CF
100
AcDbEntity
  8
0
100
AcDbLine
 62
7
  6
CONTINUOUS
 10
234.8809515306
 20
87.9022801999
 11
234.8809515306
 21
89.4087801999
  0
LINE
  5
4D0
100
AcDbEntity
  8
0
100
AcDbLine
 62
7
  6
CONTINUOUS
 10
234.9051026402
 20
82.356683232
 11
234.9051026402
 21
82.4212222738
  0
LINE
  5
4D1
100
AcDbEntity
  8
0
100
AcDbLine
 62
7
  6
CONTINUOUS
 10
234.9284493789
 20
87.0206294812
 11
234.9284493789
 21
87.0877946013
  0
LINE
  5
4D2
100
AcDbEntity
  8
0
100
AcDbLine
 62
7
  6
CONTINUOUS
 10
234.9449407412
 20
82.1668027589
 11
234.9449407412
 21
82.236517202
  0
LINE
  5
4D3
100
AcDbEntity
  8
0
100
AcDbLine
 62
7
  6
CONTINUOUS
 10
234.9454478091
 20
82.325494508
 11
234.9454478091
 21
82.4074094459
  0
LINE
  5
4D4
100
AcDbEntity
  8
0
100
AcDbLine
 62
7
  6
CONTINUOUS
 10
234.9669314472
 20
82.2982810694
 11
234.9669314472
 21
82.3848836098
  0
LINE
  5
4D5
100
AcDbEntity
  8
0
100
AcDbLine
 62
7
  6
CONTINUOUS
 10
234.975811785
 20
82.5459501177
 11
234.975811785
 21
82.5980825492
  0
LINE
  5
4D6
100
AcDbEntity
  8
0
100
AcDbLine
 62
7
  6
CONTINUOUS
 10
234.9797907761
 20
87.2534866132
 11
234.9797907761
 21
87.3400891536
  0
LINE
  5
4D7
100
AcDbEntity
  8
0
100
AcDbLine
 62
7
  6
CONTINUOUS
 10
234.9902740156
 20
87.3093674723
 11
234.9902740156
 21
87.3959700127
  0
LINE
  5
4D8
100
AcDbEntity
  8
0
100
AcDbLine
 62
7
  6
CONTINUOUS
 10
235.023262557
 20
82.2070093236
 11
235.023262557
 21
82.293611864
  0
LINE
  5
4D9
100
AcDbEntity
  8
0
100
AcDbLine
 62
7
  6
CONTINUOUS
 10
235.0242766928
 20
82.5243928217
 11
235.0242766928
 21
82.5889318588
  0
LINE
  5
4DA
100
AcDbEntity
  8
0
100
AcDbLine
 62
7
  6
CONTINUOUS
 10
235.0381209387
 20
86.9929931866
 11
235.0381209387
 21
87.0515157405
  0
LINE
  5
4DB
100
AcDbEntity
  8
0
100
AcDbLine
 62
7
  6
CONTINUOUS
 10
235.0646218618
 20
82.4932040977
 11
235.0646218618
 21
82.5751190293
  0
LINE
  5
4DC
100
AcDbEntity
  8
0
100
AcDbLine
 62
7
  6
CONTINUOUS
 10
235.0779857609
 20
82.4563592311
 11
235.0779857609
 21
82.5429617715
  0
LINE
  5
4DD
100
AcDbEntity
  8
0
100
AcDbLine
 62
7
  6
CONTINUOUS
 10
235.0811293771
 20
87.2630636804
 11
235.0811293771
 21
87.3143384552
  0
LINE
  5
4DE
100
AcDbEntity
  8
0
100
AcDbLine
 62
7
  6
CONTINUOUS
 10
235.1389219704
 20
86.9792966993
 11
235.1389219704
 21
87.0305714799
  0
LINE
  5
4DF
100
AcDbEntity
  8
0
100
AcDbLine
 62
7
  6
CONTINUOUS
 10
235.1408036286
 20
87.458707477
 11
235.1408036286
 21
87.5172300228
  0
LINE
  5
4E0
100
AcDbEntity
  8
0
100
AcDbLine
 62
7
  6
CONTINUOUS
 10
235.1636518844
 20
87.2539732239
 11
235.1636518844
 21
87.3070336636
  0
LINE
  5
4E1
100
AcDbEntity
  8
0
100
AcDbLine
 62
7
  6
CONTINUOUS
 10
235.2279250564
 20
82.0326999121
 11
235.2279250564
 21
82.1132118217
  0
LINE
  5
4E2
100
AcDbEntity
  8
0
100
AcDbLine
 62
7
  6
CONTINUOUS
 10
235.2585393066
 20
86.9842676847
 11
235.2585393066
 21
87.0354208299
  0
LINE
  5
4E3
100
AcDbEntity
  8
0
100
AcDbLine
 62
7
  6
CONTINUOUS
 10
235.2733234442
 20
87.2263369293
 11
235.2733234442
 21
87.284859475
  0
LINE
  5
4E4
100
AcDbEntity
  8
0
100
AcDbLine
 62
7
  6
CONTINUOUS
 10
235.2739652798
 20
81.9772755858
 11
235.2739652798
 21
82.0638781262
  0
LINE
  5
4E5
100
AcDbEntity
  8
0
100
AcDbLine
 62
7
  6
CONTINUOUS
 10
235.3148890318
 20
88.1886685047
 11
235.3148890318
 21
88.272285516
  0
LINE
  5
4E6
100
AcDbEntity
  8
0
100
AcDbLine
 62
7
  6
CONTINUOUS
 10
235.3267229475
 20
82.048523234
 11
235.3267229475
 21
82.1351257744
  0
LINE
  5
4E7
100
AcDbEntity
  8
0
100
AcDbLine
 62
7
  6
CONTINUOUS
 10
235.334067517
 20
82.1233248772
 11
235.334067517
 21
82.2099274176
  0
LINE
  5
4E8
100
AcDbEntity
  8
0
100
AcDbLine
 62
7
  6
CONTINUOUS
 10
235.3370297532
 20
87.1985789754
 11
235.3370297532
 21
87.2664267468
  0
LINE
  5
4E9
100
AcDbEntity
  8
0
100
AcDbLine
 62
7
  6
CONTINUOUS
 10
235.3510074865
 20
87.0077845353
 11
235.3510074865
 21
87.0776051811
  0
LINE
  5
4EA
100
AcDbEntity
  8
0
100
AcDbLine
 62
7
  6
CONTINUOUS
 10
235.3611190546
 20
81.9327668295
 11
235.3611190546
 21
82.0085436582
  0
LINE
  5
4EB
100
AcDbEntity
  8
0
100
AcDbLine
 62
7
  6
CONTINUOUS
 10
235.3730493348
 20
87.1660933308
 11
235.3730493348
 21
87.2526958712
  0
LINE
  5
4EC
100
AcDbEntity
  8
0
100
AcDbLine
 62
7
  6
CONTINUOUS
 10
235.381382189
 20
87.1288799954
 11
235.381382189
 21
87.2154825358
  0
LINE
  5
4ED
100
AcDbEntity
  8
0
100
AcDbLine
 62
7
  6
CONTINUOUS
 10
235.3911247444
 20
82.1801029693
 11
235.3911247444
 21
82.2667055097
  0
LINE
  5
4EE
100
AcDbEntity
  8
0
100
AcDbLine
 62
7
  6
CONTINUOUS
 10
235.3967640306
 20
88.7530834188
 11
235.3967640306
 21
88.669466349
  0
LINE
  5
4EF
100
AcDbEntity
  8
0
100
AcDbLine
 62
7
  6
CONTINUOUS
 10
235.4346051407
 20
87.0452411958
 11
235.4346051407
 21
87.1318437361
  0
LINE
  5
4F0
100
AcDbEntity
  8
0
100
AcDbLine
 62
7
  6
CONTINUOUS
 10
235.4377015355
 20
88.0841472186
 11
235.4377015355
 21
88.2543212104
  0
LINE
  5
4F1
100
AcDbEntity
  8
0
100
AcDbLine
 62
7
  6
CONTINUOUS
 10
235.4377015355
 20
88.5858493377
 11
235.4377015355
 21
88.7560233295
  0
LINE
  5
4F2
100
AcDbEntity
  8
0
100
AcDbLine
 62
7
  6
CONTINUOUS
 10
235.4722375373
 20
87.0825761904
 11
235.4722375373
 21
87.1691787308
  0
LINE
  5
4F3
100
AcDbEntity
  8
0
100
AcDbLine
 62
7
  6
CONTINUOUS
 10
235.4728154976
 20
81.9051814954
 11
235.4728154976
 21
81.9636567303
  0
LINE
  5
4F4
100
AcDbEntity
  8
0
100
AcDbLine
 62
7
  6
CONTINUOUS
 10
235.4770240759
 20
82.2393349421
 11
235.4770240759
 21
82.3107152862
  0
LINE
  5
4F5
100
AcDbEntity
  8
0
100
AcDbLine
 62
7
  6
CONTINUOUS
 10
235.5672228626
 20
82.2840973864
 11
235.5672228626
 21
82.3413379674
  0
LINE
  5
4F6
100
AcDbEntity
  8
0
100
AcDbLine
 62
7
  6
CONTINUOUS
 10
235.5924838207
 20
81.9005274016
 11
235.5924838207
 21
81.9523977687
  0
LINE
  5
4F7
100
AcDbEntity
  8
0
100
AcDbLine
 62
7
  6
CONTINUOUS
 10
235.6014515404
 20
88.5022323264
 11
235.6014515404
 21
88.6724063182
  0
LINE
  5
4F8
100
AcDbEntity
  8
KONSTRUKTIONSELEMENTE
100
AcDbLine
 62
7
  6
CONTINUOUS
 10
235.6319515306
 20
91.6560277299
 11
235.6319515306
 21
89.0696525774
  0
LINE
  5
4F9
100
AcDbEntity
  8
0
100
AcDbLine
 62
7
  6
CONTINUOUS
 10
235.6423890306
 20
88.0214344546
 11
235.6423890306
 21
88.1677642371
  0
LINE
  5
4FA
100
AcDbEntity
  8
0
100
AcDbLine
 62
7
  6
CONTINUOUS
 10
235.6423890306
 20
88.6903706018
 11
235.6423890306
 21
88.9023530993
  0
LINE
  5
4FB
100
AcDbEntity
  8
0
100
AcDbLine
 62
7
  6
CONTINUOUS
 10
235.6708829043
 20
87.3251320356
 11
235.6708829043
 21
87.3836545813
  0
LINE
  5
4FC
100
AcDbEntity
  8
0
100
AcDbLine
 62
7
  6
CONTINUOUS
 10
235.6790103787
 20
81.9078890131
 11
235.6790103787
 21
81.9690540193
  0
LINE
  5
4FD
100
AcDbEntity
  8
0
100
AcDbLine
 62
7
  6
CONTINUOUS
 10
235.707134333
 20
82.3108362975
 11
235.707134333
 21
82.3627066617
  0
LINE
  5
4FE
100
AcDbEntity
  8
0
100
AcDbLine
 62
7
  6
CONTINUOUS
 10
235.761237391
 20
81.9297201903
 11
235.761237391
 21
81.9937613032
  0
LINE
  5
4FF
100
AcDbEntity
  8
0
100
AcDbLine
 62
7
  6
CONTINUOUS
 10
235.7813895536
 20
82.3097361957
 11
235.7813895536
 21
82.3597943806
  0
LINE
  5
500
100
AcDbEntity
  8
0
100
AcDbLine
 62
7
  6
CONTINUOUS
 10
235.8146222733
 20
81.9490974691
 11
235.8146222733
 21
82.0202542721
  0
LINE
  5
501
100
AcDbEntity
  8
0
100
AcDbLine
 62
7
  6
CONTINUOUS
 10
235.816763096
 20
86.4797891573
 11
235.816763096
 21
86.61306286
  0
LINE
  5
502
100
AcDbEntity
  8
0
100
AcDbLine
 62
7
  6
CONTINUOUS
 10
235.8470765111
 20
88.0005301999
 11
235.8470765111
 21
88.1259557316
  0
LINE
  5
503
100
AcDbEntity
  8
0
100
AcDbLine
 62
7
  6
CONTINUOUS
 10
235.8765151125
 20
82.2881587132
 11
235.8765151125
 21
82.3456203365
  0
LINE
  5
504
100
AcDbEntity
  8
0
100
AcDbLine
 62
7
  6
CONTINUOUS
 10
235.8925497441
 20
81.985398215
 11
235.8925497441
 21
82.0720007553
  0
LINE
  5
505
100
AcDbEntity
  8
0
100
AcDbLine
 62
7
  6
CONTINUOUS
 10
235.9470981001
 20
82.2496577756
 11
235.9470981001
 21
82.3257554542
  0
LINE
  5
506
100
AcDbEntity
  8
0
100
AcDbLine
 62
7
  6
CONTINUOUS
 10
235.9722679884
 20
82.2147108322
 11
235.9722679884
 21
82.3013133726
  0
LINE
  5
507
100
AcDbEntity
  8
0
100
AcDbLine
 62
7
  6
CONTINUOUS
 10
236.0029917418
 20
82.0615536085
 11
236.0029917418
 21
82.1481561488
  0
LINE
  5
508
100
AcDbEntity
  8
0
100
AcDbLine
 62
7
  6
CONTINUOUS
 10
236.0362882077
 20
87.2587276522
 11
236.0362882077
 21
87.3453301926
  0
LINE
  5
509
100
AcDbEntity
  8
0
100
AcDbLine
 62
7
  6
CONTINUOUS
 10
236.0477776189
 20
82.1098699783
 11
236.0477776189
 21
82.1964725187
  0
LINE
  5
50A
100
AcDbEntity
  8
0
100
AcDbLine
 62
7
  6
CONTINUOUS
 10
236.0680207694
 20
82.1412629855
 11
236.0680207694
 21
82.2278655259
  0
LINE
  5
50B
100
AcDbEntity
  8
0
100
AcDbLine
 62
7
  6
CONTINUOUS
 10
236.0941937079
 20
87.2485090346
 11
236.0941937079
 21
87.3351115749
  0
LINE
  5
50C
100
AcDbEntity
  8
0
100
AcDbLine
 62
7
  6
CONTINUOUS
 10
236.1340093101
 20
81.2002282169
 11
236.1340093101
 21
81.3704022088
  0
LINE
  5
50D
100
AcDbEntity
  8
0
100
AcDbLine
 62
7
  6
CONTINUOUS
 10
236.1793488292
 20
87.2768940468
 11
236.1793488292
 21
87.3588953737
  0
LINE
  5
50E
100
AcDbEntity
  8
0
100
AcDbLine
 62
7
  6
CONTINUOUS
 10
236.3443641596
 20
82.1373696243
 11
236.3443641596
 21
82.2126868368
  0
LINE
  5
50F
100
AcDbEntity
  8
0
100
AcDbLine
 62
7
  6
CONTINUOUS
 10
236.4004365327
 20
82.1248534696
 11
236.4004365327
 21
82.2114560099
  0
LINE
  5
510
100
AcDbEntity
  8
0
100
AcDbLine
 62
7
  6
CONTINUOUS
 10
236.4898852865
 20
82.1497188613
 11
236.4898852865
 21
82.2363214016
  0
LINE
  5
511
100
AcDbEntity
  8
0
100
AcDbLine
 62
7
  6
CONTINUOUS
 10
237.6319515306
 20
81.3921817002
 11
237.6319515306
 21
81.5623556921
  0
LINE
  5
512
100
AcDbEntity
  8
0
100
AcDbLine
 62
7
  6
CONTINUOUS
 10
234.7671676824
 20
87.2017252147
 11
234.7660924309
 21
87.1551781241
  0
LINE
  5
513
100
AcDbEntity
  8
0
100
AcDbLine
 62
7
  6
CONTINUOUS
 10
234.8757639908
 20
87.1275418295
 11
234.8768392423
 21
87.1740889201
  0
LINE
  5
514
100
AcDbEntity
  8
0
100
AcDbLine
 62
7
  6
CONTINUOUS
 10
234.3631083464
 20
82.3461444489
 11
234.3602327436
 21
82.2900367233
  0
LINE
  5
515
100
AcDbEntity
  8
0
100
AcDbLine
 62
7
  6
CONTINUOUS
 10
235.0638612628
 20
82.2551664775
 11
235.0667368413
 21
82.3112742003
  0
LINE
  5
516
100
AcDbEntity
  8
0
100
AcDbLine
 62
7
  6
CONTINUOUS
 10
235.3267229475
 20
82.1351257744
 11
235.334067517
 21
82.2099274176
  0
LINE
  5
517
100
AcDbEntity
  8
0
100
AcDbLine
 62
7
  6
CONTINUOUS
 10
235.3267229475
 20
82.048523234
 11
235.334067517
 21
82.1233248772
  0
LINE
  5
518
100
AcDbEntity
  8
0
100
AcDbLine
 62
7
  6
CONTINUOUS
 10
235.9722679884
 20
82.2147108322
 11
235.9649232983
 21
82.1399092056
  0
LINE
  5
519
100
AcDbEntity
  8
0
100
AcDbLine
 62
7
  6
CONTINUOUS
 10
243.0319515306
 20
112.3848382834
 11
243.5870616444
 21
112.9209188177
  0
LINE
  5
51A
100
AcDbEntity
  8
0
100
AcDbLine
 62
7
  6
CONTINUOUS
 10
243.0319515306
 20
112.2822322404
 11
243.5507525428
 21
112.7832483757
  0
LINE
  5
51B
100
AcDbEntity
  8
0
100
AcDbLine
 62
7
  6
CONTINUOUS
 10
243.7163935911
 20
113.7573761608
 11
243.0319515306
 21
113.1269113214
  0
LINE
  5
51C
100
AcDbEntity
  8
0
100
AcDbLine
 62
7
  6
CONTINUOUS
 10
229.7192968506
 20
108.9903172064
 11
226.7817599134
 21
110.3346151585
  0
LINE
  5
51D
100
AcDbEntity
  8
0
100
AcDbLine
 62
7
  6
CONTINUOUS
 10
226.5178624807
 20
109.3717264953
 11
228.6728106203
 21
108.3646074638
  0
LINE
  5
51E
100
AcDbEntity
  8
0
100
AcDbLine
 62
7
  6
CONTINUOUS
 10
226.5178624807
 20
109.4743325383
 11
228.6728106203
 21
108.4672135068
  0
LINE
  5
51F
100
AcDbEntity
  8
0
100
AcDbLine
 62
7
  6
CONTINUOUS
 10
232.0689981796
 20
109.6814350061
 11
230.7054252475
 21
113.5603578375
  0
LINE
  5
520
100
AcDbEntity
  8
KONSTRUKTIONSELEMENTE
100
AcDbLine
 62
7
  6
CONTINUOUS
 10
239.6319515306
 20
91.6560277299
 11
239.6319515306
 21
89.0696525774
  0
LINE
  5
521
100
AcDbEntity
  8
0
100
AcDbLine
 62
7
  6
CONTINUOUS
 10
239.9244515306
 20
88.3203653151
 11
239.9244515306
 21
88.1949397688
  0
LINE
  5
522
100
AcDbEntity
  8
0
100
AcDbLine
 62
7
  6
CONTINUOUS
 10
239.9819515306
 20
79.9572801999
 11
239.9819515306
 21
79.1385301999
  0
LINE
  5
523
100
AcDbEntity
  8
0
100
AcDbLine
 62
7
  6
CONTINUOUS
 10
239.9919515306
 20
84.6141801999
 11
239.9919515306
 21
83.7954301999
  0
LINE
  5
524
100
AcDbEntity
  8
0
100
AcDbLine
 62
7
  6
CONTINUOUS
 10
240.1269385063
 20
79.1385301999
 11
240.1269385063
 21
79.4167550823
  0
LINE
  5
525
100
AcDbEntity
  8
0
100
AcDbLine
 62
7
  6
CONTINUOUS
 10
240.1269385063
 20
79.4346738061
 11
240.1269385063
 21
79.9572801999
  0
LINE
  5
526
100
AcDbEntity
  8
0
100
AcDbLine
 62
7
  6
CONTINUOUS
 10
240.1369385063
 20
83.7954301999
 11
240.1369385063
 21
84.0736550823
  0
LINE
  5
527
100
AcDbEntity
  8
0
100
AcDbLine
 62
7
  6
CONTINUOUS
 10
240.1369385063
 20
84.0915738061
 11
240.1369385063
 21
84.6141801999
  0
LINE
  5
528
100
AcDbEntity
  8
0
100
AcDbLine
 62
7
  6
CONTINUOUS
 10
240.2110140209
 20
88.3203653151
 11
240.2110140209
 21
88.4849863175
  0
LINE
  5
529
100
AcDbEntity
  8
0
100
AcDbLine
 62
7
  6
CONTINUOUS
 10
240.271925482
 20
79.4172535954
 11
240.271925482
 21
79.5038561358
  0
LINE
  5
52A
100
AcDbEntity
  8
0
100
AcDbLine
 62
7
  6
CONTINUOUS
 10
240.281925482
 20
84.0741535954
 11
240.281925482
 21
84.1607561358
  0
LINE
  5
52B
100
AcDbEntity
  8
0
100
AcDbLine
 62
7
  6
CONTINUOUS
 10
240.3589176903
 20
79.4695142518
 11
240.3589176903
 21
79.5561167922
  0
LINE
  5
52C
100
AcDbEntity
  8
0
100
AcDbLine
 62
7
  6
CONTINUOUS
 10
240.3689176903
 20
84.1264142518
 11
240.3689176903
 21
84.2130167922
  0
LINE
  5
52D
100
AcDbEntity
  8
0
100
AcDbLine
 62
7
  6
CONTINUOUS
 10
240.6198942528
 20
79.1385301999
 11
240.6198942528
 21
79.2251327403
  0
LINE
  5
52E
100
AcDbEntity
  8
0
100
AcDbLine
 62
7
  6
CONTINUOUS
 10
240.6298942528
 20
83.7954301999
 11
240.6298942528
 21
83.8820327403
  0
LINE
  5
52F
100
AcDbEntity
  8
0
100
AcDbLine
 62
7
  6
CONTINUOUS
 10
240.9069515306
 20
87.9022801999
 11
240.9069515306
 21
88.8877201692
  0
LINE
  5
530
100
AcDbEntity
  8
0
100
AcDbLine
 62
7
  6
CONTINUOUS
 10
241.0258577806
 20
79.4869344625
 11
241.0258577806
 21
79.3475727526
  0
LINE
  5
531
100
AcDbEntity
  8
0
100
AcDbLine
 62
7
  6
CONTINUOUS
 10
241.0358577806
 20
84.1438344625
 11
241.0358577806
 21
84.0044727526
  0
LINE
  5
532
100
AcDbEntity
  8
0
100
AcDbLine
 62
7
  6
CONTINUOUS
 10
241.0548551488
 20
79.2778918977
 11
241.0548551488
 21
79.364494438
  0
LINE
  5
533
100
AcDbEntity
  8
0
100
AcDbLine
 62
7
  6
CONTINUOUS
 10
241.0648551488
 20
83.9347918977
 11
241.0648551488
 21
84.021394438
  0
LINE
  5
534
100
AcDbEntity
  8
0
100
AcDbLine
 62
7
  6
CONTINUOUS
 10
241.0838525999
 20
78.9643280687
 11
241.0838525999
 21
79.050930609
  0
LINE
  5
535
100
AcDbEntity
  8
0
100
AcDbLine
 62
7
  6
CONTINUOUS
 10
241.0838525999
 20
79.2430514763
 11
241.0838525999
 21
79.3296540167
  0
LINE
  5
536
100
AcDbEntity
  8
0
100
AcDbLine
 62
7
  6
CONTINUOUS
 10
241.0938525999
 20
83.6212280687
 11
241.0938525999
 21
83.707830609
  0
LINE
  5
537
100
AcDbEntity
  8
0
100
AcDbLine
 62
7
  6
CONTINUOUS
 10
241.0938525999
 20
83.8999514763
 11
241.0938525999
 21
83.9865540167
  0
LINE
  5
538
100
AcDbEntity
  8
0
100
AcDbLine
 62
7
  6
CONTINUOUS
 10
241.1525765306
 20
87.9022801999
 11
241.1525765306
 21
88.8847801999
  0
LINE
  5
539
100
AcDbEntity
  8
0
100
AcDbLine
 62
7
  6
CONTINUOUS
 10
241.1708447874
 20
78.9120674366
 11
241.1708447874
 21
78.998669977
  0
LINE
  5
53A
100
AcDbEntity
  8
0
100
AcDbLine
 62
7
  6
CONTINUOUS
 10
241.1708447874
 20
79.1907908381
 11
241.1708447874
 21
79.2773933785
  0
LINE
  5
53B
100
AcDbEntity
  8
0
100
AcDbLine
 62
7
  6
CONTINUOUS
 10
241.1708447874
 20
79.3649929633
 11
241.1708447874
 21
79.5561167922
  0
LINE
  5
53C
100
AcDbEntity
  8
0
100
AcDbLine
 62
7
  6
CONTINUOUS
 10
241.173654219
 20
80.3697801999
 11
241.173654219
 21
80.5399541918
  0
LINE
  5
53D
100
AcDbEntity
  8
0
100
AcDbLine
 62
7
  6
CONTINUOUS
 10
241.1808447874
 20
83.8476908381
 11
241.1808447874
 21
83.9342933785
  0
LINE
  5
53E
100
AcDbEntity
  8
0
100
AcDbLine
 62
7
  6
CONTINUOUS
 10
241.1808447874
 20
83.5689674366
 11
241.1808447874
 21
83.655569977
  0
LINE
  5
53F
100
AcDbEntity
  8
0
100
AcDbLine
 62
7
  6
CONTINUOUS
 10
241.1808447874
 20
84.0218929633
 11
241.1808447874
 21
84.2130167922
  0
LINE
  5
540
100
AcDbEntity
  8
0
100
AcDbLine
 62
7
  6
CONTINUOUS
 10
241.1998421556
 20
79.5217748839
 11
241.1998421556
 21
79.6083774243
  0
LINE
  5
541
100
AcDbEntity
  8
0
100
AcDbLine
 62
7
  6
CONTINUOUS
 10
241.2098421556
 20
84.1786748839
 11
241.2098421556
 21
84.2652774243
  0
LINE
  5
542
100
AcDbEntity
  8
0
100
AcDbLine
 62
7
  6
CONTINUOUS
 10
241.2578369749
 20
78.8772270152
 11
241.2578369749
 21
78.9638295556
  0
LINE
  5
543
100
AcDbEntity
  8
0
100
AcDbLine
 62
7
  6
CONTINUOUS
 10
241.2578369749
 20
79.1559504122
 11
241.2578369749
 21
79.2425529525
  0
LINE
  5
544
100
AcDbEntity
  8
0
100
AcDbLine
 62
7
  6
CONTINUOUS
 10
241.2578369749
 20
79.574035516
 11
241.2578369749
 21
79.6606380564
  0
LINE
  5
545
100
AcDbEntity
  8
0
100
AcDbLine
 62
7
  6
CONTINUOUS
 10
241.2678369749
 20
83.5341270152
 11
241.2678369749
 21
83.6207295556
  0
LINE
  5
546
100
AcDbEntity
  8
0
100
AcDbLine
 62
7
  6
CONTINUOUS
 10
241.2678369749
 20
83.8128504122
 11
241.2678369749
 21
83.8994529525
  0
LINE
  5
547
100
AcDbEntity
  8
0
100
AcDbLine
 62
7
  6
CONTINUOUS
 10
241.2678369749
 20
84.230935516
 11
241.2678369749
 21
84.3175380564
  0
LINE
  5
548
100
AcDbEntity
  8
0
100
AcDbLine
 62
7
  6
CONTINUOUS
 10
241.3738265306
 20
78.8598068045
 11
241.3738265306
 21
78.9294876473
  0
LINE
  5
549
100
AcDbEntity
  8
0
100
AcDbLine
 62
7
  6
CONTINUOUS
 10
241.3738265306
 20
79.1385301999
 11
241.3738265306
 21
79.2251327403
  0
LINE
  5
54A
100
AcDbEntity
  8
0
100
AcDbLine
 62
7
  6
CONTINUOUS
 10
241.3738265306
 20
79.6088759374
 11
241.3738265306
 21
79.6954784777
  0
LINE
  5
54B
100
AcDbEntity
  8
0
100
AcDbLine
 62
7
  6
CONTINUOUS
 10
241.3838265306
 20
83.5167068045
 11
241.3838265306
 21
83.5863876473
  0
LINE
  5
54C
100
AcDbEntity
  8
0
100
AcDbLine
 62
7
  6
CONTINUOUS
 10
241.3838265306
 20
83.7954301999
 11
241.3838265306
 21
83.8820327403
  0
LINE
  5
54D
100
AcDbEntity
  8
0
100
AcDbLine
 62
7
  6
CONTINUOUS
 10
241.3838265306
 20
84.2657759374
 11
241.3838265306
 21
84.3523784777
  0
LINE
  5
54E
100
AcDbEntity
  8
0
100
AcDbLine
 62
7
  6
CONTINUOUS
 10
241.5478109056
 20
78.8598068045
 11
241.5478109056
 21
78.9294876473
  0
LINE
  5
54F
100
AcDbEntity
  8
0
100
AcDbLine
 62
7
  6
CONTINUOUS
 10
241.5478109056
 20
79.1385301999
 11
241.5478109056
 21
79.2251327403
  0
LINE
  5
550
100
AcDbEntity
  8
0
100
AcDbLine
 62
7
  6
CONTINUOUS
 10
241.5478109056
 20
79.6088759374
 11
241.5478109056
 21
79.6954784777
  0
LINE
  5
551
100
AcDbEntity
  8
0
100
AcDbLine
 62
7
  6
CONTINUOUS
 10
241.5578109056
 20
83.5167068045
 11
241.5578109056
 21
83.5863876473
  0
LINE
  5
552
100
AcDbEntity
  8
0
100
AcDbLine
 62
7
  6
CONTINUOUS
 10
241.5578109056
 20
83.7954301999
 11
241.5578109056
 21
83.8820327403
  0
LINE
  5
553
100
AcDbEntity
  8
0
100
AcDbLine
 62
7
  6
CONTINUOUS
 10
241.5578109056
 20
84.2657759374
 11
241.5578109056
 21
84.3523784777
  0
LINE
  5
554
100
AcDbEntity
  8
0
100
AcDbLine
 62
7
  6
CONTINUOUS
 10
241.5619514916
 20
88.1949397688
 11
241.5619514916
 21
88.3203653151
  0
LINE
  5
555
100
AcDbEntity
  8
0
100
AcDbLine
 62
7
  6
CONTINUOUS
 10
241.6638005443
 20
78.8772270152
 11
241.6638005443
 21
78.946907858
  0
LINE
  5
556
100
AcDbEntity
  8
0
100
AcDbLine
 62
7
  6
CONTINUOUS
 10
241.6638005443
 20
79.1559504122
 11
241.6638005443
 21
79.2425529525
  0
LINE
  5
557
100
AcDbEntity
  8
0
100
AcDbLine
 62
7
  6
CONTINUOUS
 10
241.6638005443
 20
79.5914557267
 11
241.6638005443
 21
79.678058267
  0
LINE
  5
558
100
AcDbEntity
  8
0
100
AcDbLine
 62
7
  6
CONTINUOUS
 10
241.6738005443
 20
83.5341270152
 11
241.6738005443
 21
83.603807858
  0
LINE
  5
559
100
AcDbEntity
  8
0
100
AcDbLine
 62
7
  6
CONTINUOUS
 10
241.6738005443
 20
83.8128504122
 11
241.6738005443
 21
83.8994529525
  0
LINE
  5
55A
100
AcDbEntity
  8
0
100
AcDbLine
 62
7
  6
CONTINUOUS
 10
241.6738005443
 20
84.2483557267
 11
241.6738005443
 21
84.334958267
  0
LINE
  5
55B
100
AcDbEntity
  8
0
100
AcDbLine
 62
7
  6
CONTINUOUS
 10
241.7217952806
 20
79.1733706244
 11
241.7217952806
 21
79.2599731648
  0
LINE
  5
55C
100
AcDbEntity
  8
0
100
AcDbLine
 62
7
  6
CONTINUOUS
 10
241.7317952806
 20
83.8302706244
 11
241.7317952806
 21
83.9168731648
  0
LINE
  5
55D
100
AcDbEntity
  8
0
100
AcDbLine
 62
7
  6
CONTINUOUS
 10
241.7507927318
 20
78.8946472259
 11
241.7507927318
 21
78.9812497663
  0
LINE
  5
55E
100
AcDbEntity
  8
0
100
AcDbLine
 62
7
  6
CONTINUOUS
 10
241.7507927318
 20
79.5566153053
 11
241.7507927318
 21
79.6432178457
  0
LINE
  5
55F
100
AcDbEntity
  8
0
100
AcDbLine
 62
7
  6
CONTINUOUS
 10
241.7607927318
 20
83.5515472259
 11
241.7607927318
 21
83.6381497663
  0
LINE
  5
560
100
AcDbEntity
  8
0
100
AcDbLine
 62
7
  6
CONTINUOUS
 10
241.7607927318
 20
84.2135153053
 11
241.7607927318
 21
84.3001178457
  0
LINE
  5
561
100
AcDbEntity
  8
0
100
AcDbLine
 62
7
  6
CONTINUOUS
 10
241.779790017
 20
79.2082110488
 11
241.779790017
 21
79.2948135892
  0
LINE
  5
562
100
AcDbEntity
  8
0
100
AcDbLine
 62
7
  6
CONTINUOUS
 10
241.789790017
 20
83.8651110488
 11
241.789790017
 21
83.9517135892
  0
LINE
  5
563
100
AcDbEntity
  8
0
100
AcDbLine
 62
7
  6
CONTINUOUS
 10
241.8087874681
 20
79.1036897755
 11
241.8087874681
 21
79.6959769908
  0
LINE
  5
564
100
AcDbEntity
  8
0
100
AcDbLine
 62
7
  6
CONTINUOUS
 10
241.8187874681
 20
83.7605897755
 11
241.8187874681
 21
84.3528769908
  0
LINE
  5
565
100
AcDbEntity
  8
0
100
AcDbLine
 62
7
  6
CONTINUOUS
 10
241.8377849193
 20
78.9294876473
 11
241.8377849193
 21
79.0160901877
  0
LINE
  5
566
100
AcDbEntity
  8
0
100
AcDbLine
 62
7
  6
CONTINUOUS
 10
241.8477849193
 20
83.5863876473
 11
241.8477849193
 21
83.6729901877
  0
LINE
  5
567
100
AcDbEntity
  8
0
100
AcDbLine
 62
7
  6
CONTINUOUS
 10
241.859403457
 20
84.9875301999
 11
241.859403457
 21
85.1577041918
  0
LINE
  5
568
100
AcDbEntity
  8
0
100
AcDbLine
 62
7
  6
CONTINUOUS
 10
241.8894515306
 20
88.571216349
 11
241.8894515306
 21
87.9022801999
  0
LINE
  5
569
100
AcDbEntity
  8
0
100
AcDbLine
 62
7
  6
CONTINUOUS
 10
241.8957796556
 20
78.9817482793
 11
241.8957796556
 21
79.0683508197
  0
LINE
  5
56A
100
AcDbEntity
  8
0
100
AcDbLine
 62
7
  6
CONTINUOUS
 10
241.9057796556
 20
83.6386482793
 11
241.9057796556
 21
83.7252508197
  0
LINE
  5
56B
100
AcDbEntity
  8
0
100
AcDbLine
 62
7
  6
CONTINUOUS
 10
241.953774392
 20
79.1036897755
 11
241.953774392
 21
79.6959769908
  0
LINE
  5
56C
100
AcDbEntity
  8
0
100
AcDbLine
 62
7
  6
CONTINUOUS
 10
241.963774392
 20
83.7605897755
 11
241.963774392
 21
84.3528769908
  0
LINE
  5
56D
100
AcDbEntity
  8
0
100
AcDbLine
 62
7
  6
CONTINUOUS
 10
242.0941389525
 20
87.9022801999
 11
242.0941389525
 21
88.571216349
  0
LINE
  5
56E
100
AcDbEntity
  8
0
100
AcDbLine
 62
7
  6
CONTINUOUS
 10
242.1760141087
 20
88.4666950848
 11
242.1760141087
 21
88.5503120962
  0
LINE
  5
56F
100
AcDbEntity
  8
0
100
AcDbLine
 62
7
  6
CONTINUOUS
 10
242.2169515306
 20
78.7977801999
 11
242.2169515306
 21
80.2955048639
  0
LINE
  5
570
100
AcDbEntity
  8
0
100
AcDbLine
 62
7
  6
CONTINUOUS
 10
242.2169515306
 20
83.4155301999
 11
242.2169515306
 21
85.0594541918
  0
LINE
  5
571
100
AcDbEntity
  8
0
100
AcDbLine
 62
7
  6
CONTINUOUS
 10
242.2988266087
 20
88.4875993377
 11
242.2988266087
 21
88.571216349
  0
LINE
  5
572
100
AcDbEntity
  8
0
100
AcDbLine
 62
7
  6
CONTINUOUS
 10
242.3807015306
 20
88.4875993377
 11
242.3807015306
 21
88.571216349
  0
LINE
  5
573
100
AcDbEntity
  8
0
100
AcDbLine
 62
7
  6
CONTINUOUS
 10
242.4134515306
 20
78.6995301999
 11
242.4134515306
 21
80.2387801999
  0
LINE
  5
574
100
AcDbEntity
  8
0
100
AcDbLine
 62
7
  6
CONTINUOUS
 10
242.4134515306
 20
83.3172801999
 11
242.4134515306
 21
84.9875301999
  0
LINE
  5
575
100
AcDbEntity
  8
0
100
AcDbLine
 62
7
  6
CONTINUOUS
 10
242.4625764525
 20
88.4666950848
 11
242.4625764525
 21
88.571216349
  0
LINE
  5
576
100
AcDbEntity
  8
0
100
AcDbLine
 62
7
  6
CONTINUOUS
 10
242.5035140306
 20
88.445790832
 11
242.5035140306
 21
88.5642482514
  0
LINE
  5
577
100
AcDbEntity
  8
0
100
AcDbLine
 62
7
  6
CONTINUOUS
 10
242.5444516087
 20
87.9022801999
 11
242.5444516087
 21
88.5572801538
  0
LINE
  5
578
100
AcDbEntity
  8
0
100
AcDbLine
 62
7
  6
CONTINUOUS
 10
242.7491390306
 20
87.9022801999
 11
242.7491390306
 21
88.5085036304
  0
LINE
  5
579
100
AcDbEntity
  8
0
100
AcDbLine
 62
7
  6
CONTINUOUS
 10
242.7900766087
 20
88.445790832
 11
242.7900766087
 21
88.5294079231
  0
LINE
  5
57A
100
AcDbEntity
  8
0
100
AcDbLine
 62
7
  6
CONTINUOUS
 10
242.8310139525
 20
88.4666950848
 11
242.8310139525
 21
88.5503120962
  0
LINE
  5
57B
100
AcDbEntity
  8
0
100
AcDbLine
 62
7
  6
CONTINUOUS
 10
242.9128891087
 20
88.4875993377
 11
242.9128891087
 21
88.5642482913
  0
LINE
  5
57C
100
AcDbEntity
  8
KONSTRUKTIONSELEMENTE
100
AcDbLine
 62
7
  6
CONTINUOUS
 10
243.0319515306
 20
96.6645556037
 11
243.0319515306
 21
167.4645556037
  0
LINE
  5
57D
100
AcDbEntity
  8
0
100
AcDbLine
 62
7
  6
CONTINUOUS
 10
243.0357016087
 20
88.4875993377
 11
243.0357016087
 21
88.571216349
  0
LINE
  5
57E
100
AcDbEntity
  8
0
100
AcDbLine
 62
7
  6
CONTINUOUS
 10
243.1175765306
 20
88.4666950848
 11
243.1175765306
 21
88.571216349
  0
LINE
  5
57F
100
AcDbEntity
  8
0
100
AcDbLine
 62
7
  6
CONTINUOUS
 10
243.1585141087
 20
88.445790832
 11
243.1585141087
 21
88.5642482514
  0
LINE
  5
580
100
AcDbEntity
  8
0
100
AcDbLine
 62
7
  6
CONTINUOUS
 10
243.1994514525
 20
87.9022801999
 11
243.1994514525
 21
88.5572801937
  0
LINE
  5
581
100
AcDbEntity
  8
0
100
AcDbLine
 62
7
  6
CONTINUOUS
 10
234.4600381569
 20
82.3896323984
 11
234.4655358291
 21
82.422501971
  0
LINE
  5
582
100
AcDbEntity
  8
0
100
AcDbLine
 62
7
  6
CONTINUOUS
 10
234.4600381569
 20
82.303029858
 11
234.4655358291
 21
82.3358994306
  0
LINE
  5
583
100
AcDbEntity
  8
0
100
AcDbLine
 62
7
  6
CONTINUOUS
 10
234.9669314472
 20
82.2982810694
 11
234.9614337501
 21
82.2654114862
  0
LINE
  5
584
100
AcDbEntity
  8
0
100
AcDbLine
 62
7
  6
CONTINUOUS
 10
235.1722934694
 20
82.4364827922
 11
235.1777911551
 21
82.4693523619
  0
LINE
  5
585
100
AcDbEntity
  8
0
100
AcDbLine
 62
7
  6
CONTINUOUS
 10
235.4722375373
 20
87.0825761904
 11
235.4827208946
 21
87.1384570362
  0
LINE
  5
586
100
AcDbEntity
  8
0
100
AcDbLine
 62
7
  6
CONTINUOUS
 10
243.5870616444
 20
112.9209188177
 11
243.146858415
 21
111.2518339148
  0
LINE
  5
587
100
AcDbEntity
  8
0
100
AcDbLine
 62
7
  6
CONTINUOUS
 10
243.5958022683
 20
109.5767944312
 11
243.8214156125
 21
110.4322352858
  0
LINE
  5
588
100
AcDbEntity
  8
0
100
AcDbLine
 62
7
  6
CONTINUOUS
 10
243.9860325262
 20
111.0564006418
 11
244.6415605809
 21
113.5419162098
  0
LINE
  5
589
100
AcDbEntity
  8
0
100
AcDbLine
 62
7
  6
CONTINUOUS
 10
243.5958022683
 20
109.4741883882
 11
243.8214156125
 21
110.3296292428
  0
LINE
  5
58A
100
AcDbEntity
  8
0
100
AcDbLine
 62
7
  6
CONTINUOUS
 10
244.0113338492
 20
111.0497276894
 11
244.6415605809
 21
113.4393101668
  0
LINE
  5
58B
100
AcDbEntity
  8
0
100
AcDbLine
 62
7
  6
CONTINUOUS
 10
244.2928956048
 20
110.3224334261
 11
244.4575125184
 21
110.9465987821
  0
LINE
  5
58C
100
AcDbEntity
  8
0
100
AcDbLine
 62
7
  6
CONTINUOUS
 10
244.2928956048
 20
110.2198273831
 11
244.4575125184
 21
110.8439927391
  0
LINE
  5
58D
100
AcDbEntity
  8
0
100
AcDbLine
 62
7
  6
CONTINUOUS
 10
235.381382189
 20
87.1288799954
 11
235.3714365065
 21
87.0962726785
  0
LINE
  5
58E
100
AcDbEntity
  8
0
100
AcDbLine
 62
7
  6
CONTINUOUS
 10
235.2309701276
 20
82.1219711038
 11
235.2150265055
 21
82.0761085688
  0
LINE
  5
58F
100
AcDbEntity
  8
0
100
AcDbLine
 62
7
  6
CONTINUOUS
 10
245.2721841365
 20
111.059126304
 11
244.9630929113
 21
110.3374052896
  0
LINE
  5
590
100
AcDbEntity
  8
0
100
AcDbLine
 62
7
  6
CONTINUOUS
 10
235.4377015355
 20
88.8367004302
 11
235.3967640306
 21
88.7530834188
  0
LINE
  5
591
100
AcDbEntity
  8
0
100
AcDbLine
 62
7
  6
CONTINUOUS
 10
233.8087488327
 20
87.4240720469
 11
233.7779631098
 21
87.3632777073
  0
LINE
  5
592
100
AcDbEntity
  8
0
100
AcDbLine
 62
7
  6
CONTINUOUS
 10
234.2541853824
 20
87.3029890069
 11
234.1823520386
 21
87.1611355667
  0
LINE
  5
593
100
AcDbEntity
  8
0
100
AcDbLine
 62
7
  6
CONTINUOUS
 10
234.3824592193
 20
87.5562987387
 11
234.2849711053
 21
87.3637833465
  0
LINE
  5
594
100
AcDbEntity
  8
0
100
AcDbLine
 62
7
  6
CONTINUOUS
 10
234.3014076068
 20
87.232665932
 11
234.3732409505
 21
87.3745193722
  0
LINE
  5
595
100
AcDbEntity
  8
0
100
AcDbLine
 62
7
  6
CONTINUOUS
 10
234.4040266734
 20
87.4353137118
 11
234.5013497032
 21
87.6275031027
  0
LINE
  5
596
100
AcDbEntity
  8
0
100
AcDbLine
 62
7
  6
CONTINUOUS
 10
234.3014076068
 20
87.1460633916
 11
234.3732409505
 21
87.2879168318
  0
LINE
  5
597
100
AcDbEntity
  8
0
100
AcDbLine
 62
7
  6
CONTINUOUS
 10
234.4040266734
 20
87.3487111714
 11
234.5425624083
 21
87.6222856642
  0
LINE
  5
598
100
AcDbEntity
  8
0
100
AcDbLine
 62
7
  6
CONTINUOUS
 10
234.5716668785
 20
87.2627965423
 11
234.6024526014
 21
87.323590882
  0
LINE
  5
599
100
AcDbEntity
  8
0
100
AcDbLine
 62
7
  6
CONTINUOUS
 10
214.7302355887
 20
85.1868749531
 11
213.1206669196
 21
84.0388251181
  0
LINE
  5
59A
100
AcDbEntity
  8
0
100
AcDbLine
 62
7
  6
CONTINUOUS
 10
213.2480225896
 20
83.0914984964
 11
215.3762017914
 21
84.6094553429
  0
LINE
  5
59B
100
AcDbEntity
  8
0
100
AcDbLine
 62
7
  6
CONTINUOUS
 10
213.2480225896
 20
82.9888924534
 11
215.3762017914
 21
84.5068492999
  0
LINE
  5
59C
100
AcDbEntity
  8
RUNDUNGEN
100
AcDbLine
 62
7
  6
CONTINUOUS
 10
221.7829429622
 20
94.2806055573
 11
223.0606408684
 21
94.72793241
  0
LINE
  5
59D
100
AcDbEntity
  8
0
100
AcDbLine
 62
7
  6
CONTINUOUS
 10
243.0319515306
 20
109.6055022523
 11
243.5958022683
 21
109.4741883882
  0
LINE
  5
59E
100
AcDbEntity
  8
0
100
AcDbLine
 62
7
  6
CONTINUOUS
 10
243.0319515306
 20
109.7081082953
 11
243.5958022683
 21
109.5767944312
  0
LINE
  5
59F
100
AcDbEntity
  8
0
100
AcDbLine
 62
7
  6
CONTINUOUS
 10
243.4041391087
 20
87.9022801999
 11
243.4041391087
 21
88.4039823264
  0
LINE
  5
5A0
100
AcDbEntity
  8
0
100
AcDbLine
 62
7
  6
CONTINUOUS
 10
243.5958022683
 20
109.4741883882
 11
243.5958022683
 21
109.5767944312
  0
LINE
  5
5A1
100
AcDbEntity
  8
0
100
AcDbLine
 62
7
  6
CONTINUOUS
 10
243.7316390306
 20
88.571216349
 11
243.7316390306
 21
87.9022801999
  0
LINE
  5
5A2
100
AcDbEntity
  8
0
100
AcDbLine
 62
7
  6
CONTINUOUS
 10
243.8214156125
 20
110.3296292428
 11
243.8214156125
 21
110.4322352858
  0
LINE
  5
5A3
100
AcDbEntity
  8
0
100
AcDbLine
 62
7
  6
CONTINUOUS
 10
243.9363266868
 20
87.9022801999
 11
243.9363266868
 21
88.571216349
  0
LINE
  5
5A4
100
AcDbEntity
  8
0
100
AcDbLine
 62
7
  6
CONTINUOUS
 10
244.0182013744
 20
88.4666950848
 11
244.0182013744
 21
88.5503120962
  0
LINE
  5
5A5
100
AcDbEntity
  8
0
100
AcDbLine
 62
7
  6
CONTINUOUS
 10
244.1410138744
 20
88.4875993377
 11
244.1410138744
 21
88.571216349
  0
LINE
  5
5A6
100
AcDbEntity
  8
0
100
AcDbLine
 62
7
  6
CONTINUOUS
 10
244.2228890306
 20
88.4875993377
 11
244.2228890306
 21
88.571216349
  0
LINE
  5
5A7
100
AcDbEntity
  8
0
100
AcDbLine
 62
7
  6
CONTINUOUS
 10
244.2928956048
 20
110.2198273831
 11
244.2928956048
 21
110.3224334261
  0
LINE
  5
5A8
100
AcDbEntity
  8
0
100
AcDbLine
 62
7
  6
CONTINUOUS
 10
244.3047641868
 20
88.4666950848
 11
244.3047641868
 21
88.571216349
  0
LINE
  5
5A9
100
AcDbEntity
  8
0
100
AcDbLine
 62
7
  6
CONTINUOUS
 10
244.3457015306
 20
88.445790832
 11
244.3457015306
 21
88.5642482913
  0
LINE
  5
5AA
100
AcDbEntity
  8
0
100
AcDbLine
 62
7
  6
CONTINUOUS
 10
244.3866388744
 20
87.9022801999
 11
244.3866388744
 21
88.5572802336
  0
LINE
  5
5AB
100
AcDbEntity
  8
0
100
AcDbLine
 62
7
  6
CONTINUOUS
 10
244.4575125184
 20
110.8439927391
 11
244.4575125184
 21
110.9465987821
  0
LINE
  5
5AC
100
AcDbEntity
  8
0
100
AcDbLine
 62
7
  6
CONTINUOUS
 10
244.5913265306
 20
87.9022801999
 11
244.5913265306
 21
88.5085035108
  0
LINE
  5
5AD
100
AcDbEntity
  8
0
100
AcDbLine
 62
7
  6
CONTINUOUS
 10
244.6322638744
 20
88.445790832
 11
244.6322638744
 21
88.5294076838
  0
LINE
  5
5AE
100
AcDbEntity
  8
0
100
AcDbLine
 62
7
  6
CONTINUOUS
 10
244.6415605809
 20
113.4393101668
 11
244.6415605809
 21
113.5419162098
  0
LINE
  5
5AF
100
AcDbEntity
  8
0
100
AcDbLine
 62
7
  6
CONTINUOUS
 10
244.6732016868
 20
88.4666950848
 11
244.6732016868
 21
88.5503120962
  0
LINE
  5
5B0
100
AcDbEntity
  8
0
100
AcDbLine
 62
7
  6
CONTINUOUS
 10
244.7550763744
 20
88.4875993377
 11
244.7550763744
 21
88.5642482115
  0
LINE
  5
5B1
100
AcDbEntity
  8
0
100
AcDbLine
 62
7
  6
CONTINUOUS
 10
244.8778888744
 20
88.4875993377
 11
244.8778888744
 21
88.571216349
  0
LINE
  5
5B2
100
AcDbEntity
  8
0
100
AcDbLine
 62
7
  6
CONTINUOUS
 10
244.9597640306
 20
88.4666950848
 11
244.9597640306
 21
88.571216349
  0
LINE
  5
5B3
100
AcDbEntity
  8
0
100
AcDbLine
 62
7
  6
CONTINUOUS
 10
244.9630929113
 20
110.2347992466
 11
244.9630929113
 21
110.3374052896
  0
LINE
  5
5B4
100
AcDbEntity
  8
0
100
AcDbLine
 62
7
  6
CONTINUOUS
 10
245.0007013744
 20
88.445790832
 11
245.0007013744
 21
88.5642482913
  0
LINE
  5
5B5
100
AcDbEntity
  8
0
100
AcDbLine
 62
7
  6
CONTINUOUS
 10
245.0416391868
 20
87.9022801999
 11
245.0416391868
 21
88.5572801538
  0
LINE
  5
5B6
100
AcDbEntity
  8
0
100
AcDbLine
 62
7
  6
CONTINUOUS
 10
245.2463263744
 20
87.9022801999
 11
245.2463263744
 21
88.4039823264
  0
LINE
  5
5B7
100
AcDbEntity
  8
0
100
AcDbLine
 62
7
  6
CONTINUOUS
 10
246.5105088803
 20
109.6496104104
 11
246.5105088803
 21
109.7522164534
  0
LINE
  5
5B8
100
AcDbEntity
  8
0
100
AcDbLine
 62
7
  6
CONTINUOUS
 10
246.6757594672
 20
108.3152249335
 11
246.6757594672
 21
108.4178309765
  0
LINE
  5
5B9
100
AcDbEntity
  8
0
100
AcDbLine
 62
7
  6
CONTINUOUS
 10
246.8196001055
 20
110.3713314248
 11
246.8196001055
 21
110.4739374678
  0
LINE
  5
5BA
100
AcDbEntity
  8
0
100
AcDbLine
 62
7
  6
CONTINUOUS
 10
247.489797645
 20
107.919536974
 11
247.489797645
 21
108.022143017
  0
LINE
  5
5BB
100
AcDbEntity
  8
0
100
AcDbLine
 62
7
  6
CONTINUOUS
 10
236.0680207694
 20
82.1412629855
 11
236.0839644304
 21
82.1871254974
  0
LINE
  5
5BC
100
AcDbEntity
  8
0
100
AcDbLine
 62
7
  6
CONTINUOUS
 10
246.5105088803
 20
109.7522164534
 11
246.8196001055
 21
110.4739374678
  0
LINE
  5
5BD
100
AcDbEntity
  8
0
100
AcDbLine
 62
7
  6
CONTINUOUS
 10
246.5105088803
 20
109.6496104104
 11
246.8196001055
 21
110.3713314248
  0
LINE
  5
5BE
100
AcDbEntity
  8
0
100
AcDbLine
 62
7
  6
CONTINUOUS
 10
234.4010849804
 20
82.4175397483
 11
234.3631083464
 21
82.3461444489
  0
LINE
  5
5BF
100
AcDbEntity
  8
0
100
AcDbLine
 62
7
  6
CONTINUOUS
 10
248.7432714563
 20
112.1737101085
 11
246.6757594672
 21
108.4178309765
  0
LINE
  5
5C0
100
AcDbEntity
  8
0
100
AcDbLine
 62
7
  6
CONTINUOUS
 10
247.489797645
 20
108.022143017
 11
249.5573096341
 21
111.7780221491
  0
LINE
  5
5C1
100
AcDbEntity
  8
0
100
AcDbLine
 62
7
  6
CONTINUOUS
 10
247.489797645
 20
107.919536974
 11
249.5573096341
 21
111.6754161061
  0
LINE
  5
5C2
100
AcDbEntity
  8
0
100
AcDbLine
 62
7
  6
CONTINUOUS
 10
235.6423890306
 20
88.7321791075
 11
235.6617643919
 21
88.7618605433
  0
LINE
  5
5C3
100
AcDbEntity
  8
0
100
AcDbLine
 62
7
  6
CONTINUOUS
 10
236.0328819888
 20
87.3461535851
 11
236.0056323287
 21
87.3075498999
  0
LINE
  5
5C4
100
AcDbEntity
  8
0
100
AcDbLine
 62
7
  6
CONTINUOUS
 10
236.1793488292
 20
87.2768940468
 11
236.2065984893
 21
87.315497732
  0
LINE
  5
5C5
100
AcDbEntity
  8
0
100
AcDbLine
 62
7
  6
CONTINUOUS
 10
255.1430813239
 20
107.9842763681
 11
251.7976170185
 21
105.1561499145
  0
LINE
  5
5C6
100
AcDbEntity
  8
0
100
AcDbLine
 62
7
  6
CONTINUOUS
 10
253.010171236
 20
105.0227567872
 11
253.8686814605
 21
105.7485082091
  0
LINE
  5
5C7
100
AcDbEntity
  8
0
100
AcDbLine
 62
7
  6
CONTINUOUS
 10
254.4682758824
 20
106.2553822007
 11
255.1564467972
 21
106.837135342
  0
LINE
  5
5C8
100
AcDbEntity
  8
0
100
AcDbLine
 62
7
  6
CONTINUOUS
 10
253.0607587623
 20
104.9629154872
 11
253.8686814605
 21
105.6459021661
  0
LINE
  5
5C9
100
AcDbEntity
  8
0
100
AcDbLine
 62
7
  6
CONTINUOUS
 10
254.5188634087
 20
106.1955409007
 11
255.1564467972
 21
106.734529299
  0
LINE
  5
5CA
100
AcDbEntity
  8
RUNDUNGEN
100
AcDbLine
 62
7
  6
CONTINUOUS
 10
221.1149447471
 20
92.3146860568
 11
223.0606408684
 21
92.9958816024
  0
LINE
  5
5CB
100
AcDbEntity
  8
RUNDUNGEN
100
AcDbLine
 62
7
  6
CONTINUOUS
 10
229.6807154279
 20
92.2846245689
 11
233.2376658976
 21
93.5299263348
  0
LINE
  5
5CC
100
AcDbEntity
  8
0
100
AcDbLine
 62
7
  6
CONTINUOUS
 10
243.8214156125
 20
110.3296292428
 11
244.2928956048
 21
110.2198273831
  0
LINE
  5
5CD
100
AcDbEntity
  8
0
100
AcDbLine
 62
7
  6
CONTINUOUS
 10
243.8214156125
 20
110.4322352858
 11
244.2928956048
 21
110.3224334261
  0
LINE
  5
5CE
100
AcDbEntity
  8
0
100
AcDbLine
 62
7
  6
CONTINUOUS
 10
244.4575125184
 20
110.9465987821
 11
243.9860325262
 21
111.0564006418
  0
LINE
  5
5CF
100
AcDbEntity
  8
0
100
AcDbLine
 62
7
  6
CONTINUOUS
 10
243.146858415
 20
111.2518339148
 11
243.0319515306
 21
111.2785943072
  0
LINE
  5
5D0
100
AcDbEntity
  8
0
100
AcDbLine
 62
7
  6
CONTINUOUS
 10
244.6415605809
 20
113.5419162098
 11
243.7163935911
 21
113.7573761608
  0
LINE
  5
5D1
100
AcDbEntity
  8
0
100
AcDbLine
 62
7
  6
CONTINUOUS
 10
244.9630929113
 20
110.2347992466
 11
246.5105088803
 21
109.6496104104
  0
LINE
  5
5D2
100
AcDbEntity
  8
0
100
AcDbLine
 62
7
  6
CONTINUOUS
 10
244.9630929113
 20
110.3374052896
 11
246.5105088803
 21
109.7522164534
  0
LINE
  5
5D3
100
AcDbEntity
  8
0
100
AcDbLine
 62
7
  6
CONTINUOUS
 10
246.8196001055
 20
110.4739374678
 11
245.2721841365
 21
111.059126304
  0
LINE
  5
5D4
100
AcDbEntity
  8
0
100
AcDbLine
 62
7
  6
CONTINUOUS
 10
246.6757594672
 20
108.3152249335
 11
247.489797645
 21
107.919536974
  0
LINE
  5
5D5
100
AcDbEntity
  8
0
100
AcDbLine
 62
7
  6
CONTINUOUS
 10
246.6757594672
 20
108.4178309765
 11
247.489797645
 21
108.022143017
  0
LINE
  5
5D6
100
AcDbEntity
  8
0
100
AcDbLine
 62
7
  6
CONTINUOUS
 10
252.2702602304
 20
106.7594194559
 11
251.5305387355
 21
107.2678762367
  0
LINE
  5
5D7
100
AcDbEntity
  8
0
100
AcDbLine
 62
7
  6
CONTINUOUS
 10
251.7976170185
 20
105.0535438715
 11
254.051264159
 21
102.6994968817
  0
LINE
  5
5D8
100
AcDbEntity
  8
0
100
AcDbLine
 62
7
  6
CONTINUOUS
 10
251.7976170185
 20
105.1561499145
 11
254.051264159
 21
102.8021029247
  0
LINE
  5
5D9
100
AcDbEntity
  8
0
100
AcDbLine
 62
7
  6
CONTINUOUS
 10
248.9407678447
 20
107.9971984161
 11
248.9503029839
 21
107.8348012203
  0
LINE
  5
5DA
100
AcDbEntity
  8
0
100
AcDbLine
 62
7
  6
CONTINUOUS
 10
248.9410717058
 20
107.8945930521
 11
248.9503029839
 21
107.7321951773
  0
LINE
  5
5DB
100
AcDbEntity
  8
0
100
AcDbLine
 62
7
  6
CONTINUOUS
 10
249.8295928845
 20
107.8993025642
 11
249.8284380399
 21
107.9256735437
  0
LINE
  5
5DC
100
AcDbEntity
  8
RUNDUNGEN
100
AcDbLine
 62
7
  6
CONTINUOUS
 10
248.2819515306
 20
73.6887801999
 11
248.2819515306
 21
74.9660301999
  0
LINE
  5
5DD
100
AcDbEntity
  8
0
100
AcDbLine
 62
7
  6
CONTINUOUS
 10
249.5573096341
 20
111.6754161061
 11
249.5573096341
 21
111.7780221491
  0
LINE
  5
5DE
100
AcDbEntity
  8
RUNDUNGEN
100
AcDbLine
 62
7
  6
CONTINUOUS
 10
250.2942753015
 20
90.1931046913
 11
250.2942753015
 21
88.4610538837
  0
LINE
  5
5DF
100
AcDbEntity
  8
RUNDUNGEN
100
AcDbLine
 62
7
  6
CONTINUOUS
 10
251.1319515306
 20
77.9602999474
 11
251.1319515306
 21
74.5730301999
  0
LINE
  5
5E0
100
AcDbEntity
  8
0
100
AcDbLine
 62
7
  6
CONTINUOUS
 10
251.7976170185
 20
105.0535438715
 11
251.7976170185
 21
105.1561499145
  0
LINE
  5
5E1
100
AcDbEntity
  8
0
100
AcDbLine
 62
7
  6
CONTINUOUS
 10
252.2702602304
 20
106.6568134129
 11
252.2702602304
 21
106.7594194559
  0
LINE
  5
5E2
100
AcDbEntity
  8
0
100
AcDbLine
 62
7
  6
CONTINUOUS
 10
252.392856423
 20
108.2584623719
 11
252.392856423
 21
108.3610684149
  0
LINE
  5
5E3
100
AcDbEntity
  8
0
100
AcDbLine
 62
7
  6
CONTINUOUS
 10
241.0648551488
 20
84.2135153053
 11
241.0358577806
 21
84.1438344625
  0
LINE
  5
5E4
100
AcDbEntity
  8
0
100
AcDbLine
 62
7
  6
CONTINUOUS
 10
241.8187874681
 20
83.7605897755
 11
241.789790017
 21
83.6909089236
  0
LINE
  5
5E5
100
AcDbEntity
  8
0
100
AcDbLine
 62
7
  6
CONTINUOUS
 10
241.0548551488
 20
79.5566153053
 11
241.0258577806
 21
79.4869344625
  0
LINE
  5
5E6
100
AcDbEntity
  8
0
100
AcDbLine
 62
7
  6
CONTINUOUS
 10
241.8087874681
 20
79.1036897755
 11
241.779790017
 21
79.0340089236
  0
LINE
  5
5E7
100
AcDbEntity
  8
0
100
AcDbLine
 62
7
  6
CONTINUOUS
 10
241.9057796556
 20
83.7252508197
 11
241.963774392
 21
83.8471923159
  0
LINE
  5
5E8
100
AcDbEntity
  8
0
100
AcDbLine
 62
7
  6
CONTINUOUS
 10
241.9057796556
 20
83.6386482793
 11
241.963774392
 21
83.7605897755
  0
LINE
  5
5E9
100
AcDbEntity
  8
0
100
AcDbLine
 62
7
  6
CONTINUOUS
 10
241.8957796556
 20
79.0683508197
 11
241.953774392
 21
79.1902923159
  0
LINE
  5
5EA
100
AcDbEntity
  8
0
100
AcDbLine
 62
7
  6
CONTINUOUS
 10
241.8957796556
 20
78.9817482793
 11
241.953774392
 21
79.1036897755
  0
LINE
  5
5EB
100
AcDbEntity
  8
0
100
AcDbLine
 62
7
  6
CONTINUOUS
 10
241.1808447874
 20
84.2130167922
 11
241.2098421556
 21
84.2652774243
  0
LINE
  5
5EC
100
AcDbEntity
  8
0
100
AcDbLine
 62
7
  6
CONTINUOUS
 10
241.1808447874
 20
84.1264142518
 11
241.2098421556
 21
84.1786748839
  0
LINE
  5
5ED
100
AcDbEntity
  8
0
100
AcDbLine
 62
7
  6
CONTINUOUS
 10
235.2512132912
 20
82.1533640701
 11
235.2309701276
 21
82.1219711038
  0
LINE
  5
5EE
100
AcDbEntity
  8
0
100
AcDbLine
 62
7
  6
CONTINUOUS
 10
236.0477776189
 20
82.1964725187
 11
236.0680207694
 21
82.2278655259
  0
LINE
  5
5EF
100
AcDbEntity
  8
0
100
AcDbLine
 62
7
  6
CONTINUOUS
 10
236.0477776189
 20
82.1098699783
 11
236.0680207694
 21
82.1412629855
  0
LINE
  5
5F0
100
AcDbEntity
  8
0
100
AcDbLine
 62
7
  6
CONTINUOUS
 10
234.4579231525
 20
82.4849597448
 11
234.4010849804
 21
82.4175397483
  0
LINE
  5
5F1
100
AcDbEntity
  8
0
100
AcDbLine
 62
7
  6
CONTINUOUS
 10
234.5359914169
 20
82.532422983
 11
234.5522308947
 21
82.5516858392
  0
LINE
  5
5F2
100
AcDbEntity
  8
0
100
AcDbLine
 62
7
  6
CONTINUOUS
 10
234.4655358291
 20
82.422501971
 11
234.4898950457
 21
82.4513962552
  0
LINE
  5
5F3
100
AcDbEntity
  8
0
100
AcDbLine
 62
7
  6
CONTINUOUS
 10
234.5359914169
 20
82.4458204427
 11
234.5522308947
 21
82.4650832988
  0
LINE
  5
5F4
100
AcDbEntity
  8
0
100
AcDbLine
 62
7
  6
CONTINUOUS
 10
234.4655358291
 20
82.3358994306
 11
234.4898950457
 21
82.3647937148
  0
LINE
  5
5F5
100
AcDbEntity
  8
0
100
AcDbLine
 62
7
  6
CONTINUOUS
 10
234.9614337501
 20
82.2654114862
 11
234.9370745335
 21
82.236517202
  0
LINE
  5
5F6
100
AcDbEntity
  8
0
100
AcDbLine
 62
7
  6
CONTINUOUS
 10
235.023262557
 20
82.293611864
 11
235.0500280851
 21
82.3253604538
  0
LINE
  5
5F7
100
AcDbEntity
  8
0
100
AcDbLine
 62
7
  6
CONTINUOUS
 10
235.023262557
 20
82.2070093236
 11
235.0638612628
 21
82.2551664775
  0
LINE
  5
5F8
100
AcDbEntity
  8
0
100
AcDbLine
 62
7
  6
CONTINUOUS
 10
236.3550445957
 20
82.2246489253
 11
236.3216681672
 21
82.1872673254
  0
LINE
  5
5F9
100
AcDbEntity
  8
0
100
AcDbLine
 62
7
  6
CONTINUOUS
 10
236.4898852865
 20
82.1497188613
 11
236.523261715
 21
82.1871004612
  0
LINE
  5
5FA
100
AcDbEntity
  8
0
100
AcDbLine
 62
7
  6
CONTINUOUS
 10
235.295999138
 20
82.201680469
 11
235.2512132912
 21
82.1533640701
  0
LINE
  5
5FB
100
AcDbEntity
  8
0
100
AcDbLine
 62
7
  6
CONTINUOUS
 10
236.0029917418
 20
82.1481561488
 11
236.0477776189
 21
82.1964725187
  0
LINE
  5
5FC
100
AcDbEntity
  8
0
100
AcDbLine
 62
7
  6
CONTINUOUS
 10
236.0029917418
 20
82.0615536085
 11
236.0477776189
 21
82.1098699783
  0
LINE
  5
5FD
100
AcDbEntity
  8
0
100
AcDbLine
 62
7
  6
CONTINUOUS
 10
235.334067517
 20
82.2099274176
 11
235.3911247444
 21
82.2667055097
  0
LINE
  5
5FE
100
AcDbEntity
  8
0
100
AcDbLine
 62
7
  6
CONTINUOUS
 10
235.334067517
 20
82.1233248772
 11
235.3911247444
 21
82.1801029693
  0
LINE
  5
5FF
100
AcDbEntity
  8
0
100
AcDbLine
 62
7
  6
CONTINUOUS
 10
235.0964511928
 20
87.5284064571
 11
234.8518405881
 21
87.2857289657
  0
LINE
  5
600
100
AcDbEntity
  8
0
100
AcDbLine
 62
7
  6
CONTINUOUS
 10
234.9902740156
 20
87.3959700127
 11
235.1182328936
 21
87.5229176548
  0
LINE
  5
601
100
AcDbEntity
  8
0
100
AcDbLine
 62
7
  6
CONTINUOUS
 10
234.9902740156
 20
87.3093674723
 11
235.1408036286
 21
87.458707477
  0
LINE
  5
602
100
AcDbEntity
  8
0
100
AcDbLine
 62
7
  6
CONTINUOUS
 10
235.3714365065
 20
87.0962726785
 11
235.3526203082
 21
87.0776051811
  0
LINE
  5
603
100
AcDbEntity
  8
0
100
AcDbLine
 62
7
  6
CONTINUOUS
 10
235.4346051407
 20
87.1318437361
 11
235.4722375373
 21
87.1691787308
  0
LINE
  5
604
100
AcDbEntity
  8
0
100
AcDbLine
 62
7
  6
CONTINUOUS
 10
235.6708829043
 20
87.3251320356
 11
235.7179234001
 21
87.3718007789
  0
LINE
  5
605
100
AcDbEntity
  8
0
100
AcDbLine
 62
7
  6
CONTINUOUS
 10
235.4346051407
 20
87.0452411958
 11
235.4722375373
 21
87.0825761904
  0
LINE
  5
606
100
AcDbEntity
  8
0
100
AcDbLine
 62
7
  6
CONTINUOUS
 10
255.3030067219
 20
104.2502838405
 11
255.9026011438
 21
104.7571578321
  0
LINE
  5
607
100
AcDbEntity
  8
0
100
AcDbLine
 62
7
  6
CONTINUOUS
 10
255.3030067219
 20
104.1476777975
 11
255.9026011438
 21
104.6545517891
  0
LINE
  5
608
100
AcDbEntity
  8
0
100
AcDbLine
 62
7
  6
CONTINUOUS
 10
256.7276636719
 20
105.1959208466
 11
257.3272579941
 21
105.7027947539
  0
LINE
  5
609
100
AcDbEntity
  8
0
100
AcDbLine
 62
7
  6
CONTINUOUS
 10
256.7276636719
 20
105.0933148036
 11
257.3272579941
 21
105.6001887109
  0
LINE
  5
60A
100
AcDbEntity
  8
0
100
AcDbLine
 62
7
  6
CONTINUOUS
 10
254.051264159
 20
102.8021029247
 11
254.6508585809
 21
103.3089769162
  0
LINE
  5
60B
100
AcDbEntity
  8
0
100
AcDbLine
 62
7
  6
CONTINUOUS
 10
254.051264159
 20
102.6994968817
 11
254.6508585809
 21
103.2063708732
  0
LINE
  5
60C
100
AcDbEntity
  8
RUNDUNGEN
100
AcDbLine
 62
7
  6
CONTINUOUS
 10
224.4873177636
 20
78.5238387962
 11
230.4667424971
 21
82.7935905535
  0
LINE
  5
60D
100
AcDbEntity
  8
RUNDUNGEN
100
AcDbLine
 62
7
  6
CONTINUOUS
 10
245.4856330245
 20
93.5181898386
 11
245.8269110041
 21
93.7618875717
  0
LINE
  5
60E
100
AcDbEntity
  8
0
100
AcDbLine
 62
7
  6
CONTINUOUS
 10
235.6014515404
 20
88.9203174415
 11
235.4377015355
 21
88.8367004302
  0
LINE
  5
60F
100
AcDbEntity
  8
RUNDUNGEN
100
AcDbLine
 62
7
  6
CONTINUOUS
 10
234.5287216072
 20
92.2498789973
 11
229.6807154279
 21
90.5525737613
  0
LINE
  5
610
100
AcDbEntity
  8
RUNDUNGEN
100
AcDbLine
 62
7
  6
CONTINUOUS
 10
243.0319515306
 20
117.040171399
 11
258.6595820192
 21
110.9573752125
  0
LINE
  5
611
100
AcDbEntity
  8
0
100
AcDbLine
 62
7
  6
CONTINUOUS
 10
249.5573096341
 20
111.7780221491
 11
248.7432714563
 21
112.1737101085
  0
LINE
  5
612
100
AcDbEntity
  8
0
100
AcDbLine
 62
7
  6
CONTINUOUS
 10
252.392856423
 20
108.2584623719
 11
253.1325796498
 21
107.7500044006
  0
LINE
  5
613
100
AcDbEntity
  8
0
100
AcDbLine
 62
7
  6
CONTINUOUS
 10
252.392856423
 20
108.3610684149
 11
253.1325796498
 21
107.8526104436
  0
LINE
  5
614
100
AcDbEntity
  8
0
100
AcDbLine
 62
7
  6
CONTINUOUS
 10
254.6508585809
 20
103.3089769162
 11
253.010171236
 21
105.0227567872
  0
LINE
  5
615
100
AcDbEntity
  8
0
100
AcDbLine
 62
7
  6
CONTINUOUS
 10
253.8686814605
 20
105.6459021661
 11
255.3030067219
 21
104.1476777975
  0
LINE
  5
616
100
AcDbEntity
  8
0
100
AcDbLine
 62
7
  6
CONTINUOUS
 10
253.8686814605
 20
105.7485082091
 11
255.3030067219
 21
104.2502838405
  0
LINE
  5
617
100
AcDbEntity
  8
0
100
AcDbLine
 62
7
  6
CONTINUOUS
 10
255.9026011438
 20
104.7571578321
 11
254.4682758824
 21
106.2553822007
  0
LINE
  5
618
100
AcDbEntity
  8
0
100
AcDbLine
 62
7
  6
CONTINUOUS
 10
255.1564467972
 20
106.734529299
 11
256.7276636719
 21
105.0933148036
  0
LINE
  5
619
100
AcDbEntity
  8
0
100
AcDbLine
 62
7
  6
CONTINUOUS
 10
255.1564467972
 20
106.837135342
 11
256.7276636719
 21
105.1959208466
  0
LINE
  5
61A
100
AcDbEntity
  8
0
100
AcDbLine
 62
7
  6
CONTINUOUS
 10
257.3272579941
 20
105.7027947539
 11
255.1430813239
 21
107.9842763681
  0
LINE
  5
61B
100
AcDbEntity
  8
0
100
AcDbLine
 62
7
  6
CONTINUOUS
 10
253.3916702542
 20
108.7122271977
 11
253.3911736568
 21
108.7305809614
  0
LINE
  5
61C
100
AcDbEntity
  8
0
100
AcDbLine
 62
7
  6
CONTINUOUS
 10
253.1325796498
 20
107.7500044006
 11
253.1325796498
 21
107.8526104436
  0
LINE
  5
61D
100
AcDbEntity
  8
0
100
AcDbLine
 62
7
  6
CONTINUOUS
 10
253.8686814605
 20
105.6459021661
 11
253.8686814605
 21
105.7485082091
  0
LINE
  5
61E
100
AcDbEntity
  8
0
100
AcDbLine
 62
7
  6
CONTINUOUS
 10
254.051264159
 20
102.6994968817
 11
254.051264159
 21
102.8021029247
  0
LINE
  5
61F
100
AcDbEntity
  8
0
100
AcDbLine
 62
7
  6
CONTINUOUS
 10
254.6508585809
 20
103.2063708732
 11
254.6508585809
 21
103.3089769162
  0
LINE
  5
620
100
AcDbEntity
  8
0
100
AcDbLine
 62
7
  6
CONTINUOUS
 10
255.1564467972
 20
106.734529299
 11
255.1564467972
 21
106.837135342
  0
LINE
  5
621
100
AcDbEntity
  8
0
100
AcDbLine
 62
7
  6
CONTINUOUS
 10
255.3030067219
 20
104.1476777975
 11
255.3030067219
 21
104.2502838405
  0
LINE
  5
622
100
AcDbEntity
  8
0
100
AcDbLine
 62
7
  6
CONTINUOUS
 10
255.9026011438
 20
104.6545517891
 11
255.9026011438
 21
104.7571578321
  0
LINE
  5
623
100
AcDbEntity
  8
0
100
AcDbLine
 62
7
  6
CONTINUOUS
 10
256.7276636719
 20
105.0933148036
 11
256.7276636719
 21
105.1959208466
  0
LINE
  5
624
100
AcDbEntity
  8
RUNDUNGEN
100
AcDbLine
 62
7
  6
CONTINUOUS
 10
257.1319515306
 20
54.7051848271
 11
257.1319515306
 21
50.2788121793
  0
LINE
  5
625
100
AcDbEntity
  8
BEZUGSACHSEN
100
AcDbLine
 62
7
  6
CONTINUOUS
 10
257.1319515306
 20
49.859397578
 11
257.1319515306
 21
47.9617034466
  0
LINE
  5
626
100
AcDbEntity
  8
0
100
AcDbLine
 62
7
  6
CONTINUOUS
 10
257.1319515306
 20
49.3384122617
 11
257.1319515306
 21
47.9617034466
  0
LINE
  5
627
100
AcDbEntity
  8
RUNDUNGEN
100
AcDbLine
 62
7
  6
CONTINUOUS
 10
257.1319515306
 20
46.2516027299
 11
257.1319515306
 21
44.0284717983
  0
LINE
  5
628
100
AcDbEntity
  8
KONSTRUKTIONSELEMENTE
100
AcDbLine
 62
7
  6
CONTINUOUS
 10
257.1319515306
 20
46.2516027299
 11
257.1319515306
 21
47.9617034466
  0
LINE
  5
629
100
AcDbEntity
  8
0
100
AcDbLine
 62
7
  6
CONTINUOUS
 10
257.3272579941
 20
105.6001887109
 11
257.3272579941
 21
105.7027947539
  0
LINE
  5
62A
100
AcDbEntity
  8
RUNDUNGEN
100
AcDbLine
 62
7
  6
CONTINUOUS
 10
254.4677767316
 20
88.4006964031
 11
252.2263719929
 21
73.4140806084
  0
LINE
  5
62B
100
AcDbEntity
  8
0
100
AcDbLine
 62
7
  6
CONTINUOUS
 10
241.1708447874
 20
79.5561167922
 11
241.1998421556
 21
79.6083774243
  0
LINE
  5
62C
100
AcDbEntity
  8
0
100
AcDbLine
 62
7
  6
CONTINUOUS
 10
241.1708447874
 20
79.4695142518
 11
241.1998421556
 21
79.5217748839
  0
LINE
  5
62D
100
AcDbEntity
  8
0
100
AcDbLine
 62
7
  6
CONTINUOUS
 10
241.0938525999
 20
84.2483557267
 11
241.0648551488
 21
84.2135153053
  0
LINE
  5
62E
100
AcDbEntity
  8
0
100
AcDbLine
 62
7
  6
CONTINUOUS
 10
241.789790017
 20
83.8651110488
 11
241.8187874681
 21
83.8999514763
  0
LINE
  5
62F
100
AcDbEntity
  8
0
100
AcDbLine
 62
7
  6
CONTINUOUS
 10
241.789790017
 20
83.6909089236
 11
241.7607927318
 21
83.6560685022
  0
LINE
  5
630
100
AcDbEntity
  8
0
100
AcDbLine
 62
7
  6
CONTINUOUS
 10
241.0838525999
 20
79.5914557267
 11
241.0548551488
 21
79.5566153053
  0
LINE
  5
631
100
AcDbEntity
  8
0
100
AcDbLine
 62
7
  6
CONTINUOUS
 10
241.779790017
 20
79.2082110488
 11
241.8087874681
 21
79.2430514763
  0
LINE
  5
632
100
AcDbEntity
  8
0
100
AcDbLine
 62
7
  6
CONTINUOUS
 10
241.779790017
 20
79.0340089236
 11
241.7507927318
 21
78.9991685022
  0
LINE
  5
633
100
AcDbEntity
  8
0
100
AcDbLine
 62
7
  6
CONTINUOUS
 10
242.7491390306
 20
88.4039823264
 11
242.7900766087
 21
88.445790832
  0
LINE
  5
634
100
AcDbEntity
  8
0
100
AcDbLine
 62
7
  6
CONTINUOUS
 10
244.5913265306
 20
88.4039823264
 11
244.6322638744
 21
88.445790832
  0
LINE
  5
635
100
AcDbEntity
  8
0
100
AcDbLine
 62
7
  6
CONTINUOUS
 10
235.9649232983
 20
82.1399092056
 11
235.9078661829
 21
82.0831310909
  0
LINE
  5
636
100
AcDbEntity
  8
0
100
AcDbLine
 62
7
  6
CONTINUOUS
 10
241.2098421556
 20
84.2652774243
 11
241.2678369749
 21
84.3175380564
  0
LINE
  5
637
100
AcDbEntity
  8
0
100
AcDbLine
 62
7
  6
CONTINUOUS
 10
241.2098421556
 20
84.1786748839
 11
241.2678369749
 21
84.230935516
  0
LINE
  5
638
100
AcDbEntity
  8
0
100
AcDbLine
 62
7
  6
CONTINUOUS
 10
241.8187874681
 20
83.9870525419
 11
241.7607927318
 21
83.9347918977
  0
LINE
  5
639
100
AcDbEntity
  8
0
100
AcDbLine
 62
7
  6
CONTINUOUS
 10
241.8477849193
 20
83.6729901877
 11
241.9057796556
 21
83.7252508197
  0
LINE
  5
63A
100
AcDbEntity
  8
0
100
AcDbLine
 62
7
  6
CONTINUOUS
 10
241.8477849193
 20
83.5863876473
 11
241.9057796556
 21
83.6386482793
  0
LINE
  5
63B
100
AcDbEntity
  8
0
100
AcDbLine
 62
7
  6
CONTINUOUS
 10
234.533622874
 20
82.5484044519
 11
234.4579231525
 21
82.4849597448
  0
LINE
  5
63C
100
AcDbEntity
  8
0
100
AcDbLine
 62
7
  6
CONTINUOUS
 10
234.5522308947
 20
82.4650832988
 11
234.619810879
 21
82.5188965775
  0
LINE
  5
63D
100
AcDbEntity
  8
RUNDUNGEN
100
AcDbLine
 62
7
  6
CONTINUOUS
 10
224.4873177636
 20
76.7917879886
 11
230.4667424971
 21
81.0615397459
  0
LINE
  5
63E
100
AcDbEntity
  8
RUNDUNGEN
100
AcDbLine
 62
7
  6
CONTINUOUS
 10
245.4856330245
 20
91.786139031
 11
245.8269110041
 21
92.0298367642
  0
LINE
  5
63F
100
AcDbEntity
  8
RUNDUNGEN
100
AcDbLine
 62
7
  6
CONTINUOUS
 10
248.2222954345
 20
89.9396044995
 11
249.3608446607
 21
90.7526129035
  0
LINE
  5
640
100
AcDbEntity
  8
0
100
AcDbLine
 62
7
  6
CONTINUOUS
 10
240.3689176903
 20
84.2130167922
 11
240.5659098984
 21
84.3528769908
  0
LINE
  5
641
100
AcDbEntity
  8
0
100
AcDbLine
 62
7
  6
CONTINUOUS
 10
240.3689176903
 20
84.1264142518
 11
240.6878890306
 21
84.3528769908
  0
LINE
  5
642
100
AcDbEntity
  8
0
100
AcDbLine
 62
7
  6
CONTINUOUS
 10
240.5139046556
 20
84.3528769908
 11
240.1369385063
 21
84.0915738061
  0
LINE
  5
643
100
AcDbEntity
  8
0
100
AcDbLine
 62
7
  6
CONTINUOUS
 10
235.4064411357
 20
82.2778358625
 11
235.295999138
 21
82.201680469
  0
LINE
  5
644
100
AcDbEntity
  8
0
100
AcDbLine
 62
7
  6
CONTINUOUS
 10
235.3911247444
 20
82.1801029693
 11
235.4770240759
 21
82.2393349421
  0
LINE
  5
645
100
AcDbEntity
  8
0
100
AcDbLine
 62
7
  6
CONTINUOUS
 10
235.8219668514
 20
82.0238991182
 11
236.0029917418
 21
82.1481561488
  0
LINE
  5
646
100
AcDbEntity
  8
0
100
AcDbLine
 62
7
  6
CONTINUOUS
 10
235.8925497441
 20
81.985398215
 11
236.0029917418
 21
82.0615536085
  0
LINE
  5
647
100
AcDbEntity
  8
0
100
AcDbLine
 62
7
  6
CONTINUOUS
 10
240.1369385063
 20
84.0736550823
 11
240.281925482
 21
84.1607561358
  0
LINE
  5
648
100
AcDbEntity
  8
0
100
AcDbLine
 62
7
  6
CONTINUOUS
 10
240.1369385063
 20
83.9870525419
 11
240.281925482
 21
84.0741535954
  0
LINE
  5
649
100
AcDbEntity
  8
0
100
AcDbLine
 62
7
  6
CONTINUOUS
 10
241.1808447874
 20
84.3006163587
 11
241.0938525999
 21
84.2483557267
  0
LINE
  5
64A
100
AcDbEntity
  8
0
100
AcDbLine
 62
7
  6
CONTINUOUS
 10
234.4898950457
 20
82.4513962552
 11
234.5331158181
 21
82.4763152646
  0
LINE
  5
64B
100
AcDbEntity
  8
0
100
AcDbLine
 62
7
  6
CONTINUOUS
 10
234.619810879
 20
82.5188965775
 11
234.6630316628
 21
82.5438156003
  0
LINE
  5
64C
100
AcDbEntity
  8
0
100
AcDbLine
 62
7
  6
CONTINUOUS
 10
234.4898950457
 20
82.3647937148
 11
234.5331158181
 21
82.3897127242
  0
LINE
  5
64D
100
AcDbEntity
  8
0
100
AcDbLine
 62
7
  6
CONTINUOUS
 10
234.9370745335
 20
82.236517202
 11
234.893853786
 21
82.2115982033
  0
LINE
  5
64E
100
AcDbEntity
  8
0
100
AcDbLine
 62
7
  6
CONTINUOUS
 10
240.9069515306
 20
88.8847801999
 11
239.9244515306
 21
88.3203653151
  0
LINE
  5
64F
100
AcDbEntity
  8
0
100
AcDbLine
 62
7
  6
CONTINUOUS
 10
240.2110140209
 20
88.3203653151
 11
240.9069515306
 21
88.7175461773
  0
LINE
  5
650
100
AcDbEntity
  8
0
100
AcDbLine
 62
7
  6
CONTINUOUS
 10
234.6119446883
 20
82.5886110408
 11
234.533622874
 21
82.5484044519
  0
LINE
  5
651
100
AcDbEntity
  8
0
100
AcDbLine
 62
7
  6
CONTINUOUS
 10
234.9628717851
 20
82.2626102145
 11
235.023262557
 21
82.293611864
  0
LINE
  5
652
100
AcDbEntity
  8
0
100
AcDbLine
 62
7
  6
CONTINUOUS
 10
234.9449407412
 20
82.1668027589
 11
235.023262557
 21
82.2070093236
  0
LINE
  5
653
100
AcDbEntity
  8
0
100
AcDbLine
 62
7
  6
CONTINUOUS
 10
242.1760141087
 20
88.5503120962
 11
242.0941389525
 21
88.5085035905
  0
LINE
  5
654
100
AcDbEntity
  8
0
100
AcDbLine
 62
7
  6
CONTINUOUS
 10
242.0941389525
 20
88.4248865792
 11
242.1760141087
 21
88.4666950848
  0
LINE
  5
655
100
AcDbEntity
  8
0
100
AcDbLine
 62
7
  6
CONTINUOUS
 10
242.8310139525
 20
88.5503120962
 11
242.7082014525
 21
88.4875993377
  0
LINE
  5
656
100
AcDbEntity
  8
0
100
AcDbLine
 62
7
  6
CONTINUOUS
 10
242.7900766087
 20
88.445790832
 11
242.8310139525
 21
88.4666950848
  0
LINE
  5
657
100
AcDbEntity
  8
0
100
AcDbLine
 62
7
  6
CONTINUOUS
 10
244.0182013744
 20
88.5503120962
 11
243.9363266868
 21
88.5085035905
  0
LINE
  5
658
100
AcDbEntity
  8
0
100
AcDbLine
 62
7
  6
CONTINUOUS
 10
243.9363266868
 20
88.4248865792
 11
244.0182013744
 21
88.4666950848
  0
LINE
  5
659
100
AcDbEntity
  8
0
100
AcDbLine
 62
7
  6
CONTINUOUS
 10
244.6732016868
 20
88.5503120962
 11
244.5503891868
 21
88.4875993377
  0
LINE
  5
65A
100
AcDbEntity
  8
0
100
AcDbLine
 62
7
  6
CONTINUOUS
 10
244.6322638744
 20
88.445790832
 11
244.6732016868
 21
88.4666950848
  0
LINE
  5
65B
100
AcDbEntity
  8
0
100
AcDbLine
 62
7
  6
CONTINUOUS
 10
237.1252478016
 20
87.1383319343
 11
235.9552536742
 21
86.5494896051
  0
LINE
  5
65C
100
AcDbEntity
  8
0
100
AcDbLine
 62
7
  6
CONTINUOUS
 10
235.816763096
 20
86.4797891573
 11
233.0469515306
 21
85.0857801999
  0
LINE
  5
65D
100
AcDbEntity
  8
0
100
AcDbLine
 62
7
  6
CONTINUOUS
 10
233.4056341039
 20
85.1577041918
 11
237.266040194
 21
87.1005947248
  0
LINE
  5
65E
100
AcDbEntity
  8
0
100
AcDbLine
 62
7
  6
CONTINUOUS
 10
233.4056341039
 20
84.9875301999
 11
237.5488255399
 21
87.0727427992
  0
LINE
  5
65F
100
AcDbEntity
  8
0
100
AcDbLine
 62
7
  6
CONTINUOUS
 10
235.3526203082
 20
87.0776051811
 11
235.3061173825
 21
87.054209993
  0
LINE
  5
660
100
AcDbEntity
  8
0
100
AcDbLine
 62
7
  6
CONTINUOUS
 10
235.4770240759
 20
82.2393349421
 11
235.5672228626
 21
82.2840973864
  0
LINE
  5
661
100
AcDbEntity
  8
0
100
AcDbLine
 62
7
  6
CONTINUOUS
 10
235.8219668514
 20
82.0238991182
 11
235.7317679526
 21
81.9791366964
  0
LINE
  5
662
100
AcDbEntity
  8
0
100
AcDbLine
 62
7
  6
CONTINUOUS
 10
235.4843686368
 20
82.3141365793
 11
235.4064411357
 21
82.2778358625
  0
LINE
  5
663
100
AcDbEntity
  8
0
100
AcDbLine
 62
7
  6
CONTINUOUS
 10
235.3740041966
 20
87.1046909529
 11
235.4346051407
 21
87.1318437361
  0
LINE
  5
664
100
AcDbEntity
  8
0
100
AcDbLine
 62
7
  6
CONTINUOUS
 10
235.3510074865
 20
87.0077845353
 11
235.4346051407
 21
87.0452411958
  0
LINE
  5
665
100
AcDbEntity
  8
0
100
AcDbLine
 62
7
  6
CONTINUOUS
 10
234.4235068402
 20
87.6373578393
 11
233.8087488327
 21
87.4240720469
  0
LINE
  5
666
100
AcDbEntity
  8
0
100
AcDbLine
 62
7
  6
CONTINUOUS
 10
233.9476469908
 20
87.4064878432
 11
234.3824592193
 21
87.5562987387
  0
LINE
  5
667
100
AcDbEntity
  8
0
100
AcDbLine
 62
7
  6
CONTINUOUS
 10
236.1180371491
 20
87.3745386526
 11
236.0328819888
 21
87.3461535851
  0
LINE
  5
668
100
AcDbEntity
  8
0
100
AcDbLine
 62
7
  6
CONTINUOUS
 10
236.0941937079
 20
87.3351115749
 11
236.1793488292
 21
87.3634965872
  0
LINE
  5
669
100
AcDbEntity
  8
0
100
AcDbLine
 62
7
  6
CONTINUOUS
 10
236.0941937079
 20
87.2485090346
 11
236.1793488292
 21
87.2768940468
  0
LINE
  5
66A
100
AcDbEntity
  8
0
100
AcDbLine
 62
7
  6
CONTINUOUS
 10
235.3061173825
 20
87.054209993
 11
235.2413359267
 21
87.0354208299
  0
LINE
  5
66B
100
AcDbEntity
  8
0
100
AcDbLine
 62
7
  6
CONTINUOUS
 10
241.1998421556
 20
79.6083774243
 11
241.2578369749
 21
79.6606380564
  0
LINE
  5
66C
100
AcDbEntity
  8
0
100
AcDbLine
 62
7
  6
CONTINUOUS
 10
241.1998421556
 20
79.5217748839
 11
241.2578369749
 21
79.574035516
  0
LINE
  5
66D
100
AcDbEntity
  8
0
100
AcDbLine
 62
7
  6
CONTINUOUS
 10
241.8087874681
 20
79.3301525419
 11
241.7507927318
 21
79.2778918977
  0
LINE
  5
66E
100
AcDbEntity
  8
0
100
AcDbLine
 62
7
  6
CONTINUOUS
 10
241.8377849193
 20
79.0160901877
 11
241.8957796556
 21
79.0683508197
  0
LINE
  5
66F
100
AcDbEntity
  8
0
100
AcDbLine
 62
7
  6
CONTINUOUS
 10
241.8377849193
 20
78.9294876473
 11
241.8957796556
 21
78.9817482793
  0
LINE
  5
670
100
AcDbEntity
  8
RUNDUNGEN
100
AcDbLine
 62
7
  6
CONTINUOUS
 10
254.1439089013
 20
91.1170428418
 11
253.1295389736
 21
90.3927076467
  0
LINE
  5
671
100
AcDbEntity
  8
RUNDUNGEN
100
AcDbLine
 62
7
  6
CONTINUOUS
 10
250.1876654316
 20
88.2919922291
 11
244.7971605641
 21
84.4427728382
  0
LINE
  5
672
100
AcDbEntity
  8
RUNDUNGEN
100
AcDbLine
 62
7
  6
CONTINUOUS
 10
235.7003910102
 20
77.9470061851
 11
233.4884146234
 21
76.3674913512
  0
LINE
  5
673
100
AcDbEntity
  8
0
100
AcDbLine
 62
7
  6
CONTINUOUS
 10
240.3589176903
 20
79.5561167922
 11
240.5559098984
 21
79.6959769908
  0
LINE
  5
674
100
AcDbEntity
  8
0
100
AcDbLine
 62
7
  6
CONTINUOUS
 10
240.3589176903
 20
79.4695142518
 11
240.6778890306
 21
79.6959769908
  0
LINE
  5
675
100
AcDbEntity
  8
0
100
AcDbLine
 62
7
  6
CONTINUOUS
 10
240.5039046556
 20
79.6959769908
 11
240.1269385063
 21
79.4346738061
  0
LINE
  5
676
100
AcDbEntity
  8
0
100
AcDbLine
 62
7
  6
CONTINUOUS
 10
241.7317952806
 20
83.9168731648
 11
241.789790017
 21
83.9517135892
  0
LINE
  5
677
100
AcDbEntity
  8
0
100
AcDbLine
 62
7
  6
CONTINUOUS
 10
241.7317952806
 20
83.8302706244
 11
241.789790017
 21
83.8651110488
  0
LINE
  5
678
100
AcDbEntity
  8
0
100
AcDbLine
 62
7
  6
CONTINUOUS
 10
241.7607927318
 20
83.6560685022
 11
241.6738005443
 21
83.603807858
  0
LINE
  5
679
100
AcDbEntity
  8
0
100
AcDbLine
 62
7
  6
CONTINUOUS
 10
240.1269385063
 20
79.4167550823
 11
240.271925482
 21
79.5038561358
  0
LINE
  5
67A
100
AcDbEntity
  8
0
100
AcDbLine
 62
7
  6
CONTINUOUS
 10
240.1269385063
 20
79.3301525419
 11
240.271925482
 21
79.4172535954
  0
LINE
  5
67B
100
AcDbEntity
  8
0
100
AcDbLine
 62
7
  6
CONTINUOUS
 10
241.1708447874
 20
79.6437163587
 11
241.0838525999
 21
79.5914557267
  0
LINE
  5
67C
100
AcDbEntity
  8
0
100
AcDbLine
 62
7
  6
CONTINUOUS
 10
241.7217952806
 20
79.2599731648
 11
241.779790017
 21
79.2948135892
  0
LINE
  5
67D
100
AcDbEntity
  8
0
100
AcDbLine
 62
7
  6
CONTINUOUS
 10
241.7217952806
 20
79.1733706244
 11
241.779790017
 21
79.2082110488
  0
LINE
  5
67E
100
AcDbEntity
  8
0
100
AcDbLine
 62
7
  6
CONTINUOUS
 10
241.7507927318
 20
78.9991685022
 11
241.6638005443
 21
78.946907858
  0
LINE
  5
67F
100
AcDbEntity
  8
0
100
AcDbLine
 62
7
  6
CONTINUOUS
 10
235.8146222733
 20
81.9490974691
 11
235.8925497441
 21
81.985398215
  0
LINE
  5
680
100
AcDbEntity
  8
0
100
AcDbLine
 62
7
  6
CONTINUOUS
 10
241.2678369749
 20
84.3354567801
 11
241.1808447874
 21
84.3006163587
  0
LINE
  5
681
100
AcDbEntity
  8
0
100
AcDbLine
 62
7
  6
CONTINUOUS
 10
241.7607927318
 20
83.9347918977
 11
241.6738005443
 21
83.8999514763
  0
LINE
  5
682
100
AcDbEntity
  8
0
100
AcDbLine
 62
7
  6
CONTINUOUS
 10
241.7607927318
 20
83.6381497663
 11
241.8477849193
 21
83.6729901877
  0
LINE
  5
683
100
AcDbEntity
  8
0
100
AcDbLine
 62
7
  6
CONTINUOUS
 10
241.7607927318
 20
83.5515472259
 11
241.8477849193
 21
83.5863876473
  0
LINE
  5
684
100
AcDbEntity
  8
0
100
AcDbLine
 62
7
  6
CONTINUOUS
 10
235.5377535061
 20
82.3335138991
 11
235.4843686368
 21
82.3141365793
  0
LINE
  5
685
100
AcDbEntity
  8
0
100
AcDbLine
 62
7
  6
CONTINUOUS
 10
235.761237391
 20
81.9297201903
 11
235.8146222733
 21
81.9490974691
  0
LINE
  5
686
100
AcDbEntity
  8
0
100
AcDbLine
 62
7
  6
CONTINUOUS
 10
234.6630316628
 20
82.5438156003
 11
234.7251139817
 21
82.564759305
  0
LINE
  5
687
100
AcDbEntity
  8
0
100
AcDbLine
 62
7
  6
CONTINUOUS
 10
234.893853786
 20
82.2115982033
 11
234.8317714479
 21
82.1906544947
  0
LINE
  5
688
100
AcDbEntity
  8
0
100
AcDbLine
 62
7
  6
CONTINUOUS
 10
241.2678369749
 20
84.3175380564
 11
241.3838265306
 21
84.3523784777
  0
LINE
  5
689
100
AcDbEntity
  8
0
100
AcDbLine
 62
7
  6
CONTINUOUS
 10
241.2678369749
 20
84.230935516
 11
241.3838265306
 21
84.2657759374
  0
LINE
  5
68A
100
AcDbEntity
  8
0
100
AcDbLine
 62
7
  6
CONTINUOUS
 10
241.6738005443
 20
83.8994529525
 11
241.7317952806
 21
83.9168731648
  0
LINE
  5
68B
100
AcDbEntity
  8
0
100
AcDbLine
 62
7
  6
CONTINUOUS
 10
241.6738005443
 20
83.8128504122
 11
241.7317952806
 21
83.8302706244
  0
LINE
  5
68C
100
AcDbEntity
  8
0
100
AcDbLine
 62
7
  6
CONTINUOUS
 10
234.7010082905
 20
82.6152108852
 11
234.6119446883
 21
82.5886110408
  0
LINE
  5
68D
100
AcDbEntity
  8
0
100
AcDbLine
 62
7
  6
CONTINUOUS
 10
234.8558771362
 20
82.1402029111
 11
234.9449407412
 21
82.1668027589
  0
LINE
  5
68E
100
AcDbEntity
  8
RUNDUNGEN
100
AcDbLine
 62
7
  6
CONTINUOUS
 10
259.2119029113
 20
110.4288284659
 11
267.7715875328
 21
91.010168128
  0
LWPOLYLINE
  5
68F
100
AcDbEntity
  8
RUNDUNGEN
100
AcDbPolyline
 62
7
  6
CONTINUOUS
 90
11
 70
0
 10
251.5735206893
 20
70.8574737262
 10
251.3481959127
 20
70.2889163458
 10
251.0202315754
 20
69.5888559656
 10
250.6395961443
 20
68.9065605801
 10
250.205327331
 20
68.2469580289
 10
249.7167273354
 20
67.6143547648
 10
249.1733044654
 20
67.0124715963
 10
248.5746737118
 20
66.4445488545
 10
247.9201073241
 20
65.9130747993
 10
247.2086252585
 20
65.4201947133
 10
246.5498019254
 20
65.0283950333
  0
LINE
  5
690
100
AcDbEntity
  8
0
100
AcDbLine
 62
7
  6
CONTINUOUS
 10
241.2578369749
 20
79.6785567801
 11
241.1708447874
 21
79.6437163587
  0
LINE
  5
691
100
AcDbEntity
  8
0
100
AcDbLine
 62
7
  6
CONTINUOUS
 10
241.7507927318
 20
79.2778918977
 11
241.6638005443
 21
79.2430514763
  0
LINE
  5
692
100
AcDbEntity
  8
0
100
AcDbLine
 62
7
  6
CONTINUOUS
 10
241.7507927318
 20
78.9812497663
 11
241.8377849193
 21
79.0160901877
  0
LINE
  5
693
100
AcDbEntity
  8
0
100
AcDbLine
 62
7
  6
CONTINUOUS
 10
241.7507927318
 20
78.8946472259
 11
241.8377849193
 21
78.9294876473
  0
LINE
  5
694
100
AcDbEntity
  8
0
100
AcDbLine
 62
7
  6
CONTINUOUS
 10
241.2578369749
 20
79.6606380564
 11
241.3738265306
 21
79.6954784777
  0
LINE
  5
695
100
AcDbEntity
  8
0
100
AcDbLine
 62
7
  6
CONTINUOUS
 10
241.2578369749
 20
79.574035516
 11
241.3738265306
 21
79.6088759374
  0
LINE
  5
696
100
AcDbEntity
  8
0
100
AcDbLine
 62
7
  6
CONTINUOUS
 10
241.6638005443
 20
79.2425529525
 11
241.7217952806
 21
79.2599731648
  0
LINE
  5
697
100
AcDbEntity
  8
0
100
AcDbLine
 62
7
  6
CONTINUOUS
 10
241.6638005443
 20
79.1559504122
 11
241.7217952806
 21
79.1733706244
  0
LINE
  5
698
100
AcDbEntity
  8
AUSFORMSCHRAEGEN
100
AcDbLine
 62
7
  6
CONTINUOUS
 10
267.8565414998
 20
90.6068187043
 11
267.8565414998
 21
88.5546978444
  0
LINE
  5
699
100
AcDbEntity
  8
RUNDUNGEN
100
AcDbLine
 62
7
  6
CONTINUOUS
 10
262.6373495093
 20
66.6489312683
 11
262.7580955015
 21
67.4820397831
  0
LINE
  5
69A
100
AcDbEntity
  8
RUNDUNGEN
100
AcDbLine
 62
7
  6
CONTINUOUS
 10
262.7580955015
 20
67.4820397831
 11
263.8001446116
 21
74.4582322141
  0
LWPOLYLINE
  5
69B
100
AcDbEntity
  8
RUNDUNGEN
100
AcDbPolyline
 62
7
  6
CONTINUOUS
 90
3
 70
0
 10
262.2820783479
 20
64.683908042
 10
262.4938019261
 20
65.7561007156
 10
262.6373471154
 20
66.6489396207
  0
LINE
  5
69C
100
AcDbEntity
  8
RUNDUNGEN
100
AcDbLine
 62
7
  6
CONTINUOUS
 10
257.8180886218
 20
52.3275757432
 11
257.8868032806
 21
52.591361852
  0
LINE
  5
69D
100
AcDbEntity
  8
RUNDUNGEN
100
AcDbLine
 62
7
  6
CONTINUOUS
 10
257.785973867
 20
52.2071750555
 11
257.8180886218
 21
52.3275757432
  0
LWPOLYLINE
  5
69E
100
AcDbEntity
  8
RUNDUNGEN
100
AcDbPolyline
 62
7
  6
CONTINUOUS
 90
6
 70
0
 10
257.8868032806
 20
52.591361852
 10
257.9625822911
 20
52.8691574322
 10
258.0435906706
 20
53.147283021
 10
258.129902332
 20
53.4252022341
 10
258.2215736127
 20
53.7023924164
 10
258.2656893229
 20
53.8299104283
  0
LINE
  5
69F
100
AcDbEntity
  8
RUNDUNGEN
100
AcDbLine
 62
7
  6
CONTINUOUS
 10
262.0251208762
 20
63.5965531828
 11
262.0269751836
 21
63.6033324921
  0
LINE
  5
6A0
100
AcDbEntity
  8
RUNDUNGEN
100
AcDbLine
 62
7
  6
CONTINUOUS
 10
257.7241650933
 20
51.9812007557
 11
257.785973867
 21
52.2071750555
  0
LINE
  5
6A1
100
AcDbEntity
  8
RUNDUNGEN
100
AcDbLine
 62
7
  6
CONTINUOUS
 10
257.7160198953
 20
51.9518786515
 11
257.7241650933
 21
51.9812007557
  0
LINE
  5
6A2
100
AcDbEntity
  8
RUNDUNGEN
100
AcDbLine
 62
7
  6
CONTINUOUS
 10
261.7211386285
 20
62.4860969204
 11
261.7232224125
 21
62.492818691
  0
LWPOLYLINE
  5
6A3
100
AcDbEntity
  8
RUNDUNGEN
100
AcDbPolyline
 62
7
  6
CONTINUOUS
 90
5
 70
0
 10
261.0391781114
 20
60.389864392
 10
261.3713878196
 20
61.3586432665
 10
261.7193353796
 20
62.4795150355
 10
262.023545043
 20
63.5898848036
 10
262.2850126408
 20
64.6974450085
  0
LINE
  5
6A4
100
AcDbEntity
  8
RUNDUNGEN
100
AcDbLine
 62
7
  6
CONTINUOUS
 10
258.2656886866
 20
53.8299108923
 11
258.334540746
 21
54.0247981422
  0
LINE
  5
6A5
100
AcDbEntity
  8
RUNDUNGEN
100
AcDbLine
 62
7
  6
CONTINUOUS
 10
258.334540746
 20
54.0247981422
 11
258.4524419864
 21
54.3530502601
  0
LINE
  5
6A6
100
AcDbEntity
  8
RUNDUNGEN
100
AcDbLine
 62
7
  6
CONTINUOUS
 10
258.4524419864
 20
54.3530502601
 11
258.5291672872
 21
54.5636862427
  0
LINE
  5
6A7
100
AcDbEntity
  8
RUNDUNGEN
100
AcDbLine
 62
7
  6
CONTINUOUS
 10
260.8519649229
 20
59.8804559872
 11
261.0391749976
 21
60.3898483896
  0
LWPOLYLINE
  5
6A8
100
AcDbEntity
  8
RUNDUNGEN
100
AcDbPolyline
 62
7
  6
CONTINUOUS
 90
6
 70
0
 10
258.5291667526
 20
54.5636853358
 10
258.6441783338
 20
54.870967882
 10
258.8216157639
 20
55.319928945
 10
259.0077508453
 20
55.7624530833
 10
259.2024089582
 20
56.1983880444
 10
259.4054147492
 20
56.6275852708
  0
LWPOLYLINE
  5
6A9
100
AcDbEntity
  8
RUNDUNGEN
100
AcDbPolyline
 62
7
  6
CONTINUOUS
 90
5
 70
0
 10
259.7777489941
 20
57.3795691684
 10
260.0651125841
 20
57.9907022359
 10
260.3401051123
 20
58.6113886937
 10
260.6024767101
 20
59.2413962328
 10
260.8519649229
 20
59.8804559872
  0
LINE
  5
6AA
100
AcDbEntity
  8
RUNDUNGEN
100
AcDbLine
 62
7
  6
CONTINUOUS
 10
259.4054147492
 20
56.6275852708
 11
259.7777489941
 21
57.3795691684
  0
LINE
  5
6AB
100
AcDbEntity
  8
RUNDUNGEN
100
AcDbLine
 62
7
  6
CONTINUOUS
 10
246.5498130181
 20
65.0284022457
 11
245.7579424494
 21
64.6198094785
  0
LWPOLYLINE
  5
6AC
100
AcDbEntity
  8
RUNDUNGEN
100
AcDbPolyline
 62
7
  6
CONTINUOUS
 90
18
 70
0
 10
245.762775567
 20
64.6219523218
 10
244.8198634949
 20
64.2038965167
 10
243.8480645978
 20
63.8421064981
 10
242.8508417339
 20
63.5359563509
 10
241.8327910834
 20
63.2854543346
 10
240.7982699488
 20
63.0905784068
 10
239.7514731062
 20
62.951309639
 10
238.6965546861
 20
62.8676385636
 10
237.63757762
 20
62.8395527407
 10
236.5785825369
 20
62.8670478484
 10
235.5236118797
 20
62.950127191
 10
234.4767310171
 20
63.0888014103
 10
233.4420897821
 20
63.2830775278
 10
232.423879427
 20
63.5329738852
 10
231.4264527571
 20
63.8385123069
 10
230.4544027594
 20
64.1996836973
 10
229.5111875319
 20
64.6171124692
 10
228.7140881986
 20
65.0284032941
  0
ARC
  5
6AD
100
AcDbEntity
  8
RUNDUNGEN
100
AcDbCircle
 62
7
  6
CONTINUOUS
 10
38.7527178571
 20
57.2909158444
 40
5.0
100
AcDbArc
 50
130.0000003316
 51
140.7392940021
  0
ARC
  5
6AE
100
AcDbEntity
  8
KONSTRUKTIONSELEMENTE
100
AcDbCircle
 62
7
  6
CONTINUOUS
 10
41.9210722063
 20
52.838778075
 40
2.5
100
AcDbArc
 50
340.0
 51
160.0
  0
ARC
  5
6AF
100
AcDbEntity
  8
RUNDUNGEN
100
AcDbCircle
 62
7
  6
CONTINUOUS
 10
31.9899336504
 20
56.2407903633
 40
2.0063248373
100
AcDbArc
 50
111.6717039432
 51
113.867217294
  0
ARC
  5
6B0
100
AcDbEntity
  8
RUNDUNGEN
100
AcDbCircle
 62
7
  6
CONTINUOUS
 10
31.9885420952
 20
56.2445044037
 40
2.0023594407
100
AcDbArc
 50
106.3115944023
 51
111.673946055
  0
ARC
  5
6B1
100
AcDbEntity
  8
RUNDUNGEN
100
AcDbCircle
 62
7
  6
CONTINUOUS
 10
31.9876554811
 20
56.2466021622
 40
2.0001017924
100
AcDbArc
 50
106.3040962361
 51
159.9985916489
  0
CIRCLE
  5
6B2
100
AcDbEntity
  8
BEZUGSACHSEN
100
AcDbCircle
 62
7
  6
CONTINUOUS
 10
32.6163897138
 20
50.372427793
 40
1.5
  0
ARC
  5
6B3
100
AcDbEntity
  8
RUNDUNGEN
100
AcDbCircle
 62
7
  6
CONTINUOUS
 10
27.3181834764
 20
46.3414216326
 40
1.0
100
AcDbArc
 50
160.0
 51
250.0
  0
ARC
  5
6B4
100
AcDbEntity
  8
RUNDUNGEN
100
AcDbCircle
 62
7
  6
CONTINUOUS
 10
31.0662833393
 20
75.6439699728
 40
14.0
100
AcDbArc
 50
309.9992157992
 51
340.000043278
  0
ARC
  5
6B5
100
AcDbEntity
  8
RUNDUNGEN
100
AcDbCircle
 62
7
  6
CONTINUOUS
 10
29.4611758714
 20
64.8848100032
 40
6.999999207
100
AcDbArc
 50
286.302685873
 51
320.742522801
  0
ARC
  5
6B6
100
AcDbEntity
  8
RUNDUNGEN
100
AcDbCircle
 62
7
  6
CONTINUOUS
 10
59.2092639646
 20
54.0575315612
 40
7.0003162013
100
AcDbArc
 50
179.2589711113
 51
189.5611337861
  0
ARC
  5
6B7
100
AcDbEntity
  8
RUNDUNGEN
100
AcDbCircle
 62
7
  6
CONTINUOUS
 10
47.2099514442
 20
54.2127345545
 40
5.0
100
AcDbArc
 50
359.2589424256
 51
9.9999996684
  0
ARC
  5
6B8
100
AcDbEntity
  8
RUNDUNGEN
100
AcDbCircle
 62
7
  6
CONTINUOUS
 10
50.333967476
 20
52.5625901219
 40
2.0000025523
100
AcDbArc
 50
340.0000192917
 51
9.560834963
  0
ARC
  5
6B9
100
AcDbEntity
  8
RUNDUNGEN
100
AcDbCircle
 62
7
  6
CONTINUOUS
 10
46.5818822025
 20
39.3300086944
 40
1.0
100
AcDbArc
 50
250.0
 51
340.0
  0
ARC
  5
6BA
100
AcDbEntity
  8
RUNDUNGEN
100
AcDbCircle
 62
7
  6
CONTINUOUS
 10
64.8952176876
 20
63.3312448131
 40
14.0
100
AcDbArc
 50
159.9999567202
 51
190.0007968767
  0
ARC
  5
6BB
100
AcDbEntity
  8
KONSTRUKTIONSELEMENTE
100
AcDbCircle
 62
7
  6
CONTINUOUS
 10
69.3998024025
 20
144.5645556037
 40
28.3
100
AcDbArc
 50
0.0
 51
180.0
  0
ARC
  5
6BC
100
AcDbEntity
  8
KONSTRUKTIONSELEMENTE
100
AcDbCircle
 62
7
  6
CONTINUOUS
 10
69.3998024025
 20
119.5645556037
 40
28.3
100
AcDbArc
 50
334.0546329596
 51
360.0
  0
ARC
  5
6BD
100
AcDbEntity
  8
KONSTRUKTIONSELEMENTE
100
AcDbCircle
 62
7
  6
CONTINUOUS
 10
69.3998024025
 20
119.5645556037
 40
28.3
100
AcDbArc
 50
304.3298112006
 51
325.9449133907
  0
ARC
  5
6BE
100
AcDbEntity
  8
KONSTRUKTIONSELEMENTE
100
AcDbCircle
 62
7
  6
CONTINUOUS
 10
69.3998024025
 20
119.5645556037
 40
28.3
100
AcDbArc
 50
252.0260639539
 51
287.9739360461
  0
ARC
  5
6BF
100
AcDbEntity
  8
KONSTRUKTIONSELEMENTE
100
AcDbCircle
 62
7
  6
CONTINUOUS
 10
69.3998024025
 20
119.5645556037
 40
28.3
100
AcDbArc
 50
180.0
 51
235.6701887994
  0
ARC
  5
6C0
100
AcDbEntity
  8
KONSTRUKTIONSELEMENTE
100
AcDbCircle
 62
7
  6
CONTINUOUS
 10
69.3998024025
 20
144.5645556037
 40
17.5
100
AcDbArc
 50
0.0
 51
180.0
  0
ARC
  5
6C1
100
AcDbEntity
  8
KONSTRUKTIONSELEMENTE
100
AcDbCircle
 62
7
  6
CONTINUOUS
 10
69.3998024025
 20
119.5645556037
 40
17.5
100
AcDbArc
 50
336.5653289405
 51
360.0
  0
ARC
  5
6C2
100
AcDbEntity
  8
KONSTRUKTIONSELEMENTE
100
AcDbCircle
 62
7
  6
CONTINUOUS
 10
69.3998024025
 20
119.5645556037
 40
17.5
100
AcDbArc
 50
314.6597290279
 51
323.4349595992
  0
ARC
  5
6C3
100
AcDbEntity
  8
KONSTRUKTIONSELEMENTE
100
AcDbCircle
 62
7
  6
CONTINUOUS
 10
69.3998024025
 20
119.5645556037
 40
17.5
100
AcDbArc
 50
253.278293365
 51
286.721706635
  0
ARC
  5
6C4
100
AcDbEntity
  8
KONSTRUKTIONSELEMENTE
100
AcDbCircle
 62
7
  6
CONTINUOUS
 10
69.3998024025
 20
119.5645556037
 40
17.5
100
AcDbArc
 50
180.0
 51
225.2922305707
  0
ARC
  5
6C5
100
AcDbEntity
  8
RUNDUNGEN
100
AcDbCircle
 62
7
  6
CONTINUOUS
 10
70.6910688743
 20
116.0168301299
 40
1.0
100
AcDbArc
 50
110.0
 51
200.0
  0
ARC
  5
6C6
100
AcDbEntity
  8
RUNDUNGEN
100
AcDbCircle
 62
7
  6
CONTINUOUS
 10
68.1085359306
 20
116.0168301299
 40
1.0
100
AcDbArc
 50
340.0
 51
70.0
  0
ARC
  5
6C7
100
AcDbEntity
  8
RUNDUNGEN
100
AcDbCircle
 62
7
  6
CONTINUOUS
 10
62.4703802059
 20
118.0689509898
 40
1.0
100
AcDbArc
 50
70.0
 51
160.0
  0
ARC
  5
6C8
100
AcDbEntity
  8
RUNDUNGEN
100
AcDbCircle
 62
7
  6
CONTINUOUS
 10
107.7333214657
 20
75.6439699728
 40
14.0
100
AcDbArc
 50
199.9999578011
 51
230.0008018235
  0
ARC
  5
6C9
100
AcDbEntity
  8
RUNDUNGEN
100
AcDbCircle
 62
7
  6
CONTINUOUS
 10
73.9043871174
 20
63.3312448131
 40
14.0
100
AcDbArc
 50
349.9992110162
 51
20.0000421971
  0
ARC
  5
6CA
100
AcDbEntity
  8
RUNDUNGEN
100
AcDbCircle
 62
7
  6
CONTINUOUS
 10
79.5903827017
 20
54.0575283328
 40
7.0002743852
100
AcDbArc
 50
350.4388354564
 51
0.7410596466
  0
ARC
  5
6CB
100
AcDbEntity
  8
RUNDUNGEN
100
AcDbCircle
 62
7
  6
CONTINUOUS
 10
109.3384289332
 20
64.8848100027
 40
6.9999992063
100
AcDbArc
 50
219.2574760918
 51
253.6973141286
  0
ARC
  5
6CC
100
AcDbEntity
  8
RUNDUNGEN
100
AcDbCircle
 62
7
  6
CONTINUOUS
 10
100.0468869478
 20
57.2909158444
 40
5.0
100
AcDbArc
 50
39.2607059979
 51
49.9999996684
  0
ARC
  5
6CD
100
AcDbEntity
  8
RUNDUNGEN
100
AcDbCircle
 62
7
  6
CONTINUOUS
 10
91.5896533608
 20
54.2127345545
 40
5.0
100
AcDbArc
 50
170.0000003316
 51
180.7410575744
  0
ARC
  5
6CE
100
AcDbEntity
  8
KONSTRUKTIONSELEMENTE
100
AcDbCircle
 62
7
  6
CONTINUOUS
 10
96.8785325986
 20
52.838778075
 40
2.5
100
AcDbArc
 50
20.0
 51
200.0
  0
ARC
  5
6CF
100
AcDbEntity
  8
RUNDUNGEN
100
AcDbCircle
 62
7
  6
CONTINUOUS
 10
106.8110627935
 20
56.2445046286
 40
2.0023592013
100
AcDbArc
 50
68.3260537973
 51
73.6884060921
  0
ARC
  5
6D0
100
AcDbEntity
  8
RUNDUNGEN
100
AcDbCircle
 62
7
  6
CONTINUOUS
 10
88.4656373289
 20
52.5625901219
 40
2.0000025523
100
AcDbArc
 50
170.4391647022
 51
199.9999807085
  0
ARC
  5
6D1
100
AcDbEntity
  8
RUNDUNGEN
100
AcDbCircle
 62
7
  6
CONTINUOUS
 10
106.8119493236
 20
56.246602162
 40
2.0001017928
100
AcDbArc
 50
20.001408355
 51
73.69590376
  0
CIRCLE
  5
6D2
100
AcDbEntity
  8
BEZUGSACHSEN
100
AcDbCircle
 62
7
  6
CONTINUOUS
 10
106.1832150911
 20
50.372427793
 40
1.5
  0
ARC
  5
6D3
100
AcDbEntity
  8
RUNDUNGEN
100
AcDbCircle
 62
7
  6
CONTINUOUS
 10
92.2177226024
 20
39.3300086944
 40
1.0
100
AcDbArc
 50
200.0
 51
290.0
  0
ARC
  5
6D4
100
AcDbEntity
  8
RUNDUNGEN
100
AcDbCircle
 62
7
  6
CONTINUOUS
 10
111.4814213286
 20
46.3414216326
 40
1.0
100
AcDbArc
 50
290.0
 51
20.0
  0
ARC
  5
6D5
100
AcDbEntity
  8
KONSTRUKTIONSELEMENTE
100
AcDbCircle
 62
7
  6
CONTINUOUS
 10
114.4331233993
 20
93.5645556037
 40
6.5
100
AcDbArc
 50
240.0
 51
321.1414591721
  0
ARC
  5
6D6
100
AcDbEntity
  8
KONSTRUKTIONSELEMENTE
100
AcDbCircle
 62
7
  6
CONTINUOUS
 10
114.4331233993
 20
93.5645556037
 40
6.5
100
AcDbArc
 50
338.8585408279
 51
60.0
  0
ARC
  5
6D7
100
AcDbEntity
  8
KONSTRUKTIONSELEMENTE
100
AcDbCircle
 62
7
  6
CONTINUOUS
 10
108.3709455728
 20
97.0645556037
 40
6.5
100
AcDbArc
 50
60.0
 51
132.0475391368
  0
ARC
  5
6D8
100
AcDbEntity
  8
KONSTRUKTIONSELEMENTE
100
AcDbCircle
 62
7
  6
CONTINUOUS
 10
108.3709455728
 20
97.0645556037
 40
6.5
100
AcDbArc
 50
167.9524608632
 51
240.0
  0
ARC
  5
6D9
100
AcDbEntity
  8
KONSTRUKTIONSELEMENTE
100
AcDbCircle
 62
7
  6
CONTINUOUS
 10
114.4331233993
 20
93.5645556037
 40
2.5
100
AcDbArc
 50
240.0
 51
306.3299209219
  0
ARC
  5
6DA
100
AcDbEntity
  8
KONSTRUKTIONSELEMENTE
100
AcDbCircle
 62
7
  6
CONTINUOUS
 10
114.4331233993
 20
93.5645556037
 40
2.5
100
AcDbArc
 50
353.6700790781
 51
60.0
  0
ARC
  5
6DB
100
AcDbEntity
  8
KONSTRUKTIONSELEMENTE
100
AcDbCircle
 62
7
  6
CONTINUOUS
 10
108.3709455728
 20
97.0645556037
 40
2.5
100
AcDbArc
 50
60.0
 51
96.6037976976
  0
ARC
  5
6DC
100
AcDbEntity
  8
KONSTRUKTIONSELEMENTE
100
AcDbCircle
 62
7
  6
CONTINUOUS
 10
108.3709455728
 20
97.0645556037
 40
2.5
100
AcDbArc
 50
203.3962023024
 51
240.0
  0
ARC
  5
6DD
100
AcDbEntity
  8
KONSTRUKTIONSELEMENTE
100
AcDbCircle
 62
7
  6
CONTINUOUS
 10
107.9379328709
 20
97.3145556037
 40
2.0
100
AcDbArc
 50
240.0
 51
60.0
  0
ARC
  5
6DE
100
AcDbEntity
  8
KONSTRUKTIONSELEMENTE
100
AcDbCircle
 62
7
  6
CONTINUOUS
 10
82.8231961611
 20
111.8145556037
 40
2.0
100
AcDbArc
 50
60.0
 51
240.0
  0
ARC
  5
6DF
100
AcDbEntity
  8
RUNDUNGEN
100
AcDbCircle
 62
7
  6
CONTINUOUS
 10
76.329224599
 20
118.0689509898
 40
1.0
100
AcDbArc
 50
20.0
 51
110.0
  0
ARC
  5
6E0
100
AcDbEntity
  8
RUNDUNGEN
100
AcDbCircle
 62
7
  6
CONTINUOUS
 10
158.4276193367
 20
66.4984981258
 40
53.6301253888
100
AcDbArc
 50
8.5535812832
 51
23.8126598031
  0
ARC
  5
6E1
100
AcDbEntity
  8
KONSTRUKTIONSELEMENTE
100
AcDbCircle
 62
7
  6
CONTINUOUS
 10
202.198215115
 20
49.9138160995
 40
15.9338708924
100
AcDbArc
 50
7.0107923318
 51
7.4641828824
  0
ARC
  5
6E2
100
AcDbEntity
  8
KONSTRUKTIONSELEMENTE
100
AcDbCircle
 62
7
  6
CONTINUOUS
 10
202.2002956449
 20
49.9140690539
 40
15.9317750437
100
AcDbArc
 50
6.1343435427
 51
7.0108026844
  0
ARC
  5
6E3
100
AcDbEntity
  8
KONSTRUKTIONSELEMENTE
100
AcDbCircle
 62
7
  6
CONTINUOUS
 10
202.2062366852
 20
51.6253058535
 40
15.9257368536
100
AcDbArc
 50
0.8884331269
 51
7.4629768889
  0
ARC
  5
6E4
100
AcDbEntity
  8
KONSTRUKTIONSELEMENTE
100
AcDbCircle
 62
7
  6
CONTINUOUS
 10
202.2123113834
 20
49.9153155391
 40
15.919694907
100
AcDbArc
 50
4.0390438488
 51
6.1345042573
  0
ARC
  5
6E5
100
AcDbEntity
  8
KONSTRUKTIONSELEMENTE
100
AcDbCircle
 62
7
  6
CONTINUOUS
 10
202.2304326671
 20
49.9166934535
 40
15.9015215766
100
AcDbArc
 50
1.8681262986
 51
4.0386903894
  0
ARC
  5
6E6
100
AcDbEntity
  8
RUNDUNGEN
100
AcDbCircle
 62
7
  6
CONTINUOUS
 10
202.2439360704
 20
47.6802509259
 40
15.888914395
100
AcDbArc
 50
7.814338748
 51
15.5955130358
  0
ARC
  5
6E7
100
AcDbEntity
  8
RUNDUNGEN
100
AcDbCircle
 62
7
  6
CONTINUOUS
 10
202.313882495
 20
47.6906416637
 40
15.818204762
100
AcDbArc
 50
5.9437328151
 51
7.8114986764
  0
ARC
  5
6E8
100
AcDbEntity
  8
RUNDUNGEN
100
AcDbCircle
 62
7
  6
CONTINUOUS
 10
202.3344482372
 20
47.6928757711
 40
15.7975182345
100
AcDbArc
 50
4.259996209
 51
5.9433974061
  0
ARC
  5
6E9
100
AcDbEntity
  8
RUNDUNGEN
100
AcDbCircle
 62
7
  6
CONTINUOUS
 10
202.3370796147
 20
47.693078439
 40
15.7948790721
100
AcDbArc
 50
0.9741754606
 51
4.2599721123
  0
ARC
  5
6EA
100
AcDbEntity
  8
RUNDUNGEN
100
AcDbCircle
 62
7
  6
CONTINUOUS
 10
235.5866004078
 20
88.5499689091
 40
14.9547796945
100
AcDbArc
 50
172.171499509
 51
176.1320955515
  0
ARC
  5
6EB
100
AcDbEntity
  8
RUNDUNGEN
100
AcDbCircle
 62
7
  6
CONTINUOUS
 10
235.5759370895
 20
90.6095501076
 40
14.9439566643
100
AcDbArc
 50
180.0186547712
 51
188.4999855401
  0
ARC
  5
6EC
100
AcDbEntity
  8
RUNDUNGEN
100
AcDbCircle
 62
7
  6
CONTINUOUS
 10
235.9252586247
 20
75.3433714113
 40
13.0313347194
100
AcDbArc
 50
188.5139456232
 51
200.1354623733
  0
ARC
  5
6ED
100
AcDbEntity
  8
RUNDUNGEN
100
AcDbCircle
 62
7
  6
CONTINUOUS
 10
224.9577947644
 20
44.378887827
 40
6.9468601347
100
AcDbArc
 50
234.3365872286
 51
234.8249827556
  0
ARC
  5
6EE
100
AcDbEntity
  8
0
100
AcDbCircle
 62
7
  6
CONTINUOUS
 10
234.0651908103
 20
82.7430380809
 40
4.2498718612
100
AcDbArc
 50
63.5936732866
 51
65.8379125302
  0
ARC
  5
6EF
100
AcDbEntity
  8
0
100
AcDbCircle
 62
7
  6
CONTINUOUS
 10
234.6305184198
 20
79.3415485708
 40
2.5384960525
100
AcDbArc
 50
53.437411273
 51
53.7613734835
  0
ARC
  5
6F0
100
AcDbEntity
  8
BEZUGSACHSEN
100
AcDbCircle
 62
7
  6
CONTINUOUS
 10
236.7058454186
 20
91.4466410039
 40
2.1118905373
100
AcDbArc
 50
236.5304753484
 51
239.370184056
  0
ARC
  5
6F1
100
AcDbEntity
  8
RUNDUNGEN
100
AcDbCircle
 62
7
  6
CONTINUOUS
 10
208.4101056978
 20
88.5549821375
 40
1.0027441767
100
AcDbArc
 50
180.0162442171
 51
192.0109498553
  0
ARC
  5
6F2
100
AcDbEntity
  8
RUNDUNGEN
100
AcDbCircle
 62
7
  6
CONTINUOUS
 10
208.4088511407
 20
88.5552373841
 40
1.0015806516
100
AcDbArc
 50
196.0343626401
 51
203.770978916
  0
ARC
  5
6F3
100
AcDbEntity
  8
RUNDUNGEN
100
AcDbCircle
 62
7
  6
CONTINUOUS
 10
208.4074800379
 20
90.6067541671
 40
1.0001343177
100
AcDbArc
 50
156.2102678427
 51
180.0007345014
  0
ARC
  5
6F4
100
AcDbEntity
  8
RUNDUNGEN
100
AcDbCircle
 62
7
  6
CONTINUOUS
 10
208.4074656221
 20
88.5547198276
 40
1.0001040609
100
AcDbArc
 50
180.0012594177
 51
203.7758387147
  0
ARC
  5
6F5
100
AcDbEntity
  8
0
100
AcDbCircle
 62
7
  6
CONTINUOUS
 10
216.7381749001
 20
85.6197247626
 40
0.5896232439
100
AcDbArc
 50
355.4565670123
 51
359.7243015703
  0
ARC
  5
6F6
100
AcDbEntity
  8
0
100
AcDbCircle
 62
7
  6
CONTINUOUS
 10
228.8246631366
 20
113.1996875184
 40
1.2482195712
100
AcDbArc
 50
358.2703740518
 51
359.9872793919
  0
ARC
  5
6F7
100
AcDbEntity
  8
RUNDUNGEN
100
AcDbCircle
 62
7
  6
CONTINUOUS
 10
216.9681996265
 20
110.0236506413
 40
1.0021195106
100
AcDbArc
 50
111.2893921907
 51
117.6854320519
  0
ARC
  5
6F8
100
AcDbEntity
  8
RUNDUNGEN
100
AcDbCircle
 62
7
  6
CONTINUOUS
 10
216.9666238306
 20
110.0258004078
 40
0.9994838043
100
AcDbArc
 50
111.2614022962
 51
156.2203153871
  0
ARC
  5
6F9
100
AcDbEntity
  8
RUNDUNGEN
100
AcDbCircle
 62
7
  6
CONTINUOUS
 10
316.8362837509
 20
66.4984981182
 40
53.6301254159
100
AcDbArc
 50
156.1873402007
 51
171.4464187126
  0
ARC
  5
6FA
100
AcDbEntity
  8
KONSTRUKTIONSELEMENTE
100
AcDbCircle
 62
7
  6
CONTINUOUS
 10
273.0656879482
 20
49.9138160993
 40
15.9338708944
100
AcDbArc
 50
172.5358171177
 51
172.9892076681
  0
ARC
  5
6FB
100
AcDbEntity
  8
KONSTRUKTIONSELEMENTE
100
AcDbCircle
 62
7
  6
CONTINUOUS
 10
273.0636074164
 20
49.9140690539
 40
15.9317750437
100
AcDbArc
 50
172.9891973156
 51
173.8656564573
  0
ARC
  5
6FC
100
AcDbEntity
  8
KONSTRUKTIONSELEMENTE
100
AcDbCircle
 62
7
  6
CONTINUOUS
 10
273.057666376
 20
51.6253058535
 40
15.9257368536
100
AcDbArc
 50
172.5370231111
 51
179.1115668731
  0
ARC
  5
6FD
100
AcDbEntity
  8
KONSTRUKTIONSELEMENTE
100
AcDbCircle
 62
7
  6
CONTINUOUS
 10
273.0515916778
 20
49.9153155391
 40
15.919694907
100
AcDbArc
 50
173.8654957427
 51
175.9609561512
  0
ARC
  5
6FE
100
AcDbEntity
  8
KONSTRUKTIONSELEMENTE
100
AcDbCircle
 62
7
  6
CONTINUOUS
 10
273.0334703989
 20
49.9166934532
 40
15.9015215814
100
AcDbArc
 50
175.9613096107
 51
178.1318737014
  0
ARC
  5
6FF
100
AcDbEntity
  8
RUNDUNGEN
100
AcDbCircle
 62
7
  6
CONTINUOUS
 10
273.0199669907
 20
47.6802509259
 40
15.888914395
100
AcDbArc
 50
164.4044869713
 51
172.185661252
  0
ARC
  5
700
100
AcDbEntity
  8
RUNDUNGEN
100
AcDbCircle
 62
7
  6
CONTINUOUS
 10
272.9500205663
 20
47.6906416636
 40
15.8182047622
100
AcDbArc
 50
172.1885013236
 51
174.0562671849
  0
ARC
  5
701
100
AcDbEntity
  8
RUNDUNGEN
100
AcDbCircle
 62
7
  6
CONTINUOUS
 10
272.9294548384
 20
47.6928757699
 40
15.7975182489
100
AcDbArc
 50
174.0566025951
 51
175.740012545
  0
ARC
  5
702
100
AcDbEntity
  8
RUNDUNGEN
100
AcDbCircle
 62
7
  6
CONTINUOUS
 10
272.926823413
 20
47.6930784405
 40
15.7948790386
100
AcDbArc
 50
175.7400366398
 51
179.0258245427
  0
ARC
  5
703
100
AcDbEntity
  8
RUNDUNGEN
100
AcDbCircle
 62
7
  6
CONTINUOUS
 10
239.6773081559
 20
88.5499697328
 40
14.9547741623
100
AcDbArc
 50
3.8679678866
 51
7.8285194773
  0
ARC
  5
704
100
AcDbEntity
  8
RUNDUNGEN
100
AcDbCircle
 62
7
  6
CONTINUOUS
 10
239.6879654179
 20
90.6095502443
 40
14.9439572323
100
AcDbArc
 50
351.5000142555
 51
359.9813544784
  0
ARC
  5
705
100
AcDbEntity
  8
RUNDUNGEN
100
AcDbCircle
 62
7
  6
CONTINUOUS
 10
239.299731105
 20
75.3533081653
 40
13.0712909906
100
AcDbArc
 50
339.8823605694
 51
351.4682312064
  0
ARC
  5
706
100
AcDbEntity
  8
RUNDUNGEN
100
AcDbCircle
 62
7
  6
CONTINUOUS
 10
250.3061038689
 20
44.3788941118
 40
6.9468678226
100
AcDbArc
 50
305.175017235
 51
305.6634111058
  0
ARC
  5
707
100
AcDbEntity
  8
KONSTRUKTIONSELEMENTE
100
AcDbCircle
 62
7
  6
CONTINUOUS
 10
237.6319515306
 20
96.6645556037
 40
5.4
100
AcDbArc
 50
180.0
 51
360.0
  0
ARC
  5
708
100
AcDbEntity
  8
BEZUGSACHSEN
100
AcDbCircle
 62
7
  6
CONTINUOUS
 10
238.5781145589
 20
91.4146050608
 40
2.0741057726
100
AcDbArc
 50
300.6039444816
 51
303.495396114
  0
ARC
  5
709
100
AcDbEntity
  8
KONSTRUKTIONSELEMENTE
100
AcDbCircle
 62
7
  6
CONTINUOUS
 10
237.6319515306
 20
89.0645556037
 40
2.0
100
AcDbArc
 50
180.0
 51
360.0
  0
ARC
  5
70A
100
AcDbEntity
  8
RUNDUNGEN
100
AcDbCircle
 62
7
  6
CONTINUOUS
 10
266.8537973634
 20
88.5549821375
 40
1.0027441767
100
AcDbArc
 50
347.9890500929
 51
359.9837557826
  0
ARC
  5
70B
100
AcDbEntity
  8
RUNDUNGEN
100
AcDbCircle
 62
7
  6
CONTINUOUS
 10
266.8550519205
 20
88.5552373842
 40
1.0015806517
100
AcDbArc
 50
336.2290210839
 51
343.9656372905
  0
ARC
  5
70C
100
AcDbEntity
  8
RUNDUNGEN
100
AcDbCircle
 62
7
  6
CONTINUOUS
 10
266.8564373487
 20
90.6067966914
 40
1.0001041513
100
AcDbArc
 50
0.0012611175
 51
23.7868676052
  0
ARC
  5
70D
100
AcDbEntity
  8
RUNDUNGEN
100
AcDbCircle
 62
7
  6
CONTINUOUS
 10
266.8568800275
 20
88.5546279844
 40
0.9996553435
100
AcDbArc
 50
343.9702651413
 51
347.9721363792
  0
ARC
  5
70E
100
AcDbEntity
  8
KONSTRUKTIONSELEMENTE
100
AcDbCircle
 62
7
  6
CONTINUOUS
 10
237.6319515306
 20
167.4645556037
 40
5.4
100
AcDbArc
 50
0.0
 51
180.0
  0
ARC
  5
70F
100
AcDbEntity
  8
RUNDUNGEN
100
AcDbCircle
 62
7
  6
CONTINUOUS
 10
258.2969939071
 20
110.0256171053
 40
0.9998188174
100
AcDbArc
 50
23.7827042043
 51
68.7385977036
  0
SPLINE
  5
710
100
AcDbEntity
  8
RUNDUNGEN
100
AcDbSpline
 62
7
  6
CONTINUOUS
 70
0
 71
3
 72
13
 73
9
 74
0
 42
0.0000001
 43
0.0000001
 44
0.0000000001
 40
0.0
 40
0.0
 40
0.0
 40
0.0
 40
0.0822456006
 40
0.1731412937
 40
0.2778870441
 40
0.3984574369
 40
0.6815793497
 40
1.0
 40
1.0
 40
1.0
 40
1.0
 10
248.2819515306
 20
73.6887801999
 30
0.0
 10
248.2819515306
 20
73.6822731736
 30
0.0
 10
248.2848443675
 20
73.6684742994
 30
0.0
 10
248.2968284197
 20
73.6496348414
 30
0.0
 10
248.3155593121
 20
73.6327136794
 30
0.0
 10
248.3503390433
 20
73.6121221753
 30
0.0
 10
248.405575159
 20
73.5950068984
 30
0.0
 10
248.4532590396
 20
73.5905301999
 30
0.0
 10
248.4784515306
 20
73.5905301999
 30
0.0
  0
SPLINE
  5
711
100
AcDbEntity
  8
0
100
AcDbSpline
 62
7
  6
CONTINUOUS
 70
0
 71
3
 72
9
 73
5
 74
0
 42
0.0000001
 43
0.0000001
 44
0.0000000001
 40
0.0
 40
0.0
 40
0.0
 40
0.0
 40
0.2441655972
 40
1.0
 40
1.0
 40
1.0
 40
1.0
 10
236.3055125201
 20
81.2481836623
 30
0.0
 10
236.2927813052
 20
81.2595663332
 30
0.0
 10
236.2400676837
 20
81.3055432568
 30
0.0
 10
236.1851636627
 20
81.3489931236
 30
0.0
 10
236.1427019102
 20
81.380485377
 30
0.0
  0
SPLINE
  5
712
100
AcDbEntity
  8
0
100
AcDbSpline
 62
7
  6
CONTINUOUS
 70
0
 71
3
 72
13
 73
9
 74
0
 42
0.0000001
 43
0.0000001
 44
0.0000000001
 40
0.0
 40
0.0
 40
0.0
 40
0.0
 40
0.1021641386
 40
0.2126129334
 40
0.3308152651
 40
0.4558988414
 40
0.7218775741
 40
1.0
 40
1.0
 40
1.0
 40
1.0
 10
236.1311492282
 20
81.3890029379
 30
0.0
 10
236.0422521627
 20
81.4541585991
 30
0.0
 10
235.8484211895
 20
81.5779233073
 30
0.0
 10
235.5287427304
 20
81.7377370261
 30
0.0
 10
235.1729699291
 20
81.8771025201
 30
0.0
 10
234.6465872383
 20
82.0361564611
 30
0.0
 10
233.9345578451
 20
82.1686919631
 30
0.0
 10
233.3469983318
 20
82.2037801999
 30
0.0
 10
233.0469515306
 20
82.2037801999
 30
0.0
  0
SPLINE
  5
713
100
AcDbEntity
  8
0
100
AcDbSpline
 62
7
  6
CONTINUOUS
 70
0
 71
3
 72
11
 73
7
 74
0
 42
0.0000001
 43
0.0000001
 44
0.0000000001
 40
0.0
 40
0.0
 40
0.0
 40
0.0
 40
0.2283022932
 40
0.4747715237
 40
0.7340693493
 40
1.0
 40
1.0
 40
1.0
 40
1.0
 10
235.8047457921
 20
86.6205836063
 30
0.0
 10
235.6085274941
 20
86.7087164141
 30
0.0
 10
235.1872014083
 20
86.8630893104
 30
0.0
 10
234.5139111543
 20
87.0263676133
 30
0.0
 10
233.7926705337
 20
87.126612438
 30
0.0
 10
233.2975066246
 20
87.1490301999
 30
0.0
 10
233.0469515306
 20
87.1490301999
 30
0.0
  0
SPLINE
  5
714
100
AcDbEntity
  8
RUNDUNGEN
100
AcDbSpline
 62
7
  6
CONTINUOUS
 70
0
 71
3
 72
11
 73
7
 74
0
 42
0.0000001
 43
0.0000001
 44
0.0000000001
 40
0.0
 40
0.0
 40
0.0
 40
0.0
 40
0.2132919569
 40
0.4567033586
 40
0.7224400679
 40
1.0
 40
1.0
 40
1.0
 40
1.0
 10
241.7754884378
 20
76.3674913512
 30
0.0
 10
241.873030914
 20
76.2978388047
 30
0.0
 10
242.1009759533
 20
76.1752265792
 30
0.0
 10
242.4875005098
 20
76.0467456509
 30
0.0
 10
242.9235244286
 20
75.9665400426
 30
0.0
 10
243.2291488532
 20
75.9485301999
 30
0.0
 10
243.3851222048
 20
75.9485301999
 30
0.0
  0
SPLINE
  5
715
100
AcDbEntity
  8
RUNDUNGEN
100
AcDbSpline
 62
7
  6
CONTINUOUS
 70
0
 71
3
 72
11
 73
7
 74
0
 42
0.0000001
 43
0.0000001
 44
0.0000000001
 40
0.0
 40
0.0
 40
0.0
 40
0.0
 40
0.2775597071
 40
0.543296328
 40
0.7867078557
 40
1.0
 40
1.0
 40
1.0
 40
1.0
 10
231.8787808564
 20
75.9485301999
 30
0.0
 10
232.0347540816
 20
75.9485301999
 30
0.0
 10
232.3403783289
 20
75.9665400203
 30
0.0
 10
232.7764021528
 20
76.0467455512
 30
0.0
 10
233.1629268517
 20
76.1752264536
 30
0.0
 10
233.3908720615
 20
76.2978387436
 30
0.0
 10
233.4884146234
 20
76.3674913512
 30
0.0
  0
SPLINE
  5
716
100
AcDbEntity
  8
RUNDUNGEN
100
AcDbSpline
 62
7
  6
CONTINUOUS
 70
0
 71
3
 72
13
 73
9
 74
0
 42
0.0000001
 43
0.0000001
 44
0.0000000001
 40
0.0
 40
0.0
 40
0.0
 40
0.0
 40
0.3184205646
 40
0.6015384516
 40
0.7221101812
 40
0.8268584099
 40
0.917754841
 40
1.0
 40
1.0
 40
1.0
 40
1.0
 10
226.7854515306
 20
73.5905301999
 30
0.0
 10
226.8106440167
 20
73.5905301999
 30
0.0
 10
226.8583275988
 20
73.595006791
 30
0.0
 10
226.9135634572
 20
73.6121220071
 30
0.0
 10
226.9483433113
 20
73.6327133186
 30
0.0
 10
226.9670744228
 20
73.6496347474
 30
0.0
 10
226.9790588502
 20
73.6684742643
 30
0.0
 10
226.9819515306
 20
73.6822732081
 30
0.0
 10
226.9819515306
 20
73.6887801999
 30
0.0
  0
SPLINE
  5
717
100
AcDbEntity
  8
RUNDUNGEN
100
AcDbSpline
 62
7
  6
CONTINUOUS
 70
0
 71
3
 72
9
 73
5
 74
0
 42
0.0000001
 43
0.0000001
 44
0.0000000001
 40
0.0
 40
0.0
 40
0.0
 40
0.0
 40
0.2669857424
 40
1.0
 40
1.0
 40
1.0
 40
1.0
 10
254.1439089013
 20
91.1170428418
 30
0.0
 10
254.1659127686
 20
91.1327552315
 30
0.0
 10
254.2465213501
 20
91.1940007592
 30
0.0
 10
254.3198131128
 20
91.265582102
 30
0.0
 10
254.3654155822
 20
91.3241565899
 30
0.0
  0
SPLINE
  5
718
100
AcDbEntity
  8
RUNDUNGEN
100
AcDbSpline
 62
7
  6
CONTINUOUS
 70
0
 71
3
 72
12
 73
8
 74
0
 42
0.0000001
 43
0.0000001
 44
0.0000000001
 40
0.0
 40
0.0
 40
0.0
 40
0.0
 40
0.2540090741
 40
0.5249820547
 40
0.7823061543
 40
0.8973935256
 40
1.0
 40
1.0
 40
1.0
 40
1.0
 10
252.3085255343
 20
90.3203242362
 30
0.0
 10
252.3763460231
 20
90.2965800275
 30
0.0
 10
252.5232820183
 20
90.2662909291
 30
0.0
 10
252.745595172
 20
90.2640324792
 30
0.0
 10
252.9263050497
 20
90.2969175573
 30
0.0
 10
253.0520540647
 20
90.3452178153
 30
0.0
 10
253.1059168279
 20
90.3758396865
 30
0.0
 10
253.1295389736
 20
90.3927076467
 30
0.0
  0
SPLINE
  5
719
100
AcDbEntity
  8
RUNDUNGEN
100
AcDbSpline
 62
7
  6
CONTINUOUS
 70
0
 71
3
 72
11
 73
7
 74
0
 42
0.0000001
 43
0.0000001
 44
0.0000000001
 40
0.0
 40
0.0
 40
0.0
 40
0.0
 40
0.2893722092
 40
0.5478352186
 40
0.7810453767
 40
1.0
 40
1.0
 40
1.0
 40
1.0
 10
250.1876654316
 20
88.2919922291
 30
0.0
 10
250.2039409558
 20
88.3036141579
 30
0.0
 10
250.2332574968
 20
88.327900409
 30
0.0
 10
250.2678208085
 20
88.3698897349
 30
0.0
 10
250.2893515026
 20
88.414653565
 30
0.0
 10
250.2942840736
 20
88.4460857525
 30
0.0
 10
250.2942705871
 20
88.461218105
 30
0.0
  0
SPLINE
  5
71A
100
AcDbEntity
  8
RUNDUNGEN
100
AcDbSpline
 62
7
  6
CONTINUOUS
 70
0
 71
3
 72
16
 73
12
 74
0
 42
0.0000001
 43
0.0000001
 44
0.0000000001
 40
0.0
 40
0.0
 40
0.0
 40
0.0
 40
0.1614833097
 40
0.3183508687
 40
0.4662986179
 40
0.6017201165
 40
0.7221174204
 40
0.8267310726
 40
0.9174336472
 40
0.9593080636
 40
1.0
 40
1.0
 40
1.0
 40
1.0
 10
249.1669515306
 20
73.5905301999
 30
0.0
 10
249.2948888437
 20
73.5905301999
 30
0.0
 10
249.5472893282
 20
73.6027779991
 30
0.0
 10
249.9132884633
 20
73.6574496323
 30
0.0
 10
250.2513858007
 20
73.7462736679
 30
0.0
 10
250.5491186019
 20
73.8659426874
 30
0.0
 10
250.7958864998
 20
74.0124987474
 30
0.0
 10
250.9831215891
 20
74.1813915842
 30
0.0
 10
251.0857033865
 20
74.3430325599
 30
0.0
 10
251.1253875191
 20
74.4752081502
 30
0.0
 10
251.1319515306
 20
74.5407914688
 30
0.0
 10
251.1319515306
 20
74.5730301999
 30
0.0
  0
SPLINE
  5
71B
100
AcDbEntity
  8
RUNDUNGEN
100
AcDbSpline
 62
7
  6
CONTINUOUS
 70
0
 71
3
 72
16
 73
12
 74
0
 42
0.0000001
 43
0.0000001
 44
0.0000000001
 40
0.0
 40
0.0
 40
0.0
 40
0.0
 40
0.0406919225
 40
0.0825662949
 40
0.1732687744
 40
0.2778824034
 40
0.3982796936
 40
0.533701159
 40
0.6816488853
 40
0.8385165817
 40
1.0
 40
1.0
 40
1.0
 40
1.0
 10
224.1319515306
 20
74.5730301999
 30
0.0
 10
224.1319515306
 20
74.5407914798
 30
0.0
 10
224.1385155136
 20
74.4752082047
 30
0.0
 10
224.178199611
 20
74.3430327297
 30
0.0
 10
224.2807812767
 20
74.1813918365
 30
0.0
 10
224.46801622
 20
74.0124989879
 30
0.0
 10
224.7147840363
 20
73.8659428953
 30
0.0
 10
225.0125167615
 20
73.7462738353
 30
0.0
 10
225.3506141435
 20
73.6574497101
 30
0.0
 10
225.716613452
 20
73.6027780252
 30
0.0
 10
225.9690141314
 20
73.5905301999
 30
0.0
 10
226.0969515306
 20
73.5905301999
 30
0.0
  0
SPLINE
  5
71C
100
AcDbEntity
  8
RUNDUNGEN
100
AcDbSpline
 62
7
  6
CONTINUOUS
 70
0
 71
3
 72
11
 73
7
 74
0
 42
0.0000001
 43
0.0000001
 44
0.0000000001
 40
0.0
 40
0.0
 40
0.0
 40
0.0
 40
0.2189543339
 40
0.4521650113
 40
0.7106278191
 40
1.0
 40
1.0
 40
1.0
 40
1.0
 10
248.0446201603
 20
89.657553781
 30
0.0
 10
248.0445968718
 20
89.6827748833
 30
0.0
 10
248.0528165952
 20
89.7351633309
 30
0.0
 10
248.0887008741
 20
89.8097718855
 30
0.0
 10
248.146306969
 20
89.8797562682
 30
0.0
 10
248.195168973
 20
89.9202341986
 30
0.0
 10
248.2222954345
 20
89.9396044995
 30
0.0
  0
SPLINE
  5
71D
100
AcDbEntity
  8
RUNDUNGEN
100
AcDbSpline
 62
7
  6
CONTINUOUS
 70
0
 71
3
 72
9
 73
5
 74
0
 42
0.0000001
 43
0.0000001
 44
0.0000000001
 40
0.0
 40
0.0
 40
0.0
 40
0.0
 40
0.4709291765
 40
1.0
 40
1.0
 40
1.0
 40
1.0
 10
243.9913840767
 20
83.6179768126
 30
0.0
 10
244.0866329213
 20
83.4630669584
 30
0.0
 10
244.3322256592
 20
83.1602162849
 30
0.0
 10
244.6308970052
 20
82.9123150386
 30
0.0
 10
244.7971605641
 20
82.7935905535
 30
0.0
  0
SPLINE
  5
71E
100
AcDbEntity
  8
RUNDUNGEN
100
AcDbSpline
 62
7
  6
CONTINUOUS
 70
0
 71
3
 72
12
 73
8
 74
0
 42
0.0000001
 43
0.0000001
 44
0.0000000001
 40
0.0
 40
0.0
 40
0.0
 40
0.0
 40
0.1087795604
 40
0.2194283072
 40
0.4525288295
 40
0.7107052012
 40
1.0
 40
1.0
 40
1.0
 40
1.0
 10
243.7310618652
 20
82.7521561667
 30
0.0
 10
243.7310618614
 20
82.8273236917
 30
0.0
 10
243.74278897
 20
82.979204946
 30
0.0
 10
243.8136123304
 20
83.2848098688
 30
0.0
 10
243.9960926429
 20
83.6647185724
 30
0.0
 10
244.3414824226
 20
84.0839393914
 30
0.0
 10
244.6344749157
 20
84.326603246
 30
0.0
 10
244.7971605641
 20
84.4427728382
 30
0.0
  0
SPLINE
  5
71F
100
AcDbEntity
  8
RUNDUNGEN
100
AcDbSpline
 62
7
  6
CONTINUOUS
 70
0
 71
3
 72
16
 73
12
 74
0
 42
0.0000001
 43
0.0000001
 44
0.0000000001
 40
0.0
 40
0.0
 40
0.0
 40
0.0
 40
0.0406919225
 40
0.0825662949
 40
0.1732687744
 40
0.2778824034
 40
0.3982796936
 40
0.533701159
 40
0.6816488853
 40
0.8385165817
 40
1.0
 40
1.0
 40
1.0
 40
1.0
 10
226.9819515306
 20
74.9660301999
 30
0.0
 10
226.9819515306
 20
74.9982689201
 30
0.0
 10
226.9885155136
 20
75.0638521952
 30
0.0
 10
227.028199611
 20
75.1960276702
 30
0.0
 10
227.1307812767
 20
75.3576685634
 30
0.0
 10
227.31801622
 20
75.526561412
 30
0.0
 10
227.5647840363
 20
75.6731175046
 30
0.0
 10
227.8625167615
 20
75.7927865646
 30
0.0
 10
228.2006141435
 20
75.8816106898
 30
0.0
 10
228.566613452
 20
75.9362823747
 30
0.0
 10
228.8190141314
 20
75.9485301999
 30
0.0
 10
228.9469515306
 20
75.9485301999
 30
0.0
  0
SPLINE
  5
720
100
AcDbEntity
  8
BEZUGSACHSEN
100
AcDbSpline
 62
7
  6
CONTINUOUS
 70
0
 71
3
 72
12
 73
8
 74
0
 42
0.0000001
 43
0.0000001
 44
0.0000000001
 40
0.0
 40
0.0
 40
0.0
 40
0.0
 40
0.1052859372
 40
0.2130367098
 40
0.4431921718
 40
0.7036315234
 40
1.0
 40
1.0
 40
1.0
 40
1.0
 10
235.0119515306
 20
90.474395018
 30
0.0
 10
235.0119515306
 20
90.5127405337
 30
0.0
 10
235.0188791339
 20
90.5904933127
 30
0.0
 10
235.0606673372
 20
90.7471106968
 30
0.0
 10
235.1686924635
 20
90.9404290614
 30
0.0
 10
235.3694285565
 20
91.1480566781
 30
0.0
 10
235.5369933765
 20
91.2643684064
 30
0.0
 10
235.6298598605
 20
91.3193822918
 30
0.0
  0
SPLINE
  5
721
100
AcDbEntity
  8
BEZUGSACHSEN
100
AcDbSpline
 62
7
  6
CONTINUOUS
 70
0
 71
3
 72
12
 73
8
 74
0
 42
0.0000001
 43
0.0000001
 44
0.0000000001
 40
0.0
 40
0.0
 40
0.0
 40
0.0
 40
0.2963684766
 40
0.5568078282
 40
0.7869632902
 40
0.8947140628
 40
1.0
 40
1.0
 40
1.0
 40
1.0
 10
239.6340432007
 20
91.3193822918
 30
0.0
 10
239.7269096847
 20
91.2643684064
 30
0.0
 10
239.8944745048
 20
91.1480566781
 30
0.0
 10
240.0952105978
 20
90.9404290614
 30
0.0
 10
240.203235724
 20
90.7471106968
 30
0.0
 10
240.2450239273
 20
90.5904933127
 30
0.0
 10
240.2519515306
 20
90.5127405337
 30
0.0
 10
240.2519515306
 20
90.474395018
 30
0.0
  0
SPLINE
  5
722
100
AcDbEntity
  8
RUNDUNGEN
100
AcDbSpline
 62
7
  6
CONTINUOUS
 70
0
 71
3
 72
11
 73
7
 74
0
 42
0.0000001
 43
0.0000001
 44
0.0000000001
 40
0.0
 40
0.0
 40
0.0
 40
0.0
 40
0.2894731799
 40
0.5478078847
 40
0.7810538716
 40
1.0
 40
1.0
 40
1.0
 40
1.0
 10
250.7765852976
 20
78.5238387962
 30
0.0
 10
250.8308138874
 20
78.4851155699
 30
0.0
 10
250.928479905
 20
78.4042569547
 30
0.0
 10
251.0436023388
 20
78.2644001642
 30
0.0
 10
251.115383886
 20
78.1153768623
 30
0.0
 10
251.1319515306
 20
78.0107000689
 30
0.0
 10
251.1319515306
 20
77.9602999474
 30
0.0
  0
SPLINE
  5
723
100
AcDbEntity
  8
RUNDUNGEN
100
AcDbSpline
 62
7
  6
CONTINUOUS
 70
0
 71
3
 72
11
 73
7
 74
0
 42
0.0000001
 43
0.0000001
 44
0.0000000001
 40
0.0
 40
0.0
 40
0.0
 40
0.0
 40
0.3124057508
 40
0.5801855587
 40
0.8044847269
 40
1.0
 40
1.0
 40
1.0
 40
1.0
 10
250.0428986107
 20
90.4345497563
 30
0.0
 10
250.0791106477
 20
90.4218717857
 30
0.0
 10
250.1448721762
 20
90.3933512032
 30
0.0
 10
250.2265107272
 20
90.3361997467
 30
0.0
 10
250.2805888789
 20
90.2692391306
 30
0.0
 10
250.2942519105
 20
90.2172688229
 30
0.0
 10
250.2942710951
 20
90.1932571889
 30
0.0
  0
SPLINE
  5
724
100
AcDbEntity
  8
RUNDUNGEN
100
AcDbSpline
 62
7
  6
CONTINUOUS
 70
0
 71
3
 72
15
 73
11
 74
0
 42
0.0000001
 43
0.0000001
 44
0.0000000001
 40
0.0
 40
0.0
 40
0.0
 40
0.0
 40
0.1025088522
 40
0.2174490166
 40
0.3426092308
 40
0.4748745963
 40
0.6105949282
 40
0.7458787179
 40
0.8768626627
 40
1.0
 40
1.0
 40
1.0
 40
1.0
 10
245.8269110041
 20
93.7618875717
 30
0.0
 10
246.0369191592
 20
93.9118489358
 30
0.0
 10
246.5156799123
 20
94.1839816714
 30
0.0
 10
247.3228152087
 20
94.4943278909
 30
0.0
 10
248.2344458386
 20
94.7214989973
 30
0.0
 10
249.2165839378
 20
94.8567584305
 30
0.0
 10
250.2326516782
 20
94.8950780951
 30
0.0
 10
251.2444887511
 20
94.8349366239
 30
0.0
 10
252.2138975013
 20
94.6787409133
 30
0.0
 10
252.8322369885
 20
94.5077259634
 30
0.0
 10
253.1248082427
 20
94.4052956645
 30
0.0
  0
SPLINE
  5
725
100
AcDbEntity
  8
RUNDUNGEN
100
AcDbSpline
 62
7
  6
CONTINUOUS
 70
0
 71
3
 72
12
 73
8
 74
0
 42
0.0000001
 43
0.0000001
 44
0.0000000001
 40
0.0
 40
0.0
 40
0.0
 40
0.0
 40
0.2540203745
 40
0.5250028569
 40
0.7823180297
 40
0.8973946237
 40
1.0
 40
1.0
 40
1.0
 40
1.0
 10
223.0606408684
 20
94.72793241
 30
0.0
 10
223.1360003158
 20
94.7543160366
 30
0.0
 10
223.2992693286
 20
94.7879710351
 30
0.0
 10
223.546287734
 20
94.7904774082
 30
0.0
 10
223.7470729345
 20
94.7539370251
 30
0.0
 10
223.8867872637
 20
94.7002708472
 30
0.0
 10
223.9466314768
 20
94.6662483748
 30
0.0
 10
223.9728780232
 20
94.6475063984
 30
0.0
  0
SPLINE
  5
726
100
AcDbEntity
  8
RUNDUNGEN
100
AcDbSpline
 62
7
  6
CONTINUOUS
 70
0
 71
3
 72
11
 73
7
 74
0
 42
0.0000001
 43
0.0000001
 44
0.0000000001
 40
0.0
 40
0.0
 40
0.0
 40
0.0
 40
0.2189462115
 40
0.4521922693
 40
0.7105269197
 40
1.0
 40
1.0
 40
1.0
 40
1.0
 10
224.1319515306
 20
77.9602999474
 30
0.0
 10
224.1319515306
 20
78.010700088
 30
0.0
 10
224.148519191
 20
78.1153769167
 30
0.0
 10
224.2203007659
 20
78.2644002307
 30
0.0
 10
224.3354231993
 20
78.4042569955
 30
0.0
 10
224.4330891925
 20
78.4851155833
 30
0.0
 10
224.4873177636
 20
78.5238387962
 30
0.0
  0
SPLINE
  5
727
100
AcDbEntity
  8
RUNDUNGEN
100
AcDbSpline
 62
7
  6
CONTINUOUS
 70
0
 71
3
 72
16
 73
12
 74
0
 42
0.0000001
 43
0.0000001
 44
0.0000000001
 40
0.0
 40
0.0
 40
0.0
 40
0.0
 40
0.1614833097
 40
0.3183508687
 40
0.4662986179
 40
0.6017201165
 40
0.7221174204
 40
0.8267310726
 40
0.9174336472
 40
0.9593080636
 40
1.0
 40
1.0
 40
1.0
 40
1.0
 10
246.3169515306
 20
75.9485301999
 30
0.0
 10
246.4448888437
 20
75.9485301999
 30
0.0
 10
246.6972893282
 20
75.9362824008
 30
0.0
 10
247.0632884633
 20
75.8816107676
 30
0.0
 10
247.4013858007
 20
75.792786732
 30
0.0
 10
247.6991186019
 20
75.6731177125
 30
0.0
 10
247.9458864998
 20
75.5265616525
 30
0.0
 10
248.1331215891
 20
75.3576688157
 30
0.0
 10
248.2357033865
 20
75.19602784
 30
0.0
 10
248.2753875191
 20
75.0638522497
 30
0.0
 10
248.2819515306
 20
74.9982689311
 30
0.0
 10
248.2819515306
 20
74.9660301999
 30
0.0
  0
SPLINE
  5
728
100
AcDbEntity
  8
RUNDUNGEN
100
AcDbSpline
 62
7
  6
CONTINUOUS
 70
0
 71
3
 72
15
 73
11
 74
0
 42
0.0000001
 43
0.0000001
 44
0.0000000001
 40
0.0
 40
0.0
 40
0.0
 40
0.0
 40
0.1066450864
 40
0.2283507576
 40
0.3612240497
 40
0.4999999171
 40
0.6387757528
 40
0.7716490803
 40
0.8933548443
 40
1.0
 40
1.0
 40
1.0
 40
1.0
 10
235.7003910102
 20
77.9470061851
 30
0.0
 10
235.8174409892
 20
78.0305885322
 30
0.0
 10
236.0909772328
 20
78.1777212418
 30
0.0
 10
236.5547950497
 20
78.3319059883
 30
0.0
 10
237.0780894648
 20
78.4281423673
 30
0.0
 10
237.6319511499
 20
78.4608030004
 30
0.0
 10
238.1858128879
 20
78.4281424497
 30
0.0
 10
238.7091074437
 20
78.3319061236
 30
0.0
 10
239.1729255484
 20
78.1777213898
 30
0.0
 10
239.4464619959
 20
78.0305885865
 30
0.0
 10
239.563512051
 20
77.9470061851
 30
0.0
  0
SPLINE
  5
729
100
AcDbEntity
  8
RUNDUNGEN
100
AcDbSpline
 62
7
  6
CONTINUOUS
 70
0
 71
3
 72
12
 73
8
 74
0
 42
0.0000001
 43
0.0000001
 44
0.0000000001
 40
0.0
 40
0.0
 40
0.0
 40
0.0
 40
0.2892947724
 40
0.5474711302
 40
0.7805716739
 40
0.8912204315
 40
1.0
 40
1.0
 40
1.0
 40
1.0
 10
230.4667424971
 20
84.4427728382
 30
0.0
 10
230.6294281111
 20
84.3266032705
 30
0.0
 10
230.922420555
 20
84.083939472
 30
0.0
 10
231.2678102999
 20
83.664718731
 30
0.0
 10
231.4502906538
 20
83.2848100896
 30
0.0
 10
231.5211140474
 20
82.9792051856
 30
0.0
 10
231.5328411923
 20
82.827323939
 30
0.0
 10
231.532841196
 20
82.7521564174
 30
0.0
  0
SPLINE
  5
72A
100
AcDbEntity
  8
RUNDUNGEN
100
AcDbSpline
 62
7
  6
CONTINUOUS
 70
0
 71
3
 72
9
 73
5
 74
0
 42
0.0000001
 43
0.0000001
 44
0.0000000001
 40
0.0
 40
0.0
 40
0.0
 40
0.0
 40
0.529070602
 40
1.0
 40
1.0
 40
1.0
 40
1.0
 10
230.4667424971
 20
82.7935905535
 30
0.0
 10
230.633004803
 20
82.9123141439
 30
0.0
 10
230.9316741245
 20
83.160213452
 30
0.0
 10
231.1772658061
 20
83.4630613014
 30
0.0
 10
231.2725146412
 20
83.6179697425
 30
0.0
  0
SPLINE
  5
72B
100
AcDbEntity
  8
RUNDUNGEN
100
AcDbSpline
 62
7
  6
CONTINUOUS
 70
0
 71
3
 72
13
 73
9
 74
0
 42
0.0000001
 43
0.0000001
 44
0.0000000001
 40
0.0
 40
0.0
 40
0.0
 40
0.0
 40
0.102567019
 40
0.2176111883
 40
0.3428635421
 40
0.4752207173
 40
0.7460883101
 40
1.0
 40
1.0
 40
1.0
 40
1.0
 10
249.3608446607
 20
90.7526129035
 30
0.0
 10
249.4002148625
 20
90.7807261412
 30
0.0
 10
249.4899859862
 20
90.8317486173
 30
0.0
 10
249.6413205734
 20
90.889947869
 30
0.0
 10
249.8122684614
 20
90.9325420784
 30
0.0
 10
250.0595956257
 20
90.9665567994
 30
0.0
 10
250.3713831815
 20
90.9632777356
 30
0.0
 10
250.616166233
 20
90.9128256063
 30
0.0
 10
250.7292003929
 20
90.8732519209
 30
0.0
  0
SPLINE
  5
72C
100
AcDbEntity
  8
RUNDUNGEN
100
AcDbSpline
 62
7
  6
CONTINUOUS
 70
0
 71
3
 72
15
 73
11
 74
0
 42
0.0000001
 43
0.0000001
 44
0.0000000001
 40
0.0
 40
0.0
 40
0.0
 40
0.0
 40
0.1025045176
 40
0.2174488397
 40
0.3426076578
 40
0.4748744951
 40
0.6105962352
 40
0.7458782512
 40
0.8768676696
 40
1.0
 40
1.0
 40
1.0
 40
1.0
 10
226.9440039635
 20
92.5259026037
 30
0.0
 10
227.0227537092
 20
92.4696694575
 30
0.0
 10
227.2022890041
 20
92.3676204949
 30
0.0
 10
227.5049611604
 20
92.2512349169
 30
0.0
 10
227.8468278222
 20
92.1660487788
 30
0.0
 10
228.2151308773
 20
92.1153258995
 30
0.0
 10
228.5961573503
 20
92.1009561752
 30
0.0
 10
228.9756015031
 20
92.1235057828
 30
0.0
 10
229.3391278178
 20
92.1820848722
 30
0.0
 10
229.571005644
 20
92.24621476
 30
0.0
 10
229.6807154279
 20
92.2846245689
 30
0.0
  0
SPLINE
  5
72D
100
AcDbEntity
  8
RUNDUNGEN
100
AcDbSpline
 62
7
  6
CONTINUOUS
 70
0
 71
3
 72
15
 73
11
 74
0
 42
0.0000001
 43
0.0000001
 44
0.0000000001
 40
0.0
 40
0.0
 40
0.0
 40
0.0
 40
0.1231331582
 40
0.2541238119
 40
0.389406782
 40
0.5251295485
 40
0.6573971855
 40
0.7825553287
 40
0.8974960316
 40
1.0
 40
1.0
 40
1.0
 40
1.0
 10
242.74892156
 20
93.2769118038
 30
0.0
 10
242.8586320814
 20
93.2385017367
 30
0.0
 10
243.0905118446
 20
93.1743715078
 30
0.0
 10
243.4540410286
 20
93.1157922354
 30
0.0
 10
243.8334882788
 20
93.0932432631
 30
0.0
 10
244.2145173431
 20
93.1076140333
 30
0.0
 10
244.5828213397
 20
93.1583382376
 30
0.0
 10
244.9246843817
 20
93.2435252331
 30
0.0
 10
245.2273519542
 20
93.3599097972
 30
0.0
 10
245.4068837007
 20
93.4619569936
 30
0.0
 10
245.4856330245
 20
93.5181898386
 30
0.0
  0
SPLINE
  5
72E
100
AcDbEntity
  8
0
100
AcDbSpline
 62
7
  6
CONTINUOUS
 70
0
 71
3
 72
13
 73
9
 74
0
 42
0.0000001
 43
0.0000001
 44
0.0000000001
 40
0.0
 40
0.0
 40
0.0
 40
0.0
 40
0.0982894529
 40
0.2060533734
 40
0.3228155457
 40
0.4477280201
 40
0.7165223805
 40
1.0
 40
1.0
 40
1.0
 40
1.0
 10
236.1340093101
 20
81.2002282169
 30
0.0
 10
236.0539471896
 20
81.2718098201
 30
0.0
 10
235.8738873973
 20
81.4084464654
 30
0.0
 10
235.5676869918
 20
81.5849438054
 30
0.0
 10
235.2179416079
 20
81.7397126979
 30
0.0
 10
234.6887279286
 20
81.9178677876
 30
0.0
 10
233.9608148431
 20
82.0662806563
 30
0.0
 10
233.3566930094
 20
82.1055301999
 30
0.0
 10
233.0469515306
 20
82.1055301999
 30
0.0
  0
SPLINE
  5
72F
100
AcDbEntity
  8
RUNDUNGEN
100
AcDbSpline
 62
7
  6
CONTINUOUS
 70
0
 71
3
 72
11
 73
7
 74
0
 42
0.0000001
 43
0.0000001
 44
0.0000000001
 40
0.0
 40
0.0
 40
0.0
 40
0.0
 40
0.2894730803
 40
0.5478077307
 40
0.7810537885
 40
1.0
 40
1.0
 40
1.0
 40
1.0
 10
224.4873177636
 20
76.7917879886
 30
0.0
 10
224.4330891925
 20
76.7530647757
 30
0.0
 10
224.3354231993
 20
76.672206188
 30
0.0
 10
224.2203007659
 20
76.5323494232
 30
0.0
 10
224.148519191
 20
76.3833261091
 30
0.0
 10
224.1319515306
 20
76.2786492805
 30
0.0
 10
224.1319515306
 20
76.2282491399
 30
0.0
  0
SPLINE
  5
730
100
AcDbEntity
  8
RUNDUNGEN
100
AcDbSpline
 62
7
  6
CONTINUOUS
 70
0
 71
3
 72
12
 73
8
 74
0
 42
0.0000001
 43
0.0000001
 44
0.0000000001
 40
0.0
 40
0.0
 40
0.0
 40
0.0
 40
0.1026062912
 40
0.21769429
 40
0.4750196083
 40
0.7459913024
 40
1.0
 40
1.0
 40
1.0
 40
1.0
 10
223.9728780232
 20
92.9154555908
 30
0.0
 10
223.9466312415
 20
92.9341977353
 30
0.0
 10
223.8867836275
 20
92.9682221459
 30
0.0
 10
223.7470619605
 20
93.0218891774
 30
0.0
 10
223.5462730081
 20
93.0584280703
 30
0.0
 10
223.299258545
 20
93.0559184925
 30
0.0
 10
223.1359968554
 20
93.0222640175
 30
0.0
 10
223.0606408684
 20
92.9958816024
 30
0.0
  0
SPLINE
  5
731
100
AcDbEntity
  8
RUNDUNGEN
100
AcDbSpline
 62
7
  6
CONTINUOUS
 70
0
 71
3
 72
15
 73
11
 74
0
 42
0.0000001
 43
0.0000001
 44
0.0000000001
 40
0.0
 40
0.0
 40
0.0
 40
0.0
 40
0.1231379891
 40
0.2541226282
 40
0.3894071607
 40
0.5251281443
 40
0.6573941452
 40
0.78255365
 40
0.8974915554
 40
1.0
 40
1.0
 40
1.0
 40
1.0
 10
253.1248082427
 20
92.673244857
 30
0.0
 10
252.8322354375
 20
92.7756756988
 30
0.0
 10
252.2138926085
 20
92.9466914046
 30
0.0
 10
251.2444784815
 20
93.1028870319
 30
0.0
 10
250.2326360589
 20
93.1630274704
 30
0.0
 10
249.2165632297
 20
93.124706036
 30
0.0
 10
248.2344240054
 20
92.9894439954
 30
0.0
 10
247.3227995323
 20
92.7622723717
 30
0.0
 10
246.5156730745
 20
92.4519271015
 30
0.0
 10
246.0369183259
 20
92.1797975332
 30
0.0
 10
245.8269110041
 20
92.0298367642
 30
0.0
  0
SPLINE
  5
732
100
AcDbEntity
  8
RUNDUNGEN
100
AcDbSpline
 62
7
  6
CONTINUOUS
 70
0
 71
3
 72
11
 73
7
 74
0
 42
0.0000001
 43
0.0000001
 44
0.0000000001
 40
0.0
 40
0.0
 40
0.0
 40
0.0
 40
0.1955292975
 40
0.4198311636
 40
0.6875941972
 40
1.0
 40
1.0
 40
1.0
 40
1.0
 10
250.2942705871
 20
88.461218105
 30
0.0
 10
250.2942491863
 20
88.4852306832
 30
0.0
 10
250.2805820415
 20
88.5372001967
 30
0.0
 10
250.2265019305
 20
88.6041551974
 30
0.0
 10
250.1448672322
 20
88.6613029546
 30
0.0
 10
250.0791094832
 20
88.6898213858
 30
0.0
 10
250.0428986107
 20
88.7024989488
 30
0.0
  0
SPLINE
  5
733
100
AcDbEntity
  8
RUNDUNGEN
100
AcDbSpline
 62
7
  6
CONTINUOUS
 70
0
 71
3
 72
9
 73
5
 74
0
 42
0.0000001
 43
0.0000001
 44
0.0000000001
 40
0.0
 40
0.0
 40
0.0
 40
0.0
 40
0.4714996281
 40
1.0
 40
1.0
 40
1.0
 40
1.0
 10
254.1731199284
 20
92.2226644816
 30
0.0
 10
254.1007795479
 20
92.2773401272
 30
0.0
 10
253.9353307768
 20
92.3775741348
 30
0.0
 10
253.7572840937
 20
92.4518126777
 30
0.0
 10
253.6613528317
 20
92.4853985741
 30
0.0
  0
SPLINE
  5
734
100
AcDbEntity
  8
RUNDUNGEN
100
AcDbSpline
 62
7
  6
CONTINUOUS
 70
0
 71
3
 72
12
 73
8
 74
0
 42
0.0000001
 43
0.0000001
 44
0.0000000001
 40
0.0
 40
0.0
 40
0.0
 40
0.0
 40
0.1087795604
 40
0.2194283072
 40
0.4525288295
 40
0.7107052012
 40
1.0
 40
1.0
 40
1.0
 40
1.0
 10
231.532841196
 20
82.7521564174
 30
0.0
 10
231.5328411998
 20
82.6769888924
 30
0.0
 10
231.5211140912
 20
82.5251076381
 30
0.0
 10
231.4502907308
 20
82.2195027153
 30
0.0
 10
231.2678104184
 20
81.8395940117
 30
0.0
 10
230.9224206386
 20
81.4203731927
 30
0.0
 10
230.6294281455
 20
81.1777093381
 30
0.0
 10
230.4667424971
 20
81.0615397459
 30
0.0
  0
SPLINE
  5
735
100
AcDbEntity
  8
RUNDUNGEN
100
AcDbSpline
 62
7
  6
CONTINUOUS
 70
0
 71
3
 72
11
 73
7
 74
0
 42
0.0000001
 43
0.0000001
 44
0.0000000001
 40
0.0
 40
0.0
 40
0.0
 40
0.0
 40
0.2189461284
 40
0.4521921153
 40
0.7105268201
 40
1.0
 40
1.0
 40
1.0
 40
1.0
 10
251.1319515306
 20
76.2282491399
 30
0.0
 10
251.1319515306
 20
76.2786492614
 30
0.0
 10
251.115383886
 20
76.3833260547
 30
0.0
 10
251.0436023388
 20
76.5323493566
 30
0.0
 10
250.928479905
 20
76.6722061471
 30
0.0
 10
250.8308138874
 20
76.7530647624
 30
0.0
 10
250.7765852976
 20
76.7917879886
 30
0.0
  0
SPLINE
  5
736
100
AcDbEntity
  8
BEZUGSACHSEN
100
AcDbSpline
 62
7
  6
CONTINUOUS
 70
0
 71
3
 72
11
 73
7
 74
0
 42
0.0000001
 43
0.0000001
 44
0.0000000001
 40
0.0
 40
0.0
 40
0.0
 40
0.0
 40
0.2163159751
 40
0.4483779954
 40
0.7076062728
 40
1.0
 40
1.0
 40
1.0
 40
1.0
 10
240.2519515306
 20
90.474395018
 30
0.0
 10
240.2519515306
 20
90.4031807696
 30
0.0
 10
240.2269427181
 20
90.2546696627
 30
0.0
 10
240.1193407854
 20
90.0448357688
 30
0.0
 10
239.9476679914
 20
89.8495452696
 30
0.0
 10
239.8030131468
 20
89.7380873743
 30
0.0
 10
239.7227512666
 20
89.684945683
 30
0.0
  0
SPLINE
  5
737
100
AcDbEntity
  8
BEZUGSACHSEN
100
AcDbSpline
 62
7
  6
CONTINUOUS
 70
0
 71
3
 72
11
 73
7
 74
0
 42
0.0000001
 43
0.0000001
 44
0.0000000001
 40
0.0
 40
0.0
 40
0.0
 40
0.0
 40
0.2923937272
 40
0.5516220046
 40
0.7836840249
 40
1.0
 40
1.0
 40
1.0
 40
1.0
 10
235.5411517946
 20
89.684945683
 30
0.0
 10
235.4608899144
 20
89.7380873743
 30
0.0
 10
235.3162350698
 20
89.8495452696
 30
0.0
 10
235.1445622758
 20
90.0448357688
 30
0.0
 10
235.0369603431
 20
90.2546696627
 30
0.0
 10
235.0119515306
 20
90.4031807696
 30
0.0
 10
235.0119515306
 20
90.474395018
 30
0.0
  0
SPLINE
  5
738
100
AcDbEntity
  8
0
100
AcDbSpline
 62
7
  6
CONTINUOUS
 70
0
 71
3
 72
11
 73
7
 74
0
 42
0.0000001
 43
0.0000001
 44
0.0000000001
 40
0.0
 40
0.0
 40
0.0
 40
0.0
 40
0.225263665
 40
0.4711746578
 40
0.7317731488
 40
1.0
 40
1.0
 40
1.0
 40
1.0
 10
235.816763096
 20
86.4797891573
 30
0.0
 10
235.625094779
 20
86.5749974983
 30
0.0
 10
235.2078149612
 20
86.7418152052
 30
0.0
 10
234.5338456721
 20
86.9179840683
 30
0.0
 10
233.8045452743
 20
87.0264915098
 30
0.0
 10
233.3017814102
 20
87.0507801999
 30
0.0
 10
233.0469515306
 20
87.0507801999
 30
0.0
  0
SPLINE
  5
739
100
AcDbEntity
  8
RUNDUNGEN
100
AcDbSpline
 62
7
  6
CONTINUOUS
 70
0
 71
3
 72
12
 73
8
 74
0
 42
0.0000001
 43
0.0000001
 44
0.0000000001
 40
0.0
 40
0.0
 40
0.0
 40
0.0
 40
0.2892947724
 40
0.5474711302
 40
0.7805716739
 40
0.8912204315
 40
1.0
 40
1.0
 40
1.0
 40
1.0
 10
244.7971605641
 20
81.0615397459
 30
0.0
 10
244.6344749501
 20
81.1777093136
 30
0.0
 10
244.3414825062
 20
81.4203731121
 30
0.0
 10
243.9960927614
 20
81.8395938532
 30
0.0
 10
243.8136124074
 20
82.2195024945
 30
0.0
 10
243.7427890138
 20
82.5251073985
 30
0.0
 10
243.731061869
 20
82.6769886451
 30
0.0
 10
243.7310618652
 20
82.7521561667
 30
0.0
  0
SPLINE
  5
73A
100
AcDbEntity
  8
RUNDUNGEN
100
AcDbSpline
 62
7
  6
CONTINUOUS
 70
0
 71
3
 72
13
 73
9
 74
0
 42
0.0000001
 43
0.0000001
 44
0.0000000001
 40
0.0
 40
0.0
 40
0.0
 40
0.0
 40
0.3117367764
 40
0.5789248634
 40
0.6960859001
 40
0.8036009549
 40
0.9037939776
 40
1.0
 40
1.0
 40
1.0
 40
1.0
 10
248.4635734693
 20
89.2554266334
 30
0.0
 10
248.4032225836
 20
89.276555706
 30
0.0
 10
248.2937370555
 20
89.32403532
 30
0.0
 10
248.1754011166
 20
89.4067894663
 30
0.0
 10
248.107320573
 20
89.481805219
 30
0.0
 10
248.0715694718
 20
89.5385222269
 30
0.0
 10
248.0496388441
 20
89.5973880464
 30
0.0
 10
248.0446383817
 20
89.637820245
 30
0.0
 10
248.0446201603
 20
89.657553781
 30
0.0
  0
SPLINE
  5
73B
100
AcDbEntity
  8
RUNDUNGEN
100
AcDbSpline
 62
7
  6
CONTINUOUS
 70
0
 71
3
 72
15
 73
11
 74
0
 42
0.0000001
 43
0.0000001
 44
0.0000000001
 40
0.0
 40
0.0
 40
0.0
 40
0.0
 40
0.1231331582
 40
0.2541238119
 40
0.389406782
 40
0.5251295485
 40
0.6573971855
 40
0.7825553287
 40
0.8974960316
 40
1.0
 40
1.0
 40
1.0
 40
1.0
 10
229.6807154279
 20
90.5525737613
 30
0.0
 10
229.5710049065
 20
90.5141636943
 30
0.0
 10
229.3391251434
 20
90.4500334653
 30
0.0
 10
228.9755959594
 20
90.3914541929
 30
0.0
 10
228.5961487092
 20
90.3689052206
 30
0.0
 10
228.2151196449
 20
90.3832759908
 30
0.0
 10
227.8468156482
 20
90.4340001951
 30
0.0
 10
227.5049526063
 20
90.5191871907
 30
0.0
 10
227.2022850338
 20
90.6355717547
 30
0.0
 10
227.0227532873
 20
90.7376189512
 30
0.0
 10
226.9440039635
 20
90.7938517961
 30
0.0
  0
SPLINE
  5
73C
100
AcDbEntity
  8
RUNDUNGEN
100
AcDbSpline
 62
7
  6
CONTINUOUS
 70
0
 71
3
 72
15
 73
11
 74
0
 42
0.0000001
 43
0.0000001
 44
0.0000000001
 40
0.0
 40
0.0
 40
0.0
 40
0.0
 40
0.1025045176
 40
0.2174488397
 40
0.3426076578
 40
0.4748744951
 40
0.6105962352
 40
0.7458782512
 40
0.8768676696
 40
1.0
 40
1.0
 40
1.0
 40
1.0
 10
245.4856330245
 20
91.786139031
 30
0.0
 10
245.4068832787
 20
91.7299058848
 30
0.0
 10
245.2273479838
 20
91.6278569222
 30
0.0
 10
244.9246758276
 20
91.5114713442
 30
0.0
 10
244.5828091658
 20
91.4262852062
 30
0.0
 10
244.2145061107
 20
91.3755623268
 30
0.0
 10
243.8334796377
 20
91.3611926026
 30
0.0
 10
243.4540354849
 20
91.3837422101
 30
0.0
 10
243.0905091701
 20
91.4423212996
 30
0.0
 10
242.858631344
 20
91.5064511873
 30
0.0
 10
242.74892156
 20
91.5448609962
 30
0.0
  0
SPLINE
  5
73D
100
AcDbEntity
  8
0
100
AcDbSpline
 62
7
  6
CONTINUOUS
 70
0
 71
3
 72
9
 73
5
 74
0
 42
0.0000001
 43
0.0000001
 44
0.0000000001
 40
0.0
 40
0.0
 40
0.0
 40
0.0
 40
0.2551412712
 40
1.0
 40
1.0
 40
1.0
 40
1.0
 10
236.0023669565
 20
81.4787569737
 30
0.0
 10
236.0139120128
 20
81.4699797369
 30
0.0
 10
236.0588390818
 20
81.435157199
 30
0.0
 10
236.1024460729
 20
81.3986221348
 30
0.0
 10
236.1340093101
 20
81.3704022088
 30
0.0
  0
SPLINE
  5
73E
100
AcDbEntity
  8
KONSTRUKTIONSELEMENTE
100
AcDbSpline
 62
7
  6
CONTINUOUS
 70
0
 71
3
 72
11
 73
7
 74
0
 42
0.0000001
 43
0.0000001
 44
0.0000000001
 40
0.0
 40
0.0
 40
0.0
 40
0.0
 40
0.2276276213
 40
0.470855922
 40
0.7290462869
 40
1.0
 40
1.0
 40
1.0
 40
1.0
 10
224.6022850378
 20
98.7710810345
 30
0.0
 10
225.1163590181
 20
98.4047560919
 30
0.0
 10
226.2392983907
 20
97.7289106611
 30
0.0
 10
228.0901466886
 20
96.9057051164
 30
0.0
 10
230.1308058808
 20
96.2439019021
 30
0.0
 10
231.5644302095
 20
95.9209277626
 30
0.0
 10
232.3036240039
 20
95.7860928245
 30
0.0
  0
SPLINE
  5
73F
100
AcDbEntity
  8
KONSTRUKTIONSELEMENTE
100
AcDbSpline
 62
7
  6
CONTINUOUS
 70
0
 71
3
 72
10
 73
6
 74
0
 42
0.0000001
 43
0.0000001
 44
0.0000000001
 40
0.0
 40
0.0
 40
0.0
 40
0.0
 40
0.2233431313
 40
0.4662850585
 40
1.0
 40
1.0
 40
1.0
 40
1.0
 10
227.7540537078
 20
101.5030531299
 30
0.0
 10
228.0632793773
 20
101.3281849434
 30
0.0
 10
228.7269440817
 20
100.9944591345
 30
0.0
 10
230.2026942931
 20
100.3979782766
 30
0.0
 10
231.3969655868
 20
100.0632276864
 30
0.0
 10
232.2260780413
 20
99.8809279994
 30
0.0
  0
SPLINE
  5
740
100
AcDbEntity
  8
KONSTRUKTIONSELEMENTE
100
AcDbSpline
 62
7
  6
CONTINUOUS
 70
0
 71
3
 72
10
 73
6
 74
0
 42
0.0000001
 43
0.0000001
 44
0.0000000001
 40
0.0
 40
0.0
 40
0.0
 40
0.0
 40
0.5337173516
 40
0.7766605249
 40
1.0
 40
1.0
 40
1.0
 40
1.0
 10
243.0377630202
 20
99.880913712
 30
0.0
 10
243.8669428572
 20
100.0632261345
 30
0.0
 10
245.0613134493
 20
100.398001411
 30
0.0
 10
246.5371630798
 20
100.9945578478
 30
0.0
 10
247.2008760076
 20
101.3283072062
 30
0.0
 10
247.5101109568
 20
101.5032021797
 30
0.0
  0
SPLINE
  5
741
100
AcDbEntity
  8
KONSTRUKTIONSELEMENTE
100
AcDbSpline
 62
7
  6
CONTINUOUS
 70
0
 71
3
 72
11
 73
7
 74
0
 42
0.0000001
 43
0.0000001
 44
0.0000000001
 40
0.0
 40
0.0
 40
0.0
 40
0.0
 40
0.2709618253
 40
0.5291542508
 40
0.7723802276
 40
1.0
 40
1.0
 40
1.0
 40
1.0
 10
242.9602603843
 20
95.7860892446
 30
0.0
 10
243.6995773105
 20
95.9209461955
 30
0.0
 10
245.1334241738
 20
96.2439783831
 30
0.0
 10
247.1743673649
 20
96.9059283044
 30
0.0
 10
249.02541862
 20
97.7293085626
 30
0.0
 10
250.1484317314
 20
98.4053288794
 30
0.0
 10
250.6625223565
 20
98.771741451
 30
0.0
  0
SPLINE
  5
742
100
AcDbEntity
  8
RUNDUNGEN
100
AcDbSpline
 62
7
  6
CONTINUOUS
 70
0
 71
3
 72
15
 73
11
 74
0
 42
0.0000001
 43
0.0000001
 44
0.0000000001
 40
0.0
 40
0.0
 40
0.0
 40
0.0
 40
0.1215807912
 40
0.2437970033
 40
0.3669445421
 40
0.4912064256
 40
0.6166855245
 40
0.7433845061
 40
0.871213907
 40
1.0
 40
1.0
 40
1.0
 40
1.0
 10
254.4927062774
 20
90.5869402154
 30
0.0
 10
254.3915855255
 20
91.3224054218
 30
0.0
 10
254.0780194443
 20
92.784293987
 30
0.0
 10
253.2874187617
 20
94.888997074
 30
0.0
 10
252.1908524052
 20
96.8708578755
 30
0.0
 10
250.8094245707
 20
98.6905042129
 30
0.0
 10
249.1700861633
 20
100.3124366786
 30
0.0
 10
247.3045869377
 20
101.7047363531
 30
0.0
 10
245.2498864476
 20
102.8398344152
 30
0.0
 10
243.7839911885
 20
103.4087648146
 30
0.0
 10
243.0336847535
 20
103.6442105739
 30
0.0
  0
SPLINE
  5
743
100
AcDbEntity
  8
RUNDUNGEN
100
AcDbSpline
 62
7
  6
CONTINUOUS
 70
0
 71
3
 72
15
 73
11
 74
0
 42
0.0000001
 43
0.0000001
 44
0.0000000001
 40
0.0
 40
0.0
 40
0.0
 40
0.0
 40
0.1287860422
 40
0.2566154411
 40
0.383314451
 40
0.5087935919
 40
0.6330555132
 40
0.7562030799
 40
0.8784192618
 40
1.0
 40
1.0
 40
1.0
 40
1.0
 10
232.2300548406
 20
103.6441589907
 30
0.0
 10
231.4797580831
 20
103.4087072215
 30
0.0
 10
230.0138809759
 20
102.8397708804
 30
0.0
 10
227.9592085368
 20
101.704666213
 30
0.0
 10
226.0937356907
 20
100.3123660278
 30
0.0
 10
224.4544215257
 20
98.6904379588
 30
0.0
 10
223.0730147383
 20
96.8708009569
 30
0.0
 10
221.9764657263
 20
94.8889539246
 30
0.0
 10
221.1858771842
 20
92.7842685487
 30
0.0
 10
220.8723156731
 20
91.3223934931
 30
0.0
 10
220.7711961307
 20
90.5869352357
 30
0.0
  0
LINE
  5
744
100
AcDbEntity
  8
RUNDUNGEN
100
AcDbLine
 62
7
  6
CONTINUOUS
 10
263.8026752792
 20
74.4751342889
 11
263.8001446116
 21
74.4582322141
  0
SPLINE
  5
745
100
AcDbEntity
  8
RUNDUNGEN
100
AcDbSpline
 62
7
  6
CONTINUOUS
 70
0
 71
3
 72
11
 73
7
 74
0
 42
0.0000001
 43
0.0000001
 44
0.0000000001
 40
0.0
 40
0.0
 40
0.0
 40
0.0
 40
0.2474848153
 40
0.4960950268
 40
0.7467578122
 40
1.0
 40
1.0
 40
1.0
 40
1.0
 10
257.1319515306
 20
44.0284717983
 30
0.0
 10
257.1319515306
 20
43.5175160953
 30
0.0
 10
257.0059354693
 20
42.4889723607
 30
0.0
 10
256.4501163258
 20
41.0354406553
 30
0.0
 10
255.5610065897
 20
39.744346684
 30
0.0
 10
254.7810705195
 20
39.0396984357
 30
0.0
 10
254.3562841041
 20
38.7348696072
 30
0.0
  0
SPLINE
  5
746
100
AcDbEntity
  8
RUNDUNGEN
100
AcDbSpline
 62
7
  6
CONTINUOUS
 70
0
 71
3
 72
9
 73
5
 74
0
 42
0.0000001
 43
0.0000001
 44
0.0000000001
 40
0.0
 40
0.0
 40
0.0
 40
0.0
 40
0.4992603237
 40
1.0
 40
1.0
 40
1.0
 40
1.0
 10
254.3080274221
 20
38.7005510066
 30
0.0
 10
254.138301194
 20
38.5809331436
 30
0.0
 10
253.7585795753
 20
38.3935548199
 30
0.0
 10
253.3402093369
 20
38.3300086944
 30
0.0
 10
253.1319515306
 20
38.3300086944
 30
0.0
  0
SPLINE
  5
747
100
AcDbEntity
  8
RUNDUNGEN
100
AcDbSpline
 62
7
  6
CONTINUOUS
 70
0
 71
3
 72
9
 73
5
 74
0
 42
0.0000001
 43
0.0000001
 44
0.0000000001
 40
0.0
 40
0.0
 40
0.0
 40
0.0
 40
0.4992603237
 40
1.0
 40
1.0
 40
1.0
 40
1.0
 10
220.9558756392
 20
38.7005510066
 30
0.0
 10
221.1256018673
 20
38.5809331436
 30
0.0
 10
221.5053234859
 20
38.3935548199
 30
0.0
 10
221.9236937243
 20
38.3300086944
 30
0.0
 10
222.1319515306
 20
38.3300086944
 30
0.0
  0
SPLINE
  5
748
100
AcDbEntity
  8
RUNDUNGEN
100
AcDbSpline
 62
7
  6
CONTINUOUS
 70
0
 71
3
 72
11
 73
7
 74
0
 42
0.0000001
 43
0.0000001
 44
0.0000000001
 40
0.0
 40
0.0
 40
0.0
 40
0.0
 40
0.2532421134
 40
0.5039046546
 40
0.7525148401
 40
1.0
 40
1.0
 40
1.0
 40
1.0
 10
220.9076188474
 20
38.7348696863
 30
0.0
 10
220.4828325735
 20
39.0396984319
 30
0.0
 10
219.7028969485
 20
39.744346154
 30
0.0
 10
218.8137875181
 20
41.035439387
 30
0.0
 10
218.2579677544
 20
42.488970984
 30
0.0
 10
218.1319515306
 20
43.517515393
 30
0.0
 10
218.1319515306
 20
44.0284717983
 30
0.0
  0
LINE
  5
749
100
AcDbEntity
  8
RUNDUNGEN
100
AcDbLine
 62
7
  6
CONTINUOUS
 10
211.4637584497
 20
74.4582322141
 11
211.4612277821
 21
74.4751342886
  0
SPLINE
  5
74A
100
AcDbEntity
  8
BEZUGSACHSEN
100
AcDbSpline
 62
7
  6
CONTINUOUS
 70
0
 71
3
 72
18
 73
14
 74
0
 42
0.0000001
 43
0.0000001
 44
0.0000000001
 40
0.0
 40
0.0
 40
0.0
 40
0.0
 40
0.0060377407
 40
0.0196866672
 40
0.0418445037
 40
0.0725910636
 40
0.111773044
 40
0.159180907
 40
0.2775764275
 40
0.424805185
 40
0.5972062021
 40
0.7904696676
 40
1.0
 40
1.0
 40
1.0
 40
1.0
 10
257.0850097998
 20
48.8724321582
 30
0.0
 10
257.0829300446
 20
48.8724191825
 30
0.0
 10
257.0789031878
 20
48.8801205005
 30
0.0
 10
257.076962919
 20
48.8931185394
 30
0.0
 10
257.0745482693
 20
48.9166226
 30
0.0
 10
257.0738065551
 20
48.9480582718
 30
0.0
 10
257.0738895859
 20
48.988588221
 30
0.0
 10
257.0758021599
 20
49.0591279172
 30
0.0
 10
257.0813221008
 20
49.1668573686
 30
0.0
 10
257.0909171295
 20
49.3174223677
 30
0.0
 10
257.102680654
 20
49.4937096671
 30
0.0
 10
257.1147244864
 20
49.6914785759
 30
0.0
 10
257.1214134553
 20
49.8300737988
 30
0.0
 10
257.1242137211
 20
49.9021955058
 30
0.0
  0
SPLINE
  5
74B
100
AcDbEntity
  8
BEZUGSACHSEN
100
AcDbSpline
 62
7
  6
CONTINUOUS
 70
0
 71
3
 72
9
 73
5
 74
0
 42
0.0000001
 43
0.0000001
 44
0.0000000001
 40
0.0
 40
0.0
 40
0.0
 40
0.0
 40
0.2451041781
 40
1.0
 40
1.0
 40
1.0
 40
1.0
 10
257.1242137211
 20
49.9021955058
 30
0.0
 10
257.1254078218
 20
49.9329499357
 30
0.0
 10
257.1297766374
 20
50.0584429031
 30
0.0
 10
257.1319515306
 20
50.1840203078
 30
0.0
 10
257.1319515306
 20
50.2788121793
 30
0.0
  0
SPLINE
  5
74C
100
AcDbEntity
  8
0
100
AcDbSpline
 62
7
  6
CONTINUOUS
 70
0
 71
3
 72
11
 73
7
 74
0
 42
0.0000001
 43
0.0000001
 44
0.0000000001
 40
0.0
 40
0.0
 40
0.0
 40
0.0
 40
0.2436063281
 40
0.4905346227
 40
0.7430906247
 40
1.0
 40
1.0
 40
1.0
 40
1.0
 10
218.6258304322
 20
75.9343133963
 30
0.0
 10
218.625251182
 20
75.8115369409
 30
0.0
 10
218.5759262296
 20
75.5619717812
 30
0.0
 10
218.3668370499
 20
75.241123907
 30
0.0
 10
218.0531746027
 20
75.0110834722
 30
0.0
 10
217.801139939
 20
74.9370621684
 30
0.0
 10
217.6725601881
 20
74.9217983653
 30
0.0
  0
SPLINE
  5
74D
100
AcDbEntity
  8
0
100
AcDbSpline
 62
7
  6
CONTINUOUS
 70
0
 71
3
 72
15
 73
11
 74
0
 42
0.0000001
 43
0.0000001
 44
0.0000000001
 40
0.0
 40
0.0
 40
0.0
 40
0.0
 40
0.1214760177
 40
0.2449654593
 40
0.371271284
 40
0.4995057956
 40
0.6278814848
 40
0.7545281554
 40
0.8784621162
 40
1.0
 40
1.0
 40
1.0
 40
1.0
 10
217.325945295
 20
85.5730178841
 30
0.0
 10
217.3199278096
 20
85.4972645385
 30
0.0
 10
217.2770865974
 20
85.3453320803
 30
0.0
 10
217.1311144855
 20
85.1579388624
 30
0.0
 10
216.9246087031
 20
85.0325781179
 30
0.0
 10
216.6848947963
 20
84.9851691134
 30
0.0
 10
216.4430289117
 20
85.0211526613
 30
0.0
 10
216.2300594259
 20
85.1363618851
 30
0.0
 10
216.0744578491
 20
85.3164408967
 30
0.0
 10
216.0231984755
 20
85.4660277008
 30
0.0
 10
216.0130682795
 20
85.5413804855
 30
0.0
  0
SPLINE
  5
74E
100
AcDbEntity
  8
0
100
AcDbSpline
 62
7
  6
CONTINUOUS
 70
0
 71
3
 72
10
 73
6
 74
0
 42
0.0000001
 43
0.0000001
 44
0.0000000001
 40
0.0
 40
0.0
 40
0.0
 40
0.0
 40
0.2474764592
 40
0.4962771016
 40
1.0
 40
1.0
 40
1.0
 40
1.0
 10
215.0781147189
 20
85.8433794051
 30
0.0
 10
215.0778966934
 20
85.7800795168
 30
0.0
 10
215.0619040907
 20
85.6525679296
 30
0.0
 10
214.9693355374
 20
85.4121983752
 30
0.0
 10
214.8351306422
 20
85.261692978
 30
0.0
 10
214.7302355887
 20
85.1868749531
 30
0.0
  0
SPLINE
  5
74F
100
AcDbEntity
  8
0
100
AcDbSpline
 62
7
  6
CONTINUOUS
 70
0
 71
3
 72
9
 73
5
 74
0
 42
0.0000001
 43
0.0000001
 44
0.0000000001
 40
0.0
 40
0.0
 40
0.0
 40
0.0
 40
0.7482930214
 40
1.0
 40
1.0
 40
1.0
 40
1.0
 10
252.4980441721
 20
108.7975161909
 30
0.0
 10
252.4979865684
 20
108.6851186397
 30
0.0
 10
252.4652359388
 20
108.5343567155
 30
0.0
 10
252.4083854617
 20
108.3955397438
 30
0.0
 10
252.392856423
 20
108.3610684149
 30
0.0
  0
SPLINE
  5
750
100
AcDbEntity
  8
KONSTRUKTIONSELEMENTE
100
AcDbSpline
 62
7
  6
CONTINUOUS
 70
0
 71
3
 72
16
 73
12
 74
0
 42
0.0000001
 43
0.0000001
 44
0.0000000001
 40
0.0
 40
0.0
 40
0.0
 40
0.0
 40
0.2037299394
 40
0.3916848096
 40
0.5596864877
 40
0.7043251303
 40
0.822516327
 40
0.9117453914
 40
0.9703269481
 40
0.9882954462
 40
1.0
 40
1.0
 40
1.0
 40
1.0
 10
257.2668364843
 20
53.6938284334
 30
0.0
 10
257.2820674316
 20
53.8100804992
 30
0.0
 10
257.3145888573
 20
54.0331805663
 30
0.0
 10
257.3715333441
 20
54.3502595379
 30
0.0
 10
257.4329295289
 20
54.6318337238
 30
0.0
 10
257.4960504192
 20
54.8716232704
 30
0.0
 10
257.5577387409
 20
55.0649385458
 30
0.0
 10
257.6145377781
 20
55.2067885747
 30
0.0
 10
257.6597042915
 20
55.2921379365
 30
0.0
 10
257.6931243134
 20
55.3302333669
 30
0.0
 10
257.7094151182
 20
55.3387715543
 30
0.0
 10
257.7161510277
 20
55.338778252
 30
0.0
  0
SPLINE
  5
751
100
AcDbEntity
  8
0
100
AcDbSpline
 62
7
  6
CONTINUOUS
 70
0
 71
3
 72
9
 73
5
 74
0
 42
0.0000001
 43
0.0000001
 44
0.0000000001
 40
0.0
 40
0.0
 40
0.0
 40
0.0
 40
0.7484951704
 40
1.0
 40
1.0
 40
1.0
 40
1.0
 10
230.0723140028
 20
113.1620124037
 30
0.0
 10
230.0702683066
 20
113.0947888318
 30
0.0
 10
230.0600423545
 20
113.0038839317
 30
0.0
 10
230.0275629463
 20
112.9196890448
 30
0.0
 10
230.0176114052
 20
112.8993996454
 30
0.0
  0
SPLINE
  5
752
100
AcDbEntity
  8
BEZUGSACHSEN
100
AcDbSpline
 62
7
  6
CONTINUOUS
 70
0
 71
3
 72
21
 73
17
 74
0
 42
0.0000001
 43
0.0000001
 44
0.0000000001
 40
0.0
 40
0.0
 40
0.0
 40
0.0
 40
0.0606369485
 40
0.1215997354
 40
0.1830867773
 40
0.245292231
 40
0.3082543023
 40
0.3719098109
 40
0.5
 40
0.6280901891
 40
0.6917456977
 40
0.754707769
 40
0.8169132227
 40
0.8784002646
 40
0.9393630515
 40
1.0
 40
1.0
 40
1.0
 40
1.0
 10
224.0319515306
 20
51.9457204523
 30
0.0
 10
224.0319515306
 20
51.7675677943
 30
0.0
 10
224.0696136527
 20
51.409205285
 30
0.0
 10
224.236347371
 20
50.8939213633
 30
0.0
 10
224.507041403
 20
50.4193826647
 30
0.0
 10
224.8705711679
 20
50.0040426486
 30
0.0
 10
225.3131657321
 20
49.6636327225
 30
0.0
 10
225.9855062805
 20
49.3264328063
 30
0.0
 10
226.9319515306
 20
49.1499624875
 30
0.0
 10
227.8783967807
 20
49.3264328063
 30
0.0
 10
228.5507373291
 20
49.6636327225
 30
0.0
 10
228.9933318933
 20
50.0040426486
 30
0.0
 10
229.3568616583
 20
50.4193826647
 30
0.0
 10
229.6275556902
 20
50.8939213633
 30
0.0
 10
229.7942894085
 20
51.409205285
 30
0.0
 10
229.8319515306
 20
51.7675677943
 30
0.0
 10
229.8319515306
 20
51.9457204523
 30
0.0
  0
SPLINE
  5
753
100
AcDbEntity
  8
BEZUGSACHSEN
100
AcDbSpline
 62
7
  6
CONTINUOUS
 70
0
 71
3
 72
9
 73
5
 74
0
 42
0.0000001
 43
0.0000001
 44
0.0000000001
 40
0.0
 40
0.0
 40
0.0
 40
0.0
 40
0.2536837181
 40
1.0
 40
1.0
 40
1.0
 40
1.0
 10
218.1319515306
 20
50.2788121793
 30
0.0
 10
218.1319515306
 20
50.2469729602
 30
0.0
 10
218.1326904329
 20
50.1214655957
 30
0.0
 10
218.1360494092
 20
49.9959808847
 30
0.0
 10
218.1396820456
 20
49.9023830317
 30
0.0
  0
SPLINE
  5
754
100
AcDbEntity
  8
BEZUGSACHSEN
100
AcDbSpline
 62
7
  6
CONTINUOUS
 70
0
 71
3
 72
18
 73
14
 74
0
 42
0.0000001
 43
0.0000001
 44
0.0000000001
 40
0.0
 40
0.0
 40
0.0
 40
0.0
 40
0.2095253384
 40
0.4027872426
 40
0.5751888154
 40
0.7224193383
 40
0.8408170253
 40
0.8882258478
 40
0.9274085914
 40
0.958155704
 40
0.9803138124
 40
0.9939626576
 40
1.0
 40
1.0
 40
1.0
 40
1.0
 10
218.1396820456
 20
49.9023830317
 30
0.0
 10
218.1424816124
 20
49.8302498977
 30
0.0
 10
218.149169971
 20
49.6916316642
 30
0.0
 10
218.1612145944
 20
49.4938288106
 30
0.0
 10
218.1729801582
 20
49.3175092157
 30
0.0
 10
218.1825775641
 20
49.16691536
 30
0.0
 10
218.1880994296
 20
49.0591646933
 30
0.0
 10
218.1900131564
 20
48.9886108774
 30
0.0
 10
218.1900966785
 20
48.948072755
 30
0.0
 10
218.189355332
 20
48.9166308877
 30
0.0
 10
218.1869405903
 20
48.8931221
 30
0.0
 10
218.18500044
 20
48.8801219873
 30
0.0
 10
218.1809729934
 20
48.872419064
 30
0.0
 10
218.1788929987
 20
48.8724322123
 30
0.0
  0
SPLINE
  5
755
100
AcDbEntity
  8
BEZUGSACHSEN
100
AcDbSpline
 62
7
  6
CONTINUOUS
 70
0
 71
3
 72
21
 73
17
 74
0
 42
0.0000001
 43
0.0000001
 44
0.0000000001
 40
0.0
 40
0.0
 40
0.0
 40
0.0
 40
0.0606369485
 40
0.1215997354
 40
0.1830867773
 40
0.245292231
 40
0.3082543023
 40
0.3719098109
 40
0.5
 40
0.6280901891
 40
0.6917456977
 40
0.754707769
 40
0.8169132227
 40
0.8784002646
 40
0.9393630515
 40
1.0
 40
1.0
 40
1.0
 40
1.0
 10
234.7319515306
 20
51.9457204523
 30
0.0
 10
234.7319515306
 20
51.7675677943
 30
0.0
 10
234.7696136527
 20
51.409205285
 30
0.0
 10
234.936347371
 20
50.8939213633
 30
0.0
 10
235.207041403
 20
50.4193826647
 30
0.0
 10
235.5705711679
 20
50.0040426486
 30
0.0
 10
236.0131657321
 20
49.6636327225
 30
0.0
 10
236.6855062805
 20
49.3264328063
 30
0.0
 10
237.6319515306
 20
49.1499624875
 30
0.0
 10
238.5783967807
 20
49.3264328063
 30
0.0
 10
239.2507373291
 20
49.6636327225
 30
0.0
 10
239.6933318933
 20
50.0040426486
 30
0.0
 10
240.0568616583
 20
50.4193826647
 30
0.0
 10
240.3275556902
 20
50.8939213633
 30
0.0
 10
240.4942894085
 20
51.409205285
 30
0.0
 10
240.5319515306
 20
51.7675677943
 30
0.0
 10
240.5319515306
 20
51.9457204523
 30
0.0
  0
SPLINE
  5
756
100
AcDbEntity
  8
BEZUGSACHSEN
100
AcDbSpline
 62
7
  6
CONTINUOUS
 70
0
 71
3
 72
21
 73
17
 74
0
 42
0.0000001
 43
0.0000001
 44
0.0000000001
 40
0.0
 40
0.0
 40
0.0
 40
0.0
 40
0.0606369485
 40
0.1215997354
 40
0.1830867773
 40
0.245292231
 40
0.3082543023
 40
0.3719098109
 40
0.5
 40
0.6280901891
 40
0.6917456977
 40
0.754707769
 40
0.8169132227
 40
0.8784002646
 40
0.9393630515
 40
1.0
 40
1.0
 40
1.0
 40
1.0
 10
245.4319515306
 20
51.9457204523
 30
0.0
 10
245.4319515306
 20
51.7675677943
 30
0.0
 10
245.4696136527
 20
51.409205285
 30
0.0
 10
245.636347371
 20
50.8939213633
 30
0.0
 10
245.907041403
 20
50.4193826647
 30
0.0
 10
246.2705711679
 20
50.0040426486
 30
0.0
 10
246.7131657321
 20
49.6636327225
 30
0.0
 10
247.3855062805
 20
49.3264328063
 30
0.0
 10
248.3319515306
 20
49.1499624875
 30
0.0
 10
249.2783967807
 20
49.3264328063
 30
0.0
 10
249.9507373291
 20
49.6636327225
 30
0.0
 10
250.3933318933
 20
50.0040426486
 30
0.0
 10
250.7568616583
 20
50.4193826647
 30
0.0
 10
251.0275556902
 20
50.8939213633
 30
0.0
 10
251.1942894085
 20
51.409205285
 30
0.0
 10
251.2319515306
 20
51.7675677943
 30
0.0
 10
251.2319515306
 20
51.9457204523
 30
0.0
  0
SPLINE
  5
757
100
AcDbEntity
  8
RUNDUNGEN
100
AcDbSpline
 62
7
  6
CONTINUOUS
 70
0
 71
3
 72
9
 73
5
 74
0
 42
0.0000001
 43
0.0000001
 44
0.0000000001
 40
0.0
 40
0.0
 40
0.0
 40
0.0
 40
0.4971855929
 40
1.0
 40
1.0
 40
1.0
 40
1.0
 10
254.3319515306
 20
42.6994247702
 30
0.0
 10
254.1595881245
 20
42.5779483046
 30
0.0
 10
253.771839389
 20
42.3877826705
 30
0.0
 10
253.34520771
 20
42.3235477218
 30
0.0
 10
253.1319515306
 20
42.3235477218
 30
0.0
  0
SPLINE
  5
758
100
AcDbEntity
  8
RUNDUNGEN
100
AcDbSpline
 62
7
  6
CONTINUOUS
 70
0
 71
3
 72
11
 73
7
 74
0
 42
0.0000001
 43
0.0000001
 44
0.0000000001
 40
0.0
 40
0.0
 40
0.0
 40
0.0
 40
0.2545932796
 40
0.5055844752
 40
0.7536193641
 40
1.0
 40
1.0
 40
1.0
 40
1.0
 10
220.9319515306
 20
42.6994247702
 30
0.0
 10
220.5031881067
 20
43.0016041393
 30
0.0
 10
219.7164358248
 20
43.7008014951
 30
0.0
 10
218.81900863
 20
44.9852699157
 30
0.0
 10
218.258921719
 20
46.4310468354
 30
0.0
 10
218.1319515306
 20
47.4540764088
 30
0.0
 10
218.1319515306
 20
47.9617034466
 30
0.0
  0
SPLINE
  5
759
100
AcDbEntity
  8
RUNDUNGEN
100
AcDbSpline
 62
7
  6
CONTINUOUS
 70
0
 71
3
 72
9
 73
5
 74
0
 42
0.0000001
 43
0.0000001
 44
0.0000000001
 40
0.0
 40
0.0
 40
0.0
 40
0.0
 40
0.5028144071
 40
1.0
 40
1.0
 40
1.0
 40
1.0
 10
222.1319515306
 20
42.3235477218
 30
0.0
 10
221.9186953512
 20
42.3235477218
 30
0.0
 10
221.4920636722
 20
42.3877826705
 30
0.0
 10
221.1043149367
 20
42.5779483046
 30
0.0
 10
220.9319515306
 20
42.6994247702
 30
0.0
  0
SPLINE
  5
75A
100
AcDbEntity
  8
KONSTRUKTIONSELEMENTE
100
AcDbSpline
 62
7
  6
CONTINUOUS
 70
0
 71
3
 72
16
 73
12
 74
0
 42
0.0000001
 43
0.0000001
 44
0.0000000001
 40
0.0
 40
0.0
 40
0.0
 40
0.0
 40
0.0117046141
 40
0.0296731811
 40
0.088254866
 40
0.177483997
 40
0.2956752084
 40
0.4403138193
 40
0.6083154288
 40
0.7962702111
 40
1.0
 40
1.0
 40
1.0
 40
1.0
 10
217.5477522791
 20
55.338778253
 30
0.0
 10
217.5544882224
 20
55.3387714602
 30
0.0
 10
217.570779
 20
55.3302331317
 30
0.0
 10
217.6041990402
 20
55.2921375265
 30
0.0
 10
217.649365531
 20
55.2067880075
 30
0.0
 10
217.7061645601
 20
55.0649378645
 30
0.0
 10
217.7678528364
 20
54.8716225758
 30
0.0
 10
217.830973682
 20
54.6318331029
 30
0.0
 10
217.892369808
 20
54.3502590554
 30
0.0
 10
217.9493142413
 20
54.0331802984
 30
0.0
 10
217.981835643
 20
53.8100803975
 30
0.0
 10
217.9970665769
 20
53.6938284334
 30
0.0
  0
SPLINE
  5
75B
100
AcDbEntity
  8
RUNDUNGEN
100
AcDbSpline
 62
7
  6
CONTINUOUS
 70
0
 71
3
 72
11
 73
7
 74
0
 42
0.0000001
 43
0.0000001
 44
0.0000000001
 40
0.0
 40
0.0
 40
0.0
 40
0.0
 40
0.2463806359
 40
0.4944155248
 40
0.7454067204
 40
1.0
 40
1.0
 40
1.0
 40
1.0
 10
257.1319515306
 20
47.9617034466
 30
0.0
 10
257.1319515306
 20
47.4540764088
 30
0.0
 10
257.0049813422
 20
46.4310468354
 30
0.0
 10
256.4448944313
 20
44.9852699157
 30
0.0
 10
255.5474672364
 20
43.7008014951
 30
0.0
 10
254.7607149546
 20
43.0016041393
 30
0.0
 10
254.3319515306
 20
42.6994247702
 30
0.0
  0
SPLINE
  5
75C
100
AcDbEntity
  8
0
100
AcDbSpline
 62
7
  6
CONTINUOUS
 70
0
 71
3
 72
10
 73
6
 74
0
 42
0.0000001
 43
0.0000001
 44
0.0000000001
 40
0.0
 40
0.0
 40
0.0
 40
0.0
 40
0.2482002967
 40
0.4981951641
 40
1.0
 40
1.0
 40
1.0
 40
1.0
 10
229.7732745879
 20
112.6075954487
 30
0.0
 10
229.7297478742
 20
112.5733123435
 30
0.0
 10
229.6326929753
 20
112.5172120924
 30
0.0
 10
229.4284294698
 20
112.427270356
 30
0.0
 10
229.2689766645
 20
112.3737517229
 30
0.0
 10
229.1619925395
 20
112.340542539
 30
0.0
  0
SPLINE
  5
75D
100
AcDbEntity
  8
0
100
AcDbSpline
 62
7
  6
CONTINUOUS
 70
0
 71
3
 72
9
 73
5
 74
0
 42
0.0000001
 43
0.0000001
 44
0.0000000001
 40
0.0
 40
0.0
 40
0.0
 40
0.0
 40
0.4964507112
 40
1.0
 40
1.0
 40
1.0
 40
1.0
 10
230.0176114052
 20
112.8993996454
 30
0.0
 10
229.9897008609
 20
112.842495074
 30
0.0
 10
229.9176284347
 20
112.7352228208
 30
0.0
 10
229.8237775739
 20
112.6473733008
 30
0.0
 10
229.7732745879
 20
112.6075954487
 30
0.0
  0
SPLINE
  5
75E
100
AcDbEntity
  8
0
100
AcDbSpline
 62
7
  6
CONTINUOUS
 70
0
 71
3
 72
11
 73
7
 74
0
 42
0.0000001
 43
0.0000001
 44
0.0000000001
 40
0.0
 40
0.0
 40
0.0
 40
0.0
 40
0.254806876
 40
0.5060004172
 40
0.753848494
 40
1.0
 40
1.0
 40
1.0
 40
1.0
 10
250.2506164381
 20
107.1553033148
 30
0.0
 10
250.1884380431
 20
107.1980424089
 30
0.0
 10
250.0717107441
 20
107.2938067945
 30
0.0
 10
249.9346117685
 20
107.4729851656
 30
0.0
 10
249.8505857985
 20
107.6798698015
 30
0.0
 10
249.8315975481
 20
107.8264425341
 30
0.0
 10
249.8295928845
 20
107.8993025642
 30
0.0
  0
SPLINE
  5
75F
100
AcDbEntity
  8
0
100
AcDbSpline
 62
7
  6
CONTINUOUS
 70
0
 71
3
 72
9
 73
5
 74
0
 42
0.0000001
 43
0.0000001
 44
0.0000000001
 40
0.0
 40
0.0
 40
0.0
 40
0.0
 40
0.5026117959
 40
1.0
 40
1.0
 40
1.0
 40
1.0
 10
250.8149968401
 20
106.9807766264
 30
0.0
 10
250.7147783485
 20
106.9785013968
 30
0.0
 10
250.5129447237
 20
107.0068131628
 30
0.0
 10
250.3323686952
 20
107.0991098829
 30
0.0
 10
250.2506164381
 20
107.1553033148
 30
0.0
  0
SPLINE
  5
760
100
AcDbEntity
  8
0
100
AcDbSpline
 62
7
  6
CONTINUOUS
 70
0
 71
3
 72
9
 73
5
 74
0
 42
0.0000001
 43
0.0000001
 44
0.0000000001
 40
0.0
 40
0.0
 40
0.0
 40
0.0
 40
0.4981378211
 40
1.0
 40
1.0
 40
1.0
 40
1.0
 10
251.5305387355
 20
107.2678762367
 30
0.0
 10
251.4238709357
 20
107.1949671647
 30
0.0
 10
251.2011092574
 20
107.0620461067
 30
0.0
 10
250.9451336157
 20
106.9837310816
 30
0.0
 10
250.8149968401
 20
106.9807766264
 30
0.0
  0
SPLINE
  5
761
100
AcDbEntity
  8
0
100
AcDbSpline
 62
7
  6
CONTINUOUS
 70
0
 71
3
 72
11
 73
7
 74
0
 42
0.0000001
 43
0.0000001
 44
0.0000000001
 40
0.0
 40
0.0
 40
0.0
 40
0.0
 40
0.2805048706
 40
0.5363667407
 40
0.77363521
 40
1.0
 40
1.0
 40
1.0
 40
1.0
 10
249.509289375
 20
109.4219163217
 30
0.0
 10
249.4196771041
 20
109.3067956509
 30
0.0
 10
249.2600518368
 20
109.0769769995
 30
0.0
 10
249.0783334843
 20
108.7162273065
 30
0.0
 10
248.9678213365
 20
108.3566676432
 30
0.0
 10
248.9425783805
 20
108.1149281633
 30
0.0
 10
248.9425786769
 20
107.9971984202
 30
0.0
  0
SPLINE
  5
762
100
AcDbEntity
  8
0
100
AcDbSpline
 62
7
  6
CONTINUOUS
 70
0
 71
3
 72
10
 73
6
 74
0
 42
0.0000001
 43
0.0000001
 44
0.0000000001
 40
0.0
 40
0.0
 40
0.0
 40
0.0
 40
0.2348204146
 40
0.4747803528
 40
1.0
 40
1.0
 40
1.0
 40
1.0
 10
250.9703702232
 20
110.4236512893
 30
0.0
 10
250.8327735592
 20
110.392334235
 30
0.0
 10
250.5599294075
 20
110.3017107126
 30
0.0
 10
250.0340538116
 20
110.0047628376
 30
0.0
 10
249.7031679221
 20
109.6709829747
 30
0.0
 10
249.509289375
 20
109.4219163217
 30
0.0
  0
SPLINE
  5
763
100
AcDbEntity
  8
0
100
AcDbSpline
 62
7
  6
CONTINUOUS
 70
0
 71
3
 72
11
 73
7
 74
0
 42
0.0000001
 43
0.0000001
 44
0.0000000001
 40
0.0
 40
0.0
 40
0.0
 40
0.0
 40
0.2632494071
 40
0.5103213394
 40
0.7521035011
 40
1.0
 40
1.0
 40
1.0
 40
1.0
 10
252.554697189
 20
110.0957972988
 30
0.0
 10
252.434284504
 20
110.1785644572
 30
0.0
 10
252.1867260435
 20
110.3201671226
 30
0.0
 10
251.7869093869
 20
110.4507645489
 30
0.0
 10
251.3764305781
 20
110.4890826887
 30
0.0
 10
251.1045326961
 20
110.4541867204
 30
0.0
 10
250.9703702232
 20
110.4236512893
 30
0.0
  0
SPLINE
  5
764
100
AcDbEntity
  8
0
100
AcDbSpline
 62
7
  6
CONTINUOUS
 70
0
 71
3
 72
9
 73
5
 74
0
 42
0.0000001
 43
0.0000001
 44
0.0000000001
 40
0.0
 40
0.0
 40
0.0
 40
0.0
 40
0.4754599502
 40
1.0
 40
1.0
 40
1.0
 40
1.0
 10
253.1725499483
 20
109.464815011
 30
0.0
 10
253.0994566511
 20
109.5850964658
 30
0.0
 10
252.913421659
 20
109.8192044752
 30
0.0
 10
252.6826609446
 20
110.007839818
 30
0.0
 10
252.554697189
 20
110.0957972988
 30
0.0
  0
SPLINE
  5
765
100
AcDbEntity
  8
0
100
AcDbSpline
 62
7
  6
CONTINUOUS
 70
0
 71
3
 72
9
 73
5
 74
0
 42
0.0000001
 43
0.0000001
 44
0.0000000001
 40
0.0
 40
0.0
 40
0.0
 40
0.0
 40
0.4922501884
 40
1.0
 40
1.0
 40
1.0
 40
1.0
 10
253.3911736568
 20
108.7305809614
 30
0.0
 10
253.3891075165
 20
108.8574095754
 30
0.0
 10
253.3492854067
 20
109.1158262141
 30
0.0
 10
253.2404970958
 20
109.3530019983
 30
0.0
 10
253.1725499483
 20
109.464815011
 30
0.0
  0
SPLINE
  5
766
100
AcDbEntity
  8
0
100
AcDbSpline
 62
7
  6
CONTINUOUS
 70
0
 71
3
 72
11
 73
7
 74
0
 42
0.0000001
 43
0.0000001
 44
0.0000000001
 40
0.0
 40
0.0
 40
0.0
 40
0.0
 40
0.2570422036
 40
0.51049276
 40
0.7576872511
 40
1.0
 40
1.0
 40
1.0
 40
1.0
 10
215.8325853733
 20
79.7612146946
 30
0.0
 10
215.6862744592
 20
79.7438460112
 30
0.0
 10
215.385419721
 20
79.7677091727
 30
0.0
 10
214.9899736847
 20
79.974232587
 30
0.0
 10
214.7163331436
 20
80.3173670535
 30
0.0
 10
214.6509553688
 20
80.6018244197
 30
0.0
 10
214.6509965417
 20
80.7407196286
 30
0.0
  0
SPLINE
  5
767
100
AcDbEntity
  8
0
100
AcDbSpline
 62
7
  6
CONTINUOUS
 70
0
 71
3
 72
11
 73
7
 74
0
 42
0.0000001
 43
0.0000001
 44
0.0000000001
 40
0.0
 40
0.0
 40
0.0
 40
0.0
 40
0.2570603026
 40
0.5095799001
 40
0.7566550166
 40
1.0
 40
1.0
 40
1.0
 40
1.0
 10
215.4377856876
 20
82.6979057156
 30
0.0
 10
215.1893537048
 20
82.6684141599
 30
0.0
 10
214.7025436615
 20
82.5252980285
 30
0.0
 10
214.0972468976
 20
82.0799095629
 30
0.0
 10
213.6952585371
 20
81.4594197016
 30
0.0
 10
213.6010125124
 20
80.977319772
 30
0.0
 10
213.6009871624
 20
80.7404914608
 30
0.0
  0
SPLINE
  5
768
100
AcDbEntity
  8
0
100
AcDbSpline
 62
7
  6
CONTINUOUS
 70
0
 71
3
 72
11
 73
7
 74
0
 42
0.0000001
 43
0.0000001
 44
0.0000000001
 40
0.0
 40
0.0
 40
0.0
 40
0.0
 40
0.2563407768
 40
0.5097423185
 40
0.7574549094
 40
1.0
 40
1.0
 40
1.0
 40
1.0
 10
216.3728899294
 20
74.767513489
 30
0.0
 10
216.2321538368
 20
74.750806597
 30
0.0
 10
215.9433823133
 20
74.7695760329
 30
0.0
 10
215.5550463357
 20
74.9505634642
 30
0.0
 10
215.2670942008
 20
75.2585491448
 30
0.0
 10
215.1727385322
 20
75.5224259908
 30
0.0
 10
215.1548716804
 20
75.6553273715
 30
0.0
  0
SPLINE
  5
769
100
AcDbEntity
  8
KONSTRUKTIONSELEMENTE
100
AcDbSpline
 62
7
  6
CONTINUOUS
 70
0
 71
3
 72
22
 73
18
 74
0
 42
0.0000001
 43
0.0000001
 44
0.0000000001
 40
0.0
 40
0.0
 40
0.0
 40
0.0
 40
0.1723917511
 40
0.3493118208
 40
0.5209791301
 40
0.6778539497
 40
0.7478857004
 40
0.8108713577
 40
0.8658099561
 40
0.9118422858
 40
0.9482513681
 40
0.9627168051
 40
0.9746558359
 40
0.9840859539
 40
0.9911297766
 40
0.9961257476
 40
1.0
 40
1.0
 40
1.0
 40
1.0
 10
217.9970665769
 20
51.9837277167
 30
0.0
 10
217.9716289041
 20
52.1778838624
 30
0.0
 10
217.9151316532
 20
52.5706552328
 30
0.0
 10
217.8196839115
 20
53.1546960224
 30
0.0
 10
217.720410472
 20
53.7201928562
 30
0.0
 10
217.6412622097
 20
54.165954005
 30
0.0
 10
217.5870405747
 20
54.4907457182
 30
0.0
 10
217.5544645547
 20
54.7017471859
 30
0.0
 10
217.5296505807
 20
54.8863427811
 30
0.0
 10
217.5134883462
 20
55.0415718781
 30
0.0
 10
217.5071898731
 20
55.1515550325
 30
0.0
 10
217.5078535238
 20
55.2229384059
 30
0.0
 10
217.5106926172
 20
55.263558372
 30
0.0
 10
217.5158347869
 20
55.2955363868
 30
0.0
 10
217.5232765451
 20
55.3187879763
 30
0.0
 10
217.5331796312
 20
55.334596836
 30
0.0
 10
217.5433516159
 20
55.3387826908
 30
0.0
 10
217.5477522791
 20
55.338778253
 30
0.0
  0
SPLINE
  5
76A
100
AcDbEntity
  8
0
100
AcDbSpline
 62
7
  6
CONTINUOUS
 70
0
 71
3
 72
9
 73
5
 74
0
 42
0.0000001
 43
0.0000001
 44
0.0000000001
 40
0.0
 40
0.0
 40
0.0
 40
0.0
 40
0.4967213916
 40
1.0
 40
1.0
 40
1.0
 40
1.0
 10
249.8380391649
 20
107.9545054549
 30
0.0
 10
249.858559453
 20
108.1112861309
 30
0.0
 10
249.9696334639
 20
108.4176206941
 30
0.0
 10
250.1488019461
 20
108.6821163901
 30
0.0
 10
250.2472090235
 20
108.8085353351
 30
0.0
  0
SPLINE
  5
76B
100
AcDbEntity
  8
0
100
AcDbSpline
 62
7
  6
CONTINUOUS
 70
0
 71
3
 72
10
 73
6
 74
0
 42
0.0000001
 43
0.0000001
 44
0.0000000001
 40
0.0
 40
0.0
 40
0.0
 40
0.0
 40
0.2477913828
 40
0.6218774993
 40
1.0
 40
1.0
 40
1.0
 40
1.0
 10
249.8292379732
 20
107.9256732104
 30
0.0
 10
249.829280359
 20
108.0155075581
 30
0.0
 10
249.8613178903
 20
108.2414993598
 30
0.0
 10
250.007940084
 20
108.5775063629
 30
0.0
 10
250.1630038947
 20
108.8029670087
 30
0.0
 10
250.2472090235
 20
108.9111413781
 30
0.0
  0
SPLINE
  5
76C
100
AcDbEntity
  8
BEZUGSACHSEN
100
AcDbSpline
 62
7
  6
CONTINUOUS
 70
0
 71
3
 72
21
 73
17
 74
0
 42
0.0000001
 43
0.0000001
 44
0.0000000001
 40
0.0
 40
0.0
 40
0.0
 40
0.0
 40
0.0606369485
 40
0.1215997354
 40
0.1830867773
 40
0.245292231
 40
0.3082543023
 40
0.3719098109
 40
0.5
 40
0.6280901891
 40
0.6917456977
 40
0.754707769
 40
0.8169132227
 40
0.8784002646
 40
0.9393630515
 40
1.0
 40
1.0
 40
1.0
 40
1.0
 10
229.8319515306
 20
51.9457204523
 30
0.0
 10
229.8319515306
 20
52.1238731103
 30
0.0
 10
229.7942894085
 20
52.4822356196
 30
0.0
 10
229.6275556902
 20
52.9975195413
 30
0.0
 10
229.3568616583
 20
53.4720582399
 30
0.0
 10
228.9933318933
 20
53.887398256
 30
0.0
 10
228.5507373291
 20
54.227808182
 30
0.0
 10
227.8783967807
 20
54.5650080983
 30
0.0
 10
226.9319515306
 20
54.7414784171
 30
0.0
 10
225.9855062805
 20
54.5650080983
 30
0.0
 10
225.3131657321
 20
54.227808182
 30
0.0
 10
224.8705711679
 20
53.887398256
 30
0.0
 10
224.507041403
 20
53.4720582399
 30
0.0
 10
224.236347371
 20
52.9975195413
 30
0.0
 10
224.0696136527
 20
52.4822356196
 30
0.0
 10
224.0319515306
 20
52.1238731103
 30
0.0
 10
224.0319515306
 20
51.9457204523
 30
0.0
  0
SPLINE
  5
76D
100
AcDbEntity
  8
0
100
AcDbSpline
 62
7
  6
CONTINUOUS
 70
0
 71
3
 72
12
 73
8
 74
0
 42
0.0000001
 43
0.0000001
 44
0.0000000001
 40
0.0
 40
0.0
 40
0.0
 40
0.0
 40
0.3644941213
 40
0.6549858736
 40
0.8666476003
 40
0.9424901856
 40
1.0
 40
1.0
 40
1.0
 40
1.0
 10
229.7694517438
 20
51.4054701979
 30
0.0
 10
229.7513430714
 20
51.4733051814
 30
0.0
 10
229.710572699
 20
51.5934735116
 30
0.0
 10
229.6310217061
 20
51.7407772017
 30
0.0
 10
229.5584117743
 20
51.8276158612
 30
0.0
 10
229.5029203296
 20
51.8647922325
 30
0.0
 10
229.4774535383
 20
51.8724268912
 30
0.0
 10
229.4663757447
 20
51.8724263668
 30
0.0
  0
SPLINE
  5
76E
100
AcDbEntity
  8
BEZUGSACHSEN
100
AcDbSpline
 62
7
  6
CONTINUOUS
 70
0
 71
3
 72
15
 73
11
 74
0
 42
0.0000001
 43
0.0000001
 44
0.0000000001
 40
0.0
 40
0.0
 40
0.0
 40
0.0
 40
0.4185822791
 40
0.5892473223
 40
0.7315418883
 40
0.8443134721
 40
0.9265443229
 40
0.9778169596
 40
0.9921100121
 40
1.0
 40
1.0
 40
1.0
 40
1.0
 10
257.1319515306
 20
49.3384122617
 30
0.0
 10
257.1319515306
 20
49.2725775383
 30
0.0
 10
257.129919519
 20
49.1798674236
 30
0.0
 10
257.1222005082
 20
49.0650407292
 30
0.0
 10
257.115512642
 20
48.9984320465
 30
0.0
 10
257.1081092118
 20
48.9458025808
 30
0.0
 10
257.1007662605
 20
48.9079372209
 30
0.0
 10
257.0942184197
 20
48.8852255407
 30
0.0
 10
257.0892294437
 20
48.875092377
 30
0.0
 10
257.0862507148
 20
48.8724399003
 30
0.0
 10
257.0850097998
 20
48.8724321582
 30
0.0
  0
SPLINE
  5
76F
100
AcDbEntity
  8
BEZUGSACHSEN
100
AcDbSpline
 62
7
  6
CONTINUOUS
 70
0
 71
3
 72
21
 73
17
 74
0
 42
0.0000001
 43
0.0000001
 44
0.0000000001
 40
0.0
 40
0.0
 40
0.0
 40
0.0
 40
0.0606369485
 40
0.1215997354
 40
0.1830867773
 40
0.245292231
 40
0.3082543023
 40
0.3719098109
 40
0.5
 40
0.6280901891
 40
0.6917456977
 40
0.754707769
 40
0.8169132227
 40
0.8784002646
 40
0.9393630515
 40
1.0
 40
1.0
 40
1.0
 40
1.0
 10
240.5319515306
 20
51.9457204523
 30
0.0
 10
240.5319515306
 20
52.1238731103
 30
0.0
 10
240.4942894085
 20
52.4822356196
 30
0.0
 10
240.3275556902
 20
52.9975195413
 30
0.0
 10
240.0568616583
 20
53.4720582399
 30
0.0
 10
239.6933318933
 20
53.887398256
 30
0.0
 10
239.2507373291
 20
54.227808182
 30
0.0
 10
238.5783967807
 20
54.5650080983
 30
0.0
 10
237.6319515306
 20
54.7414784171
 30
0.0
 10
236.6855062805
 20
54.5650080983
 30
0.0
 10
236.0131657321
 20
54.227808182
 30
0.0
 10
235.5705711679
 20
53.887398256
 30
0.0
 10
235.207041403
 20
53.4720582399
 30
0.0
 10
234.936347371
 20
52.9975195413
 30
0.0
 10
234.7696136527
 20
52.4822356196
 30
0.0
 10
234.7319515306
 20
52.1238731103
 30
0.0
 10
234.7319515306
 20
51.9457204523
 30
0.0
  0
SPLINE
  5
770
100
AcDbEntity
  8
0
100
AcDbSpline
 62
7
  6
CONTINUOUS
 70
0
 71
3
 72
12
 73
8
 74
0
 42
0.0000001
 43
0.0000001
 44
0.0000000001
 40
0.0
 40
0.0
 40
0.0
 40
0.0
 40
0.3644941213
 40
0.6549858736
 40
0.8666476003
 40
0.9424901856
 40
1.0
 40
1.0
 40
1.0
 40
1.0
 10
240.4694517438
 20
51.4054701979
 30
0.0
 10
240.4513430714
 20
51.4733051814
 30
0.0
 10
240.410572699
 20
51.5934735116
 30
0.0
 10
240.3310217061
 20
51.7407772017
 30
0.0
 10
240.2584117743
 20
51.8276158612
 30
0.0
 10
240.2029203296
 20
51.8647922325
 30
0.0
 10
240.1774535383
 20
51.8724268912
 30
0.0
 10
240.1663757447
 20
51.8724263668
 30
0.0
  0
SPLINE
  5
771
100
AcDbEntity
  8
BEZUGSACHSEN
100
AcDbSpline
 62
7
  6
CONTINUOUS
 70
0
 71
3
 72
21
 73
17
 74
0
 42
0.0000001
 43
0.0000001
 44
0.0000000001
 40
0.0
 40
0.0
 40
0.0
 40
0.0
 40
0.0606369485
 40
0.1215997354
 40
0.1830867773
 40
0.245292231
 40
0.3082543023
 40
0.3719098109
 40
0.5
 40
0.6280901891
 40
0.6917456977
 40
0.754707769
 40
0.8169132227
 40
0.8784002646
 40
0.9393630515
 40
1.0
 40
1.0
 40
1.0
 40
1.0
 10
251.2319515306
 20
51.9457204523
 30
0.0
 10
251.2319515306
 20
52.1238731103
 30
0.0
 10
251.1942894085
 20
52.4822356196
 30
0.0
 10
251.0275556902
 20
52.9975195413
 30
0.0
 10
250.7568616583
 20
53.4720582399
 30
0.0
 10
250.3933318933
 20
53.887398256
 30
0.0
 10
249.9507373291
 20
54.227808182
 30
0.0
 10
249.2783967807
 20
54.5650080983
 30
0.0
 10
248.3319515306
 20
54.7414784171
 30
0.0
 10
247.3855062805
 20
54.5650080983
 30
0.0
 10
246.7131657321
 20
54.227808182
 30
0.0
 10
246.2705711679
 20
53.887398256
 30
0.0
 10
245.907041403
 20
53.4720582399
 30
0.0
 10
245.636347371
 20
52.9975195413
 30
0.0
 10
245.4696136527
 20
52.4822356196
 30
0.0
 10
245.4319515306
 20
52.1238731103
 30
0.0
 10
245.4319515306
 20
51.9457204523
 30
0.0
  0
SPLINE
  5
772
100
AcDbEntity
  8
0
100
AcDbSpline
 62
7
  6
CONTINUOUS
 70
0
 71
3
 72
12
 73
8
 74
0
 42
0.0000001
 43
0.0000001
 44
0.0000000001
 40
0.0
 40
0.0
 40
0.0
 40
0.0
 40
0.3644941213
 40
0.6549858736
 40
0.8666476003
 40
0.9424901856
 40
1.0
 40
1.0
 40
1.0
 40
1.0
 10
251.1694517438
 20
51.4054701979
 30
0.0
 10
251.1513430714
 20
51.4733051814
 30
0.0
 10
251.110572699
 20
51.5934735116
 30
0.0
 10
251.0310217061
 20
51.7407772017
 30
0.0
 10
250.9584117743
 20
51.8276158612
 30
0.0
 10
250.9029203296
 20
51.8647922325
 30
0.0
 10
250.8774535383
 20
51.8724268912
 30
0.0
 10
250.8663757447
 20
51.8724263668
 30
0.0
  0
SPLINE
  5
773
100
AcDbEntity
  8
KONSTRUKTIONSELEMENTE
100
AcDbSpline
 62
7
  6
CONTINUOUS
 70
0
 71
3
 72
22
 73
18
 74
0
 42
0.0000001
 43
0.0000001
 44
0.0000000001
 40
0.0
 40
0.0
 40
0.0
 40
0.0
 40
0.0038742562
 40
0.0088702528
 40
0.0159141079
 40
0.0253442668
 40
0.0372833323
 40
0.0517487933
 40
0.0881579247
 40
0.1341902873
 40
0.1891289026
 40
0.2521145592
 40
0.3221462989
 40
0.4790210712
 40
0.6506883207
 40
0.8276083238
 40
1.0
 40
1.0
 40
1.0
 40
1.0
 10
257.7161510277
 20
55.338778252
 30
0.0
 10
257.720551695
 20
55.3387826276
 30
0.0
 10
257.7307236361
 20
55.3345966104
 30
0.0
 10
257.7406266643
 20
55.3187876598
 30
0.0
 10
257.7480683927
 20
55.295535938
 30
0.0
 10
257.7532104917
 20
55.2635577931
 30
0.0
 10
257.7560495506
 20
55.2229377148
 30
0.0
 10
257.7567131762
 20
55.151554224
 30
0.0
 10
257.7504146268
 20
55.0415709609
 30
0.0
 10
257.7342523614
 20
54.8863417664
 30
0.0
 10
257.7094383477
 20
54.7017461332
 30
0.0
 10
257.6768623215
 20
54.4907446763
 30
0.0
 10
257.6226406803
 20
54.1659530559
 30
0.0
 10
257.5434924503
 20
53.7201920707
 30
0.0
 10
257.4442190553
 20
53.154695471
 30
0.0
 10
257.3487713654
 20
52.5706549476
 30
0.0
 10
257.2922741442
 20
52.1778837641
 30
0.0
 10
257.2668364843
 20
51.9837277167
 30
0.0
  0
SPLINE
  5
774
100
AcDbEntity
  8
RUNDUNGEN
100
AcDbSpline
 62
7
  6
CONTINUOUS
 70
0
 71
3
 72
9
 73
5
 74
0
 42
0.0000001
 43
0.0000001
 44
0.0000000001
 40
0.0
 40
0.0
 40
0.0
 40
0.0
 40
0.5028144071
 40
1.0
 40
1.0
 40
1.0
 40
1.0
 10
253.1319515306
 20
40.6134470052
 30
0.0
 10
253.34520771
 20
40.6134470052
 30
0.0
 10
253.771839389
 20
40.6776819539
 30
0.0
 10
254.1595881245
 20
40.867847588
 30
0.0
 10
254.3319515306
 20
40.9893240535
 30
0.0
  0
SPLINE
  5
775
100
AcDbEntity
  8
RUNDUNGEN
100
AcDbSpline
 62
7
  6
CONTINUOUS
 70
0
 71
3
 72
9
 73
5
 74
0
 42
0.0000001
 43
0.0000001
 44
0.0000000001
 40
0.0
 40
0.0
 40
0.0
 40
0.0
 40
0.4971855929
 40
1.0
 40
1.0
 40
1.0
 40
1.0
 10
220.9319515306
 20
40.9893240535
 30
0.0
 10
221.1043149367
 20
40.867847588
 30
0.0
 10
221.4920636722
 20
40.6776819539
 30
0.0
 10
221.9186953512
 20
40.6134470052
 30
0.0
 10
222.1319515306
 20
40.6134470052
 30
0.0
  0
SPLINE
  5
776
100
AcDbEntity
  8
RUNDUNGEN
100
AcDbSpline
 62
7
  6
CONTINUOUS
 70
0
 71
3
 72
11
 73
7
 74
0
 42
0.0000001
 43
0.0000001
 44
0.0000000001
 40
0.0
 40
0.0
 40
0.0
 40
0.0
 40
0.2545932796
 40
0.5055844752
 40
0.7536193641
 40
1.0
 40
1.0
 40
1.0
 40
1.0
 10
220.9319515306
 20
40.9893240535
 30
0.0
 10
220.5031881067
 20
41.2915034227
 30
0.0
 10
219.7164358248
 20
41.9907007785
 30
0.0
 10
218.81900863
 20
43.275169199
 30
0.0
 10
218.258921719
 20
44.7209461187
 30
0.0
 10
218.1319515306
 20
45.7439756921
 30
0.0
 10
218.1319515306
 20
46.2516027299
 30
0.0
  0
SPLINE
  5
777
100
AcDbEntity
  8
RUNDUNGEN
100
AcDbSpline
 62
7
  6
CONTINUOUS
 70
0
 71
3
 72
11
 73
7
 74
0
 42
0.0000001
 43
0.0000001
 44
0.0000000001
 40
0.0
 40
0.0
 40
0.0
 40
0.0
 40
0.2463806359
 40
0.4944155248
 40
0.7454067204
 40
1.0
 40
1.0
 40
1.0
 40
1.0
 10
257.1319515306
 20
46.2516027299
 30
0.0
 10
257.1319515306
 20
45.7439756921
 30
0.0
 10
257.0049813422
 20
44.7209461187
 30
0.0
 10
256.4448944313
 20
43.275169199
 30
0.0
 10
255.5474672364
 20
41.9907007785
 30
0.0
 10
254.7607149546
 20
41.2915034227
 30
0.0
 10
254.3319515306
 20
40.9893240535
 30
0.0
  0
SPLINE
  5
778
100
AcDbEntity
  8
0
100
AcDbSpline
 62
7
  6
CONTINUOUS
 70
0
 71
3
 72
8
 73
4
 74
0
 42
0.0000001
 43
0.0000001
 44
0.0000000001
 40
0.0
 40
0.0
 40
0.0
 40
0.0
 40
1.0
 40
1.0
 40
1.0
 40
1.0
 10
230.0643455619
 20
113.3613588439
 30
0.0
 10
230.0695812086
 20
113.3075552142
 30
0.0
 10
230.072907247
 20
113.2534681581
 30
0.0
 10
230.0728826771
 20
113.1994103931
 30
0.0
  0
SPLINE
  5
779
100
AcDbEntity
  8
0
100
AcDbSpline
 62
7
  6
CONTINUOUS
 70
0
 71
3
 72
9
 73
5
 74
0
 42
0.0000001
 43
0.0000001
 44
0.0000000001
 40
0.0
 40
0.0
 40
0.0
 40
0.0
 40
0.5459255299
 40
1.0
 40
1.0
 40
1.0
 40
1.0
 10
253.1325796498
 20
107.8526104436
 30
0.0
 10
253.2114764298
 20
107.9970851255
 30
0.0
 10
253.3365870778
 20
108.2736368942
 30
0.0
 10
253.3913233413
 20
108.5753095643
 30
0.0
 10
253.39132274
 20
108.7122271964
 30
0.0
  0
SPLINE
  5
77A
100
AcDbEntity
  8
0
100
AcDbSpline
 62
7
  6
CONTINUOUS
 70
0
 71
3
 72
11
 73
7
 74
0
 42
0.0000001
 43
0.0000001
 44
0.0000000001
 40
0.0
 40
0.0
 40
0.0
 40
0.0
 40
0.2548202072
 40
0.5065000955
 40
0.7543278019
 40
1.0
 40
1.0
 40
1.0
 40
1.0
 10
252.093334412
 20
109.4739292034
 30
0.0
 10
252.1507652195
 20
109.4344534228
 30
0.0
 10
252.2597385928
 20
109.3477749376
 30
0.0
 10
252.3936312305
 20
109.1883504131
 30
0.0
 10
252.4800042222
 20
109.0006522745
 30
0.0
 10
252.4980786057
 20
108.8647038977
 30
0.0
 10
252.4980441721
 20
108.7975161909
 30
0.0
  0
SPLINE
  5
77B
100
AcDbEntity
  8
0
100
AcDbSpline
 62
7
  6
CONTINUOUS
 70
0
 71
3
 72
11
 73
7
 74
0
 42
0.0000001
 43
0.0000001
 44
0.0000000001
 40
0.0
 40
0.0
 40
0.0
 40
0.0
 40
0.250841176
 40
0.5021762723
 40
0.7522962219
 40
1.0
 40
1.0
 40
1.0
 40
1.0
 10
251.1663536888
 20
109.6202638542
 30
0.0
 10
251.2438719976
 20
109.6447406441
 30
0.0
 10
251.4046090583
 20
109.6787002421
 30
0.0
 10
251.6508825078
 20
109.6698660532
 30
0.0
 10
251.885794562
 20
109.5996056416
 30
0.0
 10
252.0271809415
 20
109.5194006152
 30
0.0
 10
252.093334412
 20
109.4739292034
 30
0.0
  0
SPLINE
  5
77C
100
AcDbEntity
  8
0
100
AcDbSpline
 62
7
  6
CONTINUOUS
 70
0
 71
3
 72
10
 73
6
 74
0
 42
0.0000001
 43
0.0000001
 44
0.0000000001
 40
0.0
 40
0.0
 40
0.0
 40
0.0
 40
0.4953267798
 40
0.7464145865
 40
1.0
 40
1.0
 40
1.0
 40
1.0
 10
250.2472090235
 20
108.9111413781
 30
0.0
 10
250.3665349409
 20
109.0644337733
 30
0.0
 10
250.5670371907
 20
109.2823731357
 30
0.0
 10
250.8892348701
 20
109.5086191245
 30
0.0
 10
251.0715161796
 20
109.5903184411
 30
0.0
 10
251.1663536888
 20
109.6202638542
 30
0.0
  0
SPLINE
  5
77D
100
AcDbEntity
  8
0
100
AcDbSpline
 62
7
  6
CONTINUOUS
 70
0
 71
3
 72
10
 73
6
 74
0
 42
0.0000001
 43
0.0000001
 44
0.0000000001
 40
0.0
 40
0.0
 40
0.0
 40
0.0
 40
0.242850261
 40
0.48600381
 40
1.0
 40
1.0
 40
1.0
 40
1.0
 10
251.0504449226
 20
106.1902702337
 30
0.0
 10
251.1606571847
 20
106.2005039512
 30
0.0
 10
251.3800329198
 20
106.2398811885
 30
0.0
 10
251.8094144251
 20
106.3982392626
 30
0.0
 10
252.0974353778
 20
106.6012622733
 30
0.0
 10
252.2702602304
 20
106.7594194559
 30
0.0
  0
SPLINE
  5
77E
100
AcDbEntity
  8
0
100
AcDbSpline
 62
7
  6
CONTINUOUS
 70
0
 71
3
 72
11
 73
7
 74
0
 42
0.0000001
 43
0.0000001
 44
0.0000000001
 40
0.0
 40
0.0
 40
0.0
 40
0.0
 40
0.2638552352
 40
0.5133724142
 40
0.7560366091
 40
1.0
 40
1.0
 40
1.0
 40
1.0
 10
249.7645949436
 20
106.5503845691
 30
0.0
 10
249.8633221437
 20
106.4825231988
 30
0.0
 10
250.0650753748
 20
106.3636234166
 30
0.0
 10
250.3872481021
 20
106.2402161782
 30
0.0
 10
250.7177442658
 20
106.1790034843
 30
0.0
 10
250.9401502952
 20
106.1800288682
 30
0.0
 10
251.0504449226
 20
106.1902702337
 30
0.0
  0
SPLINE
  5
77F
100
AcDbEntity
  8
0
100
AcDbSpline
 62
7
  6
CONTINUOUS
 70
0
 71
3
 72
11
 73
7
 74
0
 42
0.0000001
 43
0.0000001
 44
0.0000000001
 40
0.0
 40
0.0
 40
0.0
 40
0.0
 40
0.2414561446
 40
0.4800054648
 40
0.7289380906
 40
1.0
 40
1.0
 40
1.0
 40
1.0
 10
248.9503029839
 20
107.8348012203
 30
0.0
 10
248.9623036414
 20
107.7089526549
 30
0.0
 10
249.0138064833
 20
107.4601814439
 30
0.0
 10
249.181175379
 20
107.1131073618
 30
0.0
 10
249.4346481871
 20
106.8032044611
 30
0.0
 10
249.6476392632
 20
106.6307755125
 30
0.0
 10
249.7645949436
 20
106.5503845691
 30
0.0
  0
SPLINE
  5
780
100
AcDbEntity
  8
0
100
AcDbSpline
 62
7
  6
CONTINUOUS
 70
0
 71
3
 72
9
 73
5
 74
0
 42
0.0000001
 43
0.0000001
 44
0.0000000001
 40
0.0
 40
0.0
 40
0.0
 40
0.0
 40
0.5459252836
 40
1.0
 40
1.0
 40
1.0
 40
1.0
 10
253.1325796498
 20
107.7500044006
 30
0.0
 10
253.2114759749
 20
107.8944782495
 30
0.0
 10
253.3365860457
 20
108.1710284776
 30
0.0
 10
253.3913227562
 20
108.4726993146
 30
0.0
 10
253.39132274
 20
108.6096162932
 30
0.0
  0
SPLINE
  5
781
100
AcDbEntity
  8
0
100
AcDbSpline
 62
7
  6
CONTINUOUS
 70
0
 71
3
 72
11
 73
7
 74
0
 42
0.0000001
 43
0.0000001
 44
0.0000000001
 40
0.0
 40
0.0
 40
0.0
 40
0.0
 40
0.2414561446
 40
0.4800054648
 40
0.7289380906
 40
1.0
 40
1.0
 40
1.0
 40
1.0
 10
248.9503029839
 20
107.7321951773
 30
0.0
 10
248.9623036414
 20
107.6063466119
 30
0.0
 10
249.0138064833
 20
107.3575754009
 30
0.0
 10
249.181175379
 20
107.0105013188
 30
0.0
 10
249.4346481871
 20
106.7005984181
 30
0.0
 10
249.6476392632
 20
106.5281694695
 30
0.0
 10
249.7645949436
 20
106.4477785261
 30
0.0
  0
SPLINE
  5
782
100
AcDbEntity
  8
0
100
AcDbSpline
 62
7
  6
CONTINUOUS
 70
0
 71
3
 72
11
 73
7
 74
0
 42
0.0000001
 43
0.0000001
 44
0.0000000001
 40
0.0
 40
0.0
 40
0.0
 40
0.0
 40
0.2638552352
 40
0.5133724142
 40
0.7560366091
 40
1.0
 40
1.0
 40
1.0
 40
1.0
 10
249.7645949436
 20
106.4477785261
 30
0.0
 10
249.8633221437
 20
106.3799171558
 30
0.0
 10
250.0650753748
 20
106.2610173736
 30
0.0
 10
250.3872481021
 20
106.1376101352
 30
0.0
 10
250.7177442658
 20
106.0763974413
 30
0.0
 10
250.9401502952
 20
106.0774228252
 30
0.0
 10
251.0504449226
 20
106.0876641907
 30
0.0
  0
SPLINE
  5
783
100
AcDbEntity
  8
0
100
AcDbSpline
 62
7
  6
CONTINUOUS
 70
0
 71
3
 72
10
 73
6
 74
0
 42
0.0000001
 43
0.0000001
 44
0.0000000001
 40
0.0
 40
0.0
 40
0.0
 40
0.0
 40
0.242850261
 40
0.48600381
 40
1.0
 40
1.0
 40
1.0
 40
1.0
 10
251.0504449226
 20
106.0876641907
 30
0.0
 10
251.1606571847
 20
106.0978979082
 30
0.0
 10
251.3800329198
 20
106.1372751455
 30
0.0
 10
251.8094144251
 20
106.2956332196
 30
0.0
 10
252.0974353778
 20
106.4986562303
 30
0.0
 10
252.2702602304
 20
106.6568134129
 30
0.0
  0
SPLINE
  5
784
100
AcDbEntity
  8
BEZUGSACHSEN
100
AcDbSpline
 62
7
  6
CONTINUOUS
 70
0
 71
3
 72
15
 73
11
 74
0
 42
0.0000001
 43
0.0000001
 44
0.0000000001
 40
0.0
 40
0.0
 40
0.0
 40
0.0
 40
0.0078902032
 40
0.0221836565
 40
0.0734572907
 40
0.1556889462
 40
0.2684611846
 40
0.4107558039
 40
0.5814197265
 40
1.0
 40
1.0
 40
1.0
 40
1.0
 10
218.1788929987
 20
48.8724322123
 30
0.0
 10
218.1776520511
 20
48.8724400566
 30
0.0
 10
218.1746734046
 20
48.8750927045
 30
0.0
 10
218.1696843994
 20
48.8852261325
 30
0.0
 10
218.1631365885
 20
48.9079381606
 30
0.0
 10
218.155793624
 20
48.9458038938
 30
0.0
 10
218.1483902863
 20
48.9984335821
 30
0.0
 10
218.1417024557
 20
49.0650421659
 30
0.0
 10
218.1339834127
 20
49.1798683121
 30
0.0
 10
218.1319515306
 20
49.2725778892
 30
0.0
 10
218.1319515306
 20
49.3384122617
 30
0.0
  0
SPLINE
  5
785
100
AcDbEntity
  8
0
100
AcDbSpline
 62
7
  6
CONTINUOUS
 70
0
 71
3
 72
10
 73
6
 74
0
 42
0.0000001
 43
0.0000001
 44
0.0000000001
 40
0.0
 40
0.0
 40
0.0
 40
0.0
 40
0.4951900131
 40
0.7463425879
 40
1.0
 40
1.0
 40
1.0
 40
1.0
 10
250.2472090235
 20
108.8085353351
 30
0.0
 10
250.3665021833
 20
108.9617856482
 30
0.0
 10
250.5669107169
 20
109.1797918763
 30
0.0
 10
250.8891948836
 20
109.4059100598
 30
0.0
 10
251.071489102
 20
109.4877038482
 30
0.0
 10
251.1663536888
 20
109.5176578112
 30
0.0
  0
SPLINE
  5
786
100
AcDbEntity
  8
0
100
AcDbSpline
 62
7
  6
CONTINUOUS
 70
0
 71
3
 72
11
 73
7
 74
0
 42
0.0000001
 43
0.0000001
 44
0.0000000001
 40
0.0
 40
0.0
 40
0.0
 40
0.0
 40
0.2508941806
 40
0.5022590189
 40
0.7523801177
 40
1.0
 40
1.0
 40
1.0
 40
1.0
 10
251.1663536888
 20
109.5176578112
 30
0.0
 10
251.2438882217
 20
109.5421397239
 30
0.0
 10
251.4046575996
 20
109.5760857708
 30
0.0
 10
251.6509520658
 20
109.567230711
 30
0.0
 10
251.8858585979
 20
109.4970037242
 30
0.0
 10
252.0272034804
 20
109.4167790798
 30
0.0
 10
252.093334412
 20
109.3713231604
 30
0.0
  0
SPLINE
  5
787
100
AcDbEntity
  8
0
100
AcDbSpline
 62
7
  6
CONTINUOUS
 70
0
 71
3
 72
11
 73
7
 74
0
 42
0.0000001
 43
0.0000001
 44
0.0000000001
 40
0.0
 40
0.0
 40
0.0
 40
0.0
 40
0.2543241224
 40
0.5060303002
 40
0.7541634791
 40
1.0
 40
1.0
 40
1.0
 40
1.0
 10
252.093334412
 20
109.3713231604
 30
0.0
 10
252.1462053029
 20
109.3349816953
 30
0.0
 10
252.247007116
 20
109.2557469267
 30
0.0
 10
252.3738927996
 20
109.112185505
 30
0.0
 10
252.4632706387
 20
108.9443140942
 30
0.0
 10
252.4900593929
 20
108.8207810504
 30
0.0
 10
252.4953769486
 20
108.7589942316
 30
0.0
  0
SPLINE
  5
788
100
AcDbEntity
  8
0
100
AcDbSpline
 62
7
  6
CONTINUOUS
 70
0
 71
3
 72
12
 73
8
 74
0
 42
0.0000001
 43
0.0000001
 44
0.0000000001
 40
0.0
 40
0.0
 40
0.0
 40
0.0
 40
0.0575662754
 40
0.133438585
 40
0.3451674946
 40
0.6356563581
 40
1.0
 40
1.0
 40
1.0
 40
1.0
 10
245.7975591372
 20
51.8724364188
 30
0.0
 10
245.786454297
 20
51.8724299738
 30
0.0
 10
245.7609373489
 20
51.8647715048
 30
0.0
 10
245.7053513191
 20
51.827505516
 30
0.0
 10
245.6326745084
 20
51.7404805908
 30
0.0
 10
245.5530971073
 20
51.5929351563
 30
0.0
 10
245.5123332284
 20
51.4725995351
 30
0.0
 10
245.4942490919
 20
51.4046820746
 30
0.0
  0
SPLINE
  5
789
100
AcDbEntity
  8
0
100
AcDbSpline
 62
7
  6
CONTINUOUS
 70
0
 71
3
 72
17
 73
13
 74
0
 42
0.0000001
 43
0.0000001
 44
0.0000000001
 40
0.0
 40
0.0
 40
0.0
 40
0.0
 40
0.1233455711
 40
0.2491640681
 40
0.3768039243
 40
0.4410696871
 40
0.5052307781
 40
0.6321113883
 40
0.756730136
 40
0.8183074814
 40
0.879326076
 40
1.0
 40
1.0
 40
1.0
 40
1.0
 10
215.3762017914
 20
84.6094553429
 30
0.0
 10
215.4568435843
 20
84.469495458
 30
0.0
 10
215.670406196
 20
84.2132169858
 30
0.0
 10
216.0985738141
 20
83.9522472804
 30
0.0
 10
216.5106824843
 20
83.8546805803
 30
0.0
 10
216.8471692481
 20
83.8545919852
 30
0.0
 10
217.1786920979
 20
83.9061308469
 30
0.0
 10
217.5682985261
 20
84.0648397565
 30
0.0
 10
217.8854140767
 20
84.3370292512
 30
0.0
 10
218.0716182294
 20
84.6036359151
 30
0.0
 10
218.2078315981
 20
84.892872567
 30
0.0
 10
218.2512187955
 20
85.1333092067
 30
0.0
 10
218.2515751379
 20
85.2913398684
 30
0.0
  0
SPLINE
  5
78A
100
AcDbEntity
  8
0
100
AcDbSpline
 62
7
  6
CONTINUOUS
 70
0
 71
3
 72
17
 73
13
 74
0
 42
0.0000001
 43
0.0000001
 44
0.0000000001
 40
0.0
 40
0.0
 40
0.0
 40
0.0
 40
0.1233524784
 40
0.2491706283
 40
0.3768140839
 40
0.4410788536
 40
0.5052449171
 40
0.6321285623
 40
0.7567463946
 40
0.8183285229
 40
0.879351883
 40
1.0
 40
1.0
 40
1.0
 40
1.0
 10
215.3762017914
 20
84.5068492999
 30
0.0
 10
215.4568630175
 20
84.3668556873
 30
0.0
 10
215.6704826384
 20
84.1105268961
 30
0.0
 10
216.0987818074
 20
83.8495621426
 30
0.0
 10
216.510984763
 20
83.7520442046
 30
0.0
 10
216.847543742
 20
83.752001977
 30
0.0
 10
217.1791287394
 20
83.8036264906
 30
0.0
 10
217.5687572732
 20
83.9624901833
 30
0.0
 10
217.885902792
 20
84.2348099185
 30
0.0
 10
218.0719224322
 20
84.501633777
 30
0.0
 10
218.2080576881
 20
84.7909398061
 30
0.0
 10
218.2513507921
 20
85.0314246374
 30
0.0
 10
218.2515987284
 20
85.1894509352
 30
0.0
  0
SPLINE
  5
78B
100
AcDbEntity
  8
0
100
AcDbSpline
 62
7
  6
CONTINUOUS
 70
0
 71
3
 72
12
 73
8
 74
0
 42
0.0000001
 43
0.0000001
 44
0.0000000001
 40
0.0
 40
0.0
 40
0.0
 40
0.0
 40
0.0575662754
 40
0.133438585
 40
0.3451674946
 40
0.6356563581
 40
1.0
 40
1.0
 40
1.0
 40
1.0
 10
235.0975591372
 20
51.8724364188
 30
0.0
 10
235.086454297
 20
51.8724299738
 30
0.0
 10
235.0609373489
 20
51.8647715048
 30
0.0
 10
235.0053513191
 20
51.827505516
 30
0.0
 10
234.9326745084
 20
51.7404805908
 30
0.0
 10
234.8530971073
 20
51.5929351563
 30
0.0
 10
234.8123332284
 20
51.4725995351
 30
0.0
 10
234.7942490919
 20
51.4046820746
 30
0.0
  0
SPLINE
  5
78C
100
AcDbEntity
  8
0
100
AcDbSpline
 62
7
  6
CONTINUOUS
 70
0
 71
3
 72
12
 73
8
 74
0
 42
0.0000001
 43
0.0000001
 44
0.0000000001
 40
0.0
 40
0.0
 40
0.0
 40
0.0
 40
0.0575662754
 40
0.133438585
 40
0.3451674946
 40
0.6356563581
 40
1.0
 40
1.0
 40
1.0
 40
1.0
 10
224.3975591372
 20
51.8724364188
 30
0.0
 10
224.386454297
 20
51.8724299738
 30
0.0
 10
224.3609373489
 20
51.8647715048
 30
0.0
 10
224.3053513191
 20
51.827505516
 30
0.0
 10
224.2326745084
 20
51.7404805908
 30
0.0
 10
224.1530971073
 20
51.5929351563
 30
0.0
 10
224.1123332284
 20
51.4725995351
 30
0.0
 10
224.0942490919
 20
51.4046820746
 30
0.0
  0
SPLINE
  5
78D
100
AcDbEntity
  8
0
100
AcDbSpline
 62
7
  6
CONTINUOUS
 70
0
 71
3
 72
11
 73
7
 74
0
 42
0.0000001
 43
0.0000001
 44
0.0000000001
 40
0.0
 40
0.0
 40
0.0
 40
0.0
 40
0.2433438754
 40
0.4904197218
 40
0.74295791
 40
1.0
 40
1.0
 40
1.0
 40
1.0
 10
214.6509965417
 20
80.7407196286
 30
0.0
 10
214.6510316335
 20
80.8591004119
 30
0.0
 10
214.6982677409
 20
81.1000601416
 30
0.0
 10
214.8992567725
 20
81.4101846085
 30
0.0
 10
215.2018803569
 20
81.632740895
 30
0.0
 10
215.4452128269
 20
81.7042680633
 30
0.0
 10
215.5693855828
 20
81.7190087086
 30
0.0
  0
SPLINE
  5
78E
100
AcDbEntity
  8
0
100
AcDbSpline
 62
7
  6
CONTINUOUS
 70
0
 71
3
 72
11
 73
7
 74
0
 42
0.0000001
 43
0.0000001
 44
0.0000000001
 40
0.0
 40
0.0
 40
0.0
 40
0.0
 40
0.2561346163
 40
0.5086437898
 40
0.7563781614
 40
1.0
 40
1.0
 40
1.0
 40
1.0
 10
215.5693855828
 20
81.6164026656
 30
0.0
 10
215.4611411551
 20
81.6035528846
 30
0.0
 10
215.2485645518
 20
81.5459698114
 30
0.0
 10
214.9727278621
 20
81.3707259601
 30
0.0
 10
214.7669610812
 20
81.123345039
 30
0.0
 10
214.6902083536
 20
80.9239978018
 30
0.0
 10
214.6695838648
 20
80.8223905391
 30
0.0
  0
SPLINE
  5
78F
100
AcDbEntity
  8
0
100
AcDbSpline
 62
7
  6
CONTINUOUS
 70
0
 71
3
 72
13
 73
9
 74
0
 42
0.0000001
 43
0.0000001
 44
0.0000000001
 40
0.0
 40
0.0
 40
0.0
 40
0.0
 40
0.2564553931
 40
0.5083915704
 40
0.6328121639
 40
0.7559341729
 40
0.8781724913
 40
1.0
 40
1.0
 40
1.0
 40
1.0
 10
217.8438446714
 20
73.9476123469
 30
0.0
 10
218.0718572354
 20
73.9746798973
 30
0.0
 10
218.5185238061
 20
74.105650139
 30
0.0
 10
218.9849924264
 20
74.4489578266
 30
0.0
 10
219.2620512112
 20
74.8027945883
 30
0.0
 10
219.415590009
 20
75.0983901979
 30
0.0
 10
219.5101806945
 20
75.4152316742
 30
0.0
 10
219.5315834364
 20
75.6342980609
 30
0.0
 10
219.5318469217
 20
75.7433742033
 30
0.0
  0
SPLINE
  5
790
100
AcDbEntity
  8
0
100
AcDbSpline
 62
7
  6
CONTINUOUS
 70
0
 71
3
 72
11
 73
7
 74
0
 42
0.0000001
 43
0.0000001
 44
0.0000000001
 40
0.0
 40
0.0
 40
0.0
 40
0.0
 40
0.2425753126
 40
0.4902593697
 40
0.7436273343
 40
1.0
 40
1.0
 40
1.0
 40
1.0
 10
214.3081307222
 20
75.3559062211
 30
0.0
 10
214.3397702217
 20
75.1205579232
 30
0.0
 10
214.5068014963
 20
74.6532868206
 30
0.0
 10
215.0167994853
 20
74.1081608578
 30
0.0
 10
215.704247879
 20
73.7875024826
 30
0.0
 10
216.2155828962
 20
73.7543201138
 30
0.0
 10
216.4648052366
 20
73.7839054934
 30
0.0
  0
SPLINE
  5
791
100
AcDbEntity
  8
0
100
AcDbSpline
 62
7
  6
CONTINUOUS
 70
0
 71
3
 72
13
 73
9
 74
0
 42
0.0000001
 43
0.0000001
 44
0.0000000001
 40
0.0
 40
0.0
 40
0.0
 40
0.0
 40
0.1212164187
 40
0.2431222881
 40
0.3662780417
 40
0.4910152709
 40
0.7437381073
 40
1.0
 40
1.0
 40
1.0
 40
1.0
 10
213.6009871624
 20
80.7404914608
 30
0.0
 10
213.6009722468
 20
80.6011449737
 30
0.0
 10
213.6327308132
 20
80.320637958
 30
0.0
 10
213.7734576119
 20
79.9202598521
 30
0.0
 10
214.0007413844
 20
79.5568552496
 30
0.0
 10
214.4057275249
 20
79.1425999648
 30
0.0
 10
215.0704426915
 20
78.7949326958
 30
0.0
 10
215.6716488934
 20
78.7475904649
 30
0.0
 10
215.9641852686
 20
78.7823176876
 30
0.0
  0
SPLINE
  5
792
100
AcDbEntity
  8
0
100
AcDbSpline
 62
7
  6
CONTINUOUS
 70
0
 71
3
 72
13
 73
9
 74
0
 42
0.0000001
 43
0.0000001
 44
0.0000000001
 40
0.0
 40
0.0
 40
0.0
 40
0.0
 40
0.1211117493
 40
0.243245585
 40
0.3666232339
 40
0.4915316432
 40
0.7442811186
 40
1.0
 40
1.0
 40
1.0
 40
1.0
 10
214.3081307222
 20
75.2533001781
 30
0.0
 10
214.3239672225
 20
75.1355014316
 30
0.0
 10
214.3808227315
 20
74.9015569719
 30
0.0
 10
214.5366040496
 20
74.5745819936
 30
0.0
 10
214.7574488703
 20
74.282640182
 30
0.0
 10
215.1271570957
 20
73.9543161979
 30
0.0
 10
215.7045476933
 20
73.6846967448
 30
0.0
 10
216.2155937952
 20
73.6517153647
 30
0.0
 10
216.4648052366
 20
73.6812994504
 30
0.0
  0
SPLINE
  5
793
100
AcDbEntity
  8
0
100
AcDbSpline
 62
7
  6
CONTINUOUS
 70
0
 71
3
 72
12
 73
8
 74
0
 42
0.0000001
 43
0.0000001
 44
0.0000000001
 40
0.0
 40
0.0
 40
0.0
 40
0.0
 40
0.2567437336
 40
0.5089698716
 40
0.7557454141
 40
0.8780780751
 40
1.0
 40
1.0
 40
1.0
 40
1.0
 10
217.8438446714
 20
73.8450063039
 30
0.0
 10
218.0719986344
 20
73.8720906399
 30
0.0
 10
218.5190870837
 20
74.00364139
 30
0.0
 10
219.0751331886
 20
74.4117431684
 30
0.0
 10
219.3846777667
 20
74.8906698036
 30
0.0
 10
219.5103873659
 20
75.3139804931
 30
0.0
 10
219.5317586666
 20
75.5331668154
 30
0.0
 10
219.5318974398
 20
75.6422727455
 30
0.0
  0
SPLINE
  5
794
100
AcDbEntity
  8
0
100
AcDbSpline
 62
7
  6
CONTINUOUS
 70
0
 71
3
 72
13
 73
9
 74
0
 42
0.0000001
 43
0.0000001
 44
0.0000000001
 40
0.0
 40
0.0
 40
0.0
 40
0.0
 40
0.1212133443
 40
0.2431202098
 40
0.3662804429
 40
0.4910168198
 40
0.7437472948
 40
1.0
 40
1.0
 40
1.0
 40
1.0
 10
213.6010112901
 20
80.6374463362
 30
0.0
 10
213.6010136178
 20
80.4981206919
 30
0.0
 10
213.6328406608
 20
80.2176607142
 30
0.0
 10
213.77356277
 20
79.817335979
 30
0.0
 10
214.0009024755
 20
79.4540159404
 30
0.0
 10
214.4059310826
 20
79.0398927397
 30
0.0
 10
215.0705645938
 20
78.6922982185
 30
0.0
 10
215.6716957193
 20
78.6449899807
 30
0.0
 10
215.9641852686
 20
78.6797116446
 30
0.0
  0
ENDSEC
  0
SECTION
  2
OBJECTS
  0
DICTIONARY
  5
C
100
AcDbDictionary
280
0
281
1
  3
ACAD_GROUP
350
D
  3
ACAD_MLINESTYLE
350
17
  3
ACAD_LAYOUT
350
1A
  3
ACAD_PLOTSETTINGS
350
19
  3
ACAD_PLOTSTYLENAME
350
E
  0
DICTIONARY
  5
D
102
{ACAD_REACTORS
330
C
102
}
100
AcDbDictionary
280
0
281
1
  0
ACDBDICTIONARYWDFLT
  5
E
102
{ACAD_REACTORS
330
C
102
}
100
AcDbDictionary
281
1
  3
Normal
350
F
100
AcDbDictionaryWithDefault
340
F
  0
DICTIONARY
  5
17
102
{ACAD_REACTORS
330
C
102
}
100
AcDbDictionary
280
0
281
1
  3
Standard
350
18
  0
DICTIONARY
  5
19
102
{ACAD_REACTORS
330
C
102
}
100
AcDbDictionary
281
1
  0
DICTIONARY
  5
1A
102
{ACAD_REACTORS
330
C
102
}
100
AcDbDictionary
281
1
  3
Model
350
795
  3
Layout1
350
796
  0
ACDBPLACEHOLDER
  5
F
102
{ACAD_REACTORS
330
E
102
}
  0
MLINESTYLE
  5
18
102
{ACAD_REACTORS
330
17
102
}
100
AcDbMlineStyle
  2
STANDARD
 70
0
  3

 62
256
 51
90.0
 52
90.0
 71
2
 49
0.5
 62
256
  6
BYLAYER
 49
-0.5
 62
256
  6
BYLAYER
  0
LAYOUT
  5
795
102
{ACAD_REACTORS
330
1A
102
}
100
AcDbPlotSettings
  1

  2
none_device
  4
ISO_A4_(297.00_x_210.00_MM)
  6

 40
0.0
 41
0.0
 42
0.0
 43
0.0
 44
297.0
 45
210.0
 46
0.0
 47
0.0
 48
0.0
 49
0.0
140
0.0
141
0.0
142
1.0
143
1.0
 70
1024
 72
1
 73
0
 74
0
  7

 75
0
147
1.0
148
0.0
149
0.0
100
AcDbLayout
  1
Model
 70
0
 71
0
 10
0.0
 20
0.0
 11
297.0
 21
210.0
 12
0.0
 22
0.0
 32
0.0
 14
0.0
 24
0.0
 34
0.0
 15
0.0
 25
0.0
 35
0.0
146
0.0
 13
0.0
 23
0.0
 33
0.0
 16
1.0
 26
0.0
 36
0.0
 17
0.0
 27
1.0
 37
0.0
 76
0
330
20B
345
0
346
0
  0
LAYOUT
  5
796
102
{ACAD_REACTORS
330
1A
102
}
100
AcDbPlotSettings
  1

  2
none_device
  4
ISO_A4_(297.00_x_210.00_MM)
  6

 40
0.0
 41
0.0
 42
0.0
 43
0.0
 44
297.0
 45
210.0
 46
0.0
 47
0.0
 48
0.0
 49
0.0
140
0.0
141
0.0
142
1.0
143
1.0
 70
0
 72
1
 73
0
 74
0
  7

 75
0
147
1.0
148
0.0
149
0.0
100
AcDbLayout
  1
Layout1
 70
0
 71
1
 10
0.0
 20
0.0
 11
297.0
 21
210.0
 12
0.0
 22
0.0
 32
0.0
 14
0.0
 24
0.0
 34
0.0
 15
0.0
 25
0.0
 35
0.0
146
0.0
 13
0.0
 23
0.0
 33
0.0
 16
1.0
 26
0.0
 36
0.0
 17
0.0
 27
1.0
 37
0.0
 76
0
330
20C
345
0
346
0
  0
ENDSEC
  0
EOF
