999
DXF file: IAK-1-4_7905031_M34920-P-11.dxf
999
Pro/ENGINEER 2011490 by Parametric Technology Corporation
  0
SECTION
  2
HEADER
  9
$ACADVER
  1
AC1015
  9
$DWGCODEPAGE
  3
ANSI_1252
  9
$EXTMAX
 10
297.0
 20
210.0
 30
0.0
  9
$EXTMIN
 10
0.0
 20
0.0
 30
0.0
  9
$LIMMIN
 10
0.0
 20
0.0
  9
$LIMMAX
 10
297.0
 20
210.0
  9
$VIEWCTR
 10
148.5
 20
105.0
  9
$VIEWSIZE
 40
210.0
  9
$CLAYER
  8
0
  9
$LTSCALE
 40
16.335
  9
$CELTYPE
  6
BYLAYER
  9
$DIMSCALE
 40
1.0
  9
$DIMASZ
 40
3.5
  9
$DIMEXO
 40
1.85625
  9
$DIMDLI
 40
11.286
  9
$DIMEXE
 40
5.346
  9
$DIMCEN
 40
2.673
  9
$DIMLFAC
 40
1.0
  9
$DIMBLK
  1
_FILLED
  9
$DIMTXT
 40
3.5
  9
$DIMTOL
 70
1
  9
$DIMLIM
 70
0
  9
$DIMTFAC
 40
1.0
  9
$DIMTP
 40
0.005
  9
$DIMTM
 40
0.005
  9
$PDMODE
 70
3
  9
$PDSIZE
 40
0.3125
  9
$HANDSEED
  5
690
  9
$TILEMODE
 70
1
  9
$MEASUREMENT
 70
1
  9
$INSUNITS
 70
4
  0
ENDSEC
  0
SECTION
  2
CLASSES
  0
CLASS
  1
ACDBDICTIONARYWDFLT
  2
AcDbDictionaryWithDefault
  3
AutoCAD 2000
 90
0
280
0
281
0
  0
CLASS
  1
ACDBPLACEHOLDER
  2
AcDbPlaceHolder
  3
AutoCAD 2000
 90
0
280
0
281
0
  0
CLASS
  1
LAYOUT
  2
AcDbLayout
  3
AutoCAD 2000
 90
0
280
0
281
0
  0
ENDSEC
  0
SECTION
  2
TABLES
  0
TABLE
  2
VPORT
  5
8
100
AcDbSymbolTable
 70
2
  0
VPORT
  5
1F4
100
AcDbSymbolTableRecord
100
AcDbViewportTableRecord
  2
*ACTIVE
 70
0
 10
0.0
 20
0.0
 11
1.0
 21
1.0
 12
148.5
 22
105.0
 13
0.0
 23
0.0
 14
1.0
 24
1.0
 15
0.0
 25
0.0
 16
0.0
 26
0.0
 36
1.0
 17
0.0
 27
0.0
 37
0.0
 40
210.0
 41
1.4142857143
 42
50.0
 43
0.0
 44
0.0
 50
0.0
 51
0.0
 71
0
 72
100
 73
1
 74
1
 75
0
 76
0
 77
0
 78
0
  0
ENDTAB
  0
TABLE
  2
LTYPE
  5
5
100
AcDbSymbolTable
 70
6
  0
LTYPE
  5
14
100
AcDbSymbolTableRecord
100
AcDbLinetypeTableRecord
  2
BYBLOCK
 70
0
  3

 72
65
 73
0
 40
0.0
  0
LTYPE
  5
15
100
AcDbSymbolTableRecord
100
AcDbLinetypeTableRecord
  2
BYLAYER
 70
0
  3

 72
65
 73
0
 40
0.0
  0
LTYPE
  5
16
100
AcDbSymbolTableRecord
100
AcDbLinetypeTableRecord
  2
CONTINUOUS
 70
64
  3
Solid line
 72
65
 73
0
 40
0.0
  0
LTYPE
  5
1F5
100
AcDbSymbolTableRecord
100
AcDbLinetypeTableRecord
  2
CENTER
 70
64
  3
____ _ ____ _ ____ _ ____ _ ____ _ ____ _ ____
 72
65
 73
4
 40
0.6
 49
0.375
 74
0
 49
-0.075
 74
0
 49
0.075
 74
0
 49
-0.075
 74
0
  0
LTYPE
  5
1F6
100
AcDbSymbolTableRecord
100
AcDbLinetypeTableRecord
  2
HIDDEN
 70
64
  3
- - - - - - - - - - - - - - - - - - - -
 72
65
 73
2
 40
0.2
 49
0.1
 74
0
 49
-0.1
 74
0
  0
LTYPE
  5
1F7
100
AcDbSymbolTableRecord
100
AcDbLinetypeTableRecord
  2
PHANTOM
 70
64
  3
_____ _ _ _____ _ _ _____ _ _ _____
 72
65
 73
6
 40
0.8
 49
0.45
 74
0
 49
-0.05
 74
0
 49
0.1
 74
0
 49
-0.05
 74
0
 49
0.1
 74
0
 49
-0.05
 74
0
  0
LTYPE
  5
1F8
100
AcDbSymbolTableRecord
100
AcDbLinetypeTableRecord
  2
DOT
 70
64
  3
. . . . . . . . . . . . . . . . . . . .
 72
65
 73
2
 40
0.2
 49
0.1
 74
0
 49
-0.1
 74
0
  0
LTYPE
  5
1F9
100
AcDbSymbolTableRecord
100
AcDbLinetypeTableRecord
  2
DASHED
 70
64
  3
- - - - - - - - - - - - - - - - - - - -
 72
65
 73
2
 40
0.2
 49
0.1
 74
0
 49
-0.1
 74
0
  0
ENDTAB
  0
TABLE
  2
LAYER
  5
2
100
AcDbSymbolTable
 70
36
  0
LAYER
  5
10
100
AcDbSymbolTableRecord
100
AcDbLayerTableRecord
  2
0
 70
0
 62
7
  6
CONTINUOUS
370
-3
390
F
  0
LAYER
  5
1FA
100
AcDbSymbolTableRecord
100
AcDbLayerTableRecord
  2
DEFAULT_1
 70
0
 62
7
  6
CENTER
370
-3
390
F
  0
LAYER
  5
1FB
100
AcDbSymbolTableRecord
100
AcDbLayerTableRecord
  2
DEFAULT_2
 70
0
 62
8
  6
HIDDEN
370
-3
390
F
  0
LAYER
  5
1FC
100
AcDbSymbolTableRecord
100
AcDbLayerTableRecord
  2
DEFAULT_3
 70
0
 62
7
  6
PHANTOM
370
-3
390
F
  0
LAYER
  5
1FD
100
AcDbSymbolTableRecord
100
AcDbLayerTableRecord
  2
AUSFORMSCHRAEGEN
 70
0
 62
7
  6
CONTINUOUS
370
-3
390
F
  0
LAYER
  5
1FE
100
AcDbSymbolTableRecord
100
AcDbLayerTableRecord
  2
BEZUGSACHSEN
 70
0
 62
7
  6
CONTINUOUS
370
-3
390
F
  0
LAYER
  5
1FF
100
AcDbSymbolTableRecord
100
AcDbLayerTableRecord
  2
BEZUGSEBENEN
 70
0
 62
7
  6
CONTINUOUS
370
-3
390
F
  0
LAYER
  5
200
100
AcDbSymbolTableRecord
100
AcDbLayerTableRecord
  2
BG_STARTBEZUEGE
 70
0
 62
7
  6
CONTINUOUS
370
-3
390
F
  0
LAYER
  5
201
100
AcDbSymbolTableRecord
100
AcDbLayerTableRecord
  2
FASEN
 70
0
 62
7
  6
CONTINUOUS
370
-3
390
F
  0
LAYER
  5
202
100
AcDbSymbolTableRecord
100
AcDbLayerTableRecord
  2
HILFEN
 70
0
 62
7
  6
CONTINUOUS
370
-3
390
F
  0
LAYER
  5
203
100
AcDbSymbolTableRecord
100
AcDbLayerTableRecord
  2
KONSTRUKTIONSELEMENTE
 70
0
 62
7
  6
CONTINUOUS
370
-3
390
F
  0
LAYER
  5
204
100
AcDbSymbolTableRecord
100
AcDbLayerTableRecord
  2
KURVEN
 70
0
 62
7
  6
CONTINUOUS
370
-3
390
F
  0
LAYER
  5
205
100
AcDbSymbolTableRecord
100
AcDbLayerTableRecord
  2
NORM
 70
0
 62
7
  6
CONTINUOUS
370
-3
390
F
  0
LAYER
  5
206
100
AcDbSymbolTableRecord
100
AcDbLayerTableRecord
  2
PLATZIERUNG
 70
0
 62
7
  6
CONTINUOUS
370
-3
390
F
  0
LAYER
  5
207
100
AcDbSymbolTableRecord
100
AcDbLayerTableRecord
  2
RUNDUNGEN
 70
0
 62
7
  6
CONTINUOUS
370
-3
390
F
  0
LAYER
  5
208
100
AcDbSymbolTableRecord
100
AcDbLayerTableRecord
  2
TEIL_STARTBEZUEGE
 70
0
 62
7
  6
CONTINUOUS
370
-3
390
F
  0
LAYER
  5
209
100
AcDbSymbolTableRecord
100
AcDbLayerTableRecord
  2
ZEICHNUNGSBEMASSUNGEN
 70
0
 62
7
  6
CONTINUOUS
370
-3
390
F
  0
ENDTAB
  0
TABLE
  2
STYLE
  5
3
100
AcDbSymbolTable
 70
1
  0
STYLE
  5
11
100
AcDbSymbolTableRecord
100
AcDbTextStyleTableRecord
  2
STANDARD
 70
0
 40
0.0
 41
0.7
 50
0.0
 71
0
 42
0.2
  3
txt
  4

  0
STYLE
  5
20A
100
AcDbSymbolTableRecord
100
AcDbTextStyleTableRecord
  2
TEXTSTYLE_1
 70
0
 40
0.0
 41
0.8
 50
0.0
 71
0
 42
0.2
  3
gdt
  4

  0
ENDTAB
  0
TABLE
  2
VIEW
  5
6
100
AcDbSymbolTable
 70
0
  0
ENDTAB
  0
TABLE
  2
UCS
  5
7
100
AcDbSymbolTable
 70
0
  0
ENDTAB
  0
TABLE
  2
APPID
  5
9
100
AcDbSymbolTable
 70
1
  0
APPID
  5
20B
100
AcDbSymbolTableRecord
100
AcDbRegAppTableRecord
  2
ACAD
 70
0
  0
ENDTAB
  0
TABLE
  2
BLOCK_RECORD
  5
1
100
AcDbSymbolTable
 70
0
  0
BLOCK_RECORD
  5
20C
100
AcDbSymbolTableRecord
100
AcDbBlockTableRecord
  2
*Model_Space
  0
BLOCK_RECORD
  5
20D
100
AcDbSymbolTableRecord
100
AcDbBlockTableRecord
  2
*Paper_Space
  0
ENDTAB
  0
TABLE
  2
DIMSTYLE
  5
A
100
AcDbSymbolTable
 70
1
100
AcDbDimStyleTable
 71
0
  0
DIMSTYLE
105
20E
100
AcDbSymbolTableRecord
100
AcDbDimStyleTableRecord
  2
STANDARD
 70
0
  3

  4

 40
1.0
 41
3.5
 42
0.0625
 43
0.38
 44
0.18
 45
0.0
 46
0.0
 47
0.005
 48
0.005
140
3.5
141
0.09
142
0.0
143
25.4
144
1.0
145
0.0
146
1.0
147
0.09
 71
1.0
 72
0.0
 73
0
 74
0
 75
0
 76
0
 77
1
 78
8
170
0
171
2
172
0
173
0
174
0
175
0
176
0
177
0
178
5
270
2
271
3
272
3
273
2
274
2
275
0
280
0
281
0
282
0
283
1
284
8
285
0
286
0
287
3
288
0
340
11
  0
ENDTAB
  0
ENDSEC
  0
SECTION
  2
BLOCKS
  0
BLOCK
  5
20
100
AcDbEntity
  8
0
100
AcDbBlockBegin
  2
*Model_Space
 70
0
 10
0.0
 20
0.0
 30
0.0
  3
*Model_Space
  1

  0
ENDBLK
  5
21
100
AcDbEntity
  8
0
100
AcDbBlockEnd
  0
BLOCK
  5
1C
100
AcDbEntity
  8
0
100
AcDbBlockBegin
  2
*Paper_Space
 70
0
 10
0.0
 20
0.0
 30
0.0
  3
*Paper_Space
  1

  0
ENDBLK
  5
1D
100
AcDbEntity
  8
0
100
AcDbBlockEnd
  0
ENDSEC
  0
SECTION
  2
ENTITIES
  0
MTEXT
  5
20F
100
AcDbEntity
  8
0
100
AcDbMText
 62
5
  6
CONTINUOUS
  7
STANDARD
 71
1
 72
1
 10
224.5830795011
 20
118.1297919363
 30
0.0
 11
0.0
 21
1.0
 31
0.0
 44
0.9
  1
RUD IAK 1/2-4
 40
3.5
 41
35.5
  0
LINE
  5
210
100
AcDbEntity
  8
0
100
AcDbLine
 62
7
  6
CONTINUOUS
 10
0.0
 20
0.0
 11
0.0
 21
210.0
  0
LINE
  5
211
100
AcDbEntity
  8
0
100
AcDbLine
 62
7
  6
CONTINUOUS
 10
0.0
 20
0.0
 11
297.0
 21
0.0
  0
LINE
  5
212
100
AcDbEntity
  8
0
100
AcDbLine
 62
7
  6
CONTINUOUS
 10
0.0
 20
210.0
 11
297.0
 21
210.0
  0
LINE
  5
213
100
AcDbEntity
  8
0
100
AcDbLine
 62
7
  6
CONTINUOUS
 10
297.0
 20
0.0
 11
297.0
 21
210.0
  0
LINE
  5
214
100
AcDbEntity
  8
RUNDUNGEN
100
AcDbLine
 62
7
  6
CONTINUOUS
 10
52.177776978
 20
133.0539361922
 11
60.7374615995
 21
153.718842895
  0
LINE
  5
215
100
AcDbEntity
  8
0
100
AcDbLine
 62
7
  6
CONTINUOUS
 10
63.4776629592
 20
149.2074505018
 11
62.8859334831
 21
148.5075769921
  0
LINE
  5
216
100
AcDbEntity
  8
0
100
AcDbLine
 62
7
  6
CONTINUOUS
 10
66.2781702108
 20
151.9386433123
 11
65.4962611205
 21
151.2595469689
  0
LINE
  5
217
100
AcDbEntity
  8
0
100
AcDbLine
 62
7
  6
CONTINUOUS
 10
72.1977430433
 20
155.6797550391
 11
71.1674388916
 21
155.1316877193
  0
LINE
  5
218
100
AcDbEntity
  8
0
100
AcDbLine
 62
7
  6
CONTINUOUS
 10
69.6138920984
 20
154.3052829865
 11
68.8047531239
 21
153.8748638443
  0
LINE
  5
219
100
AcDbEntity
  8
RUNDUNGEN
100
AcDbLine
 62
7
  6
CONTINUOUS
 10
61.2786576997
 20
154.2600389952
 11
81.9435630474
 21
162.8197230554
  0
LINE
  5
21A
100
AcDbEntity
  8
0
100
AcDbLine
 62
7
  6
CONTINUOUS
 10
66.322312309
 20
145.6021853549
 11
66.914041785
 21
146.3020588646
  0
LINE
  5
21B
100
AcDbEntity
  8
0
100
AcDbLine
 62
7
  6
CONTINUOUS
 10
68.0952228668
 20
149.8791077253
 11
67.2602641129
 21
149.153937186
  0
LINE
  5
21C
100
AcDbEntity
  8
0
100
AcDbLine
 62
7
  6
CONTINUOUS
 10
67.5907572813
 20
148.3727386458
 11
68.8201306096
 21
149.4404624288
  0
LINE
  5
21D
100
AcDbEntity
  8
0
100
AcDbLine
 62
7
  6
CONTINUOUS
 10
67.2430230612
 20
146.8163605264
 11
67.9764951851
 21
147.4533888504
  0
LINE
  5
21E
100
AcDbEntity
  8
0
100
AcDbLine
 62
7
  6
CONTINUOUS
 10
69.6763976553
 20
148.929772187
 11
70.4329350881
 21
149.5868329766
  0
LINE
  5
21F
100
AcDbEntity
  8
0
100
AcDbLine
 62
7
  6
CONTINUOUS
 10
70.9181112782
 20
149.9019911668
 11
71.7272502527
 21
150.332410309
  0
LINE
  5
220
100
AcDbEntity
  8
0
100
AcDbLine
 62
7
  6
CONTINUOUS
 10
73.3671055695
 20
151.2047266117
 11
74.4135917997
 21
151.7614019415
  0
LINE
  5
221
100
AcDbEntity
  8
0
100
AcDbLine
 62
7
  6
CONTINUOUS
 10
75.3997201967
 20
156.6247376004
 11
74.758640511
 21
156.4129672947
  0
LINE
  5
222
100
AcDbEntity
  8
0
100
AcDbLine
 62
7
  6
CONTINUOUS
 10
74.0441021508
 20
154.7580770865
 11
75.0013721699
 21
155.0742957551
  0
LINE
  5
223
100
AcDbEntity
  8
0
100
AcDbLine
 62
7
  6
CONTINUOUS
 10
81.6723673586
 20
154.4413572374
 11
81.9853472729
 21
154.6780979258
  0
LINE
  5
224
100
AcDbEntity
  8
0
100
AcDbLine
 62
7
  6
CONTINUOUS
 10
75.9423620701
 20
152.2256928441
 11
76.7632931287
 21
152.4968741421
  0
LINE
  5
225
100
AcDbEntity
  8
0
100
AcDbLine
 62
7
  6
CONTINUOUS
 10
71.1674388916
 20
155.1316877193
 11
70.5206418268
 21
152.6006967507
  0
LINE
  5
226
100
AcDbEntity
  8
0
100
AcDbLine
 62
7
  6
CONTINUOUS
 10
71.4760548625
 20
153.1919739417
 11
72.1977430433
 21
155.6797550391
  0
LINE
  5
227
100
AcDbEntity
  8
0
100
AcDbLine
 62
7
  6
CONTINUOUS
 10
71.0170586304
 20
151.667489688
 11
71.2121574298
 21
152.2764802993
  0
LINE
  5
228
100
AcDbEntity
  8
0
100
AcDbLine
 62
7
  6
CONTINUOUS
 10
86.8033050451
 20
154.4252716923
 11
88.2813565935
 21
155.9442608087
  0
LINE
  5
229
100
AcDbEntity
  8
0
100
AcDbLine
 62
7
  6
CONTINUOUS
 10
88.4106885403
 20
156.8344001209
 11
86.1989422176
 21
154.666328231
  0
LINE
  5
22A
100
AcDbEntity
  8
RUNDUNGEN
100
AcDbLine
 62
7
  6
CONTINUOUS
 10
57.3204459475
 20
109.4084671452
 11
56.1567853664
 21
117.6883424105
  0
LINE
  5
22B
100
AcDbEntity
  8
0
100
AcDbLine
 62
7
  6
CONTINUOUS
 10
57.3707979937
 20
128.7244977749
 11
57.4810912393
 21
127.8514368377
  0
LINE
  5
22C
100
AcDbEntity
  8
0
100
AcDbLine
 62
7
  6
CONTINUOUS
 10
57.8149618688
 20
125.2085786711
 11
57.9423175388
 21
124.2004547369
  0
LINE
  5
22D
100
AcDbEntity
  8
0
100
AcDbLine
 62
7
  6
CONTINUOUS
 10
58.7066392402
 20
118.3098000758
 11
59.0024256714
 21
115.9684093807
  0
LINE
  5
22E
100
AcDbEntity
  8
0
100
AcDbLine
 62
7
  6
CONTINUOUS
 10
59.8491666295
 20
116.2870467135
 11
59.7113000726
 21
117.3783728849
  0
LINE
  5
22F
100
AcDbEntity
  8
RUNDUNGEN
100
AcDbLine
 62
7
  6
CONTINUOUS
 10
62.8262464797
 20
87.471254115
 11
62.8262464797
 21
91.3717850009
  0
LINE
  5
230
100
AcDbEntity
  8
0
100
AcDbLine
 62
7
  6
CONTINUOUS
 10
59.4245305378
 20
126.4303077871
 11
57.8149618688
 21
125.2085786711
  0
LINE
  5
231
100
AcDbEntity
  8
0
100
AcDbLine
 62
7
  6
CONTINUOUS
 10
57.9423175388
 20
124.2004547369
 11
60.0704967405
 21
125.8158306726
  0
LINE
  5
232
100
AcDbEntity
  8
0
100
AcDbLine
 62
7
  6
CONTINUOUS
 10
59.6538224351
 20
128.1259166193
 11
59.7655442539
 21
127.2415473605
  0
LINE
  5
233
100
AcDbEntity
  8
0
100
AcDbLine
 62
7
  6
CONTINUOUS
 10
60.7073632286
 20
126.8075646949
 11
60.5268833723
 21
128.2362098648
  0
LINE
  5
234
100
AcDbEntity
  8
0
100
AcDbLine
 62
7
  6
CONTINUOUS
 10
62.6479595885
 20
117.7493592563
 11
62.5163596932
 21
118.7910796927
  0
LINE
  5
235
100
AcDbEntity
  8
0
100
AcDbLine
 62
7
  6
CONTINUOUS
 10
61.3106539863
 20
128.3352231193
 11
61.2003607408
 21
129.2082840565
  0
LINE
  5
236
100
AcDbEntity
  8
0
100
AcDbLine
 62
7
  6
CONTINUOUS
 10
61.7261815325
 20
129.2747106702
 11
62.0169546344
 21
126.9730045632
  0
LINE
  5
237
100
AcDbEntity
  8
0
100
AcDbLine
 62
7
  6
CONTINUOUS
 10
63.0421804849
 20
118.8575063064
 11
63.3116469371
 21
116.7244596986
  0
LINE
  5
238
100
AcDbEntity
  8
0
100
AcDbLine
 62
7
  6
CONTINUOUS
 10
64.2110278533
 20
116.6264088569
 11
63.9152414221
 21
118.967799552
  0
LINE
  5
239
100
AcDbEntity
  8
0
100
AcDbLine
 62
7
  6
CONTINUOUS
 10
63.7836415268
 20
120.0095199884
 11
63.6520416316
 21
121.0512404247
  0
LINE
  5
23A
100
AcDbEntity
  8
0
100
AcDbLine
 62
7
  6
CONTINUOUS
 10
63.3888418411
 20
123.1346812975
 11
63.2572419459
 21
124.1764017339
  0
LINE
  5
23B
100
AcDbEntity
  8
0
100
AcDbLine
 62
7
  6
CONTINUOUS
 10
62.9338822033
 20
126.7360576633
 11
62.5992424696
 21
129.3850039158
  0
LINE
  5
23C
100
AcDbEntity
  8
0
100
AcDbLine
 62
7
  6
CONTINUOUS
 10
99.837376273
 20
150.6907956432
 11
96.4919119677
 21
147.6811663336
  0
LINE
  5
23D
100
AcDbEntity
  8
RUNDUNGEN
100
AcDbLine
 62
7
  6
CONTINUOUS
 10
97.8262464797
 20
81.471254115
 11
66.8262464797
 21
81.471254115
  0
LINE
  5
23E
100
AcDbEntity
  8
RUNDUNGEN
100
AcDbLine
 62
7
  6
CONTINUOUS
 10
65.4916893111
 20
130.3053113986
 11
67.7330940498
 21
114.3568879852
  0
LINE
  5
23F
100
AcDbEntity
  8
0
100
AcDbLine
 62
7
  6
CONTINUOUS
 10
78.5027888341
 20
157.4505744374
 11
77.9188451084
 21
152.6920573631
  0
LINE
  5
240
100
AcDbEntity
  8
0
100
AcDbLine
 62
7
  6
CONTINUOUS
 10
78.5604616261
 20
152.80047779
 11
79.1444053518
 21
157.5589948643
  0
LINE
  5
241
100
AcDbEntity
  8
0
100
AcDbLine
 62
7
  6
CONTINUOUS
 10
89.9664790856
 20
153.9629825986
 11
89.6573878604
 21
153.1949431372
  0
LINE
  5
242
100
AcDbEntity
  8
0
100
AcDbLine
 62
7
  6
CONTINUOUS
 10
93.4375664054
 20
155.149097909
 11
91.3700544164
 21
151.1521748206
  0
LINE
  5
243
100
AcDbEntity
  8
0
100
AcDbLine
 62
7
  6
CONTINUOUS
 10
92.1840925941
 20
150.7310924893
 11
94.2516045832
 21
154.7280155777
  0
LINE
  5
244
100
AcDbEntity
  8
0
100
AcDbLine
 62
7
  6
CONTINUOUS
 10
97.7044661851
 20
147.5392123325
 11
98.5629764096
 21
148.311540864
  0
LINE
  5
245
100
AcDbEntity
  8
0
100
AcDbLine
 62
7
  6
CONTINUOUS
 10
99.1625708315
 20
148.8509448992
 11
99.8507417463
 21
149.4700336613
  0
LINE
  5
246
100
AcDbEntity
  8
0
100
AcDbLine
 62
7
  6
CONTINUOUS
 10
99.997301671
 20
146.7171637927
 11
100.5968960929
 21
147.256567828
  0
LINE
  5
247
100
AcDbEntity
  8
0
100
AcDbLine
 62
7
  6
CONTINUOUS
 10
101.421958621
 20
147.7234896755
 11
102.0215529432
 21
148.2628936211
  0
LINE
  5
248
100
AcDbEntity
  8
0
100
AcDbLine
 62
7
  6
CONTINUOUS
 10
98.7455591081
 20
145.1760418516
 11
99.34515353
 21
145.7154458868
  0
LINE
  5
249
100
AcDbEntity
  8
0
100
AcDbLine
 62
7
  6
CONTINUOUS
 10
69.1432563095
 20
86.571254115
 11
74.1114498187
 21
86.571254115
  0
LINE
  5
24A
100
AcDbEntity
  8
0
100
AcDbLine
 62
7
  6
CONTINUOUS
 10
79.8432563095
 20
86.571254115
 11
84.8114498187
 21
86.571254115
  0
LINE
  5
24B
100
AcDbEntity
  8
0
100
AcDbLine
 62
7
  6
CONTINUOUS
 10
90.5432563095
 20
86.571254115
 11
95.5114498187
 21
86.571254115
  0
LINE
  5
24C
100
AcDbEntity
  8
0
100
AcDbLine
 62
7
  6
CONTINUOUS
 10
69.1433340411
 20
89.571254115
 11
74.111327141
 21
89.571254115
  0
LINE
  5
24D
100
AcDbEntity
  8
0
100
AcDbLine
 62
7
  6
CONTINUOUS
 10
79.8433340411
 20
89.571254115
 11
84.811327141
 21
89.571254115
  0
LINE
  5
24E
100
AcDbEntity
  8
0
100
AcDbLine
 62
7
  6
CONTINUOUS
 10
90.5433340411
 20
89.571254115
 11
95.511327141
 21
89.571254115
  0
LINE
  5
24F
100
AcDbEntity
  8
0
100
AcDbLine
 62
7
  6
CONTINUOUS
 10
83.9006056679
 20
155.237710418
 11
83.8113148657
 21
154.4146374246
  0
LINE
  5
250
100
AcDbEntity
  8
0
100
AcDbLine
 62
7
  6
CONTINUOUS
 10
86.1989422176
 20
154.666328231
 11
86.0130132938
 21
153.9161121939
  0
LINE
  5
251
100
AcDbEntity
  8
0
100
AcDbLine
 62
7
  6
CONTINUOUS
 10
88.2813565935
 20
155.9442608087
 11
87.8411533642
 21
154.1680577547
  0
LINE
  5
252
100
AcDbEntity
  8
0
100
AcDbLine
 62
7
  6
CONTINUOUS
 10
87.6765364505
 20
153.5038348565
 11
87.4509231063
 21
152.5934937134
  0
LINE
  5
253
100
AcDbEntity
  8
0
100
AcDbLine
 62
7
  6
CONTINUOUS
 10
88.2900972175
 20
152.3855179682
 11
88.5157105617
 21
153.2958591114
  0
LINE
  5
254
100
AcDbEntity
  8
0
100
AcDbLine
 62
7
  6
CONTINUOUS
 10
88.6803274753
 20
153.9600820095
 11
89.3358555301
 21
156.6051124301
  0
LINE
  5
255
100
AcDbEntity
  8
0
100
AcDbLine
 62
7
  6
CONTINUOUS
 10
88.9871905539
 20
153.1790104129
 11
89.1518074675
 21
153.843233311
  0
LINE
  5
256
100
AcDbEntity
  8
0
100
AcDbLine
 62
7
  6
CONTINUOUS
 10
91.2048038295
 20
152.572198185
 11
91.5138950546
 21
153.3402376465
  0
LINE
  5
257
100
AcDbEntity
  8
0
100
AcDbLine
 62
7
  6
CONTINUOUS
 10
80.1449938442
 20
153.3231094881
 11
80.1498279356
 21
153.1796063704
  0
LINE
  5
258
100
AcDbEntity
  8
0
100
AcDbLine
 62
7
  6
CONTINUOUS
 10
85.4696081164
 20
154.2347380284
 11
85.5588989186
 21
155.0578110218
  0
LINE
  5
259
100
AcDbEntity
  8
0
100
AcDbLine
 62
7
  6
CONTINUOUS
 10
67.2602641129
 20
149.153937186
 11
66.573355183
 21
150.7787933518
  0
LINE
  5
25A
100
AcDbEntity
  8
0
100
AcDbLine
 62
7
  6
CONTINUOUS
 10
67.9764951851
 20
147.4533888504
 11
67.5907572813
 21
148.3727386458
  0
LINE
  5
25B
100
AcDbEntity
  8
0
100
AcDbLine
 62
7
  6
CONTINUOUS
 10
65.4962611205
 20
151.2595469689
 11
67.2430230612
 21
146.8163605264
  0
LINE
  5
25C
100
AcDbEntity
  8
0
100
AcDbLine
 62
7
  6
CONTINUOUS
 10
83.1084362428
 20
153.2792709854
 11
83.0827229887
 21
154.0425854992
  0
LINE
  5
25D
100
AcDbEntity
  8
KONSTRUKTIONSELEMENTE
100
AcDbLine
 62
7
  6
CONTINUOUS
 10
110.2569643366
 20
84.9415463849
 11
105.3072168683
 21
89.8912938532
  0
LINE
  5
25E
100
AcDbEntity
  8
0
100
AcDbLine
 62
7
  6
CONTINUOUS
 10
73.8562874887
 20
155.3266372732
 11
74.0441021508
 21
154.7580770865
  0
LINE
  5
25F
100
AcDbEntity
  8
KONSTRUKTIONSELEMENTE
100
AcDbLine
 62
7
  6
CONTINUOUS
 10
113.0853914614
 20
87.7699735096
 11
108.1356439931
 21
92.7197209779
  0
LINE
  5
260
100
AcDbEntity
  8
KONSTRUKTIONSELEMENTE
100
AcDbLine
 62
7
  6
CONTINUOUS
 10
108.1349399168
 20
93.4275318353
 11
91.8802492851
 21
109.682222467
  0
LINE
  5
261
100
AcDbEntity
  8
RUNDUNGEN
100
AcDbLine
 62
7
  6
CONTINUOUS
 10
113.5116778398
 20
89.4650074747
 11
141.168844383
 21
61.8078409316
  0
LINE
  5
262
100
AcDbEntity
  8
0
100
AcDbLine
 62
7
  6
CONTINUOUS
 10
68.8047531239
 20
153.8748638443
 11
70.9181112782
 21
149.9019911668
  0
LINE
  5
263
100
AcDbEntity
  8
0
100
AcDbLine
 62
7
  6
CONTINUOUS
 10
71.7272502527
 20
150.332410309
 11
71.0170586304
 21
151.667489688
  0
LINE
  5
264
100
AcDbEntity
  8
0
100
AcDbLine
 62
7
  6
CONTINUOUS
 10
70.5206418268
 20
152.6006967507
 11
69.6138920984
 21
154.3052829865
  0
LINE
  5
265
100
AcDbEntity
  8
0
100
AcDbLine
 62
7
  6
CONTINUOUS
 10
75.0013721699
 20
155.0742957551
 11
75.9423620701
 21
152.2256928441
  0
LINE
  5
266
100
AcDbEntity
  8
0
100
AcDbLine
 62
7
  6
CONTINUOUS
 10
76.7632931287
 20
152.4968741421
 11
75.3997201967
 21
156.6247376004
  0
LINE
  5
267
100
AcDbEntity
  8
RUNDUNGEN
100
AcDbLine
 62
7
  6
CONTINUOUS
 10
96.9193989096
 20
114.3568879852
 11
99.1608036483
 21
130.3053113986
  0
LINE
  5
268
100
AcDbEntity
  8
RUNDUNGEN
100
AcDbLine
 62
7
  6
CONTINUOUS
 10
114.9258948299
 20
90.8792176094
 11
142.5830579453
 21
63.2220544939
  0
LINE
  5
269
100
AcDbEntity
  8
KONSTRUKTIONSELEMENTE
100
AcDbLine
 62
7
  6
CONTINUOUS
 10
110.9633670416
 20
96.2559589601
 11
94.7086764099
 21
112.5106495918
  0
LINE
  5
26A
100
AcDbEntity
  8
KONSTRUKTIONSELEMENTE
100
AcDbLine
 62
7
  6
CONTINUOUS
 10
111.671177899
 20
96.2552548838
 11
113.9692749378
 21
93.957157845
  0
LINE
  5
26B
100
AcDbEntity
  8
KONSTRUKTIONSELEMENTE
100
AcDbLine
 62
7
  6
CONTINUOUS
 10
114.3228283284
 20
93.6036044544
 11
116.6209253673
 21
91.3055074155
  0
LINE
  5
26C
100
AcDbEntity
  8
RUNDUNGEN
100
AcDbLine
 62
7
  6
CONTINUOUS
 10
101.8262464797
 20
91.3717850009
 11
101.8262464797
 21
87.471254115
  0
LINE
  5
26D
100
AcDbEntity
  8
KONSTRUKTIONSELEMENTE
100
AcDbLine
 62
7
  6
CONTINUOUS
 10
114.4996050237
 20
99.0836820086
 11
116.7977020626
 21
96.7855849697
  0
LINE
  5
26E
100
AcDbEntity
  8
KONSTRUKTIONSELEMENTE
100
AcDbLine
 62
7
  6
CONTINUOUS
 10
117.1512554532
 20
96.4320315791
 11
119.449352492
 21
94.1339345403
  0
LINE
  5
26F
100
AcDbEntity
  8
0
100
AcDbLine
 62
7
  6
CONTINUOUS
 10
61.1591001857
 20
114.2955211479
 11
62.5381396205
 21
114.4697343426
  0
LINE
  5
270
100
AcDbEntity
  8
0
100
AcDbLine
 62
7
  6
CONTINUOUS
 10
62.3668551372
 20
115.5064414496
 11
61.0671848785
 21
115.3422549136
  0
LINE
  5
271
100
AcDbEntity
  8
0
100
AcDbLine
 62
7
  6
CONTINUOUS
 10
62.8859334831
 20
148.5075769921
 11
66.322312309
 21
145.6021853549
  0
LINE
  5
272
100
AcDbEntity
  8
0
100
AcDbLine
 62
7
  6
CONTINUOUS
 10
66.914041785
 20
146.3020588646
 11
63.4776629592
 21
149.2074505018
  0
LINE
  5
273
100
AcDbEntity
  8
RUNDUNGEN
100
AcDbLine
 62
7
  6
CONTINUOUS
 10
108.495707593
 20
117.6883424105
 11
107.3320470228
 21
109.4084672216
  0
LINE
  5
274
100
AcDbEntity
  8
0
100
AcDbLine
 62
7
  6
CONTINUOUS
 10
59.7113000726
 20
117.3783728849
 11
62.6479595885
 21
117.7493592563
  0
LINE
  5
275
100
AcDbEntity
  8
0
100
AcDbLine
 62
7
  6
CONTINUOUS
 10
63.9152414221
 20
118.967799552
 11
63.0421804849
 21
118.8575063064
  0
LINE
  5
276
100
AcDbEntity
  8
0
100
AcDbLine
 62
7
  6
CONTINUOUS
 10
62.5163596932
 20
118.7910796927
 11
58.7066392402
 21
118.3098000758
  0
LINE
  5
277
100
AcDbEntity
  8
0
100
AcDbLine
 62
7
  6
CONTINUOUS
 10
60.6584802177
 20
119.6147203026
 11
63.7836415268
 21
120.0095199884
  0
LINE
  5
278
100
AcDbEntity
  8
0
100
AcDbLine
 62
7
  6
CONTINUOUS
 10
63.6520416316
 20
121.0512404247
 11
60.5268803224
 21
120.656440739
  0
LINE
  5
279
100
AcDbEntity
  8
0
100
AcDbLine
 62
7
  6
CONTINUOUS
 10
60.263680532
 20
122.7398816118
 11
63.3888418411
 21
123.1346812975
  0
LINE
  5
27A
100
AcDbEntity
  8
0
100
AcDbLine
 62
7
  6
CONTINUOUS
 10
63.2572419459
 20
124.1764017339
 11
60.1320806367
 21
123.7816020482
  0
LINE
  5
27B
100
AcDbEntity
  8
0
100
AcDbLine
 62
7
  6
CONTINUOUS
 10
66.573355183
 20
150.7787933518
 11
68.0952228668
 21
149.8791077253
  0
LINE
  5
27C
100
AcDbEntity
  8
0
100
AcDbLine
 62
7
  6
CONTINUOUS
 10
68.8201306096
 20
149.4404624288
 11
69.6763976553
 21
148.929772187
  0
LINE
  5
27D
100
AcDbEntity
  8
0
100
AcDbLine
 62
7
  6
CONTINUOUS
 10
57.4810912393
 20
127.8514368377
 11
59.6538224351
 21
128.1259166193
  0
LINE
  5
27E
100
AcDbEntity
  8
0
100
AcDbLine
 62
7
  6
CONTINUOUS
 10
60.5268833723
 20
128.2362098648
 11
61.3106539863
 21
128.3352231193
  0
LINE
  5
27F
100
AcDbEntity
  8
0
100
AcDbLine
 62
7
  6
CONTINUOUS
 10
62.5992424696
 20
129.3850039158
 11
61.7261815325
 21
129.2747106702
  0
LINE
  5
280
100
AcDbEntity
  8
0
100
AcDbLine
 62
7
  6
CONTINUOUS
 10
61.2003607408
 20
129.2082840565
 11
57.3707979937
 21
128.7244977749
  0
LINE
  5
281
100
AcDbEntity
  8
0
100
AcDbLine
 62
7
  6
CONTINUOUS
 10
70.4329350881
 20
149.5868329766
 11
66.2781702108
 21
151.9386433123
  0
LINE
  5
282
100
AcDbEntity
  8
0
100
AcDbLine
 62
7
  6
CONTINUOUS
 10
96.4919119677
 20
147.6811663336
 11
98.7455591081
 21
145.1760418516
  0
LINE
  5
283
100
AcDbEntity
  8
RUNDUNGEN
100
AcDbLine
 62
7
  6
CONTINUOUS
 10
103.91503136
 20
153.718842895
 11
112.4747159815
 21
133.0539361922
  0
LINE
  5
284
100
AcDbEntity
  8
KONSTRUKTIONSELEMENTE
100
AcDbLine
 62
7
  6
CONTINUOUS
 10
116.7977020626
 20
96.7855849697
 11
113.9692749378
 21
93.957157845
  0
LINE
  5
285
100
AcDbEntity
  8
KONSTRUKTIONSELEMENTE
100
AcDbLine
 62
7
  6
CONTINUOUS
 10
117.1512554532
 20
96.4320315791
 11
114.3228283284
 21
93.6036044544
  0
LINE
  5
286
100
AcDbEntity
  8
RUNDUNGEN
100
AcDbLine
 62
7
  6
CONTINUOUS
 10
114.9259390754
 20
90.8791733638
 11
113.5117255131
 21
89.4649598015
  0
LINE
  5
287
100
AcDbEntity
  8
0
100
AcDbLine
 62
7
  6
CONTINUOUS
 10
74.4135917997
 20
151.7614019415
 11
71.4760548625
 21
153.1919739417
  0
LINE
  5
288
100
AcDbEntity
  8
0
100
AcDbLine
 62
7
  6
CONTINUOUS
 10
71.2121574298
 20
152.2764802993
 11
73.3671055695
 21
151.2047266117
  0
LINE
  5
289
100
AcDbEntity
  8
0
100
AcDbLine
 62
7
  6
CONTINUOUS
 10
99.34515353
 20
145.7154458868
 11
97.7044661851
 21
147.5392123325
  0
LINE
  5
28A
100
AcDbEntity
  8
0
100
AcDbLine
 62
7
  6
CONTINUOUS
 10
98.5629764096
 20
148.311540864
 11
99.997301671
 21
146.7171637927
  0
LINE
  5
28B
100
AcDbEntity
  8
0
100
AcDbLine
 62
7
  6
CONTINUOUS
 10
100.5968960929
 20
147.256567828
 11
99.1625708315
 21
148.8509448992
  0
LINE
  5
28C
100
AcDbEntity
  8
0
100
AcDbLine
 62
7
  6
CONTINUOUS
 10
99.8507417463
 20
149.4700336613
 11
101.421958621
 21
147.7234896755
  0
LINE
  5
28D
100
AcDbEntity
  8
0
100
AcDbLine
 62
7
  6
CONTINUOUS
 10
102.0215529432
 20
148.2628936211
 11
99.837376273
 21
150.6907956432
  0
LINE
  5
28E
100
AcDbEntity
  8
0
100
AcDbLine
 62
7
  6
CONTINUOUS
 10
91.3700544164
 20
151.1521748206
 11
92.1840925941
 21
150.7310924893
  0
LINE
  5
28F
100
AcDbEntity
  8
0
100
AcDbLine
 62
7
  6
CONTINUOUS
 10
96.9645551796
 20
149.3873301428
 11
96.2248336846
 21
149.9284185472
  0
LINE
  5
290
100
AcDbEntity
  8
0
100
AcDbLine
 62
7
  6
CONTINUOUS
 10
97.0871513721
 20
151.0917693642
 11
97.8268745989
 21
150.550679693
  0
LINE
  5
291
100
AcDbEntity
  8
RUNDUNGEN
100
AcDbLine
 62
7
  6
CONTINUOUS
 10
117.5847273231
 20
85.3919579915
 11
118.9989408854
 21
86.8061715538
  0
LINE
  5
292
100
AcDbEntity
  8
0
100
AcDbLine
 62
7
  6
CONTINUOUS
 10
87.4509231063
 20
152.5934937134
 11
88.2900972175
 21
152.3855179682
  0
LINE
  5
293
100
AcDbEntity
  8
0
100
AcDbLine
 62
7
  6
CONTINUOUS
 10
89.6573878604
 20
153.1949431372
 11
91.2048038295
 21
152.572198185
  0
LINE
  5
294
100
AcDbEntity
  8
0
100
AcDbLine
 62
7
  6
CONTINUOUS
 10
91.5138950546
 20
153.3402376465
 11
89.9664790856
 21
153.9629825986
  0
LINE
  5
295
100
AcDbEntity
  8
0
100
AcDbLine
 62
7
  6
CONTINUOUS
 10
94.2516045832
 20
154.7280155777
 11
93.4375664054
 21
155.149097909
  0
LINE
  5
296
100
AcDbEntity
  8
0
100
AcDbLine
 62
7
  6
CONTINUOUS
 10
83.8113148657
 20
154.4146374246
 11
85.4696081164
 21
154.2347380284
  0
LINE
  5
297
100
AcDbEntity
  8
0
100
AcDbLine
 62
7
  6
CONTINUOUS
 10
85.5588989186
 20
155.0578110218
 11
83.9006056679
 21
155.237710418
  0
LINE
  5
298
100
AcDbEntity
  8
0
100
AcDbLine
 62
7
  6
CONTINUOUS
 10
86.0130132938
 20
153.9161121939
 11
87.6765364505
 21
153.5038348565
  0
LINE
  5
299
100
AcDbEntity
  8
0
100
AcDbLine
 62
7
  6
CONTINUOUS
 10
88.5157105617
 20
153.2958591114
 11
88.9871905539
 21
153.1790104129
  0
LINE
  5
29A
100
AcDbEntity
  8
0
100
AcDbLine
 62
7
  6
CONTINUOUS
 10
89.1518074675
 20
153.843233311
 11
88.6803274753
 21
153.9600820095
  0
LINE
  5
29B
100
AcDbEntity
  8
0
100
AcDbLine
 62
7
  6
CONTINUOUS
 10
87.8411533642
 20
154.1680577547
 11
86.8033050451
 21
154.4252716923
  0
LINE
  5
29C
100
AcDbEntity
  8
0
100
AcDbLine
 62
7
  6
CONTINUOUS
 10
89.3358555301
 20
156.6051124301
 11
88.4106885403
 21
156.8344001209
  0
LINE
  5
29D
100
AcDbEntity
  8
RUNDUNGEN
100
AcDbLine
 62
7
  6
CONTINUOUS
 10
82.7089299121
 20
162.8197230554
 11
103.3738352598
 21
154.2600389952
  0
LINE
  5
29E
100
AcDbEntity
  8
0
100
AcDbLine
 62
7
  6
CONTINUOUS
 10
77.9188451084
 20
152.6920573631
 11
78.5604616261
 21
152.80047779
  0
LINE
  5
29F
100
AcDbEntity
  8
0
100
AcDbLine
 62
7
  6
CONTINUOUS
 10
80.1498279356
 20
153.1796063704
 11
83.1084362428
 21
153.2792709854
  0
LINE
  5
2A0
100
AcDbEntity
  8
0
100
AcDbLine
 62
7
  6
CONTINUOUS
 10
83.0827229887
 20
154.0425854992
 11
81.2019155032
 21
153.9792280236
  0
LINE
  5
2A1
100
AcDbEntity
  8
0
100
AcDbLine
 62
7
  6
CONTINUOUS
 10
80.0998708116
 20
156.0237321879
 11
80.9853161517
 21
156.0535595796
  0
LINE
  5
2A2
100
AcDbEntity
  8
0
100
AcDbLine
 62
7
  6
CONTINUOUS
 10
79.1444053518
 20
157.5589948643
 11
78.5027888341
 21
157.4505744374
  0
LINE
  5
2A3
100
AcDbEntity
  8
RUNDUNGEN
100
AcDbLine
 62
7
  6
CONTINUOUS
 10
142.5830579453
 20
63.2220544939
 11
141.168844383
 21
61.8078409316
  0
LINE
  5
2A4
100
AcDbEntity
  8
RUNDUNGEN
100
AcDbLine
 62
7
  6
CONTINUOUS
 10
238.0747248744
 20
61.8078409316
 11
237.3862248744
 21
61.8078409316
  0
LINE
  5
2A5
100
AcDbEntity
  8
RUNDUNGEN
100
AcDbLine
 62
7
  6
CONTINUOUS
 10
215.6932248744
 20
61.8078409316
 11
215.0047248744
 21
61.8078409316
  0
LINE
  5
2A6
100
AcDbEntity
  8
RUNDUNGEN
100
AcDbLine
 62
7
  6
CONTINUOUS
 10
235.2247248744
 20
65.1425565116
 11
232.2928955487
 21
65.1425565116
  0
LINE
  5
2A7
100
AcDbEntity
  8
RUNDUNGEN
100
AcDbLine
 62
7
  6
CONTINUOUS
 10
220.7865542002
 20
65.1425565116
 11
217.8547248744
 21
65.1425565116
  0
LINE
  5
2A8
100
AcDbEntity
  8
0
100
AcDbLine
 62
7
  6
CONTINUOUS
 10
230.5715738881
 20
69.2843592679
 11
230.6585660756
 21
69.3089951661
  0
LINE
  5
2A9
100
AcDbEntity
  8
0
100
AcDbLine
 62
7
  6
CONTINUOUS
 10
230.5715738881
 20
69.355069946
 11
230.6585660756
 21
69.3797058442
  0
LINE
  5
2AA
100
AcDbEntity
  8
0
100
AcDbLine
 62
7
  6
CONTINUOUS
 10
230.4555842494
 20
69.2597233696
 11
230.5715738881
 21
69.2843592679
  0
LINE
  5
2AB
100
AcDbEntity
  8
0
100
AcDbLine
 62
7
  6
CONTINUOUS
 10
230.4555842494
 20
69.3304340478
 11
230.5715738881
 21
69.355069946
  0
LINE
  5
2AC
100
AcDbEntity
  8
0
100
AcDbLine
 62
7
  6
CONTINUOUS
 10
230.5715738881
 20
69.3829028607
 11
230.4555842494
 21
69.3582669625
  0
LINE
  5
2AD
100
AcDbEntity
  8
0
100
AcDbLine
 62
7
  6
CONTINUOUS
 10
230.4555842494
 20
69.6538977756
 11
230.5715738881
 21
69.678533676
  0
LINE
  5
2AE
100
AcDbEntity
  8
0
100
AcDbLine
 62
7
  6
CONTINUOUS
 10
230.4555842494
 20
69.7246084537
 11
230.5715738881
 21
69.7492443541
  0
LINE
  5
2AF
100
AcDbEntity
  8
0
100
AcDbLine
 62
7
  6
CONTINUOUS
 10
230.5715738881
 20
69.8017131822
 11
230.4555842494
 21
69.7770772839
  0
LINE
  5
2B0
100
AcDbEntity
  8
0
100
AcDbLine
 62
7
  6
CONTINUOUS
 10
221.7582248744
 20
69.0330580217
 11
231.3212248744
 21
69.0330580217
  0
LINE
  5
2B1
100
AcDbEntity
  8
0
100
AcDbLine
 62
7
  6
CONTINUOUS
 10
221.7582248744
 20
69.1720045042
 11
231.3212248744
 21
69.1720045042
  0
LINE
  5
2B2
100
AcDbEntity
  8
0
100
AcDbLine
 62
7
  6
CONTINUOUS
 10
230.2815998744
 20
69.2597233696
 11
230.4555842494
 21
69.2597233696
  0
LINE
  5
2B3
100
AcDbEntity
  8
0
100
AcDbLine
 62
7
  6
CONTINUOUS
 10
230.2815998744
 20
69.3304340478
 11
230.4555842494
 21
69.3304340478
  0
LINE
  5
2B4
100
AcDbEntity
  8
0
100
AcDbLine
 62
7
  6
CONTINUOUS
 10
230.4555842494
 20
69.3582669625
 11
230.2815998744
 21
69.3582669625
  0
LINE
  5
2B5
100
AcDbEntity
  8
0
100
AcDbLine
 62
7
  6
CONTINUOUS
 10
230.0786181313
 20
69.5553541741
 11
229.9336311244
 21
69.5553541741
  0
LINE
  5
2B6
100
AcDbEntity
  8
0
100
AcDbLine
 62
7
  6
CONTINUOUS
 10
228.8897248744
 20
69.6538977756
 11
229.0347118502
 21
69.6538977756
  0
LINE
  5
2B7
100
AcDbEntity
  8
0
100
AcDbLine
 62
7
  6
CONTINUOUS
 10
229.5276675966
 20
69.6538977756
 11
229.7016519301
 21
69.6538977756
  0
LINE
  5
2B8
100
AcDbEntity
  8
0
100
AcDbLine
 62
7
  6
CONTINUOUS
 10
230.2815998744
 20
69.6538977756
 11
230.4555842494
 21
69.6538977756
  0
LINE
  5
2B9
100
AcDbEntity
  8
0
100
AcDbLine
 62
7
  6
CONTINUOUS
 10
228.8897248744
 20
69.7246084537
 11
229.0347118502
 21
69.7246084537
  0
LINE
  5
2BA
100
AcDbEntity
  8
0
100
AcDbLine
 62
7
  6
CONTINUOUS
 10
229.5276675966
 20
69.7246084537
 11
229.6359447014
 21
69.7246084537
  0
LINE
  5
2BB
100
AcDbEntity
  8
0
100
AcDbLine
 62
7
  6
CONTINUOUS
 10
230.2815998744
 20
69.7246084537
 11
230.4555842494
 21
69.7246084537
  0
LINE
  5
2BC
100
AcDbEntity
  8
0
100
AcDbLine
 62
7
  6
CONTINUOUS
 10
230.4555842494
 20
69.7770772839
 11
230.3395946108
 21
69.7770772839
  0
LINE
  5
2BD
100
AcDbEntity
  8
0
100
AcDbLine
 62
7
  6
CONTINUOUS
 10
230.2815998744
 20
70.4422465875
 11
230.1656103188
 21
70.4176106893
  0
LINE
  5
2BE
100
AcDbEntity
  8
0
100
AcDbLine
 62
7
  6
CONTINUOUS
 10
230.2815998744
 20
70.3190670965
 11
230.4555842494
 21
70.3190670965
  0
LINE
  5
2BF
100
AcDbEntity
  8
0
100
AcDbLine
 62
7
  6
CONTINUOUS
 10
230.2815998744
 20
70.3897777746
 11
230.4555842494
 21
70.3897777746
  0
LINE
  5
2C0
100
AcDbEntity
  8
0
100
AcDbLine
 62
7
  6
CONTINUOUS
 10
230.8615477358
 20
70.4422465875
 11
230.7165608119
 21
70.4422465875
  0
LINE
  5
2C1
100
AcDbEntity
  8
0
100
AcDbLine
 62
7
  6
CONTINUOUS
 10
230.4555842494
 20
70.4422465875
 11
230.2815998744
 21
70.4422465875
  0
LINE
  5
2C2
100
AcDbEntity
  8
0
100
AcDbLine
 62
7
  6
CONTINUOUS
 10
229.5856623744
 20
70.4422465875
 11
229.4116779994
 21
70.4422465875
  0
LINE
  5
2C3
100
AcDbEntity
  8
0
100
AcDbLine
 62
7
  6
CONTINUOUS
 10
229.0347118502
 20
70.8117851298
 11
228.8897248744
 21
70.8117851298
  0
LINE
  5
2C4
100
AcDbEntity
  8
0
100
AcDbLine
 62
7
  6
CONTINUOUS
 10
221.9547248744
 20
71.2562017418
 11
231.1247248744
 21
71.2562017418
  0
LINE
  5
2C5
100
AcDbEntity
  8
0
100
AcDbLine
 62
7
  6
CONTINUOUS
 10
222.0718488023
 20
71.3951482243
 11
230.8674275629
 21
71.3951482243
  0
LINE
  5
2C6
100
AcDbEntity
  8
0
100
AcDbLine
 62
7
  6
CONTINUOUS
 10
224.4996299467
 20
73.633307454
 11
224.4253747261
 21
73.6348632329
  0
LINE
  5
2C7
100
AcDbEntity
  8
0
100
AcDbLine
 62
7
  6
CONTINUOUS
 10
224.3805888415
 20
73.56653356
 11
224.5002571645
 21
73.5599516774
  0
LINE
  5
2C8
100
AcDbEntity
  8
0
100
AcDbLine
 62
7
  6
CONTINUOUS
 10
224.3805888415
 20
73.6372442381
 11
224.4253702151
 21
73.6347812159
  0
LINE
  5
2C9
100
AcDbEntity
  8
0
100
AcDbLine
 62
7
  6
CONTINUOUS
 10
230.1656103188
 20
69.2843592679
 11
230.2815998744
 21
69.2597233696
  0
LINE
  5
2CA
100
AcDbEntity
  8
0
100
AcDbLine
 62
7
  6
CONTINUOUS
 10
230.1656103188
 20
69.355069946
 11
230.2815998744
 21
69.3304340478
  0
LINE
  5
2CB
100
AcDbEntity
  8
0
100
AcDbLine
 62
7
  6
CONTINUOUS
 10
230.1656103188
 20
69.678533676
 11
230.2815998744
 21
69.6538977756
  0
LINE
  5
2CC
100
AcDbEntity
  8
0
100
AcDbLine
 62
7
  6
CONTINUOUS
 10
230.1656103188
 20
69.7492443541
 11
230.2815998744
 21
69.7246084537
  0
LINE
  5
2CD
100
AcDbEntity
  8
0
100
AcDbLine
 62
7
  6
CONTINUOUS
 10
230.3395946108
 20
69.7770772839
 11
230.2236050551
 21
69.8017131822
  0
LINE
  5
2CE
100
AcDbEntity
  8
0
100
AcDbLine
 62
7
  6
CONTINUOUS
 10
230.4555842494
 20
70.3190670965
 11
230.5715738881
 21
70.2944311982
  0
LINE
  5
2CF
100
AcDbEntity
  8
0
100
AcDbLine
 62
7
  6
CONTINUOUS
 10
230.4555842494
 20
70.3897777746
 11
230.5715738881
 21
70.3651418764
  0
LINE
  5
2D0
100
AcDbEntity
  8
0
100
AcDbLine
 62
7
  6
CONTINUOUS
 10
230.5715738881
 20
70.4176106893
 11
230.4555842494
 21
70.4422465875
  0
LINE
  5
2D1
100
AcDbEntity
  8
0
100
AcDbLine
 62
7
  6
CONTINUOUS
 10
230.5815738881
 20
75.8702104065
 11
230.6685660756
 21
75.8948463047
  0
LINE
  5
2D2
100
AcDbEntity
  8
0
100
AcDbLine
 62
7
  6
CONTINUOUS
 10
230.5815738881
 20
75.9409210846
 11
230.6685660756
 21
75.9655569828
  0
LINE
  5
2D3
100
AcDbEntity
  8
0
100
AcDbLine
 62
7
  6
CONTINUOUS
 10
224.6395412965
 20
73.6711220082
 11
224.4996299467
 21
73.633307454
  0
LINE
  5
2D4
100
AcDbEntity
  8
0
100
AcDbLine
 62
7
  6
CONTINUOUS
 10
224.4749962065
 20
74.1024015521
 11
224.6149076768
 21
74.1402160828
  0
LINE
  5
2D5
100
AcDbEntity
  8
0
100
AcDbLine
 62
7
  6
CONTINUOUS
 10
224.4749962065
 20
74.1731122302
 11
224.6149076768
 21
74.210926761
  0
LINE
  5
2D6
100
AcDbEntity
  8
0
100
AcDbLine
 62
7
  6
CONTINUOUS
 10
230.4655842494
 20
75.8455745083
 11
230.5815738881
 21
75.8702104065
  0
LINE
  5
2D7
100
AcDbEntity
  8
0
100
AcDbLine
 62
7
  6
CONTINUOUS
 10
230.4655842494
 20
75.9162851864
 11
230.5815738881
 21
75.9409210846
  0
LINE
  5
2D8
100
AcDbEntity
  8
0
100
AcDbLine
 62
7
  6
CONTINUOUS
 10
230.5815738881
 20
75.9687539993
 11
230.4655842494
 21
75.9441181011
  0
LINE
  5
2D9
100
AcDbEntity
  8
0
100
AcDbLine
 62
7
  6
CONTINUOUS
 10
230.4655842494
 20
76.2397489142
 11
230.5815738881
 21
76.2643848146
  0
LINE
  5
2DA
100
AcDbEntity
  8
0
100
AcDbLine
 62
7
  6
CONTINUOUS
 10
230.4655842494
 20
76.3104595923
 11
230.5815738881
 21
76.3350954927
  0
LINE
  5
2DB
100
AcDbEntity
  8
0
100
AcDbLine
 62
7
  6
CONTINUOUS
 10
230.5815738881
 20
76.3875643208
 11
230.4655842494
 21
76.3629284226
  0
LINE
  5
2DC
100
AcDbEntity
  8
0
100
AcDbLine
 62
7
  6
CONTINUOUS
 10
230.2915998744
 20
77.0280977262
 11
230.1756103188
 21
77.0034618279
  0
LINE
  5
2DD
100
AcDbEntity
  8
0
100
AcDbLine
 62
7
  6
CONTINUOUS
 10
223.7395447917
 20
73.9702533473
 11
223.6667206673
 21
73.959877279
  0
LINE
  5
2DE
100
AcDbEntity
  8
0
100
AcDbLine
 62
7
  6
CONTINUOUS
 10
223.494851742
 20
74.2677621701
 11
223.5676758664
 21
74.2781382384
  0
LINE
  5
2DF
100
AcDbEntity
  8
0
100
AcDbLine
 62
7
  6
CONTINUOUS
 10
223.5894130164
 20
74.3518646262
 11
223.4437647608
 21
74.3311124916
  0
LINE
  5
2E0
100
AcDbEntity
  8
0
100
AcDbLine
 62
7
  6
CONTINUOUS
 10
223.6328873255
 20
74.4993174438
 11
223.7057114499
 21
74.5096935121
  0
LINE
  5
2E1
100
AcDbEntity
  8
0
100
AcDbLine
 62
7
  6
CONTINUOUS
 10
224.5002571645
 20
73.5599516774
 11
224.5867837225
 21
73.5703625682
  0
LINE
  5
2E2
100
AcDbEntity
  8
0
100
AcDbLine
 62
7
  6
CONTINUOUS
 10
224.5002571645
 20
73.6306623555
 11
224.5867837225
 21
73.6410732463
  0
LINE
  5
2E3
100
AcDbEntity
  8
0
100
AcDbLine
 62
7
  6
CONTINUOUS
 10
224.6142804547
 20
74.2135718553
 11
224.527753901
 21
74.2031609686
  0
LINE
  5
2E4
100
AcDbEntity
  8
0
100
AcDbLine
 62
7
  6
CONTINUOUS
 10
223.6449835528
 20
73.8861508708
 11
223.7636504801
 21
73.8989040336
  0
LINE
  5
2E5
100
AcDbEntity
  8
0
100
AcDbLine
 62
7
  6
CONTINUOUS
 10
223.6449835528
 20
73.956861549
 11
223.6667928741
 21
73.9592054019
  0
LINE
  5
2E6
100
AcDbEntity
  8
0
100
AcDbLine
 62
7
  6
CONTINUOUS
 10
223.7398878805
 20
73.9670609395
 11
223.7636504801
 21
73.9696147117
  0
LINE
  5
2E7
100
AcDbEntity
  8
0
100
AcDbLine
 62
7
  6
CONTINUOUS
 10
223.7274485999
 20
74.5834198998
 11
223.6087816343
 21
74.5706667527
  0
LINE
  5
2E8
100
AcDbEntity
  8
0
100
AcDbLine
 62
7
  6
CONTINUOUS
 10
221.9547248744
 20
74.2667088627
 11
221.7582248744
 21
74.2667088627
  0
LINE
  5
2E9
100
AcDbEntity
  8
0
100
AcDbLine
 62
7
  6
CONTINUOUS
 10
221.7582248744
 20
75.5635426994
 11
231.3212248744
 21
75.5635426994
  0
LINE
  5
2EA
100
AcDbEntity
  8
0
100
AcDbLine
 62
7
  6
CONTINUOUS
 10
221.7582248744
 20
75.7024891819
 11
231.3212248744
 21
75.7024891819
  0
LINE
  5
2EB
100
AcDbEntity
  8
0
100
AcDbLine
 62
7
  6
CONTINUOUS
 10
230.2915998744
 20
75.8455745083
 11
230.4655842494
 21
75.8455745083
  0
LINE
  5
2EC
100
AcDbEntity
  8
0
100
AcDbLine
 62
7
  6
CONTINUOUS
 10
230.2915998744
 20
75.9162851864
 11
230.4655842494
 21
75.9162851864
  0
LINE
  5
2ED
100
AcDbEntity
  8
0
100
AcDbLine
 62
7
  6
CONTINUOUS
 10
230.4655842494
 20
75.9441181011
 11
230.2915998744
 21
75.9441181011
  0
LINE
  5
2EE
100
AcDbEntity
  8
0
100
AcDbLine
 62
7
  6
CONTINUOUS
 10
230.0886181313
 20
76.1412053127
 11
229.9436311244
 21
76.1412053127
  0
LINE
  5
2EF
100
AcDbEntity
  8
0
100
AcDbLine
 62
7
  6
CONTINUOUS
 10
228.8997248744
 20
76.2397489142
 11
229.0447118502
 21
76.2397489142
  0
LINE
  5
2F0
100
AcDbEntity
  8
0
100
AcDbLine
 62
7
  6
CONTINUOUS
 10
229.5376675966
 20
76.2397489142
 11
229.7116519301
 21
76.2397489142
  0
LINE
  5
2F1
100
AcDbEntity
  8
0
100
AcDbLine
 62
7
  6
CONTINUOUS
 10
230.2915998744
 20
76.2397489142
 11
230.4655842494
 21
76.2397489142
  0
LINE
  5
2F2
100
AcDbEntity
  8
0
100
AcDbLine
 62
7
  6
CONTINUOUS
 10
228.8997248744
 20
76.3104595923
 11
229.0447118502
 21
76.3104595923
  0
LINE
  5
2F3
100
AcDbEntity
  8
0
100
AcDbLine
 62
7
  6
CONTINUOUS
 10
229.5376675966
 20
76.3104595923
 11
229.6459447014
 21
76.3104595923
  0
LINE
  5
2F4
100
AcDbEntity
  8
0
100
AcDbLine
 62
7
  6
CONTINUOUS
 10
230.2915998744
 20
76.3104595923
 11
230.4655842494
 21
76.3104595923
  0
LINE
  5
2F5
100
AcDbEntity
  8
0
100
AcDbLine
 62
7
  6
CONTINUOUS
 10
230.4655842494
 20
76.3629284226
 11
230.3495946108
 21
76.3629284226
  0
LINE
  5
2F6
100
AcDbEntity
  8
0
100
AcDbLine
 62
7
  6
CONTINUOUS
 10
230.2915998744
 20
76.9049182351
 11
230.4655842494
 21
76.9049182351
  0
LINE
  5
2F7
100
AcDbEntity
  8
0
100
AcDbLine
 62
7
  6
CONTINUOUS
 10
230.2915998744
 20
76.9756289132
 11
230.4655842494
 21
76.9756289132
  0
LINE
  5
2F8
100
AcDbEntity
  8
0
100
AcDbLine
 62
7
  6
CONTINUOUS
 10
230.8715477358
 20
77.0280977262
 11
230.7265608119
 21
77.0280977262
  0
LINE
  5
2F9
100
AcDbEntity
  8
0
100
AcDbLine
 62
7
  6
CONTINUOUS
 10
230.4655842494
 20
77.0280977262
 11
230.2915998744
 21
77.0280977262
  0
LINE
  5
2FA
100
AcDbEntity
  8
0
100
AcDbLine
 62
7
  6
CONTINUOUS
 10
229.5956623744
 20
77.0280977262
 11
229.4216779994
 21
77.0280977262
  0
LINE
  5
2FB
100
AcDbEntity
  8
0
100
AcDbLine
 62
7
  6
CONTINUOUS
 10
224.6149076768
 20
74.1402160828
 11
224.6891628975
 21
74.1386603039
  0
LINE
  5
2FC
100
AcDbEntity
  8
0
100
AcDbLine
 62
7
  6
CONTINUOUS
 10
223.6667206673
 20
73.959877279
 11
223.6020163087
 21
73.9631220988
  0
LINE
  5
2FD
100
AcDbEntity
  8
0
100
AcDbLine
 62
7
  6
CONTINUOUS
 10
223.5676758664
 20
74.2781382384
 11
223.6323802519
 21
74.2748934105
  0
LINE
  5
2FE
100
AcDbEntity
  8
0
100
AcDbLine
 62
7
  6
CONTINUOUS
 10
223.7057114499
 20
74.5096935121
 11
223.7704158355
 21
74.5064486842
  0
LINE
  5
2FF
100
AcDbEntity
  8
0
100
AcDbLine
 62
7
  6
CONTINUOUS
 10
224.7339486797
 20
74.2069900181
 11
224.6142804547
 21
74.2135718553
  0
LINE
  5
300
100
AcDbEntity
  8
0
100
AcDbLine
 62
7
  6
CONTINUOUS
 10
223.5425560508
 20
73.900639519
 11
223.6449835528
 21
73.8861508708
  0
LINE
  5
301
100
AcDbEntity
  8
0
100
AcDbLine
 62
7
  6
CONTINUOUS
 10
223.5425560508
 20
73.9713501971
 11
223.60199097
 21
73.9629429665
  0
LINE
  5
302
100
AcDbEntity
  8
0
100
AcDbLine
 62
7
  6
CONTINUOUS
 10
223.6918405042
 20
74.3373759808
 11
223.5894130164
 21
74.3518646262
  0
LINE
  5
303
100
AcDbEntity
  8
0
100
AcDbLine
 62
7
  6
CONTINUOUS
 10
223.8298760877
 20
74.5689312545
 11
223.7274485999
 21
74.5834198998
  0
LINE
  5
304
100
AcDbEntity
  8
0
100
AcDbLine
 62
7
  6
CONTINUOUS
 10
223.4482483153
 20
73.9287490565
 11
223.5425560508
 21
73.900639519
  0
LINE
  5
305
100
AcDbEntity
  8
0
100
AcDbLine
 62
7
  6
CONTINUOUS
 10
223.4482483153
 20
73.9994597346
 11
223.5425560508
 21
73.9713501971
  0
LINE
  5
306
100
AcDbEntity
  8
0
100
AcDbLine
 62
7
  6
CONTINUOUS
 10
223.6020163087
 20
73.9631220988
 11
223.4699854575
 21
74.0024754578
  0
LINE
  5
307
100
AcDbEntity
  8
0
100
AcDbLine
 62
7
  6
CONTINUOUS
 10
223.6323802519
 20
74.2748934105
 11
223.7644111032
 21
74.2355400516
  0
LINE
  5
308
100
AcDbEntity
  8
0
100
AcDbLine
 62
7
  6
CONTINUOUS
 10
223.6323802519
 20
74.3456040886
 11
223.7644111032
 21
74.3062507297
  0
LINE
  5
309
100
AcDbEntity
  8
0
100
AcDbLine
 62
7
  6
CONTINUOUS
 10
223.7861482397
 20
74.3092664433
 11
223.6918405042
 21
74.3373759808
  0
LINE
  5
30A
100
AcDbEntity
  8
0
100
AcDbLine
 62
7
  6
CONTINUOUS
 10
223.9857591047
 20
74.3460165891
 11
224.0800668132
 21
74.3179070596
  0
LINE
  5
30B
100
AcDbEntity
  8
0
100
AcDbLine
 62
7
  6
CONTINUOUS
 10
223.9857591047
 20
74.4167272672
 11
224.0800668132
 21
74.3886177377
  0
LINE
  5
30C
100
AcDbEntity
  8
0
100
AcDbLine
 62
7
  6
CONTINUOUS
 10
223.7704158355
 20
74.5064486842
 11
223.8835851288
 21
74.472717236
  0
LINE
  5
30D
100
AcDbEntity
  8
0
100
AcDbLine
 62
7
  6
CONTINUOUS
 10
223.7704158355
 20
74.5771593623
 11
223.8835851288
 21
74.5434279141
  0
LINE
  5
30E
100
AcDbEntity
  8
0
100
AcDbLine
 62
7
  6
CONTINUOUS
 10
223.9053222653
 20
74.5464436277
 11
223.8298760877
 21
74.5689312545
  0
LINE
  5
30F
100
AcDbEntity
  8
0
100
AcDbLine
 62
7
  6
CONTINUOUS
 10
225.2521375034
 20
73.8948971609
 11
225.3082098765
 21
73.8771966451
  0
LINE
  5
310
100
AcDbEntity
  8
0
100
AcDbLine
 62
7
  6
CONTINUOUS
 10
225.2521375034
 20
73.965607839
 11
225.3082098765
 21
73.9479073232
  0
LINE
  5
311
100
AcDbEntity
  8
0
100
AcDbLine
 62
7
  6
CONTINUOUS
 10
225.4083391142
 20
74.0357932661
 11
225.3522667411
 21
74.0534937819
  0
LINE
  5
312
100
AcDbEntity
  8
0
100
AcDbLine
 62
7
  6
CONTINUOUS
 10
224.4253747261
 20
73.6348632329
 11
224.3302490724
 21
73.66537845
  0
LINE
  5
313
100
AcDbEntity
  8
0
100
AcDbLine
 62
7
  6
CONTINUOUS
 10
224.6891628975
 20
74.1386603039
 11
224.7842884564
 21
74.1081451355
  0
LINE
  5
314
100
AcDbEntity
  8
0
100
AcDbLine
 62
7
  6
CONTINUOUS
 10
224.6891628975
 20
74.209370982
 11
224.7842884564
 21
74.1788558136
  0
LINE
  5
315
100
AcDbEntity
  8
0
100
AcDbLine
 62
7
  6
CONTINUOUS
 10
224.2688923984
 20
73.6055451136
 11
224.3805888415
 21
73.56653356
  0
LINE
  5
316
100
AcDbEntity
  8
0
100
AcDbLine
 62
7
  6
CONTINUOUS
 10
224.2688923984
 20
73.6762557917
 11
224.3805888415
 21
73.6372442381
  0
LINE
  5
317
100
AcDbEntity
  8
0
100
AcDbLine
 62
7
  6
CONTINUOUS
 10
224.8456451217
 20
74.1679784635
 11
224.7339486797
 21
74.2069900181
  0
LINE
  5
318
100
AcDbEntity
  8
0
100
AcDbLine
 62
7
  6
CONTINUOUS
 10
226.5397248744
 20
72.8410422922
 11
230.0814275629
 21
71.3951482243
  0
LINE
  5
319
100
AcDbEntity
  8
0
100
AcDbLine
 62
7
  6
CONTINUOUS
 10
226.5397248744
 20
72.9799887747
 11
230.0814275629
 21
71.5340947068
  0
LINE
  5
31A
100
AcDbEntity
  8
0
100
AcDbLine
 62
7
  6
CONTINUOUS
 10
231.3212248744
 20
71.2098862476
 11
226.5397248744
 21
73.1619254485
  0
LINE
  5
31B
100
AcDbEntity
  8
0
100
AcDbLine
 62
7
  6
CONTINUOUS
 10
230.2815998744
 20
69.3582669625
 11
230.1656103188
 21
69.4075387589
  0
LINE
  5
31C
100
AcDbEntity
  8
0
100
AcDbLine
 62
7
  6
CONTINUOUS
 10
230.6295686244
 20
70.3929747911
 11
230.5715738881
 21
70.4176106893
  0
LINE
  5
31D
100
AcDbEntity
  8
0
100
AcDbLine
 62
7
  6
CONTINUOUS
 10
223.362060306
 20
73.9704794954
 11
223.4482483153
 21
73.9287490565
  0
LINE
  5
31E
100
AcDbEntity
  8
0
100
AcDbLine
 62
7
  6
CONTINUOUS
 10
223.362060306
 20
74.0411901735
 11
223.4482483153
 21
73.9994597346
  0
LINE
  5
31F
100
AcDbEntity
  8
0
100
AcDbLine
 62
7
  6
CONTINUOUS
 10
223.8723362632
 20
74.2675360016
 11
223.7861482397
 21
74.3092664433
  0
LINE
  5
320
100
AcDbEntity
  8
0
100
AcDbLine
 62
7
  6
CONTINUOUS
 10
230.0786181313
 20
69.3336310643
 11
230.1656103188
 21
69.2843592679
  0
LINE
  5
321
100
AcDbEntity
  8
0
100
AcDbLine
 62
7
  6
CONTINUOUS
 10
230.0786181313
 20
69.4043417424
 11
230.1656103188
 21
69.355069946
  0
LINE
  5
322
100
AcDbEntity
  8
0
100
AcDbLine
 62
7
  6
CONTINUOUS
 10
230.0786181313
 20
69.7278054789
 11
230.1656103188
 21
69.678533676
  0
LINE
  5
323
100
AcDbEntity
  8
0
100
AcDbLine
 62
7
  6
CONTINUOUS
 10
230.0786181313
 20
69.798516157
 11
230.1656103188
 21
69.7492443541
  0
LINE
  5
324
100
AcDbEntity
  8
0
100
AcDbLine
 62
7
  6
CONTINUOUS
 10
229.0447118502
 20
77.3976362684
 11
228.8997248744
 21
77.3976362684
  0
LINE
  5
325
100
AcDbEntity
  8
0
100
AcDbLine
 62
7
  6
CONTINUOUS
 10
221.9547248744
 20
77.7866864194
 11
231.1247248744
 21
77.7866864194
  0
LINE
  5
326
100
AcDbEntity
  8
0
100
AcDbLine
 62
7
  6
CONTINUOUS
 10
221.9547248744
 20
77.9256329019
 11
231.1247248744
 21
77.9256329019
  0
LINE
  5
327
100
AcDbEntity
  8
0
100
AcDbLine
 62
7
  6
CONTINUOUS
 10
230.1756103188
 20
75.8702104065
 11
230.2915998744
 21
75.8455745083
  0
LINE
  5
328
100
AcDbEntity
  8
0
100
AcDbLine
 62
7
  6
CONTINUOUS
 10
230.1756103188
 20
75.9409210846
 11
230.2915998744
 21
75.9162851864
  0
LINE
  5
329
100
AcDbEntity
  8
0
100
AcDbLine
 62
7
  6
CONTINUOUS
 10
230.1756103188
 20
76.2643848146
 11
230.2915998744
 21
76.2397489142
  0
LINE
  5
32A
100
AcDbEntity
  8
0
100
AcDbLine
 62
7
  6
CONTINUOUS
 10
230.1756103188
 20
76.3350954927
 11
230.2915998744
 21
76.3104595923
  0
LINE
  5
32B
100
AcDbEntity
  8
0
100
AcDbLine
 62
7
  6
CONTINUOUS
 10
230.3495946108
 20
76.3629284226
 11
230.2336050551
 21
76.3875643208
  0
LINE
  5
32C
100
AcDbEntity
  8
0
100
AcDbLine
 62
7
  6
CONTINUOUS
 10
230.4655842494
 20
76.9049182351
 11
230.5815738881
 21
76.8802823369
  0
LINE
  5
32D
100
AcDbEntity
  8
0
100
AcDbLine
 62
7
  6
CONTINUOUS
 10
230.4655842494
 20
76.9756289132
 11
230.5815738881
 21
76.950993015
  0
LINE
  5
32E
100
AcDbEntity
  8
0
100
AcDbLine
 62
7
  6
CONTINUOUS
 10
230.5815738881
 20
77.0034618279
 11
230.4655842494
 21
77.0280977262
  0
LINE
  5
32F
100
AcDbEntity
  8
0
100
AcDbLine
 62
7
  6
CONTINUOUS
 10
230.2915998744
 20
75.9441181011
 11
230.1756103188
 21
75.9933898976
  0
LINE
  5
330
100
AcDbEntity
  8
0
100
AcDbLine
 62
7
  6
CONTINUOUS
 10
223.9915102619
 20
74.504713194
 11
223.9053222653
 21
74.5464436277
  0
LINE
  5
331
100
AcDbEntity
  8
0
100
AcDbLine
 62
7
  6
CONTINUOUS
 10
230.2236050551
 20
69.8017131822
 11
230.1366128676
 21
69.8509849786
  0
LINE
  5
332
100
AcDbEntity
  8
0
100
AcDbLine
 62
7
  6
CONTINUOUS
 10
230.5715738881
 20
70.2944311982
 11
230.6585660756
 21
70.2451594018
  0
LINE
  5
333
100
AcDbEntity
  8
0
100
AcDbLine
 62
7
  6
CONTINUOUS
 10
230.5715738881
 20
70.3651418764
 11
230.6585660756
 21
70.3158700799
  0
LINE
  5
334
100
AcDbEntity
  8
0
100
AcDbLine
 62
7
  6
CONTINUOUS
 10
223.4699854575
 20
74.0024754578
 11
223.4215205497
 21
74.0329620781
  0
LINE
  5
335
100
AcDbEntity
  8
0
100
AcDbLine
 62
7
  6
CONTINUOUS
 10
223.7644111032
 20
74.2355400516
 11
223.812875984
 21
74.2050534393
  0
LINE
  5
336
100
AcDbEntity
  8
0
100
AcDbLine
 62
7
  6
CONTINUOUS
 10
223.7644111032
 20
74.3062507297
 11
223.812875984
 21
74.2757641174
  0
LINE
  5
337
100
AcDbEntity
  8
0
100
AcDbLine
 62
7
  6
CONTINUOUS
 10
223.8835851288
 20
74.472717236
 11
223.9320500366
 21
74.4422306157
  0
LINE
  5
338
100
AcDbEntity
  8
0
100
AcDbLine
 62
7
  6
CONTINUOUS
 10
223.8835851288
 20
74.5434279141
 11
223.9320500366
 21
74.5129412938
  0
LINE
  5
339
100
AcDbEntity
  8
0
100
AcDbLine
 62
7
  6
CONTINUOUS
 10
224.1817386236
 20
73.6684900005
 11
224.2688923984
 21
73.6055451136
  0
LINE
  5
33A
100
AcDbEntity
  8
0
100
AcDbLine
 62
7
  6
CONTINUOUS
 10
224.1817386236
 20
73.7392006786
 11
224.2688923984
 21
73.6762557917
  0
LINE
  5
33B
100
AcDbEntity
  8
0
100
AcDbLine
 62
7
  6
CONTINUOUS
 10
224.9327988976
 20
74.1050335777
 11
224.8456451217
 21
74.1679784635
  0
LINE
  5
33C
100
AcDbEntity
  8
0
100
AcDbLine
 62
7
  6
CONTINUOUS
 10
224.3302490724
 20
73.66537845
 11
224.2596661796
 21
73.7198269495
  0
LINE
  5
33D
100
AcDbEntity
  8
0
100
AcDbLine
 62
7
  6
CONTINUOUS
 10
225.2460999135
 20
82.3935999311
 11
225.082349894
 21
82.3640368532
  0
LINE
  5
33E
100
AcDbEntity
  8
0
100
AcDbLine
 62
7
  6
CONTINUOUS
 10
224.836724894
 20
83.5761231904
 11
224.6729748744
 21
83.5465601125
  0
LINE
  5
33F
100
AcDbEntity
  8
0
100
AcDbLine
 62
7
  6
CONTINUOUS
 10
225.082349894
 20
82.1866583654
 11
225.2870373744
 21
82.2162214458
  0
LINE
  5
340
100
AcDbEntity
  8
0
100
AcDbLine
 62
7
  6
CONTINUOUS
 10
225.082349894
 20
82.3256048479
 11
225.2870373744
 21
82.3551679283
  0
LINE
  5
341
100
AcDbEntity
  8
0
100
AcDbLine
 62
7
  6
CONTINUOUS
 10
223.8875641199
 20
81.1301791933
 11
223.988902721
 21
81.1437232116
  0
LINE
  5
342
100
AcDbEntity
  8
0
100
AcDbLine
 62
7
  6
CONTINUOUS
 10
223.8875641199
 20
81.2008898715
 11
223.988902721
 21
81.2144338897
  0
LINE
  5
343
100
AcDbEntity
  8
0
100
AcDbLine
 62
7
  6
CONTINUOUS
 10
224.1491092705
 20
80.8217876051
 11
224.0754572922
 21
80.8149295885
  0
LINE
  5
344
100
AcDbEntity
  8
0
100
AcDbLine
 62
7
  6
CONTINUOUS
 10
224.0466953142
 20
80.7424160985
 11
224.1663126504
 21
80.7494461334
  0
LINE
  5
345
100
AcDbEntity
  8
0
100
AcDbLine
 62
7
  6
CONTINUOUS
 10
224.0466953142
 20
80.8131267766
 11
224.0754638777
 21
80.8148175349
  0
LINE
  5
346
100
AcDbEntity
  8
0
100
AcDbLine
 62
7
  6
CONTINUOUS
 10
224.1492640005
 20
80.8191548447
 11
224.1663126504
 21
80.8201568115
  0
LINE
  5
347
100
AcDbEntity
  8
0
100
AcDbLine
 62
7
  6
CONTINUOUS
 10
224.0176646932
 20
81.2162366936
 11
223.8980473594
 21
81.2092066621
  0
LINE
  5
348
100
AcDbEntity
  8
0
100
AcDbLine
 62
7
  6
CONTINUOUS
 10
221.9547248744
 20
81.260348482
 11
221.7582248744
 21
81.260348482
  0
LINE
  5
349
100
AcDbEntity
  8
RUNDUNGEN
100
AcDbLine
 62
7
  6
CONTINUOUS
 10
217.5397248744
 20
81.471254115
 11
224.0397248744
 21
81.471254115
  0
LINE
  5
34A
100
AcDbEntity
  8
RUNDUNGEN
100
AcDbLine
 62
7
  6
CONTINUOUS
 10
229.0397248744
 20
81.471254115
 11
238.0397248744
 21
81.471254115
  0
LINE
  5
34B
100
AcDbEntity
  8
0
100
AcDbLine
 62
7
  6
CONTINUOUS
 10
224.7548498549
 20
82.1866583654
 11
225.082349894
 21
82.1866583654
  0
LINE
  5
34C
100
AcDbEntity
  8
0
100
AcDbLine
 62
7
  6
CONTINUOUS
 10
224.7548498549
 20
82.3256048479
 11
225.082349894
 21
82.3256048479
  0
LINE
  5
34D
100
AcDbEntity
  8
0
100
AcDbLine
 62
7
  6
CONTINUOUS
 10
225.082349894
 20
82.3640368532
 11
224.7548498549
 21
82.3640368532
  0
LINE
  5
34E
100
AcDbEntity
  8
0
100
AcDbLine
 62
7
  6
CONTINUOUS
 10
228.8322248744
 20
82.4615950143
 11
229.0397248744
 21
82.4615950143
  0
LINE
  5
34F
100
AcDbEntity
  8
0
100
AcDbLine
 62
7
  6
CONTINUOUS
 10
224.4273498744
 20
82.5709784189
 11
224.1817248744
 21
82.5709784189
  0
LINE
  5
350
100
AcDbEntity
  8
0
100
AcDbLine
 62
7
  6
CONTINUOUS
 10
228.8322248744
 20
82.6005414968
 11
229.0397248744
 21
82.6005414968
  0
LINE
  5
351
100
AcDbEntity
  8
0
100
AcDbLine
 62
7
  6
CONTINUOUS
 10
224.836724894
 20
82.8074830832
 11
225.082349894
 21
82.8074830832
  0
LINE
  5
352
100
AcDbEntity
  8
0
100
AcDbLine
 62
7
  6
CONTINUOUS
 10
224.836724894
 20
82.9464295657
 11
225.082349894
 21
82.9464295657
  0
LINE
  5
353
100
AcDbEntity
  8
0
100
AcDbLine
 62
7
  6
CONTINUOUS
 10
225.082349894
 20
82.9848615504
 11
224.836724894
 21
82.9848615504
  0
LINE
  5
354
100
AcDbEntity
  8
0
100
AcDbLine
 62
7
  6
CONTINUOUS
 10
225.3279748354
 20
83.2509293339
 11
225.5735998354
 21
83.2509293339
  0
LINE
  5
355
100
AcDbEntity
  8
0
100
AcDbLine
 62
7
  6
CONTINUOUS
 10
225.3279748354
 20
83.3898758164
 11
225.4102159814
 21
83.3898758164
  0
LINE
  5
356
100
AcDbEntity
  8
0
100
AcDbLine
 62
7
  6
CONTINUOUS
 10
224.836724894
 20
83.3987447232
 11
225.082349894
 21
83.3987447232
  0
LINE
  5
357
100
AcDbEntity
  8
0
100
AcDbLine
 62
7
  6
CONTINUOUS
 10
224.836724894
 20
83.5376912057
 11
225.082349894
 21
83.5376912057
  0
LINE
  5
358
100
AcDbEntity
  8
0
100
AcDbLine
 62
7
  6
CONTINUOUS
 10
225.0414123744
 20
83.5761231904
 11
224.836724894
 21
83.5761231904
  0
LINE
  5
359
100
AcDbEntity
  8
0
100
AcDbLine
 62
7
  6
CONTINUOUS
 10
224.5501623744
 20
82.2162214458
 11
224.7548498549
 21
82.1866583654
  0
LINE
  5
35A
100
AcDbEntity
  8
0
100
AcDbLine
 62
7
  6
CONTINUOUS
 10
224.5501623744
 20
82.3551679283
 11
224.7548498549
 21
82.3256048479
  0
LINE
  5
35B
100
AcDbEntity
  8
0
100
AcDbLine
 62
7
  6
CONTINUOUS
 10
225.2870373744
 20
82.9552984725
 11
225.082349894
 21
82.9848615504
  0
LINE
  5
35C
100
AcDbEntity
  8
0
100
AcDbLine
 62
7
  6
CONTINUOUS
 10
225.2135708662
 20
83.5512582918
 11
225.0414123744
 21
83.5761231904
  0
LINE
  5
35D
100
AcDbEntity
  8
0
100
AcDbLine
 62
7
  6
CONTINUOUS
 10
224.0754572922
 20
80.8149295885
 11
223.992934785
 21
80.8277854354
  0
LINE
  5
35E
100
AcDbEntity
  8
0
100
AcDbLine
 62
7
  6
CONTINUOUS
 10
223.988902721
 20
81.1437232116
 11
224.0714252282
 21
81.1308673647
  0
LINE
  5
35F
100
AcDbEntity
  8
0
100
AcDbLine
 62
7
  6
CONTINUOUS
 10
223.988902721
 20
81.2144338897
 11
224.0714252282
 21
81.2015780428
  0
LINE
  5
360
100
AcDbEntity
  8
0
100
AcDbLine
 62
7
  6
CONTINUOUS
 10
223.0901253824
 20
80.9995750908
 11
223.2091809506
 21
80.9782598164
  0
LINE
  5
361
100
AcDbEntity
  8
0
100
AcDbLine
 62
7
  6
CONTINUOUS
 10
223.1139195488
 20
81.0660257482
 11
223.2091809506
 21
81.0489704945
  0
LINE
  5
362
100
AcDbEntity
  8
0
100
AcDbLine
 62
7
  6
CONTINUOUS
 10
222.6857364536
 20
81.2854472476
 11
223.1619587262
 21
81.2001861498
  0
LINE
  5
363
100
AcDbEntity
  8
0
100
AcDbLine
 62
7
  6
CONTINUOUS
 10
223.2810142944
 20
81.1788708754
 11
223.4794402224
 21
81.1433454214
  0
LINE
  5
364
100
AcDbEntity
  8
0
100
AcDbLine
 62
7
  6
CONTINUOUS
 10
222.7129178247
 20
81.3512914722
 11
223.1619587262
 21
81.2708968279
  0
LINE
  5
365
100
AcDbEntity
  8
0
100
AcDbLine
 62
7
  6
CONTINUOUS
 10
223.2810142944
 20
81.2495815535
 11
223.4794402224
 21
81.2140560995
  0
LINE
  5
366
100
AcDbEntity
  8
0
100
AcDbLine
 62
7
  6
CONTINUOUS
 10
223.5102259452
 20
81.229321601
 11
223.3118000172
 21
81.264847055
  0
LINE
  5
367
100
AcDbEntity
  8
0
100
AcDbLine
 62
7
  6
CONTINUOUS
 10
223.1927444491
 20
81.2861623294
 11
222.8554203346
 21
81.3465556078
  0
LINE
  5
368
100
AcDbEntity
  8
0
100
AcDbLine
 62
7
  6
CONTINUOUS
 10
224.7548498549
 20
82.3640368532
 11
224.5910998647
 21
82.3935999311
  0
LINE
  5
369
100
AcDbEntity
  8
0
100
AcDbLine
 62
7
  6
CONTINUOUS
 10
224.6729748744
 20
82.8370461611
 11
224.836724894
 21
82.8074830832
  0
LINE
  5
36A
100
AcDbEntity
  8
0
100
AcDbLine
 62
7
  6
CONTINUOUS
 10
225.082349894
 20
82.8074830832
 11
225.2460999135
 21
82.7779200054
  0
LINE
  5
36B
100
AcDbEntity
  8
0
100
AcDbLine
 62
7
  6
CONTINUOUS
 10
224.6729748744
 20
82.9759926436
 11
224.836724894
 21
82.9464295657
  0
LINE
  5
36C
100
AcDbEntity
  8
0
100
AcDbLine
 62
7
  6
CONTINUOUS
 10
225.082349894
 20
82.9464295657
 11
225.2460999135
 21
82.9168664879
  0
LINE
  5
36D
100
AcDbEntity
  8
0
100
AcDbLine
 62
7
  6
CONTINUOUS
 10
223.9458942825
 20
80.7617858565
 11
224.0466953142
 21
80.7424160985
  0
LINE
  5
36E
100
AcDbEntity
  8
0
100
AcDbLine
 62
7
  6
CONTINUOUS
 10
223.9458942825
 20
80.8324965346
 11
224.0466953142
 21
80.8131267766
  0
LINE
  5
36F
100
AcDbEntity
  8
0
100
AcDbLine
 62
7
  6
CONTINUOUS
 10
224.1184657241
 20
81.1968669344
 11
224.0176646932
 21
81.2162366936
  0
LINE
  5
370
100
AcDbEntity
  8
0
100
AcDbLine
 62
7
  6
CONTINUOUS
 10
224.836724894
 20
82.9848615504
 11
224.713912394
 21
83.0144246282
  0
LINE
  5
371
100
AcDbEntity
  8
0
100
AcDbLine
 62
7
  6
CONTINUOUS
 10
225.082349894
 20
83.3987447232
 11
225.2051623354
 21
83.3691816454
  0
LINE
  5
372
100
AcDbEntity
  8
0
100
AcDbLine
 62
7
  6
CONTINUOUS
 10
225.082349894
 20
83.5376912057
 11
225.2051623354
 21
83.5081281279
  0
LINE
  5
373
100
AcDbEntity
  8
0
100
AcDbLine
 62
7
  6
CONTINUOUS
 10
224.9440615515
 20
81.1375911418
 11
225.0019670517
 21
81.1231398341
  0
LINE
  5
374
100
AcDbEntity
  8
0
100
AcDbLine
 62
7
  6
CONTINUOUS
 10
224.9440615515
 20
81.2083018199
 11
225.0019670517
 21
81.1938505122
  0
LINE
  5
375
100
AcDbEntity
  8
0
100
AcDbLine
 62
7
  6
CONTINUOUS
 10
225.0837159931
 20
81.2869213214
 11
225.025810493
 21
81.3013726291
  0
LINE
  5
376
100
AcDbEntity
  8
0
100
AcDbLine
 62
7
  6
CONTINUOUS
 10
223.8362227227
 20
80.8008694791
 11
223.9458942825
 21
80.7617858565
  0
LINE
  5
377
100
AcDbEntity
  8
0
100
AcDbLine
 62
7
  6
CONTINUOUS
 10
223.8362227227
 20
80.8715801572
 11
223.9458942825
 21
80.8324965346
  0
LINE
  5
378
100
AcDbEntity
  8
0
100
AcDbLine
 62
7
  6
CONTINUOUS
 10
223.992934785
 20
80.8277854354
 11
223.8832632251
 21
80.8668690581
  0
LINE
  5
379
100
AcDbEntity
  8
0
100
AcDbLine
 62
7
  6
CONTINUOUS
 10
223.7846125861
 20
81.0178938989
 11
223.6749410262
 21
81.0569775215
  0
LINE
  5
37A
100
AcDbEntity
  8
0
100
AcDbLine
 62
7
  6
CONTINUOUS
 10
223.7596139319
 20
81.1757767655
 11
223.8875641199
 21
81.1301791933
  0
LINE
  5
37B
100
AcDbEntity
  8
0
100
AcDbLine
 62
7
  6
CONTINUOUS
 10
224.0714252282
 20
81.1308673647
 11
224.1810967881
 21
81.0917837421
  0
LINE
  5
37C
100
AcDbEntity
  8
0
100
AcDbLine
 62
7
  6
CONTINUOUS
 10
223.7998039948
 20
81.2321649223
 11
223.8875641199
 21
81.2008898715
  0
LINE
  5
37D
100
AcDbEntity
  8
0
100
AcDbLine
 62
7
  6
CONTINUOUS
 10
224.0714252282
 20
81.2015780428
 11
224.1810967881
 21
81.1624944202
  0
LINE
  5
37E
100
AcDbEntity
  8
0
100
AcDbLine
 62
7
  6
CONTINUOUS
 10
224.2281372839
 20
81.1577833118
 11
224.1184657241
 21
81.1968669344
  0
LINE
  5
37F
100
AcDbEntity
  8
0
100
AcDbLine
 62
7
  6
CONTINUOUS
 10
224.0485769725
 20
81.4204053222
 11
224.5786562481
 21
81.2315011213
  0
LINE
  5
380
100
AcDbEntity
  8
0
100
AcDbLine
 62
7
  6
CONTINUOUS
 10
224.0485769725
 20
81.4911160003
 11
224.5786562481
 21
81.3022117994
  0
LINE
  5
381
100
AcDbEntity
  8
0
100
AcDbLine
 62
7
  6
CONTINUOUS
 10
224.625696744
 20
81.297500691
 11
224.0508141464
 21
81.5023714391
  0
LINE
  5
382
100
AcDbEntity
  8
0
100
AcDbLine
 62
7
  6
CONTINUOUS
 10
224.5092248842
 20
82.8961723168
 11
224.6729748744
 21
82.8370461611
  0
LINE
  5
383
100
AcDbEntity
  8
0
100
AcDbLine
 62
7
  6
CONTINUOUS
 10
224.5092248842
 20
83.0351187993
 11
224.6729748744
 21
82.9759926436
  0
LINE
  5
384
100
AcDbEntity
  8
0
100
AcDbLine
 62
7
  6
CONTINUOUS
 10
225.4507873354
 20
82.8961723168
 11
225.2870373744
 21
82.9552984725
  0
LINE
  5
385
100
AcDbEntity
  8
0
100
AcDbLine
 62
7
  6
CONTINUOUS
 10
230.6395686244
 20
76.9788259297
 11
230.5815738881
 21
77.0034618279
  0
LINE
  5
386
100
AcDbEntity
  8
0
100
AcDbLine
 62
7
  6
CONTINUOUS
 10
224.3454748793
 20
82.3049106871
 11
224.5501623744
 21
82.2162214458
  0
LINE
  5
387
100
AcDbEntity
  8
0
100
AcDbLine
 62
7
  6
CONTINUOUS
 10
224.3454748793
 20
82.4438571697
 11
224.5501623744
 21
82.3551679283
  0
LINE
  5
388
100
AcDbEntity
  8
0
100
AcDbLine
 62
7
  6
CONTINUOUS
 10
223.754237891
 20
80.8466390673
 11
223.8362227227
 21
80.8008694791
  0
LINE
  5
389
100
AcDbEntity
  8
0
100
AcDbLine
 62
7
  6
CONTINUOUS
 10
223.754237891
 20
80.9173497454
 11
223.8362227227
 21
80.8715801572
  0
LINE
  5
38A
100
AcDbEntity
  8
0
100
AcDbLine
 62
7
  6
CONTINUOUS
 10
224.3101221164
 20
81.1120137247
 11
224.2281372839
 21
81.1577833118
  0
LINE
  5
38B
100
AcDbEntity
  8
0
100
AcDbLine
 62
7
  6
CONTINUOUS
 10
230.0886181313
 20
75.9194822029
 11
230.1756103188
 21
75.8702104065
  0
LINE
  5
38C
100
AcDbEntity
  8
0
100
AcDbLine
 62
7
  6
CONTINUOUS
 10
230.0886181313
 20
75.990192881
 11
230.1756103188
 21
75.9409210846
  0
LINE
  5
38D
100
AcDbEntity
  8
0
100
AcDbLine
 62
7
  6
CONTINUOUS
 10
230.0886181313
 20
76.3136566175
 11
230.1756103188
 21
76.2643848146
  0
LINE
  5
38E
100
AcDbEntity
  8
0
100
AcDbLine
 62
7
  6
CONTINUOUS
 10
230.0886181313
 20
76.3843672956
 11
230.1756103188
 21
76.3350954927
  0
LINE
  5
38F
100
AcDbEntity
  8
0
100
AcDbLine
 62
7
  6
CONTINUOUS
 10
230.2336050551
 20
76.3875643208
 11
230.1466128676
 21
76.4368361172
  0
LINE
  5
390
100
AcDbEntity
  8
0
100
AcDbLine
 62
7
  6
CONTINUOUS
 10
230.5815738881
 20
76.8802823369
 11
230.6685660756
 21
76.8310105404
  0
LINE
  5
391
100
AcDbEntity
  8
0
100
AcDbLine
 62
7
  6
CONTINUOUS
 10
230.5815738881
 20
76.950993015
 11
230.6685660756
 21
76.9017212185
  0
LINE
  5
392
100
AcDbEntity
  8
0
100
AcDbLine
 62
7
  6
CONTINUOUS
 10
223.8832632251
 20
80.8668690581
 11
223.8195569162
 21
80.9061247328
  0
LINE
  5
393
100
AcDbEntity
  8
0
100
AcDbLine
 62
7
  6
CONTINUOUS
 10
224.7842884564
 20
74.1081451355
 11
224.8548714439
 21
74.0536965873
  0
LINE
  5
394
100
AcDbEntity
  8
0
100
AcDbLine
 62
7
  6
CONTINUOUS
 10
224.7842884564
 20
74.1788558136
 11
224.8548714439
 21
74.1244072655
  0
LINE
  5
395
100
AcDbEntity
  8
0
100
AcDbLine
 62
7
  6
CONTINUOUS
 10
229.9916259438
 20
69.4075387589
 11
230.0786181313
 21
69.3336310643
  0
LINE
  5
396
100
AcDbEntity
  8
0
100
AcDbLine
 62
7
  6
CONTINUOUS
 10
229.9916259438
 20
69.4782494371
 11
230.0786181313
 21
69.4043417424
  0
LINE
  5
397
100
AcDbEntity
  8
0
100
AcDbLine
 62
7
  6
CONTINUOUS
 10
229.9916259438
 20
69.8017131822
 11
230.0786181313
 21
69.7278054789
  0
LINE
  5
398
100
AcDbEntity
  8
0
100
AcDbLine
 62
7
  6
CONTINUOUS
 10
229.9916259438
 20
69.8724238603
 11
230.0786181313
 21
69.798516157
  0
LINE
  5
399
100
AcDbEntity
  8
0
100
AcDbLine
 62
7
  6
CONTINUOUS
 10
230.6875633608
 20
70.3437029947
 11
230.6295686244
 21
70.3929747911
  0
LINE
  5
39A
100
AcDbEntity
  8
0
100
AcDbLine
 62
7
  6
CONTINUOUS
 10
223.2921117757
 20
74.0394517291
 11
223.362060306
 21
73.9704794954
  0
LINE
  5
39B
100
AcDbEntity
  8
0
100
AcDbLine
 62
7
  6
CONTINUOUS
 10
223.2921117757
 20
74.1101624072
 11
223.362060306
 21
74.0411901735
  0
LINE
  5
39C
100
AcDbEntity
  8
0
100
AcDbLine
 62
7
  6
CONTINUOUS
 10
223.9422847551
 20
74.1985637835
 11
223.8723362632
 21
74.2675360016
  0
LINE
  5
39D
100
AcDbEntity
  8
0
100
AcDbLine
 62
7
  6
CONTINUOUS
 10
224.0614588077
 20
74.4357409599
 11
223.9915102619
 21
74.504713194
  0
LINE
  5
39E
100
AcDbEntity
  8
RUNDUNGEN
100
AcDbLine
 62
7
  6
CONTINUOUS
 10
230.6832617816
 20
65.7350570539
 11
228.4712853949
 21
67.9688283539
  0
LINE
  5
39F
100
AcDbEntity
  8
RUNDUNGEN
100
AcDbLine
 62
7
  6
CONTINUOUS
 10
219.3745158409
 20
77.1552296528
 11
209.2763823721
 21
87.3528614454
  0
LINE
  5
3A0
100
AcDbEntity
  8
0
100
AcDbLine
 62
7
  6
CONTINUOUS
 10
224.713912394
 20
83.3691816454
 11
224.836724894
 21
83.3987447232
  0
LINE
  5
3A1
100
AcDbEntity
  8
0
100
AcDbLine
 62
7
  6
CONTINUOUS
 10
224.713912394
 20
83.5081281279
 11
224.836724894
 21
83.5376912057
  0
LINE
  5
3A2
100
AcDbEntity
  8
0
100
AcDbLine
 62
7
  6
CONTINUOUS
 10
229.0397248744
 20
85.271254115
 11
224.0397248744
 21
85.271254115
  0
LINE
  5
3A3
100
AcDbEntity
  8
0
100
AcDbLine
 62
7
  6
CONTINUOUS
 10
224.0397248744
 20
86.169699737
 11
229.0397248744
 21
86.169699737
  0
LINE
  5
3A4
100
AcDbEntity
  8
0
100
AcDbLine
 62
7
  6
CONTINUOUS
 10
224.713912394
 20
83.0144246282
 11
224.5910998647
 21
83.073550784
  0
LINE
  5
3A5
100
AcDbEntity
  8
0
100
AcDbLine
 62
7
  6
CONTINUOUS
 10
225.2460999135
 20
82.7779200054
 11
225.3689124135
 21
82.7187938496
  0
LINE
  5
3A6
100
AcDbEntity
  8
0
100
AcDbLine
 62
7
  6
CONTINUOUS
 10
225.2460999135
 20
82.9168664879
 11
225.3689124135
 21
82.8577403322
  0
LINE
  5
3A7
100
AcDbEntity
  8
0
100
AcDbLine
 62
7
  6
CONTINUOUS
 10
224.1810967881
 20
81.0917837421
 11
224.244803097
 21
81.0525280673
  0
LINE
  5
3A8
100
AcDbEntity
  8
0
100
AcDbLine
 62
7
  6
CONTINUOUS
 10
224.1810967881
 20
81.1624944202
 11
224.244803097
 21
81.1232387454
  0
LINE
  5
3A9
100
AcDbEntity
  8
0
100
AcDbLine
 62
7
  6
CONTINUOUS
 10
226.5397248744
 20
80.933734154
 11
230.7671768008
 21
77.9256329019
  0
LINE
  5
3AA
100
AcDbEntity
  8
0
100
AcDbLine
 62
7
  6
CONTINUOUS
 10
226.5397248744
 20
81.0726806365
 11
230.7671768008
 21
78.0645793844
  0
LINE
  5
3AB
100
AcDbEntity
  8
0
100
AcDbLine
 62
7
  6
CONTINUOUS
 10
231.3212248744
 20
77.9256329019
 11
226.5397248744
 21
81.3279746405
  0
LINE
  5
3AC
100
AcDbEntity
  8
0
100
AcDbLine
 62
7
  6
CONTINUOUS
 10
224.5910998647
 20
82.3935999311
 11
224.4682873647
 21
82.4822891854
  0
LINE
  5
3AD
100
AcDbEntity
  8
0
100
AcDbLine
 62
7
  6
CONTINUOUS
 10
224.3454748793
 20
83.0144246282
 11
224.5092248842
 21
82.8961723168
  0
LINE
  5
3AE
100
AcDbEntity
  8
0
100
AcDbLine
 62
7
  6
CONTINUOUS
 10
224.3454748793
 20
83.1533711107
 11
224.5092248842
 21
83.0351187993
  0
LINE
  5
3AF
100
AcDbEntity
  8
0
100
AcDbLine
 62
7
  6
CONTINUOUS
 10
230.0016259438
 20
75.9933898976
 11
230.0886181313
 21
75.9194822029
  0
LINE
  5
3B0
100
AcDbEntity
  8
0
100
AcDbLine
 62
7
  6
CONTINUOUS
 10
230.0016259438
 20
76.0641005757
 11
230.0886181313
 21
75.990192881
  0
LINE
  5
3B1
100
AcDbEntity
  8
0
100
AcDbLine
 62
7
  6
CONTINUOUS
 10
230.0016259438
 20
76.3875643208
 11
230.0886181313
 21
76.3136566175
  0
LINE
  5
3B2
100
AcDbEntity
  8
0
100
AcDbLine
 62
7
  6
CONTINUOUS
 10
230.0016259438
 20
76.4582749989
 11
230.0886181313
 21
76.3843672956
  0
LINE
  5
3B3
100
AcDbEntity
  8
RUNDUNGEN
100
AcDbLine
 62
7
  6
CONTINUOUS
 10
215.8517773073
 20
86.1370116507
 11
212.880651367
 21
89.1374125112
  0
LINE
  5
3B4
100
AcDbEntity
  8
RUNDUNGEN
100
AcDbLine
 62
7
  6
CONTINUOUS
 10
215.8517773073
 20
87.5512252131
 11
212.880651367
 21
90.5516260736
  0
LINE
  5
3B5
100
AcDbEntity
  8
0
100
AcDbLine
 62
7
  6
CONTINUOUS
 10
229.7016519301
 20
69.6538977756
 11
229.2666910341
 21
70.1219799107
  0
LINE
  5
3B6
100
AcDbEntity
  8
0
100
AcDbLine
 62
7
  6
CONTINUOUS
 10
223.4215205497
 20
74.0329620781
 11
223.3811753807
 21
74.0770695946
  0
LINE
  5
3B7
100
AcDbEntity
  8
0
100
AcDbLine
 62
7
  6
CONTINUOUS
 10
223.812875984
 20
74.2050534393
 11
223.853221153
 21
74.1609459228
  0
LINE
  5
3B8
100
AcDbEntity
  8
0
100
AcDbLine
 62
7
  6
CONTINUOUS
 10
223.812875984
 20
74.2757641174
 11
223.853221153
 21
74.2316566009
  0
LINE
  5
3B9
100
AcDbEntity
  8
0
100
AcDbLine
 62
7
  6
CONTINUOUS
 10
223.9320500366
 20
74.4422306157
 11
223.9723952056
 21
74.3981230991
  0
LINE
  5
3BA
100
AcDbEntity
  8
0
100
AcDbLine
 62
7
  6
CONTINUOUS
 10
223.9320500366
 20
74.5129412938
 11
223.9723952056
 21
74.4688337773
  0
LINE
  5
3BB
100
AcDbEntity
  8
0
100
AcDbLine
 62
7
  6
CONTINUOUS
 10
229.1796988259
 20
70.0480721816
 11
229.5276675966
 21
69.6538977756
  0
LINE
  5
3BC
100
AcDbEntity
  8
0
100
AcDbLine
 62
7
  6
CONTINUOUS
 10
229.1796988259
 20
70.1187828597
 11
229.5276675966
 21
69.7246084537
  0
LINE
  5
3BD
100
AcDbEntity
  8
0
100
AcDbLine
 62
7
  6
CONTINUOUS
 10
224.0397248744
 20
89.9728084929
 11
229.0397248744
 21
89.9728084929
  0
LINE
  5
3BE
100
AcDbEntity
  8
0
100
AcDbLine
 62
7
  6
CONTINUOUS
 10
229.0397248744
 20
90.871254115
 11
224.0397248744
 21
90.871254115
  0
LINE
  5
3BF
100
AcDbEntity
  8
0
100
AcDbLine
 62
7
  6
CONTINUOUS
 10
225.6145374135
 20
82.7779200054
 11
225.4507873354
 21
82.8961723168
  0
LINE
  5
3C0
100
AcDbEntity
  8
0
100
AcDbLine
 62
7
  6
CONTINUOUS
 10
225.2051623354
 20
83.3691816454
 11
225.2870373744
 21
83.3100554897
  0
LINE
  5
3C1
100
AcDbEntity
  8
0
100
AcDbLine
 62
7
  6
CONTINUOUS
 10
225.2051623354
 20
83.5081281279
 11
225.2870373744
 21
83.4490019722
  0
LINE
  5
3C2
100
AcDbEntity
  8
0
100
AcDbLine
 62
7
  6
CONTINUOUS
 10
230.6975633608
 20
76.9295541333
 11
230.6395686244
 21
76.9788259297
  0
LINE
  5
3C3
100
AcDbEntity
  8
RUNDUNGEN
100
AcDbLine
 62
7
  6
CONTINUOUS
 10
233.7049339079
 20
72.3734439561
 11
239.6843586415
 21
66.3351031129
  0
LINE
  5
3C4
100
AcDbEntity
  8
RUNDUNGEN
100
AcDbLine
 62
7
  6
CONTINUOUS
 10
233.7049339079
 20
73.7876575185
 11
239.6843586415
 21
67.7493166753
  0
LINE
  5
3C5
100
AcDbEntity
  8
0
100
AcDbLine
 62
7
  6
CONTINUOUS
 10
229.7116519301
 20
76.2397489142
 11
229.2766910341
 21
76.7078310493
  0
LINE
  5
3C6
100
AcDbEntity
  8
0
100
AcDbLine
 62
7
  6
CONTINUOUS
 10
229.1896988259
 20
76.6339233202
 11
229.5376675966
 21
76.2397489142
  0
LINE
  5
3C7
100
AcDbEntity
  8
0
100
AcDbLine
 62
7
  6
CONTINUOUS
 10
229.1896988259
 20
76.7046339983
 11
229.5376675966
 21
76.3104595923
  0
LINE
  5
3C8
100
AcDbEntity
  8
0
100
AcDbLine
 62
7
  6
CONTINUOUS
 10
223.6910691547
 20
80.918808523
 11
223.754237891
 21
80.8466390673
  0
LINE
  5
3C9
100
AcDbEntity
  8
0
100
AcDbLine
 62
7
  6
CONTINUOUS
 10
223.6910691547
 20
80.9895192011
 11
223.754237891
 21
80.9173497454
  0
LINE
  5
3CA
100
AcDbEntity
  8
0
100
AcDbLine
 62
7
  6
CONTINUOUS
 10
224.3732908552
 20
81.0398442725
 11
224.3101221164
 21
81.1120137247
  0
LINE
  5
3CB
100
AcDbEntity
  8
0
100
AcDbLine
 62
7
  6
CONTINUOUS
 10
230.1656103188
 20
69.4075387589
 11
230.1076154994
 21
69.4814464708
  0
LINE
  5
3CC
100
AcDbEntity
  8
0
100
AcDbLine
 62
7
  6
CONTINUOUS
 10
230.6585660756
 20
70.2451594018
 11
230.7165608119
 21
70.1712517072
  0
LINE
  5
3CD
100
AcDbEntity
  8
0
100
AcDbLine
 62
7
  6
CONTINUOUS
 10
230.6585660756
 20
70.3158700799
 11
230.7165608119
 21
70.2419623853
  0
LINE
  5
3CE
100
AcDbEntity
  8
0
100
AcDbLine
 62
7
  6
CONTINUOUS
 10
223.8195569162
 20
80.9061247328
 11
223.7835373346
 21
80.9520663721
  0
LINE
  5
3CF
100
AcDbEntity
  8
0
100
AcDbLine
 62
7
  6
CONTINUOUS
 10
224.244803097
 20
81.0525280673
 11
224.2808226786
 21
81.0065864281
  0
LINE
  5
3D0
100
AcDbEntity
  8
0
100
AcDbLine
 62
7
  6
CONTINUOUS
 10
224.244803097
 20
81.1232387454
 11
224.2808226786
 21
81.0772971062
  0
LINE
  5
3D1
100
AcDbEntity
  8
0
100
AcDbLine
 62
7
  6
CONTINUOUS
 10
224.1356984002
 20
73.7468718344
 11
224.1817386236
 21
73.6684900005
  0
LINE
  5
3D2
100
AcDbEntity
  8
0
100
AcDbLine
 62
7
  6
CONTINUOUS
 10
224.1356984002
 20
73.8175825125
 11
224.1817386236
 21
73.7392006786
  0
LINE
  5
3D3
100
AcDbEntity
  8
RUNDUNGEN
100
AcDbLine
 62
7
  6
CONTINUOUS
 10
239.6369737367
 20
86.249300384
 11
241.2162988781
 21
85.4673425534
  0
LINE
  5
3D4
100
AcDbEntity
  8
0
100
AcDbLine
 62
7
  6
CONTINUOUS
 10
225.3689124135
 20
82.7187938496
 11
225.4507873354
 21
82.6301045747
  0
LINE
  5
3D5
100
AcDbEntity
  8
0
100
AcDbLine
 62
7
  6
CONTINUOUS
 10
225.3689124135
 20
82.8577403322
 11
225.4507873354
 21
82.7690510572
  0
LINE
  5
3D6
100
AcDbEntity
  8
0
100
AcDbLine
 62
7
  6
CONTINUOUS
 10
224.2226623757
 20
82.4527261075
 11
224.3454748793
 21
82.3049106871
  0
LINE
  5
3D7
100
AcDbEntity
  8
0
100
AcDbLine
 62
7
  6
CONTINUOUS
 10
224.2398561363
 20
82.5709784189
 11
224.3454748793
 21
82.4438571697
  0
LINE
  5
3D8
100
AcDbEntity
  8
0
100
AcDbLine
 62
7
  6
CONTINUOUS
 10
230.1756103188
 20
75.9933898976
 11
230.1176154994
 21
76.0672976095
  0
LINE
  5
3D9
100
AcDbEntity
  8
0
100
AcDbLine
 62
7
  6
CONTINUOUS
 10
230.6685660756
 20
76.8310105404
 11
230.7265608119
 21
76.7571028458
  0
LINE
  5
3DA
100
AcDbEntity
  8
0
100
AcDbLine
 62
7
  6
CONTINUOUS
 10
230.6685660756
 20
76.9017212185
 11
230.7265608119
 21
76.8278135239
  0
LINE
  5
3DB
100
AcDbEntity
  8
0
100
AcDbLine
 62
7
  6
CONTINUOUS
 10
225.6964123354
 20
82.6596676525
 11
225.6145374135
 21
82.7779200054
  0
LINE
  5
3DC
100
AcDbEntity
  8
0
100
AcDbLine
 62
7
  6
CONTINUOUS
 10
225.2870373744
 20
83.3100554897
 11
225.3279748354
 21
83.2509293339
  0
LINE
  5
3DD
100
AcDbEntity
  8
0
100
AcDbLine
 62
7
  6
CONTINUOUS
 10
229.9626284926
 20
69.8509849786
 11
229.9916259438
 21
69.8017131822
  0
LINE
  5
3DE
100
AcDbEntity
  8
0
100
AcDbLine
 62
7
  6
CONTINUOUS
 10
229.9626284926
 20
69.9216956567
 11
229.9916259438
 21
69.8724238603
  0
LINE
  5
3DF
100
AcDbEntity
  8
0
100
AcDbLine
 62
7
  6
CONTINUOUS
 10
230.1366128676
 20
69.8509849786
 11
230.1076154994
 21
69.9002567923
  0
LINE
  5
3E0
100
AcDbEntity
  8
0
100
AcDbLine
 62
7
  6
CONTINUOUS
 10
230.7165608119
 20
70.2944311982
 11
230.6875633608
 21
70.3437029947
  0
LINE
  5
3E1
100
AcDbEntity
  8
0
100
AcDbLine
 62
7
  6
CONTINUOUS
 10
224.978839219
 20
74.0266516983
 11
224.9327988976
 21
74.1050335777
  0
LINE
  5
3E2
100
AcDbEntity
  8
0
100
AcDbLine
 62
7
  6
CONTINUOUS
 10
223.853221153
 20
74.1609459228
 11
223.874704791
 21
74.1224603089
  0
LINE
  5
3E3
100
AcDbEntity
  8
0
100
AcDbLine
 62
7
  6
CONTINUOUS
 10
223.853221153
 20
74.2316566009
 11
223.874704791
 21
74.1931709871
  0
LINE
  5
3E4
100
AcDbEntity
  8
0
100
AcDbLine
 62
7
  6
CONTINUOUS
 10
223.9745101852
 20
74.1408353708
 11
223.9422847551
 21
74.1985637835
  0
LINE
  5
3E5
100
AcDbEntity
  8
0
100
AcDbLine
 62
7
  6
CONTINUOUS
 10
224.2596661796
 20
73.7198269495
 11
224.2344962913
 21
73.7692493908
  0
LINE
  5
3E6
100
AcDbEntity
  8
0
100
AcDbLine
 62
7
  6
CONTINUOUS
 10
224.8548714439
 20
74.0536965873
 11
224.8800413322
 21
74.004274146
  0
LINE
  5
3E7
100
AcDbEntity
  8
0
100
AcDbLine
 62
7
  6
CONTINUOUS
 10
224.8548714439
 20
74.1244072655
 11
224.8800413322
 21
74.0749848242
  0
LINE
  5
3E8
100
AcDbEntity
  8
RUNDUNGEN
100
AcDbLine
 62
7
  6
CONTINUOUS
 10
209.1579269612
 20
89.0327297687
 11
209.1579269612
 21
87.6185162064
  0
LINE
  5
3E9
100
AcDbEntity
  8
RUNDUNGEN
100
AcDbLine
 62
7
  6
CONTINUOUS
 10
242.0325815865
 20
88.7948748064
 11
242.5691261755
 21
88.5292200455
  0
LINE
  5
3EA
100
AcDbEntity
  8
0
100
AcDbLine
 62
7
  6
CONTINUOUS
 10
225.2870373744
 20
83.4490019722
 11
225.3279748354
 21
83.3898758164
  0
LINE
  5
3EB
100
AcDbEntity
  8
0
100
AcDbLine
 62
7
  6
CONTINUOUS
 10
229.9726284926
 20
76.4368361172
 11
230.0016259438
 21
76.3875643208
  0
LINE
  5
3EC
100
AcDbEntity
  8
0
100
AcDbLine
 62
7
  6
CONTINUOUS
 10
229.9726284926
 20
76.5075467953
 11
230.0016259438
 21
76.4582749989
  0
LINE
  5
3ED
100
AcDbEntity
  8
0
100
AcDbLine
 62
7
  6
CONTINUOUS
 10
230.1466128676
 20
76.4368361172
 11
230.1176154994
 21
76.4861079309
  0
LINE
  5
3EE
100
AcDbEntity
  8
0
100
AcDbLine
 62
7
  6
CONTINUOUS
 10
230.7265608119
 20
76.8802823369
 11
230.6975633608
 21
76.9295541333
  0
LINE
  5
3EF
100
AcDbEntity
  8
0
100
AcDbLine
 62
7
  6
CONTINUOUS
 10
224.4682873647
 20
82.4822891854
 11
224.4273498744
 21
82.5709784189
  0
LINE
  5
3F0
100
AcDbEntity
  8
0
100
AcDbLine
 62
7
  6
CONTINUOUS
 10
224.5910998647
 20
83.073550784
 11
224.5501623744
 21
83.1622400175
  0
LINE
  5
3F1
100
AcDbEntity
  8
0
100
AcDbLine
 62
7
  6
CONTINUOUS
 10
224.9134056725
 20
81.2066362265
 11
224.9440615515
 21
81.1375911418
  0
LINE
  5
3F2
100
AcDbEntity
  8
0
100
AcDbLine
 62
7
  6
CONTINUOUS
 10
224.9300210712
 20
81.2399246663
 11
224.9440615515
 21
81.2083018199
  0
LINE
  5
3F3
100
AcDbEntity
  8
0
100
AcDbLine
 62
7
  6
CONTINUOUS
 10
223.2680060874
 20
74.1108010428
 11
223.2921117757
 21
74.0394517291
  0
LINE
  5
3F4
100
AcDbEntity
  8
0
100
AcDbLine
 62
7
  6
CONTINUOUS
 10
223.2703204123
 20
74.1746616575
 11
223.2921117757
 21
74.1101624072
  0
LINE
  5
3F5
100
AcDbEntity
  8
0
100
AcDbLine
 62
7
  6
CONTINUOUS
 10
224.0855644989
 20
74.3643916509
 11
224.0614588077
 21
74.4357409599
  0
LINE
  5
3F6
100
AcDbEntity
  8
KONSTRUKTIONSELEMENTE
100
AcDbLine
 62
7
  6
CONTINUOUS
 10
213.0460340623
 20
102.6844152587
 11
213.0444001993
 21
102.7215603171
  0
LINE
  5
3F7
100
AcDbEntity
  8
RUNDUNGEN
100
AcDbLine
 62
7
  6
CONTINUOUS
 10
213.0397248744
 20
63.1973057566
 11
213.0397248744
 21
66.9523523925
  0
LINE
  5
3F8
100
AcDbEntity
  8
RUNDUNGEN
100
AcDbLine
 62
7
  6
CONTINUOUS
 10
215.8897248744
 20
63.7530916866
 11
215.8897248744
 21
61.9467874141
  0
LINE
  5
3F9
100
AcDbEntity
  8
RUNDUNGEN
100
AcDbLine
 62
7
  6
CONTINUOUS
 10
242.0325815865
 20
90.2090883688
 11
242.5691261755
 21
89.9434336079
  0
LINE
  5
3FA
100
AcDbEntity
  8
0
100
AcDbLine
 62
7
  6
CONTINUOUS
 10
225.5735998354
 20
83.2509293339
 11
225.5451923036
 21
83.3124730194
  0
LINE
  5
3FB
100
AcDbEntity
  8
0
100
AcDbLine
 62
7
  6
CONTINUOUS
 10
225.1143718332
 20
81.2178761586
 11
225.0837159931
 21
81.2869213214
  0
LINE
  5
3FC
100
AcDbEntity
  8
0
100
AcDbLine
 62
7
  6
CONTINUOUS
 10
229.9336311244
 20
69.5553541741
 11
229.9916259438
 21
69.4075387589
  0
LINE
  5
3FD
100
AcDbEntity
  8
0
100
AcDbLine
 62
7
  6
CONTINUOUS
 10
229.9613741917
 20
69.5553541741
 11
229.9916259438
 21
69.4782494371
  0
LINE
  5
3FE
100
AcDbEntity
  8
0
100
AcDbLine
 62
7
  6
CONTINUOUS
 10
230.1076154994
 20
69.4814464708
 11
230.0786181313
 21
69.5553541741
  0
LINE
  5
3FF
100
AcDbEntity
  8
0
100
AcDbLine
 62
7
  6
CONTINUOUS
 10
230.1076154994
 20
69.9002567923
 11
230.0786181313
 21
69.9741644869
  0
LINE
  5
400
100
AcDbEntity
  8
0
100
AcDbLine
 62
7
  6
CONTINUOUS
 10
224.1817248744
 20
82.5709784189
 11
224.2226623757
 21
82.4527261075
  0
LINE
  5
401
100
AcDbEntity
  8
0
100
AcDbLine
 62
7
  6
CONTINUOUS
 10
224.3045373744
 20
83.1326769397
 11
224.3454748793
 21
83.0144246282
  0
LINE
  5
402
100
AcDbEntity
  8
0
100
AcDbLine
 62
7
  6
CONTINUOUS
 10
224.3109347189
 20
83.2531440164
 11
224.3454748793
 21
83.1533711107
  0
LINE
  5
403
100
AcDbEntity
  8
0
100
AcDbLine
 62
7
  6
CONTINUOUS
 10
225.229441511
 20
73.9654631665
 11
225.2521375034
 21
73.8948971609
  0
LINE
  5
404
100
AcDbEntity
  8
0
100
AcDbLine
 62
7
  6
CONTINUOUS
 10
225.244508447
 20
73.9893279755
 11
225.2521375034
 21
73.965607839
  0
LINE
  5
405
100
AcDbEntity
  8
0
100
AcDbLine
 62
7
  6
CONTINUOUS
 10
225.4310350588
 20
73.9652271849
 11
225.4083391142
 21
74.0357932661
  0
LINE
  5
406
100
AcDbEntity
  8
0
100
AcDbLine
 62
7
  6
CONTINUOUS
 10
223.3811753807
 20
74.0770695946
 11
223.3678115008
 21
74.1291761102
  0
LINE
  5
407
100
AcDbEntity
  8
0
100
AcDbLine
 62
7
  6
CONTINUOUS
 10
223.9723952056
 20
74.3981230991
 11
223.9857591047
 21
74.3460165891
  0
LINE
  5
408
100
AcDbEntity
  8
0
100
AcDbLine
 62
7
  6
CONTINUOUS
 10
223.9723952056
 20
74.4688337773
 11
223.9857591047
 21
74.4167272672
  0
LINE
  5
409
100
AcDbEntity
  8
KONSTRUKTIONSELEMENTE
100
AcDbLine
 62
7
  6
CONTINUOUS
 10
217.0413810548
 20
102.8331376682
 11
217.0430149178
 21
102.7959926098
  0
LINE
  5
40A
100
AcDbEntity
  8
RUNDUNGEN
100
AcDbLine
 62
7
  6
CONTINUOUS
 10
216.5397248744
 20
96.1891026527
 11
216.5397248744
 21
82.471254115
  0
LINE
  5
40B
100
AcDbEntity
  8
0
100
AcDbLine
 62
7
  6
CONTINUOUS
 10
229.9436311244
 20
76.1412053127
 11
230.0016259438
 21
75.9933898976
  0
LINE
  5
40C
100
AcDbEntity
  8
0
100
AcDbLine
 62
7
  6
CONTINUOUS
 10
229.9713741917
 20
76.1412053127
 11
230.0016259438
 21
76.0641005757
  0
LINE
  5
40D
100
AcDbEntity
  8
0
100
AcDbLine
 62
7
  6
CONTINUOUS
 10
230.1176154994
 20
76.0672976095
 11
230.0886181313
 21
76.1412053127
  0
LINE
  5
40E
100
AcDbEntity
  8
0
100
AcDbLine
 62
7
  6
CONTINUOUS
 10
230.1176154994
 20
76.4861079309
 11
230.0886181313
 21
76.5600156255
  0
LINE
  5
40F
100
AcDbEntity
  8
0
100
AcDbLine
 62
7
  6
CONTINUOUS
 10
229.9336311244
 20
69.9495285887
 11
229.9626284926
 21
69.8509849786
  0
LINE
  5
410
100
AcDbEntity
  8
0
100
AcDbLine
 62
7
  6
CONTINUOUS
 10
229.9336311244
 20
70.0202392668
 11
229.9626284926
 21
69.9216956567
  0
LINE
  5
411
100
AcDbEntity
  8
0
100
AcDbLine
 62
7
  6
CONTINUOUS
 10
223.6738657747
 20
80.9911499947
 11
223.6910691547
 21
80.918808523
  0
LINE
  5
412
100
AcDbEntity
  8
0
100
AcDbLine
 62
7
  6
CONTINUOUS
 10
223.6750224239
 20
81.0569968785
 11
223.6910691547
 21
80.9895192011
  0
LINE
  5
413
100
AcDbEntity
  8
0
100
AcDbLine
 62
7
  6
CONTINUOUS
 10
224.3904942384
 20
80.9675028054
 11
224.3732908552
 21
81.0398442725
  0
LINE
  5
414
100
AcDbEntity
  8
0
100
AcDbLine
 62
7
  6
CONTINUOUS
 10
224.1227998493
 20
73.8082609454
 11
224.1356984002
 21
73.7468718344
  0
LINE
  5
415
100
AcDbEntity
  8
0
100
AcDbLine
 62
7
  6
CONTINUOUS
 10
224.1308101865
 20
73.8408473812
 11
224.1356984002
 21
73.8175825125
  0
LINE
  5
416
100
AcDbEntity
  8
0
100
AcDbLine
 62
7
  6
CONTINUOUS
 10
224.9917377742
 20
73.9652625914
 11
224.978839219
 21
74.0266516983
  0
LINE
  5
417
100
AcDbEntity
  8
0
100
AcDbLine
 62
7
  6
CONTINUOUS
 10
224.2808226786
 20
81.0065864281
 11
224.2891555328
 21
80.9539588244
  0
LINE
  5
418
100
AcDbEntity
  8
0
100
AcDbLine
 62
7
  6
CONTINUOUS
 10
224.2808226786
 20
81.0772971062
 11
224.2891555328
 21
81.0246695026
  0
LINE
  5
419
100
AcDbEntity
  8
0
100
AcDbLine
 62
7
  6
CONTINUOUS
 10
221.7582248744
 20
69.0330580217
 11
221.7582248744
 21
74.2667088627
  0
LINE
  5
41A
100
AcDbEntity
  8
0
100
AcDbLine
 62
7
  6
CONTINUOUS
 10
221.7582248744
 20
75.5635426994
 11
221.7582248744
 21
81.260348482
  0
LINE
  5
41B
100
AcDbEntity
  8
0
100
AcDbLine
 62
7
  6
CONTINUOUS
 10
221.9547248744
 20
69.1720045042
 11
221.9547248744
 21
74.2667088627
  0
LINE
  5
41C
100
AcDbEntity
  8
0
100
AcDbLine
 62
7
  6
CONTINUOUS
 10
221.9547248744
 20
75.7024891819
 11
221.9547248744
 21
77.9256329019
  0
LINE
  5
41D
100
AcDbEntity
  8
0
100
AcDbLine
 62
7
  6
CONTINUOUS
 10
221.9547248744
 20
78.0645793844
 11
221.9547248744
 21
81.260348482
  0
LINE
  5
41E
100
AcDbEntity
  8
0
100
AcDbLine
 62
7
  6
CONTINUOUS
 10
222.3134074478
 20
77.9256329019
 11
222.3134074478
 21
78.0645793844
  0
LINE
  5
41F
100
AcDbEntity
  8
RUNDUNGEN
100
AcDbLine
 62
7
  6
CONTINUOUS
 10
222.5397248744
 20
161.8958435228
 11
222.5397248744
 21
111.2885682128
  0
LINE
  5
420
100
AcDbEntity
  8
0
100
AcDbLine
 62
7
  6
CONTINUOUS
 10
222.8554203346
 20
81.3465556078
 11
222.8554203346
 21
81.417266286
  0
LINE
  5
421
100
AcDbEntity
  8
0
100
AcDbLine
 62
7
  6
CONTINUOUS
 10
222.8833071777
 20
71.3951482243
 11
222.8833071777
 21
71.5340947068
  0
LINE
  5
422
100
AcDbEntity
  8
0
100
AcDbLine
 62
7
  6
CONTINUOUS
 10
223.1619587262
 20
81.2001861498
 11
223.1619587262
 21
81.2708968279
  0
LINE
  5
423
100
AcDbEntity
  8
0
100
AcDbLine
 62
7
  6
CONTINUOUS
 10
229.9436311244
 20
76.5353797273
 11
229.9726284926
 21
76.4368361172
  0
LINE
  5
424
100
AcDbEntity
  8
0
100
AcDbLine
 62
7
  6
CONTINUOUS
 10
229.9436311244
 20
76.6060904054
 11
229.9726284926
 21
76.5075467953
  0
LINE
  5
425
100
AcDbEntity
  8
0
100
AcDbLine
 62
7
  6
CONTINUOUS
 10
223.2091809506
 20
80.9782598164
 11
223.2091809506
 21
81.0489704945
  0
LINE
  5
426
100
AcDbEntity
  8
0
100
AcDbLine
 62
7
  6
CONTINUOUS
 10
223.2810142944
 20
81.1788708754
 11
223.2810142944
 21
81.2495815535
  0
LINE
  5
427
100
AcDbEntity
  8
0
100
AcDbLine
 62
7
  6
CONTINUOUS
 10
223.2921117757
 20
74.0394517291
 11
223.2921117757
 21
74.1101624072
  0
LINE
  5
428
100
AcDbEntity
  8
0
100
AcDbLine
 62
7
  6
CONTINUOUS
 10
223.3118000172
 20
81.264847055
 11
223.3118000172
 21
81.3355577331
  0
LINE
  5
429
100
AcDbEntity
  8
0
100
AcDbLine
 62
7
  6
CONTINUOUS
 10
223.362060306
 20
73.9704794954
 11
223.362060306
 21
74.0411901735
  0
LINE
  5
42A
100
AcDbEntity
  8
0
100
AcDbLine
 62
7
  6
CONTINUOUS
 10
223.3678115008
 20
74.1756607055
 11
223.3678115008
 21
74.1998867883
  0
LINE
  5
42B
100
AcDbEntity
  8
0
100
AcDbLine
 62
7
  6
CONTINUOUS
 10
223.373309173
 20
74.1756607055
 11
223.373309173
 21
74.2463713836
  0
LINE
  5
42C
100
AcDbEntity
  8
0
100
AcDbLine
 62
7
  6
CONTINUOUS
 10
223.3976683896
 20
74.2165233941
 11
223.3976683896
 21
74.2872340722
  0
LINE
  5
42D
100
AcDbEntity
  8
0
100
AcDbLine
 62
7
  6
CONTINUOUS
 10
223.440889162
 20
74.2517641951
 11
223.440889162
 21
74.3224748732
  0
LINE
  5
42E
100
AcDbEntity
  8
0
100
AcDbLine
 62
7
  6
CONTINUOUS
 10
223.4437647608
 20
74.3311124916
 11
223.4437647608
 21
74.4018231697
  0
LINE
  5
42F
100
AcDbEntity
  8
0
100
AcDbLine
 62
7
  6
CONTINUOUS
 10
223.4482483153
 20
73.9287490565
 11
223.4482483153
 21
73.9994597346
  0
LINE
  5
430
100
AcDbEntity
  8
0
100
AcDbLine
 62
7
  6
CONTINUOUS
 10
223.4600042385
 20
74.358354284
 11
223.4600042385
 21
74.4290649621
  0
LINE
  5
431
100
AcDbEntity
  8
0
100
AcDbLine
 62
7
  6
CONTINUOUS
 10
223.4794402224
 20
81.1433454214
 11
223.4794402224
 21
81.2140560995
  0
LINE
  5
432
100
AcDbEntity
  8
0
100
AcDbLine
 62
7
  6
CONTINUOUS
 10
223.494851742
 20
74.2677621701
 11
223.494851742
 21
74.3384728482
  0
LINE
  5
433
100
AcDbEntity
  8
0
100
AcDbLine
 62
7
  6
CONTINUOUS
 10
223.5275842229
 20
74.4344577525
 11
223.5275842229
 21
74.5051684306
  0
LINE
  5
434
100
AcDbEntity
  8
0
100
AcDbLine
 62
7
  6
CONTINUOUS
 10
223.5425560508
 20
73.900639519
 11
223.5425560508
 21
73.9713501971
  0
LINE
  5
435
100
AcDbEntity
  8
0
100
AcDbLine
 62
7
  6
CONTINUOUS
 10
223.5676758664
 20
74.2781382384
 11
223.5676758664
 21
74.3488489165
  0
LINE
  5
436
100
AcDbEntity
  8
0
100
AcDbLine
 62
7
  6
CONTINUOUS
 10
223.5708050066
 20
74.4696985726
 11
223.5708050066
 21
74.5404092507
  0
LINE
  5
437
100
AcDbEntity
  8
0
100
AcDbLine
 62
7
  6
CONTINUOUS
 10
223.6323802519
 20
74.2748934105
 11
223.6323802519
 21
74.3456040886
  0
LINE
  5
438
100
AcDbEntity
  8
0
100
AcDbLine
 62
7
  6
CONTINUOUS
 10
223.6328873255
 20
74.4993174438
 11
223.6328873255
 21
74.5700281219
  0
LINE
  5
439
100
AcDbEntity
  8
0
100
AcDbLine
 62
7
  6
CONTINUOUS
 10
223.6449835528
 20
73.8861508708
 11
223.6449835528
 21
73.956861549
  0
LINE
  5
43A
100
AcDbEntity
  8
0
100
AcDbLine
 62
7
  6
CONTINUOUS
 10
223.6910691547
 20
80.918808523
 11
223.6910691547
 21
80.9895192011
  0
LINE
  5
43B
100
AcDbEntity
  8
0
100
AcDbLine
 62
7
  6
CONTINUOUS
 10
223.7057114499
 20
74.5096935121
 11
223.7057114499
 21
74.5804041902
  0
LINE
  5
43C
100
AcDbEntity
  8
0
100
AcDbLine
 62
7
  6
CONTINUOUS
 10
223.754237891
 20
80.8466390673
 11
223.754237891
 21
80.9173497454
  0
LINE
  5
43D
100
AcDbEntity
  8
0
100
AcDbLine
 62
7
  6
CONTINUOUS
 10
223.7636504801
 20
73.8989040336
 11
223.7636504801
 21
73.9696147117
  0
LINE
  5
43E
100
AcDbEntity
  8
0
100
AcDbLine
 62
7
  6
CONTINUOUS
 10
223.7644111032
 20
74.2355400516
 11
223.7644111032
 21
74.3062507297
  0
LINE
  5
43F
100
AcDbEntity
  8
0
100
AcDbLine
 62
7
  6
CONTINUOUS
 10
223.7704158355
 20
74.5064486842
 11
223.7704158355
 21
74.5771593623
  0
LINE
  5
440
100
AcDbEntity
  8
0
100
AcDbLine
 62
7
  6
CONTINUOUS
 10
223.812875984
 20
74.2050534393
 11
223.812875984
 21
74.2757641174
  0
LINE
  5
441
100
AcDbEntity
  8
0
100
AcDbLine
 62
7
  6
CONTINUOUS
 10
223.8362227227
 20
80.8008694791
 11
223.8362227227
 21
80.8715801572
  0
LINE
  5
442
100
AcDbEntity
  8
0
100
AcDbLine
 62
7
  6
CONTINUOUS
 10
223.8527140851
 20
73.9365218991
 11
223.8527140851
 21
74.0072325772
  0
LINE
  5
443
100
AcDbEntity
  8
0
100
AcDbLine
 62
7
  6
CONTINUOUS
 10
223.853221153
 20
74.1609459228
 11
223.853221153
 21
74.2316566009
  0
LINE
  5
444
100
AcDbEntity
  8
0
100
AcDbLine
 62
7
  6
CONTINUOUS
 10
223.874704791
 20
74.1224603089
 11
223.874704791
 21
74.1931709871
  0
LINE
  5
445
100
AcDbEntity
  8
0
100
AcDbLine
 62
7
  6
CONTINUOUS
 10
223.8835851288
 20
74.472717236
 11
223.8835851288
 21
74.5434279141
  0
LINE
  5
446
100
AcDbEntity
  8
0
100
AcDbLine
 62
7
  6
CONTINUOUS
 10
223.8875641199
 20
81.1301791933
 11
223.8875641199
 21
81.2008898715
  0
LINE
  5
447
100
AcDbEntity
  8
0
100
AcDbLine
 62
7
  6
CONTINUOUS
 10
223.8980473594
 20
81.2092066621
 11
223.8980473594
 21
81.2799173402
  0
LINE
  5
448
100
AcDbEntity
  8
0
100
AcDbLine
 62
7
  6
CONTINUOUS
 10
223.9310359009
 20
73.9933825682
 11
223.9310359009
 21
74.0640932463
  0
LINE
  5
449
100
AcDbEntity
  8
0
100
AcDbLine
 62
7
  6
CONTINUOUS
 10
223.9320500366
 20
74.4422306157
 11
223.9320500366
 21
74.5129412938
  0
LINE
  5
44A
100
AcDbEntity
  8
0
100
AcDbLine
 62
7
  6
CONTINUOUS
 10
223.9458942825
 20
80.7617858565
 11
223.9458942825
 21
80.8324965346
  0
LINE
  5
44B
100
AcDbEntity
  8
0
100
AcDbLine
 62
7
  6
CONTINUOUS
 10
223.9716346066
 20
74.0614870683
 11
223.9716346066
 21
74.1321977464
  0
LINE
  5
44C
100
AcDbEntity
  8
0
100
AcDbLine
 62
7
  6
CONTINUOUS
 10
223.9723952056
 20
74.3981230991
 11
223.9723952056
 21
74.4688337773
  0
LINE
  5
44D
100
AcDbEntity
  8
0
100
AcDbLine
 62
7
  6
CONTINUOUS
 10
223.9857591047
 20
74.3460165891
 11
223.9857591047
 21
74.4167272672
  0
LINE
  5
44E
100
AcDbEntity
  8
0
100
AcDbLine
 62
7
  6
CONTINUOUS
 10
223.988902721
 20
81.1437232116
 11
223.988902721
 21
81.2144338897
  0
LINE
  5
44F
100
AcDbEntity
  8
RUNDUNGEN
100
AcDbLine
 62
7
  6
CONTINUOUS
 10
224.0397248744
 20
81.471254115
 11
224.0397248744
 21
87.471254115
  0
LINE
  5
450
100
AcDbEntity
  8
KONSTRUKTIONSELEMENTE
100
AcDbLine
 62
7
  6
CONTINUOUS
 10
224.0397248744
 20
87.471254115
 11
224.0397248744
 21
93.571254115
  0
LINE
  5
451
100
AcDbEntity
  8
0
100
AcDbLine
 62
7
  6
CONTINUOUS
 10
224.0466953142
 20
80.7424160985
 11
224.0466953142
 21
80.8131267766
  0
LINE
  5
452
100
AcDbEntity
  8
0
100
AcDbLine
 62
7
  6
CONTINUOUS
 10
224.0485769725
 20
81.4204053222
 11
224.0485769725
 21
81.471254115
  0
LINE
  5
453
100
AcDbEntity
  8
0
100
AcDbLine
 62
7
  6
CONTINUOUS
 10
224.0714252282
 20
81.1308673647
 11
224.0714252282
 21
81.2015780428
  0
LINE
  5
454
100
AcDbEntity
  8
0
100
AcDbLine
 62
7
  6
CONTINUOUS
 10
224.1356984002
 20
73.7468718344
 11
224.1356984002
 21
73.8175825125
  0
LINE
  5
455
100
AcDbEntity
  8
0
100
AcDbLine
 62
7
  6
CONTINUOUS
 10
224.1663126504
 20
80.7494461334
 11
224.1663126504
 21
80.8201568115
  0
LINE
  5
456
100
AcDbEntity
  8
0
100
AcDbLine
 62
7
  6
CONTINUOUS
 10
224.1810967881
 20
81.0917837421
 11
224.1810967881
 21
81.1624944202
  0
LINE
  5
457
100
AcDbEntity
  8
0
100
AcDbLine
 62
7
  6
CONTINUOUS
 10
224.1817386236
 20
73.6684900005
 11
224.1817386236
 21
73.7392006786
  0
LINE
  5
458
100
AcDbEntity
  8
0
100
AcDbLine
 62
7
  6
CONTINUOUS
 10
224.2226623757
 20
82.4527261075
 11
224.2226623757
 21
82.5709784189
  0
LINE
  5
459
100
AcDbEntity
  8
0
100
AcDbLine
 62
7
  6
CONTINUOUS
 10
224.2344962913
 20
73.7692493908
 11
224.2344962913
 21
73.8399600689
  0
LINE
  5
45A
100
AcDbEntity
  8
0
100
AcDbLine
 62
7
  6
CONTINUOUS
 10
224.2418408608
 20
73.8750348891
 11
224.2418408608
 21
73.9457455672
  0
LINE
  5
45B
100
AcDbEntity
  8
0
100
AcDbLine
 62
7
  6
CONTINUOUS
 10
224.244803097
 20
81.0525280673
 11
224.244803097
 21
81.1232387454
  0
LINE
  5
45C
100
AcDbEntity
  8
0
100
AcDbLine
 62
7
  6
CONTINUOUS
 10
224.2587808303
 20
80.7827039825
 11
224.2587808303
 21
80.8534146606
  0
LINE
  5
45D
100
AcDbEntity
  8
0
100
AcDbLine
 62
7
  6
CONTINUOUS
 10
224.2688923984
 20
73.6055451136
 11
224.2688923984
 21
73.6762557917
  0
LINE
  5
45E
100
AcDbEntity
  8
0
100
AcDbLine
 62
7
  6
CONTINUOUS
 10
224.2808226786
 20
81.0065864281
 11
224.2808226786
 21
81.0772971062
  0
LINE
  5
45F
100
AcDbEntity
  8
0
100
AcDbLine
 62
7
  6
CONTINUOUS
 10
224.2891555328
 20
80.9539588244
 11
224.2891555328
 21
81.0246695026
  0
LINE
  5
460
100
AcDbEntity
  8
0
100
AcDbLine
 62
7
  6
CONTINUOUS
 10
224.2988980882
 20
73.955331237
 11
224.2988980882
 21
74.0260419152
  0
LINE
  5
461
100
AcDbEntity
  8
0
100
AcDbLine
 62
7
  6
CONTINUOUS
 10
224.3045373744
 20
83.2509293339
 11
224.3045373744
 21
83.1326769397
  0
LINE
  5
462
100
AcDbEntity
  8
0
100
AcDbLine
 62
7
  6
CONTINUOUS
 10
224.3423784845
 20
80.8356756996
 11
224.3423784845
 21
80.9063863778
  0
LINE
  5
463
100
AcDbEntity
  8
0
100
AcDbLine
 62
7
  6
CONTINUOUS
 10
224.3454748793
 20
82.3049106871
 11
224.3454748793
 21
82.4438571697
  0
LINE
  5
464
100
AcDbEntity
  8
0
100
AcDbLine
 62
7
  6
CONTINUOUS
 10
224.3454748793
 20
83.0144246282
 11
224.3454748793
 21
83.1533711107
  0
LINE
  5
465
100
AcDbEntity
  8
0
100
AcDbLine
 62
7
  6
CONTINUOUS
 10
224.3800108812
 20
80.8884753554
 11
224.3800108812
 21
80.9591860335
  0
LINE
  5
466
100
AcDbEntity
  8
0
100
AcDbLine
 62
7
  6
CONTINUOUS
 10
224.3805888415
 20
73.56653356
 11
224.3805888415
 21
73.6372442381
  0
LINE
  5
467
100
AcDbEntity
  8
0
100
AcDbLine
 62
7
  6
CONTINUOUS
 10
224.3847974197
 20
74.0390978962
 11
224.3847974197
 21
74.1098085743
  0
LINE
  5
468
100
AcDbEntity
  8
0
100
AcDbLine
 62
7
  6
CONTINUOUS
 10
224.4749962065
 20
74.1024015521
 11
224.4749962065
 21
74.1731122302
  0
LINE
  5
469
100
AcDbEntity
  8
0
100
AcDbLine
 62
7
  6
CONTINUOUS
 10
224.5002571645
 20
73.5599516774
 11
224.5002571645
 21
73.6306623555
  0
LINE
  5
46A
100
AcDbEntity
  8
0
100
AcDbLine
 62
7
  6
CONTINUOUS
 10
224.5092248842
 20
82.8961723168
 11
224.5092248842
 21
83.0351187993
  0
LINE
  5
46B
100
AcDbEntity
  8
KONSTRUKTIONSELEMENTE
100
AcDbLine
 62
7
  6
CONTINUOUS
 10
224.5397248744
 20
85.0377404626
 11
224.5397248744
 21
85.271254115
  0
LINE
  5
46C
100
AcDbEntity
  8
KONSTRUKTIONSELEMENTE
100
AcDbLine
 62
7
  6
CONTINUOUS
 10
224.5397248744
 20
90.871254115
 11
224.5397248744
 21
95.0669935435
  0
LINE
  5
46D
100
AcDbEntity
  8
0
100
AcDbLine
 62
7
  6
CONTINUOUS
 10
224.5501623744
 20
82.2162214458
 11
224.5501623744
 21
82.3551679283
  0
LINE
  5
46E
100
AcDbEntity
  8
0
100
AcDbLine
 62
7
  6
CONTINUOUS
 10
224.5501623744
 20
83.1622400175
 11
224.5501623744
 21
83.3603126558
  0
LINE
  5
46F
100
AcDbEntity
  8
0
100
AcDbLine
 62
7
  6
CONTINUOUS
 10
224.5786562481
 20
81.2315011213
 11
224.5786562481
 21
81.3022117994
  0
LINE
  5
470
100
AcDbEntity
  8
0
100
AcDbLine
 62
7
  6
CONTINUOUS
 10
224.5867837225
 20
73.5703625682
 11
224.5867837225
 21
73.6410732463
  0
LINE
  5
471
100
AcDbEntity
  8
0
100
AcDbLine
 62
7
  6
CONTINUOUS
 10
224.5910998647
 20
83.3100554897
 11
224.5910998647
 21
83.4490019722
  0
LINE
  5
472
100
AcDbEntity
  8
0
100
AcDbLine
 62
7
  6
CONTINUOUS
 10
224.6149076768
 20
74.1402160828
 11
224.6149076768
 21
74.210926761
  0
LINE
  5
473
100
AcDbEntity
  8
0
100
AcDbLine
 62
7
  6
CONTINUOUS
 10
224.6690107348
 20
73.6012365151
 11
224.6690107348
 21
73.6719471932
  0
LINE
  5
474
100
AcDbEntity
  8
0
100
AcDbLine
 62
7
  6
CONTINUOUS
 10
224.6729748744
 20
82.8370461611
 11
224.6729748744
 21
82.9759926436
  0
LINE
  5
475
100
AcDbEntity
  8
0
100
AcDbLine
 62
7
  6
CONTINUOUS
 10
224.6891628975
 20
74.1386603039
 11
224.6891628975
 21
74.209370982
  0
LINE
  5
476
100
AcDbEntity
  8
0
100
AcDbLine
 62
7
  6
CONTINUOUS
 10
224.713912394
 20
83.3691816454
 11
224.713912394
 21
83.5081281279
  0
LINE
  5
477
100
AcDbEntity
  8
0
100
AcDbLine
 62
7
  6
CONTINUOUS
 10
224.7223956171
 20
73.6286401256
 11
224.7223956171
 21
73.6993508037
  0
LINE
  5
478
100
AcDbEntity
  8
0
100
AcDbLine
 62
7
  6
CONTINUOUS
 10
224.7245364398
 20
80.0360057579
 11
224.7245364398
 21
80.1749522404
  0
LINE
  5
479
100
AcDbEntity
  8
0
100
AcDbLine
 62
7
  6
CONTINUOUS
 10
224.7548498549
 20
82.1866583654
 11
224.7548498549
 21
82.3256048479
  0
LINE
  5
47A
100
AcDbEntity
  8
0
100
AcDbLine
 62
7
  6
CONTINUOUS
 10
224.7842884564
 20
74.1081451355
 11
224.7842884564
 21
74.1788558136
  0
LINE
  5
47B
100
AcDbEntity
  8
0
100
AcDbLine
 62
7
  6
CONTINUOUS
 10
224.800323088
 20
73.6799771327
 11
224.800323088
 21
73.7506878108
  0
LINE
  5
47C
100
AcDbEntity
  8
0
100
AcDbLine
 62
7
  6
CONTINUOUS
 10
224.836724894
 20
82.8074830832
 11
224.836724894
 21
82.9464295657
  0
LINE
  5
47D
100
AcDbEntity
  8
0
100
AcDbLine
 62
7
  6
CONTINUOUS
 10
224.836724894
 20
83.3987447232
 11
224.836724894
 21
83.5376912057
  0
LINE
  5
47E
100
AcDbEntity
  8
0
100
AcDbLine
 62
7
  6
CONTINUOUS
 10
224.8548714439
 20
74.0536965873
 11
224.8548714439
 21
74.1244072655
  0
LINE
  5
47F
100
AcDbEntity
  8
0
100
AcDbLine
 62
7
  6
CONTINUOUS
 10
224.8800413322
 20
74.004274146
 11
224.8800413322
 21
74.0749848242
  0
LINE
  5
480
100
AcDbEntity
  8
0
100
AcDbLine
 62
7
  6
CONTINUOUS
 10
224.9107650857
 20
73.7876771231
 11
224.9107650857
 21
73.8583878012
  0
LINE
  5
481
100
AcDbEntity
  8
0
100
AcDbLine
 62
7
  6
CONTINUOUS
 10
224.9440615515
 20
81.1375911418
 11
224.9440615515
 21
81.2083018199
  0
LINE
  5
482
100
AcDbEntity
  8
0
100
AcDbLine
 62
7
  6
CONTINUOUS
 10
224.9555509628
 20
73.8560067886
 11
224.9555509628
 21
73.9267174668
  0
LINE
  5
483
100
AcDbEntity
  8
0
100
AcDbLine
 62
7
  6
CONTINUOUS
 10
224.9757941133
 20
73.9004032052
 11
224.9757941133
 21
73.9711138833
  0
LINE
  5
484
100
AcDbEntity
  8
0
100
AcDbLine
 62
7
  6
CONTINUOUS
 10
225.0019670517
 20
81.1231398341
 11
225.0019670517
 21
81.1938505122
  0
LINE
  5
485
100
AcDbEntity
  8
0
100
AcDbLine
 62
7
  6
CONTINUOUS
 10
225.0417826539
 20
72.5695790728
 11
225.0417826539
 21
72.7085255553
  0
LINE
  5
486
100
AcDbEntity
  8
0
100
AcDbLine
 62
7
  6
CONTINUOUS
 10
225.082349894
 20
82.1866583654
 11
225.082349894
 21
82.3256048479
  0
LINE
  5
487
100
AcDbEntity
  8
0
100
AcDbLine
 62
7
  6
CONTINUOUS
 10
225.082349894
 20
82.8074830832
 11
225.082349894
 21
82.9464295657
  0
LINE
  5
488
100
AcDbEntity
  8
0
100
AcDbLine
 62
7
  6
CONTINUOUS
 10
225.082349894
 20
83.3987447232
 11
225.082349894
 21
83.5376912057
  0
LINE
  5
489
100
AcDbEntity
  8
0
100
AcDbLine
 62
7
  6
CONTINUOUS
 10
225.087122173
 20
81.1632823034
 11
225.087122173
 21
81.2339929815
  0
LINE
  5
48A
100
AcDbEntity
  8
0
100
AcDbLine
 62
7
  6
CONTINUOUS
 10
225.2051623354
 20
83.3691816454
 11
225.2051623354
 21
83.5081281279
  0
LINE
  5
48B
100
AcDbEntity
  8
0
100
AcDbLine
 62
7
  6
CONTINUOUS
 10
225.2460999135
 20
82.7779200054
 11
225.2460999135
 21
82.9168664879
  0
LINE
  5
48C
100
AcDbEntity
  8
0
100
AcDbLine
 62
7
  6
CONTINUOUS
 10
225.2521375034
 20
73.8948971609
 11
225.2521375034
 21
73.965607839
  0
LINE
  5
48D
100
AcDbEntity
  8
0
100
AcDbLine
 62
7
  6
CONTINUOUS
 10
225.2870373744
 20
82.2162214458
 11
225.2870373744
 21
82.3551679283
  0
LINE
  5
48E
100
AcDbEntity
  8
0
100
AcDbLine
 62
7
  6
CONTINUOUS
 10
225.2870373744
 20
83.3100554897
 11
225.2870373744
 21
83.4490019722
  0
LINE
  5
48F
100
AcDbEntity
  8
0
100
AcDbLine
 62
7
  6
CONTINUOUS
 10
225.3082098765
 20
73.8771966451
 11
225.3082098765
 21
73.9479073232
  0
LINE
  5
490
100
AcDbEntity
  8
0
100
AcDbLine
 62
7
  6
CONTINUOUS
 10
225.3279748354
 20
83.2509293339
 11
225.3279748354
 21
83.3898758164
  0
LINE
  5
491
100
AcDbEntity
  8
0
100
AcDbLine
 62
7
  6
CONTINUOUS
 10
225.3689124135
 20
82.7187938496
 11
225.3689124135
 21
82.8577403322
  0
LINE
  5
492
100
AcDbEntity
  8
0
100
AcDbLine
 62
7
  6
CONTINUOUS
 10
225.3976586303
 20
73.9123616193
 11
225.3976586303
 21
73.9830722974
  0
LINE
  5
493
100
AcDbEntity
  8
0
100
AcDbLine
 62
7
  6
CONTINUOUS
 10
225.4507873354
 20
82.2753476093
 11
225.4507873354
 21
82.4142940918
  0
LINE
  5
494
100
AcDbEntity
  8
0
100
AcDbLine
 62
7
  6
CONTINUOUS
 10
225.4507873354
 20
82.5414153411
 11
225.4507873354
 21
82.7690510572
  0
LINE
  5
495
100
AcDbEntity
  8
0
100
AcDbLine
 62
7
  6
CONTINUOUS
 10
225.6145374135
 20
82.3935999311
 11
225.6145374135
 21
82.5325464136
  0
LINE
  5
496
100
AcDbEntity
  8
0
100
AcDbLine
 62
7
  6
CONTINUOUS
 10
225.6964123354
 20
82.5118522632
 11
225.6964123354
 21
82.6596676525
  0
LINE
  5
497
100
AcDbEntity
  8
0
100
AcDbLine
 62
7
  6
CONTINUOUS
 10
226.5397248744
 20
72.8410422922
 11
226.5397248744
 21
72.9799887747
  0
LINE
  5
498
100
AcDbEntity
  8
0
100
AcDbLine
 62
7
  6
CONTINUOUS
 10
226.5397248744
 20
80.933734154
 11
226.5397248744
 21
81.0726806365
  0
LINE
  5
499
100
AcDbEntity
  8
0
100
AcDbLine
 62
7
  6
CONTINUOUS
 10
223.6749410262
 20
81.0569775215
 11
223.6738657747
 21
80.9911499947
  0
LINE
  5
49A
100
AcDbEntity
  8
0
100
AcDbLine
 62
7
  6
CONTINUOUS
 10
223.7835373346
 20
80.9520663721
 11
223.7846125861
 21
81.0178938989
  0
LINE
  5
49B
100
AcDbEntity
  8
0
100
AcDbLine
 62
7
  6
CONTINUOUS
 10
223.2708816902
 20
74.1901493493
 11
223.2680060874
 21
74.1108010428
  0
LINE
  5
49C
100
AcDbEntity
  8
0
100
AcDbLine
 62
7
  6
CONTINUOUS
 10
223.9716346066
 20
74.0614870683
 11
223.9745101852
 21
74.1408353708
  0
LINE
  5
49D
100
AcDbEntity
  8
RUNDUNGEN
100
AcDbLine
 62
7
  6
CONTINUOUS
 10
220.663984135
 20
104.2884012562
 11
217.7095978409
 21
99.1712540896
  0
LINE
  5
49E
100
AcDbEntity
  8
KONSTRUKTIONSELEMENTE
100
AcDbLine
 62
7
  6
CONTINUOUS
 10
228.5397248744
 20
85.0377404626
 11
228.5397248744
 21
85.271254115
  0
LINE
  5
49F
100
AcDbEntity
  8
KONSTRUKTIONSELEMENTE
100
AcDbLine
 62
7
  6
CONTINUOUS
 10
228.5397248744
 20
90.871254115
 11
228.5397248744
 21
95.0670236002
  0
LINE
  5
4A0
100
AcDbEntity
  8
0
100
AcDbLine
 62
7
  6
CONTINUOUS
 10
228.8322248744
 20
82.6389735229
 11
228.8322248744
 21
82.4615950143
  0
LINE
  5
4A1
100
AcDbEntity
  8
0
100
AcDbLine
 62
7
  6
CONTINUOUS
 10
228.8897248744
 20
70.8117851298
 11
228.8897248744
 21
69.6538977756
  0
LINE
  5
4A2
100
AcDbEntity
  8
0
100
AcDbLine
 62
7
  6
CONTINUOUS
 10
228.8997248744
 20
77.3976362684
 11
228.8997248744
 21
76.2397489142
  0
LINE
  5
4A3
100
AcDbEntity
  8
0
100
AcDbLine
 62
7
  6
CONTINUOUS
 10
229.0347118502
 20
69.6538977756
 11
229.0347118502
 21
69.9956033686
  0
LINE
  5
4A4
100
AcDbEntity
  8
0
100
AcDbLine
 62
7
  6
CONTINUOUS
 10
229.0347118502
 20
70.0727080798
 11
229.0347118502
 21
70.8117851298
  0
LINE
  5
4A5
100
AcDbEntity
  8
RUNDUNGEN
100
AcDbLine
 62
7
  6
CONTINUOUS
 10
229.0397248744
 20
81.471254115
 11
229.0397248744
 21
87.471254115
  0
LINE
  5
4A6
100
AcDbEntity
  8
KONSTRUKTIONSELEMENTE
100
AcDbLine
 62
7
  6
CONTINUOUS
 10
229.0397248744
 20
87.471254115
 11
229.0397248744
 21
93.571254115
  0
LINE
  5
4A7
100
AcDbEntity
  8
0
100
AcDbLine
 62
7
  6
CONTINUOUS
 10
229.0447118502
 20
76.2397489142
 11
229.0447118502
 21
76.5814545072
  0
LINE
  5
4A8
100
AcDbEntity
  8
0
100
AcDbLine
 62
7
  6
CONTINUOUS
 10
229.0447118502
 20
76.6585592184
 11
229.0447118502
 21
77.3976362684
  0
LINE
  5
4A9
100
AcDbEntity
  8
0
100
AcDbLine
 62
7
  6
CONTINUOUS
 10
229.1796988259
 20
70.0480721816
 11
229.1796988259
 21
70.1187828597
  0
LINE
  5
4AA
100
AcDbEntity
  8
0
100
AcDbLine
 62
7
  6
CONTINUOUS
 10
229.1896988259
 20
76.6339233202
 11
229.1896988259
 21
76.7046339983
  0
LINE
  5
4AB
100
AcDbEntity
  8
0
100
AcDbLine
 62
7
  6
CONTINUOUS
 10
229.2666910341
 20
70.1219799107
 11
229.2666910341
 21
70.1926905889
  0
LINE
  5
4AC
100
AcDbEntity
  8
0
100
AcDbLine
 62
7
  6
CONTINUOUS
 10
229.2766910341
 20
76.7078310493
 11
229.2766910341
 21
76.7785417275
  0
LINE
  5
4AD
100
AcDbEntity
  8
0
100
AcDbLine
 62
7
  6
CONTINUOUS
 10
229.5276675966
 20
69.6538977756
 11
229.5276675966
 21
69.7246084537
  0
LINE
  5
4AE
100
AcDbEntity
  8
0
100
AcDbLine
 62
7
  6
CONTINUOUS
 10
229.5376675966
 20
76.2397489142
 11
229.5376675966
 21
76.3104595923
  0
LINE
  5
4AF
100
AcDbEntity
  8
0
100
AcDbLine
 62
7
  6
CONTINUOUS
 10
229.9336311244
 20
70.1466158089
 11
229.9336311244
 21
69.9495285887
  0
LINE
  5
4B0
100
AcDbEntity
  8
0
100
AcDbLine
 62
7
  6
CONTINUOUS
 10
229.9436311244
 20
76.7324669476
 11
229.9436311244
 21
76.5353797273
  0
LINE
  5
4B1
100
AcDbEntity
  8
0
100
AcDbLine
 62
7
  6
CONTINUOUS
 10
229.9626284926
 20
69.8509849786
 11
229.9626284926
 21
69.9216956567
  0
LINE
  5
4B2
100
AcDbEntity
  8
0
100
AcDbLine
 62
7
  6
CONTINUOUS
 10
229.9726284926
 20
76.4368361172
 11
229.9726284926
 21
76.5075467953
  0
LINE
  5
4B3
100
AcDbEntity
  8
0
100
AcDbLine
 62
7
  6
CONTINUOUS
 10
229.9916259438
 20
69.4075387589
 11
229.9916259438
 21
69.4782494371
  0
LINE
  5
4B4
100
AcDbEntity
  8
0
100
AcDbLine
 62
7
  6
CONTINUOUS
 10
229.9916259438
 20
69.8017131822
 11
229.9916259438
 21
69.8724238603
  0
LINE
  5
4B5
100
AcDbEntity
  8
0
100
AcDbLine
 62
7
  6
CONTINUOUS
 10
230.0016259438
 20
75.9933898976
 11
230.0016259438
 21
76.0641005757
  0
LINE
  5
4B6
100
AcDbEntity
  8
0
100
AcDbLine
 62
7
  6
CONTINUOUS
 10
230.0016259438
 20
76.3875643208
 11
230.0016259438
 21
76.4582749989
  0
LINE
  5
4B7
100
AcDbEntity
  8
0
100
AcDbLine
 62
7
  6
CONTINUOUS
 10
230.0786181313
 20
69.3336310643
 11
230.0786181313
 21
69.4043417424
  0
LINE
  5
4B8
100
AcDbEntity
  8
0
100
AcDbLine
 62
7
  6
CONTINUOUS
 10
230.0786181313
 20
69.7278054789
 11
230.0786181313
 21
69.798516157
  0
LINE
  5
4B9
100
AcDbEntity
  8
0
100
AcDbLine
 62
7
  6
CONTINUOUS
 10
230.0786181313
 20
69.9741644869
 11
230.0786181313
 21
70.1926905889
  0
LINE
  5
4BA
100
AcDbEntity
  8
0
100
AcDbLine
 62
7
  6
CONTINUOUS
 10
230.0814275629
 20
71.3951482243
 11
230.0814275629
 21
71.5340947068
  0
LINE
  5
4BB
100
AcDbEntity
  8
0
100
AcDbLine
 62
7
  6
CONTINUOUS
 10
230.0886181313
 20
75.9194822029
 11
230.0886181313
 21
75.990192881
  0
LINE
  5
4BC
100
AcDbEntity
  8
0
100
AcDbLine
 62
7
  6
CONTINUOUS
 10
230.0886181313
 20
76.3136566175
 11
230.0886181313
 21
76.3843672956
  0
LINE
  5
4BD
100
AcDbEntity
  8
0
100
AcDbLine
 62
7
  6
CONTINUOUS
 10
230.0886181313
 20
76.5600156255
 11
230.0886181313
 21
76.7785417275
  0
LINE
  5
4BE
100
AcDbEntity
  8
0
100
AcDbLine
 62
7
  6
CONTINUOUS
 10
230.1076154994
 20
70.1958876054
 11
230.1076154994
 21
70.2665982835
  0
LINE
  5
4BF
100
AcDbEntity
  8
0
100
AcDbLine
 62
7
  6
CONTINUOUS
 10
230.1176154994
 20
76.781738744
 11
230.1176154994
 21
76.8524494221
  0
LINE
  5
4C0
100
AcDbEntity
  8
0
100
AcDbLine
 62
7
  6
CONTINUOUS
 10
230.1656103188
 20
69.2843592679
 11
230.1656103188
 21
69.355069946
  0
LINE
  5
4C1
100
AcDbEntity
  8
0
100
AcDbLine
 62
7
  6
CONTINUOUS
 10
230.1656103188
 20
69.678533676
 11
230.1656103188
 21
69.7492443541
  0
LINE
  5
4C2
100
AcDbEntity
  8
0
100
AcDbLine
 62
7
  6
CONTINUOUS
 10
230.1656103188
 20
70.2697953
 11
230.1656103188
 21
70.3405059781
  0
LINE
  5
4C3
100
AcDbEntity
  8
0
100
AcDbLine
 62
7
  6
CONTINUOUS
 10
230.1756103188
 20
75.8702104065
 11
230.1756103188
 21
75.9409210846
  0
LINE
  5
4C4
100
AcDbEntity
  8
0
100
AcDbLine
 62
7
  6
CONTINUOUS
 10
230.1756103188
 20
76.2643848146
 11
230.1756103188
 21
76.3350954927
  0
LINE
  5
4C5
100
AcDbEntity
  8
0
100
AcDbLine
 62
7
  6
CONTINUOUS
 10
230.1756103188
 20
76.8556464386
 11
230.1756103188
 21
76.9263571168
  0
LINE
  5
4C6
100
AcDbEntity
  8
0
100
AcDbLine
 62
7
  6
CONTINUOUS
 10
230.2815998744
 20
69.2597233696
 11
230.2815998744
 21
69.3304340478
  0
LINE
  5
4C7
100
AcDbEntity
  8
0
100
AcDbLine
 62
7
  6
CONTINUOUS
 10
230.2815998744
 20
69.6538977756
 11
230.2815998744
 21
69.7246084537
  0
LINE
  5
4C8
100
AcDbEntity
  8
0
100
AcDbLine
 62
7
  6
CONTINUOUS
 10
230.2815998744
 20
70.3190670965
 11
230.2815998744
 21
70.3897777746
  0
LINE
  5
4C9
100
AcDbEntity
  8
0
100
AcDbLine
 62
7
  6
CONTINUOUS
 10
230.2915998744
 20
75.8455745083
 11
230.2915998744
 21
75.9162851864
  0
LINE
  5
4CA
100
AcDbEntity
  8
0
100
AcDbLine
 62
7
  6
CONTINUOUS
 10
230.2915998744
 20
76.2397489142
 11
230.2915998744
 21
76.3104595923
  0
LINE
  5
4CB
100
AcDbEntity
  8
0
100
AcDbLine
 62
7
  6
CONTINUOUS
 10
230.2915998744
 20
76.9049182351
 11
230.2915998744
 21
76.9756289132
  0
LINE
  5
4CC
100
AcDbEntity
  8
0
100
AcDbLine
 62
7
  6
CONTINUOUS
 10
224.2344962913
 20
73.8399600689
 11
224.2418408608
 21
73.9457455672
  0
LINE
  5
4CD
100
AcDbEntity
  8
0
100
AcDbLine
 62
7
  6
CONTINUOUS
 10
224.2344962913
 20
73.7692493908
 11
224.2418408608
 21
73.8750348891
  0
LINE
  5
4CE
100
AcDbEntity
  8
0
100
AcDbLine
 62
7
  6
CONTINUOUS
 10
224.8800413322
 20
74.004274146
 11
224.8726966421
 21
73.8984886712
  0
LINE
  5
4CF
100
AcDbEntity
  8
0
100
AcDbLine
 62
7
  6
CONTINUOUS
 10
223.3678115008
 20
74.1998867883
 11
223.373309173
 21
74.2463713836
  0
LINE
  5
4D0
100
AcDbEntity
  8
0
100
AcDbLine
 62
7
  6
CONTINUOUS
 10
223.3678115008
 20
74.1291761102
 11
223.373309173
 21
74.1756607055
  0
LINE
  5
4D1
100
AcDbEntity
  8
0
100
AcDbLine
 62
7
  6
CONTINUOUS
 10
223.874704791
 20
74.1224603089
 11
223.8692070939
 21
74.0759756986
  0
LINE
  5
4D2
100
AcDbEntity
  8
0
100
AcDbLine
 62
7
  6
CONTINUOUS
 10
224.0800668132
 20
74.3179070596
 11
224.0855644989
 21
74.3643916509
  0
LINE
  5
4D3
100
AcDbEntity
  8
0
100
AcDbLine
 62
7
  6
CONTINUOUS
 10
224.3800108812
 20
80.9591860335
 11
224.384472949
 21
80.9928227618
  0
LINE
  5
4D4
100
AcDbEntity
  8
0
100
AcDbLine
 62
7
  6
CONTINUOUS
 10
224.3800108812
 20
80.8884753554
 11
224.3904942384
 21
80.9675028054
  0
LINE
  5
4D5
100
AcDbEntity
  8
0
100
AcDbLine
 62
7
  6
CONTINUOUS
 10
230.5397248744
 20
114.2803025214
 11
230.8397248744
 21
114.2803025214
  0
LINE
  5
4D6
100
AcDbEntity
  8
RUNDUNGEN
100
AcDbLine
 62
7
  6
CONTINUOUS
 10
235.3698519078
 20
99.1712540899
 11
232.4154671826
 21
104.2883985392
  0
LINE
  5
4D7
100
AcDbEntity
  8
0
100
AcDbLine
 62
7
  6
CONTINUOUS
 10
230.4555842494
 20
69.2597233696
 11
230.4555842494
 21
69.3304340478
  0
LINE
  5
4D8
100
AcDbEntity
  8
0
100
AcDbLine
 62
7
  6
CONTINUOUS
 10
230.4555842494
 20
69.6538977756
 11
230.4555842494
 21
69.7246084537
  0
LINE
  5
4D9
100
AcDbEntity
  8
0
100
AcDbLine
 62
7
  6
CONTINUOUS
 10
230.4555842494
 20
70.3190670965
 11
230.4555842494
 21
70.3897777746
  0
LINE
  5
4DA
100
AcDbEntity
  8
0
100
AcDbLine
 62
7
  6
CONTINUOUS
 10
230.4655842494
 20
75.8455745083
 11
230.4655842494
 21
75.9162851864
  0
LINE
  5
4DB
100
AcDbEntity
  8
0
100
AcDbLine
 62
7
  6
CONTINUOUS
 10
230.4655842494
 20
76.2397489142
 11
230.4655842494
 21
76.3104595923
  0
LINE
  5
4DC
100
AcDbEntity
  8
0
100
AcDbLine
 62
7
  6
CONTINUOUS
 10
230.4655842494
 20
76.9049182351
 11
230.4655842494
 21
76.9756289132
  0
LINE
  5
4DD
100
AcDbEntity
  8
RUNDUNGEN
100
AcDbLine
 62
7
  6
CONTINUOUS
 10
230.5397248744
 20
111.2885785239
 11
230.5397248744
 21
161.8958435228
  0
LINE
  5
4DE
100
AcDbEntity
  8
0
100
AcDbLine
 62
7
  6
CONTINUOUS
 10
230.5715738881
 20
69.2843592679
 11
230.5715738881
 21
69.355069946
  0
LINE
  5
4DF
100
AcDbEntity
  8
0
100
AcDbLine
 62
7
  6
CONTINUOUS
 10
230.5715738881
 20
69.678533676
 11
230.5715738881
 21
69.7492443541
  0
LINE
  5
4E0
100
AcDbEntity
  8
0
100
AcDbLine
 62
7
  6
CONTINUOUS
 10
230.5715738881
 20
70.2944311982
 11
230.5715738881
 21
70.3651418764
  0
LINE
  5
4E1
100
AcDbEntity
  8
0
100
AcDbLine
 62
7
  6
CONTINUOUS
 10
230.5815738881
 20
75.8702104065
 11
230.5815738881
 21
75.9409210846
  0
LINE
  5
4E2
100
AcDbEntity
  8
0
100
AcDbLine
 62
7
  6
CONTINUOUS
 10
230.5815738881
 20
76.2643848146
 11
230.5815738881
 21
76.3350954927
  0
LINE
  5
4E3
100
AcDbEntity
  8
0
100
AcDbLine
 62
7
  6
CONTINUOUS
 10
230.5815738881
 20
76.8802823369
 11
230.5815738881
 21
76.950993015
  0
LINE
  5
4E4
100
AcDbEntity
  8
0
100
AcDbLine
 62
7
  6
CONTINUOUS
 10
230.6295686244
 20
69.7031695764
 11
230.6295686244
 21
69.7738802545
  0
LINE
  5
4E5
100
AcDbEntity
  8
0
100
AcDbLine
 62
7
  6
CONTINUOUS
 10
230.6395686244
 20
76.289020715
 11
230.6395686244
 21
76.3597313931
  0
LINE
  5
4E6
100
AcDbEntity
  8
0
100
AcDbLine
 62
7
  6
CONTINUOUS
 10
230.6585660756
 20
69.3089951661
 11
230.6585660756
 21
69.3797058442
  0
LINE
  5
4E7
100
AcDbEntity
  8
0
100
AcDbLine
 62
7
  6
CONTINUOUS
 10
230.6585660756
 20
70.2451594018
 11
230.6585660756
 21
70.3158700799
  0
LINE
  5
4E8
100
AcDbEntity
  8
0
100
AcDbLine
 62
7
  6
CONTINUOUS
 10
230.6685660756
 20
75.8948463047
 11
230.6685660756
 21
75.9655569828
  0
LINE
  5
4E9
100
AcDbEntity
  8
0
100
AcDbLine
 62
7
  6
CONTINUOUS
 10
230.6685660756
 20
76.8310105404
 11
230.6685660756
 21
76.9017212185
  0
LINE
  5
4EA
100
AcDbEntity
  8
0
100
AcDbLine
 62
7
  6
CONTINUOUS
 10
230.6875633608
 20
69.7524413771
 11
230.6875633608
 21
69.8231520552
  0
LINE
  5
4EB
100
AcDbEntity
  8
0
100
AcDbLine
 62
7
  6
CONTINUOUS
 10
230.6975633608
 20
76.3382925157
 11
230.6975633608
 21
76.4090031938
  0
LINE
  5
4EC
100
AcDbEntity
  8
0
100
AcDbLine
 62
7
  6
CONTINUOUS
 10
230.7165608119
 20
70.4422465875
 11
230.7165608119
 21
70.2944311982
  0
LINE
  5
4ED
100
AcDbEntity
  8
0
100
AcDbLine
 62
7
  6
CONTINUOUS
 10
230.7165608119
 20
69.6046259749
 11
230.7165608119
 21
69.8724238603
  0
LINE
  5
4EE
100
AcDbEntity
  8
0
100
AcDbLine
 62
7
  6
CONTINUOUS
 10
230.7165608119
 20
69.9248926905
 11
230.7165608119
 21
70.2419623853
  0
LINE
  5
4EF
100
AcDbEntity
  8
0
100
AcDbLine
 62
7
  6
CONTINUOUS
 10
230.7265608119
 20
77.0280977262
 11
230.7265608119
 21
76.8802823369
  0
LINE
  5
4F0
100
AcDbEntity
  8
0
100
AcDbLine
 62
7
  6
CONTINUOUS
 10
230.7265608119
 20
76.1904771135
 11
230.7265608119
 21
76.4582749989
  0
LINE
  5
4F1
100
AcDbEntity
  8
0
100
AcDbLine
 62
7
  6
CONTINUOUS
 10
230.7265608119
 20
76.5107438291
 11
230.7265608119
 21
76.8278135239
  0
LINE
  5
4F2
100
AcDbEntity
  8
0
100
AcDbLine
 62
7
  6
CONTINUOUS
 10
230.7455582631
 20
69.3582669625
 11
230.7455582631
 21
69.4289776406
  0
LINE
  5
4F3
100
AcDbEntity
  8
0
100
AcDbLine
 62
7
  6
CONTINUOUS
 10
230.7555582631
 20
75.9441181011
 11
230.7555582631
 21
76.0148287792
  0
LINE
  5
4F4
100
AcDbEntity
  8
0
100
AcDbLine
 62
7
  6
CONTINUOUS
 10
230.7671768008
 20
77.9256329019
 11
230.7671768008
 21
78.0645793844
  0
LINE
  5
4F5
100
AcDbEntity
  8
0
100
AcDbLine
 62
7
  6
CONTINUOUS
 10
230.8035529994
 20
69.4321746572
 11
230.8035529994
 21
69.5028853353
  0
LINE
  5
4F6
100
AcDbEntity
  8
0
100
AcDbLine
 62
7
  6
CONTINUOUS
 10
230.8135529994
 20
76.0180257958
 11
230.8135529994
 21
76.0887364739
  0
LINE
  5
4F7
100
AcDbEntity
  8
0
100
AcDbLine
 62
7
  6
CONTINUOUS
 10
230.8397248744
 20
157.6727140798
 11
230.8397248744
 21
145.1760418516
  0
LINE
  5
4F8
100
AcDbEntity
  8
0
100
AcDbLine
 62
7
  6
CONTINUOUS
 10
230.8397248744
 20
129.3850039158
 11
230.8397248744
 21
124.2004547369
  0
LINE
  5
4F9
100
AcDbEntity
  8
0
100
AcDbLine
 62
7
  6
CONTINUOUS
 10
230.8397248744
 20
124.1764017339
 11
230.8397248744
 21
119.5985343471
  0
LINE
  5
4FA
100
AcDbEntity
  8
0
100
AcDbLine
 62
7
  6
CONTINUOUS
 10
230.8397248744
 20
118.967799552
 11
230.8397248744
 21
114.2808388771
  0
LINE
  5
4FB
100
AcDbEntity
  8
0
100
AcDbLine
 62
7
  6
CONTINUOUS
 10
230.8615477358
 20
69.6046259749
 11
230.8615477358
 21
70.4422465875
  0
LINE
  5
4FC
100
AcDbEntity
  8
0
100
AcDbLine
 62
7
  6
CONTINUOUS
 10
230.8715477358
 20
76.1904771135
 11
230.8715477358
 21
77.0280977262
  0
LINE
  5
4FD
100
AcDbEntity
  8
0
100
AcDbLine
 62
7
  6
CONTINUOUS
 10
231.1247248744
 20
69.1720045042
 11
231.1247248744
 21
71.2901070367
  0
LINE
  5
4FE
100
AcDbEntity
  8
0
100
AcDbLine
 62
7
  6
CONTINUOUS
 10
231.1247248744
 20
75.7024891819
 11
231.1247248744
 21
77.9256329019
  0
LINE
  5
4FF
100
AcDbEntity
  8
0
100
AcDbLine
 62
7
  6
CONTINUOUS
 10
231.3212248744
 20
69.0330580217
 11
231.3212248744
 21
71.2098862476
  0
LINE
  5
500
100
AcDbEntity
  8
0
100
AcDbLine
 62
7
  6
CONTINUOUS
 10
231.3212248744
 20
75.5635426994
 11
231.3212248744
 21
77.9256329019
  0
LINE
  5
501
100
AcDbEntity
  8
0
100
AcDbLine
 62
7
  6
CONTINUOUS
 10
224.2891555328
 20
80.9539588244
 11
224.2792098503
 21
80.9078451146
  0
LINE
  5
502
100
AcDbEntity
  8
0
100
AcDbLine
 62
7
  6
CONTINUOUS
 10
224.1387434714
 20
73.8731203644
 11
224.1227998493
 21
73.8082609454
  0
LINE
  5
503
100
AcDbEntity
  8
0
100
AcDbLine
 62
7
  6
CONTINUOUS
 10
222.7165221765
 20
81.3714234272
 11
222.6857364536
 21
81.2854472476
  0
LINE
  5
504
100
AcDbEntity
  8
0
100
AcDbLine
 62
7
  6
CONTINUOUS
 10
223.2590207647
 20
81.471254115
 11
223.1927444491
 21
81.2861623294
  0
LINE
  5
505
100
AcDbEntity
  8
0
100
AcDbLine
 62
7
  6
CONTINUOUS
 10
223.1619587262
 20
81.2001861498
 11
223.0901253824
 21
80.9995750908
  0
LINE
  5
506
100
AcDbEntity
  8
0
100
AcDbLine
 62
7
  6
CONTINUOUS
 10
230.5397248744
 20
118.3098000758
 11
230.8397248744
 21
118.3098000758
  0
LINE
  5
507
100
AcDbEntity
  8
0
100
AcDbLine
 62
7
  6
CONTINUOUS
 10
230.5397248744
 20
118.7910796927
 11
230.8397248744
 21
118.7910796927
  0
LINE
  5
508
100
AcDbEntity
  8
0
100
AcDbLine
 62
7
  6
CONTINUOUS
 10
230.5397248744
 20
118.8575063064
 11
230.8397248744
 21
118.8575063064
  0
LINE
  5
509
100
AcDbEntity
  8
0
100
AcDbLine
 62
7
  6
CONTINUOUS
 10
230.5397248744
 20
118.967799552
 11
230.8397248744
 21
118.967799552
  0
LINE
  5
50A
100
AcDbEntity
  8
0
100
AcDbLine
 62
7
  6
CONTINUOUS
 10
230.5397248744
 20
119.5981611754
 11
230.8397248744
 21
119.5981611754
  0
LINE
  5
50B
100
AcDbEntity
  8
RUNDUNGEN
100
AcDbLine
 62
7
  6
CONTINUOUS
 10
237.1897248744
 20
61.9467874141
 11
237.1897248744
 21
63.7530916866
  0
LINE
  5
50C
100
AcDbEntity
  8
0
100
AcDbLine
 62
7
  6
CONTINUOUS
 10
224.9757941133
 20
73.9711138833
 11
224.9837274244
 21
74.0033868784
  0
LINE
  5
50D
100
AcDbEntity
  8
0
100
AcDbLine
 62
7
  6
CONTINUOUS
 10
224.9757941133
 20
73.9004032052
 11
224.9917377742
 21
73.9652625914
  0
LINE
  5
50E
100
AcDbEntity
  8
0
100
AcDbLine
 62
7
  6
CONTINUOUS
 10
224.3454748793
 20
83.3691816454
 11
224.3045373744
 21
83.2509293339
  0
LINE
  5
50F
100
AcDbEntity
  8
0
100
AcDbLine
 62
7
  6
CONTINUOUS
 10
223.2091809506
 20
81.0489704945
 11
223.2810142944
 21
81.2495815535
  0
LINE
  5
510
100
AcDbEntity
  8
0
100
AcDbLine
 62
7
  6
CONTINUOUS
 10
223.3118000172
 20
81.3355577331
 11
223.3603891872
 21
81.471254115
  0
LINE
  5
511
100
AcDbEntity
  8
0
100
AcDbLine
 62
7
  6
CONTINUOUS
 10
223.2091809506
 20
80.9782598164
 11
223.2810142944
 21
81.1788708754
  0
LINE
  5
512
100
AcDbEntity
  8
0
100
AcDbLine
 62
7
  6
CONTINUOUS
 10
223.3118000172
 20
81.264847055
 11
223.3857087508
 21
81.471254115
  0
LINE
  5
513
100
AcDbEntity
  8
0
100
AcDbLine
 62
7
  6
CONTINUOUS
 10
223.4794402224
 20
81.2140560995
 11
223.4864317788
 21
81.2335816217
  0
LINE
  5
514
100
AcDbEntity
  8
0
100
AcDbLine
 62
7
  6
CONTINUOUS
 10
223.4794402224
 20
81.1433454214
 11
223.5102259452
 21
81.229321601
  0
LINE
  5
515
100
AcDbEntity
  8
0
100
AcDbLine
 62
7
  6
CONTINUOUS
 10
223.3088583242
 20
74.29111755
 11
223.2708816902
 21
74.1901493493
  0
LINE
  5
516
100
AcDbEntity
  8
0
100
AcDbLine
 62
7
  6
CONTINUOUS
 10
224.5501623744
 20
83.3603126558
 11
224.5910998647
 21
83.4490019722
  0
LINE
  5
517
100
AcDbEntity
  8
0
100
AcDbLine
 62
7
  6
CONTINUOUS
 10
224.5501623744
 20
83.2213661733
 11
224.5910998647
 21
83.3100554897
  0
LINE
  5
518
100
AcDbEntity
  8
RUNDUNGEN
100
AcDbLine
 62
7
  6
CONTINUOUS
 10
239.0397248744
 20
82.471254115
 11
239.0397248744
 21
93.3761818137
  0
LINE
  5
519
100
AcDbEntity
  8
RUNDUNGEN
100
AcDbLine
 62
7
  6
CONTINUOUS
 10
239.2020486453
 20
84.2521507671
 11
239.2020486453
 21
82.8379372047
  0
LINE
  5
51A
100
AcDbEntity
  8
RUNDUNGEN
100
AcDbLine
 62
7
  6
CONTINUOUS
 10
240.0397248744
 20
66.9523523925
 11
240.0397248744
 21
63.1973057566
  0
LINE
  5
51B
100
AcDbEntity
  8
0
100
AcDbLine
 62
7
  6
CONTINUOUS
 10
229.9726284926
 20
76.8310105404
 11
229.9436311244
 21
76.7324669476
  0
LINE
  5
51C
100
AcDbEntity
  8
0
100
AcDbLine
 62
7
  6
CONTINUOUS
 10
230.7265608119
 20
76.1904771135
 11
230.6975633608
 21
76.0919335077
  0
LINE
  5
51D
100
AcDbEntity
  8
0
100
AcDbLine
 62
7
  6
CONTINUOUS
 10
224.158986635
 20
73.9175167231
 11
224.1387434714
 21
73.8731203644
  0
LINE
  5
51E
100
AcDbEntity
  8
0
100
AcDbLine
 62
7
  6
CONTINUOUS
 10
224.9406553327
 20
81.2612300817
 11
224.9134056725
 21
81.2066362265
  0
LINE
  5
51F
100
AcDbEntity
  8
0
100
AcDbLine
 62
7
  6
CONTINUOUS
 10
225.087122173
 20
81.2339929815
 11
225.0977564556
 21
81.2552984393
  0
LINE
  5
520
100
AcDbEntity
  8
0
100
AcDbLine
 62
7
  6
CONTINUOUS
 10
225.087122173
 20
81.1632823034
 11
225.1143718332
 21
81.2178761586
  0
LINE
  5
521
100
AcDbEntity
  8
RUNDUNGEN
100
AcDbLine
 62
7
  6
CONTINUOUS
 10
209.4372343953
 20
89.412124086
 11
211.9684142122
 21
90.6653656299
  0
LINE
  5
522
100
AcDbEntity
  8
RUNDUNGEN
100
AcDbLine
 62
7
  6
CONTINUOUS
 10
209.4372343953
 20
87.9979105236
 11
211.9684142122
 21
89.2511520676
  0
LINE
  5
523
100
AcDbEntity
  8
0
100
AcDbLine
 62
7
  6
CONTINUOUS
 10
230.5397248744
 20
124.1764017339
 11
230.8397248744
 21
124.1764017339
  0
LINE
  5
524
100
AcDbEntity
  8
0
100
AcDbLine
 62
7
  6
CONTINUOUS
 10
230.5397248744
 20
124.2004547369
 11
230.8397248744
 21
124.2004547369
  0
LINE
  5
525
100
AcDbEntity
  8
0
100
AcDbLine
 62
7
  6
CONTINUOUS
 10
230.5397248744
 20
125.2085786711
 11
230.8397248744
 21
125.2085786711
  0
LINE
  5
526
100
AcDbEntity
  8
RUNDUNGEN
100
AcDbLine
 62
7
  6
CONTINUOUS
 10
243.4070484781
 20
88.805250656
 11
243.4070484781
 21
87.3910370936
  0
LINE
  5
527
100
AcDbEntity
  8
0
100
AcDbLine
 62
7
  6
CONTINUOUS
 10
229.9626284926
 20
70.2451594018
 11
229.9336311244
 21
70.1466158089
  0
LINE
  5
528
100
AcDbEntity
  8
0
100
AcDbLine
 62
7
  6
CONTINUOUS
 10
230.7165608119
 20
69.6046259749
 11
230.6875633608
 21
69.5060823691
  0
LINE
  5
529
100
AcDbEntity
  8
0
100
AcDbLine
 62
7
  6
CONTINUOUS
 10
230.8135529994
 20
76.0887364739
 11
230.8715477358
 21
76.2611877916
  0
LINE
  5
52A
100
AcDbEntity
  8
0
100
AcDbLine
 62
7
  6
CONTINUOUS
 10
230.8135529994
 20
76.0180257958
 11
230.8715477358
 21
76.1904771135
  0
LINE
  5
52B
100
AcDbEntity
  8
0
100
AcDbLine
 62
7
  6
CONTINUOUS
 10
230.8035529994
 20
69.5028853353
 11
230.8615477358
 21
69.675336653
  0
LINE
  5
52C
100
AcDbEntity
  8
0
100
AcDbLine
 62
7
  6
CONTINUOUS
 10
230.8035529994
 20
69.4321746572
 11
230.8615477358
 21
69.6046259749
  0
LINE
  5
52D
100
AcDbEntity
  8
0
100
AcDbLine
 62
7
  6
CONTINUOUS
 10
230.0886181313
 20
76.7785417275
 11
230.1176154994
 21
76.8524494221
  0
LINE
  5
52E
100
AcDbEntity
  8
0
100
AcDbLine
 62
7
  6
CONTINUOUS
 10
230.0886181313
 20
76.7078310493
 11
230.1176154994
 21
76.781738744
  0
LINE
  5
52F
100
AcDbEntity
  8
0
100
AcDbLine
 62
7
  6
CONTINUOUS
 10
224.9555509628
 20
73.9267174668
 11
224.9757941133
 21
73.9711138833
  0
LINE
  5
530
100
AcDbEntity
  8
0
100
AcDbLine
 62
7
  6
CONTINUOUS
 10
224.9555509628
 20
73.8560067886
 11
224.9757941133
 21
73.9004032052
  0
LINE
  5
531
100
AcDbEntity
  8
0
100
AcDbLine
 62
7
  6
CONTINUOUS
 10
223.3656964963
 20
74.3864638235
 11
223.3088583242
 21
74.29111755
  0
LINE
  5
532
100
AcDbEntity
  8
0
100
AcDbLine
 62
7
  6
CONTINUOUS
 10
223.4437647608
 20
74.4018231697
 11
223.4600042385
 21
74.4290649621
  0
LINE
  5
533
100
AcDbEntity
  8
0
100
AcDbLine
 62
7
  6
CONTINUOUS
 10
223.373309173
 20
74.2463713836
 11
223.3976683896
 21
74.2872340722
  0
LINE
  5
534
100
AcDbEntity
  8
0
100
AcDbLine
 62
7
  6
CONTINUOUS
 10
223.4437647608
 20
74.3311124916
 11
223.4600042385
 21
74.358354284
  0
LINE
  5
535
100
AcDbEntity
  8
0
100
AcDbLine
 62
7
  6
CONTINUOUS
 10
223.373309173
 20
74.1756607055
 11
223.3976683896
 21
74.2165233941
  0
LINE
  5
536
100
AcDbEntity
  8
0
100
AcDbLine
 62
7
  6
CONTINUOUS
 10
223.8692070939
 20
74.0759756986
 11
223.8448478773
 21
74.03511301
  0
LINE
  5
537
100
AcDbEntity
  8
0
100
AcDbLine
 62
7
  6
CONTINUOUS
 10
223.9310359009
 20
74.0640932463
 11
223.9716346066
 21
74.1321977464
  0
LINE
  5
538
100
AcDbEntity
  8
0
100
AcDbLine
 62
7
  6
CONTINUOUS
 10
223.9310359009
 20
73.9933825682
 11
223.9716346066
 21
74.0614870683
  0
LINE
  5
539
100
AcDbEntity
  8
0
100
AcDbLine
 62
7
  6
CONTINUOUS
 10
225.6145374135
 20
82.5325464136
 11
225.6964123354
 21
82.6507987457
  0
LINE
  5
53A
100
AcDbEntity
  8
0
100
AcDbLine
 62
7
  6
CONTINUOUS
 10
225.6145374135
 20
82.3935999311
 11
225.6964123354
 21
82.5118522632
  0
LINE
  5
53B
100
AcDbEntity
  8
0
100
AcDbLine
 62
7
  6
CONTINUOUS
 10
223.9702122901
 20
81.471254115
 11
223.7596139319
 21
81.1757767655
  0
LINE
  5
53C
100
AcDbEntity
  8
0
100
AcDbLine
 62
7
  6
CONTINUOUS
 10
223.8980473594
 20
81.2799173402
 11
224.0344206236
 21
81.471254115
  0
LINE
  5
53D
100
AcDbEntity
  8
0
100
AcDbLine
 62
7
  6
CONTINUOUS
 10
223.8980473594
 20
81.2092066621
 11
224.0485769725
 21
81.4204053222
  0
LINE
  5
53E
100
AcDbEntity
  8
0
100
AcDbLine
 62
7
  6
CONTINUOUS
 10
224.2792098503
 20
80.9078451146
 11
224.260393652
 21
80.8814452867
  0
LINE
  5
53F
100
AcDbEntity
  8
0
100
AcDbLine
 62
7
  6
CONTINUOUS
 10
224.5786562481
 20
81.3022117994
 11
224.5855066811
 21
81.3118232123
  0
LINE
  5
540
100
AcDbEntity
  8
0
100
AcDbLine
 62
7
  6
CONTINUOUS
 10
224.3423784845
 20
80.9063863778
 11
224.3800108812
 21
80.9591860335
  0
LINE
  5
541
100
AcDbEntity
  8
0
100
AcDbLine
 62
7
  6
CONTINUOUS
 10
224.5786562481
 20
81.2315011213
 11
224.625696744
 21
81.297500691
  0
LINE
  5
542
100
AcDbEntity
  8
0
100
AcDbLine
 62
7
  6
CONTINUOUS
 10
224.3423784845
 20
80.8356756996
 11
224.3800108812
 21
80.8884753554
  0
LINE
  5
543
100
AcDbEntity
  8
0
100
AcDbLine
 62
7
  6
CONTINUOUS
 10
230.5397248744
 20
127.8514368377
 11
230.8397248744
 21
127.8514368377
  0
LINE
  5
544
100
AcDbEntity
  8
0
100
AcDbLine
 62
7
  6
CONTINUOUS
 10
230.5397248744
 20
128.7244977749
 11
230.8397248744
 21
128.7244977749
  0
LINE
  5
545
100
AcDbEntity
  8
0
100
AcDbLine
 62
7
  6
CONTINUOUS
 10
230.5397248744
 20
129.2082840565
 11
230.8397248744
 21
129.2082840565
  0
LINE
  5
546
100
AcDbEntity
  8
0
100
AcDbLine
 62
7
  6
CONTINUOUS
 10
230.5397248744
 20
129.2747106702
 11
230.8397248744
 21
129.2747106702
  0
LINE
  5
547
100
AcDbEntity
  8
0
100
AcDbLine
 62
7
  6
CONTINUOUS
 10
230.5397248744
 20
129.3850039158
 11
230.8397248744
 21
129.3850039158
  0
LINE
  5
548
100
AcDbEntity
  8
0
100
AcDbLine
 62
7
  6
CONTINUOUS
 10
230.0786181313
 20
70.1926905889
 11
230.1076154994
 21
70.2665982835
  0
LINE
  5
549
100
AcDbEntity
  8
0
100
AcDbLine
 62
7
  6
CONTINUOUS
 10
230.0786181313
 20
70.1219799107
 11
230.1076154994
 21
70.1958876054
  0
LINE
  5
54A
100
AcDbEntity
  8
0
100
AcDbLine
 62
7
  6
CONTINUOUS
 10
230.0016259438
 20
76.8802823369
 11
229.9726284926
 21
76.8310105404
  0
LINE
  5
54B
100
AcDbEntity
  8
0
100
AcDbLine
 62
7
  6
CONTINUOUS
 10
225.2628179395
 20
74.0183287321
 11
225.229441511
 21
73.9654631665
  0
LINE
  5
54C
100
AcDbEntity
  8
0
100
AcDbLine
 62
7
  6
CONTINUOUS
 10
225.3976586303
 20
73.9830722974
 11
225.4159681545
 21
74.0120731042
  0
LINE
  5
54D
100
AcDbEntity
  8
0
100
AcDbLine
 62
7
  6
CONTINUOUS
 10
225.3976586303
 20
73.9123616193
 11
225.4310350588
 21
73.9652271849
  0
LINE
  5
54E
100
AcDbEntity
  8
0
100
AcDbLine
 62
7
  6
CONTINUOUS
 10
224.2037724819
 20
73.9858464297
 11
224.158986635
 21
73.9175167231
  0
LINE
  5
54F
100
AcDbEntity
  8
0
100
AcDbLine
 62
7
  6
CONTINUOUS
 10
224.9107650857
 20
73.8583878012
 11
224.9555509628
 21
73.9267174668
  0
LINE
  5
550
100
AcDbEntity
  8
0
100
AcDbLine
 62
7
  6
CONTINUOUS
 10
224.9107650857
 20
73.7876771231
 11
224.9555509628
 21
73.8560067886
  0
LINE
  5
551
100
AcDbEntity
  8
0
100
AcDbLine
 62
7
  6
CONTINUOUS
 10
224.2418408608
 20
73.9457455672
 11
224.2988980882
 21
74.0260419152
  0
LINE
  5
552
100
AcDbEntity
  8
0
100
AcDbLine
 62
7
  6
CONTINUOUS
 10
224.2418408608
 20
73.8750348891
 11
224.2988980882
 21
73.955331237
  0
LINE
  5
553
100
AcDbEntity
  8
0
100
AcDbLine
 62
7
  6
CONTINUOUS
 10
224.8726966421
 20
73.8984886712
 11
224.8156395268
 21
73.8181922914
  0
LINE
  5
554
100
AcDbEntity
  8
0
100
AcDbLine
 62
7
  6
CONTINUOUS
 10
225.4507873354
 20
82.5414153411
 11
225.3689124135
 21
82.4527261075
  0
LINE
  5
555
100
AcDbEntity
  8
0
100
AcDbLine
 62
7
  6
CONTINUOUS
 10
230.6975633608
 20
76.4090031938
 11
230.7265608119
 21
76.4582749989
  0
LINE
  5
556
100
AcDbEntity
  8
0
100
AcDbLine
 62
7
  6
CONTINUOUS
 10
230.6975633608
 20
76.3382925157
 11
230.7265608119
 21
76.3875643208
  0
LINE
  5
557
100
AcDbEntity
  8
0
100
AcDbLine
 62
7
  6
CONTINUOUS
 10
230.6975633608
 20
76.0919335077
 11
230.6685660756
 21
76.0426617112
  0
LINE
  5
558
100
AcDbEntity
  8
0
100
AcDbLine
 62
7
  6
CONTINUOUS
 10
229.9916259438
 20
70.2944311982
 11
229.9626284926
 21
70.2451594018
  0
LINE
  5
559
100
AcDbEntity
  8
0
100
AcDbLine
 62
7
  6
CONTINUOUS
 10
230.6875633608
 20
69.8231520552
 11
230.7165608119
 21
69.8724238603
  0
LINE
  5
55A
100
AcDbEntity
  8
0
100
AcDbLine
 62
7
  6
CONTINUOUS
 10
230.1176154994
 20
76.8524494221
 11
230.1756103188
 21
76.9263571168
  0
LINE
  5
55B
100
AcDbEntity
  8
0
100
AcDbLine
 62
7
  6
CONTINUOUS
 10
230.1176154994
 20
76.781738744
 11
230.1756103188
 21
76.8556464386
  0
LINE
  5
55C
100
AcDbEntity
  8
0
100
AcDbLine
 62
7
  6
CONTINUOUS
 10
223.4413962178
 20
74.4761881887
 11
223.3656964963
 21
74.3864638235
  0
LINE
  5
55D
100
AcDbEntity
  8
0
100
AcDbLine
 62
7
  6
CONTINUOUS
 10
223.4600042385
 20
74.4290649621
 11
223.5275842229
 21
74.5051684306
  0
LINE
  5
55E
100
AcDbEntity
  8
0
100
AcDbLine
 62
7
  6
CONTINUOUS
 10
223.4600042385
 20
74.358354284
 11
223.5275842229
 21
74.4344577525
  0
LINE
  5
55F
100
AcDbEntity
  8
RUNDUNGEN
100
AcDbLine
 62
7
  6
CONTINUOUS
 10
213.3950911074
 20
67.7493166753
 11
219.3745158409
 21
73.7876575185
  0
LINE
  5
560
100
AcDbEntity
  8
RUNDUNGEN
100
AcDbLine
 62
7
  6
CONTINUOUS
 10
213.3950911074
 20
66.3351031129
 11
219.3745158409
 21
72.3734439561
  0
LINE
  5
561
100
AcDbEntity
  8
0
100
AcDbLine
 62
7
  6
CONTINUOUS
 10
229.0397248744
 20
82.8075507859
 11
228.8322248744
 21
82.6389735229
  0
LINE
  5
562
100
AcDbEntity
  8
0
100
AcDbLine
 62
7
  6
CONTINUOUS
 10
224.5092248842
 20
83.4874339568
 11
224.3454748793
 21
83.3691816454
  0
LINE
  5
563
100
AcDbEntity
  8
0
100
AcDbLine
 62
7
  6
CONTINUOUS
 10
225.4507873354
 20
82.4142940918
 11
225.6145374135
 21
82.5325464136
  0
LINE
  5
564
100
AcDbEntity
  8
0
100
AcDbLine
 62
7
  6
CONTINUOUS
 10
225.4507873354
 20
82.2753476093
 11
225.6145374135
 21
82.3935999311
  0
LINE
  5
565
100
AcDbEntity
  8
0
100
AcDbLine
 62
7
  6
CONTINUOUS
 10
224.260393652
 20
80.8814452867
 11
224.2138907263
 21
80.8483594944
  0
LINE
  5
566
100
AcDbEntity
  8
0
100
AcDbLine
 62
7
  6
CONTINUOUS
 10
224.5910998647
 20
83.4490019722
 11
224.713912394
 21
83.5081281279
  0
LINE
  5
567
100
AcDbEntity
  8
0
100
AcDbLine
 62
7
  6
CONTINUOUS
 10
230.6875633608
 20
69.7524413771
 11
230.7165608119
 21
69.8017131822
  0
LINE
  5
568
100
AcDbEntity
  8
0
100
AcDbLine
 62
7
  6
CONTINUOUS
 10
230.6875633608
 20
69.5060823691
 11
230.6585660756
 21
69.4568105726
  0
LINE
  5
569
100
AcDbEntity
  8
0
100
AcDbLine
 62
7
  6
CONTINUOUS
 10
230.7265608119
 20
76.5107438291
 11
230.6685660756
 21
76.4368361172
  0
LINE
  5
56A
100
AcDbEntity
  8
0
100
AcDbLine
 62
7
  6
CONTINUOUS
 10
230.7555582631
 20
76.0148287792
 11
230.8135529994
 21
76.0887364739
  0
LINE
  5
56B
100
AcDbEntity
  8
0
100
AcDbLine
 62
7
  6
CONTINUOUS
 10
230.7555582631
 20
75.9441181011
 11
230.8135529994
 21
76.0180257958
  0
LINE
  5
56C
100
AcDbEntity
  8
0
100
AcDbLine
 62
7
  6
CONTINUOUS
 10
229.2766910341
 20
76.7785417275
 11
229.5252376896
 21
77.0280977262
  0
LINE
  5
56D
100
AcDbEntity
  8
0
100
AcDbLine
 62
7
  6
CONTINUOUS
 10
229.2766910341
 20
76.7078310493
 11
229.5956623744
 21
77.0280977262
  0
LINE
  5
56E
100
AcDbEntity
  8
0
100
AcDbLine
 62
7
  6
CONTINUOUS
 10
229.4216779994
 20
77.0280977262
 11
229.0447118502
 21
76.6585592184
  0
LINE
  5
56F
100
AcDbEntity
  8
0
100
AcDbLine
 62
7
  6
CONTINUOUS
 10
224.3142144796
 20
74.0935464201
 11
224.2037724819
 21
73.9858464297
  0
LINE
  5
570
100
AcDbEntity
  8
0
100
AcDbLine
 62
7
  6
CONTINUOUS
 10
224.2988980882
 20
74.0260419152
 11
224.3847974197
 21
74.1098085743
  0
LINE
  5
571
100
AcDbEntity
  8
0
100
AcDbLine
 62
7
  6
CONTINUOUS
 10
224.2988980882
 20
73.955331237
 11
224.3847974197
 21
74.0390978962
  0
LINE
  5
572
100
AcDbEntity
  8
0
100
AcDbLine
 62
7
  6
CONTINUOUS
 10
224.8156395268
 20
73.8181922914
 11
224.7297401952
 21
73.7344256323
  0
LINE
  5
573
100
AcDbEntity
  8
0
100
AcDbLine
 62
7
  6
CONTINUOUS
 10
224.800323088
 20
73.7506878108
 11
224.9107650857
 21
73.8583878012
  0
LINE
  5
574
100
AcDbEntity
  8
0
100
AcDbLine
 62
7
  6
CONTINUOUS
 10
224.800323088
 20
73.6799771327
 11
224.9107650857
 21
73.7876771231
  0
LINE
  5
575
100
AcDbEntity
  8
0
100
AcDbLine
 62
7
  6
CONTINUOUS
 10
223.5275842229
 20
74.5051684306
 11
223.5708050066
 21
74.5404092507
  0
LINE
  5
576
100
AcDbEntity
  8
0
100
AcDbLine
 62
7
  6
CONTINUOUS
 10
223.5275842229
 20
74.4344577525
 11
223.5708050066
 21
74.4696985726
  0
LINE
  5
577
100
AcDbEntity
  8
0
100
AcDbLine
 62
7
  6
CONTINUOUS
 10
223.3976683896
 20
74.2872340722
 11
223.440889162
 21
74.3224748732
  0
LINE
  5
578
100
AcDbEntity
  8
0
100
AcDbLine
 62
7
  6
CONTINUOUS
 10
223.3976683896
 20
74.2165233941
 11
223.440889162
 21
74.2517641951
  0
LINE
  5
579
100
AcDbEntity
  8
0
100
AcDbLine
 62
7
  6
CONTINUOUS
 10
223.8448478773
 20
74.03511301
 11
223.8016271298
 21
73.999872224
  0
LINE
  5
57A
100
AcDbEntity
  8
0
100
AcDbLine
 62
7
  6
CONTINUOUS
 10
226.5397248744
 20
81.3279746405
 11
224.8630270181
 21
80.1345770766
  0
LINE
  5
57B
100
AcDbEntity
  8
0
100
AcDbLine
 62
7
  6
CONTINUOUS
 10
224.7245364398
 20
80.0360057579
 11
221.9547248744
 21
78.0645793844
  0
LINE
  5
57C
100
AcDbEntity
  8
0
100
AcDbLine
 62
7
  6
CONTINUOUS
 10
222.3134074478
 20
78.0645793844
 11
226.5397248744
 21
81.0726806365
  0
LINE
  5
57D
100
AcDbEntity
  8
0
100
AcDbLine
 62
7
  6
CONTINUOUS
 10
222.3134074478
 20
77.9256329019
 11
226.5397248744
 21
80.933734154
  0
LINE
  5
57E
100
AcDbEntity
  8
0
100
AcDbLine
 62
7
  6
CONTINUOUS
 10
224.2587808303
 20
80.8534146606
 11
224.3423784845
 21
80.9063863778
  0
LINE
  5
57F
100
AcDbEntity
  8
0
100
AcDbLine
 62
7
  6
CONTINUOUS
 10
224.2587808303
 20
80.7827039825
 11
224.3423784845
 21
80.8356756996
  0
LINE
  5
580
100
AcDbEntity
  8
0
100
AcDbLine
 62
7
  6
CONTINUOUS
 10
222.9199879355
 20
81.471254115
 11
222.7165221765
 21
81.3714234272
  0
LINE
  5
581
100
AcDbEntity
  8
0
100
AcDbLine
 62
7
  6
CONTINUOUS
 10
222.8554203346
 20
81.417266286
 11
222.9662201955
 21
81.471254115
  0
LINE
  5
582
100
AcDbEntity
  8
0
100
AcDbLine
 62
7
  6
CONTINUOUS
 10
222.8554203346
 20
81.3465556078
 11
223.1113405578
 21
81.471254115
  0
LINE
  5
583
100
AcDbEntity
  8
0
100
AcDbLine
 62
7
  6
CONTINUOUS
 10
224.5910998647
 20
83.3100554897
 11
224.713912394
 21
83.3691816454
  0
LINE
  5
584
100
AcDbEntity
  8
0
100
AcDbLine
 62
7
  6
CONTINUOUS
 10
225.3689124135
 20
82.4527261075
 11
225.2460999135
 21
82.3935999311
  0
LINE
  5
585
100
AcDbEntity
  8
0
100
AcDbLine
 62
7
  6
CONTINUOUS
 10
225.025810493
 20
81.3013726291
 11
224.9406553327
 21
81.2612300817
  0
LINE
  5
586
100
AcDbEntity
  8
0
100
AcDbLine
 62
7
  6
CONTINUOUS
 10
225.0019670517
 20
81.1938505122
 11
225.087122173
 21
81.2339929815
  0
LINE
  5
587
100
AcDbEntity
  8
0
100
AcDbLine
 62
7
  6
CONTINUOUS
 10
225.0019670517
 20
81.1231398341
 11
225.087122173
 21
81.1632823034
  0
LINE
  5
588
100
AcDbEntity
  8
0
100
AcDbLine
 62
7
  6
CONTINUOUS
 10
224.2138907263
 20
80.8483594944
 11
224.1491092705
 21
80.8217876051
  0
LINE
  5
589
100
AcDbEntity
  8
0
100
AcDbLine
 62
7
  6
CONTINUOUS
 10
224.6729748744
 20
83.5465601125
 11
224.5092248842
 21
83.4874339568
  0
LINE
  5
58A
100
AcDbEntity
  8
0
100
AcDbLine
 62
7
  6
CONTINUOUS
 10
225.2870373744
 20
82.3551679283
 11
225.4507873354
 21
82.4142940918
  0
LINE
  5
58B
100
AcDbEntity
  8
0
100
AcDbLine
 62
7
  6
CONTINUOUS
 10
225.2870373744
 20
82.2162214458
 11
225.4507873354
 21
82.2753476093
  0
LINE
  5
58C
100
AcDbEntity
  8
0
100
AcDbLine
 62
7
  6
CONTINUOUS
 10
230.1076154994
 20
70.2665982835
 11
230.1656103188
 21
70.3405059781
  0
LINE
  5
58D
100
AcDbEntity
  8
0
100
AcDbLine
 62
7
  6
CONTINUOUS
 10
230.1076154994
 20
70.1958876054
 11
230.1656103188
 21
70.2697953
  0
LINE
  5
58E
100
AcDbEntity
  8
0
100
AcDbLine
 62
7
  6
CONTINUOUS
 10
230.7165608119
 20
69.9248926905
 11
230.6585660756
 21
69.8509849786
  0
LINE
  5
58F
100
AcDbEntity
  8
0
100
AcDbLine
 62
7
  6
CONTINUOUS
 10
230.7455582631
 20
69.4289776406
 11
230.8035529994
 21
69.5028853353
  0
LINE
  5
590
100
AcDbEntity
  8
0
100
AcDbLine
 62
7
  6
CONTINUOUS
 10
230.7455582631
 20
69.3582669625
 11
230.8035529994
 21
69.4321746572
  0
LINE
  5
591
100
AcDbEntity
  8
RUNDUNGEN
100
AcDbLine
 62
7
  6
CONTINUOUS
 10
243.0516822451
 20
86.5940728108
 11
242.0373123174
 21
85.5697081541
  0
LINE
  5
592
100
AcDbEntity
  8
RUNDUNGEN
100
AcDbLine
 62
7
  6
CONTINUOUS
 10
239.0954387754
 20
82.5988479199
 11
239.0397248744
 21
82.5425850621
  0
LINE
  5
593
100
AcDbEntity
  8
RUNDUNGEN
100
AcDbLine
 62
7
  6
CONTINUOUS
 10
237.9788469066
 20
81.471254115
 11
233.7049339079
 21
77.1552296528
  0
LINE
  5
594
100
AcDbEntity
  8
RUNDUNGEN
100
AcDbLine
 62
7
  6
CONTINUOUS
 10
224.608164354
 20
67.9688283539
 11
222.3961879673
 21
65.7350570539
  0
LINE
  5
595
100
AcDbEntity
  8
0
100
AcDbLine
 62
7
  6
CONTINUOUS
 10
229.2666910341
 20
70.1926905889
 11
229.5152376896
 21
70.4422465875
  0
LINE
  5
596
100
AcDbEntity
  8
0
100
AcDbLine
 62
7
  6
CONTINUOUS
 10
229.2666910341
 20
70.1219799107
 11
229.5856623744
 21
70.4422465875
  0
LINE
  5
597
100
AcDbEntity
  8
0
100
AcDbLine
 62
7
  6
CONTINUOUS
 10
229.4116779994
 20
70.4422465875
 11
229.0347118502
 21
70.0727080798
  0
LINE
  5
598
100
AcDbEntity
  8
0
100
AcDbLine
 62
7
  6
CONTINUOUS
 10
229.0447118502
 20
76.5814545072
 11
229.1896988259
 21
76.7046339983
  0
LINE
  5
599
100
AcDbEntity
  8
0
100
AcDbLine
 62
7
  6
CONTINUOUS
 10
229.0447118502
 20
76.5107438291
 11
229.1896988259
 21
76.6339233202
  0
LINE
  5
59A
100
AcDbEntity
  8
0
100
AcDbLine
 62
7
  6
CONTINUOUS
 10
230.0886181313
 20
76.9541900315
 11
230.0016259438
 21
76.8802823369
  0
LINE
  5
59B
100
AcDbEntity
  8
0
100
AcDbLine
 62
7
  6
CONTINUOUS
 10
230.6395686244
 20
76.3597313931
 11
230.6975633608
 21
76.4090031938
  0
LINE
  5
59C
100
AcDbEntity
  8
0
100
AcDbLine
 62
7
  6
CONTINUOUS
 10
230.6395686244
 20
76.289020715
 11
230.6975633608
 21
76.3382925157
  0
LINE
  5
59D
100
AcDbEntity
  8
0
100
AcDbLine
 62
7
  6
CONTINUOUS
 10
230.6685660756
 20
76.0426617112
 11
230.5815738881
 21
75.9687539993
  0
LINE
  5
59E
100
AcDbEntity
  8
0
100
AcDbLine
 62
7
  6
CONTINUOUS
 10
223.5197180322
 20
74.533048892
 11
223.4413962178
 21
74.4761881887
  0
LINE
  5
59F
100
AcDbEntity
  8
0
100
AcDbLine
 62
7
  6
CONTINUOUS
 10
223.8527140851
 20
74.0072325772
 11
223.9310359009
 21
74.0640932463
  0
LINE
  5
5A0
100
AcDbEntity
  8
0
100
AcDbLine
 62
7
  6
CONTINUOUS
 10
223.8527140851
 20
73.9365218991
 11
223.9310359009
 21
73.9933825682
  0
LINE
  5
5A1
100
AcDbEntity
  8
0
100
AcDbLine
 62
7
  6
CONTINUOUS
 10
224.3847974197
 20
74.1098085743
 11
224.4749962065
 21
74.1731122302
  0
LINE
  5
5A2
100
AcDbEntity
  8
0
100
AcDbLine
 62
7
  6
CONTINUOUS
 10
224.3847974197
 20
74.0390978962
 11
224.4749962065
 21
74.1024015521
  0
LINE
  5
5A3
100
AcDbEntity
  8
0
100
AcDbLine
 62
7
  6
CONTINUOUS
 10
224.7297401952
 20
73.7344256323
 11
224.6395412965
 21
73.6711220082
  0
LINE
  5
5A4
100
AcDbEntity
  8
0
100
AcDbLine
 62
7
  6
CONTINUOUS
 10
224.3921419806
 20
74.1448833861
 11
224.3142144796
 21
74.0935464201
  0
LINE
  5
5A5
100
AcDbEntity
  8
0
100
AcDbLine
 62
7
  6
CONTINUOUS
 10
224.7223956171
 20
73.6993508037
 11
224.800323088
 21
73.7506878108
  0
LINE
  5
5A6
100
AcDbEntity
  8
0
100
AcDbLine
 62
7
  6
CONTINUOUS
 10
224.7223956171
 20
73.6286401256
 11
224.800323088
 21
73.6799771327
  0
LINE
  5
5A7
100
AcDbEntity
  8
0
100
AcDbLine
 62
7
  6
CONTINUOUS
 10
224.1663126504
 20
80.8201568115
 11
224.2587808303
 21
80.8534146606
  0
LINE
  5
5A8
100
AcDbEntity
  8
0
100
AcDbLine
 62
7
  6
CONTINUOUS
 10
224.1663126504
 20
80.7494461334
 11
224.2587808303
 21
80.7827039825
  0
LINE
  5
5A9
100
AcDbEntity
  8
0
100
AcDbLine
 62
7
  6
CONTINUOUS
 10
229.0347118502
 20
69.9956033686
 11
229.1796988259
 21
70.1187828597
  0
LINE
  5
5AA
100
AcDbEntity
  8
0
100
AcDbLine
 62
7
  6
CONTINUOUS
 10
229.0347118502
 20
69.9248926905
 11
229.1796988259
 21
70.0480721816
  0
LINE
  5
5AB
100
AcDbEntity
  8
0
100
AcDbLine
 62
7
  6
CONTINUOUS
 10
230.0786181313
 20
70.3683388929
 11
229.9916259438
 21
70.2944311982
  0
LINE
  5
5AC
100
AcDbEntity
  8
0
100
AcDbLine
 62
7
  6
CONTINUOUS
 10
230.6295686244
 20
69.7738802545
 11
230.6875633608
 21
69.8231520552
  0
LINE
  5
5AD
100
AcDbEntity
  8
0
100
AcDbLine
 62
7
  6
CONTINUOUS
 10
230.6295686244
 20
69.7031695764
 11
230.6875633608
 21
69.7524413771
  0
LINE
  5
5AE
100
AcDbEntity
  8
0
100
AcDbLine
 62
7
  6
CONTINUOUS
 10
230.6585660756
 20
69.4568105726
 11
230.5715738881
 21
69.3829028607
  0
LINE
  5
5AF
100
AcDbEntity
  8
0
100
AcDbLine
 62
7
  6
CONTINUOUS
 10
230.1756103188
 20
77.0034618279
 11
230.0886181313
 21
76.9541900315
  0
LINE
  5
5B0
100
AcDbEntity
  8
0
100
AcDbLine
 62
7
  6
CONTINUOUS
 10
230.6685660756
 20
76.4368361172
 11
230.5815738881
 21
76.3875643208
  0
LINE
  5
5B1
100
AcDbEntity
  8
0
100
AcDbLine
 62
7
  6
CONTINUOUS
 10
230.6685660756
 20
75.9655569828
 11
230.7555582631
 21
76.0148287792
  0
LINE
  5
5B2
100
AcDbEntity
  8
0
100
AcDbLine
 62
7
  6
CONTINUOUS
 10
230.6685660756
 20
75.8948463047
 11
230.7555582631
 21
75.9441181011
  0
LINE
  5
5B3
100
AcDbEntity
  8
0
100
AcDbLine
 62
7
  6
CONTINUOUS
 10
224.4455268499
 20
74.1722870545
 11
224.3921419806
 21
74.1448833861
  0
LINE
  5
5B4
100
AcDbEntity
  8
0
100
AcDbLine
 62
7
  6
CONTINUOUS
 10
224.6690107348
 20
73.6719471932
 11
224.7223956171
 21
73.6993508037
  0
LINE
  5
5B5
100
AcDbEntity
  8
0
100
AcDbLine
 62
7
  6
CONTINUOUS
 10
224.6690107348
 20
73.6012365151
 11
224.7223956171
 21
73.6286401256
  0
LINE
  5
5B6
100
AcDbEntity
  8
0
100
AcDbLine
 62
7
  6
CONTINUOUS
 10
223.5708050066
 20
74.5404092507
 11
223.6328873255
 21
74.5700281219
  0
LINE
  5
5B7
100
AcDbEntity
  8
0
100
AcDbLine
 62
7
  6
CONTINUOUS
 10
223.5708050066
 20
74.4696985726
 11
223.6328873255
 21
74.4993174438
  0
LINE
  5
5B8
100
AcDbEntity
  8
0
100
AcDbLine
 62
7
  6
CONTINUOUS
 10
223.8016271298
 20
73.999872224
 11
223.7395447917
 21
73.9702533473
  0
LINE
  5
5B9
100
AcDbEntity
  8
0
100
AcDbLine
 62
7
  6
CONTINUOUS
 10
230.1756103188
 20
76.9263571168
 11
230.2915998744
 21
76.9756289132
  0
LINE
  5
5BA
100
AcDbEntity
  8
0
100
AcDbLine
 62
7
  6
CONTINUOUS
 10
230.1756103188
 20
76.8556464386
 11
230.2915998744
 21
76.9049182351
  0
LINE
  5
5BB
100
AcDbEntity
  8
0
100
AcDbLine
 62
7
  6
CONTINUOUS
 10
230.5815738881
 20
76.3350954927
 11
230.6395686244
 21
76.3597313931
  0
LINE
  5
5BC
100
AcDbEntity
  8
0
100
AcDbLine
 62
7
  6
CONTINUOUS
 10
230.5815738881
 20
76.2643848146
 11
230.6395686244
 21
76.289020715
  0
LINE
  5
5BD
100
AcDbEntity
  8
0
100
AcDbLine
 62
7
  6
CONTINUOUS
 10
223.6087816343
 20
74.5706667527
 11
223.5197180322
 21
74.533048892
  0
LINE
  5
5BE
100
AcDbEntity
  8
0
100
AcDbLine
 62
7
  6
CONTINUOUS
 10
223.7636504801
 20
73.9696147117
 11
223.8527140851
 21
74.0072325772
  0
LINE
  5
5BF
100
AcDbEntity
  8
0
100
AcDbLine
 62
7
  6
CONTINUOUS
 10
223.7636504801
 20
73.8989040336
 11
223.8527140851
 21
73.9365218991
  0
LINE
  5
5C0
100
AcDbEntity
  8
0
100
AcDbLine
 62
7
  6
CONTINUOUS
 10
225.3522667411
 20
74.0534937819
 11
225.2628179395
 21
74.0183287321
  0
LINE
  5
5C1
100
AcDbEntity
  8
0
100
AcDbLine
 62
7
  6
CONTINUOUS
 10
225.3082098765
 20
73.9479073232
 11
225.3976586303
 21
73.9830722974
  0
LINE
  5
5C2
100
AcDbEntity
  8
0
100
AcDbLine
 62
7
  6
CONTINUOUS
 10
225.3082098765
 20
73.8771966451
 11
225.3976586303
 21
73.9123616193
  0
LINE
  5
5C3
100
AcDbEntity
  8
0
100
AcDbLine
 62
7
  6
CONTINUOUS
 10
224.527753901
 20
74.2031609686
 11
224.4455268499
 21
74.1722870545
  0
LINE
  5
5C4
100
AcDbEntity
  8
0
100
AcDbLine
 62
7
  6
CONTINUOUS
 10
224.5867837225
 20
73.6410732463
 11
224.6690107348
 21
73.6719471932
  0
LINE
  5
5C5
100
AcDbEntity
  8
0
100
AcDbLine
 62
7
  6
CONTINUOUS
 10
224.5867837225
 20
73.5703625682
 11
224.6690107348
 21
73.6012365151
  0
LINE
  5
5C6
100
AcDbEntity
  8
0
100
AcDbLine
 62
7
  6
CONTINUOUS
 10
223.440889162
 20
74.3224748732
 11
223.494851742
 21
74.3384728482
  0
LINE
  5
5C7
100
AcDbEntity
  8
0
100
AcDbLine
 62
7
  6
CONTINUOUS
 10
223.440889162
 20
74.2517641951
 11
223.494851742
 21
74.2677621701
  0
LINE
  5
5C8
100
AcDbEntity
  8
0
100
AcDbLine
 62
7
  6
CONTINUOUS
 10
230.5397248744
 20
145.1760418516
 11
230.8397248744
 21
145.1760418516
  0
LINE
  5
5C9
100
AcDbEntity
  8
0
100
AcDbLine
 62
7
  6
CONTINUOUS
 10
230.5397248744
 20
145.6021853549
 11
230.8397248744
 21
145.6021853549
  0
LINE
  5
5CA
100
AcDbEntity
  8
0
100
AcDbLine
 62
7
  6
CONTINUOUS
 10
230.1656103188
 20
70.4176106893
 11
230.0786181313
 21
70.3683388929
  0
LINE
  5
5CB
100
AcDbEntity
  8
0
100
AcDbLine
 62
7
  6
CONTINUOUS
 10
230.6585660756
 20
69.8509849786
 11
230.5715738881
 21
69.8017131822
  0
LINE
  5
5CC
100
AcDbEntity
  8
0
100
AcDbLine
 62
7
  6
CONTINUOUS
 10
230.6585660756
 20
69.3797058442
 11
230.7455582631
 21
69.4289776406
  0
LINE
  5
5CD
100
AcDbEntity
  8
0
100
AcDbLine
 62
7
  6
CONTINUOUS
 10
230.6585660756
 20
69.3089951661
 11
230.7455582631
 21
69.3582669625
  0
LINE
  5
5CE
100
AcDbEntity
  8
0
100
AcDbLine
 62
7
  6
CONTINUOUS
 10
226.5397248744
 20
73.1619254485
 11
225.2132858639
 21
72.637398314
  0
LINE
  5
5CF
100
AcDbEntity
  8
0
100
AcDbLine
 62
7
  6
CONTINUOUS
 10
225.0417826539
 20
72.5695790728
 11
221.9547248744
 21
71.3488327301
  0
LINE
  5
5D0
100
AcDbEntity
  8
0
100
AcDbLine
 62
7
  6
CONTINUOUS
 10
222.8833071777
 20
71.5340947068
 11
226.5397248744
 21
72.9799887747
  0
LINE
  5
5D1
100
AcDbEntity
  8
0
100
AcDbLine
 62
7
  6
CONTINUOUS
 10
222.8833071777
 20
71.3951482243
 11
226.5397248744
 21
72.8410422922
  0
LINE
  5
5D2
100
AcDbEntity
  8
0
100
AcDbLine
 62
7
  6
CONTINUOUS
 10
230.5397248744
 20
148.5075769921
 11
230.8397248744
 21
148.5075769921
  0
LINE
  5
5D3
100
AcDbEntity
  8
0
100
AcDbLine
 62
7
  6
CONTINUOUS
 10
230.5397248744
 20
149.2074505018
 11
230.8397248744
 21
149.2074505018
  0
LINE
  5
5D4
100
AcDbEntity
  8
0
100
AcDbLine
 62
7
  6
CONTINUOUS
 10
230.5397248744
 20
151.2595469689
 11
230.8397248744
 21
151.2595469689
  0
LINE
  5
5D5
100
AcDbEntity
  8
0
100
AcDbLine
 62
7
  6
CONTINUOUS
 10
230.5397248744
 20
151.9386433123
 11
230.8397248744
 21
151.9386433123
  0
LINE
  5
5D6
100
AcDbEntity
  8
0
100
AcDbLine
 62
7
  6
CONTINUOUS
 10
230.1656103188
 20
70.3405059781
 11
230.2815998744
 21
70.3897777746
  0
LINE
  5
5D7
100
AcDbEntity
  8
0
100
AcDbLine
 62
7
  6
CONTINUOUS
 10
230.1656103188
 20
70.2697953
 11
230.2815998744
 21
70.3190670965
  0
LINE
  5
5D8
100
AcDbEntity
  8
0
100
AcDbLine
 62
7
  6
CONTINUOUS
 10
230.5715738881
 20
69.7492443541
 11
230.6295686244
 21
69.7738802545
  0
LINE
  5
5D9
100
AcDbEntity
  8
0
100
AcDbLine
 62
7
  6
CONTINUOUS
 10
230.5715738881
 20
69.678533676
 11
230.6295686244
 21
69.7031695764
  0
LINE
  5
5DA
100
AcDbEntity
  8
0
100
AcDbLine
 62
7
  6
CONTINUOUS
 10
230.5397248744
 20
153.8748638443
 11
230.8397248744
 21
153.8748638443
  0
LINE
  5
5DB
100
AcDbEntity
  8
0
100
AcDbLine
 62
7
  6
CONTINUOUS
 10
230.5397248744
 20
154.3052829865
 11
230.8397248744
 21
154.3052829865
  0
LINE
  5
5DC
100
AcDbEntity
  8
0
100
AcDbLine
 62
7
  6
CONTINUOUS
 10
230.5397248744
 20
155.1316877193
 11
230.8397248744
 21
155.1316877193
  0
LINE
  5
5DD
100
AcDbEntity
  8
0
100
AcDbLine
 62
7
  6
CONTINUOUS
 10
230.5397248744
 20
155.6797550391
 11
230.8397248744
 21
155.6797550391
  0
LINE
  5
5DE
100
AcDbEntity
  8
0
100
AcDbLine
 62
7
  6
CONTINUOUS
 10
230.5397248744
 20
156.4129672947
 11
230.8397248744
 21
156.4129672947
  0
LINE
  5
5DF
100
AcDbEntity
  8
0
100
AcDbLine
 62
7
  6
CONTINUOUS
 10
230.5397248744
 20
156.6247376004
 11
230.8397248744
 21
156.6247376004
  0
LINE
  5
5E0
100
AcDbEntity
  8
0
100
AcDbLine
 62
7
  6
CONTINUOUS
 10
230.5397248744
 20
157.4505744374
 11
230.8397248744
 21
157.4505744374
  0
LINE
  5
5E1
100
AcDbEntity
  8
0
100
AcDbLine
 62
7
  6
CONTINUOUS
 10
230.5397248744
 20
157.5589948643
 11
230.8397248744
 21
157.5589948643
  0
LINE
  5
5E2
100
AcDbEntity
  8
0
100
AcDbLine
 62
7
  6
CONTINUOUS
 10
230.8397248744
 20
157.6737802126
 11
230.5397248744
 21
157.6737802126
  0
LINE
  5
5E3
100
AcDbEntity
  8
AUSFORMSCHRAEGEN
100
AcDbLine
 62
7
  6
CONTINUOUS
 10
229.5397248744
 20
162.8958435228
 11
223.5397248744
 21
162.8958435228
  0
ARC
  5
5E4
100
AcDbEntity
  8
RUNDUNGEN
100
AcDbCircle
 62
7
  6
CONTINUOUS
 10
-3.2592987581
 20
109.3379563529
 40
60.0
100
AcDbArc
 50
8.0
 51
22.4894342475
  0
ARC
  5
5E5
100
AcDbEntity
  8
RUNDUNGEN
100
AcDbCircle
 62
7
  6
CONTINUOUS
 10
44.8262464797
 20
91.3717850009
 40
18.0
100
AcDbArc
 50
0.0
 51
29.8857730061
  0
ARC
  5
5E6
100
AcDbEntity
  8
KONSTRUKTIONSELEMENTE
100
AcDbCircle
 62
7
  6
CONTINUOUS
 10
44.8262464797
 20
91.3717850009
 40
18.0
100
AcDbArc
 50
0.0
 51
3.3682854739
  0
ARC
  5
5E7
100
AcDbEntity
  8
KONSTRUKTIONSELEMENTE
100
AcDbCircle
 62
7
  6
CONTINUOUS
 10
44.8262464797
 20
91.3717850009
 40
18.0
100
AcDbArc
 50
3.6580513123
 51
7.0186681249
  0
ARC
  5
5E8
100
AcDbEntity
  8
RUNDUNGEN
100
AcDbCircle
 62
7
  6
CONTINUOUS
 10
69.8262464797
 20
87.471254115
 40
7.0
100
AcDbArc
 50
180.0
 51
233.1301023542
  0
ARC
  5
5E9
100
AcDbEntity
  8
0
100
AcDbCircle
 62
7
  6
CONTINUOUS
 10
80.5386878676
 20
88.071254115
 40
4.2875586121
100
AcDbArc
 50
20.5085170074
 51
26.3277390789
  0
ARC
  5
5EA
100
AcDbEntity
  8
0
100
AcDbCircle
 62
7
  6
CONTINUOUS
 10
80.5386878676
 20
88.071254115
 40
4.2875586121
100
AcDbArc
 50
333.6722609211
 51
339.4914829926
  0
CIRCLE
  5
5EB
100
AcDbEntity
  8
BEZUGSACHSEN
100
AcDbCircle
 62
7
  6
CONTINUOUS
 10
71.6262464797
 20
88.071254115
 40
2.9
  0
ARC
  5
5EC
100
AcDbEntity
  8
0
100
AcDbCircle
 62
7
  6
CONTINUOUS
 10
71.6262464797
 20
88.071254115
 40
2.5
100
AcDbArc
 50
36.8966270514
 51
143.1033729486
  0
ARC
  5
5ED
100
AcDbEntity
  8
0
100
AcDbCircle
 62
7
  6
CONTINUOUS
 10
71.6262464797
 20
88.071254115
 40
2.5
100
AcDbArc
 50
216.8966270514
 51
323.1033729486
  0
ARC
  5
5EE
100
AcDbEntity
  8
RUNDUNGEN
100
AcDbCircle
 62
7
  6
CONTINUOUS
 10
66.8262464797
 20
83.471254115
 40
2.0
100
AcDbArc
 50
233.1301023542
 51
270.0
  0
ARC
  5
5EF
100
AcDbEntity
  8
0
100
AcDbCircle
 62
7
  6
CONTINUOUS
 10
60.3952804272
 20
121.6981611754
 40
2.1
100
AcDbArc
 50
97.2
 51
277.2
  0
ARC
  5
5F0
100
AcDbEntity
  8
0
100
AcDbCircle
 62
7
  6
CONTINUOUS
 10
60.9172070449
 20
116.2103025214
 40
1.93
100
AcDbArc
 50
187.2
 51
277.2
  0
ARC
  5
5F1
100
AcDbEntity
  8
0
100
AcDbCircle
 62
7
  6
CONTINUOUS
 10
62.2962464797
 20
116.3845157161
 40
1.93
100
AcDbArc
 50
277.2
 51
7.2
  0
ARC
  5
5F2
100
AcDbEntity
  8
0
100
AcDbCircle
 62
7
  6
CONTINUOUS
 10
62.2302419126
 20
116.587846474
 40
1.09
100
AcDbArc
 50
277.2
 51
7.2
  0
ARC
  5
5F3
100
AcDbEntity
  8
0
100
AcDbCircle
 62
7
  6
CONTINUOUS
 10
60.9305716539
 20
116.4236599381
 40
1.09
100
AcDbArc
 50
187.2
 51
277.2
  0
ARC
  5
5F4
100
AcDbEntity
  8
0
100
AcDbCircle
 62
7
  6
CONTINUOUS
 10
60.3952804272
 20
121.6981611754
 40
1.05
100
AcDbArc
 50
97.2
 51
277.2
  0
ARC
  5
5F5
100
AcDbEntity
  8
0
100
AcDbCircle
 62
7
  6
CONTINUOUS
 10
82.1514595208
 20
153.2097238589
 40
2.0254706105
100
AcDbArc
 50
140.413774884
 51
159.5709640987
  0
ARC
  5
5F6
100
AcDbEntity
  8
0
100
AcDbCircle
 62
7
  6
CONTINUOUS
 10
61.4159467102
 20
126.5442978159
 40
1.53
100
AcDbArc
 50
208.4324490844
 51
7.2
  0
ARC
  5
5F7
100
AcDbEntity
  8
RUNDUNGEN
100
AcDbCircle
 62
7
  6
CONTINUOUS
 10
61.661341132
 20
153.3361594627
 40
1.0
100
AcDbArc
 50
112.5
 51
157.5
  0
ARC
  5
5F8
100
AcDbEntity
  8
RUNDUNGEN
100
AcDbCircle
 62
7
  6
CONTINUOUS
 10
53.1016565105
 20
132.6712527598
 40
1.0
100
AcDbArc
 50
157.5
 51
202.4894342475
  0
ARC
  5
5F9
100
AcDbEntity
  8
0
100
AcDbCircle
 62
7
  6
CONTINUOUS
 10
58.8924833167
 20
127.131254115
 40
0.88
100
AcDbArc
 50
307.2
 51
7.2
  0
ARC
  5
5FA
100
AcDbEntity
  8
0
100
AcDbCircle
 62
7
  6
CONTINUOUS
 10
61.3621589315
 20
126.890284629
 40
0.66
100
AcDbArc
 50
187.2
 51
7.2
  0
ARC
  5
5FB
100
AcDbEntity
  8
RUNDUNGEN
100
AcDbCircle
 62
7
  6
CONTINUOUS
 10
94.8262464797
 20
87.471254115
 40
7.0
100
AcDbArc
 50
306.8698976458
 51
360.0
  0
ARC
  5
5FC
100
AcDbEntity
  8
0
100
AcDbCircle
 62
7
  6
CONTINUOUS
 10
84.1138050919
 20
88.071254115
 40
4.2875586121
100
AcDbArc
 50
200.5085170074
 51
206.3277390789
  0
ARC
  5
5FD
100
AcDbEntity
  8
0
100
AcDbCircle
 62
7
  6
CONTINUOUS
 10
84.1138050919
 20
88.071254115
 40
4.2875586121
100
AcDbArc
 50
153.6722609211
 51
159.4914829926
  0
CIRCLE
  5
5FE
100
AcDbEntity
  8
BEZUGSACHSEN
100
AcDbCircle
 62
7
  6
CONTINUOUS
 10
93.0262464797
 20
88.071254115
 40
2.9
  0
CIRCLE
  5
5FF
100
AcDbEntity
  8
BEZUGSACHSEN
100
AcDbCircle
 62
7
  6
CONTINUOUS
 10
82.3262464797
 20
88.071254115
 40
2.9
  0
ARC
  5
600
100
AcDbEntity
  8
0
100
AcDbCircle
 62
7
  6
CONTINUOUS
 10
82.3262464797
 20
88.071254115
 40
2.8
100
AcDbArc
 50
222.7754272859
 51
317.2245727141
  0
ARC
  5
601
100
AcDbEntity
  8
0
100
AcDbCircle
 62
7
  6
CONTINUOUS
 10
82.3262464797
 20
88.071254115
 40
2.8
100
AcDbArc
 50
42.7754272859
 51
137.2245727141
  0
ARC
  5
602
100
AcDbEntity
  8
0
100
AcDbCircle
 62
7
  6
CONTINUOUS
 10
93.0262464797
 20
88.071254115
 40
2.5
100
AcDbArc
 50
36.8966270514
 51
143.1033729486
  0
ARC
  5
603
100
AcDbEntity
  8
0
100
AcDbCircle
 62
7
  6
CONTINUOUS
 10
93.0262464797
 20
88.071254115
 40
2.5
100
AcDbArc
 50
216.8966270514
 51
323.1033729486
  0
ARC
  5
604
100
AcDbEntity
  8
RUNDUNGEN
100
AcDbCircle
 62
7
  6
CONTINUOUS
 10
97.8262464797
 20
83.471254115
 40
2.0
100
AcDbArc
 50
270.0
 51
306.8698976458
  0
ARC
  5
605
100
AcDbEntity
  8
KONSTRUKTIONSELEMENTE
100
AcDbCircle
 62
7
  6
CONTINUOUS
 10
109.903410946
 20
94.4874879309
 40
6.5
100
AcDbArc
 50
152.9611905403
 51
225.0
  0
ARC
  5
606
100
AcDbEntity
  8
KONSTRUKTIONSELEMENTE
100
AcDbCircle
 62
7
  6
CONTINUOUS
 10
109.903410946
 20
94.4874879309
 40
6.5
100
AcDbArc
 50
45.0
 51
117.0388094597
  0
ARC
  5
607
100
AcDbEntity
  8
KONSTRUKTIONSELEMENTE
100
AcDbCircle
 62
7
  6
CONTINUOUS
 10
109.903410946
 20
94.4874879309
 40
2.5
100
AcDbArc
 50
188.3892928642
 51
225.0
  0
ARC
  5
608
100
AcDbEntity
  8
KONSTRUKTIONSELEMENTE
100
AcDbCircle
 62
7
  6
CONTINUOUS
 10
109.903410946
 20
94.4874879309
 40
2.5
100
AcDbArc
 50
45.0
 51
81.6107071358
  0
ARC
  5
609
100
AcDbEntity
  8
KONSTRUKTIONSELEMENTE
100
AcDbCircle
 62
7
  6
CONTINUOUS
 10
109.5498575554
 20
94.8410413215
 40
2.0
100
AcDbArc
 50
225.0
 51
45.0
  0
ARC
  5
60A
100
AcDbEntity
  8
RUNDUNGEN
100
AcDbCircle
 62
7
  6
CONTINUOUS
 10
119.8262464797
 20
91.3717850009
 40
18.0
100
AcDbArc
 50
157.2430609862
 51
180.0
  0
ARC
  5
60B
100
AcDbEntity
  8
KONSTRUKTIONSELEMENTE
100
AcDbCircle
 62
7
  6
CONTINUOUS
 10
119.8262464797
 20
91.3717850009
 40
18.0
100
AcDbArc
 50
172.9813318751
 51
176.3419486877
  0
ARC
  5
60C
100
AcDbEntity
  8
KONSTRUKTIONSELEMENTE
100
AcDbCircle
 62
7
  6
CONTINUOUS
 10
119.8262464797
 20
91.3717850009
 40
18.0
100
AcDbArc
 50
176.6317145261
 51
180.0
  0
ARC
  5
60D
100
AcDbEntity
  8
KONSTRUKTIONSELEMENTE
100
AcDbCircle
 62
7
  6
CONTINUOUS
 10
114.8531584143
 20
89.5377404626
 40
6.5
100
AcDbArc
 50
323.8585408279
 51
45.0
  0
ARC
  5
60E
100
AcDbEntity
  8
KONSTRUKTIONSELEMENTE
100
AcDbCircle
 62
7
  6
CONTINUOUS
 10
114.8531584143
 20
89.5377404626
 40
6.5
100
AcDbArc
 50
225.0
 51
306.1414591721
  0
ARC
  5
60F
100
AcDbEntity
  8
KONSTRUKTIONSELEMENTE
100
AcDbCircle
 62
7
  6
CONTINUOUS
 10
114.8531584143
 20
89.5377404626
 40
2.5
100
AcDbArc
 50
338.4614262007
 51
45.0
  0
ARC
  5
610
100
AcDbEntity
  8
KONSTRUKTIONSELEMENTE
100
AcDbCircle
 62
7
  6
CONTINUOUS
 10
114.8531584143
 20
89.5377404626
 40
2.5
100
AcDbArc
 50
225.0
 51
291.5385737993
  0
ARC
  5
611
100
AcDbEntity
  8
RUNDUNGEN
100
AcDbCircle
 62
7
  6
CONTINUOUS
 10
82.3262464797
 20
112.9228006001
 40
25.2515464852
100
AcDbArc
 50
187.9999941034
 51
209.8856704891
  0
ARC
  5
612
100
AcDbEntity
  8
RUNDUNGEN
100
AcDbCircle
 62
7
  6
CONTINUOUS
 10
82.3262464797
 20
112.9228006001
 40
25.2515464852
100
AcDbArc
 50
334.5862410766
 51
352.0000060714
  0
ARC
  5
613
100
AcDbEntity
  8
RUNDUNGEN
100
AcDbCircle
 62
7
  6
CONTINUOUS
 10
82.3262464797
 20
116.4078218086
 40
14.7365676937
100
AcDbArc
 50
339.0390367957
 51
352.0
  0
ARC
  5
614
100
AcDbEntity
  8
RUNDUNGEN
100
AcDbCircle
 62
7
  6
CONTINUOUS
 10
82.3262464797
 20
116.4078218086
 40
14.7365676937
100
AcDbArc
 50
188.0
 51
322.7808778396
  0
ARC
  5
615
100
AcDbEntity
  8
KONSTRUKTIONSELEMENTE
100
AcDbCircle
 62
7
  6
CONTINUOUS
 10
93.2864015881
 20
111.1044972888
 40
2.0
100
AcDbArc
 50
45.0
 51
225.0
  0
ARC
  5
616
100
AcDbEntity
  8
RUNDUNGEN
100
AcDbCircle
 62
7
  6
CONTINUOUS
 10
167.9117917175
 20
109.3379563529
 40
60.0
100
AcDbArc
 50
157.5105657525
 51
172.0
  0
ARC
  5
617
100
AcDbEntity
  8
RUNDUNGEN
100
AcDbCircle
 62
7
  6
CONTINUOUS
 10
82.3262464797
 20
132.671254115
 40
17.0
100
AcDbArc
 50
352.0
 51
188.0
  0
ARC
  5
618
100
AcDbEntity
  8
RUNDUNGEN
100
AcDbCircle
 62
7
  6
CONTINUOUS
 10
102.9911518275
 20
153.3361594627
 40
1.0
100
AcDbArc
 50
22.5
 51
67.5
  0
ARC
  5
619
100
AcDbEntity
  8
RUNDUNGEN
100
AcDbCircle
 62
7
  6
CONTINUOUS
 10
82.3262464797
 20
161.8958435228
 40
1.0
100
AcDbArc
 50
67.5000000287
 51
112.4999998738
  0
ARC
  5
61A
100
AcDbEntity
  8
RUNDUNGEN
100
AcDbCircle
 62
7
  6
CONTINUOUS
 10
111.550836449
 20
132.6712527598
 40
1.0
100
AcDbArc
 50
337.5105657813
 51
22.4999998738
  0
ARC
  5
61B
100
AcDbEntity
  8
KONSTRUKTIONSELEMENTE
100
AcDbCircle
 62
7
  6
CONTINUOUS
 10
226.5066899787
 20
110.7221715029
 40
17.8794874867
100
AcDbArc
 50
262.0632958553
 51
263.6739310619
  0
ARC
  5
61C
100
AcDbEntity
  8
RUNDUNGEN
100
AcDbCircle
 62
7
  6
CONTINUOUS
 10
208.5397248744
 20
111.2885682128
 40
14.0
100
AcDbArc
 50
329.9992110167
 51
0.0000421971
  0
ARC
  5
61D
100
AcDbEntity
  8
RUNDUNGEN
100
AcDbCircle
 62
7
  6
CONTINUOUS
 10
210.7110151271
 20
100.6294002443
 40
7.0002743852
100
AcDbArc
 50
330.4388354564
 51
340.7410596466
  0
ARC
  5
61E
100
AcDbEntity
  8
RUNDUNGEN
100
AcDbCircle
 62
7
  6
CONTINUOUS
 10
222.0397248744
 20
96.671254115
 40
5.0
100
AcDbArc
 50
150.0000003316
 51
160.7410575744
  0
ARC
  5
61F
100
AcDbEntity
  8
0
100
AcDbCircle
 62
7
  6
CONTINUOUS
 10
222.6470494948
 20
76.979687287
 40
3.8553710545
100
AcDbArc
 50
54.9160028452
 51
56.9559651687
  0
ARC
  5
620
100
AcDbEntity
  8
0
100
AcDbCircle
 62
7
  6
CONTINUOUS
 10
223.1506578222
 20
71.0055263839
 40
2.6301027422
100
AcDbArc
 50
38.3496889712
 51
41.9577157071
  0
ARC
  5
621
100
AcDbEntity
  8
RUNDUNGEN
100
AcDbCircle
 62
7
  6
CONTINUOUS
 10
218.5397274267
 20
96.1891019793
 40
2.0000025523
100
AcDbArc
 50
150.4391647022
 51
179.9999807085
  0
ARC
  5
622
100
AcDbEntity
  8
KONSTRUKTIONSELEMENTE
100
AcDbCircle
 62
7
  6
CONTINUOUS
 10
214.2907445309
 20
103.3103821381
 40
1.2626257913
100
AcDbArc
 50
206.6472131289
 51
213.8710458478
  0
ARC
  5
623
100
AcDbEntity
  8
RUNDUNGEN
100
AcDbCircle
 62
7
  6
CONTINUOUS
 10
217.5397248744
 20
82.471254115
 40
1.0
100
AcDbArc
 50
180.0
 51
270.0
  0
ARC
  5
624
100
AcDbEntity
  8
KONSTRUKTIONSELEMENTE
100
AcDbCircle
 62
7
  6
CONTINUOUS
 10
216.0446411113
 20
102.7943573347
 40
0.9984159617
100
AcDbArc
 50
2.2280323179
 51
10.366246295
  0
ARC
  5
625
100
AcDbEntity
  8
RUNDUNGEN
100
AcDbCircle
 62
7
  6
CONTINUOUS
 10
223.5397248744
 20
161.8958435228
 40
1.0
100
AcDbArc
 50
90.0
 51
180.0
  0
ARC
  5
626
100
AcDbEntity
  8
KONSTRUKTIONSELEMENTE
100
AcDbCircle
 62
7
  6
CONTINUOUS
 10
226.5676148192
 20
110.7606607932
 40
17.9182841354
100
AcDbArc
 50
276.322530499
 51
277.9424040478
  0
ARC
  5
627
100
AcDbEntity
  8
RUNDUNGEN
100
AcDbCircle
 62
7
  6
CONTINUOUS
 10
244.5397248744
 20
111.2885682128
 40
14.0
100
AcDbArc
 50
179.9999578011
 51
210.0008018231
  0
ARC
  5
628
100
AcDbEntity
  8
RUNDUNGEN
100
AcDbCircle
 62
7
  6
CONTINUOUS
 10
242.3681830822
 20
100.6292858969
 40
6.9999992063
100
AcDbArc
 50
199.2574760918
 51
233.6973141286
  0
ARC
  5
629
100
AcDbEntity
  8
RUNDUNGEN
100
AcDbCircle
 62
7
  6
CONTINUOUS
 10
231.0397248744
 20
96.671254115
 40
5.0
100
AcDbArc
 50
19.2607059979
 51
29.9999996684
  0
ARC
  5
62A
100
AcDbEntity
  8
KONSTRUKTIONSELEMENTE
100
AcDbCircle
 62
7
  6
CONTINUOUS
 10
226.5397248744
 20
93.571254115
 40
2.5
100
AcDbArc
 50
0.0
 51
180.0
  0
ARC
  5
62B
100
AcDbEntity
  8
RUNDUNGEN
100
AcDbCircle
 62
7
  6
CONTINUOUS
 10
237.0380772883
 20
93.3744648249
 40
2.0023592013
100
AcDbArc
 50
48.3260537972
 51
53.6884060921
  0
ARC
  5
62C
100
AcDbEntity
  8
KONSTRUKTIONSELEMENTE
100
AcDbCircle
 62
7
  6
CONTINUOUS
 10
226.5397248744
 20
85.0377404626
 40
2.0
100
AcDbArc
 50
180.0
 51
360.0
  0
ARC
  5
62D
100
AcDbEntity
  8
RUNDUNGEN
100
AcDbCircle
 62
7
  6
CONTINUOUS
 10
237.0396277528
 20
93.3761326504
 40
2.0001017928
100
AcDbArc
 50
0.001408355
 51
53.6959037601
  0
CIRCLE
  5
62E
100
AcDbEntity
  8
BEZUGSACHSEN
100
AcDbCircle
 62
7
  6
CONTINUOUS
 10
234.4397248744
 20
88.071254115
 40
1.5
  0
ARC
  5
62F
100
AcDbEntity
  8
RUNDUNGEN
100
AcDbCircle
 62
7
  6
CONTINUOUS
 10
238.0397248744
 20
82.471254115
 40
1.0
100
AcDbArc
 50
270.0
 51
360.0
  0
ARC
  5
630
100
AcDbEntity
  8
RUNDUNGEN
100
AcDbCircle
 62
7
  6
CONTINUOUS
 10
229.5397248744
 20
161.8958435228
 40
1.0
100
AcDbArc
 50
0.0
 51
90.0
  0
SPLINE
  5
631
100
AcDbEntity
  8
0
100
AcDbSpline
 62
7
  6
CONTINUOUS
 70
0
 71
3
 72
8
 73
4
 74
0
 42
0.0000001
 43
0.0000001
 44
0.0000000001
 40
0.0
 40
0.0
 40
0.0
 40
0.0
 40
1.0
 40
1.0
 40
1.0
 40
1.0
 10
98.0854686059
 20
151.4849964029
 30
0.0
 10
98.0812974028
 20
151.7574753494
 30
0.0
 10
98.0078950728
 20
152.0193451444
 30
0.0
 10
97.8668448974
 20
152.2663519582
 30
0.0
  0
SPLINE
  5
632
100
AcDbEntity
  8
0
100
AcDbSpline
 62
7
  6
CONTINUOUS
 70
0
 71
3
 72
8
 73
4
 74
0
 42
0.0000001
 43
0.0000001
 44
0.0000000001
 40
0.0
 40
0.0
 40
0.0
 40
0.0
 40
1.0
 40
1.0
 40
1.0
 40
1.0
 10
97.8668448974
 20
152.2663519582
 30
0.0
 10
97.7257946678
 20
152.5133588671
 30
0.0
 10
97.5202234684
 20
152.7394301177
 30
0.0
 10
97.2489921381
 20
152.9378292838
 30
0.0
  0
SPLINE
  5
633
100
AcDbEntity
  8
0
100
AcDbSpline
 62
7
  6
CONTINUOUS
 70
0
 71
3
 72
8
 73
4
 74
0
 42
0.0000001
 43
0.0000001
 44
0.0000000001
 40
0.0
 40
0.0
 40
0.0
 40
0.0
 40
1.0
 40
1.0
 40
1.0
 40
1.0
 10
97.2489921381
 20
152.9378292838
 30
0.0
 10
96.7459819372
 20
153.3057690947
 30
0.0
 10
96.2166705583
 20
153.4204239338
 30
0.0
 10
95.6646651723
 20
153.2867242131
 30
0.0
  0
SPLINE
  5
634
100
AcDbEntity
  8
0
100
AcDbSpline
 62
7
  6
CONTINUOUS
 70
0
 71
3
 72
8
 73
4
 74
0
 42
0.0000001
 43
0.0000001
 44
0.0000000001
 40
0.0
 40
0.0
 40
0.0
 40
0.0
 40
1.0
 40
1.0
 40
1.0
 40
1.0
 10
95.6646651723
 20
153.2867242131
 30
0.0
 10
95.1126613315
 20
153.1530248667
 30
0.0
 10
94.6256337832
 20
152.7976835811
 30
0.0
 10
94.2035843242
 20
152.2207001266
 30
0.0
  0
SPLINE
  5
635
100
AcDbEntity
  8
0
100
AcDbSpline
 62
7
  6
CONTINUOUS
 70
0
 71
3
 72
8
 73
4
 74
0
 42
0.0000001
 43
0.0000001
 44
0.0000000001
 40
0.0
 40
0.0
 40
0.0
 40
0.0
 40
1.0
 40
1.0
 40
1.0
 40
1.0
 10
94.2035843242
 20
152.2207001266
 30
0.0
 10
93.7833385227
 20
151.6461824509
 30
0.0
 10
93.5951456793
 20
151.0836060465
 30
0.0
 10
93.644597933
 20
150.5317275134
 30
0.0
  0
SPLINE
  5
636
100
AcDbEntity
  8
0
100
AcDbSpline
 62
7
  6
CONTINUOUS
 70
0
 71
3
 72
8
 73
4
 74
0
 42
0.0000001
 43
0.0000001
 44
0.0000000001
 40
0.0
 40
0.0
 40
0.0
 40
0.0
 40
1.0
 40
1.0
 40
1.0
 40
1.0
 10
93.644597933
 20
150.5317275134
 30
0.0
 10
93.6938702654
 20
149.9818568711
 30
0.0
 10
93.9657428068
 20
149.5256050432
 30
0.0
 10
94.4588898928
 20
149.1648798626
 30
0.0
  0
SPLINE
  5
637
100
AcDbEntity
  8
0
100
AcDbSpline
 62
7
  6
CONTINUOUS
 70
0
 71
3
 72
8
 73
4
 74
0
 42
0.0000001
 43
0.0000001
 44
0.0000000001
 40
0.0
 40
0.0
 40
0.0
 40
0.0
 40
1.0
 40
1.0
 40
1.0
 40
1.0
 10
94.4588898928
 20
149.1648798626
 30
0.0
 10
94.8682030999
 20
148.8654771392
 30
0.0
 10
95.296854117
 20
148.7373968887
 30
0.0
 10
95.7447398717
 20
148.7816541913
 30
0.0
  0
SPLINE
  5
638
100
AcDbEntity
  8
0
100
AcDbSpline
 62
7
  6
CONTINUOUS
 70
0
 71
3
 72
8
 73
4
 74
0
 42
0.0000001
 43
0.0000001
 44
0.0000000001
 40
0.0
 40
0.0
 40
0.0
 40
0.0
 40
1.0
 40
1.0
 40
1.0
 40
1.0
 10
95.7447398717
 20
148.7816541913
 30
0.0
 10
96.1903620837
 20
148.8256878245
 30
0.0
 10
96.5961125025
 20
149.0285182433
 30
0.0
 10
96.9645551796
 20
149.3873301428
 30
0.0
  0
SPLINE
  5
639
100
AcDbEntity
  8
0
100
AcDbSpline
 62
7
  6
CONTINUOUS
 70
0
 71
3
 72
8
 73
4
 74
0
 42
0.0000001
 43
0.0000001
 44
0.0000000001
 40
0.0
 40
0.0
 40
0.0
 40
0.0
 40
1.0
 40
1.0
 40
1.0
 40
1.0
 10
96.2248336846
 20
149.9284185472
 30
0.0
 10
95.9498133005
 20
149.7283737312
 30
0.0
 10
95.709655745
 20
149.6277342566
 30
0.0
 10
95.5092917892
 20
149.6228935234
 30
0.0
  0
SPLINE
  5
63A
100
AcDbEntity
  8
0
100
AcDbSpline
 62
7
  6
CONTINUOUS
 70
0
 71
3
 72
8
 73
4
 74
0
 42
0.0000001
 43
0.0000001
 44
0.0000000001
 40
0.0
 40
0.0
 40
0.0
 40
0.0
 40
1.0
 40
1.0
 40
1.0
 40
1.0
 10
95.5092917892
 20
149.6228935234
 30
0.0
 10
95.3089277925
 20
149.6180527891
 30
0.0
 10
95.119979512
 20
149.6805628416
 30
0.0
 10
94.9449113873
 20
149.8086209459
 30
0.0
  0
SPLINE
  5
63B
100
AcDbEntity
  8
0
100
AcDbSpline
 62
7
  6
CONTINUOUS
 70
0
 71
3
 72
8
 73
4
 74
0
 42
0.0000001
 43
0.0000001
 44
0.0000000001
 40
0.0
 40
0.0
 40
0.0
 40
0.0
 40
1.0
 40
1.0
 40
1.0
 40
1.0
 10
94.9449113873
 20
149.8086209459
 30
0.0
 10
94.673680057
 20
150.0070201119
 30
0.0
 10
94.5324474628
 20
150.2693005818
 30
0.0
 10
94.5238878336
 20
150.6003684098
 30
0.0
  0
SPLINE
  5
63C
100
AcDbEntity
  8
0
100
AcDbSpline
 62
7
  6
CONTINUOUS
 70
0
 71
3
 72
8
 73
4
 74
0
 42
0.0000001
 43
0.0000001
 44
0.0000000001
 40
0.0
 40
0.0
 40
0.0
 40
0.0
 40
1.0
 40
1.0
 40
1.0
 40
1.0
 10
94.5238878336
 20
150.6003684098
 30
0.0
 10
94.5153906402
 20
150.9290213571
 30
0.0
 10
94.6565303515
 20
151.2875575911
 30
0.0
 10
94.9415039726
 20
151.6771447849
 30
0.0
  0
SPLINE
  5
63D
100
AcDbEntity
  8
0
100
AcDbSpline
 62
7
  6
CONTINUOUS
 70
0
 71
3
 72
8
 73
4
 74
0
 42
0.0000001
 43
0.0000001
 44
0.0000000001
 40
0.0
 40
0.0
 40
0.0
 40
0.0
 40
1.0
 40
1.0
 40
1.0
 40
1.0
 10
94.9415039726
 20
151.6771447849
 30
0.0
 10
95.228281093
 20
152.0691975409
 30
0.0
 10
95.5344418093
 20
152.3221653388
 30
0.0
 10
95.860648638
 20
152.431777162
 30
0.0
  0
SPLINE
  5
63E
100
AcDbEntity
  8
0
100
AcDbSpline
 62
7
  6
CONTINUOUS
 70
0
 71
3
 72
8
 73
4
 74
0
 42
0.0000001
 43
0.0000001
 44
0.0000000001
 40
0.0
 40
0.0
 40
0.0
 40
0.0
 40
1.0
 40
1.0
 40
1.0
 40
1.0
 10
95.860648638
 20
152.431777162
 30
0.0
 10
96.1868566404
 20
152.5413893795
 30
0.0
 10
96.4966718011
 20
152.4888795059
 30
0.0
 10
96.7876293612
 20
152.2760510793
 30
0.0
  0
SPLINE
  5
63F
100
AcDbEntity
  8
0
100
AcDbSpline
 62
7
  6
CONTINUOUS
 70
0
 71
3
 72
8
 73
4
 74
0
 42
0.0000001
 43
0.0000001
 44
0.0000000001
 40
0.0
 40
0.0
 40
0.0
 40
0.0
 40
1.0
 40
1.0
 40
1.0
 40
1.0
 10
96.7876293612
 20
152.2760510793
 30
0.0
 10
97.1944763566
 20
151.9784523302
 30
0.0
 10
97.2951391502
 20
151.5830905059
 30
0.0
 10
97.0871513721
 20
151.0917693642
 30
0.0
  0
SPLINE
  5
640
100
AcDbEntity
  8
0
100
AcDbSpline
 62
7
  6
CONTINUOUS
 70
0
 71
3
 72
8
 73
4
 74
0
 42
0.0000001
 43
0.0000001
 44
0.0000000001
 40
0.0
 40
0.0
 40
0.0
 40
0.0
 40
1.0
 40
1.0
 40
1.0
 40
1.0
 10
97.8268745989
 20
150.550679693
 30
0.0
 10
98.0048163949
 20
150.8974362014
 30
0.0
 10
98.0896770771
 20
151.2100829695
 30
0.0
 10
98.0854686059
 20
151.4849964029
 30
0.0
  0
SPLINE
  5
641
100
AcDbEntity
  8
0
100
AcDbSpline
 62
7
  6
CONTINUOUS
 70
0
 71
3
 72
8
 73
4
 74
0
 42
0.0000001
 43
0.0000001
 44
0.0000000001
 40
0.0
 40
0.0
 40
0.0
 40
0.0
 40
1.0
 40
1.0
 40
1.0
 40
1.0
 10
81.2019155032
 20
153.9792280236
 30
0.0
 10
81.3189028758
 20
154.1360049967
 30
0.0
 10
81.4749520363
 20
154.2920305966
 30
0.0
 10
81.6723673586
 20
154.4413572374
 30
0.0
  0
SPLINE
  5
642
100
AcDbEntity
  8
0
100
AcDbSpline
 62
7
  6
CONTINUOUS
 70
0
 71
3
 72
8
 73
4
 74
0
 42
0.0000001
 43
0.0000001
 44
0.0000000001
 40
0.0
 40
0.0
 40
0.0
 40
0.0
 40
1.0
 40
1.0
 40
1.0
 40
1.0
 10
81.9853472729
 20
154.6780979258
 30
0.0
 10
82.3967211464
 20
154.9884576225
 30
0.0
 10
82.671724324
 20
155.2636563399
 30
0.0
 10
82.8160795375
 20
155.5041331879
 30
0.0
  0
SPLINE
  5
643
100
AcDbEntity
  8
0
100
AcDbSpline
 62
7
  6
CONTINUOUS
 70
0
 71
3
 72
8
 73
4
 74
0
 42
0.0000001
 43
0.0000001
 44
0.0000000001
 40
0.0
 40
0.0
 40
0.0
 40
0.0
 40
1.0
 40
1.0
 40
1.0
 40
1.0
 10
82.8160795375
 20
155.5041331879
 30
0.0
 10
82.9582600966
 20
155.740987347
 30
0.0
 10
83.0254393246
 20
156.0152985107
 30
0.0
 10
83.014948312
 20
156.3267309782
 30
0.0
  0
SPLINE
  5
644
100
AcDbEntity
  8
0
100
AcDbSpline
 62
7
  6
CONTINUOUS
 70
0
 71
3
 72
8
 73
4
 74
0
 42
0.0000001
 43
0.0000001
 44
0.0000000001
 40
0.0
 40
0.0
 40
0.0
 40
0.0
 40
1.0
 40
1.0
 40
1.0
 40
1.0
 10
83.014948312
 20
156.3267309782
 30
0.0
 10
83.0002403343
 20
156.7633467718
 30
0.0
 10
82.8513237152
 20
157.1006833434
 30
0.0
 10
82.5729134893
 20
157.3372976796
 30
0.0
  0
SPLINE
  5
645
100
AcDbEntity
  8
0
100
AcDbSpline
 62
7
  6
CONTINUOUS
 70
0
 71
3
 72
8
 73
4
 74
0
 42
0.0000001
 43
0.0000001
 44
0.0000000001
 40
0.0
 40
0.0
 40
0.0
 40
0.0
 40
1.0
 40
1.0
 40
1.0
 40
1.0
 10
82.5729134893
 20
157.3372976796
 30
0.0
 10
82.2943375875
 20
157.5740528199
 30
0.0
 10
81.9359416195
 20
157.6873054285
 30
0.0
 10
81.4962743982
 20
157.6724946595
 30
0.0
  0
SPLINE
  5
646
100
AcDbEntity
  8
0
100
AcDbSpline
 62
7
  6
CONTINUOUS
 70
0
 71
3
 72
8
 73
4
 74
0
 42
0.0000001
 43
0.0000001
 44
0.0000000001
 40
0.0
 40
0.0
 40
0.0
 40
0.0
 40
1.0
 40
1.0
 40
1.0
 40
1.0
 10
81.4962743982
 20
157.6724946595
 30
0.0
 10
81.032178599
 20
157.6568609817
 30
0.0
 10
80.6795752205
 20
157.5074306168
 30
0.0
 10
80.4352057946
 20
157.2302070686
 30
0.0
  0
SPLINE
  5
647
100
AcDbEntity
  8
0
100
AcDbSpline
 62
7
  6
CONTINUOUS
 70
0
 71
3
 72
8
 73
4
 74
0
 42
0.0000001
 43
0.0000001
 44
0.0000000001
 40
0.0
 40
0.0
 40
0.0
 40
0.0
 40
1.0
 40
1.0
 40
1.0
 40
1.0
 10
80.4352057946
 20
157.2302070686
 30
0.0
 10
80.1908363687
 20
156.9529835204
 30
0.0
 10
80.077378819
 20
156.6006952601
 30
0.0
 10
80.0916753874
 20
156.176292415
 30
0.0
  0
SPLINE
  5
648
100
AcDbEntity
  8
0
100
AcDbSpline
 62
7
  6
CONTINUOUS
 70
0
 71
3
 72
8
 73
4
 74
0
 42
0.0000001
 43
0.0000001
 44
0.0000000001
 40
0.0
 40
0.0
 40
0.0
 40
0.0
 40
1.0
 40
1.0
 40
1.0
 40
1.0
 10
80.0916753874
 20
156.176292415
 30
0.0
 10
80.0929096242
 20
156.1396533012
 30
0.0
 10
80.0945552702
 20
156.0908012388
 30
0.0
 10
80.0998708116
 20
156.0237321879
 30
0.0
  0
SPLINE
  5
649
100
AcDbEntity
  8
0
100
AcDbSpline
 62
7
  6
CONTINUOUS
 70
0
 71
3
 72
8
 73
4
 74
0
 42
0.0000001
 43
0.0000001
 44
0.0000000001
 40
0.0
 40
0.0
 40
0.0
 40
0.0
 40
1.0
 40
1.0
 40
1.0
 40
1.0
 10
80.9853161517
 20
156.0535595796
 30
0.0
 10
80.9805203382
 20
156.3774107048
 30
0.0
 10
81.0277647656
 20
156.6082563783
 30
0.0
 10
81.1262945726
 20
156.7406994163
 30
0.0
  0
SPLINE
  5
64A
100
AcDbEntity
  8
0
100
AcDbSpline
 62
7
  6
CONTINUOUS
 70
0
 71
3
 72
8
 73
4
 74
0
 42
0.0000001
 43
0.0000001
 44
0.0000000001
 40
0.0
 40
0.0
 40
0.0
 40
0.0
 40
1.0
 40
1.0
 40
1.0
 40
1.0
 10
81.1262945726
 20
156.7406994163
 30
0.0
 10
81.2236927341
 20
156.8716213048
 30
0.0
 10
81.3619826713
 20
156.9404708579
 30
0.0
 10
81.5421260085
 20
156.9465392234
 30
0.0
  0
SPLINE
  5
64B
100
AcDbEntity
  8
0
100
AcDbSpline
 62
7
  6
CONTINUOUS
 70
0
 71
3
 72
8
 73
4
 74
0
 42
0.0000001
 43
0.0000001
 44
0.0000000001
 40
0.0
 40
0.0
 40
0.0
 40
0.0
 40
1.0
 40
1.0
 40
1.0
 40
1.0
 10
81.5421260085
 20
156.9465392234
 30
0.0
 10
81.7161605928
 20
156.9524018074
 30
0.0
 10
81.8556147271
 20
156.8959651978
 30
0.0
 10
81.9595459354
 20
156.7826657939
 30
0.0
  0
SPLINE
  5
64C
100
AcDbEntity
  8
0
100
AcDbSpline
 62
7
  6
CONTINUOUS
 70
0
 71
3
 72
8
 73
4
 74
0
 42
0.0000001
 43
0.0000001
 44
0.0000000001
 40
0.0
 40
0.0
 40
0.0
 40
0.0
 40
1.0
 40
1.0
 40
1.0
 40
1.0
 10
81.9595459354
 20
156.7826657939
 30
0.0
 10
82.0650492695
 20
156.6676525554
 30
0.0
 10
82.1220964881
 20
156.5167379653
 30
0.0
 10
82.1282676629
 20
156.3335426642
 30
0.0
  0
SPLINE
  5
64D
100
AcDbEntity
  8
0
100
AcDbSpline
 62
7
  6
CONTINUOUS
 70
0
 71
3
 72
8
 73
4
 74
0
 42
0.0000001
 43
0.0000001
 44
0.0000000001
 40
0.0
 40
0.0
 40
0.0
 40
0.0
 40
1.0
 40
1.0
 40
1.0
 40
1.0
 10
82.1282676629
 20
156.3335426642
 30
0.0
 10
82.1343359922
 20
156.1534003993
 30
0.0
 10
82.0911421902
 20
155.983825482
 30
0.0
 10
82.0018394606
 20
155.8218671596
 30
0.0
  0
SPLINE
  5
64E
100
AcDbEntity
  8
0
100
AcDbSpline
 62
7
  6
CONTINUOUS
 70
0
 71
3
 72
8
 73
4
 74
0
 42
0.0000001
 43
0.0000001
 44
0.0000000001
 40
0.0
 40
0.0
 40
0.0
 40
0.0
 40
1.0
 40
1.0
 40
1.0
 40
1.0
 10
82.0018394606
 20
155.8218671596
 30
0.0
 10
81.9125372616
 20
155.6599097993
 30
0.0
 10
81.7144482973
 20
155.460663554
 30
0.0
 10
81.4073949617
 20
155.2243612176
 30
0.0
  0
SPLINE
  5
64F
100
AcDbEntity
  8
0
100
AcDbSpline
 62
7
  6
CONTINUOUS
 70
0
 71
3
 72
8
 73
4
 74
0
 42
0.0000001
 43
0.0000001
 44
0.0000000001
 40
0.0
 40
0.0
 40
0.0
 40
0.0
 40
1.0
 40
1.0
 40
1.0
 40
1.0
 10
81.4073949617
 20
155.2243612176
 30
0.0
 10
81.0083104122
 20
154.9172334304
 30
0.0
 10
80.7352275481
 20
154.675723323
 30
0.0
 10
80.5904972392
 20
154.5004321718
 30
0.0
  0
SPLINE
  5
650
100
AcDbEntity
  8
0
100
AcDbSpline
 62
7
  6
CONTINUOUS
 70
0
 71
3
 72
8
 73
4
 74
0
 42
0.0000001
 43
0.0000001
 44
0.0000000001
 40
0.0
 40
0.0
 40
0.0
 40
0.0
 40
1.0
 40
1.0
 40
1.0
 40
1.0
 10
80.2533804336
 20
153.9167082806
 30
0.0
 10
80.1748834755
 20
153.706206709
 30
0.0
 10
80.1388226638
 20
153.5063049566
 30
0.0
 10
80.1449938442
 20
153.3231094881
 30
0.0
  0
SPLINE
  5
651
100
AcDbEntity
  8
0
100
AcDbSpline
 62
7
  6
CONTINUOUS
 70
0
 71
3
 72
8
 73
4
 74
0
 42
0.0000001
 43
0.0000001
 44
0.0000000001
 40
0.0
 40
0.0
 40
0.0
 40
0.0
 40
1.0
 40
1.0
 40
1.0
 40
1.0
 10
74.758640511
 20
156.4129672947
 30
0.0
 10
74.7783451521
 20
156.1974788676
 30
0.0
 10
74.7643822971
 20
156.0352158924
 30
0.0
 10
74.7119063543
 20
155.9213605839
 30
0.0
  0
SPLINE
  5
652
100
AcDbEntity
  8
0
100
AcDbSpline
 62
7
  6
CONTINUOUS
 70
0
 71
3
 72
8
 73
4
 74
0
 42
0.0000001
 43
0.0000001
 44
0.0000000001
 40
0.0
 40
0.0
 40
0.0
 40
0.0
 40
1.0
 40
1.0
 40
1.0
 40
1.0
 10
74.7119063543
 20
155.9213605839
 30
0.0
 10
74.6594304116
 20
155.8075052754
 30
0.0
 10
74.577999164
 20
155.7033891962
 30
0.0
 10
74.467569537
 20
155.6108290438
 30
0.0
  0
SPLINE
  5
653
100
AcDbEntity
  8
0
100
AcDbSpline
 62
7
  6
CONTINUOUS
 70
0
 71
3
 72
8
 73
4
 74
0
 42
0.0000001
 43
0.0000001
 44
0.0000000001
 40
0.0
 40
0.0
 40
0.0
 40
0.0
 40
1.0
 40
1.0
 40
1.0
 40
1.0
 10
74.467569537
 20
155.6108290438
 30
0.0
 10
74.3562647504
 20
155.5175353482
 30
0.0
 10
74.1521712825
 20
155.4243776991
 30
0.0
 10
73.8562874887
 20
155.3266372732
 30
0.0
  0
SPLINE
  5
654
100
AcDbEntity
  8
KONSTRUKTIONSELEMENTE
100
AcDbSpline
 62
7
  6
CONTINUOUS
 70
0
 71
3
 72
9
 73
5
 74
0
 42
0.0000001
 43
0.0000001
 44
0.0000000001
 40
0.0
 40
0.0
 40
0.0
 40
0.0
 40
0.2476916013
 40
1.0
 40
1.0
 40
1.0
 40
1.0
 10
213.0444001993
 20
102.7215603171
 30
0.0
 10
213.0444001993
 20
102.7425934314
 30
0.0
 10
213.0471616326
 20
102.8274954799
 30
0.0
 10
213.0609158837
 20
102.9119756522
 30
0.0
 10
213.076753613
 20
102.9738647359
 30
0.0
  0
SPLINE
  5
655
100
AcDbEntity
  8
KONSTRUKTIONSELEMENTE
100
AcDbSpline
 62
7
  6
CONTINUOUS
 70
0
 71
3
 72
15
 73
11
 74
0
 42
0.0000001
 43
0.0000001
 44
0.0000000001
 40
0.0
 40
0.0
 40
0.0
 40
0.0
 40
0.1147670144
 40
0.2307070078
 40
0.3490127276
 40
0.4707225243
 40
0.5331689771
 40
0.5967243387
 40
0.7271707581
 40
1.0
 40
1.0
 40
1.0
 40
1.0
 10
240.0397248515
 20
102.9728453413
 30
0.0
 10
240.0397146741
 20
103.5317697898
 30
0.0
 10
239.9164286279
 20
104.6589614944
 30
0.0
 10
239.3746692882
 20
106.2823426874
 30
0.0
 10
238.5039052421
 20
107.7937263175
 30
0.0
 10
237.5420052755
 20
108.9198641437
 30
0.0
 10
236.6506923167
 20
109.7342890754
 30
0.0
 10
235.6640673063
 20
110.5021988707
 30
0.0
 10
233.7177016846
 20
111.6901532994
 30
0.0
 10
231.8404286356
 20
112.3567736092
 30
0.0
 10
230.5455582051
 20
112.6546901959
 30
0.0
  0
SPLINE
  5
656
100
AcDbEntity
  8
KONSTRUKTIONSELEMENTE
100
AcDbSpline
 62
7
  6
CONTINUOUS
 70
0
 71
3
 72
15
 73
11
 74
0
 42
0.0000001
 43
0.0000001
 44
0.0000000001
 40
0.0
 40
0.0
 40
0.0
 40
0.0
 40
0.2725107451
 40
0.4029569338
 40
0.4665505672
 40
0.5290546558
 40
0.6509162218
 40
0.7693689953
 40
0.8853171869
 40
1.0
 40
1.0
 40
1.0
 40
1.0
 10
222.5346958751
 20
112.6548725187
 30
0.0
 10
221.2666257366
 20
112.3631972198
 30
0.0
 10
219.4271669338
 20
111.7149525067
 30
0.0
 10
217.5116017994
 20
110.56558104
 30
0.0
 10
216.5359523031
 20
109.8228828377
 30
0.0
 10
215.650921721
 20
109.035082233
 30
0.0
 10
214.6886508792
 20
107.9459972419
 30
0.0
 10
213.8015289775
 20
106.4829978076
 30
0.0
 10
213.2244978993
 20
104.9078122889
 30
0.0
 10
213.0654641389
 20
103.8083764059
 30
0.0
 10
213.0450921208
 20
103.26116868
 30
0.0
  0
SPLINE
  5
657
100
AcDbEntity
  8
KONSTRUKTIONSELEMENTE
100
AcDbSpline
 62
7
  6
CONTINUOUS
 70
0
 71
3
 72
11
 73
7
 74
0
 42
0.0000001
 43
0.0000001
 44
0.0000000001
 40
0.0
 40
0.0
 40
0.0
 40
0.0
 40
0.2420283328
 40
0.4874399091
 40
0.7393303724
 40
1.0
 40
1.0
 40
1.0
 40
1.0
 10
213.0450921208
 20
102.6843699303
 30
0.0
 10
213.0679028946
 20
102.0716553937
 30
0.0
 10
213.262448733
 20
100.8385071163
 30
0.0
 10
213.9766089891
 20
99.0909296238
 30
0.0
 10
215.0698334526
 20
97.4965656041
 30
0.0
 10
216.0019248962
 20
96.5805919115
 30
0.0
 10
216.5101611465
 20
96.1589569105
 30
0.0
  0
LINE
  5
658
100
AcDbEntity
  8
KONSTRUKTIONSELEMENTE
100
AcDbLine
 62
7
  6
CONTINUOUS
 10
216.5101611465
 20
96.1589569105
 11
216.5256563886
 21
96.1461243831
  0
SPLINE
  5
659
100
AcDbEntity
  8
KONSTRUKTIONSELEMENTE
100
AcDbSpline
 62
7
  6
CONTINUOUS
 70
0
 71
3
 72
11
 73
7
 74
0
 42
0.0000001
 43
0.0000001
 44
0.0000000001
 40
0.0
 40
0.0
 40
0.0
 40
0.0
 40
0.2600753044
 40
0.5116719355
 40
0.7573214124
 40
1.0
 40
1.0
 40
1.0
 40
1.0
 10
236.8212429494
 20
96.3741124543
 30
0.0
 10
237.3132856532
 20
96.8066501217
 30
0.0
 10
238.2108872347
 20
97.7434941219
 30
0.0
 10
239.2443529297
 20
99.3627888594
 30
0.0
 10
239.8919018453
 20
101.1267130506
 30
0.0
 10
240.0397359827
 20
102.3615380196
 30
0.0
 10
240.0397248515
 20
102.9728453413
 30
0.0
  0
SPLINE
  5
65A
100
AcDbEntity
  8
KONSTRUKTIONSELEMENTE
100
AcDbSpline
 62
7
  6
CONTINUOUS
 70
0
 71
3
 72
14
 73
10
 74
0
 42
0.0000001
 43
0.0000001
 44
0.0000000001
 40
0.0
 40
0.0
 40
0.0
 40
0.0
 40
0.0952448191
 40
0.1949853277
 40
0.3030713955
 40
0.4214733844
 40
0.5511216531
 40
0.6915912355
 40
1.0
 40
1.0
 40
1.0
 40
1.0
 10
236.0397248788
 20
102.9727588278
 30
0.0
 10
236.0397218919
 20
103.2267508831
 30
0.0
 10
235.9870397572
 20
103.7482926098
 30
0.0
 10
235.7432396532
 20
104.5239910882
 30
0.0
 10
235.3317724415
 20
105.2957673772
 30
0.0
 10
234.7460118701
 20
106.0486125767
 30
0.0
 10
233.9892243058
 20
106.7618005766
 30
0.0
 10
232.7283181325
 20
107.6570369974
 30
0.0
 10
231.6246274302
 20
108.1568124202
 30
0.0
 10
230.8451818451
 20
108.4192548968
 30
0.0
  0
SPLINE
  5
65B
100
AcDbEntity
  8
KONSTRUKTIONSELEMENTE
100
AcDbSpline
 62
7
  6
CONTINUOUS
 70
0
 71
3
 72
14
 73
10
 74
0
 42
0.0000001
 43
0.0000001
 44
0.0000000001
 40
0.0
 40
0.0
 40
0.0
 40
0.0
 40
0.3070465818
 40
0.447311722
 40
0.5770966901
 40
0.695853887
 40
0.804614858
 40
0.9052225446
 40
1.0
 40
1.0
 40
1.0
 40
1.0
 10
222.232922587
 20
108.4187899062
 30
0.0
 10
221.470529647
 20
108.1620650202
 30
0.0
 10
220.3895049669
 20
107.6754009798
 30
0.0
 10
219.1479165995
 20
106.806705008
 30
0.0
 10
218.395945126
 20
106.1143379199
 30
0.0
 10
217.806342665
 20
105.3823390049
 30
0.0
 10
217.382710606
 20
104.6292182274
 30
0.0
 10
217.1223592802
 20
103.8713740111
 30
0.0
 10
217.0515611365
 20
103.3604990085
 30
0.0
 10
217.0423229962
 20
103.1123556136
 30
0.0
  0
SPLINE
  5
65C
100
AcDbEntity
  8
KONSTRUKTIONSELEMENTE
100
AcDbSpline
 62
7
  6
CONTINUOUS
 70
0
 71
3
 72
9
 73
5
 74
0
 42
0.0000001
 43
0.0000001
 44
0.0000000001
 40
0.0
 40
0.0
 40
0.0
 40
0.0
 40
0.2478476355
 40
1.0
 40
1.0
 40
1.0
 40
1.0
 10
217.0423022858
 20
103.1123661577
 30
0.0
 10
217.0413875631
 20
103.0884761158
 30
0.0
 10
217.0341711468
 20
102.9922421436
 30
0.0
 10
217.012867174
 20
102.8971555458
 30
0.0
 10
216.9899362849
 20
102.8283214776
 30
0.0
  0
SPLINE
  5
65D
100
AcDbEntity
  8
KONSTRUKTIONSELEMENTE
100
AcDbSpline
 62
7
  6
CONTINUOUS
 70
0
 71
3
 72
18
 73
14
 74
0
 42
0.0000001
 43
0.0000001
 44
0.0000000001
 40
0.0
 40
0.0
 40
0.0
 40
0.0
 40
0.0512935865
 40
0.1048864345
 40
0.1613238724
 40
0.2208413086
 40
0.3484802566
 40
0.4847224986
 40
0.6238420686
 40
0.6925280538
 40
0.7595625298
 40
0.8858426931
 40
1.0
 40
1.0
 40
1.0
 40
1.0
 10
216.9899362849
 20
102.8283214776
 30
0.0
 10
216.9661203797
 20
102.7568307636
 30
0.0
 10
216.9019360753
 20
102.6153833955
 30
0.0
 10
216.7629482009
 20
102.4218003007
 30
0.0
 10
216.5834742714
 20
102.2474007728
 30
0.0
 10
216.2902644709
 20
102.0401530349
 30
0.0
 10
215.8469990384
 20
101.853251164
 30
0.0
 10
215.2587093073
 20
101.7548685456
 30
0.0
 10
214.7495198678
 20
101.7801510019
 30
0.0
 10
214.3543058772
 20
101.8663676366
 30
0.0
 10
213.989353392
 20
101.9908272919
 30
0.0
 10
213.5894669412
 20
102.2110735322
 30
0.0
 10
213.3358065642
 20
102.4674094871
 30
0.0
 10
213.2423938705
 20
102.6066884677
 30
0.0
  0
SPLINE
  5
65E
100
AcDbEntity
  8
KONSTRUKTIONSELEMENTE
100
AcDbSpline
 62
7
  6
CONTINUOUS
 70
0
 71
3
 72
9
 73
5
 74
0
 42
0.0000001
 43
0.0000001
 44
0.0000000001
 40
0.0
 40
0.0
 40
0.0
 40
0.0
 40
0.5092949099
 40
1.0
 40
1.0
 40
1.0
 40
1.0
 10
213.1622285773
 20
102.7440998485
 30
0.0
 10
213.1244386212
 20
102.8196277057
 30
0.0
 10
213.0655431874
 20
102.9762649541
 30
0.0
 10
213.0444001993
 20
103.1426066147
 30
0.0
 10
213.0444001993
 20
103.2239782932
 30
0.0
  0
SPLINE
  5
65F
100
AcDbEntity
  8
KONSTRUKTIONSELEMENTE
100
AcDbSpline
 62
7
  6
CONTINUOUS
 70
0
 71
3
 72
10
 73
6
 74
0
 42
0.0000001
 43
0.0000001
 44
0.0000000001
 40
0.0
 40
0.0
 40
0.0
 40
0.0
 40
0.226866916
 40
0.4663694086
 40
1.0
 40
1.0
 40
1.0
 40
1.0
 10
217.0438476632
 20
102.7969684344
 30
0.0
 10
217.0545830371
 20
102.568415601
 30
0.0
 10
217.1203575985
 20
102.0995459232
 30
0.0
 10
217.4358315143
 20
101.1373944803
 30
0.0
 10
217.8715674224
 20
100.4701223645
 30
0.0
 10
218.2218489327
 20
100.0615270447
 30
0.0
  0
SPLINE
  5
660
100
AcDbEntity
  8
KONSTRUKTIONSELEMENTE
100
AcDbSpline
 62
7
  6
CONTINUOUS
 70
0
 71
3
 72
11
 73
7
 74
0
 42
0.0000001
 43
0.0000001
 44
0.0000000001
 40
0.0
 40
0.0
 40
0.0
 40
0.0
 40
0.2790388012
 40
0.5350111941
 40
0.7724127465
 40
1.0
 40
1.0
 40
1.0
 40
1.0
 10
234.8619424004
 20
100.0666858228
 30
0.0
 10
235.0553210977
 20
100.2928192844
 30
0.0
 10
235.3953058249
 20
100.7544084386
 30
0.0
 10
235.7699733278
 20
101.4922910642
 30
0.0
 10
235.9918493644
 20
102.2328884764
 30
0.0
 10
236.0397277327
 20
102.7300795754
 30
0.0
 10
236.0397248788
 20
102.9727588278
 30
0.0
  0
SPLINE
  5
661
100
AcDbEntity
  8
KONSTRUKTIONSELEMENTE
100
AcDbSpline
 62
7
  6
CONTINUOUS
 70
0
 71
3
 72
19
 73
15
 74
0
 42
0.0000001
 43
0.0000001
 44
0.0000000001
 40
0.0
 40
0.0
 40
0.0
 40
0.0
 40
0.0516201691
 40
0.1055807241
 40
0.1628987034
 40
0.2241992621
 40
0.357899425
 40
0.5014159793
 40
0.6445713164
 40
0.7773355811
 40
0.8380711618
 40
0.894868309
 40
0.9484653752
 40
1.0
 40
1.0
 40
1.0
 40
1.0
 10
217.0430149178
 20
102.7959926098
 30
0.0
 10
217.0430149178
 20
102.7039825277
 30
0.0
 10
217.015742538
 20
102.5150084689
 30
0.0
 10
216.9006455139
 20
102.2453271784
 30
0.0
 10
216.7146112549
 20
101.9970121499
 30
0.0
 10
216.3747525466
 20
101.6985211818
 30
0.0
 10
215.8200639814
 20
101.432760693
 30
0.0
 10
215.0718223312
 20
101.311039572
 30
0.0
 10
214.3195461997
 20
101.3902329584
 30
0.0
 10
213.7541999805
 20
101.6247792991
 30
0.0
 10
213.4031369591
 20
101.9043671566
 30
0.0
 10
213.2076869143
 20
102.1421041845
 30
0.0
 10
213.0826744431
 20
102.4055410517
 30
0.0
 10
213.0486273801
 20
102.5925901295
 30
0.0
 10
213.0451128313
 20
102.6843804743
 30
0.0
  0
SPLINE
  5
662
100
AcDbEntity
  8
RUNDUNGEN
100
AcDbSpline
 62
7
  6
CONTINUOUS
 70
0
 71
3
 72
11
 73
7
 74
0
 42
0.0000001
 43
0.0000001
 44
0.0000000001
 40
0.0
 40
0.0
 40
0.0
 40
0.0
 40
0.2094940939
 40
0.4446633471
 40
0.7119931785
 40
1.0
 40
1.0
 40
1.0
 40
1.0
 10
237.1897248744
 20
61.9467874141
 30
0.0
 10
237.1897248744
 20
61.9283730469
 30
0.0
 10
237.2016796028
 20
61.8888212857
 30
0.0
 10
237.2474797439
 20
61.8435503745
 30
0.0
 10
237.3117855053
 20
61.8144539486
 30
0.0
 10
237.3609092999
 20
61.8078409316
 30
0.0
 10
237.3862248744
 20
61.8078409316
 30
0.0
  0
SPLINE
  5
663
100
AcDbEntity
  8
0
100
AcDbSpline
 62
7
  6
CONTINUOUS
 70
0
 71
3
 72
12
 73
8
 74
0
 42
0.0000001
 43
0.0000001
 44
0.0000000001
 40
0.0
 40
0.0
 40
0.0
 40
0.0
 40
0.226016105
 40
0.4711149027
 40
0.5998552022
 40
0.7315818503
 40
1.0
 40
1.0
 40
1.0
 40
1.0
 10
225.1065033265
 20
72.7639656913
 30
0.0
 10
224.9317160186
 20
72.9585725457
 30
0.0
 10
224.5081392588
 20
73.312727975
 30
0.0
 10
223.8834778816
 20
73.6271290085
 30
0.0
 10
223.3273136487
 20
73.8113693506
 30
0.0
 10
222.7299665889
 20
73.9480164119
 30
0.0
 10
222.2653751487
 20
73.9888158977
 30
0.0
 10
221.9547248744
 20
73.9888158977
 30
0.0
  0
SPLINE
  5
664
100
AcDbEntity
  8
0
100
AcDbSpline
 62
7
  6
CONTINUOUS
 70
0
 71
3
 72
10
 73
6
 74
0
 42
0.0000001
 43
0.0000001
 44
0.0000000001
 40
0.0
 40
0.0
 40
0.0
 40
0.0
 40
0.4827393876
 40
0.7391415131
 40
1.0
 40
1.0
 40
1.0
 40
1.0
 10
224.7493194732
 20
80.2114587681
 30
0.0
 10
224.3539215436
 20
80.4687693503
 30
0.0
 10
223.6753488943
 20
80.7569060188
 30
0.0
 10
222.7160638152
 20
80.9492895064
 30
0.0
 10
222.2096451244
 20
80.982455517
 30
0.0
 10
221.9547248744
 20
80.982455517
 30
0.0
  0
SPLINE
  5
665
100
AcDbEntity
  8
RUNDUNGEN
100
AcDbSpline
 62
7
  6
CONTINUOUS
 70
0
 71
3
 72
10
 73
6
 74
0
 42
0.0000001
 43
0.0000001
 44
0.0000000001
 40
0.0
 40
0.0
 40
0.0
 40
0.0
 40
0.4720166319
 40
0.7322441348
 40
1.0
 40
1.0
 40
1.0
 40
1.0
 10
230.6832617816
 20
65.7350570539
 30
0.0
 10
230.8770820041
 20
65.5393270936
 30
0.0
 10
231.2622139641
 20
65.3163156183
 30
0.0
 10
231.8274760915
 20
65.1686747296
 30
0.0
 10
232.1366400445
 20
65.1425565116
 30
0.0
 10
232.2928955487
 20
65.1425565116
 30
0.0
  0
SPLINE
  5
666
100
AcDbEntity
  8
RUNDUNGEN
100
AcDbSpline
 62
7
  6
CONTINUOUS
 70
0
 71
3
 72
10
 73
6
 74
0
 42
0.0000001
 43
0.0000001
 44
0.0000000001
 40
0.0
 40
0.0
 40
0.0
 40
0.0
 40
0.2677556487
 40
0.52798306
 40
1.0
 40
1.0
 40
1.0
 40
1.0
 10
220.7865542002
 20
65.1425565116
 30
0.0
 10
220.9428095772
 20
65.1425565116
 30
0.0
 10
221.2519733467
 20
65.1686746969
 30
0.0
 10
221.8172354942
 20
65.3163154763
 30
0.0
 10
222.2023676193
 20
65.5393269669
 30
0.0
 10
222.3961879673
 20
65.7350570539
 30
0.0
  0
SPLINE
  5
667
100
AcDbEntity
  8
RUNDUNGEN
100
AcDbSpline
 62
7
  6
CONTINUOUS
 70
0
 71
3
 72
11
 73
7
 74
0
 42
0.0000001
 43
0.0000001
 44
0.0000000001
 40
0.0
 40
0.0
 40
0.0
 40
0.0
 40
0.2880067739
 40
0.555332736
 40
0.7905057737
 40
1.0
 40
1.0
 40
1.0
 40
1.0
 10
215.6932248744
 20
61.8078409316
 30
0.0
 10
215.7185404427
 20
61.8078409316
 30
0.0
 10
215.7676639062
 20
61.814453813
 30
0.0
 10
215.8319696538
 20
61.8435501504
 30
0.0
 10
215.8777699164
 20
61.8888209719
 30
0.0
 10
215.8897248744
 20
61.9283730368
 30
0.0
 10
215.8897248744
 20
61.9467874141
 30
0.0
  0
SPLINE
  5
668
100
AcDbEntity
  8
RUNDUNGEN
100
AcDbSpline
 62
7
  6
CONTINUOUS
 70
0
 71
3
 72
11
 73
7
 74
0
 42
0.0000001
 43
0.0000001
 44
0.0000000001
 40
0.0
 40
0.0
 40
0.0
 40
0.0
 40
0.2660355591
 40
0.5191120543
 40
0.7622169416
 40
1.0
 40
1.0
 40
1.0
 40
1.0
 10
243.0516822451
 20
86.5940728108
 30
0.0
 10
243.1074569142
 20
86.6503970355
 30
0.0
 10
243.2078575289
 20
86.7692054951
 30
0.0
 10
243.3215661102
 20
86.9673440436
 30
0.0
 10
243.3912641539
 20
87.1762031984
 30
0.0
 10
243.407033856
 20
87.3199371557
 30
0.0
 10
243.4070475247
 20
87.3907859981
 30
0.0
  0
SPLINE
  5
669
100
AcDbEntity
  8
RUNDUNGEN
100
AcDbSpline
 62
7
  6
CONTINUOUS
 70
0
 71
3
 72
11
 73
7
 74
0
 42
0.0000001
 43
0.0000001
 44
0.0000000001
 40
0.0
 40
0.0
 40
0.0
 40
0.0
 40
0.2524395071
 40
0.5157446812
 40
0.7702855009
 40
1.0
 40
1.0
 40
1.0
 40
1.0
 10
241.2162988781
 20
85.4673425534
 30
0.0
 10
241.2821644744
 20
85.4347310807
 30
0.0
 10
241.4286216146
 20
85.3909318393
 30
0.0
 10
241.6554557646
 20
85.3877545204
 30
0.0
 10
241.8686263055
 20
85.4437131999
 30
0.0
 10
241.9902530478
 20
85.5221852029
 30
0.0
 10
242.0373123174
 20
85.5697081541
 30
0.0
  0
SPLINE
  5
66A
100
AcDbEntity
  8
RUNDUNGEN
100
AcDbSpline
 62
7
  6
CONTINUOUS
 70
0
 71
3
 72
9
 73
5
 74
0
 42
0.0000001
 43
0.0000001
 44
0.0000000001
 40
0.0
 40
0.0
 40
0.0
 40
0.0
 40
0.5194830631
 40
1.0
 40
1.0
 40
1.0
 40
1.0
 10
239.0954387754
 20
82.5988479199
 30
0.0
 10
239.1279924382
 20
82.6317223385
 30
0.0
 10
239.1817384953
 20
82.7054731596
 30
0.0
 10
239.2020709001
 20
82.7953745869
 30
0.0
 10
239.2020439309
 20
82.8381694487
 30
0.0
  0
SPLINE
  5
66B
100
AcDbEntity
  8
RUNDUNGEN
100
AcDbSpline
 62
7
  6
CONTINUOUS
 70
0
 71
3
 72
14
 73
10
 74
0
 42
0.0000001
 43
0.0000001
 44
0.0000000001
 40
0.0
 40
0.0
 40
0.0
 40
0.0
 40
0.2867898956
 40
0.4239477816
 40
0.5539709087
 40
0.6757963637
 40
0.7895210021
 40
0.8966386695
 40
1.0
 40
1.0
 40
1.0
 40
1.0
 10
238.0747248744
 20
61.8078409316
 30
0.0
 10
238.3278496956
 20
61.8078409316
 30
0.0
 10
238.705342557
 20
61.8587806931
 30
0.0
 10
239.164686388
 20
62.0305596645
 30
0.0
 10
239.464111785
 20
62.202199446
 30
0.0
 10
239.7115600799
 20
62.4124541681
 30
0.0
 10
239.8973981787
 20
62.6544048543
 30
0.0
 10
240.0132501719
 20
62.9193597205
 30
0.0
 10
240.0397248744
 20
63.1060775833
 30
0.0
 10
240.0397248744
 20
63.1973057566
 30
0.0
  0
SPLINE
  5
66C
100
AcDbEntity
  8
RUNDUNGEN
100
AcDbSpline
 62
7
  6
CONTINUOUS
 70
0
 71
3
 72
14
 73
10
 74
0
 42
0.0000001
 43
0.0000001
 44
0.0000000001
 40
0.0
 40
0.0
 40
0.0
 40
0.0
 40
0.1033612594
 40
0.2104788231
 40
0.324203452
 40
0.4460289049
 40
0.576052009
 40
0.7132098804
 40
1.0
 40
1.0
 40
1.0
 40
1.0
 10
213.0397248744
 20
63.1973057566
 30
0.0
 10
213.0397248744
 20
63.1060776461
 30
0.0
 10
213.066199521
 20
62.9193599357
 30
0.0
 10
213.1820513922
 20
62.6544052011
 30
0.0
 10
213.3678893241
 20
62.4124545169
 30
0.0
 10
213.6153375393
 20
62.2021997436
 30
0.0
 10
213.9147628603
 20
62.0305599029
 30
0.0
 10
214.3741067987
 20
61.8587807471
 30
0.0
 10
214.7515998558
 20
61.8078409316
 30
0.0
 10
215.0047248744
 20
61.8078409316
 30
0.0
  0
SPLINE
  5
66D
100
AcDbEntity
  8
RUNDUNGEN
100
AcDbSpline
 62
7
  6
CONTINUOUS
 70
0
 71
3
 72
10
 73
6
 74
0
 42
0.0000001
 43
0.0000001
 44
0.0000000001
 40
0.0
 40
0.0
 40
0.0
 40
0.0
 40
0.2382938886
 40
0.4819112908
 40
1.0
 40
1.0
 40
1.0
 40
1.0
 10
209.1579316929
 20
87.618766601
 30
0.0
 10
209.1579175473
 20
87.5951233302
 30
0.0
 10
209.1631340949
 20
87.5471367782
 30
0.0
 10
209.1946186795
 20
87.4524496599
 30
0.0
 10
209.2402127217
 20
87.3893874805
 30
0.0
 10
209.2763823721
 20
87.3528614454
 30
0.0
  0
SPLINE
  5
66E
100
AcDbEntity
  8
RUNDUNGEN
100
AcDbSpline
 62
7
  6
CONTINUOUS
 70
0
 71
3
 72
11
 73
7
 74
0
 42
0.0000001
 43
0.0000001
 44
0.0000000001
 40
0.0
 40
0.0
 40
0.0
 40
0.0
 40
0.2256939479
 40
0.4632958812
 40
0.7206236633
 40
1.0
 40
1.0
 40
1.0
 40
1.0
 10
209.1579322364
 20
89.032996476
 30
0.0
 10
209.1579566836
 20
89.0702021583
 30
0.0
 10
209.1714877915
 20
89.1471117311
 30
0.0
 10
209.2294188833
 20
89.2528302399
 30
0.0
 10
209.3201445466
 20
89.3445499061
 30
0.0
 10
209.3959611085
 20
89.3916887944
 30
0.0
 10
209.4372343953
 20
89.412124086
 30
0.0
  0
SPLINE
  5
66F
100
AcDbEntity
  8
RUNDUNGEN
100
AcDbSpline
 62
7
  6
CONTINUOUS
 70
0
 71
3
 72
10
 73
6
 74
0
 42
0.0000001
 43
0.0000001
 44
0.0000000001
 40
0.0
 40
0.0
 40
0.0
 40
0.0
 40
0.2387070753
 40
0.4839528903
 40
1.0
 40
1.0
 40
1.0
 40
1.0
 10
232.724363226
 20
75.4710776054
 30
0.0
 10
232.7614399991
 20
75.3188764123
 30
0.0
 10
232.8604583973
 20
75.0155846114
 30
0.0
 10
233.152727664
 20
74.4261975504
 30
0.0
 10
233.466643906
 20
74.0282954252
 30
0.0
 10
233.7049339079
 20
73.7876575185
 30
0.0
  0
SPLINE
  5
670
100
AcDbEntity
  8
RUNDUNGEN
100
AcDbSpline
 62
7
  6
CONTINUOUS
 70
0
 71
3
 72
11
 73
7
 74
0
 42
0.0000001
 43
0.0000001
 44
0.0000000001
 40
0.0
 40
0.0
 40
0.0
 40
0.0
 40
0.2377805384
 40
0.4809056364
 40
0.7339193512
 40
1.0
 40
1.0
 40
1.0
 40
1.0
 10
232.638835209
 20
74.7643366272
 30
0.0
 10
232.6388352015
 20
74.9769411988
 30
0.0
 10
232.6859989792
 20
75.4083021326
 30
0.0
 10
232.8951219955
 20
76.035031455
 30
0.0
 10
233.2362248871
 20
76.6296842302
 30
0.0
 10
233.5375340682
 20
76.9861803989
 30
0.0
 10
233.7049339079
 20
77.1552296528
 30
0.0
  0
SPLINE
  5
671
100
AcDbEntity
  8
RUNDUNGEN
100
AcDbSpline
 62
7
  6
CONTINUOUS
 70
0
 71
3
 72
14
 73
10
 74
0
 42
0.0000001
 43
0.0000001
 44
0.0000000001
 40
0.0
 40
0.0
 40
0.0
 40
0.0
 40
0.1033612594
 40
0.2104788231
 40
0.324203452
 40
0.4460289049
 40
0.576052009
 40
0.7132098804
 40
1.0
 40
1.0
 40
1.0
 40
1.0
 10
215.8897248744
 20
63.7530916866
 30
0.0
 10
215.8897248744
 20
63.8443197971
 30
0.0
 10
215.916199521
 20
64.0310375075
 30
0.0
 10
216.0320513922
 20
64.2959922421
 30
0.0
 10
216.2178893241
 20
64.5379429263
 30
0.0
 10
216.4653375393
 20
64.7481976996
 30
0.0
 10
216.7647628603
 20
64.9198375403
 30
0.0
 10
217.2241067987
 20
65.0916166961
 30
0.0
 10
217.6015998558
 20
65.1425565116
 30
0.0
 10
217.8547248744
 20
65.1425565116
 30
0.0
  0
SPLINE
  5
672
100
AcDbEntity
  8
RUNDUNGEN
100
AcDbSpline
 62
7
  6
CONTINUOUS
 70
0
 71
3
 72
11
 73
7
 74
0
 42
0.0000001
 43
0.0000001
 44
0.0000000001
 40
0.0
 40
0.0
 40
0.0
 40
0.0
 40
0.2660808734
 40
0.5190939412
 40
0.7622210691
 40
1.0
 40
1.0
 40
1.0
 40
1.0
 10
239.6843586415
 20
67.7493166753
 30
0.0
 10
239.7401586315
 20
67.6929668801
 30
0.0
 10
239.8405949244
 20
67.5741349122
 30
0.0
 10
239.9542961273
 20
67.375916938
 30
0.0
 10
240.0240037267
 20
67.1670071876
 30
0.0
 10
240.0397248744
 20
67.0232200993
 30
0.0
 10
240.0397248744
 20
66.9523523925
 30
0.0
  0
SPLINE
  5
673
100
AcDbEntity
  8
RUNDUNGEN
100
AcDbSpline
 62
7
  6
CONTINUOUS
 70
0
 71
3
 72
10
 73
6
 74
0
 42
0.0000001
 43
0.0000001
 44
0.0000000001
 40
0.0
 40
0.0
 40
0.0
 40
0.0
 40
0.525428856
 40
0.7666977413
 40
1.0
 40
1.0
 40
1.0
 40
1.0
 10
239.040112769
 20
84.5391150229
 30
0.0
 10
239.0878639936
 20
84.5035541964
 30
0.0
 10
239.1502102305
 20
84.4381818315
 30
0.0
 10
239.1945777078
 20
84.3328464972
 30
0.0
 10
239.2020295036
 20
84.2788025609
 30
0.0
 10
239.2020444389
 20
84.2523664313
 30
0.0
  0
SPLINE
  5
674
100
AcDbEntity
  8
RUNDUNGEN
100
AcDbSpline
 62
7
  6
CONTINUOUS
 70
0
 71
3
 72
12
 73
8
 74
0
 42
0.0000001
 43
0.0000001
 44
0.0000000001
 40
0.0
 40
0.0
 40
0.0
 40
0.0
 40
0.2791807213
 40
0.5362987399
 40
0.7736965791
 40
0.8876376595
 40
1.0
 40
1.0
 40
1.0
 40
1.0
 10
242.5691261755
 20
89.9434336079
 30
0.0
 10
242.693043894
 20
89.8820792814
 30
0.0
 10
242.9206509788
 20
89.7404641851
 30
0.0
 10
243.1929526788
 20
89.4653294358
 30
0.0
 10
243.3397359046
 20
89.1962037759
 30
0.0
 10
243.3974651944
 20
88.9729757177
 30
0.0
 10
243.4070582614
 20
88.8606513033
 30
0.0
 10
243.4070475247
 20
88.8049995605
 30
0.0
  0
SPLINE
  5
675
100
AcDbEntity
  8
RUNDUNGEN
100
AcDbSpline
 62
7
  6
CONTINUOUS
 70
0
 71
3
 72
10
 73
6
 74
0
 42
0.0000001
 43
0.0000001
 44
0.0000000001
 40
0.0
 40
0.0
 40
0.0
 40
0.0
 40
0.2572944296
 40
0.6365002554
 40
1.0
 40
1.0
 40
1.0
 40
1.0
 10
239.0397320146
 20
90.8791617885
 30
0.0
 10
239.304752006
 20
90.878704053
 30
0.0
 10
239.960722404
 20
90.8424272448
 30
0.0
 10
240.9767455347
 20
90.6474038788
 30
0.0
 10
241.6970425964
 20
90.3752209364
 30
0.0
 10
242.0325815865
 20
90.2090883688
 30
0.0
  0
SPLINE
  5
676
100
AcDbEntity
  8
RUNDUNGEN
100
AcDbSpline
 62
7
  6
CONTINUOUS
 70
0
 71
3
 72
11
 73
7
 74
0
 42
0.0000001
 43
0.0000001
 44
0.0000000001
 40
0.0
 40
0.0
 40
0.0
 40
0.0
 40
0.2524504596
 40
0.5157648056
 40
0.770297345
 40
1.0
 40
1.0
 40
1.0
 40
1.0
 10
211.9684142122
 20
90.6653656299
 30
0.0
 10
212.041601387
 20
90.7016021736
 30
0.0
 10
212.2043385194
 20
90.7502687873
 30
0.0
 10
212.4563805218
 20
90.7537947878
 30
0.0
 10
212.6932322729
 20
90.6916158634
 30
0.0
 10
212.8283659829
 20
90.6044266329
 30
0.0
 10
212.880651367
 20
90.5516260736
 30
0.0
  0
SPLINE
  5
677
100
AcDbEntity
  8
RUNDUNGEN
100
AcDbSpline
 62
7
  6
CONTINUOUS
 70
0
 71
3
 72
11
 73
7
 74
0
 42
0.0000001
 43
0.0000001
 44
0.0000000001
 40
0.0
 40
0.0
 40
0.0
 40
0.0
 40
0.2377790198
 40
0.4809062152
 40
0.733919222
 40
1.0
 40
1.0
 40
1.0
 40
1.0
 10
213.0397248744
 20
66.9523523925
 30
0.0
 10
213.0397248744
 20
67.0232201258
 30
0.0
 10
213.0554460368
 20
67.1670072607
 30
0.0
 10
213.1251536641
 20
67.3759170321
 30
0.0
 10
213.2388548695
 20
67.5741349736
 30
0.0
 10
213.3392911374
 20
67.6929669003
 30
0.0
 10
213.3950911074
 20
67.7493166753
 30
0.0
  0
SPLINE
  5
678
100
AcDbEntity
  8
RUNDUNGEN
100
AcDbSpline
 62
7
  6
CONTINUOUS
 70
0
 71
3
 72
14
 73
10
 74
0
 42
0.0000001
 43
0.0000001
 44
0.0000000001
 40
0.0
 40
0.0
 40
0.0
 40
0.0
 40
0.2867898956
 40
0.4239477816
 40
0.5539709087
 40
0.6757963637
 40
0.7895210021
 40
0.8966386695
 40
1.0
 40
1.0
 40
1.0
 40
1.0
 10
235.2247248744
 20
65.1425565116
 30
0.0
 10
235.4778496956
 20
65.1425565116
 30
0.0
 10
235.855342557
 20
65.0916167501
 30
0.0
 10
236.314686388
 20
64.9198377787
 30
0.0
 10
236.614111785
 20
64.7481979972
 30
0.0
 10
236.8615600799
 20
64.5379432751
 30
0.0
 10
237.0473981787
 20
64.2959925889
 30
0.0
 10
237.1632501719
 20
64.0310377227
 30
0.0
 10
237.1897248744
 20
63.8443198599
 30
0.0
 10
237.1897248744
 20
63.7530916866
 30
0.0
  0
SPLINE
  5
679
100
AcDbEntity
  8
RUNDUNGEN
100
AcDbSpline
 62
7
  6
CONTINUOUS
 70
0
 71
3
 72
13
 73
9
 74
0
 42
0.0000001
 43
0.0000001
 44
0.0000000001
 40
0.0
 40
0.0
 40
0.0
 40
0.0
 40
0.2360075601
 40
0.3661259284
 40
0.499999922
 40
0.6338738837
 40
0.7639922828
 40
1.0
 40
1.0
 40
1.0
 40
1.0
 10
224.608164354
 20
67.9688283539
 30
0.0
 10
224.8407478677
 20
68.2037035456
 30
0.0
 10
225.3028213496
 20
68.4713273987
 30
0.0
 10
225.9813895988
 20
68.6484801809
 30
0.0
 10
226.5397244911
 20
68.6957263734
 30
0.0
 10
227.0980594363
 20
68.6484802973
 30
0.0
 10
227.776627932
 20
68.4713276093
 30
0.0
 10
228.2387017263
 20
68.2037037019
 30
0.0
 10
228.4712853949
 20
67.9688283539
 30
0.0
  0
SPLINE
  5
67A
100
AcDbEntity
  8
RUNDUNGEN
100
AcDbSpline
 62
7
  6
CONTINUOUS
 70
0
 71
3
 72
11
 73
7
 74
0
 42
0.0000001
 43
0.0000001
 44
0.0000000001
 40
0.0
 40
0.0
 40
0.0
 40
0.0
 40
0.2660806253
 40
0.5190943246
 40
0.762219441
 40
1.0
 40
1.0
 40
1.0
 40
1.0
 10
219.3745158409
 20
77.1552296528
 30
0.0
 10
219.541915644
 20
76.986180436
 30
0.0
 10
219.843224773
 20
76.6296843509
 30
0.0
 10
220.1843276371
 20
76.0350316866
 30
0.0
 10
220.3934506945
 20
75.4083024508
 30
0.0
 10
220.4406145323
 20
74.9769415438
 30
0.0
 10
220.4406145399
 20
74.7643369817
 30
0.0
  0
SPLINE
  5
67B
100
AcDbEntity
  8
RUNDUNGEN
100
AcDbSpline
 62
7
  6
CONTINUOUS
 70
0
 71
3
 72
10
 73
6
 74
0
 42
0.0000001
 43
0.0000001
 44
0.0000000001
 40
0.0
 40
0.0
 40
0.0
 40
0.0
 40
0.5160471966
 40
0.761292977
 40
1.0
 40
1.0
 40
1.0
 40
1.0
 10
219.3745158409
 20
73.7876575185
 30
0.0
 10
219.6128071118
 20
74.0282967066
 30
0.0
 10
219.9267248041
 20
74.4262011695
 30
0.0
 10
220.2189944659
 20
75.0155918478
 30
0.0
 10
220.3180124806
 20
75.3188854628
 30
0.0
 10
220.3550889357
 20
75.4710875294
 30
0.0
  0
SPLINE
  5
67C
100
AcDbEntity
  8
RUNDUNGEN
100
AcDbSpline
 62
7
  6
CONTINUOUS
 70
0
 71
3
 72
9
 73
5
 74
0
 42
0.0000001
 43
0.0000001
 44
0.0000000001
 40
0.0
 40
0.0
 40
0.0
 40
0.0
 40
0.2579224737
 40
1.0
 40
1.0
 40
1.0
 40
1.0
 10
239.0396826789
 20
86.3745293894
 30
0.0
 10
239.0924114014
 20
86.3758064272
 30
0.0
 10
239.2968003586
 20
86.369217176
 30
0.0
 10
239.5009781987
 20
86.3166346986
 30
0.0
 10
239.6369737367
 20
86.249300384
 30
0.0
  0
SPLINE
  5
67D
100
AcDbEntity
  8
RUNDUNGEN
100
AcDbSpline
 62
7
  6
CONTINUOUS
 70
0
 71
3
 72
9
 73
5
 74
0
 42
0.0000001
 43
0.0000001
 44
0.0000000001
 40
0.0
 40
0.0
 40
0.0
 40
0.0
 40
0.236439472
 40
1.0
 40
1.0
 40
1.0
 40
1.0
 10
215.8517773073
 20
87.5512252131
 30
0.0
 10
215.8969343144
 20
87.5056232677
 30
0.0
 10
216.1002424994
 20
87.3250019232
 30
0.0
 10
216.3450590705
 20
87.1942306285
 30
0.0
 10
216.5390618421
 20
87.1213115135
 30
0.0
  0
SPLINE
  5
67E
100
AcDbEntity
  8
0
100
AcDbSpline
 62
7
  6
CONTINUOUS
 70
0
 71
3
 72
12
 73
8
 74
0
 42
0.0000001
 43
0.0000001
 44
0.0000000001
 40
0.0
 40
0.0
 40
0.0
 40
0.0
 40
0.2237984121
 40
0.3437767388
 40
0.4686159599
 40
0.729700202
 40
1.0
 40
1.0
 40
1.0
 40
1.0
 10
225.0417826539
 20
72.5695790728
 30
0.0
 10
224.8823458307
 20
72.7711732403
 30
0.0
 10
224.5871882955
 20
73.0431422508
 30
0.0
 10
224.1309286914
 20
73.3296661155
 30
0.0
 10
223.605576711
 20
73.5807778846
 30
0.0
 10
222.876887744
 20
73.7932715041
 30
0.0
 10
222.2651515406
 20
73.8498694152
 30
0.0
 10
221.9547248744
 20
73.8498694152
 30
0.0
  0
SPLINE
  5
67F
100
AcDbEntity
  8
RUNDUNGEN
100
AcDbSpline
 62
7
  6
CONTINUOUS
 70
0
 71
3
 72
11
 73
7
 74
0
 42
0.0000001
 43
0.0000001
 44
0.0000000001
 40
0.0
 40
0.0
 40
0.0
 40
0.0
 40
0.266080778
 40
0.5190937848
 40
0.7622209802
 40
1.0
 40
1.0
 40
1.0
 40
1.0
 10
213.3950911074
 20
66.3351031129
 30
0.0
 10
213.3392911374
 20
66.278753338
 30
0.0
 10
213.2388548695
 20
66.1599214112
 30
0.0
 10
213.1251536641
 20
65.9617034697
 30
0.0
 10
213.0554460368
 20
65.7527936983
 30
0.0
 10
213.0397248744
 20
65.6090065634
 30
0.0
 10
213.0397248744
 20
65.5381388301
 30
0.0
  0
SPLINE
  5
680
100
AcDbEntity
  8
RUNDUNGEN
100
AcDbSpline
 62
7
  6
CONTINUOUS
 70
0
 71
3
 72
11
 73
7
 74
0
 42
0.0000001
 43
0.0000001
 44
0.0000000001
 40
0.0
 40
0.0
 40
0.0
 40
0.0
 40
0.2793753354
 40
0.5367191876
 40
0.7743210397
 40
1.0
 40
1.0
 40
1.0
 40
1.0
 10
209.4372343953
 20
87.9979105236
 30
0.0
 10
209.3959598812
 20
87.9774746244
 30
0.0
 10
209.3201390262
 20
87.9303323478
 30
0.0
 10
209.2294093051
 20
87.8386065798
 30
0.0
 10
209.1714813487
 20
87.7328813223
 30
0.0
 10
209.1579539519
 20
87.6559710536
 30
0.0
 10
209.1579316929
 20
87.618766601
 30
0.0
  0
SPLINE
  5
681
100
AcDbEntity
  8
RUNDUNGEN
100
AcDbSpline
 62
7
  6
CONTINUOUS
 70
0
 71
3
 72
11
 73
7
 74
0
 42
0.0000001
 43
0.0000001
 44
0.0000000001
 40
0.0
 40
0.0
 40
0.0
 40
0.0
 40
0.2297149365
 40
0.4842569271
 40
0.747560856
 40
1.0
 40
1.0
 40
1.0
 40
1.0
 10
212.880651367
 20
89.1374125112
 30
0.0
 10
212.8283631906
 20
89.1902158903
 30
0.0
 10
212.6932218529
 20
89.2774072096
 30
0.0
 10
212.4563654938
 20
89.3395833076
 30
0.0
 10
212.2043277317
 20
89.3360526937
 30
0.0
 10
212.0415981019
 20
89.2873869847
 30
0.0
 10
211.9684142122
 20
89.2511520676
 30
0.0
  0
SPLINE
  5
682
100
AcDbEntity
  8
RUNDUNGEN
100
AcDbSpline
 62
7
  6
CONTINUOUS
 70
0
 71
3
 72
10
 73
6
 74
0
 42
0.0000001
 43
0.0000001
 44
0.0000000001
 40
0.0
 40
0.0
 40
0.0
 40
0.0
 40
0.2403635664
 40
0.6152462558
 40
1.0
 40
1.0
 40
1.0
 40
1.0
 10
242.0325815865
 20
88.7948748064
 30
0.0
 10
241.8106993386
 20
88.9047334775
 30
0.0
 10
241.2239194229
 20
89.1488927505
 30
0.0
 10
240.2198742281
 20
89.4002946956
 30
0.0
 10
239.4360525596
 20
89.4642632472
 30
0.0
 10
239.0397324212
 20
89.4649481038
 30
0.0
  0
SPLINE
  5
683
100
AcDbEntity
  8
RUNDUNGEN
100
AcDbSpline
 62
7
  6
CONTINUOUS
 70
0
 71
3
 72
10
 73
6
 74
0
 42
0.0000001
 43
0.0000001
 44
0.0000000001
 40
0.0
 40
0.0
 40
0.0
 40
0.0
 40
0.2333189957
 40
0.4745941372
 40
1.0
 40
1.0
 40
1.0
 40
1.0
 10
239.2020439309
 20
82.8381694487
 30
0.0
 10
239.2020272703
 20
82.8646067058
 30
0.0
 10
239.1945722646
 20
82.918651195
 30
0.0
 10
239.1502011449
 20
83.0239814083
 30
0.0
 10
239.0878559871
 20
83.0893477286
 30
0.0
 10
239.040107712
 20
83.1249052582
 30
0.0
  0
SPLINE
  5
684
100
AcDbEntity
  8
RUNDUNGEN
100
AcDbSpline
 62
7
  6
CONTINUOUS
 70
0
 71
3
 72
12
 73
8
 74
0
 42
0.0000001
 43
0.0000001
 44
0.0000000001
 40
0.0
 40
0.0
 40
0.0
 40
0.0
 40
0.1123623405
 40
0.2263034209
 40
0.4637012601
 40
0.7208192787
 40
1.0
 40
1.0
 40
1.0
 40
1.0
 10
243.4070475247
 20
87.3907859981
 30
0.0
 10
243.4070582614
 20
87.4464377409
 30
0.0
 10
243.3974651944
 20
87.5587621554
 30
0.0
 10
243.3397359046
 20
87.7819902136
 30
0.0
 10
243.1929526788
 20
88.0511158734
 30
0.0
 10
242.9206509788
 20
88.3262506227
 30
0.0
 10
242.693043894
 20
88.467865719
 30
0.0
 10
242.5691261755
 20
88.5292200455
 30
0.0
  0
SPLINE
  5
685
100
AcDbEntity
  8
RUNDUNGEN
100
AcDbSpline
 62
7
  6
CONTINUOUS
 70
0
 71
3
 72
11
 73
7
 74
0
 42
0.0000001
 43
0.0000001
 44
0.0000000001
 40
0.0
 40
0.0
 40
0.0
 40
0.0
 40
0.2377805384
 40
0.4809056364
 40
0.7339193512
 40
1.0
 40
1.0
 40
1.0
 40
1.0
 10
220.4406145399
 20
74.7643369817
 30
0.0
 10
220.4406145474
 20
74.5517324101
 30
0.0
 10
220.3934507697
 20
74.1203714762
 30
0.0
 10
220.1843277534
 20
73.4936421538
 30
0.0
 10
219.8432248618
 20
72.8989893786
 30
0.0
 10
219.5419156807
 20
72.54249321
 30
0.0
 10
219.3745158409
 20
72.3734439561
 30
0.0
  0
SPLINE
  5
686
100
AcDbEntity
  8
RUNDUNGEN
100
AcDbSpline
 62
7
  6
CONTINUOUS
 70
0
 71
3
 72
11
 73
7
 74
0
 42
0.0000001
 43
0.0000001
 44
0.0000000001
 40
0.0
 40
0.0
 40
0.0
 40
0.0
 40
0.2377789309
 40
0.4809060588
 40
0.7339191266
 40
1.0
 40
1.0
 40
1.0
 40
1.0
 10
240.0397248744
 20
65.5381388301
 30
0.0
 10
240.0397248744
 20
65.6090065369
 30
0.0
 10
240.0240037267
 20
65.7527936252
 30
0.0
 10
239.9542961273
 20
65.9617033756
 30
0.0
 10
239.8405949244
 20
66.1599213498
 30
0.0
 10
239.7401586315
 20
66.2787533177
 30
0.0
 10
239.6843586415
 20
66.3351031129
 30
0.0
  0
SPLINE
  5
687
100
AcDbEntity
  8
BEZUGSACHSEN
100
AcDbSpline
 62
7
  6
CONTINUOUS
 70
0
 71
3
 72
9
 73
5
 74
0
 42
0.0000001
 43
0.0000001
 44
0.0000000001
 40
0.0
 40
0.0
 40
0.0
 40
0.0
 40
0.4800442659
 40
1.0
 40
1.0
 40
1.0
 40
1.0
 10
229.0418254658
 20
85.1357354389
 30
0.0
 10
228.9797364885
 20
84.9943732702
 30
0.0
 10
228.8034920177
 20
84.719385059
 30
0.0
 10
228.563338804
 20
84.5004928406
 30
0.0
 10
228.4286253483
 20
84.401400653
 30
0.0
  0
SPLINE
  5
688
100
AcDbEntity
  8
BEZUGSACHSEN
100
AcDbSpline
 62
7
  6
CONTINUOUS
 70
0
 71
3
 72
9
 73
5
 74
0
 42
0.0000001
 43
0.0000001
 44
0.0000000001
 40
0.0
 40
0.0
 40
0.0
 40
0.0
 40
0.5199557341
 40
1.0
 40
1.0
 40
1.0
 40
1.0
 10
224.6508244006
 20
84.401400653
 30
0.0
 10
224.5161109449
 20
84.5004928406
 30
0.0
 10
224.2759577312
 20
84.719385059
 30
0.0
 10
224.0997132604
 20
84.9943732702
 30
0.0
 10
224.0376242831
 20
85.1357354389
 30
0.0
  0
SPLINE
  5
689
100
AcDbEntity
  8
0
100
AcDbSpline
 62
7
  6
CONTINUOUS
 70
0
 71
3
 72
10
 73
6
 74
0
 42
0.0000001
 43
0.0000001
 44
0.0000000001
 40
0.0
 40
0.0
 40
0.0
 40
0.0
 40
0.4809827748
 40
0.7380229668
 40
1.0
 40
1.0
 40
1.0
 40
1.0
 10
224.7245364398
 20
80.0360057579
 30
0.0
 10
224.3412392281
 20
80.3052679187
 30
0.0
 10
223.6703975437
 20
80.6071739647
 30
0.0
 10
222.7163725144
 20
80.8086438877
 30
0.0
 10
222.2098602485
 20
80.8435090345
 30
0.0
 10
221.9547248744
 20
80.8435090345
 30
0.0
  0
SPLINE
  5
68A
100
AcDbEntity
  8
RUNDUNGEN
100
AcDbSpline
 62
7
  6
CONTINUOUS
 70
0
 71
3
 72
11
 73
7
 74
0
 42
0.0000001
 43
0.0000001
 44
0.0000000001
 40
0.0
 40
0.0
 40
0.0
 40
0.0
 40
0.2660806253
 40
0.5190943246
 40
0.762219441
 40
1.0
 40
1.0
 40
1.0
 40
1.0
 10
233.7049339079
 20
72.3734439561
 30
0.0
 10
233.5375341049
 20
72.5424931728
 30
0.0
 10
233.2362249758
 20
72.8989892579
 30
0.0
 10
232.8951221118
 20
73.4936419223
 30
0.0
 10
232.6859990544
 20
74.120371158
 30
0.0
 10
232.6388352166
 20
74.551732065
 30
0.0
 10
232.638835209
 20
74.7643366272
 30
0.0
  0
SPLINE
  5
68B
100
AcDbEntity
  8
RUNDUNGEN
100
AcDbSpline
 62
7
  6
CONTINUOUS
 70
0
 71
3
 72
9
 73
5
 74
0
 42
0.0000001
 43
0.0000001
 44
0.0000000001
 40
0.0
 40
0.0
 40
0.0
 40
0.0
 40
0.2642968332
 40
1.0
 40
1.0
 40
1.0
 40
1.0
 10
216.5391215016
 20
85.7070757503
 30
0.0
 10
216.4719853209
 20
85.7323081513
 30
0.0
 10
216.2227034473
 20
85.8392203067
 30
0.0
 10
215.9922539446
 20
85.9951508774
 30
0.0
 10
215.8517773073
 20
86.1370116507
 30
0.0
  0
SPLINE
  5
68C
100
AcDbEntity
  8
0
100
AcDbSpline
 62
7
  6
CONTINUOUS
 70
0
 71
3
 72
11
 73
7
 74
0
 42
0.0000001
 43
0.0000001
 44
0.0000000001
 40
0.0
 40
0.0
 40
0.0
 40
0.0
 40
0.2708985648
 40
0.5309750044
 40
0.774875432
 40
1.0
 40
1.0
 40
1.0
 40
1.0
 10
222.353507644
 20
73.9728380053
 30
0.0
 10
222.627738667
 20
73.9508345473
 30
0.0
 10
223.1628964764
 20
73.8630363935
 30
0.0
 10
223.9091946241
 20
73.5999234236
 30
0.0
 10
224.5509718189
 20
73.2206450615
 30
0.0
 10
224.8999603259
 20
72.8878477067
 30
0.0
 10
225.0417826539
 20
72.7085255553
 30
0.0
  0
SPLINE
  5
68D
100
AcDbEntity
  8
0
100
AcDbSpline
 62
7
  6
CONTINUOUS
 70
0
 71
3
 72
9
 73
5
 74
0
 42
0.0000001
 43
0.0000001
 44
0.0000000001
 40
0.0
 40
0.0
 40
0.0
 40
0.0
 40
0.2631383995
 40
1.0
 40
1.0
 40
1.0
 40
1.0
 10
222.3730898966
 20
80.9666415701
 30
0.0
 10
222.5914804851
 20
80.9501099956
 30
0.0
 10
223.4157518174
 20
80.8385897793
 30
0.0
 10
224.222685186
 20
80.5274973381
 30
0.0
 10
224.7245364398
 20
80.1749522404
 30
0.0
  0
ENDSEC
  0
SECTION
  2
OBJECTS
  0
DICTIONARY
  5
C
100
AcDbDictionary
280
0
281
1
  3
ACAD_GROUP
350
D
  3
ACAD_MLINESTYLE
350
17
  3
ACAD_LAYOUT
350
1A
  3
ACAD_PLOTSETTINGS
350
19
  3
ACAD_PLOTSTYLENAME
350
E
  0
DICTIONARY
  5
D
102
{ACAD_REACTORS
330
C
102
}
100
AcDbDictionary
280
0
281
1
  0
ACDBDICTIONARYWDFLT
  5
E
102
{ACAD_REACTORS
330
C
102
}
100
AcDbDictionary
281
1
  3
Normal
350
F
100
AcDbDictionaryWithDefault
340
F
  0
DICTIONARY
  5
17
102
{ACAD_REACTORS
330
C
102
}
100
AcDbDictionary
280
0
281
1
  3
Standard
350
18
  0
DICTIONARY
  5
19
102
{ACAD_REACTORS
330
C
102
}
100
AcDbDictionary
281
1
  0
DICTIONARY
  5
1A
102
{ACAD_REACTORS
330
C
102
}
100
AcDbDictionary
281
1
  3
Model
350
68E
  3
Layout1
350
68F
  0
ACDBPLACEHOLDER
  5
F
102
{ACAD_REACTORS
330
E
102
}
  0
MLINESTYLE
  5
18
102
{ACAD_REACTORS
330
17
102
}
100
AcDbMlineStyle
  2
STANDARD
 70
0
  3

 62
256
 51
90.0
 52
90.0
 71
2
 49
0.5
 62
256
  6
BYLAYER
 49
-0.5
 62
256
  6
BYLAYER
  0
LAYOUT
  5
68E
102
{ACAD_REACTORS
330
1A
102
}
100
AcDbPlotSettings
  1

  2
none_device
  4
ISO_A4_(297.00_x_210.00_MM)
  6

 40
0.0
 41
0.0
 42
0.0
 43
0.0
 44
297.0
 45
210.0
 46
0.0
 47
0.0
 48
0.0
 49
0.0
140
0.0
141
0.0
142
1.0
143
1.0
 70
1024
 72
1
 73
0
 74
0
  7

 75
0
147
1.0
148
0.0
149
0.0
100
AcDbLayout
  1
Model
 70
0
 71
0
 10
0.0
 20
0.0
 11
297.0
 21
210.0
 12
0.0
 22
0.0
 32
0.0
 14
0.0
 24
0.0
 34
0.0
 15
0.0
 25
0.0
 35
0.0
146
0.0
 13
0.0
 23
0.0
 33
0.0
 16
1.0
 26
0.0
 36
0.0
 17
0.0
 27
1.0
 37
0.0
 76
0
330
20C
345
0
346
0
  0
LAYOUT
  5
68F
102
{ACAD_REACTORS
330
1A
102
}
100
AcDbPlotSettings
  1

  2
none_device
  4
ISO_A4_(297.00_x_210.00_MM)
  6

 40
0.0
 41
0.0
 42
0.0
 43
0.0
 44
297.0
 45
210.0
 46
0.0
 47
0.0
 48
0.0
 49
0.0
140
0.0
141
0.0
142
1.0
143
1.0
 70
0
 72
1
 73
0
 74
0
  7

 75
0
147
1.0
148
0.0
149
0.0
100
AcDbLayout
  1
Layout1
 70
0
 71
1
 10
0.0
 20
0.0
 11
297.0
 21
210.0
 12
0.0
 22
0.0
 32
0.0
 14
0.0
 24
0.0
 34
0.0
 15
0.0
 25
0.0
 35
0.0
146
0.0
 13
0.0
 23
0.0
 33
0.0
 16
1.0
 26
0.0
 36
0.0
 17
0.0
 27
1.0
 37
0.0
 76
0
330
20D
345
0
346
0
  0
ENDSEC
  0
EOF
