999
DXF file: ISH-4_7904693_M34948-P-1.dxf
999
Pro/ENGINEER 2011490 by Parametric Technology Corporation
  0
SECTION
  2
HEADER
  9
$ACADVER
  1
AC1015
  9
$DWGCODEPAGE
  3
ANSI_1252
  9
$EXTMAX
 10
297.0
 20
210.0
 30
0.0
  9
$EXTMIN
 10
0.0
 20
0.0
 30
0.0
  9
$LIMMIN
 10
0.0
 20
0.0
  9
$LIMMAX
 10
297.0
 20
210.0
  9
$VIEWCTR
 10
148.5
 20
105.0
  9
$VIEWSIZE
 40
210.0
  9
$CLAYER
  8
0
  9
$LTSCALE
 40
16.335
  9
$CELTYPE
  6
BYLAYER
  9
$DIMSCALE
 40
1.0
  9
$DIMASZ
 40
3.5
  9
$DIMEXO
 40
1.85625
  9
$DIMDLI
 40
11.286
  9
$DIMEXE
 40
5.346
  9
$DIMCEN
 40
2.673
  9
$DIMLFAC
 40
1.0
  9
$DIMBLK
  1
_FILLED
  9
$DIMTXT
 40
3.5
  9
$DIMTOL
 70
1
  9
$DIMLIM
 70
0
  9
$DIMTFAC
 40
1.0
  9
$DIMTP
 40
0.005
  9
$DIMTM
 40
0.005
  9
$PDMODE
 70
3
  9
$PDSIZE
 40
0.3125
  9
$HANDSEED
  5
3A7
  9
$TILEMODE
 70
1
  9
$MEASUREMENT
 70
1
  9
$INSUNITS
 70
4
  0
ENDSEC
  0
SECTION
  2
CLASSES
  0
CLASS
  1
ACDBDICTIONARYWDFLT
  2
AcDbDictionaryWithDefault
  3
AutoCAD 2000
 90
0
280
0
281
0
  0
CLASS
  1
ACDBPLACEHOLDER
  2
AcDbPlaceHolder
  3
AutoCAD 2000
 90
0
280
0
281
0
  0
CLASS
  1
LAYOUT
  2
AcDbLayout
  3
AutoCAD 2000
 90
0
280
0
281
0
  0
ENDSEC
  0
SECTION
  2
TABLES
  0
TABLE
  2
VPORT
  5
8
100
AcDbSymbolTable
 70
2
  0
VPORT
  5
1F4
100
AcDbSymbolTableRecord
100
AcDbViewportTableRecord
  2
*ACTIVE
 70
0
 10
0.0
 20
0.0
 11
1.0
 21
1.0
 12
148.5
 22
105.0
 13
0.0
 23
0.0
 14
1.0
 24
1.0
 15
0.0
 25
0.0
 16
0.0
 26
0.0
 36
1.0
 17
0.0
 27
0.0
 37
0.0
 40
210.0
 41
1.4142857143
 42
50.0
 43
0.0
 44
0.0
 50
0.0
 51
0.0
 71
0
 72
100
 73
1
 74
1
 75
0
 76
0
 77
0
 78
0
  0
ENDTAB
  0
TABLE
  2
LTYPE
  5
5
100
AcDbSymbolTable
 70
6
  0
LTYPE
  5
14
100
AcDbSymbolTableRecord
100
AcDbLinetypeTableRecord
  2
BYBLOCK
 70
0
  3

 72
65
 73
0
 40
0.0
  0
LTYPE
  5
15
100
AcDbSymbolTableRecord
100
AcDbLinetypeTableRecord
  2
BYLAYER
 70
0
  3

 72
65
 73
0
 40
0.0
  0
LTYPE
  5
16
100
AcDbSymbolTableRecord
100
AcDbLinetypeTableRecord
  2
CONTINUOUS
 70
64
  3
Solid line
 72
65
 73
0
 40
0.0
  0
LTYPE
  5
1F5
100
AcDbSymbolTableRecord
100
AcDbLinetypeTableRecord
  2
CENTER
 70
64
  3
____ _ ____ _ ____ _ ____ _ ____ _ ____ _ ____
 72
65
 73
4
 40
0.6
 49
0.375
 74
0
 49
-0.075
 74
0
 49
0.075
 74
0
 49
-0.075
 74
0
  0
LTYPE
  5
1F6
100
AcDbSymbolTableRecord
100
AcDbLinetypeTableRecord
  2
HIDDEN
 70
64
  3
- - - - - - - - - - - - - - - - - - - -
 72
65
 73
2
 40
0.2
 49
0.1
 74
0
 49
-0.1
 74
0
  0
LTYPE
  5
1F7
100
AcDbSymbolTableRecord
100
AcDbLinetypeTableRecord
  2
PHANTOM
 70
64
  3
_____ _ _ _____ _ _ _____ _ _ _____
 72
65
 73
6
 40
0.8
 49
0.45
 74
0
 49
-0.05
 74
0
 49
0.1
 74
0
 49
-0.05
 74
0
 49
0.1
 74
0
 49
-0.05
 74
0
  0
LTYPE
  5
1F8
100
AcDbSymbolTableRecord
100
AcDbLinetypeTableRecord
  2
DOT
 70
64
  3
. . . . . . . . . . . . . . . . . . . .
 72
65
 73
2
 40
0.2
 49
0.1
 74
0
 49
-0.1
 74
0
  0
LTYPE
  5
1F9
100
AcDbSymbolTableRecord
100
AcDbLinetypeTableRecord
  2
DASHED
 70
64
  3
- - - - - - - - - - - - - - - - - - - -
 72
65
 73
2
 40
0.2
 49
0.1
 74
0
 49
-0.1
 74
0
  0
ENDTAB
  0
TABLE
  2
LAYER
  5
2
100
AcDbSymbolTable
 70
36
  0
LAYER
  5
10
100
AcDbSymbolTableRecord
100
AcDbLayerTableRecord
  2
0
 70
0
 62
7
  6
CONTINUOUS
370
-3
390
F
  0
LAYER
  5
1FA
100
AcDbSymbolTableRecord
100
AcDbLayerTableRecord
  2
DEFAULT_1
 70
0
 62
7
  6
CENTER
370
-3
390
F
  0
LAYER
  5
1FB
100
AcDbSymbolTableRecord
100
AcDbLayerTableRecord
  2
DEFAULT_2
 70
0
 62
8
  6
HIDDEN
370
-3
390
F
  0
LAYER
  5
1FC
100
AcDbSymbolTableRecord
100
AcDbLayerTableRecord
  2
DEFAULT_3
 70
0
 62
7
  6
PHANTOM
370
-3
390
F
  0
LAYER
  5
1FD
100
AcDbSymbolTableRecord
100
AcDbLayerTableRecord
  2
BEZUGSACHSEN
 70
0
 62
7
  6
CONTINUOUS
370
-3
390
F
  0
LAYER
  5
1FE
100
AcDbSymbolTableRecord
100
AcDbLayerTableRecord
  2
BEZUGSEBENEN
 70
0
 62
7
  6
CONTINUOUS
370
-3
390
F
  0
LAYER
  5
1FF
100
AcDbSymbolTableRecord
100
AcDbLayerTableRecord
  2
BG_STARTBEZUEGE
 70
0
 62
7
  6
CONTINUOUS
370
-3
390
F
  0
LAYER
  5
200
100
AcDbSymbolTableRecord
100
AcDbLayerTableRecord
  2
FASEN
 70
0
 62
7
  6
CONTINUOUS
370
-3
390
F
  0
LAYER
  5
201
100
AcDbSymbolTableRecord
100
AcDbLayerTableRecord
  2
HILFEN
 70
0
 62
7
  6
CONTINUOUS
370
-3
390
F
  0
LAYER
  5
202
100
AcDbSymbolTableRecord
100
AcDbLayerTableRecord
  2
KONSTRUKTIONSELEMENTE
 70
0
 62
7
  6
CONTINUOUS
370
-3
390
F
  0
LAYER
  5
203
100
AcDbSymbolTableRecord
100
AcDbLayerTableRecord
  2
KURVEN
 70
0
 62
7
  6
CONTINUOUS
370
-3
390
F
  0
LAYER
  5
204
100
AcDbSymbolTableRecord
100
AcDbLayerTableRecord
  2
PLATZIERUNG
 70
0
 62
7
  6
CONTINUOUS
370
-3
390
F
  0
LAYER
  5
205
100
AcDbSymbolTableRecord
100
AcDbLayerTableRecord
  2
RUNDUNGEN
 70
0
 62
7
  6
CONTINUOUS
370
-3
390
F
  0
LAYER
  5
206
100
AcDbSymbolTableRecord
100
AcDbLayerTableRecord
  2
TEIL_STARTBEZUEGE
 70
0
 62
7
  6
CONTINUOUS
370
-3
390
F
  0
LAYER
  5
207
100
AcDbSymbolTableRecord
100
AcDbLayerTableRecord
  2
ZEICHNUNGSBEMASSUNGEN
 70
0
 62
7
  6
CONTINUOUS
370
-3
390
F
  0
ENDTAB
  0
TABLE
  2
STYLE
  5
3
100
AcDbSymbolTable
 70
1
  0
STYLE
  5
11
100
AcDbSymbolTableRecord
100
AcDbTextStyleTableRecord
  2
STANDARD
 70
0
 40
0.0
 41
0.7
 50
0.0
 71
0
 42
0.2
  3
txt
  4

  0
STYLE
  5
208
100
AcDbSymbolTableRecord
100
AcDbTextStyleTableRecord
  2
TEXTSTYLE_1
 70
0
 40
0.0
 41
0.8
 50
0.0
 71
0
 42
0.2
  3
gdt
  4

  0
ENDTAB
  0
TABLE
  2
VIEW
  5
6
100
AcDbSymbolTable
 70
0
  0
ENDTAB
  0
TABLE
  2
UCS
  5
7
100
AcDbSymbolTable
 70
0
  0
ENDTAB
  0
TABLE
  2
APPID
  5
9
100
AcDbSymbolTable
 70
1
  0
APPID
  5
209
100
AcDbSymbolTableRecord
100
AcDbRegAppTableRecord
  2
ACAD
 70
0
  0
ENDTAB
  0
TABLE
  2
BLOCK_RECORD
  5
1
100
AcDbSymbolTable
 70
0
  0
BLOCK_RECORD
  5
20A
100
AcDbSymbolTableRecord
100
AcDbBlockTableRecord
  2
*Model_Space
  0
BLOCK_RECORD
  5
20B
100
AcDbSymbolTableRecord
100
AcDbBlockTableRecord
  2
*Paper_Space
  0
ENDTAB
  0
TABLE
  2
DIMSTYLE
  5
A
100
AcDbSymbolTable
 70
1
100
AcDbDimStyleTable
 71
0
  0
DIMSTYLE
105
20C
100
AcDbSymbolTableRecord
100
AcDbDimStyleTableRecord
  2
STANDARD
 70
0
  3

  4

 40
1.0
 41
3.5
 42
0.0625
 43
0.38
 44
0.18
 45
0.0
 46
0.0
 47
0.005
 48
0.005
140
3.5
141
0.09
142
0.0
143
25.4
144
1.0
145
0.0
146
1.0
147
0.09
 71
1.0
 72
0.0
 73
0
 74
0
 75
0
 76
0
 77
1
 78
8
170
0
171
2
172
0
173
0
174
0
175
0
176
0
177
0
178
5
270
2
271
3
272
3
273
2
274
2
275
0
280
0
281
0
282
0
283
1
284
8
285
0
286
0
287
3
288
0
340
11
  0
ENDTAB
  0
ENDSEC
  0
SECTION
  2
BLOCKS
  0
BLOCK
  5
20
100
AcDbEntity
  8
0
100
AcDbBlockBegin
  2
*Model_Space
 70
0
 10
0.0
 20
0.0
 30
0.0
  3
*Model_Space
  1

  0
ENDBLK
  5
21
100
AcDbEntity
  8
0
100
AcDbBlockEnd
  0
BLOCK
  5
1C
100
AcDbEntity
  8
0
100
AcDbBlockBegin
  2
*Paper_Space
 70
0
 10
0.0
 20
0.0
 30
0.0
  3
*Paper_Space
  1

  0
ENDBLK
  5
1D
100
AcDbEntity
  8
0
100
AcDbBlockEnd
  0
ENDSEC
  0
SECTION
  2
ENTITIES
  0
MTEXT
  5
20D
100
AcDbEntity
  8
0
100
AcDbMText
 62
5
  6
CONTINUOUS
  7
STANDARD
 71
2
 72
1
 10
229.1715742265
 20
136.9149534956
 30
0.0
 11
1.0
 21
0.0
 31
0.0
 44
0.9
  1
RUD\PISH 4
 40
3.5
 41
13.25
  0
MTEXT
  5
20E
100
AcDbEntity
  8
0
100
AcDbMText
 62
5
  6
CONTINUOUS
  7
STANDARD
 71
2
 72
1
 10
55.8484150043
 20
149.9797059544
 30
0.0
 11
1.0
 21
0.0
 31
0.0
 44
0.9
  1
RUD\PISH 4
 40
3.5
 41
13.25
  0
LINE
  5
20F
100
AcDbEntity
  8
0
100
AcDbLine
 62
7
  6
CONTINUOUS
 10
0.0
 20
0.0
 11
0.0
 21
210.0
  0
LINE
  5
210
100
AcDbEntity
  8
0
100
AcDbLine
 62
7
  6
CONTINUOUS
 10
0.0
 20
0.0
 11
297.0
 21
0.0
  0
LINE
  5
211
100
AcDbEntity
  8
0
100
AcDbLine
 62
7
  6
CONTINUOUS
 10
0.0
 20
210.0
 11
297.0
 21
210.0
  0
LINE
  5
212
100
AcDbEntity
  8
0
100
AcDbLine
 62
7
  6
CONTINUOUS
 10
297.0
 20
0.0
 11
297.0
 21
210.0
  0
LINE
  5
213
100
AcDbEntity
  8
0
100
AcDbLine
 62
7
  6
CONTINUOUS
 10
153.0353545506
 20
88.5053013498
 11
153.2947968748
 21
88.5630577634
  0
LINE
  5
214
100
AcDbEntity
  8
0
100
AcDbLine
 62
7
  6
CONTINUOUS
 10
153.1645062624
 20
88.8544001723
 11
152.9526094934
 21
88.8179064993
  0
LINE
  5
215
100
AcDbEntity
  8
0
100
AcDbLine
 62
7
  6
CONTINUOUS
 10
160.0373950822
 20
93.3521762195
 11
160.3330176055
 21
93.4289093042
  0
LINE
  5
216
100
AcDbEntity
  8
0
100
AcDbLine
 62
7
  6
CONTINUOUS
 10
150.6931825542
 20
90.1598759464
 11
150.4289215852
 21
90.1313743626
  0
LINE
  5
217
100
AcDbEntity
  8
0
100
AcDbLine
 62
7
  6
CONTINUOUS
 10
150.559398963
 20
89.8938419039
 11
150.7244242861
 21
89.8906734486
  0
LINE
  5
218
100
AcDbEntity
  8
0
100
AcDbLine
 62
7
  6
CONTINUOUS
 10
152.8017424044
 20
88.5173646304
 11
153.0353545506
 21
88.5053013498
  0
LINE
  5
219
100
AcDbEntity
  8
0
100
AcDbLine
 62
7
  6
CONTINUOUS
 10
152.9526094934
 20
88.8179064993
 11
152.7665428911
 21
88.8512325458
  0
LINE
  5
21A
100
AcDbEntity
  8
KONSTRUKTIONSELEMENTE
100
AcDbLine
 62
7
  6
CONTINUOUS
 10
125.8229237977
 20
146.6209961822
 11
127.515937458
 21
148.1453925291
  0
LINE
  5
21B
100
AcDbEntity
  8
0
100
AcDbLine
 62
7
  6
CONTINUOUS
 10
159.4436544831
 20
94.5756529472
 11
159.2586218877
 21
94.5369962968
  0
LINE
  5
21C
100
AcDbEntity
  8
0
100
AcDbLine
 62
7
  6
CONTINUOUS
 10
160.2199329323
 20
94.7677766445
 11
160.4049655277
 21
94.8064332949
  0
LINE
  5
21D
100
AcDbEntity
  8
0
100
AcDbLine
 62
7
  6
CONTINUOUS
 10
159.483747418
 20
95.7668518744
 11
159.2242729725
 21
95.7276158759
  0
LINE
  5
21E
100
AcDbEntity
  8
0
100
AcDbLine
 62
7
  6
CONTINUOUS
 10
155.1598057251
 20
92.196027434
 11
154.9263392481
 21
92.1814180337
  0
LINE
  5
21F
100
AcDbEntity
  8
0
100
AcDbLine
 62
7
  6
CONTINUOUS
 10
160.1393979916
 20
93.6879077599
 11
159.9160707597
 21
93.6861680249
  0
LINE
  5
220
100
AcDbEntity
  8
0
100
AcDbLine
 62
7
  6
CONTINUOUS
 10
159.1183243553
 20
94.2381816589
 11
159.4160942378
 21
94.240501626
  0
LINE
  5
221
100
AcDbEntity
  8
0
100
AcDbLine
 62
7
  6
CONTINUOUS
 10
155.0441330742
 20
91.8802646695
 11
155.2327838933
 21
91.8683371199
  0
LINE
  5
222
100
AcDbEntity
  8
0
100
AcDbLine
 62
7
  6
CONTINUOUS
 10
150.9401694796
 20
90.0711955057
 11
150.6931825542
 21
90.1598759464
  0
LINE
  5
223
100
AcDbEntity
  8
0
100
AcDbLine
 62
7
  6
CONTINUOUS
 10
152.5247003292
 20
88.6265421618
 11
152.8017424044
 21
88.5173646304
  0
LINE
  5
224
100
AcDbEntity
  8
0
100
AcDbLine
 62
7
  6
CONTINUOUS
 10
160.5452630601
 20
95.1052479328
 11
160.2474931776
 21
95.1029279656
  0
LINE
  5
225
100
AcDbEntity
  8
0
100
AcDbLine
 62
7
  6
CONTINUOUS
 10
159.417892563
 20
95.4686174428
 11
159.5667770906
 21
95.4697769972
  0
LINE
  5
226
100
AcDbEntity
  8
0
100
AcDbLine
 62
7
  6
CONTINUOUS
 10
155.4474755344
 20
92.119098131
 11
155.1598057251
 21
92.196027434
  0
LINE
  5
227
100
AcDbEntity
  8
0
100
AcDbLine
 62
7
  6
CONTINUOUS
 10
150.7244242861
 20
89.8906734486
 11
150.8560037824
 21
89.8209965054
  0
LINE
  5
228
100
AcDbEntity
  8
RUNDUNGEN
100
AcDbLine
 62
7
  6
CONTINUOUS
 10
117.6243651992
 20
114.1184730498
 11
120.8254005367
 21
107.8360874679
  0
LINE
  5
229
100
AcDbEntity
  8
0
100
AcDbLine
 62
7
  6
CONTINUOUS
 10
159.7453692328
 20
95.7316747456
 11
159.483747418
 21
95.7668518744
  0
LINE
  5
22A
100
AcDbEntity
  8
0
100
AcDbLine
 62
7
  6
CONTINUOUS
 10
160.4049655277
 20
94.8064332949
 11
160.5921447186
 21
94.7706759081
  0
LINE
  5
22B
100
AcDbEntity
  8
0
100
AcDbLine
 62
7
  6
CONTINUOUS
 10
159.7374786175
 20
93.4242702765
 11
160.0373950822
 21
93.3521762195
  0
LINE
  5
22C
100
AcDbEntity
  8
0
100
AcDbLine
 62
7
  6
CONTINUOUS
 10
155.2327838933
 20
91.8683371199
 11
155.4037207964
 21
91.7841031403
  0
LINE
  5
22D
100
AcDbEntity
  8
0
100
AcDbLine
 62
7
  6
CONTINUOUS
 10
152.7665428911
 20
88.8512325458
 11
152.6063064857
 21
88.9543782438
  0
LINE
  5
22E
100
AcDbEntity
  8
0
100
AcDbLine
 62
7
  6
CONTINUOUS
 10
151.1537105782
 20
89.9160065771
 11
150.9401694796
 21
90.0711955057
  0
LINE
  5
22F
100
AcDbEntity
  8
KONSTRUKTIONSELEMENTE
100
AcDbLine
 62
7
  6
CONTINUOUS
 10
122.1101876169
 20
113.9924148508
 11
123.8256647282
 21
146.7256680947
  0
LINE
  5
230
100
AcDbEntity
  8
RUNDUNGEN
100
AcDbLine
 62
7
  6
CONTINUOUS
 10
121.7346797392
 20
117.7033697096
 11
121.2865416119
 21
112.5811274757
  0
LINE
  5
231
100
AcDbEntity
  8
0
100
AcDbLine
 62
7
  6
CONTINUOUS
 10
160.7707368608
 20
95.0325736565
 11
160.5452630601
 21
95.1052479328
  0
LINE
  5
232
100
AcDbEntity
  8
0
100
AcDbLine
 62
7
  6
CONTINUOUS
 10
159.5667770906
 20
95.4697769972
 11
159.6795143778
 21
95.4334403141
  0
LINE
  5
233
100
AcDbEntity
  8
0
100
AcDbLine
 62
7
  6
CONTINUOUS
 10
159.9160707597
 20
93.6861680249
 11
159.7650388628
 21
93.7594215976
  0
LINE
  5
234
100
AcDbEntity
  8
0
100
AcDbLine
 62
7
  6
CONTINUOUS
 10
159.2586218877
 20
94.5369962968
 11
159.1075899908
 21
94.6102498695
  0
LINE
  5
235
100
AcDbEntity
  8
0
100
AcDbLine
 62
7
  6
CONTINUOUS
 10
155.6455140278
 20
91.9890949278
 11
155.4474755344
 21
92.119098131
  0
LINE
  5
236
100
AcDbEntity
  8
0
100
AcDbLine
 62
7
  6
CONTINUOUS
 10
152.3427489451
 20
88.7782450171
 11
152.5247003292
 21
88.6265421618
  0
LINE
  5
237
100
AcDbEntity
  8
KONSTRUKTIONSELEMENTE
100
AcDbLine
 62
7
  6
CONTINUOUS
 10
128.0299398793
 20
111.3178969836
 11
128.3507459445
 21
110.6882796297
  0
LINE
  5
238
100
AcDbEntity
  8
RUNDUNGEN
100
AcDbLine
 62
7
  6
CONTINUOUS
 10
128.3507459445
 20
110.6882796297
 11
131.3085742407
 21
104.8832147422
  0
LINE
  5
239
100
AcDbEntity
  8
KONSTRUKTIONSELEMENTE
100
AcDbLine
 62
7
  6
CONTINUOUS
 10
127.2825091782
 20
126.7032378121
 11
126.6040205233
 21
113.7569030477
  0
LINE
  5
23A
100
AcDbEntity
  8
KONSTRUKTIONSELEMENTE
100
AcDbLine
 62
7
  6
CONTINUOUS
 10
128.0823040122
 20
129.164753206
 11
135.8088439167
 21
141.0625812964
  0
LINE
  5
23B
100
AcDbEntity
  8
RUNDUNGEN
100
AcDbLine
 62
7
  6
CONTINUOUS
 10
121.2865416119
 20
112.5811274757
 11
128.3507459445
 21
110.6882796297
  0
LINE
  5
23C
100
AcDbEntity
  8
0
100
AcDbLine
 62
7
  6
CONTINUOUS
 10
159.8964011297
 20
95.6584211729
 11
159.7453692328
 21
95.7316747456
  0
LINE
  5
23D
100
AcDbEntity
  8
0
100
AcDbLine
 62
7
  6
CONTINUOUS
 10
159.5481521109
 20
93.5344407388
 11
159.7374786175
 21
93.4242702765
  0
LINE
  5
23E
100
AcDbEntity
  8
0
100
AcDbLine
 62
7
  6
CONTINUOUS
 10
158.9289978487
 20
94.3483521211
 11
159.1183243553
 21
94.2381816589
  0
LINE
  5
23F
100
AcDbEntity
  8
0
100
AcDbLine
 62
7
  6
CONTINUOUS
 10
151.8836513965
 20
87.9714101786
 11
151.0651368785
 21
88.9943855087
  0
LINE
  5
240
100
AcDbEntity
  8
0
100
AcDbLine
 62
7
  6
CONTINUOUS
 10
150.799773862
 20
88.7980284321
 11
151.5363267067
 21
87.8605650647
  0
LINE
  5
241
100
AcDbEntity
  8
RUNDUNGEN
100
AcDbLine
 62
7
  6
CONTINUOUS
 10
130.646155793
 20
151.3961815704
 11
130.646155793
 21
159.8478769666
  0
LINE
  5
242
100
AcDbEntity
  8
0
100
AcDbLine
 62
7
  6
CONTINUOUS
 10
130.646155793
 20
159.8478769666
 11
130.646155793
 21
160.558095989
  0
LINE
  5
243
100
AcDbEntity
  8
0
100
AcDbLine
 62
7
  6
CONTINUOUS
 10
163.921256215
 20
100.0857775181
 11
164.2134868596
 21
99.957491443
  0
LINE
  5
244
100
AcDbEntity
  8
0
100
AcDbLine
 62
7
  6
CONTINUOUS
 10
155.4037207964
 20
91.7841031403
 11
155.556943119
 21
91.6275626834
  0
LINE
  5
245
100
AcDbEntity
  8
0
100
AcDbLine
 62
7
  6
CONTINUOUS
 10
152.6063064857
 20
88.9543782438
 11
152.4719008062
 21
89.1273438707
  0
LINE
  5
246
100
AcDbEntity
  8
0
100
AcDbLine
 62
7
  6
CONTINUOUS
 10
150.8560037824
 20
89.8209965054
 11
150.9541373099
 21
89.6848110289
  0
LINE
  5
247
100
AcDbEntity
  8
0
100
AcDbLine
 62
7
  6
CONTINUOUS
 10
151.2518441057
 20
89.7798211006
 11
151.1537105782
 21
89.9160065771
  0
LINE
  5
248
100
AcDbEntity
  8
0
100
AcDbLine
 62
7
  6
CONTINUOUS
 10
152.186627894
 20
88.9997675849
 11
152.3427489451
 21
88.7782450171
  0
LINE
  5
249
100
AcDbEntity
  8
KONSTRUKTIONSELEMENTE
100
AcDbLine
 62
7
  6
CONTINUOUS
 10
122.1101876169
 20
113.9924148508
 11
126.6040205233
 21
113.7569030477
  0
LINE
  5
24A
100
AcDbEntity
  8
0
100
AcDbLine
 62
7
  6
CONTINUOUS
 10
163.4983129902
 20
101.6365866151
 11
164.4237099519
 21
101.2303474121
  0
LINE
  5
24B
100
AcDbEntity
  8
0
100
AcDbLine
 62
7
  6
CONTINUOUS
 10
164.7159405965
 20
101.102061337
 11
165.3978120097
 21
100.8027272015
  0
LINE
  5
24C
100
AcDbEntity
  8
0
100
AcDbLine
 62
7
  6
CONTINUOUS
 10
165.5234254439
 20
101.088869675
 11
164.8415540308
 21
101.3882038105
  0
LINE
  5
24D
100
AcDbEntity
  8
0
100
AcDbLine
 62
7
  6
CONTINUOUS
 10
164.5493233862
 20
101.5164898856
 11
163.2342856559
 21
102.0937771489
  0
LINE
  5
24E
100
AcDbEntity
  8
0
100
AcDbLine
 62
7
  6
CONTINUOUS
 10
165.0509099142
 20
101.8651082968
 11
164.7586792696
 21
101.9933943719
  0
LINE
  5
24F
100
AcDbEntity
  8
0
100
AcDbLine
 62
7
  6
CONTINUOUS
 10
159.8597302485
 20
96.491716753
 11
161.8472816003
 21
94.9752604815
  0
LINE
  5
250
100
AcDbEntity
  8
0
100
AcDbLine
 62
7
  6
CONTINUOUS
 10
162.0368386343
 20
95.2237044004
 11
161.1064954407
 21
95.9335350014
  0
LINE
  5
251
100
AcDbEntity
  8
0
100
AcDbLine
 62
7
  6
CONTINUOUS
 10
160.8527655112
 20
96.1271251407
 11
160.0492872824
 21
96.740160672
  0
LINE
  5
252
100
AcDbEntity
  8
0
100
AcDbLine
 62
7
  6
CONTINUOUS
 10
160.9338870152
 20
97.8995659432
 11
161.737365244
 21
97.2865304118
  0
LINE
  5
253
100
AcDbEntity
  8
0
100
AcDbLine
 62
7
  6
CONTINUOUS
 10
161.9910951735
 20
97.0929402726
 11
162.9214383671
 21
96.3831096716
  0
LINE
  5
254
100
AcDbEntity
  8
0
100
AcDbLine
 62
7
  6
CONTINUOUS
 10
163.110995401
 20
96.6315535906
 11
161.1234440491
 21
98.1480098622
  0
LINE
  5
255
100
AcDbEntity
  8
0
100
AcDbLine
 62
7
  6
CONTINUOUS
 10
158.7758193025
 20
94.4960197827
 11
158.9289978487
 21
94.3483521211
  0
LINE
  5
256
100
AcDbEntity
  8
0
100
AcDbLine
 62
7
  6
CONTINUOUS
 10
159.1075899908
 20
94.6102498695
 11
159.0310007714
 21
94.6840836486
  0
LINE
  5
257
100
AcDbEntity
  8
0
100
AcDbLine
 62
7
  6
CONTINUOUS
 10
155.8258380924
 20
91.786784991
 11
155.6455140278
 21
91.9890949278
  0
LINE
  5
258
100
AcDbEntity
  8
0
100
AcDbLine
 62
7
  6
CONTINUOUS
 10
160.5921447186
 20
94.7706759081
 11
160.7070285478
 21
94.6599252395
  0
LINE
  5
259
100
AcDbEntity
  8
0
100
AcDbLine
 62
7
  6
CONTINUOUS
 10
160.9622099093
 20
94.8479892088
 11
160.7707368608
 21
95.0325736565
  0
LINE
  5
25A
100
AcDbEntity
  8
0
100
AcDbLine
 62
7
  6
CONTINUOUS
 10
157.692636961
 20
94.3128673399
 11
159.3608342711
 21
92.4508475402
  0
LINE
  5
25B
100
AcDbEntity
  8
0
100
AcDbLine
 62
7
  6
CONTINUOUS
 10
159.5935867461
 20
92.659372204
 11
157.9253894359
 21
94.5213920037
  0
LINE
  5
25C
100
AcDbEntity
  8
0
100
AcDbLine
 62
7
  6
CONTINUOUS
 10
153.5995783726
 20
91.4576127973
 11
154.8733568336
 21
89.3064530096
  0
LINE
  5
25D
100
AcDbEntity
  8
0
100
AcDbLine
 62
7
  6
CONTINUOUS
 10
154.9796417912
 20
89.7402914596
 11
154.031083343
 21
91.3422189945
  0
LINE
  5
25E
100
AcDbEntity
  8
0
100
AcDbLine
 62
7
  6
CONTINUOUS
 10
155.556943119
 20
91.6275626834
 11
155.9634681492
 21
90.9410223433
  0
LINE
  5
25F
100
AcDbEntity
  8
0
100
AcDbLine
 62
7
  6
CONTINUOUS
 10
151.513459717
 20
90.5050367262
 11
152.186627894
 21
88.9997675849
  0
LINE
  5
260
100
AcDbEntity
  8
0
100
AcDbLine
 62
7
  6
CONTINUOUS
 10
152.4719008062
 20
89.1273438707
 11
151.7987326292
 21
90.632613012
  0
LINE
  5
261
100
AcDbEntity
  8
RUNDUNGEN
100
AcDbLine
 62
7
  6
CONTINUOUS
 10
140.196155793
 20
151.308095989
 11
140.196155793
 21
161.0815448332
  0
LINE
  5
262
100
AcDbEntity
  8
0
100
AcDbLine
 62
7
  6
CONTINUOUS
 10
140.196155793
 20
161.0815448332
 11
140.196155793
 21
162.058095989
  0
LINE
  5
263
100
AcDbEntity
  8
0
100
AcDbLine
 62
7
  6
CONTINUOUS
 10
156.2323631227
 20
91.100244651
 11
155.8258380924
 21
91.786784991
  0
LINE
  5
264
100
AcDbEntity
  8
0
100
AcDbLine
 62
7
  6
CONTINUOUS
 10
152.9398237338
 20
91.1429179121
 11
153.6129919108
 21
89.6376487707
  0
LINE
  5
265
100
AcDbEntity
  8
0
100
AcDbLine
 62
7
  6
CONTINUOUS
 10
153.898264687
 20
89.7652249957
 11
153.22509651
 21
91.2704941371
  0
LINE
  5
266
100
AcDbEntity
  8
0
100
AcDbLine
 62
7
  6
CONTINUOUS
 10
149.2380944019
 20
89.7513340758
 11
149.9981749757
 21
87.3696797093
  0
LINE
  5
267
100
AcDbEntity
  8
0
100
AcDbLine
 62
7
  6
CONTINUOUS
 10
150.2958817715
 20
87.464689781
 11
149.9562712975
 21
88.5288332364
  0
LINE
  5
268
100
AcDbEntity
  8
0
100
AcDbLine
 62
7
  6
CONTINUOUS
 10
149.8592397465
 20
88.8328741831
 11
149.6166608236
 21
89.5929766919
  0
LINE
  5
269
100
AcDbEntity
  8
0
100
AcDbLine
 62
7
  6
CONTINUOUS
 10
150.9541373099
 20
89.6848110289
 11
151.0026531307
 21
89.5327904136
  0
LINE
  5
26A
100
AcDbEntity
  8
0
100
AcDbLine
 62
7
  6
CONTINUOUS
 10
151.3165318517
 20
89.5771269942
 11
151.2518441057
 21
89.7798211006
  0
LINE
  5
26B
100
AcDbEntity
  8
0
100
AcDbLine
 62
7
  6
CONTINUOUS
 10
158.6587889315
 20
94.6811844367
 11
158.7758193025
 21
94.4960197827
  0
LINE
  5
26C
100
AcDbEntity
  8
0
100
AcDbLine
 62
7
  6
CONTINUOUS
 10
159.0310007714
 20
94.6840836486
 11
158.9522649028
 21
94.8323315165
  0
LINE
  5
26D
100
AcDbEntity
  8
RUNDUNGEN
100
AcDbLine
 62
7
  6
CONTINUOUS
 10
139.1506008353
 20
139.4857744287
 11
137.4746736639
 21
145.7404197821
  0
LINE
  5
26E
100
AcDbEntity
  8
0
100
AcDbLine
 62
7
  6
CONTINUOUS
 10
144.696155793
 20
162.058095989
 11
144.696155793
 21
161.0815448332
  0
LINE
  5
26F
100
AcDbEntity
  8
RUNDUNGEN
100
AcDbLine
 62
7
  6
CONTINUOUS
 10
144.696155793
 20
151.308095989
 11
144.696155793
 21
161.0815448332
  0
LINE
  5
270
100
AcDbEntity
  8
RUNDUNGEN
100
AcDbLine
 62
7
  6
CONTINUOUS
 10
152.021711332
 20
118.59294111
 11
146.3884704183
 21
125.3063762068
  0
LINE
  5
271
100
AcDbEntity
  8
0
100
AcDbLine
 62
7
  6
CONTINUOUS
 10
156.3230557955
 20
90.8448609423
 11
156.2323631227
 21
91.100244651
  0
LINE
  5
272
100
AcDbEntity
  8
RUNDUNGEN
100
AcDbLine
 62
7
  6
CONTINUOUS
 10
139.1506008353
 20
139.4857744287
 11
139.4002387117
 21
138.7489717457
  0
LINE
  5
273
100
AcDbEntity
  8
0
100
AcDbLine
 62
7
  6
CONTINUOUS
 10
155.9634681492
 20
90.9410223433
 11
156.0270591559
 21
90.7314079864
  0
LINE
  5
274
100
AcDbEntity
  8
0
100
AcDbLine
 62
7
  6
CONTINUOUS
 10
153.9592946313
 20
89.5011769386
 11
153.898264687
 21
89.7652249957
  0
LINE
  5
275
100
AcDbEntity
  8
0
100
AcDbLine
 62
7
  6
CONTINUOUS
 10
153.6129919108
 20
89.6376487707
 11
153.6523067556
 21
89.422157776
  0
LINE
  5
276
100
AcDbEntity
  8
KONSTRUKTIONSELEMENTE
100
AcDbLine
 62
7
  6
CONTINUOUS
 10
124.9448219863
 20
129.8658154944
 11
128.41932782
 21
129.6837243595
  0
LINE
  5
277
100
AcDbEntity
  8
RUNDUNGEN
100
AcDbLine
 62
7
  6
CONTINUOUS
 10
150.1424711473
 20
125.5116182464
 11
140.3498891343
 21
137.1819630412
  0
LINE
  5
278
100
AcDbEntity
  8
0
100
AcDbLine
 62
7
  6
CONTINUOUS
 10
161.0430930668
 20
94.6253282913
 11
160.9622099093
 21
94.8479892088
  0
LINE
  5
279
100
AcDbEntity
  8
0
100
AcDbLine
 62
7
  6
CONTINUOUS
 10
156.3418306503
 20
90.6087092995
 11
156.3230557955
 21
90.8448609423
  0
LINE
  5
27A
100
AcDbEntity
  8
0
100
AcDbLine
 62
7
  6
CONTINUOUS
 10
151.946155793
 20
160.0578076301
 11
151.946155793
 21
159.4366543444
  0
LINE
  5
27B
100
AcDbEntity
  8
RUNDUNGEN
100
AcDbLine
 62
7
  6
CONTINUOUS
 10
151.946155793
 20
159.4366543444
 11
151.946155793
 21
145.0937235751
  0
LINE
  5
27C
100
AcDbEntity
  8
0
100
AcDbLine
 62
7
  6
CONTINUOUS
 10
151.0026531307
 20
89.5327904136
 11
151.0015511542
 21
89.3649349434
  0
LINE
  5
27D
100
AcDbEntity
  8
0
100
AcDbLine
 62
7
  6
CONTINUOUS
 10
151.3154298752
 20
89.409271524
 11
151.3165318517
 21
89.5771269942
  0
LINE
  5
27E
100
AcDbEntity
  8
0
100
AcDbLine
 62
7
  6
CONTINUOUS
 10
163.1086722217
 20
101.8076346754
 11
163.921256215
 21
100.0857775181
  0
LINE
  5
27F
100
AcDbEntity
  8
0
100
AcDbLine
 62
7
  6
CONTINUOUS
 10
164.0678053813
 20
100.4196107677
 11
163.4983129902
 21
101.6365866151
  0
LINE
  5
280
100
AcDbEntity
  8
0
100
AcDbLine
 62
7
  6
CONTINUOUS
 10
160.7070285478
 20
94.6599252395
 11
160.7496170687
 21
94.4741812373
  0
LINE
  5
281
100
AcDbEntity
  8
0
100
AcDbLine
 62
7
  6
CONTINUOUS
 10
153.95106421
 20
89.2644232868
 11
153.9592946313
 21
89.5011769386
  0
LINE
  5
282
100
AcDbEntity
  8
RUNDUNGEN
100
AcDbLine
 62
7
  6
CONTINUOUS
 10
139.0887992673
 20
135.2139733712
 11
133.0598077281
 21
136.8294367853
  0
LINE
  5
283
100
AcDbEntity
  8
0
100
AcDbLine
 62
7
  6
CONTINUOUS
 10
158.6502019363
 20
94.9788395202
 11
158.6587889315
 21
94.6811844367
  0
LINE
  5
284
100
AcDbEntity
  8
0
100
AcDbLine
 62
7
  6
CONTINUOUS
 10
161.0516800754
 20
94.3276731949
 11
161.0430930668
 21
94.6253282913
  0
LINE
  5
285
100
AcDbEntity
  8
0
100
AcDbLine
 62
7
  6
CONTINUOUS
 10
156.0270591559
 20
90.7314079864
 11
156.0187323256
 21
90.5410257274
  0
LINE
  5
286
100
AcDbEntity
  8
0
100
AcDbLine
 62
7
  6
CONTINUOUS
 10
153.6523067556
 20
89.422157776
 11
153.6223612195
 21
89.2339612208
  0
LINE
  5
287
100
AcDbEntity
  8
0
100
AcDbLine
 62
7
  6
CONTINUOUS
 10
158.9522649028
 20
94.8323315165
 11
158.9841190593
 21
95.018655725
  0
LINE
  5
288
100
AcDbEntity
  8
0
100
AcDbLine
 62
7
  6
CONTINUOUS
 10
151.231264178
 20
89.1590725236
 11
151.3154298752
 21
89.409271524
  0
LINE
  5
289
100
AcDbEntity
  8
RUNDUNGEN
100
AcDbLine
 62
7
  6
CONTINUOUS
 10
152.6520344079
 20
137.9451097534
 11
162.711501191
 21
128.727306746
  0
LINE
  5
28A
100
AcDbEntity
  8
0
100
AcDbLine
 62
7
  6
CONTINUOUS
 10
160.7496170687
 20
94.4741812373
 11
160.717762939
 21
94.287857003
  0
LINE
  5
28B
100
AcDbEntity
  8
0
100
AcDbLine
 62
7
  6
CONTINUOUS
 10
156.2709741797
 20
90.3194837727
 11
156.3418306503
 21
90.6087092995
  0
LINE
  5
28C
100
AcDbEntity
  8
0
100
AcDbLine
 62
7
  6
CONTINUOUS
 10
158.7182033332
 20
95.2026599663
 11
158.6502019363
 21
94.9788395202
  0
LINE
  5
28D
100
AcDbEntity
  8
0
100
AcDbLine
 62
7
  6
CONTINUOUS
 10
153.8477426743
 20
88.9851441626
 11
153.95106421
 21
89.2644232868
  0
LINE
  5
28E
100
AcDbEntity
  8
0
100
AcDbLine
 62
7
  6
CONTINUOUS
 10
151.0015511542
 20
89.3649349434
 11
150.9346593587
 21
89.2319179221
  0
LINE
  5
28F
100
AcDbEntity
  8
0
100
AcDbLine
 62
7
  6
CONTINUOUS
 10
160.9836778612
 20
94.1038518808
 11
161.0516800754
 21
94.3276731949
  0
LINE
  5
290
100
AcDbEntity
  8
0
100
AcDbLine
 62
7
  6
CONTINUOUS
 10
156.0187323256
 20
90.5410257274
 11
155.9384881901
 21
90.3698758381
  0
LINE
  5
291
100
AcDbEntity
  8
0
100
AcDbLine
 62
7
  6
CONTINUOUS
 10
158.9841190593
 20
95.018655725
 11
159.0542678255
 21
95.168063044
  0
LINE
  5
292
100
AcDbEntity
  8
0
100
AcDbLine
 62
7
  6
CONTINUOUS
 10
153.6223612195
 20
89.2339612208
 11
153.5231550457
 21
89.0730589493
  0
LINE
  5
293
100
AcDbEntity
  8
KONSTRUKTIONSELEMENTE
100
AcDbLine
 62
7
  6
CONTINUOUS
 10
125.8229237977
 20
146.6209961822
 11
123.8256647282
 21
146.7256680947
  0
LINE
  5
294
100
AcDbEntity
  8
0
100
AcDbLine
 62
7
  6
CONTINUOUS
 10
163.2342856559
 20
102.0937771489
 11
163.1086722217
 21
101.8076346754
  0
LINE
  5
295
100
AcDbEntity
  8
0
100
AcDbLine
 62
7
  6
CONTINUOUS
 10
164.7586792696
 20
101.9933943719
 11
164.5493233862
 21
101.5164898856
  0
LINE
  5
296
100
AcDbEntity
  8
0
100
AcDbLine
 62
7
  6
CONTINUOUS
 10
164.4237099519
 20
101.2303474121
 11
164.0678053813
 21
100.4196107677
  0
LINE
  5
297
100
AcDbEntity
  8
0
100
AcDbLine
 62
7
  6
CONTINUOUS
 10
164.2134868596
 20
99.957491443
 11
164.7159405965
 21
101.102061337
  0
LINE
  5
298
100
AcDbEntity
  8
0
100
AcDbLine
 62
7
  6
CONTINUOUS
 10
164.8415540308
 20
101.3882038105
 11
165.0509099142
 21
101.8651082968
  0
LINE
  5
299
100
AcDbEntity
  8
0
100
AcDbLine
 62
7
  6
CONTINUOUS
 10
165.3978120097
 20
100.8027272015
 11
165.5234254439
 21
101.088869675
  0
LINE
  5
29A
100
AcDbEntity
  8
0
100
AcDbLine
 62
7
  6
CONTINUOUS
 10
158.8245001672
 20
95.3895643812
 11
158.7182033332
 21
95.2026599663
  0
LINE
  5
29B
100
AcDbEntity
  8
0
100
AcDbLine
 62
7
  6
CONTINUOUS
 10
160.717762939
 20
94.287857003
 11
160.611466105
 21
94.1009525881
  0
LINE
  5
29C
100
AcDbEntity
  8
0
100
AcDbLine
 62
7
  6
CONTINUOUS
 10
156.1459143745
 20
90.1217969534
 11
156.2709741797
 21
90.3194837727
  0
LINE
  5
29D
100
AcDbEntity
  8
0
100
AcDbLine
 62
7
  6
CONTINUOUS
 10
161.1234440491
 20
98.1480098622
 11
160.9338870152
 21
97.8995659432
  0
LINE
  5
29E
100
AcDbEntity
  8
0
100
AcDbLine
 62
7
  6
CONTINUOUS
 10
160.0492872824
 20
96.740160672
 11
159.8597302485
 21
96.491716753
  0
LINE
  5
29F
100
AcDbEntity
  8
0
100
AcDbLine
 62
7
  6
CONTINUOUS
 10
153.7009909376
 20
88.8029791676
 11
153.8477426743
 21
88.9851441626
  0
LINE
  5
2A0
100
AcDbEntity
  8
0
100
AcDbLine
 62
7
  6
CONTINUOUS
 10
151.0651368785
 20
88.9943855087
 11
151.231264178
 21
89.1590725236
  0
LINE
  5
2A1
100
AcDbEntity
  8
0
100
AcDbLine
 62
7
  6
CONTINUOUS
 10
160.8412337901
 20
93.879451225
 11
160.9836778612
 21
94.1038518808
  0
LINE
  5
2A2
100
AcDbEntity
  8
0
100
AcDbLine
 62
7
  6
CONTINUOUS
 10
161.737365244
 20
97.2865304118
 11
160.8527655112
 21
96.1271251407
  0
LINE
  5
2A3
100
AcDbEntity
  8
0
100
AcDbLine
 62
7
  6
CONTINUOUS
 10
161.1064954407
 20
95.9335350014
 11
161.9910951735
 21
97.0929402726
  0
LINE
  5
2A4
100
AcDbEntity
  8
0
100
AcDbLine
 62
7
  6
CONTINUOUS
 10
161.8472816003
 20
94.9752604815
 11
162.0368386343
 21
95.2237044004
  0
LINE
  5
2A5
100
AcDbEntity
  8
0
100
AcDbLine
 62
7
  6
CONTINUOUS
 10
162.9214383671
 20
96.3831096716
 11
163.110995401
 21
96.6315535906
  0
LINE
  5
2A6
100
AcDbEntity
  8
0
100
AcDbLine
 62
7
  6
CONTINUOUS
 10
159.0052388514
 20
95.5770481442
 11
158.8245001672
 21
95.3895643812
  0
LINE
  5
2A7
100
AcDbEntity
  8
0
100
AcDbLine
 62
7
  6
CONTINUOUS
 10
159.0542678255
 20
95.168063044
 11
159.2711545774
 21
95.3930439029
  0
LINE
  5
2A8
100
AcDbEntity
  8
0
100
AcDbLine
 62
7
  6
CONTINUOUS
 10
159.6795143778
 20
95.4334403141
 11
159.8964011297
 21
95.6584211729
  0
LINE
  5
2A9
100
AcDbEntity
  8
0
100
AcDbLine
 62
7
  6
CONTINUOUS
 10
159.8072792206
 20
94.8762073459
 11
159.5903924687
 21
94.6512264871
  0
LINE
  5
2AA
100
AcDbEntity
  8
0
100
AcDbLine
 62
7
  6
CONTINUOUS
 10
159.820160127
 20
94.4297251498
 11
160.0370468789
 21
94.6547060087
  0
LINE
  5
2AB
100
AcDbEntity
  8
0
100
AcDbLine
 62
7
  6
CONTINUOUS
 10
159.7650388628
 20
93.7594215976
 11
159.5481521109
 21
93.5344407388
  0
LINE
  5
2AC
100
AcDbEntity
  8
0
100
AcDbLine
 62
7
  6
CONTINUOUS
 10
160.611466105
 20
94.1009525881
 11
160.322284045
 21
93.8009783957
  0
LINE
  5
2AD
100
AcDbEntity
  8
0
100
AcDbLine
 62
7
  6
CONTINUOUS
 10
160.5520517301
 20
93.5794770326
 11
160.8412337901
 21
93.879451225
  0
LINE
  5
2AE
100
AcDbEntity
  8
0
100
AcDbLine
 62
7
  6
CONTINUOUS
 10
155.9384881901
 20
90.3698758381
 11
155.7863267116
 21
90.2179583825
  0
LINE
  5
2AF
100
AcDbEntity
  8
0
100
AcDbLine
 62
7
  6
CONTINUOUS
 10
157.9253894359
 20
94.5213920037
 11
157.692636961
 21
94.3128673399
  0
LINE
  5
2B0
100
AcDbEntity
  8
0
100
AcDbLine
 62
7
  6
CONTINUOUS
 10
150.9346593587
 20
89.2319179221
 11
150.8019778859
 21
89.1337393951
  0
LINE
  5
2B1
100
AcDbEntity
  8
0
100
AcDbLine
 62
7
  6
CONTINUOUS
 10
159.2242729725
 20
95.7276158759
 11
159.0052388514
 21
95.5770481442
  0
LINE
  5
2B2
100
AcDbEntity
  8
0
100
AcDbLine
 62
7
  6
CONTINUOUS
 10
160.0263125144
 20
95.0267742194
 11
159.8072792206
 21
94.8762073459
  0
LINE
  5
2B3
100
AcDbEntity
  8
0
100
AcDbLine
 62
7
  6
CONTINUOUS
 10
154.6751582665
 20
92.0945020278
 11
153.5995783726
 21
91.4576127973
  0
LINE
  5
2B4
100
AcDbEntity
  8
0
100
AcDbLine
 62
7
  6
CONTINUOUS
 10
154.031083343
 20
91.3422189945
 11
154.8377682634
 21
91.8198859174
  0
LINE
  5
2B5
100
AcDbEntity
  8
0
100
AcDbLine
 62
7
  6
CONTINUOUS
 10
159.2711545774
 20
95.3930439029
 11
159.417892563
 21
95.4686174428
  0
LINE
  5
2B6
100
AcDbEntity
  8
0
100
AcDbLine
 62
7
  6
CONTINUOUS
 10
159.5903924687
 20
94.6512264871
 11
159.4436544831
 21
94.5756529472
  0
LINE
  5
2B7
100
AcDbEntity
  8
0
100
AcDbLine
 62
7
  6
CONTINUOUS
 10
160.2474931776
 20
95.1029279656
 11
160.0263125144
 21
95.0267742194
  0
LINE
  5
2B8
100
AcDbEntity
  8
0
100
AcDbLine
 62
7
  6
CONTINUOUS
 10
159.4160942378
 20
94.240501626
 11
159.6372740736
 21
94.3166545141
  0
LINE
  5
2B9
100
AcDbEntity
  8
KONSTRUKTIONSELEMENTE
100
AcDbLine
 62
7
  6
CONTINUOUS
 10
140.196155793
 20
153.058095989
 11
144.696155793
 21
153.058095989
  0
LINE
  5
2BA
100
AcDbEntity
  8
0
100
AcDbLine
 62
7
  6
CONTINUOUS
 10
155.9489367275
 20
89.9433422401
 11
156.1459143745
 21
90.1217969534
  0
LINE
  5
2BB
100
AcDbEntity
  8
0
100
AcDbLine
 62
7
  6
CONTINUOUS
 10
159.3608342711
 20
92.4508475402
 11
159.5935867461
 21
92.659372204
  0
LINE
  5
2BC
100
AcDbEntity
  8
0
100
AcDbLine
 62
7
  6
CONTINUOUS
 10
153.5231550457
 20
89.0730589493
 11
153.3546882038
 21
88.9394510296
  0
LINE
  5
2BD
100
AcDbEntity
  8
0
100
AcDbLine
 62
7
  6
CONTINUOUS
 10
153.4849788163
 20
88.6481086206
 11
153.7009909376
 21
88.8029791676
  0
LINE
  5
2BE
100
AcDbEntity
  8
0
100
AcDbLine
 62
7
  6
CONTINUOUS
 10
160.3330176055
 20
93.4289093042
 11
160.5520517301
 21
93.5794770326
  0
LINE
  5
2BF
100
AcDbEntity
  8
0
100
AcDbLine
 62
7
  6
CONTINUOUS
 10
160.0370468789
 20
94.6547060087
 11
160.2199329323
 21
94.7677766445
  0
LINE
  5
2C0
100
AcDbEntity
  8
0
100
AcDbLine
 62
7
  6
CONTINUOUS
 10
159.6372740736
 20
94.3166545141
 11
159.820160127
 21
94.4297251498
  0
LINE
  5
2C1
100
AcDbEntity
  8
0
100
AcDbLine
 62
7
  6
CONTINUOUS
 10
160.322284045
 20
93.8009783957
 11
160.1393979916
 21
93.6879077599
  0
LINE
  5
2C2
100
AcDbEntity
  8
0
100
AcDbLine
 62
7
  6
CONTINUOUS
 10
155.7863267116
 20
90.2179583825
 11
154.9796417912
 21
89.7402914596
  0
LINE
  5
2C3
100
AcDbEntity
  8
0
100
AcDbLine
 62
7
  6
CONTINUOUS
 10
154.8733568336
 20
89.3064530096
 11
155.9489367275
 21
89.9433422401
  0
LINE
  5
2C4
100
AcDbEntity
  8
0
100
AcDbLine
 62
7
  6
CONTINUOUS
 10
153.22509651
 20
91.2704941371
 11
152.9398237338
 21
91.1429179121
  0
LINE
  5
2C5
100
AcDbEntity
  8
0
100
AcDbLine
 62
7
  6
CONTINUOUS
 10
151.7987326292
 20
90.632613012
 11
151.513459717
 21
90.5050367262
  0
LINE
  5
2C6
100
AcDbEntity
  8
0
100
AcDbLine
 62
7
  6
CONTINUOUS
 10
153.3546882038
 20
88.9394510296
 11
153.1645062624
 21
88.8544001723
  0
LINE
  5
2C7
100
AcDbEntity
  8
0
100
AcDbLine
 62
7
  6
CONTINUOUS
 10
153.2947968748
 20
88.5630577634
 11
153.4849788163
 21
88.6481086206
  0
LINE
  5
2C8
100
AcDbEntity
  8
0
100
AcDbLine
 62
7
  6
CONTINUOUS
 10
154.9263392481
 20
92.1814180337
 11
154.6751582665
 21
92.0945020278
  0
LINE
  5
2C9
100
AcDbEntity
  8
0
100
AcDbLine
 62
7
  6
CONTINUOUS
 10
150.4289215852
 20
90.1313743626
 11
149.2380944019
 21
89.7513340758
  0
LINE
  5
2CA
100
AcDbEntity
  8
0
100
AcDbLine
 62
7
  6
CONTINUOUS
 10
149.6166608236
 20
89.5929766919
 11
150.559398963
 21
89.8938419039
  0
LINE
  5
2CB
100
AcDbEntity
  8
0
100
AcDbLine
 62
7
  6
CONTINUOUS
 10
150.8019778859
 20
89.1337393951
 11
149.8592397465
 21
88.8328741831
  0
LINE
  5
2CC
100
AcDbEntity
  8
0
100
AcDbLine
 62
7
  6
CONTINUOUS
 10
149.9562712975
 20
88.5288332364
 11
150.799773862
 21
88.7980284321
  0
LINE
  5
2CD
100
AcDbEntity
  8
0
100
AcDbLine
 62
7
  6
CONTINUOUS
 10
154.8377682634
 20
91.8198859174
 11
155.0441330742
 21
91.8802646695
  0
LINE
  5
2CE
100
AcDbEntity
  8
0
100
AcDbLine
 62
7
  6
CONTINUOUS
 10
149.9981749757
 20
87.3696797093
 11
150.2958817715
 21
87.464689781
  0
LINE
  5
2CF
100
AcDbEntity
  8
0
100
AcDbLine
 62
7
  6
CONTINUOUS
 10
151.5363267067
 20
87.8605650647
 11
151.8836513965
 21
87.9714101786
  0
LINE
  5
2D0
100
AcDbEntity
  8
KONSTRUKTIONSELEMENTE
100
AcDbLine
 62
7
  6
CONTINUOUS
 10
144.696155793
 20
158.658095989
 11
140.196155793
 21
158.658095989
  0
LINE
  5
2D1
100
AcDbEntity
  8
KONSTRUKTIONSELEMENTE
100
AcDbLine
 62
7
  6
CONTINUOUS
 10
132.146155793
 20
162.058095989
 11
140.196155793
 21
162.058095989
  0
LINE
  5
2D2
100
AcDbEntity
  8
KONSTRUKTIONSELEMENTE
100
AcDbLine
 62
7
  6
CONTINUOUS
 10
144.696155793
 20
162.058095989
 11
149.946155793
 21
162.058095989
  0
LINE
  5
2D3
100
AcDbEntity
  8
KONSTRUKTIONSELEMENTE
100
AcDbLine
 62
7
  6
CONTINUOUS
 10
227.8218579356
 20
83.558095989
 11
230.2218579356
 21
83.558095989
  0
LINE
  5
2D4
100
AcDbEntity
  8
0
100
AcDbLine
 62
7
  6
CONTINUOUS
 10
233.2218579356
 20
87.3696797093
 11
233.7218579356
 21
87.3696797093
  0
LINE
  5
2D5
100
AcDbEntity
  8
0
100
AcDbLine
 62
7
  6
CONTINUOUS
 10
225.8932143702
 20
161.0815448326
 11
222.3841693667
 21
158.6545137229
  0
LINE
  5
2D6
100
AcDbEntity
  8
0
100
AcDbLine
 62
7
  6
CONTINUOUS
 10
233.4306061004
 20
89.7513340758
 11
233.7218579356
 21
89.7513340758
  0
LINE
  5
2D7
100
AcDbEntity
  8
0
100
AcDbLine
 62
7
  6
CONTINUOUS
 10
220.289807128
 20
151.9241213927
 11
221.2539087432
 21
153.5939943738
  0
LINE
  5
2D8
100
AcDbEntity
  8
KONSTRUKTIONSELEMENTE
100
AcDbLine
 62
7
  6
CONTINUOUS
 10
233.9434308108
 20
145.5275648386
 11
235.1431782792
 21
146.7256680947
  0
LINE
  5
2D9
100
AcDbEntity
  8
0
100
AcDbLine
 62
7
  6
CONTINUOUS
 10
220.0218579356
 20
139.3214009841
 11
220.0218579356
 21
150.9241361513
  0
LINE
  5
2DA
100
AcDbEntity
  8
KONSTRUKTIONSELEMENTE
100
AcDbLine
 62
7
  6
CONTINUOUS
 10
220.1218579356
 20
141.5588087324
 11
220.1218579356
 21
146.5573832455
  0
LINE
  5
2DB
100
AcDbEntity
  8
KONSTRUKTIONSELEMENTE
100
AcDbLine
 62
7
  6
CONTINUOUS
 10
220.5218579356
 20
129.6837243595
 11
220.5218579356
 21
149.5578880638
  0
LINE
  5
2DC
100
AcDbEntity
  8
0
100
AcDbLine
 62
7
  6
CONTINUOUS
 10
221.5218579356
 20
154.5939943738
 11
221.5218579356
 21
157.0096232341
  0
LINE
  5
2DD
100
AcDbEntity
  8
0
100
AcDbLine
 62
7
  6
CONTINUOUS
 10
222.5218579356
 20
92.0581801623
 11
222.5218579356
 21
120.6046484288
  0
LINE
  5
2DE
100
AcDbEntity
  8
KONSTRUKTIONSELEMENTE
100
AcDbLine
 62
7
  6
CONTINUOUS
 10
222.5218579356
 20
146.7256680947
 11
222.5218579356
 21
149.5578495142
  0
LINE
  5
2DF
100
AcDbEntity
  8
KONSTRUKTIONSELEMENTE
100
AcDbLine
 62
7
  6
CONTINUOUS
 10
220.6390857073
 20
129.164753206
 11
220.5218579356
 21
129.6837243595
  0
LINE
  5
2E0
100
AcDbEntity
  8
KONSTRUKTIONSELEMENTE
100
AcDbLine
 62
7
  6
CONTINUOUS
 10
221.1859607073
 20
126.7032378121
 11
223.2623471052
 21
117.2241942349
  0
LINE
  5
2E1
100
AcDbEntity
  8
0
100
AcDbLine
 62
7
  6
CONTINUOUS
 10
224.8218579356
 20
86.5581132537
 11
224.8218579356
 21
96.9380959302
  0
LINE
  5
2E2
100
AcDbEntity
  8
0
100
AcDbLine
 62
7
  6
CONTINUOUS
 10
224.8218579356
 20
144.5259602194
 11
224.8218579356
 21
150.3105810889
  0
LINE
  5
2E3
100
AcDbEntity
  8
KONSTRUKTIONSELEMENTE
100
AcDbLine
 62
7
  6
CONTINUOUS
 10
225.0218579356
 20
117.9491868567
 11
233.0218579356
 21
117.9491868567
  0
LINE
  5
2E4
100
AcDbEntity
  8
KONSTRUKTIONSELEMENTE
100
AcDbLine
 62
7
  6
CONTINUOUS
 10
231.0218579356
 20
118.8808906121
 11
227.0218579356
 21
118.8808906121
  0
LINE
  5
2E5
100
AcDbEntity
  8
KONSTRUKTIONSELEMENTE
100
AcDbLine
 62
7
  6
CONTINUOUS
 10
231.0218579356
 20
118.9855625245
 11
227.0218579356
 21
118.9855625245
  0
LINE
  5
2E6
100
AcDbEntity
  8
0
100
AcDbLine
 62
7
  6
CONTINUOUS
 10
220.5218579356
 20
137.1920705852
 11
220.0900148079
 21
138.8037310787
  0
LINE
  5
2E7
100
AcDbEntity
  8
KONSTRUKTIONSELEMENTE
100
AcDbLine
 62
7
  6
CONTINUOUS
 10
227.0218579356
 20
117.9491868567
 11
227.0218579356
 21
118.9855625245
  0
LINE
  5
2E8
100
AcDbEntity
  8
KONSTRUKTIONSELEMENTE
100
AcDbLine
 62
7
  6
CONTINUOUS
 10
231.0218579356
 20
117.9491868567
 11
231.0218579356
 21
118.9855625245
  0
LINE
  5
2E9
100
AcDbEntity
  8
RUNDUNGEN
100
AcDbLine
 62
7
  6
CONTINUOUS
 10
233.2218579356
 20
86.5581132537
 11
233.2218579356
 21
96.9380959302
  0
LINE
  5
2EA
100
AcDbEntity
  8
RUNDUNGEN
100
AcDbLine
 62
7
  6
CONTINUOUS
 10
233.2218579356
 20
144.5259602194
 11
233.2218579356
 21
150.3105810889
  0
LINE
  5
2EB
100
AcDbEntity
  8
0
100
AcDbLine
 62
7
  6
CONTINUOUS
 10
233.7218579356
 20
90.0055269338
 11
233.7218579356
 21
87.3696797093
  0
LINE
  5
2EC
100
AcDbEntity
  8
RUNDUNGEN
100
AcDbLine
 62
7
  6
CONTINUOUS
 10
237.5218579356
 20
137.1920705852
 11
237.9537095882
 21
138.8037628939
  0
LINE
  5
2ED
100
AcDbEntity
  8
RUNDUNGEN
100
AcDbLine
 62
7
  6
CONTINUOUS
 10
235.5218579356
 20
92.0581801623
 11
235.5218579356
 21
120.6046484288
  0
LINE
  5
2EE
100
AcDbEntity
  8
KONSTRUKTIONSELEMENTE
100
AcDbLine
 62
7
  6
CONTINUOUS
 10
235.5218579356
 20
146.7256680947
 11
235.5218579356
 21
149.5578495142
  0
LINE
  5
2EF
100
AcDbEntity
  8
RUNDUNGEN
100
AcDbLine
 62
7
  6
CONTINUOUS
 10
236.5218579356
 20
154.5939943738
 11
236.5218579356
 21
157.0096232341
  0
LINE
  5
2F0
100
AcDbEntity
  8
KONSTRUKTIONSELEMENTE
100
AcDbLine
 62
7
  6
CONTINUOUS
 10
236.8577551639
 20
126.7032378121
 11
234.781368766
 21
117.2241942349
  0
LINE
  5
2F1
100
AcDbEntity
  8
KONSTRUKTIONSELEMENTE
100
AcDbLine
 62
7
  6
CONTINUOUS
 10
237.4046301639
 20
129.164753206
 11
237.5218579356
 21
129.6837243595
  0
LINE
  5
2F2
100
AcDbEntity
  8
KONSTRUKTIONSELEMENTE
100
AcDbLine
 62
7
  6
CONTINUOUS
 10
237.5218579356
 20
129.6837243595
 11
237.5218579356
 21
149.5578880638
  0
LINE
  5
2F3
100
AcDbEntity
  8
KONSTRUKTIONSELEMENTE
100
AcDbLine
 62
7
  6
CONTINUOUS
 10
237.9218579356
 20
141.5588087324
 11
237.9218579356
 21
146.5573832455
  0
LINE
  5
2F4
100
AcDbEntity
  8
RUNDUNGEN
100
AcDbLine
 62
7
  6
CONTINUOUS
 10
238.0218579356
 20
139.3214009841
 11
238.0218579356
 21
150.9241361513
  0
LINE
  5
2F5
100
AcDbEntity
  8
KONSTRUKTIONSELEMENTE
100
AcDbLine
 62
7
  6
CONTINUOUS
 10
222.900537592
 20
146.7256680947
 11
224.1002850603
 21
145.5275648386
  0
LINE
  5
2F6
100
AcDbEntity
  8
KONSTRUKTIONSELEMENTE
100
AcDbLine
 62
7
  6
CONTINUOUS
 10
237.9218579356
 20
141.558095989
 11
237.5218579356
 21
141.558095989
  0
LINE
  5
2F7
100
AcDbEntity
  8
KONSTRUKTIONSELEMENTE
100
AcDbLine
 62
7
  6
CONTINUOUS
 10
220.5218579356
 20
141.558095989
 11
220.1218579356
 21
141.558095989
  0
LINE
  5
2F8
100
AcDbEntity
  8
KONSTRUKTIONSELEMENTE
100
AcDbLine
 62
7
  6
CONTINUOUS
 10
234.5748272681
 20
146.158095989
 11
233.2218579356
 21
146.158095989
  0
LINE
  5
2F9
100
AcDbEntity
  8
KONSTRUKTIONSELEMENTE
100
AcDbLine
 62
7
  6
CONTINUOUS
 10
224.8218579356
 20
146.158095989
 11
223.4688886031
 21
146.158095989
  0
LINE
  5
2FA
100
AcDbEntity
  8
KONSTRUKTIONSELEMENTE
100
AcDbLine
 62
7
  6
CONTINUOUS
 10
237.9218579356
 20
146.558095989
 11
237.5218579356
 21
146.558095989
  0
LINE
  5
2FB
100
AcDbEntity
  8
KONSTRUKTIONSELEMENTE
100
AcDbLine
 62
7
  6
CONTINUOUS
 10
220.5218579356
 20
146.558095989
 11
220.1218579356
 21
146.558095989
  0
LINE
  5
2FC
100
AcDbEntity
  8
KONSTRUKTIONSELEMENTE
100
AcDbLine
 62
7
  6
CONTINUOUS
 10
222.5218579356
 20
146.7256680947
 11
222.900537592
 21
146.7256680947
  0
LINE
  5
2FD
100
AcDbEntity
  8
KONSTRUKTIONSELEMENTE
100
AcDbLine
 62
7
  6
CONTINUOUS
 10
235.1431782792
 20
146.7256680947
 11
235.5218579356
 21
146.7256680947
  0
LINE
  5
2FE
100
AcDbEntity
  8
RUNDUNGEN
100
AcDbLine
 62
7
  6
CONTINUOUS
 10
237.7539087432
 20
151.9241213927
 11
236.789807128
 21
153.5939943738
  0
LINE
  5
2FF
100
AcDbEntity
  8
KONSTRUKTIONSELEMENTE
100
AcDbLine
 62
7
  6
CONTINUOUS
 10
220.5218579356
 20
149.558095989
 11
222.5218579356
 21
149.558095989
  0
LINE
  5
300
100
AcDbEntity
  8
KONSTRUKTIONSELEMENTE
100
AcDbLine
 62
7
  6
CONTINUOUS
 10
235.5218579356
 20
149.558095989
 11
237.5218579356
 21
149.558095989
  0
LINE
  5
301
100
AcDbEntity
  8
RUNDUNGEN
100
AcDbLine
 62
7
  6
CONTINUOUS
 10
235.6595465045
 20
158.6545137229
 11
232.1505015009
 21
161.0815448326
  0
LINE
  5
302
100
AcDbEntity
  8
KONSTRUKTIONSELEMENTE
100
AcDbLine
 62
7
  6
CONTINUOUS
 10
56.9518401685
 20
83.558095989
 11
54.5518401685
 21
83.558095989
  0
LINE
  5
303
100
AcDbEntity
  8
0
100
AcDbLine
 62
7
  6
CONTINUOUS
 10
51.5518401685
 20
87.3696797093
 11
51.0518401685
 21
87.3696797093
  0
LINE
  5
304
100
AcDbEntity
  8
0
100
AcDbLine
 62
7
  6
CONTINUOUS
 10
51.5518401685
 20
87.464689781
 11
51.0518401685
 21
87.464689781
  0
LINE
  5
305
100
AcDbEntity
  8
0
100
AcDbLine
 62
7
  6
CONTINUOUS
 10
51.5518401685
 20
87.8605650647
 11
51.0518401685
 21
87.8605650647
  0
LINE
  5
306
100
AcDbEntity
  8
0
100
AcDbLine
 62
7
  6
CONTINUOUS
 10
51.5518401685
 20
87.9714101786
 11
51.0518401685
 21
87.9714101786
  0
LINE
  5
307
100
AcDbEntity
  8
RUNDUNGEN
100
AcDbLine
 62
7
  6
CONTINUOUS
 10
52.623196604
 20
161.0815448332
 11
49.1141515996
 21
158.6545137229
  0
LINE
  5
308
100
AcDbEntity
  8
0
100
AcDbLine
 62
7
  6
CONTINUOUS
 10
51.5518401685
 20
88.5053013498
 11
51.0518401685
 21
88.5053013498
  0
LINE
  5
309
100
AcDbEntity
  8
0
100
AcDbLine
 62
7
  6
CONTINUOUS
 10
51.5518401685
 20
88.5630577634
 11
51.0518401685
 21
88.5630577634
  0
LINE
  5
30A
100
AcDbEntity
  8
0
100
AcDbLine
 62
7
  6
CONTINUOUS
 10
51.5518401685
 20
88.6481086206
 11
51.0518401685
 21
88.6481086206
  0
LINE
  5
30B
100
AcDbEntity
  8
0
100
AcDbLine
 62
7
  6
CONTINUOUS
 10
51.5518401685
 20
88.8029791676
 11
51.0518401685
 21
88.8029791676
  0
LINE
  5
30C
100
AcDbEntity
  8
0
100
AcDbLine
 62
7
  6
CONTINUOUS
 10
51.5518401685
 20
88.9851441626
 11
51.0518401685
 21
88.9851441626
  0
LINE
  5
30D
100
AcDbEntity
  8
0
100
AcDbLine
 62
7
  6
CONTINUOUS
 10
51.5518401685
 20
89.2644232868
 11
51.0518401685
 21
89.2644232868
  0
LINE
  5
30E
100
AcDbEntity
  8
0
100
AcDbLine
 62
7
  6
CONTINUOUS
 10
51.5518401685
 20
89.3064530096
 11
51.0518401685
 21
89.3064530096
  0
LINE
  5
30F
100
AcDbEntity
  8
0
100
AcDbLine
 62
7
  6
CONTINUOUS
 10
51.5518401685
 20
89.9433422401
 11
51.0518401685
 21
89.9433422401
  0
LINE
  5
310
100
AcDbEntity
  8
0
100
AcDbLine
 62
7
  6
CONTINUOUS
 10
51.5518401685
 20
90.1217969534
 11
51.0518401685
 21
90.1217969534
  0
LINE
  5
311
100
AcDbEntity
  8
0
100
AcDbLine
 62
7
  6
CONTINUOUS
 10
51.5518401685
 20
90.3194837727
 11
51.0518401685
 21
90.3194837727
  0
LINE
  5
312
100
AcDbEntity
  8
0
100
AcDbLine
 62
7
  6
CONTINUOUS
 10
51.5518401685
 20
90.6087092995
 11
51.0518401685
 21
90.6087092995
  0
LINE
  5
313
100
AcDbEntity
  8
0
100
AcDbLine
 62
7
  6
CONTINUOUS
 10
51.5518401685
 20
90.8448609423
 11
51.0518401685
 21
90.8448609423
  0
LINE
  5
314
100
AcDbEntity
  8
0
100
AcDbLine
 62
7
  6
CONTINUOUS
 10
51.5518401685
 20
91.100244651
 11
51.0518401685
 21
91.100244651
  0
LINE
  5
315
100
AcDbEntity
  8
0
100
AcDbLine
 62
7
  6
CONTINUOUS
 10
51.5518401685
 20
91.786784991
 11
51.0518401685
 21
91.786784991
  0
LINE
  5
316
100
AcDbEntity
  8
0
100
AcDbLine
 62
7
  6
CONTINUOUS
 10
51.5518401685
 20
91.9890949278
 11
51.0518401685
 21
91.9890949278
  0
LINE
  5
317
100
AcDbEntity
  8
0
100
AcDbLine
 62
7
  6
CONTINUOUS
 10
51.5518401685
 20
92.119098131
 11
51.0518401685
 21
92.119098131
  0
LINE
  5
318
100
AcDbEntity
  8
0
100
AcDbLine
 62
7
  6
CONTINUOUS
 10
51.5518401685
 20
92.196027434
 11
51.0518401685
 21
92.196027434
  0
LINE
  5
319
100
AcDbEntity
  8
0
100
AcDbLine
 62
7
  6
CONTINUOUS
 10
51.5518401685
 20
92.4508475402
 11
51.0518401685
 21
92.4508475402
  0
LINE
  5
31A
100
AcDbEntity
  8
0
100
AcDbLine
 62
7
  6
CONTINUOUS
 10
51.5518401685
 20
92.659372204
 11
51.0518401685
 21
92.659372204
  0
LINE
  5
31B
100
AcDbEntity
  8
0
100
AcDbLine
 62
7
  6
CONTINUOUS
 10
51.5518401685
 20
93.3521762195
 11
51.0518401685
 21
93.3521762195
  0
LINE
  5
31C
100
AcDbEntity
  8
0
100
AcDbLine
 62
7
  6
CONTINUOUS
 10
51.5518401685
 20
93.4289093042
 11
51.0518401685
 21
93.4289093042
  0
LINE
  5
31D
100
AcDbEntity
  8
0
100
AcDbLine
 62
7
  6
CONTINUOUS
 10
51.5518401685
 20
93.5794770326
 11
51.0518401685
 21
93.5794770326
  0
LINE
  5
31E
100
AcDbEntity
  8
0
100
AcDbLine
 62
7
  6
CONTINUOUS
 10
51.5518401685
 20
93.879451225
 11
51.0518401685
 21
93.879451225
  0
LINE
  5
31F
100
AcDbEntity
  8
0
100
AcDbLine
 62
7
  6
CONTINUOUS
 10
51.5518401685
 20
94.1038518808
 11
51.0518401685
 21
94.1038518808
  0
LINE
  5
320
100
AcDbEntity
  8
0
100
AcDbLine
 62
7
  6
CONTINUOUS
 10
51.5518401685
 20
94.3276731949
 11
51.0518401685
 21
94.3276731949
  0
LINE
  5
321
100
AcDbEntity
  8
0
100
AcDbLine
 62
7
  6
CONTINUOUS
 10
51.5518401685
 20
94.6253282913
 11
51.0518401685
 21
94.6253282913
  0
LINE
  5
322
100
AcDbEntity
  8
0
100
AcDbLine
 62
7
  6
CONTINUOUS
 10
51.5518401685
 20
94.8479892088
 11
51.0518401685
 21
94.8479892088
  0
LINE
  5
323
100
AcDbEntity
  8
0
100
AcDbLine
 62
7
  6
CONTINUOUS
 10
51.5518401685
 20
94.9752604815
 11
51.0518401685
 21
94.9752604815
  0
LINE
  5
324
100
AcDbEntity
  8
0
100
AcDbLine
 62
7
  6
CONTINUOUS
 10
51.5518401685
 20
95.2237044004
 11
51.0518401685
 21
95.2237044004
  0
LINE
  5
325
100
AcDbEntity
  8
0
100
AcDbLine
 62
7
  6
CONTINUOUS
 10
51.5518401685
 20
95.9335350014
 11
51.0518401685
 21
95.9335350014
  0
LINE
  5
326
100
AcDbEntity
  8
0
100
AcDbLine
 62
7
  6
CONTINUOUS
 10
51.5518401685
 20
96.3831096716
 11
51.0518401685
 21
96.3831096716
  0
LINE
  5
327
100
AcDbEntity
  8
0
100
AcDbLine
 62
7
  6
CONTINUOUS
 10
51.5518401685
 20
96.6315535906
 11
51.0518401685
 21
96.6315535906
  0
LINE
  5
328
100
AcDbEntity
  8
0
100
AcDbLine
 62
7
  6
CONTINUOUS
 10
51.5518401685
 20
98.1480098622
 11
51.0518401685
 21
98.1480098622
  0
LINE
  5
329
100
AcDbEntity
  8
RUNDUNGEN
100
AcDbLine
 62
7
  6
CONTINUOUS
 10
47.983890976
 20
153.5939943738
 11
47.0197893609
 21
151.9241213927
  0
LINE
  5
32A
100
AcDbEntity
  8
0
100
AcDbLine
 62
7
  6
CONTINUOUS
 10
51.5518401685
 20
99.957491443
 11
51.0518401685
 21
99.957491443
  0
LINE
  5
32B
100
AcDbEntity
  8
0
100
AcDbLine
 62
7
  6
CONTINUOUS
 10
51.5518401685
 20
100.8027272015
 11
51.0518401685
 21
100.8027272015
  0
LINE
  5
32C
100
AcDbEntity
  8
0
100
AcDbLine
 62
7
  6
CONTINUOUS
 10
51.5518401685
 20
101.088869675
 11
51.0518401685
 21
101.088869675
  0
LINE
  5
32D
100
AcDbEntity
  8
0
100
AcDbLine
 62
7
  6
CONTINUOUS
 10
51.5518401685
 20
101.3882038105
 11
51.0518401685
 21
101.3882038105
  0
LINE
  5
32E
100
AcDbEntity
  8
0
100
AcDbLine
 62
7
  6
CONTINUOUS
 10
51.5518401685
 20
101.8651082968
 11
51.0518401685
 21
101.8651082968
  0
LINE
  5
32F
100
AcDbEntity
  8
0
100
AcDbLine
 62
7
  6
CONTINUOUS
 10
51.5518401685
 20
101.9933943719
 11
51.0518401685
 21
101.9933943719
  0
LINE
  5
330
100
AcDbEntity
  8
0
100
AcDbLine
 62
7
  6
CONTINUOUS
 10
51.5518401685
 20
102.0937771489
 11
51.0518401685
 21
102.0937771489
  0
LINE
  5
331
100
AcDbEntity
  8
RUNDUNGEN
100
AcDbLine
 62
7
  6
CONTINUOUS
 10
46.7518401685
 20
139.3214009841
 11
46.7518401685
 21
150.9241213927
  0
LINE
  5
332
100
AcDbEntity
  8
KONSTRUKTIONSELEMENTE
100
AcDbLine
 62
7
  6
CONTINUOUS
 10
47.2518401685
 20
129.6837243595
 11
47.2518401685
 21
137.1920705852
  0
LINE
  5
333
100
AcDbEntity
  8
RUNDUNGEN
100
AcDbLine
 62
7
  6
CONTINUOUS
 10
48.2518401685
 20
157.0096232341
 11
48.2518401685
 21
154.5939943738
  0
LINE
  5
334
100
AcDbEntity
  8
RUNDUNGEN
100
AcDbLine
 62
7
  6
CONTINUOUS
 10
49.2518401685
 20
92.0581801623
 11
49.2518401685
 21
129.4646608814
  0
LINE
  5
335
100
AcDbEntity
  8
KONSTRUKTIONSELEMENTE
100
AcDbLine
 62
7
  6
CONTINUOUS
 10
47.3690679402
 20
129.164753206
 11
47.2518401685
 21
129.6837243595
  0
LINE
  5
336
100
AcDbEntity
  8
KONSTRUKTIONSELEMENTE
100
AcDbLine
 62
7
  6
CONTINUOUS
 10
47.9159429402
 20
126.7032378121
 11
49.2518401685
 21
120.6046484288
  0
LINE
  5
337
100
AcDbEntity
  8
0
100
AcDbLine
 62
7
  6
CONTINUOUS
 10
51.0518401685
 20
87.3696797093
 11
51.0518401685
 21
92.196027434
  0
LINE
  5
338
100
AcDbEntity
  8
0
100
AcDbLine
 62
7
  6
CONTINUOUS
 10
51.0518401685
 20
92.4508475402
 11
51.0518401685
 21
98.1480098622
  0
LINE
  5
339
100
AcDbEntity
  8
0
100
AcDbLine
 62
7
  6
CONTINUOUS
 10
51.0518401685
 20
99.957491443
 11
51.0518401685
 21
102.0937771489
  0
LINE
  5
33A
100
AcDbEntity
  8
RUNDUNGEN
100
AcDbLine
 62
7
  6
CONTINUOUS
 10
51.5518401685
 20
136.8458684158
 11
51.5518401685
 21
86.5581132537
  0
LINE
  5
33B
100
AcDbEntity
  8
RUNDUNGEN
100
AcDbLine
 62
7
  6
CONTINUOUS
 10
49.1836907126
 20
129.9823062018
 11
46.8199885159
 21
138.8037628939
  0
LINE
  5
33C
100
AcDbEntity
  8
0
100
AcDbLine
 62
7
  6
CONTINUOUS
 10
59.9518401685
 20
136.8458684158
 11
59.9518401685
 21
86.5581132537
  0
LINE
  5
33D
100
AcDbEntity
  8
0
100
AcDbLine
 62
7
  6
CONTINUOUS
 10
62.3199896243
 20
129.9823062018
 11
64.6836832962
 21
138.8037310787
  0
LINE
  5
33E
100
AcDbEntity
  8
0
100
AcDbLine
 62
7
  6
CONTINUOUS
 10
62.2518401685
 20
92.0581801623
 11
62.2518401685
 21
129.4646608814
  0
LINE
  5
33F
100
AcDbEntity
  8
0
100
AcDbLine
 62
7
  6
CONTINUOUS
 10
63.2518401685
 20
157.0096232341
 11
63.2518401685
 21
154.5939943738
  0
LINE
  5
340
100
AcDbEntity
  8
KONSTRUKTIONSELEMENTE
100
AcDbLine
 62
7
  6
CONTINUOUS
 10
63.5877373968
 20
126.7032378121
 11
62.2518401685
 21
120.6046484288
  0
LINE
  5
341
100
AcDbEntity
  8
KONSTRUKTIONSELEMENTE
100
AcDbLine
 62
7
  6
CONTINUOUS
 10
64.1346123968
 20
129.164753206
 11
64.2518401685
 21
129.6837243595
  0
LINE
  5
342
100
AcDbEntity
  8
KONSTRUKTIONSELEMENTE
100
AcDbLine
 62
7
  6
CONTINUOUS
 10
64.2518401685
 20
129.6837243595
 11
64.2518401685
 21
137.1920705852
  0
LINE
  5
343
100
AcDbEntity
  8
0
100
AcDbLine
 62
7
  6
CONTINUOUS
 10
64.7518401685
 20
139.3214009841
 11
64.7518401685
 21
150.9241213927
  0
LINE
  5
344
100
AcDbEntity
  8
0
100
AcDbLine
 62
7
  6
CONTINUOUS
 10
63.5197893609
 20
153.5939943738
 11
64.483890976
 21
151.9241213927
  0
LINE
  5
345
100
AcDbEntity
  8
0
100
AcDbLine
 62
7
  6
CONTINUOUS
 10
58.880483733
 20
161.0815448332
 11
62.3895287374
 21
158.6545137229
  0
ARC
  5
346
100
AcDbEntity
  8
RUNDUNGEN
100
AcDbCircle
 62
7
  6
CONTINUOUS
 10
99.5114145773
 20
103.7727356565
 40
20.0
100
AcDbArc
 50
7.2251495583
 51
27.0210020688
  0
ARC
  5
347
100
AcDbEntity
  8
KONSTRUKTIONSELEMENTE
100
AcDbCircle
 62
7
  6
CONTINUOUS
 10
114.6648420164
 20
104.5080394875
 40
15.0
100
AcDbArc
 50
27.0
 51
38.1265259336
  0
ARC
  5
348
100
AcDbEntity
  8
KONSTRUKTIONSELEMENTE
100
AcDbCircle
 62
7
  6
CONTINUOUS
 10
114.6648420164
 20
104.5080394875
 40
15.0
100
AcDbArc
 50
59.4378226916
 51
59.8196878258
  0
ARC
  5
349
100
AcDbEntity
  8
KONSTRUKTIONSELEMENTE
100
AcDbCircle
 62
7
  6
CONTINUOUS
 10
132.275656852
 20
126.4415580309
 40
5.0
100
AcDbArc
 50
147.0
 51
177.0
  0
ARC
  5
34A
100
AcDbEntity
  8
0
100
AcDbCircle
 62
7
  6
CONTINUOUS
 10
120.446155793
 20
114.4491868567
 40
3.5
100
AcDbArc
 50
71.5950735255
 51
181.0875696015
  0
ARC
  5
34B
100
AcDbEntity
  8
RUNDUNGEN
100
AcDbCircle
 62
7
  6
CONTINUOUS
 10
120.446155793
 20
114.4491868567
 40
3.5
100
AcDbArc
 50
68.398450401
 51
207.0210020688
  0
ARC
  5
34C
100
AcDbEntity
  8
KONSTRUKTIONSELEMENTE
100
AcDbCircle
 62
7
  6
CONTINUOUS
 10
120.446155793
 20
114.4491868567
 40
3.5
100
AcDbArc
 50
59.8196878258
 51
68.398450401
  0
ARC
  5
34D
100
AcDbEntity
  8
RUNDUNGEN
100
AcDbCircle
 62
7
  6
CONTINUOUS
 10
119.8518815097
 20
115.2534492991
 40
2.5
100
AcDbArc
 50
126.460914677
 51
207.0143981122
  0
ARC
  5
34E
100
AcDbEntity
  8
0
100
AcDbCircle
 62
7
  6
CONTINUOUS
 10
119.8518815097
 20
115.2534492991
 40
2.5
100
AcDbArc
 50
126.460914677
 51
207.0
  0
ARC
  5
34F
100
AcDbEntity
  8
0
100
AcDbCircle
 62
7
  6
CONTINUOUS
 10
131.196155793
 20
144.058095989
 40
6.5
100
AcDbArc
 50
107.6129506573
 51
156.4806318218
  0
ARC
  5
350
100
AcDbEntity
  8
RUNDUNGEN
100
AcDbCircle
 62
7
  6
CONTINUOUS
 10
131.196155793
 20
144.058095989
 40
6.5
100
AcDbArc
 50
101.927081555
 51
156.4618091402
  0
ARC
  5
351
100
AcDbEntity
  8
RUNDUNGEN
100
AcDbCircle
 62
7
  6
CONTINUOUS
 10
131.196155793
 20
144.058095989
 40
6.5
100
AcDbArc
 50
15.0
 51
80.1783135191
  0
ARC
  5
352
100
AcDbEntity
  8
0
100
AcDbCircle
 62
7
  6
CONTINUOUS
 10
131.196155793
 20
144.058095989
 40
6.5
100
AcDbArc
 50
69.1096573573
 51
69.6997408367
  0
ARC
  5
353
100
AcDbEntity
  8
KONSTRUKTIONSELEMENTE
100
AcDbCircle
 62
7
  6
CONTINUOUS
 10
131.196155793
 20
144.058095989
 40
5.5
100
AcDbArc
 50
327.0
 51
132.0
  0
CIRCLE
  5
354
100
AcDbEntity
  8
KONSTRUKTIONSELEMENTE
100
AcDbCircle
 62
7
  6
CONTINUOUS
 10
131.196155793
 20
144.058095989
 40
2.5
  0
CIRCLE
  5
355
100
AcDbEntity
  8
KONSTRUKTIONSELEMENTE
100
AcDbCircle
 62
7
  6
CONTINUOUS
 10
131.196155793
 20
144.058095989
 40
2.1
  0
ARC
  5
356
100
AcDbEntity
  8
RUNDUNGEN
100
AcDbCircle
 62
7
  6
CONTINUOUS
 10
132.646155793
 20
152.4335064267
 40
2.0
100
AcDbArc
 50
179.9997915456
 51
260.1768873462
  0
ARC
  5
357
100
AcDbEntity
  8
0
100
AcDbCircle
 62
7
  6
CONTINUOUS
 10
132.646155793
 20
152.4335064267
 40
2.0
100
AcDbArc
 50
180.0006600792
 51
190.2082978688
  0
ARC
  5
358
100
AcDbEntity
  8
0
100
AcDbCircle
 62
7
  6
CONTINUOUS
 10
132.146155793
 20
160.558095989
 40
1.5
100
AcDbArc
 50
90.0
 51
180.0
  0
ARC
  5
359
100
AcDbEntity
  8
RUNDUNGEN
100
AcDbCircle
 62
7
  6
CONTINUOUS
 10
129.646155793
 20
151.3961815704
 40
1.0
100
AcDbArc
 50
281.9270815557
 51
360.0
  0
ARC
  5
35A
100
AcDbEntity
  8
RUNDUNGEN
100
AcDbCircle
 62
7
  6
CONTINUOUS
 10
142.446155793
 20
110.558095989
 40
12.5
100
AcDbArc
 50
207.0
 51
40.0
  0
ARC
  5
35B
100
AcDbEntity
  8
RUNDUNGEN
100
AcDbCircle
 62
7
  6
CONTINUOUS
 10
138.0535230869
 20
131.3502700661
 40
4.0
100
AcDbArc
 50
22.9174167566
 51
75.0
  0
ARC
  5
35C
100
AcDbEntity
  8
0
100
AcDbCircle
 62
7
  6
CONTINUOUS
 10
145.146155793
 20
109.558095989
 40
26.0
100
AcDbArc
 50
10.5526861389
 51
10.7874419574
  0
ARC
  5
35D
100
AcDbEntity
  8
0
100
AcDbCircle
 62
7
  6
CONTINUOUS
 10
145.146155793
 20
109.558095989
 40
26.0
100
AcDbArc
 50
187.2251495583
 51
227.6871019169
  0
ARC
  5
35E
100
AcDbEntity
  8
RUNDUNGEN
100
AcDbCircle
 62
7
  6
CONTINUOUS
 10
145.146155793
 20
109.558095989
 40
26.0
100
AcDbArc
 50
187.2251495583
 51
47.5
  0
ARC
  5
35F
100
AcDbEntity
  8
RUNDUNGEN
100
AcDbCircle
 62
7
  6
CONTINUOUS
 10
147.844337818
 20
123.5832554173
 40
3.0
100
AcDbArc
 50
337.7086314897
 51
40.0
  0
ARC
  5
360
100
AcDbEntity
  8
RUNDUNGEN
100
AcDbCircle
 62
7
  6
CONTINUOUS
 10
151.7163901042
 20
121.2903945204
 40
1.5
100
AcDbArc
 50
210.0131641217
 51
220.0
  0
ARC
  5
361
100
AcDbEntity
  8
0
100
AcDbCircle
 62
7
  6
CONTINUOUS
 10
151.7163901042
 20
121.2903945204
 40
1.5
100
AcDbArc
 50
215.0002270621
 51
217.4985211649
  0
ARC
  5
362
100
AcDbEntity
  8
0
100
AcDbCircle
 62
7
  6
CONTINUOUS
 10
151.7163901042
 20
121.2903945204
 40
1.5
100
AcDbArc
 50
210.0131641217
 51
213.573759065
  0
ARC
  5
363
100
AcDbEntity
  8
RUNDUNGEN
100
AcDbCircle
 62
7
  6
CONTINUOUS
 10
144.946155793
 20
141.0386886993
 40
6.0
100
AcDbArc
 50
195.0
 51
220.0
  0
ARC
  5
364
100
AcDbEntity
  8
0
100
AcDbCircle
 62
7
  6
CONTINUOUS
 10
149.946155793
 20
145.0937235751
 40
2.0
100
AcDbArc
 50
338.5917308012
 51
345.1781835401
  0
ARC
  5
365
100
AcDbEntity
  8
RUNDUNGEN
100
AcDbCircle
 62
7
  6
CONTINUOUS
 10
149.0549301244
 20
142.2219227754
 40
2.0
100
AcDbArc
 50
310.6897728365
 51
355.1615459895
  0
ARC
  5
366
100
AcDbEntity
  8
RUNDUNGEN
100
AcDbCircle
 62
7
  6
CONTINUOUS
 10
149.946155793
 20
145.0937235751
 40
2.0
100
AcDbArc
 50
330.3563670802
 51
360.0
  0
ARC
  5
367
100
AcDbEntity
  8
0
100
AcDbCircle
 62
7
  6
CONTINUOUS
 10
149.0549301244
 20
142.2219227754
 40
2.0
100
AcDbArc
 50
317.2013648754
 51
326.0005862806
  0
ARC
  5
368
100
AcDbEntity
  8
0
100
AcDbCircle
 62
7
  6
CONTINUOUS
 10
149.0549301244
 20
142.2219227754
 40
2.0
100
AcDbArc
 50
339.5328198078
 51
347.1144286557
  0
ARC
  5
369
100
AcDbEntity
  8
RUNDUNGEN
100
AcDbCircle
 62
7
  6
CONTINUOUS
 10
142.446155793
 20
151.308095989
 40
2.25
100
AcDbArc
 50
180.0
 51
360.0
  0
ARC
  5
36A
100
AcDbEntity
  8
0
100
AcDbCircle
 62
7
  6
CONTINUOUS
 10
149.946155793
 20
160.058095989
 40
2.0
100
AcDbArc
 50
0.0
 51
90.0
  0
CIRCLE
  5
36B
100
AcDbEntity
  8
BEZUGSACHSEN
100
AcDbCircle
 62
7
  6
CONTINUOUS
 10
134.746155793
 20
156.558095989
 40
1.25
  0
ARC
  5
36C
100
AcDbEntity
  8
0
100
AcDbCircle
 62
7
  6
CONTINUOUS
 10
169.3698037119
 20
144.5900044974
 40
30.0
100
AcDbArc
 50
202.9174167566
 51
220.0
  0
ARC
  5
36D
100
AcDbEntity
  8
RUNDUNGEN
100
AcDbCircle
 62
7
  6
CONTINUOUS
 10
169.3698037119
 20
144.5900044974
 40
30.0
100
AcDbArc
 50
202.9174167565
 51
220.0
  0
ARC
  5
36E
100
AcDbEntity
  8
RUNDUNGEN
100
AcDbCircle
 62
7
  6
CONTINUOUS
 10
156.029985446
 20
141.6314964374
 40
5.0
100
AcDbArc
 50
150.3563670802
 51
227.5
  0
ARC
  5
36F
100
AcDbEntity
  8
RUNDUNGEN
100
AcDbCircle
 62
7
  6
CONTINUOUS
 10
153.618671602
 20
136.9141677202
 40
5.0
100
AcDbArc
 50
130.6897728365
 51
218.0037029048
  0
ARC
  5
370
100
AcDbEntity
  8
0
100
AcDbCircle
 62
7
  6
CONTINUOUS
 10
153.618671602
 20
136.9141677202
 40
5.0
100
AcDbArc
 50
168.3450586581
 51
180.0926109403
  0
ARC
  5
371
100
AcDbEntity
  8
0
100
AcDbCircle
 62
7
  6
CONTINUOUS
 10
153.618671602
 20
136.9141677202
 40
5.0
100
AcDbArc
 50
206.7013453421
 51
212.4082762969
  0
ARC
  5
372
100
AcDbEntity
  8
0
100
AcDbCircle
 62
7
  6
CONTINUOUS
 10
153.618671602
 20
136.9141677202
 40
5.0
100
AcDbArc
 50
200.5989680761
 51
204.8159580556
  0
ARC
  5
373
100
AcDbEntity
  8
0
100
AcDbCircle
 62
7
  6
CONTINUOUS
 10
227.8218579356
 20
86.558095989
 40
3.0
100
AcDbArc
 50
180.0
 51
270.0
  0
ARC
  5
374
100
AcDbEntity
  8
0
100
AcDbCircle
 62
7
  6
CONTINUOUS
 10
225.0218579356
 20
115.4491868567
 40
2.5
100
AcDbArc
 50
90.0
 51
180.0
  0
ARC
  5
375
100
AcDbEntity
  8
0
100
AcDbCircle
 62
7
  6
CONTINUOUS
 10
224.5218579356
 20
92.058095989
 40
2.0
100
AcDbArc
 50
180.0
 51
256.5066011784
  0
ARC
  5
376
100
AcDbEntity
  8
0
100
AcDbCircle
 62
7
  6
CONTINUOUS
 10
223.8218579356
 20
89.1409055598
 40
1.0
100
AcDbArc
 50
0.0
 51
76.5066011784
  0
ARC
  5
377
100
AcDbEntity
  8
KONSTRUKTIONSELEMENTE
100
AcDbCircle
 62
7
  6
CONTINUOUS
 10
221.2806529522
 20
142.7027830687
 40
3.9912049901
100
AcDbArc
 50
0.0033147766
 51
45.0522735944
  0
ARC
  5
378
100
AcDbEntity
  8
0
100
AcDbCircle
 62
7
  6
CONTINUOUS
 10
222.0218579356
 20
139.3214009841
 40
2.0
100
AcDbArc
 50
180.0
 51
194.9999999999
  0
ARC
  5
379
100
AcDbEntity
  8
0
100
AcDbCircle
 62
7
  6
CONTINUOUS
 10
219.5218579356
 20
154.5939943738
 40
2.0
100
AcDbArc
 50
330.0
 51
360.0
  0
ARC
  5
37A
100
AcDbEntity
  8
0
100
AcDbCircle
 62
7
  6
CONTINUOUS
 10
222.0218579356
 20
150.9241213927
 40
2.0
100
AcDbArc
 50
149.9979603711
 51
179.9995772006
  0
ARC
  5
37B
100
AcDbEntity
  8
0
100
AcDbCircle
 62
7
  6
CONTINUOUS
 10
223.5218579356
 20
157.0096232341
 40
2.0
100
AcDbArc
 50
124.6696734544
 51
180.0
  0
ARC
  5
37C
100
AcDbEntity
  8
BEZUGSACHSEN
100
AcDbCircle
 62
7
  6
CONTINUOUS
 10
223.5218579356
 20
157.0096232341
 40
2.0
100
AcDbArc
 50
156.4674002094
 51
159.1669691387
  0
ARC
  5
37D
100
AcDbEntity
  8
KONSTRUKTIONSELEMENTE
100
AcDbCircle
 62
7
  6
CONTINUOUS
 10
228.9741321501
 20
142.7030752079
 40
3.702274215
100
AcDbArc
 50
180.0009476305
 51
181.6150467985
  0
ARC
  5
37E
100
AcDbEntity
  8
RUNDUNGEN
100
AcDbCircle
 62
7
  6
CONTINUOUS
 10
230.2218579356
 20
86.558095989
 40
3.0
100
AcDbArc
 50
270.0
 51
360.0
  0
ARC
  5
37F
100
AcDbEntity
  8
RUNDUNGEN
100
AcDbCircle
 62
7
  6
CONTINUOUS
 10
233.0218579356
 20
115.4491868567
 40
2.5
100
AcDbArc
 50
0.0
 51
90.0
  0
ARC
  5
380
100
AcDbEntity
  8
RUNDUNGEN
100
AcDbCircle
 62
7
  6
CONTINUOUS
 10
233.5218579356
 20
92.058095989
 40
2.0
100
AcDbArc
 50
283.4933988216
 51
360.0
  0
ARC
  5
381
100
AcDbEntity
  8
RUNDUNGEN
100
AcDbCircle
 62
7
  6
CONTINUOUS
 10
234.2218579356
 20
89.1409055598
 40
1.0
100
AcDbArc
 50
103.4933988216
 51
180.0
  0
ARC
  5
382
100
AcDbEntity
  8
0
100
AcDbCircle
 62
7
  6
CONTINUOUS
 10
229.0218579356
 20
156.558095989
 40
5.5
100
AcDbArc
 50
55.3303265456
 51
124.6696734544
  0
ARC
  5
383
100
AcDbEntity
  8
KONSTRUKTIONSELEMENTE
100
AcDbCircle
 62
7
  6
CONTINUOUS
 10
236.763062919
 20
142.7027830687
 40
3.9912049901
100
AcDbArc
 50
134.9477264056
 51
179.9966852234
  0
CIRCLE
  5
384
100
AcDbEntity
  8
KONSTRUKTIONSELEMENTE
100
AcDbCircle
 62
7
  6
CONTINUOUS
 10
229.0218579356
 20
155.858095989
 40
2.5
  0
ARC
  5
385
100
AcDbEntity
  8
RUNDUNGEN
100
AcDbCircle
 62
7
  6
CONTINUOUS
 10
238.5218579356
 20
154.5939943738
 40
2.0
100
AcDbArc
 50
180.0
 51
210.0
  0
ARC
  5
386
100
AcDbEntity
  8
RUNDUNGEN
100
AcDbCircle
 62
7
  6
CONTINUOUS
 10
236.0218579356
 20
139.3214009841
 40
2.0
100
AcDbArc
 50
345.0000000001
 51
360.0
  0
ARC
  5
387
100
AcDbEntity
  8
RUNDUNGEN
100
AcDbCircle
 62
7
  6
CONTINUOUS
 10
236.0218579356
 20
150.9241213927
 40
2.0
100
AcDbArc
 50
0.0004227994
 51
30.0020396289
  0
ARC
  5
388
100
AcDbEntity
  8
RUNDUNGEN
100
AcDbCircle
 62
7
  6
CONTINUOUS
 10
234.5218579356
 20
157.0096232341
 40
2.0
100
AcDbArc
 50
0.0
 51
55.3303265456
  0
ARC
  5
389
100
AcDbEntity
  8
0
100
AcDbCircle
 62
7
  6
CONTINUOUS
 10
-18.8811553297
 20
114.4340428867
 40
81.133027456
100
AcDbArc
 50
359.9491456645
 51
0.117998583
  0
ARC
  5
38A
100
AcDbEntity
  8
RUNDUNGEN
100
AcDbCircle
 62
7
  6
CONTINUOUS
 10
54.5518401685
 20
86.558095989
 40
3.0
100
AcDbArc
 50
180.0
 51
270.0
  0
ARC
  5
38B
100
AcDbEntity
  8
RUNDUNGEN
100
AcDbCircle
 62
7
  6
CONTINUOUS
 10
51.2518401685
 20
92.058095989
 40
2.0
100
AcDbArc
 50
180.0
 51
256.5066011784
  0
ARC
  5
38C
100
AcDbEntity
  8
RUNDUNGEN
100
AcDbCircle
 62
7
  6
CONTINUOUS
 10
50.5518401685
 20
89.1409055598
 40
1.0
100
AcDbArc
 50
59.9576364328
 51
76.5066011784
  0
ARC
  5
38D
100
AcDbEntity
  8
RUNDUNGEN
100
AcDbCircle
 62
7
  6
CONTINUOUS
 10
47.2518401685
 20
129.4646639749
 40
2.0
100
AcDbArc
 50
359.9999113786
 51
15.0001226894
  0
ARC
  5
38E
100
AcDbEntity
  8
RUNDUNGEN
100
AcDbCircle
 62
7
  6
CONTINUOUS
 10
46.2518401685
 20
154.5939943738
 40
2.0
100
AcDbArc
 50
330.0
 51
360.0
  0
ARC
  5
38F
100
AcDbEntity
  8
RUNDUNGEN
100
AcDbCircle
 62
7
  6
CONTINUOUS
 10
48.7518401685
 20
139.3214009841
 40
2.0
100
AcDbArc
 50
180.0
 51
195.0009435938
  0
ARC
  5
390
100
AcDbEntity
  8
RUNDUNGEN
100
AcDbCircle
 62
7
  6
CONTINUOUS
 10
48.7518401685
 20
150.9241213927
 40
2.0
100
AcDbArc
 50
150.0
 51
180.0
  0
ARC
  5
391
100
AcDbEntity
  8
RUNDUNGEN
100
AcDbCircle
 62
7
  6
CONTINUOUS
 10
50.2518401685
 20
157.0096232341
 40
2.0
100
AcDbArc
 50
124.6696734544
 51
180.0
  0
ARC
  5
392
100
AcDbEntity
  8
RUNDUNGEN
100
AcDbCircle
 62
7
  6
CONTINUOUS
 10
130.3848356666
 20
114.4340428867
 40
81.1330274561
100
AcDbArc
 50
179.882001417
 51
180.0508543355
  0
ARC
  5
393
100
AcDbEntity
  8
0
100
AcDbCircle
 62
7
  6
CONTINUOUS
 10
56.9518401685
 20
86.558095989
 40
3.0
100
AcDbArc
 50
270.0
 51
360.0
  0
ARC
  5
394
100
AcDbEntity
  8
0
100
AcDbCircle
 62
7
  6
CONTINUOUS
 10
60.2518401685
 20
92.058095989
 40
2.0
100
AcDbArc
 50
283.4933988216
 51
360.0
  0
ARC
  5
395
100
AcDbEntity
  8
0
100
AcDbCircle
 62
7
  6
CONTINUOUS
 10
60.9518401685
 20
89.1409055598
 40
1.0
100
AcDbArc
 50
103.4933988216
 51
180.0
  0
ARC
  5
396
100
AcDbEntity
  8
0
100
AcDbCircle
 62
7
  6
CONTINUOUS
 10
55.7518401685
 20
156.558095989
 40
5.5
100
AcDbArc
 50
55.3303265456
 51
124.6696734544
  0
CIRCLE
  5
397
100
AcDbEntity
  8
BEZUGSACHSEN
100
AcDbCircle
 62
7
  6
CONTINUOUS
 10
55.7518401685
 20
155.858095989
 40
2.5
  0
ARC
  5
398
100
AcDbEntity
  8
0
100
AcDbCircle
 62
7
  6
CONTINUOUS
 10
61.2518401685
 20
157.0096232341
 40
2.0
100
AcDbArc
 50
0.0
 51
55.3303265456
  0
ARC
  5
399
100
AcDbEntity
  8
0
100
AcDbCircle
 62
7
  6
CONTINUOUS
 10
62.7518401685
 20
150.9241213927
 40
2.0
100
AcDbArc
 50
0.0
 51
30.0
  0
ARC
  5
39A
100
AcDbEntity
  8
0
100
AcDbCircle
 62
7
  6
CONTINUOUS
 10
62.7518401685
 20
139.3214009841
 40
2.0
100
AcDbArc
 50
344.9990564062
 51
360.0
  0
ARC
  5
39B
100
AcDbEntity
  8
0
100
AcDbCircle
 62
7
  6
CONTINUOUS
 10
65.2518401685
 20
154.5939943738
 40
2.0
100
AcDbArc
 50
180.0
 51
210.0
  0
ARC
  5
39C
100
AcDbEntity
  8
0
100
AcDbCircle
 62
7
  6
CONTINUOUS
 10
64.2518401685
 20
129.4646639749
 40
2.0
100
AcDbArc
 50
164.9998773106
 51
180.0000886214
  0
SPLINE
  5
39D
100
AcDbEntity
  8
KONSTRUKTIONSELEMENTE
100
AcDbSpline
 62
7
  6
CONTINUOUS
 70
0
 71
3
 72
17
 73
13
 74
0
 42
0.0000001
 43
0.0000001
 44
0.0000000001
 40
0.0
 40
0.0
 40
0.0
 40
0.0
 40
0.3770721762
 40
0.5474640757
 40
0.6967889735
 40
0.8196727231
 40
0.8699032412
 40
0.9120592188
 40
0.9458138703
 40
0.9711887475
 40
0.9886288232
 40
1.0
 40
1.0
 40
1.0
 40
1.0
 10
124.9448219863
 20
129.8658154944
 30
0.0
 10
124.6893309235
 20
129.8792052136
 30
0.0
 10
124.3186780594
 20
129.9059506622
 30
0.0
 10
123.8486567084
 20
129.9572974154
 30
0.0
 10
123.5511872936
 20
129.9987688949
 30
0.0
 10
123.3357536032
 20
130.0374868782
 30
0.0
 10
123.1934315078
 20
130.0704796187
 30
0.0
 10
123.110984265
 20
130.0935719594
 30
0.0
 10
123.0460128688
 20
130.1161906348
 30
0.0
 10
122.9990341124
 20
130.1387906117
 30
0.0
 10
122.9685768332
 20
130.1595937128
 30
0.0
 10
122.9584738451
 20
130.1786803212
 30
0.0
 10
122.9588776322
 20
130.1863850373
 30
0.0
  0
SPLINE
  5
39E
100
AcDbEntity
  8
KONSTRUKTIONSELEMENTE
100
AcDbSpline
 62
7
  6
CONTINUOUS
 70
0
 71
3
 72
18
 73
14
 74
0
 42
0.0000001
 43
0.0000001
 44
0.0000000001
 40
0.0
 40
0.0
 40
0.0
 40
0.0
 40
0.0070065834
 40
0.022206798
 40
0.0464287977
 40
0.0796880346
 40
0.1217053769
 40
0.172087201
 40
0.2961272461
 40
0.4470221958
 40
0.6191047598
 40
0.8060183267
 40
1.0
 40
1.0
 40
1.0
 40
1.0
 10
220.5218579356
 20
146.6209961822
 30
0.0
 10
220.5218579356
 20
146.6256900322
 30
0.0
 10
220.5375695286
 20
146.6354422133
 30
0.0
 10
220.5652644956
 20
146.6430067418
 30
0.0
 10
220.61422048
 20
146.6531443931
 30
0.0
 10
220.6797576993
 20
146.6620955153
 30
0.0
 10
220.7636455582
 20
146.6712572274
 30
0.0
 10
220.9080366879
 20
146.6835806515
 30
0.0
 10
221.1256537208
 20
146.6968118878
 30
0.0
 10
221.4248459731
 20
146.7093000745
 30
0.0
 10
221.7663231707
 20
146.7186210548
 30
0.0
 10
222.1367338165
 20
146.7243680192
 30
0.0
 10
222.3919057448
 20
146.7256680947
 30
0.0
 10
222.5218579356
 20
146.7256680947
 30
0.0
  0
SPLINE
  5
39F
100
AcDbEntity
  8
KONSTRUKTIONSELEMENTE
100
AcDbSpline
 62
7
  6
CONTINUOUS
 70
0
 71
3
 72
18
 73
14
 74
0
 42
0.0000001
 43
0.0000001
 44
0.0000000001
 40
0.0
 40
0.0
 40
0.0
 40
0.0
 40
0.0070065834
 40
0.022206798
 40
0.0464287977
 40
0.0796880346
 40
0.1217053769
 40
0.172087201
 40
0.2961272461
 40
0.4470221958
 40
0.6191047598
 40
0.8060183267
 40
1.0
 40
1.0
 40
1.0
 40
1.0
 10
237.5218579356
 20
146.6209961822
 30
0.0
 10
237.5218579356
 20
146.6256900322
 30
0.0
 10
237.5061463426
 20
146.6354422133
 30
0.0
 10
237.4784513756
 20
146.6430067418
 30
0.0
 10
237.4294953912
 20
146.6531443931
 30
0.0
 10
237.3639581718
 20
146.6620955153
 30
0.0
 10
237.280070313
 20
146.6712572274
 30
0.0
 10
237.1356791833
 20
146.6835806515
 30
0.0
 10
236.9180621504
 20
146.6968118878
 30
0.0
 10
236.6188698981
 20
146.7093000745
 30
0.0
 10
236.2773927005
 20
146.7186210548
 30
0.0
 10
235.9069820547
 20
146.7243680192
 30
0.0
 10
235.6518101264
 20
146.7256680947
 30
0.0
 10
235.5218579356
 20
146.7256680947
 30
0.0
  0
SPLINE
  5
3A0
100
AcDbEntity
  8
KONSTRUKTIONSELEMENTE
100
AcDbSpline
 62
7
  6
CONTINUOUS
 70
0
 71
3
 72
23
 73
19
 74
0
 42
0.0000001
 43
0.0000001
 44
0.0000000001
 40
0.0
 40
0.0
 40
0.0
 40
0.0
 40
0.0624600541
 40
0.124957448
 40
0.1874190935
 40
0.2499126524
 40
0.3124215486
 40
0.3749435373
 40
0.437479173
 40
0.5000192015
 40
0.5625582179
 40
0.6250924004
 40
0.6876130454
 40
0.7501197608
 40
0.8126089251
 40
0.8750700001
 40
0.9375767488
 40
1.0
 40
1.0
 40
1.0
 40
1.0
 10
225.2733286713
 20
142.5987297504
 30
0.0
 10
225.2801612038
 20
142.3562711135
 30
0.0
 10
225.3412637393
 20
141.8712297622
 30
0.0
 10
225.5716674466
 20
141.1761918281
 30
0.0
 10
225.9326102771
 20
140.538657969
 30
0.0
 10
226.4099724654
 20
139.982952975
 30
0.0
 10
226.9860291536
 20
139.5299524939
 30
0.0
 10
227.6388573665
 20
139.1966620789
 30
0.0
 10
228.3439101468
 20
138.9957492373
 30
0.0
 10
229.0745547769
 20
138.9348996964
 30
0.0
 10
229.8032016897
 20
139.0161388796
 30
0.0
 10
230.5023829359
 20
139.2365654869
 30
0.0
 10
231.1456370407
 20
139.5879575788
 30
0.0
 10
231.7087517834
 20
140.056891004
 30
0.0
 10
232.1704596897
 20
140.6256274196
 30
0.0
 10
232.5134449795
 20
141.2730389515
 30
0.0
 10
232.7241544468
 20
141.9741645026
 30
0.0
 10
232.7718579356
 20
142.4606020048
 30
0.0
 10
232.7718579356
 20
142.703013975
 30
0.0
  0
ELLIPSE
  5
3A1
100
AcDbEntity
  8
KONSTRUKTIONSELEMENTE
100
AcDbEllipse
 62
7
  6
CONTINUOUS
 10
221.1859607073
 20
126.4415580309
 30
0.0
 11
-1.0923845957
 21
4.9999857521
 31
0.0
 40
0.0109269841
 41
-1.5208237453
 42
-0.9972249697
  0
ELLIPSE
  5
3A2
100
AcDbEntity
  8
KONSTRUKTIONSELEMENTE
100
AcDbEllipse
 62
7
  6
CONTINUOUS
 10
236.8577551639
 20
126.4415580309
 30
0.0
 11
1.0923845957
 21
4.9999857521
 31
0.0
 40
0.0109269841
 41
0.9972249697
 42
1.5208237453
  0
ELLIPSE
  5
3A3
100
AcDbEntity
  8
KONSTRUKTIONSELEMENTE
100
AcDbEllipse
 62
7
  6
CONTINUOUS
 10
63.5877373968
 20
126.4415580309
 30
0.0
 11
1.0923845957
 21
4.9999857521
 31
0.0
 40
0.0109269841
 41
0.9972249697
 42
1.5208237453
  0
ELLIPSE
  5
3A4
100
AcDbEntity
  8
KONSTRUKTIONSELEMENTE
100
AcDbEllipse
 62
7
  6
CONTINUOUS
 10
47.9159429402
 20
126.4415580309
 30
0.0
 11
-1.0923845957
 21
4.9999857521
 31
0.0
 40
0.0109269841
 41
-1.5208237453
 42
-0.9972249697
  0
ENDSEC
  0
SECTION
  2
OBJECTS
  0
DICTIONARY
  5
C
100
AcDbDictionary
280
0
281
1
  3
ACAD_GROUP
350
D
  3
ACAD_MLINESTYLE
350
17
  3
ACAD_LAYOUT
350
1A
  3
ACAD_PLOTSETTINGS
350
19
  3
ACAD_PLOTSTYLENAME
350
E
  0
DICTIONARY
  5
D
102
{ACAD_REACTORS
330
C
102
}
100
AcDbDictionary
280
0
281
1
  0
ACDBDICTIONARYWDFLT
  5
E
102
{ACAD_REACTORS
330
C
102
}
100
AcDbDictionary
281
1
  3
Normal
350
F
100
AcDbDictionaryWithDefault
340
F
  0
DICTIONARY
  5
17
102
{ACAD_REACTORS
330
C
102
}
100
AcDbDictionary
280
0
281
1
  3
Standard
350
18
  0
DICTIONARY
  5
19
102
{ACAD_REACTORS
330
C
102
}
100
AcDbDictionary
281
1
  0
DICTIONARY
  5
1A
102
{ACAD_REACTORS
330
C
102
}
100
AcDbDictionary
281
1
  3
Model
350
3A5
  3
Layout1
350
3A6
  0
ACDBPLACEHOLDER
  5
F
102
{ACAD_REACTORS
330
E
102
}
  0
MLINESTYLE
  5
18
102
{ACAD_REACTORS
330
17
102
}
100
AcDbMlineStyle
  2
STANDARD
 70
0
  3

 62
256
 51
90.0
 52
90.0
 71
2
 49
0.5
 62
256
  6
BYLAYER
 49
-0.5
 62
256
  6
BYLAYER
  0
LAYOUT
  5
3A5
102
{ACAD_REACTORS
330
1A
102
}
100
AcDbPlotSettings
  1

  2
none_device
  4
ISO_A4_(297.00_x_210.00_MM)
  6

 40
0.0
 41
0.0
 42
0.0
 43
0.0
 44
297.0
 45
210.0
 46
0.0
 47
0.0
 48
0.0
 49
0.0
140
0.0
141
0.0
142
1.0
143
1.0
 70
1024
 72
1
 73
0
 74
0
  7

 75
0
147
1.0
148
0.0
149
0.0
100
AcDbLayout
  1
Model
 70
0
 71
0
 10
0.0
 20
0.0
 11
297.0
 21
210.0
 12
0.0
 22
0.0
 32
0.0
 14
0.0
 24
0.0
 34
0.0
 15
0.0
 25
0.0
 35
0.0
146
0.0
 13
0.0
 23
0.0
 33
0.0
 16
1.0
 26
0.0
 36
0.0
 17
0.0
 27
1.0
 37
0.0
 76
0
330
20A
345
0
346
0
  0
LAYOUT
  5
3A6
102
{ACAD_REACTORS
330
1A
102
}
100
AcDbPlotSettings
  1

  2
none_device
  4
ISO_A4_(297.00_x_210.00_MM)
  6

 40
0.0
 41
0.0
 42
0.0
 43
0.0
 44
297.0
 45
210.0
 46
0.0
 47
0.0
 48
0.0
 49
0.0
140
0.0
141
0.0
142
1.0
143
1.0
 70
0
 72
1
 73
0
 74
0
  7

 75
0
147
1.0
148
0.0
149
0.0
100
AcDbLayout
  1
Layout1
 70
0
 71
1
 10
0.0
 20
0.0
 11
297.0
 21
210.0
 12
0.0
 22
0.0
 32
0.0
 14
0.0
 24
0.0
 34
0.0
 15
0.0
 25
0.0
 35
0.0
146
0.0
 13
0.0
 23
0.0
 33
0.0
 16
1.0
 26
0.0
 36
0.0
 17
0.0
 27
1.0
 37
0.0
 76
0
330
20B
345
0
346
0
  0
ENDSEC
  0
EOF
