999
DXF file: ICE-CURT-K-8-SL_7904454_M34852-P-2.dxf
999
Pro/ENGINEER 2010140 by Parametric Technology Corporation
  0
SECTION
  2
HEADER
  9
$ACADVER
  1
AC1015
  9
$DWGCODEPAGE
  3
ANSI_1252
  9
$EXTMAX
 10
594.0
 20
420.0
 30
0.0
  9
$EXTMIN
 10
0.0
 20
0.0
 30
0.0
  9
$LIMMIN
 10
0.0
 20
0.0
  9
$LIMMAX
 10
594.0
 20
420.0
  9
$VIEWCTR
 10
297.0
 20
210.0
  9
$VIEWSIZE
 40
420.0
  9
$CLAYER
  8
0
  9
$LTSCALE
 40
32.67
  9
$CELTYPE
  6
BYLAYER
  9
$DIMSCALE
 40
1.0
  9
$DIMASZ
 40
3.5
  9
$DIMEXO
 40
3.7125
  9
$DIMDLI
 40
22.572
  9
$DIMEXE
 40
10.692
  9
$DIMCEN
 40
5.346
  9
$DIMLFAC
 40
1.0
  9
$DIMBLK
  1
_FILLED
  9
$DIMTXT
 40
3.5
  9
$DIMTOL
 70
1
  9
$DIMLIM
 70
0
  9
$DIMTFAC
 40
1.0
  9
$DIMTP
 40
0.005
  9
$DIMTM
 40
0.005
  9
$PDMODE
 70
3
  9
$PDSIZE
 40
0.3125
  9
$HANDSEED
  5
439
  9
$TILEMODE
 70
1
  9
$MEASUREMENT
 70
1
  9
$INSUNITS
 70
4
  0
ENDSEC
  0
SECTION
  2
CLASSES
  0
CLASS
  1
ACDBDICTIONARYWDFLT
  2
AcDbDictionaryWithDefault
  3
AutoCAD 2000
 90
0
280
0
281
0
  0
CLASS
  1
ACDBPLACEHOLDER
  2
AcDbPlaceHolder
  3
AutoCAD 2000
 90
0
280
0
281
0
  0
CLASS
  1
LAYOUT
  2
AcDbLayout
  3
AutoCAD 2000
 90
0
280
0
281
0
  0
ENDSEC
  0
SECTION
  2
TABLES
  0
TABLE
  2
VPORT
  5
8
100
AcDbSymbolTable
 70
2
  0
VPORT
  5
1F4
100
AcDbSymbolTableRecord
100
AcDbViewportTableRecord
  2
*ACTIVE
 70
0
 10
0.0
 20
0.0
 11
1.0
 21
1.0
 12
297.0
 22
210.0
 13
0.0
 23
0.0
 14
1.0
 24
1.0
 15
0.0
 25
0.0
 16
0.0
 26
0.0
 36
1.0
 17
0.0
 27
0.0
 37
0.0
 40
420.0
 41
1.4142857143
 42
50.0
 43
0.0
 44
0.0
 50
0.0
 51
0.0
 71
0
 72
100
 73
1
 74
1
 75
0
 76
0
 77
0
 78
0
  0
ENDTAB
  0
TABLE
  2
LTYPE
  5
5
100
AcDbSymbolTable
 70
6
  0
LTYPE
  5
14
100
AcDbSymbolTableRecord
100
AcDbLinetypeTableRecord
  2
BYBLOCK
 70
0
  3

 72
65
 73
0
 40
0.0
  0
LTYPE
  5
15
100
AcDbSymbolTableRecord
100
AcDbLinetypeTableRecord
  2
BYLAYER
 70
0
  3

 72
65
 73
0
 40
0.0
  0
LTYPE
  5
16
100
AcDbSymbolTableRecord
100
AcDbLinetypeTableRecord
  2
CONTINUOUS
 70
64
  3
Solid line
 72
65
 73
0
 40
0.0
  0
LTYPE
  5
1F5
100
AcDbSymbolTableRecord
100
AcDbLinetypeTableRecord
  2
CENTER
 70
64
  3
____ _ ____ _ ____ _ ____ _ ____ _ ____ _ ____
 72
65
 73
4
 40
0.6
 49
0.375
 74
0
 49
-0.075
 74
0
 49
0.075
 74
0
 49
-0.075
 74
0
  0
LTYPE
  5
1F6
100
AcDbSymbolTableRecord
100
AcDbLinetypeTableRecord
  2
HIDDEN
 70
64
  3
- - - - - - - - - - - - - - - - - - - -
 72
65
 73
2
 40
0.2
 49
0.1
 74
0
 49
-0.1
 74
0
  0
LTYPE
  5
1F7
100
AcDbSymbolTableRecord
100
AcDbLinetypeTableRecord
  2
PHANTOM
 70
64
  3
_____ _ _ _____ _ _ _____ _ _ _____
 72
65
 73
6
 40
0.8
 49
0.45
 74
0
 49
-0.05
 74
0
 49
0.1
 74
0
 49
-0.05
 74
0
 49
0.1
 74
0
 49
-0.05
 74
0
  0
LTYPE
  5
1F8
100
AcDbSymbolTableRecord
100
AcDbLinetypeTableRecord
  2
DOT
 70
64
  3
. . . . . . . . . . . . . . . . . . . .
 72
65
 73
2
 40
0.2
 49
0.1
 74
0
 49
-0.1
 74
0
  0
LTYPE
  5
1F9
100
AcDbSymbolTableRecord
100
AcDbLinetypeTableRecord
  2
DASHED
 70
64
  3
- - - - - - - - - - - - - - - - - - - -
 72
65
 73
2
 40
0.2
 49
0.1
 74
0
 49
-0.1
 74
0
  0
ENDTAB
  0
TABLE
  2
LAYER
  5
2
100
AcDbSymbolTable
 70
36
  0
LAYER
  5
10
100
AcDbSymbolTableRecord
100
AcDbLayerTableRecord
  2
0
 70
0
 62
7
  6
CONTINUOUS
370
-3
390
F
  0
LAYER
  5
1FA
100
AcDbSymbolTableRecord
100
AcDbLayerTableRecord
  2
DEFAULT_1
 70
0
 62
7
  6
CENTER
370
-3
390
F
  0
LAYER
  5
1FB
100
AcDbSymbolTableRecord
100
AcDbLayerTableRecord
  2
DEFAULT_2
 70
0
 62
8
  6
HIDDEN
370
-3
390
F
  0
LAYER
  5
1FC
100
AcDbSymbolTableRecord
100
AcDbLayerTableRecord
  2
DEFAULT_3
 70
0
 62
7
  6
PHANTOM
370
-3
390
F
  0
LAYER
  5
1FD
100
AcDbSymbolTableRecord
100
AcDbLayerTableRecord
  2
AUSFORMSCHRAEGEN
 70
0
 62
7
  6
CONTINUOUS
370
-3
390
F
  0
LAYER
  5
1FE
100
AcDbSymbolTableRecord
100
AcDbLayerTableRecord
  2
BEZUGSACHSEN
 70
0
 62
7
  6
CONTINUOUS
370
-3
390
F
  0
LAYER
  5
1FF
100
AcDbSymbolTableRecord
100
AcDbLayerTableRecord
  2
BEZUGSEBENEN
 70
0
 62
7
  6
CONTINUOUS
370
-3
390
F
  0
LAYER
  5
200
100
AcDbSymbolTableRecord
100
AcDbLayerTableRecord
  2
BEZUGSPUNKTE
 70
0
 62
7
  6
CONTINUOUS
370
-3
390
F
  0
LAYER
  5
201
100
AcDbSymbolTableRecord
100
AcDbLayerTableRecord
  2
BG_STARTBEZUEGE
 70
0
 62
7
  6
CONTINUOUS
370
-3
390
F
  0
LAYER
  5
202
100
AcDbSymbolTableRecord
100
AcDbLayerTableRecord
  2
FASEN
 70
0
 62
7
  6
CONTINUOUS
370
-3
390
F
  0
LAYER
  5
203
100
AcDbSymbolTableRecord
100
AcDbLayerTableRecord
  2
FLAECHEN
 70
0
 62
7
  6
CONTINUOUS
370
-3
390
F
  0
LAYER
  5
204
100
AcDbSymbolTableRecord
100
AcDbLayerTableRecord
  2
FLAECHENVERBUND
 70
0
 62
7
  6
CONTINUOUS
370
-3
390
F
  0
LAYER
  5
205
100
AcDbSymbolTableRecord
100
AcDbLayerTableRecord
  2
HILFEN
 70
0
 62
7
  6
CONTINUOUS
370
-3
390
F
  0
LAYER
  5
206
100
AcDbSymbolTableRecord
100
AcDbLayerTableRecord
  2
KONSTRUKTIONSELEMENTE
 70
0
 62
7
  6
CONTINUOUS
370
-3
390
F
  0
LAYER
  5
207
100
AcDbSymbolTableRecord
100
AcDbLayerTableRecord
  2
KURVEN
 70
0
 62
7
  6
CONTINUOUS
370
-3
390
F
  0
LAYER
  5
208
100
AcDbSymbolTableRecord
100
AcDbLayerTableRecord
  2
MESSBEREICH
 70
0
 62
7
  6
CONTINUOUS
370
-3
390
F
  0
LAYER
  5
209
100
AcDbSymbolTableRecord
100
AcDbLayerTableRecord
  2
NORM
 70
0
 62
7
  6
CONTINUOUS
370
-3
390
F
  0
LAYER
  5
20A
100
AcDbSymbolTableRecord
100
AcDbLayerTableRecord
  2
PLATZIERUNG
 70
0
 62
7
  6
CONTINUOUS
370
-3
390
F
  0
LAYER
  5
20B
100
AcDbSymbolTableRecord
100
AcDbLayerTableRecord
  2
RUNDUNGEN
 70
0
 62
7
  6
CONTINUOUS
370
-3
390
F
  0
LAYER
  5
20C
100
AcDbSymbolTableRecord
100
AcDbLayerTableRecord
  2
TEIL_STARTBEZUEGE
 70
0
 62
7
  6
CONTINUOUS
370
-3
390
F
  0
LAYER
  5
20D
100
AcDbSymbolTableRecord
100
AcDbLayerTableRecord
  2
T_STARTBEZUEGE
 70
0
 62
7
  6
CONTINUOUS
370
-3
390
F
  0
LAYER
  5
20E
100
AcDbSymbolTableRecord
100
AcDbLayerTableRecord
  2
XSEC_DATUMS
 70
0
 62
7
  6
CONTINUOUS
370
-3
390
F
  0
LAYER
  5
20F
100
AcDbSymbolTableRecord
100
AcDbLayerTableRecord
  2
ZEICHNUNGSBEMASSUNGEN
 70
0
 62
7
  6
CONTINUOUS
370
-3
390
F
  0
ENDTAB
  0
TABLE
  2
STYLE
  5
3
100
AcDbSymbolTable
 70
1
  0
STYLE
  5
11
100
AcDbSymbolTableRecord
100
AcDbTextStyleTableRecord
  2
STANDARD
 70
0
 40
0.0
 41
0.7
 50
0.0
 71
0
 42
0.2
  3
txt
  4

  0
STYLE
  5
210
100
AcDbSymbolTableRecord
100
AcDbTextStyleTableRecord
  2
TEXTSTYLE_1
 70
0
 40
0.0
 41
0.8
 50
0.0
 71
0
 42
0.2
  3
gdt
  4

  0
ENDTAB
  0
TABLE
  2
VIEW
  5
6
100
AcDbSymbolTable
 70
0
  0
ENDTAB
  0
TABLE
  2
UCS
  5
7
100
AcDbSymbolTable
 70
0
  0
ENDTAB
  0
TABLE
  2
APPID
  5
9
100
AcDbSymbolTable
 70
1
  0
APPID
  5
211
100
AcDbSymbolTableRecord
100
AcDbRegAppTableRecord
  2
ACAD
 70
0
  0
ENDTAB
  0
TABLE
  2
BLOCK_RECORD
  5
1
100
AcDbSymbolTable
 70
0
  0
BLOCK_RECORD
  5
212
100
AcDbSymbolTableRecord
100
AcDbBlockTableRecord
  2
*Model_Space
  0
BLOCK_RECORD
  5
213
100
AcDbSymbolTableRecord
100
AcDbBlockTableRecord
  2
*Paper_Space
  0
ENDTAB
  0
TABLE
  2
DIMSTYLE
  5
A
100
AcDbSymbolTable
 70
1
100
AcDbDimStyleTable
 71
0
  0
DIMSTYLE
105
214
100
AcDbSymbolTableRecord
100
AcDbDimStyleTableRecord
  2
STANDARD
 70
0
  3

  4

 40
1.0
 41
3.5
 42
0.0625
 43
0.38
 44
0.18
 45
0.0
 46
0.0
 47
0.005
 48
0.005
140
3.5
141
0.09
142
0.0
143
25.4
144
1.0
145
0.0
146
1.0
147
0.09
 71
1.0
 72
0.0
 73
0
 74
0
 75
0
 76
0
 77
1
 78
8
170
0
171
2
172
0
173
0
174
0
175
0
176
0
177
0
178
5
270
2
271
3
272
3
273
2
274
2
275
0
280
0
281
0
282
0
283
1
284
8
285
0
286
0
287
3
288
0
340
11
  0
ENDTAB
  0
ENDSEC
  0
SECTION
  2
BLOCKS
  0
BLOCK
  5
20
100
AcDbEntity
  8
0
100
AcDbBlockBegin
  2
*Model_Space
 70
0
 10
0.0
 20
0.0
 30
0.0
  3
*Model_Space
  1

  0
ENDBLK
  5
21
100
AcDbEntity
  8
0
100
AcDbBlockEnd
  0
BLOCK
  5
1C
100
AcDbEntity
  8
0
100
AcDbBlockBegin
  2
*Paper_Space
 70
0
 10
0.0
 20
0.0
 30
0.0
  3
*Paper_Space
  1

  0
ENDBLK
  5
1D
100
AcDbEntity
  8
0
100
AcDbBlockEnd
  0
ENDSEC
  0
SECTION
  2
ENTITIES
  0
MTEXT
  5
215
100
AcDbEntity
  8
0
100
AcDbMText
 62
5
  6
CONTINUOUS
  7
STANDARD
 71
2
 72
1
 10
212.3127193655
 20
314.0196521527
 30
0.0
 11
1.0
 21
0.0
 31
0.0
 44
0.9
  1
RUD\PICE\PCURT-K\P8
 40
5.0
 41
23.8095238095
  0
MTEXT
  5
216
100
AcDbEntity
  8
0
100
AcDbMText
 62
5
  6
CONTINUOUS
  7
STANDARD
 71
1
 72
1
 10
545.6874253973
 20
250.2235906693
 30
0.0
 11
0.0
 21
1.0
 31
0.0
 44
0.9
  1
RUD
 40
5.0
 41
13.3333333333
  0
MTEXT
  5
217
100
AcDbEntity
  8
0
100
AcDbMText
 62
5
  6
CONTINUOUS
  7
STANDARD
 71
1
 72
1
 10
545.4916828301
 20
326.8850162975
 30
0.0
 11
0.0
 21
1.0
 31
0.0
 44
0.9
  1
ICE-CURT-K-8
 40
5.0
 41
46.7857142857
  0
MTEXT
  5
218
100
AcDbEntity
  8
0
100
AcDbMText
 62
5
  6
CONTINUOUS
  7
STANDARD
 71
1
 72
1
 10
245.2559555848
 20
91.422110381
 30
0.0
 11
1.0
 21
0.0
 31
0.0
 44
0.9
  1
RUD ICE-CURT-K-8
 40
5.0
 41
63.0952380952
  0
LINE
  5
219
100
AcDbEntity
  8
0
100
AcDbLine
 62
7
  6
CONTINUOUS
 10
0.0
 20
0.0
 11
0.0
 21
420.0
  0
LINE
  5
21A
100
AcDbEntity
  8
0
100
AcDbLine
 62
7
  6
CONTINUOUS
 10
0.0
 20
0.0
 11
594.0
 21
0.0
  0
LINE
  5
21B
100
AcDbEntity
  8
0
100
AcDbLine
 62
7
  6
CONTINUOUS
 10
0.0
 20
420.0
 11
594.0
 21
420.0
  0
LINE
  5
21C
100
AcDbEntity
  8
0
100
AcDbLine
 62
7
  6
CONTINUOUS
 10
594.0
 20
0.0
 11
594.0
 21
420.0
  0
LWPOLYLINE
  5
21D
100
AcDbEntity
  8
BEZUGSACHSEN
100
AcDbPolyline
 62
7
  6
CONTINUOUS
 90
3
 70
0
 10
-71.0019789942
 20
289.0298272553
 10
-70.9910176165
 20
288.929538899
 10
-70.9636826416
 20
288.7847507084
  0
LWPOLYLINE
  5
21E
100
AcDbEntity
  8
BEZUGSACHSEN
100
AcDbPolyline
 62
7
  6
CONTINUOUS
 90
10
 70
0
 10
-71.2101279732
 20
294.6259807049
 10
-71.2080187916
 20
294.0516306746
 10
-71.1997737982
 20
293.3543972787
 10
-71.1852458935
 20
292.657435383
 10
-71.1644025744
 20
291.9625624481
 10
-71.1372306049
 20
291.2715777724
 10
-71.1037362294
 20
290.5862841562
 10
-71.0639442153
 20
289.9084654833
 10
-71.01789646
 20
289.239875018
 10
-71.0019714709
 20
289.0297365682
  0
LWPOLYLINE
  5
21F
100
AcDbEntity
  8
RUNDUNGEN
100
AcDbPolyline
 62
7
  6
CONTINUOUS
 90
10
 70
0
 10
-71.0019714709
 20
312.2222248416
 10
-71.01789646
 20
312.0120863917
 10
-71.0639442153
 20
311.3434959265
 10
-71.1037362294
 20
310.6656772536
 10
-71.1372306049
 20
309.9803836374
 10
-71.1644025744
 20
309.2893989617
 10
-71.1852458935
 20
308.5945260267
 10
-71.1997737982
 20
307.897564131
 10
-71.2080187916
 20
307.2003307351
 10
-71.2101279948
 20
294.6259807049
  0
LWPOLYLINE
  5
220
100
AcDbEntity
  8
RUNDUNGEN
100
AcDbPolyline
 62
7
  6
CONTINUOUS
 90
3
 70
0
 10
-70.9637099422
 20
312.4670955195
 10
-70.9910453822
 20
312.3222260288
 10
-71.0019790954
 20
312.2221328472
  0
LINE
  5
221
100
AcDbEntity
  8
BEZUGSACHSEN
100
AcDbLine
 62
7
  6
CONTINUOUS
 10
-60.9274675835
 20
304.7259341315
 11
-60.9274675835
 21
296.5260272783
  0
LINE
  5
222
100
AcDbEntity
  8
RUNDUNGEN
100
AcDbLine
 62
7
  6
CONTINUOUS
 10
-70.9230685701
 20
312.6089724333
 11
-70.9637099422
 21
312.4670955195
  0
LWPOLYLINE
  5
223
100
AcDbEntity
  8
RUNDUNGEN
100
AcDbPolyline
 62
7
  6
CONTINUOUS
 90
3
 70
0
 10
-70.8609101901
 20
312.7654395681
 10
-70.868844551
 20
312.7478998406
 10
-70.9230685701
 20
312.6089724333
  0
LINE
  5
224
100
AcDbEntity
  8
RUNDUNGEN
100
AcDbLine
 62
7
  6
CONTINUOUS
 10
-70.8609101901
 20
312.7654395681
 11
-70.8607926998
 21
312.7656952954
  0
LINE
  5
225
100
AcDbEntity
  8
BEZUGSACHSEN
100
AcDbLine
 62
7
  6
CONTINUOUS
 10
-70.8609101222
 20
288.4865216936
 11
-70.8607926998
 21
288.4862661143
  0
LWPOLYLINE
  5
226
100
AcDbEntity
  8
BEZUGSACHSEN
100
AcDbPolyline
 62
7
  6
CONTINUOUS
 90
3
 70
0
 10
-70.9230558148
 20
288.6429511615
 10
-70.8688424563
 20
288.5040568632
 10
-70.8609101222
 20
288.4865216936
  0
LINE
  5
227
100
AcDbEntity
  8
BEZUGSACHSEN
100
AcDbLine
 62
7
  6
CONTINUOUS
 10
-70.9636826416
 20
288.7847507084
 11
-70.9230558148
 21
288.6429511615
  0
LINE
  5
228
100
AcDbEntity
  8
0
100
AcDbLine
 62
7
  6
CONTINUOUS
 10
18.0047535707
 20
290.6259807049
 11
18.0047535707
 21
290.5420890941
  0
LINE
  5
229
100
AcDbEntity
  8
RUNDUNGEN
100
AcDbLine
 62
7
  6
CONTINUOUS
 10
45.9047535707
 20
324.6259806521
 11
45.9047535707
 21
276.6259807576
  0
LINE
  5
22A
100
AcDbEntity
  8
RUNDUNGEN
100
AcDbLine
 62
7
  6
CONTINUOUS
 10
52.9047535707
 20
275.1259807049
 11
52.9047535707
 21
326.1259807049
  0
LINE
  5
22B
100
AcDbEntity
  8
RUNDUNGEN
100
AcDbLine
 62
7
  6
CONTINUOUS
 10
74.4047535707
 20
323.6259807049
 11
74.4047535707
 21
277.6259807049
  0
LINE
  5
22C
100
AcDbEntity
  8
RUNDUNGEN
100
AcDbLine
 62
7
  6
CONTINUOUS
 10
78.9047535707
 20
293.4802020942
 11
78.9047535707
 21
307.7717593155
  0
LINE
  5
22D
100
AcDbEntity
  8
RUNDUNGEN
100
AcDbLine
 62
7
  6
CONTINUOUS
 10
88.3329015775
 20
324.6259807049
 11
88.3329015775
 21
307.7717593155
  0
LINE
  5
22E
100
AcDbEntity
  8
RUNDUNGEN
100
AcDbLine
 62
7
  6
CONTINUOUS
 10
88.3329015775
 20
293.4802020942
 11
88.3329015775
 21
276.6259807049
  0
LINE
  5
22F
100
AcDbEntity
  8
BEZUGSACHSEN
100
AcDbLine
 62
7
  6
CONTINUOUS
 10
15.7339382905
 20
287.2546603613
 11
17.0550061024
 21
288.5757281732
  0
LINE
  5
230
100
AcDbEntity
  8
RUNDUNGEN
100
AcDbLine
 62
7
  6
CONTINUOUS
 10
15.7339382905
 20
287.2546603613
 11
17.0550061024
 21
288.5757281732
  0
LINE
  5
231
100
AcDbEntity
  8
RUNDUNGEN
100
AcDbLine
 62
7
  6
CONTINUOUS
 10
-63.8699907719
 20
319.5528496644
 11
-51.3811257499
 21
324.8540583493
  0
LINE
  5
232
100
AcDbEntity
  8
BEZUGSACHSEN
100
AcDbLine
 62
7
  6
CONTINUOUS
 10
-51.3811257499
 20
276.3979030604
 11
-63.8699907719
 21
281.6991117453
  0
LINE
  5
233
100
AcDbEntity
  8
BEZUGSACHSEN
100
AcDbLine
 62
7
  6
CONTINUOUS
 10
15.7339382905
 20
313.9973010484
 11
17.0550061024
 21
312.6762332366
  0
LINE
  5
234
100
AcDbEntity
  8
RUNDUNGEN
100
AcDbLine
 62
7
  6
CONTINUOUS
 10
15.7339382905
 20
313.9973010484
 11
17.0550061024
 21
312.6762332366
  0
LINE
  5
235
100
AcDbEntity
  8
RUNDUNGEN
100
AcDbLine
 62
7
  6
CONTINUOUS
 10
100.9047535707
 20
305.6262060879
 11
100.9047535707
 21
295.62592662
  0
LINE
  5
236
100
AcDbEntity
  8
0
100
AcDbLine
 62
7
  6
CONTINUOUS
 10
202.2970584161
 20
193.6259807049
 11
221.5124487253
 21
193.6259807049
  0
LINE
  5
237
100
AcDbEntity
  8
0
100
AcDbLine
 62
7
  6
CONTINUOUS
 10
191.9047535707
 20
199.6259807049
 11
231.9047535707
 21
199.6259807049
  0
LINE
  5
238
100
AcDbEntity
  8
0
100
AcDbLine
 62
7
  6
CONTINUOUS
 10
202.2970584161
 20
407.6259807049
 11
191.9047535707
 21
401.6259807049
  0
LINE
  5
239
100
AcDbEntity
  8
BEZUGSACHSEN
100
AcDbLine
 62
7
  6
CONTINUOUS
 10
3.8775109532
 20
284.2323864255
 11
-9.5747348064
 21
276.465728715
  0
LINE
  5
23A
100
AcDbEntity
  8
0
100
AcDbLine
 62
7
  6
CONTINUOUS
 10
191.9047535707
 20
210.6259807049
 11
231.9047535707
 21
210.6259807049
  0
LINE
  5
23B
100
AcDbEntity
  8
0
100
AcDbLine
 62
7
  6
CONTINUOUS
 10
191.9047535707
 20
199.6259807049
 11
202.2970584161
 21
193.6259807049
  0
LINE
  5
23C
100
AcDbEntity
  8
RUNDUNGEN
100
AcDbLine
 62
7
  6
CONTINUOUS
 10
3.8775109532
 20
317.0195749842
 11
-9.5747348064
 21
324.7862326947
  0
LINE
  5
23D
100
AcDbEntity
  8
0
100
AcDbLine
 62
7
  6
CONTINUOUS
 10
147.0047535707
 20
290.6259807049
 11
147.0047535707
 21
291.965726667
  0
LINE
  5
23E
100
AcDbEntity
  8
0
100
AcDbLine
 62
7
  6
CONTINUOUS
 10
147.0047535707
 20
295.6259807049
 11
147.0047535707
 21
310.6259807049
  0
LINE
  5
23F
100
AcDbEntity
  8
0
100
AcDbLine
 62
7
  6
CONTINUOUS
 10
149.0047535707
 20
293.1259807049
 11
149.0047535707
 21
295.0358107611
  0
LINE
  5
240
100
AcDbEntity
  8
0
100
AcDbLine
 62
7
  6
CONTINUOUS
 10
149.0047535707
 20
295.6259807049
 11
149.0047535707
 21
308.1259807049
  0
LINE
  5
241
100
AcDbEntity
  8
0
100
AcDbLine
 62
7
  6
CONTINUOUS
 10
200.5650076086
 20
225.6259807049
 11
223.2444995329
 21
225.6259807049
  0
LINE
  5
242
100
AcDbEntity
  8
0
100
AcDbLine
 62
7
  6
CONTINUOUS
 10
160.0047535707
 20
293.1260247972
 11
160.0047535707
 21
308.1259371937
  0
LINE
  5
243
100
AcDbEntity
  8
BEZUGSACHSEN
100
AcDbLine
 62
7
  6
CONTINUOUS
 10
147.0047535707
 20
290.6259807049
 11
149.0047535707
 21
293.1259807049
  0
LINE
  5
244
100
AcDbEntity
  8
0
100
AcDbLine
 62
7
  6
CONTINUOUS
 10
88.3329015775
 20
276.6259807049
 11
94.1822533738
 21
280.7217409263
  0
LINE
  5
245
100
AcDbEntity
  8
0
100
AcDbLine
 62
7
  6
CONTINUOUS
 10
88.3329015775
 20
324.6259807049
 11
94.1822533738
 21
320.5302204834
  0
LINE
  5
246
100
AcDbEntity
  8
BEZUGSACHSEN
100
AcDbLine
 62
7
  6
CONTINUOUS
 10
147.0047535707
 20
310.6259807049
 11
149.0047535707
 21
308.1259807049
  0
LINE
  5
247
100
AcDbEntity
  8
0
100
AcDbLine
 62
7
  6
CONTINUOUS
 10
191.9047535707
 20
401.6259807049
 11
191.9047535707
 21
390.6259807049
  0
LINE
  5
248
100
AcDbEntity
  8
0
100
AcDbLine
 62
7
  6
CONTINUOUS
 10
191.9047535707
 20
210.6259807049
 11
191.9047535707
 21
199.6259807049
  0
LINE
  5
249
100
AcDbEntity
  8
0
100
AcDbLine
 62
7
  6
CONTINUOUS
 10
231.9047535707
 20
390.6259807049
 11
223.2444995329
 21
375.6259807049
  0
LINE
  5
24A
100
AcDbEntity
  8
0
100
AcDbLine
 62
7
  6
CONTINUOUS
 10
187.741185057
 20
319.7465954633
 11
188.4521511163
 21
320.0053659464
  0
LINE
  5
24B
100
AcDbEntity
  8
BEZUGSACHSEN
100
AcDbLine
 62
7
  6
CONTINUOUS
 10
47.9047535707
 20
274.6259807049
 11
52.4047535707
 21
274.6259807049
  0
LINE
  5
24C
100
AcDbEntity
  8
BEZUGSACHSEN
100
AcDbLine
 62
7
  6
CONTINUOUS
 10
-14.5747387797
 20
275.1259807049
 11
-45.1294276687
 21
275.1259807049
  0
LINE
  5
24D
100
AcDbEntity
  8
RUNDUNGEN
100
AcDbLine
 62
7
  6
CONTINUOUS
 10
438.3842459212
 20
275.1259807049
 11
468.9389348101
 21
275.1259807049
  0
LINE
  5
24E
100
AcDbEntity
  8
RUNDUNGEN
100
AcDbLine
 62
7
  6
CONTINUOUS
 10
88.3329015775
 20
276.6259807049
 11
75.4047535707
 21
276.6259807049
  0
LINE
  5
24F
100
AcDbEntity
  8
0
100
AcDbLine
 62
7
  6
CONTINUOUS
 10
75.4047535707
 20
276.6259807049
 11
88.3329015775
 21
276.6259807049
  0
LINE
  5
250
100
AcDbEntity
  8
RUNDUNGEN
100
AcDbLine
 62
7
  6
CONTINUOUS
 10
349.4047535707
 20
281.1259807049
 11
328.9388210576
 21
281.1259807049
  0
LINE
  5
251
100
AcDbEntity
  8
BEZUGSACHSEN
100
AcDbLine
 62
7
  6
CONTINUOUS
 10
234.6733157385
 20
281.1259807049
 11
219.4047535707
 21
281.1259807049
  0
LINE
  5
252
100
AcDbEntity
  8
BEZUGSACHSEN
100
AcDbLine
 62
7
  6
CONTINUOUS
 10
204.4047535707
 20
281.1259807049
 11
189.136191403
 21
281.1259807049
  0
LINE
  5
253
100
AcDbEntity
  8
0
100
AcDbLine
 62
7
  6
CONTINUOUS
 10
189.136191403
 20
281.1259807049
 11
204.4047535707
 21
281.1259807049
  0
LINE
  5
254
100
AcDbEntity
  8
0
100
AcDbLine
 62
7
  6
CONTINUOUS
 10
219.4047535707
 20
281.1259807049
 11
234.6733157385
 21
281.1259807049
  0
LINE
  5
255
100
AcDbEntity
  8
0
100
AcDbLine
 62
7
  6
CONTINUOUS
 10
328.9388210576
 20
281.1259807049
 11
349.4047535707
 21
281.1259807049
  0
LINE
  5
256
100
AcDbEntity
  8
0
100
AcDbLine
 62
7
  6
CONTINUOUS
 10
97.0501355556
 20
281.6259807049
 11
187.0571447704
 21
281.6259807049
  0
LINE
  5
257
100
AcDbEntity
  8
0
100
AcDbLine
 62
7
  6
CONTINUOUS
 10
236.752362371
 20
281.6259807049
 11
326.7593715859
 21
281.6259807049
  0
LINE
  5
258
100
AcDbEntity
  8
0
100
AcDbLine
 62
7
  6
CONTINUOUS
 10
187.741185057
 20
281.5053659464
 11
188.4521511163
 21
281.2465954633
  0
LINE
  5
259
100
AcDbEntity
  8
0
100
AcDbLine
 62
7
  6
CONTINUOUS
 10
223.2444995329
 20
225.6259807049
 11
231.9047535707
 21
210.6259807049
  0
LINE
  5
25A
100
AcDbEntity
  8
RUNDUNGEN
100
AcDbLine
 62
7
  6
CONTINUOUS
 10
195.9047535707
 20
305.6257915446
 11
195.9047535707
 21
295.6261585694
  0
LINE
  5
25B
100
AcDbEntity
  8
0
100
AcDbLine
 62
7
  6
CONTINUOUS
 10
204.9047535707
 20
375.6259807049
 11
204.9047535707
 21
319.9392036619
  0
LINE
  5
25C
100
AcDbEntity
  8
0
100
AcDbLine
 62
7
  6
CONTINUOUS
 10
204.9047535707
 20
281.3127573667
 11
204.9047535707
 21
225.6259807049
  0
LINE
  5
25D
100
AcDbEntity
  8
RUNDUNGEN
100
AcDbLine
 62
7
  6
CONTINUOUS
 10
411.9319930437
 20
286.3759807049
 11
410.1968891944
 21
286.3759807049
  0
LINE
  5
25E
100
AcDbEntity
  8
RUNDUNGEN
100
AcDbLine
 62
7
  6
CONTINUOUS
 10
13.612617947
 20
286.3759807049
 11
11.877510456
 21
286.3759807049
  0
LINE
  5
25F
100
AcDbEntity
  8
RUNDUNGEN
100
AcDbLine
 62
7
  6
CONTINUOUS
 10
316.9047535707
 20
289.6259807049
 11
233.9048212886
 21
289.6259807049
  0
LINE
  5
260
100
AcDbEntity
  8
RUNDUNGEN
100
AcDbLine
 62
7
  6
CONTINUOUS
 10
189.9046897346
 20
289.6259807049
 11
106.9050133863
 21
289.6259807049
  0
LINE
  5
261
100
AcDbEntity
  8
BEZUGSACHSEN
100
AcDbLine
 62
7
  6
CONTINUOUS
 10
401.8047535707
 20
290.6259807049
 11
350.4047535707
 21
290.6259807049
  0
LINE
  5
262
100
AcDbEntity
  8
BEZUGSACHSEN
100
AcDbLine
 62
7
  6
CONTINUOUS
 10
320.2213783611
 20
290.6259807049
 11
284.8047535707
 21
290.6259807049
  0
LINE
  5
263
100
AcDbEntity
  8
BEZUGSACHSEN
100
AcDbLine
 62
7
  6
CONTINUOUS
 10
22.0047535707
 20
290.6259807049
 11
45.9047535707
 21
290.6259807049
  0
LINE
  5
264
100
AcDbEntity
  8
BEZUGSACHSEN
100
AcDbLine
 62
7
  6
CONTINUOUS
 10
52.9047535707
 20
290.6259807049
 11
74.4047535707
 21
290.6259807049
  0
LINE
  5
265
100
AcDbEntity
  8
BEZUGSACHSEN
100
AcDbLine
 62
7
  6
CONTINUOUS
 10
103.5912374182
 20
290.6259807049
 11
147.0047535707
 21
290.6259807049
  0
LINE
  5
266
100
AcDbEntity
  8
0
100
AcDbLine
 62
7
  6
CONTINUOUS
 10
22.0047535707
 20
291.965726667
 11
45.9047535707
 21
291.965726667
  0
LINE
  5
267
100
AcDbEntity
  8
0
100
AcDbLine
 62
7
  6
CONTINUOUS
 10
52.9047535707
 20
291.965726667
 11
74.4047535707
 21
291.965726667
  0
LINE
  5
268
100
AcDbEntity
  8
0
100
AcDbLine
 62
7
  6
CONTINUOUS
 10
102.153478535
 20
291.965726667
 11
147.0047535707
 21
291.965726667
  0
LINE
  5
269
100
AcDbEntity
  8
BEZUGSACHSEN
100
AcDbLine
 62
7
  6
CONTINUOUS
 10
282.8047535707
 20
293.1259807049
 11
271.8047535707
 21
293.1259807049
  0
LINE
  5
26A
100
AcDbEntity
  8
BEZUGSACHSEN
100
AcDbLine
 62
7
  6
CONTINUOUS
 10
149.0047535707
 20
293.1259807049
 11
160.0047535707
 21
293.1259807049
  0
LINE
  5
26B
100
AcDbEntity
  8
0
100
AcDbLine
 62
7
  6
CONTINUOUS
 10
149.0047535707
 20
295.0358107611
 11
160.0047535707
 21
295.0358107611
  0
LINE
  5
26C
100
AcDbEntity
  8
BEZUGSACHSEN
100
AcDbLine
 62
7
  6
CONTINUOUS
 10
-44.007821973
 20
295.5259807049
 11
-59.9274675835
 21
295.5259807049
  0
LINE
  5
26D
100
AcDbEntity
  8
RUNDUNGEN
100
AcDbLine
 62
7
  6
CONTINUOUS
 10
467.8173291145
 20
295.5259807049
 11
483.736974725
 21
295.5259807049
  0
LINE
  5
26E
100
AcDbEntity
  8
0
100
AcDbLine
 62
7
  6
CONTINUOUS
 10
23.0047535707
 20
295.6259807049
 11
45.9047535707
 21
295.6259807049
  0
LINE
  5
26F
100
AcDbEntity
  8
0
100
AcDbLine
 62
7
  6
CONTINUOUS
 10
52.9047535707
 20
295.6259807049
 11
74.4047535707
 21
295.6259807049
  0
LINE
  5
270
100
AcDbEntity
  8
0
100
AcDbLine
 62
7
  6
CONTINUOUS
 10
100.904753571
 20
295.6259807049
 11
160.0047535707
 21
295.6259807049
  0
LINE
  5
271
100
AcDbEntity
  8
0
100
AcDbLine
 62
7
  6
CONTINUOUS
 10
218.9047535707
 20
375.6259807049
 11
218.9047535707
 21
319.9392021971
  0
LINE
  5
272
100
AcDbEntity
  8
0
100
AcDbLine
 62
7
  6
CONTINUOUS
 10
218.9047535707
 20
281.3127592584
 11
218.9047535707
 21
225.6259807049
  0
LINE
  5
273
100
AcDbEntity
  8
RUNDUNGEN
100
AcDbLine
 62
7
  6
CONTINUOUS
 10
227.9047535707
 20
295.6261616322
 11
227.9047535707
 21
305.6257917288
  0
LINE
  5
274
100
AcDbEntity
  8
0
100
AcDbLine
 62
7
  6
CONTINUOUS
 10
231.9047535707
 20
401.6259807049
 11
231.9047535707
 21
390.6259807049
  0
LINE
  5
275
100
AcDbEntity
  8
0
100
AcDbLine
 62
7
  6
CONTINUOUS
 10
231.9047535707
 20
210.6259807049
 11
231.9047535707
 21
199.6259807049
  0
LINE
  5
276
100
AcDbEntity
  8
RUNDUNGEN
100
AcDbLine
 62
7
  6
CONTINUOUS
 10
-44.007821973
 20
305.7259807049
 11
-59.9274675835
 21
305.7259807049
  0
LINE
  5
277
100
AcDbEntity
  8
BEZUGSACHSEN
100
AcDbLine
 62
7
  6
CONTINUOUS
 10
467.8173291145
 20
305.7259807049
 11
483.736974725
 21
305.7259807049
  0
LINE
  5
278
100
AcDbEntity
  8
BEZUGSACHSEN
100
AcDbLine
 62
7
  6
CONTINUOUS
 10
282.8047535707
 20
308.1259807049
 11
271.8047535707
 21
308.1259807049
  0
LINE
  5
279
100
AcDbEntity
  8
BEZUGSACHSEN
100
AcDbLine
 62
7
  6
CONTINUOUS
 10
149.0047535707
 20
308.1259807049
 11
160.0047535707
 21
308.1259807049
  0
LINE
  5
27A
100
AcDbEntity
  8
BEZUGSACHSEN
100
AcDbLine
 62
7
  6
CONTINUOUS
 10
401.8047535707
 20
310.6259807049
 11
350.4047535707
 21
310.6259807049
  0
LINE
  5
27B
100
AcDbEntity
  8
BEZUGSACHSEN
100
AcDbLine
 62
7
  6
CONTINUOUS
 10
320.2153230364
 20
310.6259807049
 11
284.8047535707
 21
310.6259807049
  0
LINE
  5
27C
100
AcDbEntity
  8
BEZUGSACHSEN
100
AcDbLine
 62
7
  6
CONTINUOUS
 10
22.0047535707
 20
310.6259807049
 11
45.9047535707
 21
310.6259807049
  0
LINE
  5
27D
100
AcDbEntity
  8
BEZUGSACHSEN
100
AcDbLine
 62
7
  6
CONTINUOUS
 10
52.9047535707
 20
310.6259807049
 11
74.4047535707
 21
310.6259807049
  0
LINE
  5
27E
100
AcDbEntity
  8
BEZUGSACHSEN
100
AcDbLine
 62
7
  6
CONTINUOUS
 10
103.5912202817
 20
310.6259807049
 11
147.0047535707
 21
310.6259807049
  0
LINE
  5
27F
100
AcDbEntity
  8
RUNDUNGEN
100
AcDbLine
 62
7
  6
CONTINUOUS
 10
106.9049266566
 20
311.6259807049
 11
189.9045883539
 21
311.6259807049
  0
LINE
  5
280
100
AcDbEntity
  8
RUNDUNGEN
100
AcDbLine
 62
7
  6
CONTINUOUS
 10
233.9049187882
 20
311.6259807049
 11
316.9045793956
 21
311.6259807049
  0
LINE
  5
281
100
AcDbEntity
  8
RUNDUNGEN
100
AcDbLine
 62
7
  6
CONTINUOUS
 10
411.9319930437
 20
314.8759807049
 11
410.1968891944
 21
314.8759807049
  0
LINE
  5
282
100
AcDbEntity
  8
RUNDUNGEN
100
AcDbLine
 62
7
  6
CONTINUOUS
 10
11.8775122348
 20
314.8759807049
 11
13.612617947
 21
314.8759807049
  0
LINE
  5
283
100
AcDbEntity
  8
0
100
AcDbLine
 62
7
  6
CONTINUOUS
 10
97.0501355556
 20
319.6259807049
 11
187.0571447704
 21
319.6259807049
  0
LINE
  5
284
100
AcDbEntity
  8
RUNDUNGEN
100
AcDbLine
 62
7
  6
CONTINUOUS
 10
236.752362371
 20
319.6259807049
 11
326.7593715859
 21
319.6259807049
  0
LINE
  5
285
100
AcDbEntity
  8
0
100
AcDbLine
 62
7
  6
CONTINUOUS
 10
236.752362371
 20
319.6259807049
 11
326.7593715859
 21
319.6259807049
  0
LINE
  5
286
100
AcDbEntity
  8
RUNDUNGEN
100
AcDbLine
 62
7
  6
CONTINUOUS
 10
349.4047535707
 20
320.1259807049
 11
328.9388210576
 21
320.1259807049
  0
LINE
  5
287
100
AcDbEntity
  8
BEZUGSACHSEN
100
AcDbLine
 62
7
  6
CONTINUOUS
 10
234.6733157385
 20
320.1259807049
 11
219.4047535707
 21
320.1259807049
  0
LINE
  5
288
100
AcDbEntity
  8
BEZUGSACHSEN
100
AcDbLine
 62
7
  6
CONTINUOUS
 10
204.4047535707
 20
320.1259807049
 11
189.136191403
 21
320.1259807049
  0
LINE
  5
289
100
AcDbEntity
  8
0
100
AcDbLine
 62
7
  6
CONTINUOUS
 10
189.136191403
 20
320.1259807049
 11
204.4047535707
 21
320.1259807049
  0
LINE
  5
28A
100
AcDbEntity
  8
0
100
AcDbLine
 62
7
  6
CONTINUOUS
 10
219.4047535707
 20
320.1259807049
 11
234.6733157385
 21
320.1259807049
  0
LINE
  5
28B
100
AcDbEntity
  8
0
100
AcDbLine
 62
7
  6
CONTINUOUS
 10
328.9388210576
 20
320.1259807049
 11
349.4047535707
 21
320.1259807049
  0
LINE
  5
28C
100
AcDbEntity
  8
0
100
AcDbLine
 62
7
  6
CONTINUOUS
 10
200.5650076086
 20
225.6259807049
 11
191.9047535707
 21
210.6259807049
  0
LINE
  5
28D
100
AcDbEntity
  8
0
100
AcDbLine
 62
7
  6
CONTINUOUS
 10
235.3573560251
 20
281.2465954633
 11
236.0683220844
 21
281.5053659464
  0
LINE
  5
28E
100
AcDbEntity
  8
RUNDUNGEN
100
AcDbLine
 62
7
  6
CONTINUOUS
 10
88.3329015775
 20
324.6259807049
 11
75.4047535707
 21
324.6259807049
  0
LINE
  5
28F
100
AcDbEntity
  8
0
100
AcDbLine
 62
7
  6
CONTINUOUS
 10
75.4047535707
 20
324.6259807049
 11
88.3329015775
 21
324.6259807049
  0
LINE
  5
290
100
AcDbEntity
  8
RUNDUNGEN
100
AcDbLine
 62
7
  6
CONTINUOUS
 10
-14.5747387797
 20
326.1259807049
 11
-45.1294276687
 21
326.1259807049
  0
LINE
  5
291
100
AcDbEntity
  8
BEZUGSACHSEN
100
AcDbLine
 62
7
  6
CONTINUOUS
 10
438.3842459212
 20
326.1259807049
 11
468.9389348101
 21
326.1259807049
  0
LINE
  5
292
100
AcDbEntity
  8
BEZUGSACHSEN
100
AcDbLine
 62
7
  6
CONTINUOUS
 10
47.9047535707
 20
326.6259807049
 11
52.4047535707
 21
326.6259807049
  0
LINE
  5
293
100
AcDbEntity
  8
0
100
AcDbLine
 62
7
  6
CONTINUOUS
 10
235.3573560251
 20
320.0053659464
 11
236.0683220844
 21
319.7465954633
  0
LINE
  5
294
100
AcDbEntity
  8
0
100
AcDbLine
 62
7
  6
CONTINUOUS
 10
191.9047535707
 20
390.6259807049
 11
200.5650076086
 21
375.6259807049
  0
LINE
  5
295
100
AcDbEntity
  8
BEZUGSACHSEN
100
AcDbLine
 62
7
  6
CONTINUOUS
 10
271.8047535707
 20
308.1259807049
 11
271.8047535707
 21
293.1259807049
  0
LINE
  5
296
100
AcDbEntity
  8
BEZUGSACHSEN
100
AcDbLine
 62
7
  6
CONTINUOUS
 10
284.8047535707
 20
310.6259807049
 11
282.8047535707
 21
308.1259807049
  0
LINE
  5
297
100
AcDbEntity
  8
BEZUGSACHSEN
100
AcDbLine
 62
7
  6
CONTINUOUS
 10
282.8047535707
 20
293.1259807049
 11
284.8047535707
 21
290.6259807049
  0
LINE
  5
298
100
AcDbEntity
  8
BEZUGSACHSEN
100
AcDbLine
 62
7
  6
CONTINUOUS
 10
282.8047535707
 20
308.1259807049
 11
282.8047535707
 21
293.1259807049
  0
LINE
  5
299
100
AcDbEntity
  8
BEZUGSACHSEN
100
AcDbLine
 62
7
  6
CONTINUOUS
 10
284.8047535707
 20
310.6259807049
 11
284.8047535707
 21
290.6259807049
  0
LINE
  5
29A
100
AcDbEntity
  8
0
100
AcDbLine
 62
7
  6
CONTINUOUS
 10
200.5650076086
 20
375.6259807049
 11
223.2444995329
 21
375.6259807049
  0
LINE
  5
29B
100
AcDbEntity
  8
BEZUGSACHSEN
100
AcDbLine
 62
7
  6
CONTINUOUS
 10
419.9319961883
 20
317.0195749842
 11
433.3842419478
 21
324.7862326947
  0
LINE
  5
29C
100
AcDbEntity
  8
0
100
AcDbLine
 62
7
  6
CONTINUOUS
 10
231.9047535707
 20
199.6259807049
 11
221.5124487253
 21
193.6259807049
  0
LINE
  5
29D
100
AcDbEntity
  8
0
100
AcDbLine
 62
7
  6
CONTINUOUS
 10
191.9047535707
 20
390.6259807049
 11
231.9047535707
 21
390.6259807049
  0
LINE
  5
29E
100
AcDbEntity
  8
0
100
AcDbLine
 62
7
  6
CONTINUOUS
 10
191.9047535707
 20
401.6259807049
 11
231.9047535707
 21
401.6259807049
  0
LINE
  5
29F
100
AcDbEntity
  8
RUNDUNGEN
100
AcDbLine
 62
7
  6
CONTINUOUS
 10
419.9319961883
 20
284.2323864255
 11
433.3842419478
 21
276.465728715
  0
LINE
  5
2A0
100
AcDbEntity
  8
0
100
AcDbLine
 62
7
  6
CONTINUOUS
 10
221.5124487253
 20
407.6259807049
 11
231.9047535707
 21
401.6259807049
  0
LINE
  5
2A1
100
AcDbEntity
  8
RUNDUNGEN
100
AcDbLine
 62
7
  6
CONTINUOUS
 10
322.9047535707
 20
305.625798799
 11
322.9047535707
 21
295.6261670662
  0
LINE
  5
2A2
100
AcDbEntity
  8
0
100
AcDbLine
 62
7
  6
CONTINUOUS
 10
328.9388210576
 20
320.1259807049
 11
328.9388210576
 21
281.1259807049
  0
LINE
  5
2A3
100
AcDbEntity
  8
0
100
AcDbLine
 62
7
  6
CONTINUOUS
 10
202.2970584161
 20
407.6259807049
 11
221.5124487253
 21
407.6259807049
  0
LINE
  5
2A4
100
AcDbEntity
  8
RUNDUNGEN
100
AcDbLine
 62
7
  6
CONTINUOUS
 10
350.4047535707
 20
282.1259807049
 11
350.4047535707
 21
319.1259807049
  0
LINE
  5
2A5
100
AcDbEntity
  8
RUNDUNGEN
100
AcDbLine
 62
7
  6
CONTINUOUS
 10
408.0755688509
 20
313.9973010484
 11
406.754501039
 21
312.6762332366
  0
LINE
  5
2A6
100
AcDbEntity
  8
BEZUGSACHSEN
100
AcDbLine
 62
7
  6
CONTINUOUS
 10
406.754501039
 20
312.6762332366
 11
408.0755688509
 21
313.9973010484
  0
LINE
  5
2A7
100
AcDbEntity
  8
RUNDUNGEN
100
AcDbLine
 62
7
  6
CONTINUOUS
 10
475.1906328913
 20
276.3979030604
 11
487.6794979134
 21
281.6991117453
  0
LINE
  5
2A8
100
AcDbEntity
  8
BEZUGSACHSEN
100
AcDbLine
 62
7
  6
CONTINUOUS
 10
475.1906328913
 20
324.8540583493
 11
487.6794979134
 21
319.5528496644
  0
LINE
  5
2A9
100
AcDbEntity
  8
RUNDUNGEN
100
AcDbLine
 62
7
  6
CONTINUOUS
 10
408.0755688509
 20
287.2546603613
 11
406.754501039
 21
288.5757281732
  0
LINE
  5
2AA
100
AcDbEntity
  8
BEZUGSACHSEN
100
AcDbLine
 62
7
  6
CONTINUOUS
 10
406.754501039
 20
288.5757281732
 11
408.0755688509
 21
287.2546603613
  0
LWPOLYLINE
  5
2AB
100
AcDbEntity
  8
RUNDUNGEN
100
AcDbPolyline
 62
7
  6
CONTINUOUS
 90
3
 70
0
 10
494.6704173315
 20
288.4865218415
 10
494.6783516924
 20
288.5040615689
 10
494.7325757115
 20
288.6429889762
  0
LINE
  5
2AC
100
AcDbEntity
  8
RUNDUNGEN
100
AcDbLine
 62
7
  6
CONTINUOUS
 10
494.6704173315
 20
288.4865218415
 11
494.6702998412
 21
288.4862661144
  0
LINE
  5
2AD
100
AcDbEntity
  8
BEZUGSACHSEN
100
AcDbLine
 62
7
  6
CONTINUOUS
 10
494.6704172636
 20
312.7654397162
 11
494.6702998412
 21
312.7656952953
  0
LWPOLYLINE
  5
2AE
100
AcDbEntity
  8
BEZUGSACHSEN
100
AcDbPolyline
 62
7
  6
CONTINUOUS
 90
3
 70
0
 10
494.8114861356
 20
312.2221341546
 10
494.8005247579
 20
312.322422511
 10
494.773189783
 20
312.4672107016
  0
LWPOLYLINE
  5
2AF
100
AcDbEntity
  8
BEZUGSACHSEN
100
AcDbPolyline
 62
7
  6
CONTINUOUS
 90
8
 70
0
 10
495.0196351147
 20
306.6259807049
 10
495.0160508611
 20
307.3745971015
 10
495.002804826
 20
308.246193825
 10
494.9797136203
 20
309.1159764291
 10
494.9467378142
 20
309.9803820978
 10
494.9038844717
 20
310.8359009905
 10
494.851206122
 20
311.6790537425
 10
494.8114760057
 20
312.2222584656
  0
LINE
  5
2B0
100
AcDbEntity
  8
BEZUGSACHSEN
100
AcDbLine
 62
7
  6
CONTINUOUS
 10
484.736974725
 20
296.5260272783
 11
484.736974725
 21
304.7259341315
  0
LINE
  5
2B1
100
AcDbEntity
  8
RUNDUNGEN
100
AcDbLine
 62
7
  6
CONTINUOUS
 10
495.0196351362
 20
306.6259807049
 11
495.0196351362
 21
294.6259807049
  0
LWPOLYLINE
  5
2B2
100
AcDbEntity
  8
RUNDUNGEN
100
AcDbPolyline
 62
7
  6
CONTINUOUS
 90
8
 70
0
 10
494.8114760057
 20
289.0297029442
 10
494.851206122
 20
289.5729076673
 10
494.9038844717
 20
290.4160604192
 10
494.9467378142
 20
291.2715793119
 10
494.9797136203
 20
292.1359849807
 10
495.002804826
 20
293.0057675847
 10
495.0160508611
 20
293.8773643082
 10
495.0196351147
 20
294.6259807049
  0
LWPOLYLINE
  5
2B3
100
AcDbEntity
  8
RUNDUNGEN
100
AcDbPolyline
 62
7
  6
CONTINUOUS
 90
3
 70
0
 10
494.7732170836
 20
288.78486589
 10
494.8005525236
 20
288.9297353807
 10
494.8114862369
 20
289.0298285624
  0
LINE
  5
2B4
100
AcDbEntity
  8
RUNDUNGEN
100
AcDbLine
 62
7
  6
CONTINUOUS
 10
494.7325757115
 20
288.6429889762
 11
494.7732170836
 21
288.78486589
  0
LWPOLYLINE
  5
2B5
100
AcDbEntity
  8
BEZUGSACHSEN
100
AcDbPolyline
 62
7
  6
CONTINUOUS
 90
3
 70
0
 10
494.7325629561
 20
312.6090102485
 10
494.6783495976
 20
312.7479045468
 10
494.6704172636
 20
312.7654397162
  0
LINE
  5
2B6
100
AcDbEntity
  8
BEZUGSACHSEN
100
AcDbLine
 62
7
  6
CONTINUOUS
 10
494.773189783
 20
312.4672107016
 11
494.7325629561
 21
312.6090102485
  0
LINE
  5
2B7
100
AcDbEntity
  8
0
100
AcDbLine
 62
7
  6
CONTINUOUS
 10
538.5238051695
 20
193.6259807049
 11
557.7391954787
 21
193.6259807049
  0
LINE
  5
2B8
100
AcDbEntity
  8
0
100
AcDbLine
 62
7
  6
CONTINUOUS
 10
538.5238051695
 20
407.6259807049
 11
528.1315003241
 21
401.6259807049
  0
LINE
  5
2B9
100
AcDbEntity
  8
0
100
AcDbLine
 62
7
  6
CONTINUOUS
 10
528.1315003241
 20
199.6259807049
 11
568.1315003241
 21
199.6259807049
  0
LINE
  5
2BA
100
AcDbEntity
  8
0
100
AcDbLine
 62
7
  6
CONTINUOUS
 10
528.1315003241
 20
199.6259807049
 11
538.5238051695
 21
193.6259807049
  0
LINE
  5
2BB
100
AcDbEntity
  8
0
100
AcDbLine
 62
7
  6
CONTINUOUS
 10
528.1315003241
 20
210.6259807049
 11
568.1315003241
 21
210.6259807049
  0
LINE
  5
2BC
100
AcDbEntity
  8
0
100
AcDbLine
 62
7
  6
CONTINUOUS
 10
536.7918872319
 20
225.6259807049
 11
559.4711134162
 21
225.6259807049
  0
LINE
  5
2BD
100
AcDbEntity
  8
0
100
AcDbLine
 62
7
  6
CONTINUOUS
 10
568.1315003241
 20
390.6259807049
 11
559.4712462862
 21
375.6259807049
  0
LINE
  5
2BE
100
AcDbEntity
  8
0
100
AcDbLine
 62
7
  6
CONTINUOUS
 10
559.4712462862
 20
225.6259807049
 11
568.1315003241
 21
210.6259807049
  0
LWPOLYLINE
  5
2BF
100
AcDbEntity
  8
BEZUGSACHSEN
100
AcDbPolyline
 62
7
  6
CONTINUOUS
 90
17
 70
0
 10
524.1324840891
 20
277.0631724583
 10
524.1463454765
 20
276.8826683419
 10
524.1764731712
 20
276.7041555035
 10
524.2226206018
 20
276.5290974294
 10
524.2844097175
 20
276.3589292127
 10
524.3613343202
 20
276.1950454051
 10
524.4527640554
 20
276.0387892237
 10
524.5579497314
 20
275.891441211
 10
524.6760293575
 20
275.7542089609
 10
524.8060353053
 20
275.6282170902
 10
524.9469021633
 20
275.514498123
 10
525.0974755646
 20
275.413983946
 10
525.2565215745
 20
275.3274982456
 10
525.4227368409
 20
275.2557497308
 10
525.594759245
 20
275.1993263419
 10
525.7711791237
 20
275.1586904143
 10
525.9505507699
 20
275.1341749141
  0
LWPOLYLINE
  5
2C0
100
AcDbEntity
  8
RUNDUNGEN
100
AcDbPolyline
 62
7
  6
CONTINUOUS
 90
17
 70
0
 10
524.1323631935
 20
277.0708804984
 10
524.1452149495
 20
276.8920798914
 10
524.1746185445
 20
276.7128462
 10
524.2201621262
 20
276.5370182954
 10
524.2814701743
 20
276.3660469179
 10
524.3580370926
 20
276.2013425013
 10
524.4492312545
 20
276.0442639327
 10
524.5543005226
 20
275.8961068054
 10
524.672378244
 20
275.7580932288
 10
524.8024904662
 20
275.6313616165
 10
524.9435639449
 20
275.5169573283
 10
525.0944350407
 20
275.41582401
 10
525.2538592732
 20
275.3287958491
 10
525.4205216623
 20
275.2565906517
 10
525.5930475091
 20
275.1998039687
 10
525.7700137732
 20
275.158904166
 10
525.9499607887
 20
275.1342285744
  0
LWPOLYLINE
  5
2C1
100
AcDbEntity
  8
RUNDUNGEN
100
AcDbPolyline
 62
7
  6
CONTINUOUS
 90
8
 70
0
 10
524.1315058427
 20
315.8063237444
 10
524.1429101579
 20
315.4484326307
 10
524.1812465429
 20
315.0004264534
 10
524.2405471057
 20
314.5312872506
 10
524.3170319686
 20
314.0348510222
 10
524.4081658329
 20
313.5071192842
 10
524.5108408079
 20
312.9507311036
 10
524.8623255209
 20
311.1258822523
  0
LINE
  5
2C2
100
AcDbEntity
  8
BEZUGSACHSEN
100
AcDbLine
 62
7
  6
CONTINUOUS
 10
524.1315003708
 20
277.1258921857
 11
524.1324840891
 21
277.0631724583
  0
LINE
  5
2C3
100
AcDbEntity
  8
RUNDUNGEN
100
AcDbLine
 62
7
  6
CONTINUOUS
 10
524.1314955996
 20
304.9665036161
 11
524.1395221649
 21
301.2573391635
  0
LINE
  5
2C4
100
AcDbEntity
  8
RUNDUNGEN
100
AcDbLine
 62
7
  6
CONTINUOUS
 10
524.1395221649
 20
301.2573391635
 11
524.1398701326
 21
300.6259807049
  0
LINE
  5
2C5
100
AcDbEntity
  8
RUNDUNGEN
100
AcDbLine
 62
7
  6
CONTINUOUS
 10
524.1315003241
 20
304.9664875877
 11
524.1315003241
 21
324.1259806668
  0
LINE
  5
2C6
100
AcDbEntity
  8
0
100
AcDbLine
 62
7
  6
CONTINUOUS
 10
524.1315003241
 20
315.8110350781
 11
524.1315003241
 21
324.1259807049
  0
LINE
  5
2C7
100
AcDbEntity
  8
0
100
AcDbLine
 62
7
  6
CONTINUOUS
 10
528.1315003241
 20
401.6259807049
 11
528.1315003241
 21
390.6259807049
  0
LINE
  5
2C8
100
AcDbEntity
  8
0
100
AcDbLine
 62
7
  6
CONTINUOUS
 10
528.1315003241
 20
210.6259807049
 11
528.1315003241
 21
199.6259807049
  0
LWPOLYLINE
  5
2C9
100
AcDbEntity
  8
BEZUGSACHSEN
100
AcDbPolyline
 62
7
  6
CONTINUOUS
 90
3
 70
0
 10
524.1398701326
 20
300.6259807049
 10
524.1362321233
 20
298.4541205559
 10
524.1315003241
 20
277.1259807429
  0
LWPOLYLINE
  5
2CA
100
AcDbEntity
  8
BEZUGSACHSEN
100
AcDbPolyline
 62
7
  6
CONTINUOUS
 90
3
 70
0
 10
524.1523599947
 20
324.4141668707
 10
524.1333220838
 20
324.2114113001
 10
524.1315003708
 20
324.1260692215
  0
LINE
  5
2CB
100
AcDbEntity
  8
BEZUGSACHSEN
100
AcDbLine
 62
7
  6
CONTINUOUS
 10
525.4397116868
 20
293.4436037886
 11
525.4397317905
 21
293.4437370031
  0
LWPOLYLINE
  5
2CC
100
AcDbEntity
  8
BEZUGSACHSEN
100
AcDbPolyline
 62
7
  6
CONTINUOUS
 90
5
 70
0
 10
525.4397094864
 20
293.4436041212
 10
525.3456245038
 20
292.8387622915
 10
525.2294665882
 20
292.1378012074
 10
525.1089403762
 20
291.4504356697
 10
524.9858843215
 20
290.7790168218
  0
LWPOLYLINE
  5
2CD
100
AcDbEntity
  8
BEZUGSACHSEN
100
AcDbPolyline
 62
7
  6
CONTINUOUS
 90
7
 70
0
 10
524.5108408079
 20
288.3012303061
 10
524.4081658329
 20
287.7448421255
 10
524.3170319686
 20
287.2171103876
 10
524.2405471057
 20
286.7206741591
 10
524.1812465429
 20
286.2515349563
 10
524.1429101579
 20
285.8035287791
 10
524.1315058427
 20
285.4456376653
  0
LINE
  5
2CE
100
AcDbEntity
  8
BEZUGSACHSEN
100
AcDbLine
 62
7
  6
CONTINUOUS
 10
524.9858843215
 20
290.7790168218
 11
524.5108408079
 21
288.3012303061
  0
LWPOLYLINE
  5
2CF
100
AcDbEntity
  8
BEZUGSACHSEN
100
AcDbPolyline
 62
7
  6
CONTINUOUS
 90
5
 70
0
 10
571.5443146195
 20
281.4281761002
 10
571.60708053
 20
281.4447339583
 10
571.7154059563
 20
281.4821762541
 10
571.8198073939
 20
281.5299008193
 10
571.9192297428
 20
281.5874788872
  0
LINE
  5
2D0
100
AcDbEntity
  8
RUNDUNGEN
100
AcDbLine
 62
7
  6
CONTINUOUS
 10
571.5443707892
 20
281.4281892869
 11
571.5927953665
 21
281.4406454574
  0
LINE
  5
2D1
100
AcDbEntity
  8
BEZUGSACHSEN
100
AcDbLine
 62
7
  6
CONTINUOUS
 10
571.5437783493
 20
281.4280477516
 11
556.090213091
 21
277.7919747853
  0
LWPOLYLINE
  5
2D2
100
AcDbEntity
  8
BEZUGSACHSEN
100
AcDbPolyline
 62
7
  6
CONTINUOUS
 90
11
 70
0
 10
548.0495821482
 20
275.1259807767
 10
548.3083636499
 20
275.1347379953
 10
548.6656819471
 20
275.173445359
 10
549.0325283644
 20
275.2412134243
 10
549.4129047353
 20
275.3367955144
 10
549.8101409899
 20
275.4593022513
 10
550.2291703219
 20
275.6087737539
 10
550.6736856579
 20
275.7852433446
 10
551.1469579891
 20
275.9887384663
 10
551.6517418287
 20
276.2190802826
 10
552.1117862453
 20
276.4377674791
  0
LINE
  5
2D3
100
AcDbEntity
  8
BEZUGSACHSEN
100
AcDbLine
 62
7
  6
CONTINUOUS
 10
548.0496911964
 20
275.1259807049
 11
526.1315081319
 21
275.1259807049
  0
LINE
  5
2D4
100
AcDbEntity
  8
RUNDUNGEN
100
AcDbLine
 62
7
  6
CONTINUOUS
 10
526.1311012771
 20
275.1259944343
 11
526.1324769523
 21
275.1259901883
  0
LINE
  5
2D5
100
AcDbEntity
  8
BEZUGSACHSEN
100
AcDbLine
 62
7
  6
CONTINUOUS
 10
526.1117696519
 20
275.1260780321
 11
526.1315003241
 21
275.1259807049
  0
LINE
  5
2D6
100
AcDbEntity
  8
BEZUGSACHSEN
100
AcDbLine
 62
7
  6
CONTINUOUS
 10
525.9505507699
 20
275.1341749141
 11
526.1314042975
 21
275.1259807049
  0
LINE
  5
2D7
100
AcDbEntity
  8
RUNDUNGEN
100
AcDbLine
 62
7
  6
CONTINUOUS
 10
525.9499607887
 20
275.1342285744
 11
526.1314042957
 21
275.1259807049
  0
LWPOLYLINE
  5
2D8
100
AcDbEntity
  8
RUNDUNGEN
100
AcDbPolyline
 62
7
  6
CONTINUOUS
 90
6
 70
0
 10
524.8623255209
 20
311.1258822523
 10
524.9858843215
 20
310.472944588
 10
525.1089403762
 20
309.8015257401
 10
525.2294665882
 20
309.1141602023
 10
525.3456245038
 20
308.4131991183
 10
525.4397094864
 20
307.8083572886
  0
LWPOLYLINE
  5
2D9
100
AcDbEntity
  8
RUNDUNGEN
100
AcDbPolyline
 62
7
  6
CONTINUOUS
 90
18
 70
0
 10
525.4397341465
 20
307.8082088201
 10
525.4676147852
 20
307.6422617553
 10
525.516198493
 20
307.4150628666
 10
525.5705794124
 20
307.2159339042
 10
525.6315309443
 20
307.0354660639
 10
525.700568499
 20
306.8672965828
 10
525.7794680534
 20
306.7078175683
 10
525.8718533536
 20
306.5525872078
 10
525.9783717915
 20
306.4041789215
 10
526.1005489419
 20
306.2636838102
 10
526.2375282353
 20
306.1347426604
 10
526.3878135553
 20
306.0203736455
 10
526.5487922197
 20
305.9232542889
 10
526.7166230229
 20
305.8454463558
 10
526.8882912173
 20
305.7874347287
 10
527.0601033838
 20
305.7491241485
 10
527.2289350297
 20
305.7294884406
 10
527.3370690649
 20
305.7259872391
  0
LINE
  5
2DA
100
AcDbEntity
  8
RUNDUNGEN
100
AcDbLine
 62
7
  6
CONTINUOUS
 10
525.4397116868
 20
307.8083576211
 11
525.4397341465
 21
307.8082088201
  0
LINE
  5
2DB
100
AcDbEntity
  8
0
100
AcDbLine
 62
7
  6
CONTINUOUS
 10
541.1315003241
 20
375.6259807049
 11
541.1315003241
 21
326.1259807049
  0
LINE
  5
2DC
100
AcDbEntity
  8
0
100
AcDbLine
 62
7
  6
CONTINUOUS
 10
541.1315003241
 20
275.1259807049
 11
541.1315003241
 21
225.6259807049
  0
LWPOLYLINE
  5
2DD
100
AcDbEntity
  8
BEZUGSACHSEN
100
AcDbPolyline
 62
7
  6
CONTINUOUS
 90
18
 70
0
 10
527.3370714161
 20
295.5259741677
 10
527.227169987
 20
295.522357473
 10
527.0578448216
 20
295.5024555719
 10
526.8857755541
 20
295.4638229906
 10
526.7140433289
 20
295.4054833207
 10
526.5463369297
 20
295.3274001671
 10
526.3856555163
 20
295.2301185387
 10
526.2357586719
 20
295.1157155824
 10
526.0992077748
 20
294.9868781645
 10
525.9774186163
 20
294.846572849
 10
525.8712067763
 20
294.6983831065
 10
525.7790126042
 20
294.5433029219
 10
525.700141548
 20
294.3837172744
 10
525.6310919459
 20
294.2153173797
 10
525.5701093183
 20
294.0344841109
 10
525.515785029
 20
293.8351984271
 10
525.4673981669
 20
293.6085351992
 10
525.4397317905
 20
293.4437370031
  0
LINE
  5
2DE
100
AcDbEntity
  8
BEZUGSACHSEN
100
AcDbLine
 62
7
  6
CONTINUOUS
 10
527.3369132587
 20
295.5259807049
 11
562.7315399984
 21
295.5259807049
  0
LINE
  5
2DF
100
AcDbEntity
  8
0
100
AcDbLine
 62
7
  6
CONTINUOUS
 10
555.1315003241
 20
375.6259807049
 11
555.1315003241
 21
325.6451929042
  0
LINE
  5
2E0
100
AcDbEntity
  8
0
100
AcDbLine
 62
7
  6
CONTINUOUS
 10
555.1315003241
 20
275.6069072672
 11
555.1315003241
 21
225.6259807049
  0
LINE
  5
2E1
100
AcDbEntity
  8
RUNDUNGEN
100
AcDbLine
 62
7
  6
CONTINUOUS
 10
527.3369132587
 20
305.7259807049
 11
562.7315399984
 21
305.7259807049
  0
LINE
  5
2E2
100
AcDbEntity
  8
BEZUGSACHSEN
100
AcDbLine
 62
7
  6
CONTINUOUS
 10
563.7315003241
 20
296.5259399059
 11
563.7315003241
 21
304.7260215038
  0
LWPOLYLINE
  5
2E3
100
AcDbEntity
  8
RUNDUNGEN
100
AcDbPolyline
 62
7
  6
CONTINUOUS
 90
13
 70
0
 10
561.3468338785
 20
295.5259807049
 10
561.3776599604
 20
295.8039662536
 10
561.4643901968
 20
296.7831721391
 10
561.529798998
 20
297.7515080835
 10
561.5754523043
 20
298.7118829964
 10
561.6024646063
 20
299.6675656661
 10
561.6114602037
 20
300.6208986227
 10
561.6026542821
 20
301.5742518662
 10
561.5758325069
 20
302.5299910209
 10
561.5303714002
 20
303.4904603816
 10
561.4651577301
 20
304.4589161235
 10
561.3786272587
 20
305.4382594553
 10
561.3467859558
 20
305.7259807049
  0
LINE
  5
2E4
100
AcDbEntity
  8
0
100
AcDbLine
 62
7
  6
CONTINUOUS
 10
568.1315003241
 20
401.6259807049
 11
568.1315003241
 21
390.6259807049
  0
LINE
  5
2E5
100
AcDbEntity
  8
0
100
AcDbLine
 62
7
  6
CONTINUOUS
 10
568.1315003241
 20
210.6259807049
 11
568.1315003241
 21
199.6259807049
  0
LINE
  5
2E6
100
AcDbEntity
  8
BEZUGSACHSEN
100
AcDbLine
 62
7
  6
CONTINUOUS
 10
552.111786255
 20
276.4377674592
 11
552.1116492742
 21
276.4377013341
  0
LWPOLYLINE
  5
2E7
100
AcDbEntity
  8
BEZUGSACHSEN
100
AcDbPolyline
 62
7
  6
CONTINUOUS
 90
9
 70
0
 10
552.1116492742
 20
276.4377013341
 10
552.4685268116
 20
276.603665693
 10
552.9299178897
 20
276.8013973497
 10
553.4176639053
 20
276.9924531005
 10
553.9301336354
 20
277.1758050989
 10
554.4657263826
 20
277.3505833439
 10
555.0228282345
 20
277.5160334446
 10
555.5995520989
 20
277.671433119
 10
556.0901956355
 20
277.791970667
  0
LWPOLYLINE
  5
2E8
100
AcDbEntity
  8
RUNDUNGEN
100
AcDbPolyline
 62
7
  6
CONTINUOUS
 90
11
 70
0
 10
552.1117840321
 20
324.8141949992
 10
551.6505278643
 20
325.033448401
 10
551.1449936442
 20
325.2640951276
 10
550.6714072242
 20
325.4676622208
 10
550.2268820526
 20
325.6440522148
 10
549.8080591149
 20
325.7933536985
 10
549.4111641075
 20
325.9156550829
 10
549.031203602
 20
326.011038498
 10
548.6648043425
 20
326.0786458898
 10
548.3079190124
 20
326.1172530078
 10
548.0495789843
 20
326.1259806328
  0
LINE
  5
2E9
100
AcDbEntity
  8
RUNDUNGEN
100
AcDbLine
 62
7
  6
CONTINUOUS
 10
552.1117840417
 20
324.8141950191
 11
552.1116491825
 21
324.8142601199
  0
LINE
  5
2EA
100
AcDbEntity
  8
RUNDUNGEN
100
AcDbLine
 62
7
  6
CONTINUOUS
 10
577.9126416693
 20
306.6259807049
 11
577.9126416693
 21
294.6259807049
  0
LINE
  5
2EB
100
AcDbEntity
  8
0
100
AcDbLine
 62
7
  6
CONTINUOUS
 10
536.7917543619
 20
225.6259807049
 11
528.1315003241
 21
210.6259807049
  0
LWPOLYLINE
  5
2EC
100
AcDbEntity
  8
BEZUGSACHSEN
100
AcDbPolyline
 62
7
  6
CONTINUOUS
 90
3
 70
0
 10
571.9192297428
 20
281.5874788872
 10
572.0126311639
 20
281.6542844188
 10
572.025744363
 20
281.6647953145
  0
LWPOLYLINE
  5
2ED
100
AcDbEntity
  8
RUNDUNGEN
100
AcDbPolyline
 62
7
  6
CONTINUOUS
 90
3
 70
0
 10
571.9065275255
 20
281.5793962835
 10
572.0006317913
 20
281.6449257132
 10
572.0108423697
 20
281.6530049806
  0
LINE
  5
2EE
100
AcDbEntity
  8
RUNDUNGEN
100
AcDbLine
 62
7
  6
CONTINUOUS
 10
571.8064938535
 20
281.5231281967
 11
571.9065275255
 21
281.5793962835
  0
LINE
  5
2EF
100
AcDbEntity
  8
RUNDUNGEN
100
AcDbLine
 62
7
  6
CONTINUOUS
 10
571.7015612492
 20
281.4767349217
 11
571.8064938535
 21
281.5231281967
  0
LINE
  5
2F0
100
AcDbEntity
  8
RUNDUNGEN
100
AcDbLine
 62
7
  6
CONTINUOUS
 10
571.5927953665
 20
281.4406454574
 11
571.7015612492
 21
281.4767349217
  0
LWPOLYLINE
  5
2F1
100
AcDbEntity
  8
BEZUGSACHSEN
100
AcDbPolyline
 62
7
  6
CONTINUOUS
 90
15
 70
0
 10
526.1314042957
 20
326.1259807049
 10
525.9280180998
 20
326.1156118047
 10
525.7267407691
 20
326.0846126043
 10
525.5296594408
 20
326.0333045194
 10
525.3388177337
 20
325.9622195536
 10
525.1561945608
 20
325.8720947773
 10
524.9836836623
 20
325.763864716
 10
524.8230738897
 20
325.638651625
 10
524.6760307482
 20
325.4977539254
 10
524.5440790234
 20
325.3426326763
 10
524.4285870119
 20
325.1748964638
 10
524.3307522521
 20
324.996284593
 10
524.2515893347
 20
324.8086495106
 10
524.1919190289
 20
324.6139370327
 10
524.1523599947
 20
324.4141668707
  0
LWPOLYLINE
  5
2F2
100
AcDbEntity
  8
RUNDUNGEN
100
AcDbPolyline
 62
7
  6
CONTINUOUS
 90
19
 70
0
 10
526.1314042975
 20
326.1259807049
 10
525.9499606904
 20
326.1177328262
 10
525.7700135273
 20
326.0930571982
 10
525.5930470678
 20
326.0521573173
 10
525.4205210015
 20
325.9953705061
 10
525.2538583827
 20
325.9231651252
 10
525.0944339438
 20
325.8361367338
 10
524.9435626972
 20
325.7350031595
 10
524.8024891184
 20
325.6205985939
 10
524.6723768416
 20
325.493866684
 10
524.5542991347
 20
325.3558528233
 10
524.4492299479
 20
325.2076954437
 10
524.3580359572
 20
325.0506167294
 10
524.2814693151
 20
324.8859123988
 10
524.2201615493
 20
324.7149412405
 10
524.1746181975
 20
324.5391135643
 10
524.1452147975
 20
324.3598802254
 10
524.1321935484
 20
324.1787202531
 10
524.1315003708
 20
324.1260692235
  0
LINE
  5
2F3
100
AcDbEntity
  8
BEZUGSACHSEN
100
AcDbLine
 62
7
  6
CONTINUOUS
 10
526.1155328741
 20
326.1258997635
 11
526.1117790814
 21
326.1258834706
  0
LINE
  5
2F4
100
AcDbEntity
  8
RUNDUNGEN
100
AcDbLine
 62
7
  6
CONTINUOUS
 10
526.1159138746
 20
326.1259199696
 11
548.0496911964
 21
326.1259807049
  0
LINE
  5
2F5
100
AcDbEntity
  8
0
100
AcDbLine
 62
7
  6
CONTINUOUS
 10
528.2694554953
 20
326.1259807049
 11
548.0496911964
 21
326.1259807049
  0
LINE
  5
2F6
100
AcDbEntity
  8
RUNDUNGEN
100
AcDbLine
 62
7
  6
CONTINUOUS
 10
556.090213091
 20
323.4599866244
 11
571.5437783493
 21
319.8239136581
  0
LWPOLYLINE
  5
2F7
100
AcDbEntity
  8
RUNDUNGEN
100
AcDbPolyline
 62
7
  6
CONTINUOUS
 90
9
 70
0
 10
556.0901955806
 20
323.4599907556
 10
555.5995971076
 20
323.5805167554
 10
555.0228880373
 20
323.73591104
 10
554.465767255
 20
323.9013653371
 10
553.9301436861
 20
324.0761528756
 10
553.4176447791
 20
324.2595154709
 10
552.9298819943
 20
324.4505787692
 10
552.4685002205
 20
324.6483076372
 10
552.1116491825
 20
324.8142601199
  0
LINE
  5
2F8
100
AcDbEntity
  8
BEZUGSACHSEN
100
AcDbLine
 62
7
  6
CONTINUOUS
 10
571.60708053
 20
319.8072274514
 11
571.5443146195
 21
319.8237853095
  0
LINE
  5
2F9
100
AcDbEntity
  8
BEZUGSACHSEN
100
AcDbLine
 62
7
  6
CONTINUOUS
 10
571.7154059563
 20
319.7697851556
 11
571.60708053
 21
319.8072274514
  0
LINE
  5
2FA
100
AcDbEntity
  8
BEZUGSACHSEN
100
AcDbLine
 62
7
  6
CONTINUOUS
 10
571.8198073939
 20
319.7220605904
 11
571.7154059563
 21
319.7697851556
  0
LWPOLYLINE
  5
2FB
100
AcDbEntity
  8
RUNDUNGEN
100
AcDbPolyline
 62
7
  6
CONTINUOUS
 90
5
 70
0
 10
571.9065275255
 20
319.6725651263
 10
571.8064938535
 20
319.728833213
 10
571.7015612492
 20
319.775226488
 10
571.5927953665
 20
319.8113159523
 10
571.5443707892
 20
319.8237721228
  0
LINE
  5
2FC
100
AcDbEntity
  8
BEZUGSACHSEN
100
AcDbLine
 62
7
  6
CONTINUOUS
 10
571.9192297428
 20
319.6644825225
 11
571.8198073939
 21
319.7220605904
  0
LINE
  5
2FD
100
AcDbEntity
  8
BEZUGSACHSEN
100
AcDbLine
 62
7
  6
CONTINUOUS
 10
572.0126311639
 20
319.5976769909
 11
571.9192297428
 21
319.6644825225
  0
LWPOLYLINE
  5
2FE
100
AcDbEntity
  8
RUNDUNGEN
100
AcDbPolyline
 62
7
  6
CONTINUOUS
 90
3
 70
0
 10
572.0257931987
 20
319.5871263699
 10
572.0006317913
 20
319.6070356966
 10
571.9065275255
 20
319.6725651263
  0
LINE
  5
2FF
100
AcDbEntity
  8
BEZUGSACHSEN
100
AcDbLine
 62
7
  6
CONTINUOUS
 10
572.025744363
 20
319.5871660952
 11
572.0126311639
 21
319.5976769909
  0
LINE
  5
300
100
AcDbEntity
  8
RUNDUNGEN
100
AcDbLine
 62
7
  6
CONTINUOUS
 10
572.025768906
 20
319.5871468263
 11
572.025828071
 21
319.5870987115
  0
LINE
  5
301
100
AcDbEntity
  8
0
100
AcDbLine
 62
7
  6
CONTINUOUS
 10
528.1315003241
 20
390.6259807049
 11
536.7917543619
 21
375.6259807049
  0
LINE
  5
302
100
AcDbEntity
  8
0
100
AcDbLine
 62
7
  6
CONTINUOUS
 10
536.7918872319
 20
375.6259807049
 11
559.4711134162
 21
375.6259807049
  0
LINE
  5
303
100
AcDbEntity
  8
0
100
AcDbLine
 62
7
  6
CONTINUOUS
 10
568.1315003241
 20
199.6259807049
 11
557.7391954787
 21
193.6259807049
  0
LINE
  5
304
100
AcDbEntity
  8
0
100
AcDbLine
 62
7
  6
CONTINUOUS
 10
528.1315003241
 20
390.6259807049
 11
568.1315003241
 21
390.6259807049
  0
LINE
  5
305
100
AcDbEntity
  8
0
100
AcDbLine
 62
7
  6
CONTINUOUS
 10
557.7391954787
 20
407.6259807049
 11
568.1315003241
 21
401.6259807049
  0
LINE
  5
306
100
AcDbEntity
  8
0
100
AcDbLine
 62
7
  6
CONTINUOUS
 10
528.1315003241
 20
401.6259807049
 11
568.1315003241
 21
401.6259807049
  0
LINE
  5
307
100
AcDbEntity
  8
0
100
AcDbLine
 62
7
  6
CONTINUOUS
 10
538.5238051695
 20
407.6259807049
 11
557.7391954787
 21
407.6259807049
  0
LINE
  5
308
100
AcDbEntity
  8
BEZUGSACHSEN
100
AcDbLine
 62
7
  6
CONTINUOUS
 10
-71.1797435008
 20
62.9847394823
 11
-69.2457191477
 21
73.9531366345
  0
LINE
  5
309
100
AcDbEntity
  8
RUNDUNGEN
100
AcDbLine
 62
7
  6
CONTINUOUS
 10
-71.1797435008
 20
62.9847394823
 11
-67.5123560948
 21
83.7835270031
  0
LINE
  5
30A
100
AcDbEntity
  8
RUNDUNGEN
100
AcDbLine
 62
7
  6
CONTINUOUS
 10
-52.3839614612
 20
79.8224056037
 11
-63.6256271888
 21
59.5419037823
  0
LINE
  5
30B
100
AcDbEntity
  8
0
100
AcDbLine
 62
7
  6
CONTINUOUS
 10
18.0047535707
 20
93.4584043942
 11
18.0047535707
 21
93.292664368
  0
LINE
  5
30C
100
AcDbEntity
  8
RUNDUNGEN
100
AcDbLine
 62
7
  6
CONTINUOUS
 10
45.9047535707
 20
112.292664368
 11
45.9047535707
 21
64.292664368
  0
LINE
  5
30D
100
AcDbEntity
  8
RUNDUNGEN
100
AcDbLine
 62
7
  6
CONTINUOUS
 10
52.9047535707
 20
62.792664368
 11
52.9047535707
 21
113.792664368
  0
LINE
  5
30E
100
AcDbEntity
  8
RUNDUNGEN
100
AcDbLine
 62
7
  6
CONTINUOUS
 10
-66.3444858436
 20
58.7622836085
 11
-70.1797472353
 21
60.8882037126
  0
LINE
  5
30F
100
AcDbEntity
  8
RUNDUNGEN
100
AcDbLine
 62
7
  6
CONTINUOUS
 10
74.4047535707
 20
111.2925655977
 11
74.4047535707
 21
65.292664368
  0
LINE
  5
310
100
AcDbEntity
  8
RUNDUNGEN
100
AcDbLine
 62
7
  6
CONTINUOUS
 10
78.9047535707
 20
64.2926643681
 11
78.9047535707
 21
65.3811422002
  0
LINE
  5
311
100
AcDbEntity
  8
BEZUGSACHSEN
100
AcDbLine
 62
7
  6
CONTINUOUS
 10
16.5039312557
 20
75.6913369896
 11
17.0550061024
 21
76.2424118364
  0
LINE
  5
312
100
AcDbEntity
  8
0
100
AcDbLine
 62
7
  6
CONTINUOUS
 10
88.3329015775
 20
112.292664368
 11
88.3329015775
 21
88.292664368
  0
LINE
  5
313
100
AcDbEntity
  8
RUNDUNGEN
100
AcDbLine
 62
7
  6
CONTINUOUS
 10
88.3329015775
 20
88.292664368
 11
88.3329015775
 21
65.3811422002
  0
LINE
  5
314
100
AcDbEntity
  8
BEZUGSACHSEN
100
AcDbLine
 62
7
  6
CONTINUOUS
 10
15.6570840286
 20
101.7408389735
 11
17.0550061024
 21
100.3429168997
  0
LINE
  5
315
100
AcDbEntity
  8
0
100
AcDbLine
 62
7
  6
CONTINUOUS
 10
117.9047535707
 20
107.292664368
 11
117.9047535707
 21
107.867137541
  0
LWPOLYLINE
  5
316
100
AcDbEntity
  8
RUNDUNGEN
100
AcDbPolyline
 62
7
  6
CONTINUOUS
 90
4
 70
0
 10
100.8641059512
 20
71.7519677446
 10
100.8631454205
 20
71.7491611653
 10
100.8599687543
 20
71.7404761678
 10
100.8672989303
 20
71.7562473027
  0
LINE
  5
317
100
AcDbEntity
  8
0
100
AcDbLine
 62
7
  6
CONTINUOUS
 10
125.9047535707
 20
105.9561861007
 11
125.9047535707
 21
106.6000399309
  0
LINE
  5
318
100
AcDbEntity
  8
0
100
AcDbLine
 62
7
  6
CONTINUOUS
 10
133.9047535707
 20
107.292664368
 11
133.9047535707
 21
107.867137541
  0
LINE
  5
319
100
AcDbEntity
  8
RUNDUNGEN
100
AcDbLine
 62
7
  6
CONTINUOUS
 10
100.8672989303
 20
71.7562473027
 11
100.8890522719
 21
71.7974442278
  0
LINE
  5
31A
100
AcDbEntity
  8
RUNDUNGEN
100
AcDbLine
 62
7
  6
CONTINUOUS
 10
100.8875581289
 20
71.7947640758
 11
100.9247301828
 21
71.8578285028
  0
LWPOLYLINE
  5
31B
100
AcDbEntity
  8
RUNDUNGEN
100
AcDbPolyline
 62
7
  6
CONTINUOUS
 90
27
 70
0
 10
100.9223775415
 20
71.8540185814
 10
100.9727184956
 20
71.9318823286
 10
101.0398490651
 20
72.0273612525
 10
101.1245886886
 20
72.139187629
 10
101.2279959384
 20
72.2666856414
 10
101.3510001882
 20
72.4090939038
 10
101.4945823534
 20
72.5657280588
 10
101.6601100243
 20
72.7362713578
 10
101.8469494043
 20
72.9183247238
 10
102.0547866214
 20
73.1099097366
 10
102.282221222
 20
73.3081640856
 10
102.5275103545
 20
73.5101220317
 10
102.7887693737
 20
73.7128213916
 10
103.0636928237
 20
73.9131518432
 10
103.3496374284
 20
74.1079918127
 10
103.6431392893
 20
74.2939664271
 10
103.9420817114
 20
74.468867513
 10
104.2425029803
 20
74.6297623949
 10
104.5451152998
 20
74.7765417428
 10
104.8492658149
 20
74.9081450877
 10
105.155547187
 20
75.0240801445
 10
105.4645545646
 20
75.1235891056
 10
105.7754675303
 20
75.2053285638
 10
106.0883535659
 20
75.2683900956
 10
106.4012278447
 20
75.3115487908
 10
106.7128154348
 20
75.3343363406
 10
106.9047535708
 20
75.3382201176
  0
LINE
  5
31C
100
AcDbEntity
  8
RUNDUNGEN
100
AcDbLine
 62
7
  6
CONTINUOUS
 10
88.3330436019
 20
65.2912474304
 11
94.1845949319
 21
69.3893023662
  0
LINE
  5
31D
100
AcDbEntity
  8
RUNDUNGEN
100
AcDbLine
 62
7
  6
CONTINUOUS
 10
94.1845949311
 20
69.3893022162
 11
94.2141848407
 21
69.4099262151
  0
LINE
  5
31E
100
AcDbEntity
  8
RUNDUNGEN
100
AcDbLine
 62
7
  6
CONTINUOUS
 10
94.2141848407
 20
69.4099262151
 11
94.2995865158
 21
69.4677087938
  0
LINE
  5
31F
100
AcDbEntity
  8
RUNDUNGEN
100
AcDbLine
 62
7
  6
CONTINUOUS
 10
94.2895061856
 20
69.4610208893
 11
94.3727391984
 21
69.5151686124
  0
LINE
  5
320
100
AcDbEntity
  8
RUNDUNGEN
100
AcDbLine
 62
7
  6
CONTINUOUS
 10
94.3656843346
 20
69.5107048897
 11
94.4058497775
 21
69.5361181937
  0
LINE
  5
321
100
AcDbEntity
  8
RUNDUNGEN
100
AcDbLine
 62
7
  6
CONTINUOUS
 10
94.4058560097
 20
69.536095298
 11
94.6042861952
 21
69.6532904124
  0
LINE
  5
322
100
AcDbEntity
  8
RUNDUNGEN
100
AcDbLine
 62
7
  6
CONTINUOUS
 10
94.5935117524
 20
69.6472509338
 11
94.932045401
 21
69.8185609831
  0
LINE
  5
323
100
AcDbEntity
  8
0
100
AcDbLine
 62
7
  6
CONTINUOUS
 10
88.3329015775
 20
112.292664368
 11
94.1822533738
 21
108.1969041466
  0
LINE
  5
324
100
AcDbEntity
  8
RUNDUNGEN
100
AcDbLine
 62
7
  6
CONTINUOUS
 10
94.9205894798
 20
69.8133382806
 11
95.2772957518
 21
69.9594064461
  0
LINE
  5
325
100
AcDbEntity
  8
0
100
AcDbLine
 62
7
  6
CONTINUOUS
 10
187.741185057
 20
107.4132791265
 11
188.4521511163
 21
107.6720496096
  0
LINE
  5
326
100
AcDbEntity
  8
RUNDUNGEN
100
AcDbLine
 62
7
  6
CONTINUOUS
 10
95.2652101478
 20
69.9550098964
 11
95.6383817663
 21
70.0748432797
  0
LINE
  5
327
100
AcDbEntity
  8
RUNDUNGEN
100
AcDbLine
 62
7
  6
CONTINUOUS
 10
232.3216447529
 20
74.3407447512
 11
232.6806326739
 21
74.434959619
  0
LINE
  5
328
100
AcDbEntity
  8
RUNDUNGEN
100
AcDbLine
 62
7
  6
CONTINUOUS
 10
47.9047535707
 20
62.292664368
 11
52.4047535707
 21
62.292664368
  0
LINE
  5
329
100
AcDbEntity
  8
BEZUGSACHSEN
100
AcDbLine
 62
7
  6
CONTINUOUS
 10
47.9047535707
 20
62.292664368
 11
52.4047535707
 21
62.292664368
  0
LINE
  5
32A
100
AcDbEntity
  8
0
100
AcDbLine
 62
7
  6
CONTINUOUS
 10
75.4047535707
 20
64.292664368
 11
78.9047535707
 21
64.292664368
  0
LINE
  5
32B
100
AcDbEntity
  8
RUNDUNGEN
100
AcDbLine
 62
7
  6
CONTINUOUS
 10
88.328173319
 20
65.2904357142
 11
78.9047535707
 21
65.2904357142
  0
LINE
  5
32C
100
AcDbEntity
  8
0
100
AcDbLine
 62
7
  6
CONTINUOUS
 10
197.9047535707
 20
68.792664368
 11
207.5067128408
 21
68.792664368
  0
LINE
  5
32D
100
AcDbEntity
  8
0
100
AcDbLine
 62
7
  6
CONTINUOUS
 10
216.3027943006
 20
68.792664368
 11
225.9047535707
 21
68.792664368
  0
LINE
  5
32E
100
AcDbEntity
  8
0
100
AcDbLine
 62
7
  6
CONTINUOUS
 10
328.9388210576
 20
68.792664368
 11
349.4047535707
 21
68.792664368
  0
LINE
  5
32F
100
AcDbEntity
  8
0
100
AcDbLine
 62
7
  6
CONTINUOUS
 10
324.9047535707
 20
69.292664368
 11
326.7593715859
 21
69.292664368
  0
LINE
  5
330
100
AcDbEntity
  8
RUNDUNGEN
100
AcDbLine
 62
7
  6
CONTINUOUS
 10
187.8008907221
 20
75.0277940114
 11
188.1808836799
 21
74.8201936165
  0
LINE
  5
331
100
AcDbEntity
  8
RUNDUNGEN
100
AcDbLine
 62
7
  6
CONTINUOUS
 10
187.4558903694
 20
75.2180744549
 11
187.8067356243
 21
75.0245920615
  0
LINE
  5
332
100
AcDbEntity
  8
RUNDUNGEN
100
AcDbLine
 62
7
  6
CONTINUOUS
 10
195.785094944
 20
71.4451650271
 11
195.855329011
 21
71.3491450847
  0
LINE
  5
333
100
AcDbEntity
  8
RUNDUNGEN
100
AcDbLine
 62
7
  6
CONTINUOUS
 10
195.8522885528
 20
71.3534864314
 11
195.9036925726
 21
71.2770029698
  0
LWPOLYLINE
  5
334
100
AcDbEntity
  8
RUNDUNGEN
100
AcDbPolyline
 62
7
  6
CONTINUOUS
 90
3
 70
0
 10
195.9015284121
 20
71.2803828189
 10
195.9344927886
 20
71.2265982424
 10
195.9443702878
 20
71.2091502158
  0
LINE
  5
335
100
AcDbEntity
  8
RUNDUNGEN
100
AcDbLine
 62
7
  6
CONTINUOUS
 10
195.9047535707
 20
71.2751206598
 11
195.9047535707
 21
70.7927396205
  0
LINE
  5
336
100
AcDbEntity
  8
RUNDUNGEN
100
AcDbLine
 62
7
  6
CONTINUOUS
 10
232.6702751055
 20
74.4325651342
 11
233.0290364189
 21
74.5040871236
  0
LINE
  5
337
100
AcDbEntity
  8
RUNDUNGEN
100
AcDbLine
 62
7
  6
CONTINUOUS
 10
96.0000825121
 20
70.161262437
 11
96.3994152695
 21
70.225510815
  0
LINE
  5
338
100
AcDbEntity
  8
RUNDUNGEN
100
AcDbLine
 62
7
  6
CONTINUOUS
 10
233.0183335561
 20
74.5022972467
 11
233.3731898956
 21
74.5502301912
  0
LWPOLYLINE
  5
339
100
AcDbEntity
  8
RUNDUNGEN
100
AcDbPolyline
 62
7
  6
CONTINUOUS
 90
9
 70
0
 10
410.0477823102
 20
102.6105426202
 10
409.8094253006
 20
102.5829546182
 10
409.5740313295
 20
102.5364046606
 10
409.3431104204
 20
102.4711908127
 10
409.1181399057
 20
102.3877302378
 10
408.9005590553
 20
102.2865568373
 10
408.6917598559
 20
102.1683178276
 10
408.4930781216
 20
102.0337696055
 10
408.3057849472
 20
101.8837729105
  0
LINE
  5
33A
100
AcDbEntity
  8
RUNDUNGEN
100
AcDbLine
 62
7
  6
CONTINUOUS
 10
96.3865693116
 20
70.2239267123
 11
96.7958573131
 21
70.2589098936
  0
LINE
  5
33B
100
AcDbEntity
  8
RUNDUNGEN
100
AcDbLine
 62
7
  6
CONTINUOUS
 10
233.3622585056
 20
74.5491067611
 11
233.7089929112
 21
74.5736140633
  0
LINE
  5
33C
100
AcDbEntity
  8
RUNDUNGEN
100
AcDbLine
 62
7
  6
CONTINUOUS
 10
96.7832067644
 20
70.2583031157
 11
97.0501355557
 21
70.264887107
  0
LINE
  5
33D
100
AcDbEntity
  8
RUNDUNGEN
100
AcDbLine
 62
7
  6
CONTINUOUS
 10
233.6980285416
 20
74.5731926986
 11
233.904753571
 21
74.5772918232
  0
LINE
  5
33E
100
AcDbEntity
  8
RUNDUNGEN
100
AcDbLine
 62
7
  6
CONTINUOUS
 10
97.0501355557
 20
70.2648865903
 11
98.9325740489
 21
70.2648865903
  0
LINE
  5
33F
100
AcDbEntity
  8
RUNDUNGEN
100
AcDbLine
 62
7
  6
CONTINUOUS
 10
189.136191403
 20
74.5772898542
 11
189.9047541523
 21
74.5772898542
  0
LINE
  5
340
100
AcDbEntity
  8
RUNDUNGEN
100
AcDbLine
 62
7
  6
CONTINUOUS
 10
233.9047535707
 20
74.5772898542
 11
234.6733157385
 21
74.5772898542
  0
LINE
  5
341
100
AcDbEntity
  8
RUNDUNGEN
100
AcDbLine
 62
7
  6
CONTINUOUS
 10
106.9047535707
 20
75.3382132179
 11
187.057142929
 21
75.3382132179
  0
LINE
  5
342
100
AcDbEntity
  8
RUNDUNGEN
100
AcDbLine
 62
7
  6
CONTINUOUS
 10
236.752362371
 20
75.3382132179
 11
316.9047526975
 21
75.3382132179
  0
LINE
  5
343
100
AcDbEntity
  8
BEZUGSACHSEN
100
AcDbLine
 62
7
  6
CONTINUOUS
 10
22.0047535707
 20
78.292664368
 11
45.9047535707
 21
78.292664368
  0
LINE
  5
344
100
AcDbEntity
  8
BEZUGSACHSEN
100
AcDbLine
 62
7
  6
CONTINUOUS
 10
52.9047535707
 20
78.292664368
 11
74.4047535707
 21
78.292664368
  0
LINE
  5
345
100
AcDbEntity
  8
BEZUGSACHSEN
100
AcDbLine
 62
7
  6
CONTINUOUS
 10
350.4047535707
 20
78.292664368
 11
401.8047535707
 21
78.292664368
  0
LINE
  5
346
100
AcDbEntity
  8
RUNDUNGEN
100
AcDbLine
 62
7
  6
CONTINUOUS
 10
-13.0952585082
 20
87.292664368
 11
-39.7019766733
 21
87.292664368
  0
LINE
  5
347
100
AcDbEntity
  8
BEZUGSACHSEN
100
AcDbLine
 62
7
  6
CONTINUOUS
 10
436.9047656497
 20
87.292664368
 11
463.5114838148
 21
87.292664368
  0
LWPOLYLINE
  5
348
100
AcDbEntity
  8
RUNDUNGEN
100
AcDbPolyline
 62
7
  6
CONTINUOUS
 90
24
 70
0
 10
189.9047541556
 20
74.5772917596
 10
190.100582978
 20
74.5736135906
 10
190.4362915016
 20
74.5502313284
 10
190.7801071293
 20
74.5041483685
 10
191.1280340166
 20
74.4351531418
 10
191.4765332846
 20
74.3440673758
 10
191.8221239191
 20
74.2326656173
 10
192.1607113398
 20
74.1037763033
 10
192.49127641
 20
73.9596000551
 10
192.8122714689
 20
73.8026433813
 10
193.1229205062
 20
73.6350725362
 10
193.4227628265
 20
73.4587766976
 10
193.71059753
 20
73.2759878181
 10
193.9857036918
 20
73.0885933349
 10
194.2470586624
 20
72.8986134073
 10
194.4942392496
 20
72.7075594539
 10
194.7251842104
 20
72.5181960645
 10
194.9387451705
 20
72.3326670055
 10
195.1330659966
 20
72.1538575381
 10
195.3069831326
 20
71.9842245823
 10
195.4594269853
 20
71.8263614531
 10
195.5897846894
 20
71.6826639016
 10
195.6982583984
 20
71.5549134816
 10
195.785094944
 20
71.4451650271
  0
LWPOLYLINE
  5
349
100
AcDbEntity
  8
RUNDUNGEN
100
AcDbPolyline
 62
7
  6
CONTINUOUS
 90
24
 70
0
 10
316.9047526949
 20
75.338220218
 10
317.1057577738
 20
75.3339605889
 10
317.4374457375
 20
75.3083802253
 10
317.7720558153
 20
75.2594704031
 10
318.1072708752
 20
75.1877648005
 10
318.4407618782
 20
75.0946579885
 10
318.7699796428
 20
74.9821523986
 10
319.0919167222
 20
74.8531623626
 10
319.4062124144
 20
74.7096873554
 10
319.7121442409
 20
74.5539001861
 10
320.0096373399
 20
74.387496808
 10
320.2988687129
 20
74.2117566003
 10
320.5790489604
 20
74.0284344035
 10
320.8497137639
 20
73.8389646965
 10
321.1101787637
 20
73.6448133634
 10
321.3604153566
 20
73.4468244247
 10
321.5978342207
 20
73.2478540494
 10
321.8212408211
 20
73.0497411964
 10
322.0272209077
 20
72.8564513208
 10
322.2136724499
 20
72.6711807426
 10
322.3786337384
 20
72.497345367
 10
322.5205769982
 20
72.3383182155
 10
322.6398163253
 20
72.1958246235
 10
322.7363460927
 20
72.0722829053
  0
LWPOLYLINE
  5
34A
100
AcDbEntity
  8
RUNDUNGEN
100
AcDbPolyline
 62
7
  6
CONTINUOUS
 90
9
 70
0
 10
187.0571429247
 20
75.338213104
 10
187.1037495202
 20
75.3363468016
 10
187.1571073567
 20
75.3296940612
 10
187.2107619695
 20
75.3184577994
 10
187.2656446348
 20
75.3026033429
 10
187.3205412512
 20
75.2827008484
 10
187.3760218506
 20
75.2587819005
 10
187.4324466553
 20
75.230757757
 10
187.4558813436
 20
75.2180701601
  0
LINE
  5
34B
100
AcDbEntity
  8
RUNDUNGEN
100
AcDbLine
 62
7
  6
CONTINUOUS
 10
227.9047535707
 20
71.2752405381
 11
227.9047535707
 21
70.792664368
  0
LWPOLYLINE
  5
34C
100
AcDbEntity
  8
RUNDUNGEN
100
AcDbPolyline
 62
7
  6
CONTINUOUS
 90
4
 70
0
 10
227.8509358522
 20
71.1818402676
 10
227.8503367353
 20
71.1804323343
 10
227.855843414
 20
71.1917090472
 10
227.8738140521
 20
71.2245223218
  0
LINE
  5
34D
100
AcDbEntity
  8
RUNDUNGEN
100
AcDbLine
 62
7
  6
CONTINUOUS
 10
229.3053505025
 20
72.6996506467
 11
229.5581375594
 21
72.8953781452
  0
LINE
  5
34E
100
AcDbEntity
  8
RUNDUNGEN
100
AcDbLine
 62
7
  6
CONTINUOUS
 10
229.5519605388
 20
72.8907373665
 11
229.819402045
 21
73.0854920095
  0
LINE
  5
34F
100
AcDbEntity
  8
RUNDUNGEN
100
AcDbLine
 62
7
  6
CONTINUOUS
 10
229.8128751803
 20
73.0808869256
 11
230.0945503746
 21
73.2731161922
  0
LINE
  5
350
100
AcDbEntity
  8
RUNDUNGEN
100
AcDbLine
 62
7
  6
CONTINUOUS
 10
230.0876568185
 20
73.2685686708
 11
230.3825454364
 21
73.4562058627
  0
LINE
  5
351
100
AcDbEntity
  8
RUNDUNGEN
100
AcDbLine
 62
7
  6
CONTINUOUS
 10
230.3752729068
 20
73.45174711
 11
230.6826606666
 21
73.6328567044
  0
LINE
  5
352
100
AcDbEntity
  8
RUNDUNGEN
100
AcDbLine
 62
7
  6
CONTINUOUS
 10
230.6749919677
 20
73.6285211167
 11
230.993688047
 21
73.8008174317
  0
LINE
  5
353
100
AcDbEntity
  8
RUNDUNGEN
100
AcDbLine
 62
7
  6
CONTINUOUS
 10
230.9856024636
 20
73.796645102
 11
231.3151453602
 21
73.9581705385
  0
LINE
  5
354
100
AcDbEntity
  8
RUNDUNGEN
100
AcDbLine
 62
7
  6
CONTINUOUS
 10
231.306623263
 20
73.9542137051
 11
231.6462247172
 21
74.1027226663
  0
LINE
  5
355
100
AcDbEntity
  8
RUNDUNGEN
100
AcDbLine
 62
7
  6
CONTINUOUS
 10
231.6372516873
 20
74.0990438166
 11
231.9853695968
 21
74.2319562981
  0
LINE
  5
356
100
AcDbEntity
  8
RUNDUNGEN
100
AcDbLine
 62
7
  6
CONTINUOUS
 10
231.9759364741
 20
74.2286239091
 11
232.3315640671
 21
74.3436570036
  0
LINE
  5
357
100
AcDbEntity
  8
RUNDUNGEN
100
AcDbLine
 62
7
  6
CONTINUOUS
 10
95.6258043474
 20
70.0713331009
 11
96.0129290815
 21
70.163818312
  0
LINE
  5
358
100
AcDbEntity
  8
0
100
AcDbLine
 62
7
  6
CONTINUOUS
 10
18.0047535707
 20
93.292664368
 11
45.9047535707
 21
93.292664368
  0
LINE
  5
359
100
AcDbEntity
  8
0
100
AcDbLine
 62
7
  6
CONTINUOUS
 10
52.9047535707
 20
93.292664368
 11
74.4047535707
 21
93.292664368
  0
LINE
  5
35A
100
AcDbEntity
  8
0
100
AcDbLine
 62
7
  6
CONTINUOUS
 10
23.0047535707
 20
96.9529184059
 11
45.9047535707
 21
96.9529184059
  0
LINE
  5
35B
100
AcDbEntity
  8
0
100
AcDbLine
 62
7
  6
CONTINUOUS
 10
52.9047535707
 20
96.9529184059
 11
74.4047535707
 21
96.9529184059
  0
LINE
  5
35C
100
AcDbEntity
  8
BEZUGSACHSEN
100
AcDbLine
 62
7
  6
CONTINUOUS
 10
22.0047535707
 20
98.292664368
 11
45.9047535707
 21
98.292664368
  0
LINE
  5
35D
100
AcDbEntity
  8
BEZUGSACHSEN
100
AcDbLine
 62
7
  6
CONTINUOUS
 10
52.9047535707
 20
98.292664368
 11
74.4047535707
 21
98.292664368
  0
LINE
  5
35E
100
AcDbEntity
  8
BEZUGSACHSEN
100
AcDbLine
 62
7
  6
CONTINUOUS
 10
350.4047535707
 20
98.292664368
 11
401.8047535707
 21
98.292664368
  0
LINE
  5
35F
100
AcDbEntity
  8
RUNDUNGEN
100
AcDbLine
 62
7
  6
CONTINUOUS
 10
267.9046824432
 20
105.792664368
 11
241.9047381046
 21
105.792664368
  0
LINE
  5
360
100
AcDbEntity
  8
0
100
AcDbLine
 62
7
  6
CONTINUOUS
 10
242.4047535707
 20
106.492664368
 11
250.2047535707
 21
106.492664368
  0
LINE
  5
361
100
AcDbEntity
  8
0
100
AcDbLine
 62
7
  6
CONTINUOUS
 10
251.4047535707
 20
106.492664368
 11
258.6047535707
 21
106.492664368
  0
LINE
  5
362
100
AcDbEntity
  8
0
100
AcDbLine
 62
7
  6
CONTINUOUS
 10
260.4047535707
 20
106.492664368
 11
267.7547535707
 21
106.492664368
  0
LINE
  5
363
100
AcDbEntity
  8
0
100
AcDbLine
 62
7
  6
CONTINUOUS
 10
97.0501355556
 20
107.292664368
 11
118.9047220328
 21
107.292664368
  0
LINE
  5
364
100
AcDbEntity
  8
0
100
AcDbLine
 62
7
  6
CONTINUOUS
 10
132.9047851087
 20
107.292664368
 11
187.0571447704
 21
107.292664368
  0
LINE
  5
365
100
AcDbEntity
  8
0
100
AcDbLine
 62
7
  6
CONTINUOUS
 10
236.752362371
 20
107.292664368
 11
238.7865757594
 21
107.292664368
  0
LINE
  5
366
100
AcDbEntity
  8
0
100
AcDbLine
 62
7
  6
CONTINUOUS
 10
271.0227886848
 20
107.292664368
 11
326.7593715859
 21
107.292664368
  0
LINE
  5
367
100
AcDbEntity
  8
0
100
AcDbLine
 62
7
  6
CONTINUOUS
 10
189.136191403
 20
107.792664368
 11
207.5067128408
 21
107.792664368
  0
LINE
  5
368
100
AcDbEntity
  8
0
100
AcDbLine
 62
7
  6
CONTINUOUS
 10
216.3027943006
 20
107.792664368
 11
234.6733157385
 21
107.792664368
  0
LINE
  5
369
100
AcDbEntity
  8
0
100
AcDbLine
 62
7
  6
CONTINUOUS
 10
328.9388210576
 20
107.792664368
 11
349.4047535707
 21
107.792664368
  0
LINE
  5
36A
100
AcDbEntity
  8
0
100
AcDbLine
 62
7
  6
CONTINUOUS
 10
118.9041835312
 20
107.892664368
 11
132.9053236862
 21
107.892664368
  0
LINE
  5
36B
100
AcDbEntity
  8
0
100
AcDbLine
 62
7
  6
CONTINUOUS
 10
132.8989301778
 20
107.8918726482
 11
133.9047535707
 21
107.867137541
  0
LINE
  5
36C
100
AcDbEntity
  8
0
100
AcDbLine
 62
7
  6
CONTINUOUS
 10
242.4047535707
 20
105.792664368
 11
242.4047535707
 21
106.492664368
  0
LINE
  5
36D
100
AcDbEntity
  8
0
100
AcDbLine
 62
7
  6
CONTINUOUS
 10
243.9047535707
 20
105.792664368
 11
243.9047535707
 21
106.492664368
  0
LINE
  5
36E
100
AcDbEntity
  8
0
100
AcDbLine
 62
7
  6
CONTINUOUS
 10
248.4727027631
 20
105.792664368
 11
248.4727027631
 21
106.492664368
  0
LINE
  5
36F
100
AcDbEntity
  8
0
100
AcDbLine
 62
7
  6
CONTINUOUS
 10
250.2047535707
 20
105.792664368
 11
250.2047535707
 21
106.492664368
  0
LINE
  5
370
100
AcDbEntity
  8
0
100
AcDbLine
 62
7
  6
CONTINUOUS
 10
251.4047535707
 20
105.792664368
 11
251.4047535707
 21
106.492664368
  0
LINE
  5
371
100
AcDbEntity
  8
RUNDUNGEN
100
AcDbLine
 62
7
  6
CONTINUOUS
 10
227.8738140521
 20
71.2245223218
 11
227.9076393611
 21
71.2798539678
  0
LINE
  5
372
100
AcDbEntity
  8
RUNDUNGEN
100
AcDbLine
 62
7
  6
CONTINUOUS
 10
227.906125192
 20
71.2774889954
 11
227.956681093
 21
71.3527181284
  0
LINE
  5
373
100
AcDbEntity
  8
RUNDUNGEN
100
AcDbLine
 62
7
  6
CONTINUOUS
 10
227.9546777095
 20
71.3498618957
 11
228.0236495071
 21
71.4441586596
  0
LINE
  5
374
100
AcDbEntity
  8
RUNDUNGEN
100
AcDbLine
 62
7
  6
CONTINUOUS
 10
228.0211289288
 20
71.4408454744
 11
228.110205078
 21
71.5536407011
  0
LINE
  5
375
100
AcDbEntity
  8
RUNDUNGEN
100
AcDbLine
 62
7
  6
CONTINUOUS
 10
228.1071735373
 20
71.5499328298
 11
228.2183319662
 21
71.6810764695
  0
LINE
  5
376
100
AcDbEntity
  8
RUNDUNGEN
100
AcDbLine
 62
7
  6
CONTINUOUS
 10
228.214790379
 20
71.6770357663
 11
228.3482733329
 21
71.8244280175
  0
LINE
  5
377
100
AcDbEntity
  8
RUNDUNGEN
100
AcDbLine
 62
7
  6
CONTINUOUS
 10
228.3442537852
 20
71.8201276356
 11
228.5002370869
 21
71.9819250494
  0
LINE
  5
378
100
AcDbEntity
  8
RUNDUNGEN
100
AcDbLine
 62
7
  6
CONTINUOUS
 10
228.4957999063
 20
71.9774573031
 11
228.6736540891
 21
72.1512141085
  0
LINE
  5
379
100
AcDbEntity
  8
RUNDUNGEN
100
AcDbLine
 62
7
  6
CONTINUOUS
 10
228.668832145
 20
72.146638939
 11
228.8674785436
 21
72.3297291365
  0
LINE
  5
37A
100
AcDbEntity
  8
RUNDUNGEN
100
AcDbLine
 62
7
  6
CONTINUOUS
 10
228.8623061621
 20
72.3250955517
 11
229.0805906583
 21
72.5150425921
  0
LINE
  5
37B
100
AcDbEntity
  8
RUNDUNGEN
100
AcDbLine
 62
7
  6
CONTINUOUS
 10
229.0750850137
 20
72.510387228
 11
229.311188375
 21
72.7043086453
  0
LWPOLYLINE
  5
37C
100
AcDbEntity
  8
RUNDUNGEN
100
AcDbPolyline
 62
7
  6
CONTINUOUS
 90
9
 70
0
 10
235.9969163564
 20
75.0213714926
 10
236.3641206549
 20
75.2238272162
 10
236.4209912584
 20
75.2528912639
 10
236.4768993454
 20
75.2778150784
 10
236.5322677544
 20
75.2987252922
 10
236.5876242663
 20
75.3155894402
 10
236.641813337
 20
75.3278271102
 10
236.6957473549
 20
75.3354598778
 10
236.7523623695
 20
75.3382132634
  0
LINE
  5
37D
100
AcDbEntity
  8
RUNDUNGEN
100
AcDbLine
 62
7
  6
CONTINUOUS
 10
235.6286234596
 20
74.8201936156
 11
236.0027751664
 21
75.0245940646
  0
LINE
  5
37E
100
AcDbEntity
  8
0
100
AcDbLine
 62
7
  6
CONTINUOUS
 10
117.9047535707
 20
107.867137541
 11
118.9105708655
 21
107.8918740545
  0
LINE
  5
37F
100
AcDbEntity
  8
BEZUGSACHSEN
100
AcDbLine
 62
7
  6
CONTINUOUS
 10
457.3459880136
 20
112.292664368
 11
436.9047535707
 21
112.292664368
  0
LINE
  5
380
100
AcDbEntity
  8
RUNDUNGEN
100
AcDbLine
 62
7
  6
CONTINUOUS
 10
-33.5364808713
 20
112.292664368
 11
-13.0952464293
 21
112.292664368
  0
LINE
  5
381
100
AcDbEntity
  8
0
100
AcDbLine
 62
7
  6
CONTINUOUS
 10
75.4047535707
 20
112.292664368
 11
88.3329015775
 21
112.292664368
  0
LINE
  5
382
100
AcDbEntity
  8
RUNDUNGEN
100
AcDbLine
 62
7
  6
CONTINUOUS
 10
47.9047535707
 20
114.292664368
 11
52.4047535707
 21
114.292664368
  0
LINE
  5
383
100
AcDbEntity
  8
BEZUGSACHSEN
100
AcDbLine
 62
7
  6
CONTINUOUS
 10
47.9047535707
 20
114.292664368
 11
52.4047535707
 21
114.292664368
  0
LINE
  5
384
100
AcDbEntity
  8
0
100
AcDbLine
 62
7
  6
CONTINUOUS
 10
235.3573560251
 20
107.6720496096
 11
236.0683220844
 21
107.4132791265
  0
LWPOLYLINE
  5
385
100
AcDbEntity
  8
RUNDUNGEN
100
AcDbPolyline
 62
7
  6
CONTINUOUS
 90
11
 70
0
 10
240.3435034464
 20
106.5426643474
 10
240.2142822037
 20
106.688835991
 10
240.0713589526
 20
106.8217845757
 10
239.91614707
 20
106.9401736792
 10
239.7501234946
 20
107.0428727405
 10
239.5748686659
 20
107.1289004674
 10
239.3920510728
 20
107.1974344055
 10
239.2034118029
 20
107.2478185402
 10
239.0107479759
 20
107.279569654
 10
238.8158955597
 20
107.2923820343
 10
238.7822530066
 20
107.2926650095
  0
LINE
  5
386
100
AcDbEntity
  8
0
100
AcDbLine
 62
7
  6
CONTINUOUS
 10
258.6047535707
 20
105.792664368
 11
258.6047535707
 21
106.492664368
  0
LINE
  5
387
100
AcDbEntity
  8
0
100
AcDbLine
 62
7
  6
CONTINUOUS
 10
260.4047535707
 20
105.792664368
 11
260.4047535707
 21
106.492664368
  0
LINE
  5
388
100
AcDbEntity
  8
0
100
AcDbLine
 62
7
  6
CONTINUOUS
 10
267.7547535707
 20
105.792664368
 11
267.7547535707
 21
106.492664368
  0
LINE
  5
389
100
AcDbEntity
  8
RUNDUNGEN
100
AcDbLine
 62
7
  6
CONTINUOUS
 10
322.7363460927
 20
72.0722829053
 11
322.8153716382
 21
71.9631872347
  0
LWPOLYLINE
  5
38A
100
AcDbEntity
  8
RUNDUNGEN
100
AcDbPolyline
 62
7
  6
CONTINUOUS
 90
4
 70
0
 10
322.8125808948
 20
71.9672016653
 10
322.8704134075
 20
71.880667923
 10
322.9111506664
 20
71.8138231048
 10
322.9241709942
 20
71.7907426172
  0
LINE
  5
38B
100
AcDbEntity
  8
RUNDUNGEN
100
AcDbLine
 62
7
  6
CONTINUOUS
 10
322.9047535707
 20
71.82431995
 11
322.9047535707
 21
71.292664368
  0
LINE
  5
38C
100
AcDbEntity
  8
0
100
AcDbLine
 62
7
  6
CONTINUOUS
 10
328.9388210576
 20
107.792664368
 11
328.9388210576
 21
68.792664368
  0
LINE
  5
38D
100
AcDbEntity
  8
BEZUGSACHSEN
100
AcDbLine
 62
7
  6
CONTINUOUS
 10
406.754501039
 20
100.3429168997
 11
408.1576577368
 21
101.7460735976
  0
LINE
  5
38E
100
AcDbEntity
  8
RUNDUNGEN
100
AcDbLine
 62
7
  6
CONTINUOUS
 10
408.3057849472
 20
101.8837729105
 11
408.1519319787
 21
101.7403477656
  0
LINE
  5
38F
100
AcDbEntity
  8
BEZUGSACHSEN
100
AcDbLine
 62
7
  6
CONTINUOUS
 10
406.754501039
 20
76.2424118364
 11
407.3055742797
 21
75.6913385957
  0
LINE
  5
390
100
AcDbEntity
  8
RUNDUNGEN
100
AcDbLine
 62
7
  6
CONTINUOUS
 10
350.4047535707
 20
69.792664368
 11
350.4047535707
 21
106.792664368
  0
LINE
  5
391
100
AcDbEntity
  8
BEZUGSACHSEN
100
AcDbLine
 62
7
  6
CONTINUOUS
 10
490.153992985
 20
58.7622836085
 11
493.9892543767
 21
60.8882037126
  0
LINE
  5
392
100
AcDbEntity
  8
BEZUGSACHSEN
100
AcDbLine
 62
7
  6
CONTINUOUS
 10
476.1934686026
 20
79.8224056037
 11
487.4351343302
 21
59.5419037823
  0
LINE
  5
393
100
AcDbEntity
  8
RUNDUNGEN
100
AcDbLine
 62
7
  6
CONTINUOUS
 10
494.9892506422
 20
62.9847394823
 11
493.0552262891
 21
73.9531366345
  0
LINE
  5
394
100
AcDbEntity
  8
BEZUGSACHSEN
100
AcDbLine
 62
7
  6
CONTINUOUS
 10
494.9892506422
 20
62.9847394823
 11
491.3218632362
 21
83.7835270038
  0
ARC
  5
395
100
AcDbEntity
  8
BEZUGSACHSEN
100
AcDbCircle
 62
7
  6
CONTINUOUS
 10
11.8775122348
 20
270.3759807049
 40
16.0
100
AcDbArc
 50
104.2712463559
 51
120.0000052993
  0
ARC
  5
396
100
AcDbEntity
  8
RUNDUNGEN
100
AcDbCircle
 62
7
  6
CONTINUOUS
 10
11.8775122348
 20
270.3759807049
 40
16.0
100
AcDbArc
 50
90.0000063697
 51
104.2712463559
  0
ARC
  5
397
100
AcDbEntity
  8
RUNDUNGEN
100
AcDbCircle
 62
7
  6
CONTINUOUS
 10
47.9047535707
 20
276.6259807049
 40
2.0
100
AcDbArc
 50
179.9999984885
 51
270.0
  0
ARC
  5
398
100
AcDbEntity
  8
RUNDUNGEN
100
AcDbCircle
 62
7
  6
CONTINUOUS
 10
52.4047535707
 20
275.1259807049
 40
0.5
100
AcDbArc
 50
270.0
 51
360.0
  0
ARC
  5
399
100
AcDbEntity
  8
BEZUGSACHSEN
100
AcDbCircle
 62
7
  6
CONTINUOUS
 10
-45.1294276687
 20
291.1259807049
 40
16.0
100
AcDbArc
 50
247.0000060371
 51
270.0
  0
ARC
  5
39A
100
AcDbEntity
  8
BEZUGSACHSEN
100
AcDbCircle
 62
7
  6
CONTINUOUS
 10
-58.5952464293
 20
294.1259807049
 40
13.5
100
AcDbArc
 50
204.6929094431
 51
247.0005804446
  0
ARC
  5
39B
100
AcDbEntity
  8
BEZUGSACHSEN
100
AcDbCircle
 62
7
  6
CONTINUOUS
 10
-14.5747383536
 20
285.1259807049
 40
10.0
100
AcDbArc
 50
269.9999975585
 51
300.0000234681
  0
ARC
  5
39C
100
AcDbEntity
  8
0
100
AcDbCircle
 62
7
  6
CONTINUOUS
 10
22.4985404357
 20
284.7601394387
 40
7.3229135052
100
AcDbArc
 50
127.4694714378
 51
127.8546948332
  0
ARC
  5
39D
100
AcDbEntity
  8
BEZUGSACHSEN
100
AcDbCircle
 62
7
  6
CONTINUOUS
 10
22.0047535707
 20
283.6259807049
 40
7.0
100
AcDbArc
 50
90.0
 51
135.0
  0
ARC
  5
39E
100
AcDbEntity
  8
0
100
AcDbCircle
 62
7
  6
CONTINUOUS
 10
23.0047535707
 20
290.6259807049
 40
5.0
100
AcDbArc
 50
90.0
 51
180.0
  0
ARC
  5
39F
100
AcDbEntity
  8
RUNDUNGEN
100
AcDbCircle
 62
7
  6
CONTINUOUS
 10
13.6126175083
 20
289.3759807049
 40
3.0
100
AcDbArc
 50
270.000008379
 51
315.0000059248
  0
ARC
  5
3A0
100
AcDbEntity
  8
BEZUGSACHSEN
100
AcDbCircle
 62
7
  6
CONTINUOUS
 10
-44.007821973
 20
292.5259807049
 40
3.0
100
AcDbArc
 50
27.5722101353
 51
90.0
  0
ARC
  5
3A1
100
AcDbEntity
  8
BEZUGSACHSEN
100
AcDbCircle
 62
7
  6
CONTINUOUS
 10
-59.9274675835
 20
296.5259807049
 40
1.0
100
AcDbArc
 50
180.0
 51
270.0
  0
ARC
  5
3A2
100
AcDbEntity
  8
RUNDUNGEN
100
AcDbCircle
 62
7
  6
CONTINUOUS
 10
97.0501355556
 20
276.6259807049
 40
5.0
100
AcDbArc
 50
90.0
 51
125.0
  0
ARC
  5
3A3
100
AcDbEntity
  8
RUNDUNGEN
100
AcDbCircle
 62
7
  6
CONTINUOUS
 10
189.136191403
 20
283.1259807049
 40
2.0
100
AcDbArc
 50
250.0
 51
270.0
  0
ARC
  5
3A4
100
AcDbEntity
  8
RUNDUNGEN
100
AcDbCircle
 62
7
  6
CONTINUOUS
 10
187.0571447704
 20
279.6259807049
 40
2.0
100
AcDbArc
 50
70.0
 51
90.0
  0
ARC
  5
3A5
100
AcDbEntity
  8
RUNDUNGEN
100
AcDbCircle
 62
7
  6
CONTINUOUS
 10
75.4047535707
 20
277.6259807049
 40
1.0
100
AcDbArc
 50
180.0
 51
270.0
  0
ARC
  5
3A6
100
AcDbEntity
  8
RUNDUNGEN
100
AcDbCircle
 62
7
  6
CONTINUOUS
 10
106.9047535707
 20
295.6259807049
 40
6.0
100
AcDbArc
 50
180.0005164764
 51
270.002481054
  0
ARC
  5
3A7
100
AcDbEntity
  8
RUNDUNGEN
100
AcDbCircle
 62
7
  6
CONTINUOUS
 10
189.9047535707
 20
295.6259807049
 40
6.0
100
AcDbArc
 50
269.9993904099
 51
0.0016984834
  0
ARC
  5
3A8
100
AcDbEntity
  8
RUNDUNGEN
100
AcDbCircle
 62
7
  6
CONTINUOUS
 10
89.7442776734
 20
293.4800701373
 40
1.4113761021
100
AcDbArc
 50
177.7886256086
 51
179.9946431206
  0
ARC
  5
3A9
100
AcDbEntity
  8
BEZUGSACHSEN
100
AcDbCircle
 62
7
  6
CONTINUOUS
 10
-28.4952464293
 20
300.6259807049
 40
14.5
100
AcDbArc
 50
207.5715074863
 51
33.1229402077
  0
ARC
  5
3AA
100
AcDbEntity
  8
RUNDUNGEN
100
AcDbCircle
 62
7
  6
CONTINUOUS
 10
-28.4952464293
 20
300.6259807049
 40
14.5
100
AcDbArc
 50
33.1229402077
 51
152.4284925137
  0
ARC
  5
3AB
100
AcDbEntity
  8
RUNDUNGEN
100
AcDbCircle
 62
7
  6
CONTINUOUS
 10
-59.9274675835
 20
304.7259807049
 40
1.0
100
AcDbArc
 50
90.0
 51
180.0
  0
ARC
  5
3AC
100
AcDbEntity
  8
RUNDUNGEN
100
AcDbCircle
 62
7
  6
CONTINUOUS
 10
-45.1294276687
 20
310.1259807049
 40
16.0
100
AcDbArc
 50
90.0
 51
113.0000000987
  0
ARC
  5
3AD
100
AcDbEntity
  8
RUNDUNGEN
100
AcDbCircle
 62
7
  6
CONTINUOUS
 10
-58.5952464293
 20
307.1259807049
 40
13.5
100
AcDbArc
 50
112.9994195554
 51
155.3070905569
  0
ARC
  5
3AE
100
AcDbEntity
  8
RUNDUNGEN
100
AcDbCircle
 62
7
  6
CONTINUOUS
 10
-44.007821973
 20
308.7259807049
 40
3.0
100
AcDbArc
 50
270.0
 51
332.4277898647
  0
ARC
  5
3AF
100
AcDbEntity
  8
RUNDUNGEN
100
AcDbCircle
 62
7
  6
CONTINUOUS
 10
13.6126140736
 20
311.8759807049
 40
3.0
100
AcDbArc
 50
44.9999476908
 51
89.9999260234
  0
ARC
  5
3B0
100
AcDbEntity
  8
RUNDUNGEN
100
AcDbCircle
 62
7
  6
CONTINUOUS
 10
11.8775122348
 20
330.8759807049
 40
16.0
100
AcDbArc
 50
239.9999947007
 51
269.999993646
  0
ARC
  5
3B1
100
AcDbEntity
  8
RUNDUNGEN
100
AcDbCircle
 62
7
  6
CONTINUOUS
 10
-14.5747383536
 20
316.1259807049
 40
10.0
100
AcDbArc
 50
59.9999765319
 51
90.0000024415
  0
ARC
  5
3B2
100
AcDbEntity
  8
BEZUGSACHSEN
100
AcDbCircle
 62
7
  6
CONTINUOUS
 10
22.0047535707
 20
317.6259807049
 40
7.0
100
AcDbArc
 50
225.0
 51
270.0
  0
ARC
  5
3B3
100
AcDbEntity
  8
RUNDUNGEN
100
AcDbCircle
 62
7
  6
CONTINUOUS
 10
47.9047535707
 20
324.6259807049
 40
2.0
100
AcDbArc
 50
90.0
 51
180.0000015115
  0
ARC
  5
3B4
100
AcDbEntity
  8
RUNDUNGEN
100
AcDbCircle
 62
7
  6
CONTINUOUS
 10
52.4047535707
 20
326.1259807049
 40
0.5
100
AcDbArc
 50
0.0
 51
90.0
  0
ARC
  5
3B5
100
AcDbEntity
  8
RUNDUNGEN
100
AcDbCircle
 62
7
  6
CONTINUOUS
 10
106.9047535707
 20
305.6259807049
 40
6.0
100
AcDbArc
 50
89.9983471528
 51
179.9978476667
  0
ARC
  5
3B6
100
AcDbEntity
  8
RUNDUNGEN
100
AcDbCircle
 62
7
  6
CONTINUOUS
 10
189.9047535707
 20
305.6259807049
 40
6.0
100
AcDbArc
 50
359.9981936497
 51
90.0015777035
  0
ARC
  5
3B7
100
AcDbEntity
  8
RUNDUNGEN
100
AcDbCircle
 62
7
  6
CONTINUOUS
 10
89.7442776041
 20
307.7718874872
 40
1.4113760325
100
AcDbArc
 50
180.0052032151
 51
182.2112211723
  0
ARC
  5
3B8
100
AcDbEntity
  8
RUNDUNGEN
100
AcDbCircle
 62
7
  6
CONTINUOUS
 10
97.0501355556
 20
324.6259807049
 40
5.0
100
AcDbArc
 50
235.0
 51
270.0
  0
ARC
  5
3B9
100
AcDbEntity
  8
RUNDUNGEN
100
AcDbCircle
 62
7
  6
CONTINUOUS
 10
189.136191403
 20
318.1259807049
 40
2.0
100
AcDbArc
 50
90.0
 51
110.0
  0
ARC
  5
3BA
100
AcDbEntity
  8
RUNDUNGEN
100
AcDbCircle
 62
7
  6
CONTINUOUS
 10
187.0571447704
 20
321.6259807049
 40
2.0
100
AcDbArc
 50
270.0
 51
290.0
  0
ARC
  5
3BB
100
AcDbEntity
  8
RUNDUNGEN
100
AcDbCircle
 62
7
  6
CONTINUOUS
 10
75.4047535707
 20
323.6259807049
 40
1.0
100
AcDbArc
 50
90.0
 51
180.0
  0
ARC
  5
3BC
100
AcDbEntity
  8
0
100
AcDbCircle
 62
7
  6
CONTINUOUS
 10
326.7593715859
 20
276.6259807049
 40
5.0
100
AcDbArc
 50
64.1580672368
 51
90.0
  0
ARC
  5
3BD
100
AcDbEntity
  8
RUNDUNGEN
100
AcDbCircle
 62
7
  6
CONTINUOUS
 10
234.6733157385
 20
283.1259807049
 40
2.0
100
AcDbArc
 50
270.0
 51
290.0
  0
ARC
  5
3BE
100
AcDbEntity
  8
RUNDUNGEN
100
AcDbCircle
 62
7
  6
CONTINUOUS
 10
236.752362371
 20
279.6259807049
 40
2.0
100
AcDbArc
 50
90.0
 51
110.0
  0
ARC
  5
3BF
100
AcDbEntity
  8
RUNDUNGEN
100
AcDbCircle
 62
7
  6
CONTINUOUS
 10
349.4047535707
 20
282.1259807049
 40
1.0
100
AcDbArc
 50
270.0
 51
360.0
  0
ARC
  5
3C0
100
AcDbEntity
  8
RUNDUNGEN
100
AcDbCircle
 62
7
  6
CONTINUOUS
 10
316.9047535707
 20
295.6259807049
 40
6.0
100
AcDbArc
 50
269.9974648987
 51
0.0017796289
  0
ARC
  5
3C1
100
AcDbEntity
  8
RUNDUNGEN
100
AcDbCircle
 62
7
  6
CONTINUOUS
 10
233.9047535707
 20
295.6259807049
 40
6.0
100
AcDbArc
 50
179.9982722685
 51
270.0006466578
  0
ARC
  5
3C2
100
AcDbEntity
  8
RUNDUNGEN
100
AcDbCircle
 62
7
  6
CONTINUOUS
 10
411.9319949067
 20
270.3759807049
 40
16.0
100
AcDbArc
 50
59.9999947007
 51
89.999993646
  0
ARC
  5
3C3
100
AcDbEntity
  8
RUNDUNGEN
100
AcDbCircle
 62
7
  6
CONTINUOUS
 10
468.9389348101
 20
291.1259807049
 40
16.0
100
AcDbArc
 50
270.0
 51
293.0000000987
  0
ARC
  5
3C4
100
AcDbEntity
  8
RUNDUNGEN
100
AcDbCircle
 62
7
  6
CONTINUOUS
 10
482.4047535707
 20
294.1259807049
 40
13.5
100
AcDbArc
 50
292.9994195554
 51
335.3070907066
  0
ARC
  5
3C5
100
AcDbEntity
  8
RUNDUNGEN
100
AcDbCircle
 62
7
  6
CONTINUOUS
 10
438.384245495
 20
285.1259807049
 40
10.0
100
AcDbArc
 50
239.9999765319
 51
270.0000024415
  0
ARC
  5
3C6
100
AcDbEntity
  8
BEZUGSACHSEN
100
AcDbCircle
 62
7
  6
CONTINUOUS
 10
401.8047535707
 20
283.6259807049
 40
7.0
100
AcDbArc
 50
45.0
 51
90.0
  0
ARC
  5
3C7
100
AcDbEntity
  8
RUNDUNGEN
100
AcDbCircle
 62
7
  6
CONTINUOUS
 10
410.1968913368
 20
289.3759807049
 40
3.0
100
AcDbArc
 50
224.9999710675
 51
269.9999590832
  0
ARC
  5
3C8
100
AcDbEntity
  8
RUNDUNGEN
100
AcDbCircle
 62
7
  6
CONTINUOUS
 10
467.8173291145
 20
292.5259807049
 40
3.0
100
AcDbArc
 50
90.0
 51
152.4277898647
  0
ARC
  5
3C9
100
AcDbEntity
  8
RUNDUNGEN
100
AcDbCircle
 62
7
  6
CONTINUOUS
 10
483.736974725
 20
296.5259807049
 40
1.0
100
AcDbArc
 50
270.0
 51
360.0
  0
ARC
  5
3CA
100
AcDbEntity
  8
RUNDUNGEN
100
AcDbCircle
 62
7
  6
CONTINUOUS
 10
316.9047535707
 20
305.6259807049
 40
6.0
100
AcDbArc
 50
359.9982629184
 51
90.0016632488
  0
ARC
  5
3CB
100
AcDbEntity
  8
RUNDUNGEN
100
AcDbCircle
 62
7
  6
CONTINUOUS
 10
233.9047535707
 20
305.6259807049
 40
6.0
100
AcDbArc
 50
89.9984222897
 51
180.0018045908
  0
ARC
  5
3CC
100
AcDbEntity
  8
0
100
AcDbCircle
 62
7
  6
CONTINUOUS
 10
326.7593715859
 20
324.6259807049
 40
5.0
100
AcDbArc
 50
270.0
 51
295.8419327632
  0
ARC
  5
3CD
100
AcDbEntity
  8
RUNDUNGEN
100
AcDbCircle
 62
7
  6
CONTINUOUS
 10
234.6733157385
 20
318.1259807049
 40
2.0
100
AcDbArc
 50
70.0
 51
90.0
  0
ARC
  5
3CE
100
AcDbEntity
  8
RUNDUNGEN
100
AcDbCircle
 62
7
  6
CONTINUOUS
 10
236.752362371
 20
321.6259807049
 40
2.0
100
AcDbArc
 50
250.0
 51
270.0
  0
ARC
  5
3CF
100
AcDbEntity
  8
RUNDUNGEN
100
AcDbCircle
 62
7
  6
CONTINUOUS
 10
349.4047535707
 20
319.1259807049
 40
1.0
100
AcDbArc
 50
0.0
 51
90.0
  0
ARC
  5
3D0
100
AcDbEntity
  8
RUNDUNGEN
100
AcDbCircle
 62
7
  6
CONTINUOUS
 10
410.1968894694
 20
311.8759807049
 40
3.0
100
AcDbArc
 50
90.000005252
 51
135.0000037137
  0
ARC
  5
3D1
100
AcDbEntity
  8
BEZUGSACHSEN
100
AcDbCircle
 62
7
  6
CONTINUOUS
 10
452.3047535707
 20
300.6259807049
 40
14.5
100
AcDbArc
 50
27.5715074863
 51
213.1229402077
  0
ARC
  5
3D2
100
AcDbEntity
  8
RUNDUNGEN
100
AcDbCircle
 62
7
  6
CONTINUOUS
 10
452.3047535707
 20
300.6259807049
 40
14.5
100
AcDbArc
 50
213.1229402077
 51
332.4284925137
  0
ARC
  5
3D3
100
AcDbEntity
  8
BEZUGSACHSEN
100
AcDbCircle
 62
7
  6
CONTINUOUS
 10
483.736974725
 20
304.7259807049
 40
1.0
100
AcDbArc
 50
0.0
 51
90.0
  0
ARC
  5
3D4
100
AcDbEntity
  8
BEZUGSACHSEN
100
AcDbCircle
 62
7
  6
CONTINUOUS
 10
468.9389348101
 20
310.1259807049
 40
16.0
100
AcDbArc
 50
67.0000043297
 51
90.0
  0
ARC
  5
3D5
100
AcDbEntity
  8
BEZUGSACHSEN
100
AcDbCircle
 62
7
  6
CONTINUOUS
 10
482.4047535707
 20
307.1259807049
 40
13.5
100
AcDbArc
 50
24.6929092934
 51
67.0005804446
  0
ARC
  5
3D6
100
AcDbEntity
  8
BEZUGSACHSEN
100
AcDbCircle
 62
7
  6
CONTINUOUS
 10
467.8173291145
 20
308.7259807049
 40
3.0
100
AcDbArc
 50
207.5722101353
 51
270.0
  0
ARC
  5
3D7
100
AcDbEntity
  8
BEZUGSACHSEN
100
AcDbCircle
 62
7
  6
CONTINUOUS
 10
411.9319949067
 20
330.8759807049
 40
16.0
100
AcDbArc
 50
284.2712463555
 51
300.0000052993
  0
ARC
  5
3D8
100
AcDbEntity
  8
RUNDUNGEN
100
AcDbCircle
 62
7
  6
CONTINUOUS
 10
411.9319949067
 20
330.8759807049
 40
16.0
100
AcDbArc
 50
270.0000063696
 51
284.2712463555
  0
ARC
  5
3D9
100
AcDbEntity
  8
BEZUGSACHSEN
100
AcDbCircle
 62
7
  6
CONTINUOUS
 10
438.384245495
 20
316.1259807049
 40
10.0
100
AcDbArc
 50
89.9999975585
 51
120.0000234681
  0
ARC
  5
3DA
100
AcDbEntity
  8
BEZUGSACHSEN
100
AcDbCircle
 62
7
  6
CONTINUOUS
 10
401.8047535707
 20
317.6259807049
 40
7.0
100
AcDbArc
 50
270.0
 51
315.0
  0
ARC
  5
3DB
100
AcDbEntity
  8
RUNDUNGEN
100
AcDbCircle
 62
7
  6
CONTINUOUS
 10
548.1315003241
 20
300.6259807049
 40
26.0
100
AcDbArc
 50
54.5074054199
 51
101.0306417448
  0
ARC
  5
3DC
100
AcDbEntity
  8
RUNDUNGEN
100
AcDbCircle
 62
7
  6
CONTINUOUS
 10
548.1315003241
 20
300.6259807049
 40
26.0
100
AcDbArc
 50
258.9701696154
 51
305.4913458003
  0
ARC
  5
3DD
100
AcDbEntity
  8
RUNDUNGEN
100
AcDbCircle
 62
7
  6
CONTINUOUS
 10
548.1315003241
 20
300.6259807049
 40
26.0
100
AcDbArc
 50
157.3901304554
 51
202.6098695446
  0
ARC
  5
3DE
100
AcDbEntity
  8
BEZUGSACHSEN
100
AcDbCircle
 62
7
  6
CONTINUOUS
 10
566.1315003241
 20
300.6259807049
 40
3.5
100
AcDbArc
 50
133.3826713036
 51
226.6173286964
  0
ARC
  5
3DF
100
AcDbEntity
  8
RUNDUNGEN
100
AcDbCircle
 62
7
  6
CONTINUOUS
 10
526.1315003241
 20
324.1259807049
 40
2.0
100
AcDbArc
 50
90.4465234077
 51
180.0
  0
ARC
  5
3E0
100
AcDbEntity
  8
BEZUGSACHSEN
100
AcDbCircle
 62
7
  6
CONTINUOUS
 10
526.1315003241
 20
277.1259807049
 40
2.0
100
AcDbArc
 50
180.0
 51
269.4347487097
  0
ARC
  5
3E1
100
AcDbEntity
  8
RUNDUNGEN
100
AcDbCircle
 62
7
  6
CONTINUOUS
 10
562.7315003241
 20
304.7259807049
 40
1.0
100
AcDbArc
 50
0.0
 51
90.0
  0
ARC
  5
3E2
100
AcDbEntity
  8
BEZUGSACHSEN
100
AcDbCircle
 62
7
  6
CONTINUOUS
 10
562.7315003241
 20
296.5259807049
 40
1.0
100
AcDbArc
 50
270.0
 51
360.0
  0
ARC
  5
3E3
100
AcDbEntity
  8
RUNDUNGEN
100
AcDbCircle
 62
7
  6
CONTINUOUS
 10
-13.0952464293
 20
63.292664368
 40
24.0
100
AcDbArc
 50
46.3820943847
 51
90.0000023606
  0
ARC
  5
3E4
100
AcDbEntity
  8
RUNDUNGEN
100
AcDbCircle
 62
7
  6
CONTINUOUS
 10
-39.7019766733
 20
72.792664368
 40
14.5
100
AcDbArc
 50
90.0
 51
150.9999921294
  0
ARC
  5
3E5
100
AcDbEntity
  8
BEZUGSACHSEN
100
AcDbCircle
 62
7
  6
CONTINUOUS
 10
22.0047535707
 20
71.292664368
 40
7.0
100
AcDbArc
 50
90.0
 51
135.0
  0
ARC
  5
3E6
100
AcDbEntity
  8
RUNDUNGEN
100
AcDbCircle
 62
7
  6
CONTINUOUS
 10
47.9047535707
 20
64.292664368
 40
2.0
100
AcDbArc
 50
180.0
 51
270.0
  0
ARC
  5
3E7
100
AcDbEntity
  8
RUNDUNGEN
100
AcDbCircle
 62
7
  6
CONTINUOUS
 10
-69.2101279738
 20
62.6374432456
 40
2.0
100
AcDbArc
 50
170.0000034532
 51
241.0000011243
  0
ARC
  5
3E8
100
AcDbEntity
  8
RUNDUNGEN
100
AcDbCircle
 62
7
  6
CONTINUOUS
 10
-65.3748666031
 20
60.5115230228
 40
2.0
100
AcDbArc
 50
241.0
 51
331.0
  0
ARC
  5
3E9
100
AcDbEntity
  8
BEZUGSACHSEN
100
AcDbCircle
 62
7
  6
CONTINUOUS
 10
-69.2101279738
 20
62.6374432456
 40
2.0
100
AcDbArc
 50
170.0000034532
 51
241.0000011243
  0
ARC
  5
3EA
100
AcDbEntity
  8
RUNDUNGEN
100
AcDbCircle
 62
7
  6
CONTINUOUS
 10
52.4047535707
 20
62.792664368
 40
0.5
100
AcDbArc
 50
270.0
 51
360.0
  0
ARC
  5
3EB
100
AcDbEntity
  8
RUNDUNGEN
100
AcDbCircle
 62
7
  6
CONTINUOUS
 10
-33.5364887051
 20
77.792664368
 40
34.5
100
AcDbArc
 50
89.9999869901
 51
169.9999991475
  0
ARC
  5
3EC
100
AcDbEntity
  8
BEZUGSACHSEN
100
AcDbCircle
 62
7
  6
CONTINUOUS
 10
-33.5364887051
 20
77.792664368
 40
34.5
100
AcDbArc
 50
91.2606582679
 51
106.0824724256
  0
ARC
  5
3ED
100
AcDbEntity
  8
BEZUGSACHSEN
100
AcDbCircle
 62
7
  6
CONTINUOUS
 10
-33.5364887051
 20
77.792664368
 40
34.5
100
AcDbArc
 50
106.8827425184
 51
108.4866706515
  0
ARC
  5
3EE
100
AcDbEntity
  8
BEZUGSACHSEN
100
AcDbCircle
 62
7
  6
CONTINUOUS
 10
-13.0952464293
 20
89.292664368
 40
23.0
100
AcDbArc
 50
88.7088184504
 51
89.4874282114
  0
ARC
  5
3EF
100
AcDbEntity
  8
BEZUGSACHSEN
100
AcDbCircle
 62
7
  6
CONTINUOUS
 10
-13.0952464293
 20
89.292664368
 40
23.0
100
AcDbArc
 50
52.4253019909
 51
88.3246733718
  0
ARC
  5
3F0
100
AcDbEntity
  8
RUNDUNGEN
100
AcDbCircle
 62
7
  6
CONTINUOUS
 10
-13.0952464293
 20
89.292664368
 40
23.0
100
AcDbArc
 50
52.4253019909
 51
90.0
  0
ARC
  5
3F1
100
AcDbEntity
  8
RUNDUNGEN
100
AcDbCircle
 62
7
  6
CONTINUOUS
 10
14.3826217153
 20
77.8127030613
 40
3.0000013062
100
AcDbArc
 50
254.4359417855
 51
314.9994366205
  0
ARC
  5
3F2
100
AcDbEntity
  8
RUNDUNGEN
100
AcDbCircle
 62
7
  6
CONTINUOUS
 10
98.9255661631
 20
72.2669943874
 40
2.0072935703
100
AcDbArc
 50
343.7141216234
 51
345.0705345367
  0
ARC
  5
3F3
100
AcDbEntity
  8
RUNDUNGEN
100
AcDbCircle
 62
7
  6
CONTINUOUS
 10
98.9323795052
 20
72.268068749
 40
2.0031761905
100
AcDbArc
 50
270.0055657424
 51
273.133243158
  0
ARC
  5
3F4
100
AcDbEntity
  8
RUNDUNGEN
100
AcDbCircle
 62
7
  6
CONTINUOUS
 10
197.9047535707
 20
70.792664368
 40
2.0
100
AcDbArc
 50
180.0
 51
270.0
  0
ARC
  5
3F5
100
AcDbEntity
  8
RUNDUNGEN
100
AcDbCircle
 62
7
  6
CONTINUOUS
 10
98.9326124836
 20
72.2648243724
 40
1.9999254977
100
AcDbArc
 50
273.1316589127
 51
343.717185386
  0
ARC
  5
3F6
100
AcDbEntity
  8
RUNDUNGEN
100
AcDbCircle
 62
7
  6
CONTINUOUS
 10
75.4047535707
 20
65.292664368
 40
1.0
100
AcDbArc
 50
180.0
 51
270.0
  0
ARC
  5
3F7
100
AcDbEntity
  8
RUNDUNGEN
100
AcDbCircle
 62
7
  6
CONTINUOUS
 10
189.1360566797
 20
76.5768349294
 40
1.9995328354
100
AcDbArc
 50
241.4653270532
 51
270.0038601919
  0
ARC
  5
3F8
100
AcDbEntity
  8
BEZUGSACHSEN
100
AcDbCircle
 62
7
  6
CONTINUOUS
 10
15.5654845453
 20
126.542664368
 40
24.0
100
AcDbArc
 50
232.424231727
 51
240.6236161444
  0
ARC
  5
3F9
100
AcDbEntity
  8
RUNDUNGEN
100
AcDbCircle
 62
7
  6
CONTINUOUS
 10
20.0172512113
 20
98.042664368
 40
24.0
100
AcDbArc
 50
226.3824301968
 51
254.4359417849
  0
ARC
  5
3FA
100
AcDbEntity
  8
RUNDUNGEN
100
AcDbCircle
 62
7
  6
CONTINUOUS
 10
15.5654845453
 20
126.542664368
 40
24.0
100
AcDbArc
 50
232.424231727
 51
265.6897697557
  0
ARC
  5
3FB
100
AcDbEntity
  8
BEZUGSACHSEN
100
AcDbCircle
 62
7
  6
CONTINUOUS
 10
22.0047535707
 20
105.292664368
 40
7.0
100
AcDbArc
 50
225.0
 51
270.0
  0
ARC
  5
3FC
100
AcDbEntity
  8
RUNDUNGEN
100
AcDbCircle
 62
7
  6
CONTINUOUS
 10
97.0501355556
 20
112.292664368
 40
5.0
100
AcDbArc
 50
235.0
 51
270.0
  0
ARC
  5
3FD
100
AcDbEntity
  8
RUNDUNGEN
100
AcDbCircle
 62
7
  6
CONTINUOUS
 10
13.5362514932
 20
99.6190267346
 40
3.0000001033
100
AcDbArc
 50
45.0000815257
 51
85.6890634696
  0
ARC
  5
3FE
100
AcDbEntity
  8
RUNDUNGEN
100
AcDbCircle
 62
7
  6
CONTINUOUS
 10
47.9047535707
 20
112.292664368
 40
2.0
100
AcDbArc
 50
90.0
 51
180.0
  0
ARC
  5
3FF
100
AcDbEntity
  8
RUNDUNGEN
100
AcDbCircle
 62
7
  6
CONTINUOUS
 10
189.136191403
 20
105.792664368
 40
2.0
100
AcDbArc
 50
90.0
 51
110.0
  0
ARC
  5
400
100
AcDbEntity
  8
RUNDUNGEN
100
AcDbCircle
 62
7
  6
CONTINUOUS
 10
187.0571447704
 20
109.292664368
 40
2.0
100
AcDbArc
 50
270.0
 51
290.0
  0
ARC
  5
401
100
AcDbEntity
  8
RUNDUNGEN
100
AcDbCircle
 62
7
  6
CONTINUOUS
 10
75.4047535707
 20
111.292664368
 40
1.0
100
AcDbArc
 50
90.0
 51
180.0
  0
ARC
  5
402
100
AcDbEntity
  8
RUNDUNGEN
100
AcDbCircle
 62
7
  6
CONTINUOUS
 10
52.4047535707
 20
113.792664368
 40
0.5
100
AcDbArc
 50
0.0
 51
90.0
  0
ARC
  5
403
100
AcDbEntity
  8
0
100
AcDbCircle
 62
7
  6
CONTINUOUS
 10
326.7593715859
 20
64.292664368
 40
5.0
100
AcDbArc
 50
64.1580672368
 51
90.0
  0
ARC
  5
404
100
AcDbEntity
  8
RUNDUNGEN
100
AcDbCircle
 62
7
  6
CONTINUOUS
 10
225.9047535707
 20
70.792664368
 40
2.0
100
AcDbArc
 50
270.0
 51
360.0
  0
ARC
  5
405
100
AcDbEntity
  8
RUNDUNGEN
100
AcDbCircle
 62
7
  6
CONTINUOUS
 10
324.9047535707
 20
71.292664368
 40
2.0
100
AcDbArc
 50
180.0
 51
270.0
  0
ARC
  5
406
100
AcDbEntity
  8
RUNDUNGEN
100
AcDbCircle
 62
7
  6
CONTINUOUS
 10
349.4047535707
 20
69.792664368
 40
1.0
100
AcDbArc
 50
270.0
 51
360.0
  0
CIRCLE
  5
407
100
AcDbEntity
  8
0
100
AcDbCircle
 62
7
  6
CONTINUOUS
 10
211.9047535707
 20
88.292664368
 40
20.0
  0
CIRCLE
  5
408
100
AcDbEntity
  8
0
100
AcDbCircle
 62
7
  6
CONTINUOUS
 10
211.9047535707
 20
88.292664368
 40
9.6076951546
  0
ARC
  5
409
100
AcDbEntity
  8
RUNDUNGEN
100
AcDbCircle
 62
7
  6
CONTINUOUS
 10
234.6734504617
 20
76.5768349294
 40
1.9995328354
100
AcDbArc
 50
269.9961398081
 51
298.5346729466
  0
ARC
  5
40A
100
AcDbEntity
  8
BEZUGSACHSEN
100
AcDbCircle
 62
7
  6
CONTINUOUS
 10
436.9047535707
 20
63.292664368
 40
24.0
100
AcDbArc
 50
89.9999976394
 51
133.6179056153
  0
ARC
  5
40B
100
AcDbEntity
  8
BEZUGSACHSEN
100
AcDbCircle
 62
7
  6
CONTINUOUS
 10
463.5114838148
 20
72.792664368
 40
14.5
100
AcDbArc
 50
29.0000078706
 51
90.0
  0
ARC
  5
40C
100
AcDbEntity
  8
BEZUGSACHSEN
100
AcDbCircle
 62
7
  6
CONTINUOUS
 10
401.8047535707
 20
71.292664368
 40
7.0
100
AcDbArc
 50
45.0
 51
90.0
  0
ARC
  5
40D
100
AcDbEntity
  8
BEZUGSACHSEN
100
AcDbCircle
 62
7
  6
CONTINUOUS
 10
489.1843737445
 20
60.5115230228
 40
2.0
100
AcDbArc
 50
209.0
 51
299.0
  0
ARC
  5
40E
100
AcDbEntity
  8
RUNDUNGEN
100
AcDbCircle
 62
7
  6
CONTINUOUS
 10
493.0196351153
 20
62.6374432456
 40
2.0
100
AcDbArc
 50
298.9999988758
 51
9.9999965468
  0
ARC
  5
40F
100
AcDbEntity
  8
BEZUGSACHSEN
100
AcDbCircle
 62
7
  6
CONTINUOUS
 10
493.0196351153
 20
62.6374432456
 40
2.0
100
AcDbArc
 50
298.9999988758
 51
9.9999965468
  0
ARC
  5
410
100
AcDbEntity
  8
RUNDUNGEN
100
AcDbCircle
 62
7
  6
CONTINUOUS
 10
457.3459958465
 20
77.792664368
 40
34.5
100
AcDbArc
 50
88.7393329739
 51
90.0000130085
  0
ARC
  5
411
100
AcDbEntity
  8
BEZUGSACHSEN
100
AcDbCircle
 62
7
  6
CONTINUOUS
 10
457.3459958465
 20
77.792664368
 40
34.5
100
AcDbArc
 50
10.0000008536
 51
90.0005751593
  0
ARC
  5
412
100
AcDbEntity
  8
BEZUGSACHSEN
100
AcDbCircle
 62
7
  6
CONTINUOUS
 10
436.9047535707
 20
89.292664368
 40
23.0
100
AcDbArc
 50
90.0
 51
127.5748019954
  0
ARC
  5
413
100
AcDbEntity
  8
RUNDUNGEN
100
AcDbCircle
 62
7
  6
CONTINUOUS
 10
436.9047535707
 20
89.292664368
 40
23.0
100
AcDbArc
 50
91.6919091378
 51
127.5748019954
  0
ARC
  5
414
100
AcDbEntity
  8
RUNDUNGEN
100
AcDbCircle
 62
7
  6
CONTINUOUS
 10
409.426885438
 20
77.8127030613
 40
3.0000013067
100
AcDbArc
 50
225.0005635837
 51
285.5640582456
  0
ARC
  5
415
100
AcDbEntity
  8
RUNDUNGEN
100
AcDbCircle
 62
7
  6
CONTINUOUS
 10
403.7922559301
 20
98.042664368
 40
24.0
100
AcDbArc
 50
285.5640582458
 51
295.3665267148
  0
ARC
  5
416
100
AcDbEntity
  8
BEZUGSACHSEN
100
AcDbCircle
 62
7
  6
CONTINUOUS
 10
403.7922559301
 20
98.042664368
 40
24.0
100
AcDbArc
 50
295.3665267148
 51
313.6177396404
  0
ARC
  5
417
100
AcDbEntity
  8
RUNDUNGEN
100
AcDbCircle
 62
7
  6
CONTINUOUS
 10
403.7922559301
 20
98.042664368
 40
24.0
100
AcDbArc
 50
312.1355854067
 51
312.8516731294
  0
ARC
  5
418
100
AcDbEntity
  8
BEZUGSACHSEN
100
AcDbCircle
 62
7
  6
CONTINUOUS
 10
408.2440225961
 20
126.542664368
 40
24.0
100
AcDbArc
 50
299.3763838556
 51
307.5756686182
  0
ARC
  5
419
100
AcDbEntity
  8
RUNDUNGEN
100
AcDbCircle
 62
7
  6
CONTINUOUS
 10
408.2440225961
 20
126.542664368
 40
24.0
100
AcDbArc
 50
274.3102827306
 51
307.5756686182
  0
ARC
  5
41A
100
AcDbEntity
  8
BEZUGSACHSEN
100
AcDbCircle
 62
7
  6
CONTINUOUS
 10
401.8047535707
 20
105.292664368
 40
7.0
100
AcDbArc
 50
270.0
 51
315.0
  0
ARC
  5
41B
100
AcDbEntity
  8
0
100
AcDbCircle
 62
7
  6
CONTINUOUS
 10
326.7593715859
 20
112.292664368
 40
5.0
100
AcDbArc
 50
270.0
 51
295.8419327632
  0
ARC
  5
41C
100
AcDbEntity
  8
RUNDUNGEN
100
AcDbCircle
 62
7
  6
CONTINUOUS
 10
271.0272604163
 20
105.2926638462
 40
2.0000032256
100
AcDbArc
 50
89.9999296797
 51
141.3148450367
  0
ARC
  5
41D
100
AcDbEntity
  8
RUNDUNGEN
100
AcDbCircle
 62
7
  6
CONTINUOUS
 10
234.6733157385
 20
105.792664368
 40
2.0
100
AcDbArc
 50
70.0
 51
90.0
  0
ARC
  5
41E
100
AcDbEntity
  8
RUNDUNGEN
100
AcDbCircle
 62
7
  6
CONTINUOUS
 10
236.752362371
 20
109.292664368
 40
2.0
100
AcDbArc
 50
250.0
 51
270.0
  0
ARC
  5
41F
100
AcDbEntity
  8
RUNDUNGEN
100
AcDbCircle
 62
7
  6
CONTINUOUS
 10
267.9047535707
 20
107.792664368
 40
2.0
100
AcDbArc
 50
269.9979623464
 51
321.316292637
  0
ARC
  5
420
100
AcDbEntity
  8
RUNDUNGEN
100
AcDbCircle
 62
7
  6
CONTINUOUS
 10
241.9047535707
 20
107.792664368
 40
2.0
100
AcDbArc
 50
218.683612922
 51
269.9991338747
  0
ARC
  5
421
100
AcDbEntity
  8
RUNDUNGEN
100
AcDbCircle
 62
7
  6
CONTINUOUS
 10
349.4047535707
 20
106.792664368
 40
1.0
100
AcDbArc
 50
0.0
 51
90.0
  0
SPLINE
  5
422
100
AcDbEntity
  8
0
100
AcDbSpline
 62
7
  6
CONTINUOUS
 70
0
 71
3
 72
10
 73
6
 74
0
 42
0.0000001
 43
0.0000001
 44
0.0000000001
 40
0.0
 40
0.0
 40
0.0
 40
0.0
 40
0.250345287
 40
0.5006972359
 40
1.0
 40
1.0
 40
1.0
 40
1.0
 10
22.0047535707
 20
291.965726667
 30
0.0
 10
21.6489206936
 20
291.965726667
 30
0.0
 10
20.9354633827
 20
291.9023564783
 30
0.0
 10
19.5576792289
 20
291.533596336
 30
0.0
 10
18.6069973238
 20
291.0039049482
 30
0.0
 10
18.0437293031
 20
290.5721717836
 30
0.0
  0
SPLINE
  5
423
100
AcDbEntity
  8
0
100
AcDbSpline
 62
7
  6
CONTINUOUS
 70
0
 71
3
 72
9
 73
5
 74
0
 42
0.0000001
 43
0.0000001
 44
0.0000000001
 40
0.0
 40
0.0
 40
0.0
 40
0.0
 40
0.4999915501
 40
1.0
 40
1.0
 40
1.0
 40
1.0
 10
149.0047535707
 20
295.0358107611
 30
0.0
 10
148.6919581941
 20
294.5112369672
 30
0.0
 10
148.0382655817
 20
293.4788103994
 30
0.0
 10
147.3525856968
 20
292.4677790961
 30
0.0
 10
147.0047535707
 20
291.965726667
 30
0.0
  0
SPLINE
  5
424
100
AcDbEntity
  8
BEZUGSACHSEN
100
AcDbSpline
 62
7
  6
CONTINUOUS
 70
0
 71
3
 72
15
 73
11
 74
0
 42
0.0000001
 43
0.0000001
 44
0.0000000001
 40
0.0
 40
0.0
 40
0.0
 40
0.0
 40
0.0401243133
 40
0.1507765763
 40
0.3116737125
 40
0.4999999395
 40
0.6883261742
 40
0.8492233524
 40
0.959875647
 40
1.0
 40
1.0
 40
1.0
 40
1.0
 10
204.4047535707
 20
281.1259807049
 30
0.0
 10
204.5966785634
 20
281.1997994009
 30
0.0
 10
205.321003593
 20
281.4693227444
 30
0.0
 10
206.8421180182
 20
281.9608984963
 30
0.0
 10
209.1469492254
 20
282.4794054805
 30
0.0
 10
211.9047526736
 20
282.7049943182
 30
0.0
 10
214.6625563556
 20
282.4794056987
 30
0.0
 10
216.9673880129
 20
281.9608988046
 30
0.0
 10
218.4885030181
 20
281.469322952
 30
0.0
 10
219.2128283899
 20
281.1997994788
 30
0.0
 10
219.4047535707
 20
281.1259807049
 30
0.0
  0
SPLINE
  5
425
100
AcDbEntity
  8
BEZUGSACHSEN
100
AcDbSpline
 62
7
  6
CONTINUOUS
 70
0
 71
3
 72
15
 73
11
 74
0
 42
0.0000001
 43
0.0000001
 44
0.0000000001
 40
0.0
 40
0.0
 40
0.0
 40
0.0
 40
0.0401243517
 40
0.150776644
 40
0.3116738184
 40
0.5000000487
 40
0.6883262746
 40
0.849223414
 40
0.9598756791
 40
1.0
 40
1.0
 40
1.0
 40
1.0
 10
219.4047535707
 20
320.1259807049
 30
0.0
 10
219.212828396
 20
320.0521619335
 30
0.0
 10
218.4885030414
 20
319.7826384668
 30
0.0
 10
216.9673880734
 20
319.2910626227
 30
0.0
 10
214.6625564711
 20
318.7725557301
 30
0.0
 10
211.9047528387
 20
318.5469670911
 30
0.0
 10
209.1469494005
 20
318.7725559067
 30
0.0
 10
206.8421181677
 20
319.2910628728
 30
0.0
 10
205.321003676
 20
319.7826386337
 30
0.0
 10
204.5966785997
 20
320.0521619942
 30
0.0
 10
204.4047535707
 20
320.1259807049
 30
0.0
  0
SPLINE
  5
426
100
AcDbEntity
  8
RUNDUNGEN
100
AcDbSpline
 62
7
  6
CONTINUOUS
 70
0
 71
3
 72
13
 73
9
 74
0
 42
0.0000001
 43
0.0000001
 44
0.0000000001
 40
0.0
 40
0.0
 40
0.0
 40
0.0
 40
0.3203778116
 40
0.6202633572
 40
0.7472365533
 40
0.8534425386
 40
0.9372257173
 40
1.0
 40
1.0
 40
1.0
 40
1.0
 10
88.333952657
 20
293.5345297533
 30
0.0
 10
88.3449205172
 20
293.8192252657
 30
0.0
 10
88.3262279785
 20
294.3722107132
 30
0.0
 10
88.2203054322
 20
295.0309416126
 30
0.0
 10
88.0840083083
 20
295.485619742
 30
0.0
 10
87.9725109888
 20
295.7456314581
 30
0.0
 10
87.8520178105
 20
295.9362621162
 30
0.0
 10
87.7523964499
 20
296.0264213255
 30
0.0
 10
87.7023039997
 20
296.0510603263
 30
0.0
  0
SPLINE
  5
427
100
AcDbEntity
  8
RUNDUNGEN
100
AcDbSpline
 62
7
  6
CONTINUOUS
 70
0
 71
3
 72
13
 73
9
 74
0
 42
0.0000001
 43
0.0000001
 44
0.0000000001
 40
0.0
 40
0.0
 40
0.0
 40
0.0
 40
0.0627742238
 40
0.1465574174
 40
0.2527634099
 40
0.3797366138
 40
0.6796221741
 40
1.0
 40
1.0
 40
1.0
 40
1.0
 10
87.7023039997
 20
305.2009010835
 30
0.0
 10
87.7523963979
 20
305.2255400631
 30
0.0
 10
87.8520175453
 20
305.3156994487
 30
0.0
 10
87.9725108285
 20
305.5063299318
 30
0.0
 10
88.0840081029
 20
305.7663417064
 30
0.0
 10
88.2203052734
 20
306.2210198014
 30
0.0
 10
88.3262278254
 20
306.8797507034
 30
0.0
 10
88.3449203739
 20
307.4327361382
 30
0.0
 10
88.3339525117
 20
307.7174316453
 30
0.0
  0
SPLINE
  5
428
100
AcDbEntity
  8
BEZUGSACHSEN
100
AcDbSpline
 62
7
  6
CONTINUOUS
 70
0
 71
3
 72
13
 73
9
 74
0
 42
0.0000001
 43
0.0000001
 44
0.0000000001
 40
0.0
 40
0.0
 40
0.0
 40
0.0
 40
0.0698461124
 40
0.1573405752
 40
0.2618593065
 40
0.3824178951
 40
0.6668167886
 40
1.0
 40
1.0
 40
1.0
 40
1.0
 10
524.1315041041
 20
285.445869387
 30
0.0
 10
524.1317745452
 20
285.6296982572
 30
0.0
 10
524.1622766351
 20
286.0435421341
 30
0.0
 10
524.2586329804
 20
286.7260513609
 30
0.0
 10
524.4038630344
 20
287.5359469559
 30
0.0
 10
524.6648259372
 20
288.8512012663
 30
0.0
 10
525.0569625881
 20
290.753927835
 30
0.0
 10
525.3453564426
 20
292.3540197609
 30
0.0
 10
525.4816942765
 20
293.2202664192
 30
0.0
  0
SPLINE
  5
429
100
AcDbEntity
  8
BEZUGSACHSEN
100
AcDbSpline
 62
7
  6
CONTINUOUS
 70
0
 71
3
 72
13
 73
9
 74
0
 42
0.0000001
 43
0.0000001
 44
0.0000000001
 40
0.0
 40
0.0
 40
0.0
 40
0.0
 40
0.1208208864
 40
0.2430618907
 40
0.366716712
 40
0.4916971845
 40
0.7445527663
 40
1.0
 40
1.0
 40
1.0
 40
1.0
 10
572.0257652037
 20
281.664811583
 30
0.0
 10
572.484794453
 20
282.0380284599
 30
0.0
 10
573.3628120988
 20
282.8466033988
 30
0.0
 10
574.5324267426
 20
284.2141793181
 30
0.0
 10
575.5481582568
 20
285.7245269557
 30
0.0
 10
576.6836016426
 20
287.9067667009
 30
0.0
 10
577.652552181
 20
290.878826467
 30
0.0
 10
577.9126416693
 20
293.3751676795
 30
0.0
 10
577.9126416693
 20
294.6259807049
 30
0.0
  0
SPLINE
  5
42A
100
AcDbEntity
  8
BEZUGSACHSEN
100
AcDbSpline
 62
7
  6
CONTINUOUS
 70
0
 71
3
 72
9
 73
5
 74
0
 42
0.0000001
 43
0.0000001
 44
0.0000000001
 40
0.0
 40
0.0
 40
0.0
 40
0.0
 40
0.5076766968
 40
1.0
 40
1.0
 40
1.0
 40
1.0
 10
537.084933646
 20
300.6259807049
 30
0.0
 10
537.0849335838
 20
299.7532524436
 30
0.0
 10
537.194215734
 20
298.0323945438
 30
0.0
 10
537.5283554433
 20
296.3397704299
 30
0.0
 10
537.753007083
 20
295.5237960121
 30
0.0
  0
SPLINE
  5
42B
100
AcDbEntity
  8
BEZUGSACHSEN
100
AcDbSpline
 62
7
  6
CONTINUOUS
 70
0
 71
3
 72
9
 73
5
 74
0
 42
0.0000001
 43
0.0000001
 44
0.0000000001
 40
0.0
 40
0.0
 40
0.0
 40
0.0
 40
0.5076766968
 40
1.0
 40
1.0
 40
1.0
 40
1.0
 10
537.084933646
 20
300.6259807049
 30
0.0
 10
537.0849335838
 20
301.4987089662
 30
0.0
 10
537.194215734
 20
303.219566866
 30
0.0
 10
537.5283554433
 20
304.9121909798
 30
0.0
 10
537.753007083
 20
305.7281653977
 30
0.0
  0
SPLINE
  5
42C
100
AcDbEntity
  8
RUNDUNGEN
100
AcDbSpline
 62
7
  6
CONTINUOUS
 70
0
 71
3
 72
13
 73
9
 74
0
 42
0.0000001
 43
0.0000001
 44
0.0000000001
 40
0.0
 40
0.0
 40
0.0
 40
0.0
 40
0.0698461124
 40
0.1573405752
 40
0.2618593065
 40
0.3824178951
 40
0.6668167886
 40
1.0
 40
1.0
 40
1.0
 40
1.0
 10
524.1315041041
 20
315.8060920228
 30
0.0
 10
524.1317745452
 20
315.6222631525
 30
0.0
 10
524.1622766351
 20
315.2084192757
 30
0.0
 10
524.2586329804
 20
314.5259100489
 30
0.0
 10
524.4038630344
 20
313.7160144538
 30
0.0
 10
524.6648259372
 20
312.4007601434
 30
0.0
 10
525.0569625881
 20
310.4980335748
 30
0.0
 10
525.3453564426
 20
308.8979416489
 30
0.0
 10
525.4816942765
 20
308.0316949906
 30
0.0
  0
SPLINE
  5
42D
100
AcDbEntity
  8
RUNDUNGEN
100
AcDbSpline
 62
7
  6
CONTINUOUS
 70
0
 71
3
 72
13
 73
9
 74
0
 42
0.0000001
 43
0.0000001
 44
0.0000000001
 40
0.0
 40
0.0
 40
0.0
 40
0.0
 40
0.1208208864
 40
0.2430618907
 40
0.366716712
 40
0.4916971845
 40
0.7445527663
 40
1.0
 40
1.0
 40
1.0
 40
1.0
 10
572.0257652037
 20
319.5871498268
 30
0.0
 10
572.484794453
 20
319.2139329498
 30
0.0
 10
573.3628120988
 20
318.405358011
 30
0.0
 10
574.5324267426
 20
317.0377820917
 30
0.0
 10
575.5481582568
 20
315.527434454
 30
0.0
 10
576.6836016426
 20
313.3451947088
 30
0.0
 10
577.652552181
 20
310.3731349427
 30
0.0
 10
577.9126416693
 20
307.8767937303
 30
0.0
 10
577.9126416693
 20
306.6259807049
 30
0.0
  0
SPLINE
  5
42E
100
AcDbEntity
  8
0
100
AcDbSpline
 62
7
  6
CONTINUOUS
 70
0
 71
3
 72
9
 73
5
 74
0
 42
0.0000001
 43
0.0000001
 44
0.0000000001
 40
0.0
 40
0.0
 40
0.0
 40
0.0
 40
0.2478507949
 40
1.0
 40
1.0
 40
1.0
 40
1.0
 10
22.0047535707
 20
96.8938032293
 30
0.0
 10
22.0869430141
 20
96.9037529647
 30
0.0
 10
22.4191840189
 20
96.9385413959
 30
0.0
 10
22.7535134688
 20
96.9529184059
 30
0.0
 10
23.0047535707
 20
96.9529184059
 30
0.0
  0
SPLINE
  5
42F
100
AcDbEntity
  8
0
100
AcDbSpline
 62
7
  6
CONTINUOUS
 70
0
 71
3
 72
18
 73
14
 74
0
 42
0.0000001
 43
0.0000001
 44
0.0000000001
 40
0.0
 40
0.0
 40
0.0
 40
0.0
 40
0.1384524003
 40
0.2639135392
 40
0.3207818152
 40
0.3738464835
 40
0.4242334433
 40
0.4739889898
 40
0.5802517012
 40
0.639927559
 40
0.7043371961
 40
0.8458539226
 40
1.0
 40
1.0
 40
1.0
 40
1.0
 10
18.0047535707
 20
93.4584043942
 30
0.0
 10
18.0047535707
 20
93.7484377382
 30
0.0
 10
18.0168299223
 20
94.3012130809
 30
0.0
 10
18.0961589056
 20
94.971564162
 30
0.0
 10
18.2308040501
 20
95.4472362802
 30
0.0
 10
18.3693198181
 20
95.7549441677
 30
0.0
 10
18.5556805114
 20
96.019100019
 30
0.0
 10
18.8787270422
 20
96.3118618501
 30
0.0
 10
19.3015955457
 20
96.4977293615
 30
0.0
 10
19.7692568481
 20
96.6146832063
 30
0.0
 10
20.3181121219
 20
96.7096802777
 30
0.0
 10
21.0681671984
 20
96.7907737892
 30
0.0
 10
21.6841851917
 20
96.8549956842
 30
0.0
 10
22.0047535707
 20
96.8938032293
 30
0.0
  0
SPLINE
  5
430
100
AcDbEntity
  8
RUNDUNGEN
100
AcDbSpline
 62
7
  6
CONTINUOUS
 70
0
 71
3
 72
9
 73
5
 74
0
 42
0.0000001
 43
0.0000001
 44
0.0000000001
 40
0.0
 40
0.0
 40
0.0
 40
0.0
 40
0.5000718528
 40
1.0
 40
1.0
 40
1.0
 40
1.0
 10
88.3304506489
 20
65.2904372623
 30
0.0
 10
88.3309090661
 20
65.2904360599
 30
0.0
 10
88.3318338437
 20
65.2905651214
 30
0.0
 10
88.332667364
 20
65.29098609
 30
0.0
 10
88.3330431504
 20
65.2912484097
 30
0.0
  0
SPLINE
  5
431
100
AcDbEntity
  8
RUNDUNGEN
100
AcDbSpline
 62
7
  6
CONTINUOUS
 70
0
 71
3
 72
10
 73
6
 74
0
 42
0.0000001
 43
0.0000001
 44
0.0000000001
 40
0.0
 40
0.0
 40
0.0
 40
0.0
 40
0.1093150213
 40
0.3073484902
 40
1.0
 40
1.0
 40
1.0
 40
1.0
 10
88.3330431504
 20
65.2912484097
 30
0.0
 10
88.3352834863
 20
65.2928122884
 30
0.0
 10
88.3379010078
 20
65.3009230218
 30
0.0
 10
88.3390112247
 20
65.3252948825
 30
0.0
 10
88.3363034626
 20
65.3478874825
 30
0.0
 10
88.3339525117
 20
65.3650390077
 30
0.0
  0
SPLINE
  5
432
100
AcDbEntity
  8
RUNDUNGEN
100
AcDbSpline
 62
7
  6
CONTINUOUS
 70
0
 71
3
 72
8
 73
4
 74
0
 42
0.0000001
 43
0.0000001
 44
0.0000000001
 40
0.0
 40
0.0
 40
0.0
 40
0.0
 40
1.0
 40
1.0
 40
1.0
 40
1.0
 10
88.3329015775
 20
65.3811422002
 30
0.0
 10
88.3329015775
 20
65.3757630504
 30
0.0
 10
88.3332220246
 20
65.3703683267
 30
0.0
 10
88.3339525117
 20
65.3650390077
 30
0.0
  0
ELLIPSE
  5
433
100
AcDbEntity
  8
0
100
AcDbEllipse
 62
7
  6
CONTINUOUS
 10
132.9047535707
 20
88.292664368
 30
0.0
 11
9.2443689779
 21
17.282987074
 31
0.0
 40
1.0
 41
0.4914598408
 42
0.8563699442
  0
ELLIPSE
  5
434
100
AcDbEntity
  8
0
100
AcDbEllipse
 62
7
  6
CONTINUOUS
 10
118.9047535707
 20
88.292664368
 30
0.0
 11
19.3690280751
 21
-3.0001252354
 31
0.0
 40
1.0
 41
1.3592608321
 42
1.7241712467
  0
ELLIPSE
  5
435
100
AcDbEntity
  8
0
100
AcDbEllipse
 62
7
  6
CONTINUOUS
 10
132.9047535707
 20
88.292664368
 30
0.0
 11
16.9314806061
 21
-8.621192753
 31
0.0
 40
1.0
 41
2.0418490705
 42
2.4190719755
  0
ELLIPSE
  5
436
100
AcDbEntity
  8
0
100
AcDbEllipse
 62
7
  6
CONTINUOUS
 10
118.9047535707
 20
88.292664368
 30
0.0
 11
18.435281091
 21
4.5978702781
 31
0.0
 40
1.0
 41
0.9490667395
 42
1.3262896444
  0
ENDSEC
  0
SECTION
  2
OBJECTS
  0
DICTIONARY
  5
C
100
AcDbDictionary
280
0
281
1
  3
ACAD_GROUP
350
D
  3
ACAD_MLINESTYLE
350
17
  3
ACAD_LAYOUT
350
1A
  3
ACAD_PLOTSETTINGS
350
19
  3
ACAD_PLOTSTYLENAME
350
E
  0
DICTIONARY
  5
D
102
{ACAD_REACTORS
330
C
102
}
100
AcDbDictionary
280
0
281
1
  0
ACDBDICTIONARYWDFLT
  5
E
102
{ACAD_REACTORS
330
C
102
}
100
AcDbDictionary
281
1
  3
Normal
350
F
100
AcDbDictionaryWithDefault
340
F
  0
DICTIONARY
  5
17
102
{ACAD_REACTORS
330
C
102
}
100
AcDbDictionary
280
0
281
1
  3
Standard
350
18
  0
DICTIONARY
  5
19
102
{ACAD_REACTORS
330
C
102
}
100
AcDbDictionary
281
1
  0
DICTIONARY
  5
1A
102
{ACAD_REACTORS
330
C
102
}
100
AcDbDictionary
281
1
  3
Model
350
437
  3
Layout1
350
438
  0
ACDBPLACEHOLDER
  5
F
102
{ACAD_REACTORS
330
E
102
}
  0
MLINESTYLE
  5
18
102
{ACAD_REACTORS
330
17
102
}
100
AcDbMlineStyle
  2
STANDARD
 70
0
  3

 62
256
 51
90.0
 52
90.0
 71
2
 49
0.5
 62
256
  6
BYLAYER
 49
-0.5
 62
256
  6
BYLAYER
  0
LAYOUT
  5
437
102
{ACAD_REACTORS
330
1A
102
}
100
AcDbPlotSettings
  1

  2
none_device
  4
ISO_A2_(594.00_x_420.00_MM)
  6

 40
0.0
 41
0.0
 42
0.0
 43
0.0
 44
594.0
 45
420.0
 46
0.0
 47
0.0
 48
0.0
 49
0.0
140
0.0
141
0.0
142
1.0
143
1.0
 70
1024
 72
1
 73
0
 74
0
  7

 75
0
147
1.0
148
0.0
149
0.0
100
AcDbLayout
  1
Model
 70
0
 71
0
 10
0.0
 20
0.0
 11
594.0
 21
420.0
 12
0.0
 22
0.0
 32
0.0
 14
0.0
 24
0.0
 34
0.0
 15
0.0
 25
0.0
 35
0.0
146
0.0
 13
0.0
 23
0.0
 33
0.0
 16
1.0
 26
0.0
 36
0.0
 17
0.0
 27
1.0
 37
0.0
 76
0
330
212
345
0
346
0
  0
LAYOUT
  5
438
102
{ACAD_REACTORS
330
1A
102
}
100
AcDbPlotSettings
  1

  2
none_device
  4
ISO_A2_(594.00_x_420.00_MM)
  6

 40
0.0
 41
0.0
 42
0.0
 43
0.0
 44
594.0
 45
420.0
 46
0.0
 47
0.0
 48
0.0
 49
0.0
140
0.0
141
0.0
142
1.0
143
1.0
 70
0
 72
1
 73
0
 74
0
  7

 75
0
147
1.0
148
0.0
149
0.0
100
AcDbLayout
  1
Layout1
 70
0
 71
1
 10
0.0
 20
0.0
 11
594.0
 21
420.0
 12
0.0
 22
0.0
 32
0.0
 14
0.0
 24
0.0
 34
0.0
 15
0.0
 25
0.0
 35
0.0
146
0.0
 13
0.0
 23
0.0
 33
0.0
 16
1.0
 26
0.0
 36
0.0
 17
0.0
 27
1.0
 37
0.0
 76
0
330
213
345
0
346
0
  0
ENDSEC
  0
EOF
