999
DXF file: ICE-CURT-K-6-SL_7904453_M34851-P-2.dxf
999
Pro/ENGINEER 2010140 by Parametric Technology Corporation
  0
SECTION
  2
HEADER
  9
$ACADVER
  1
AC1015
  9
$DWGCODEPAGE
  3
ANSI_1252
  9
$EXTMAX
 10
594.0
 20
420.0
 30
0.0
  9
$EXTMIN
 10
0.0
 20
0.0
 30
0.0
  9
$LIMMIN
 10
0.0
 20
0.0
  9
$LIMMAX
 10
594.0
 20
420.0
  9
$VIEWCTR
 10
297.0
 20
210.0
  9
$VIEWSIZE
 40
420.0
  9
$CLAYER
  8
0
  9
$LTSCALE
 40
32.67
  9
$CELTYPE
  6
BYLAYER
  9
$DIMSCALE
 40
1.0
  9
$DIMASZ
 40
3.5
  9
$DIMEXO
 40
3.7125
  9
$DIMDLI
 40
22.572
  9
$DIMEXE
 40
10.692
  9
$DIMCEN
 40
5.346
  9
$DIMLFAC
 40
1.0
  9
$DIMBLK
  1
_FILLED
  9
$DIMTXT
 40
3.5
  9
$DIMTOL
 70
1
  9
$DIMLIM
 70
0
  9
$DIMTFAC
 40
1.0
  9
$DIMTP
 40
0.005
  9
$DIMTM
 40
0.005
  9
$PDMODE
 70
3
  9
$PDSIZE
 40
0.3125
  9
$HANDSEED
  5
444
  9
$TILEMODE
 70
1
  9
$MEASUREMENT
 70
1
  9
$INSUNITS
 70
4
  0
ENDSEC
  0
SECTION
  2
CLASSES
  0
CLASS
  1
ACDBDICTIONARYWDFLT
  2
AcDbDictionaryWithDefault
  3
AutoCAD 2000
 90
0
280
0
281
0
  0
CLASS
  1
ACDBPLACEHOLDER
  2
AcDbPlaceHolder
  3
AutoCAD 2000
 90
0
280
0
281
0
  0
CLASS
  1
LAYOUT
  2
AcDbLayout
  3
AutoCAD 2000
 90
0
280
0
281
0
  0
ENDSEC
  0
SECTION
  2
TABLES
  0
TABLE
  2
VPORT
  5
8
100
AcDbSymbolTable
 70
2
  0
VPORT
  5
1F4
100
AcDbSymbolTableRecord
100
AcDbViewportTableRecord
  2
*ACTIVE
 70
0
 10
0.0
 20
0.0
 11
1.0
 21
1.0
 12
297.0
 22
210.0
 13
0.0
 23
0.0
 14
1.0
 24
1.0
 15
0.0
 25
0.0
 16
0.0
 26
0.0
 36
1.0
 17
0.0
 27
0.0
 37
0.0
 40
420.0
 41
1.4142857143
 42
50.0
 43
0.0
 44
0.0
 50
0.0
 51
0.0
 71
0
 72
100
 73
1
 74
1
 75
0
 76
0
 77
0
 78
0
  0
ENDTAB
  0
TABLE
  2
LTYPE
  5
5
100
AcDbSymbolTable
 70
6
  0
LTYPE
  5
14
100
AcDbSymbolTableRecord
100
AcDbLinetypeTableRecord
  2
BYBLOCK
 70
0
  3

 72
65
 73
0
 40
0.0
  0
LTYPE
  5
15
100
AcDbSymbolTableRecord
100
AcDbLinetypeTableRecord
  2
BYLAYER
 70
0
  3

 72
65
 73
0
 40
0.0
  0
LTYPE
  5
16
100
AcDbSymbolTableRecord
100
AcDbLinetypeTableRecord
  2
CONTINUOUS
 70
64
  3
Solid line
 72
65
 73
0
 40
0.0
  0
LTYPE
  5
1F5
100
AcDbSymbolTableRecord
100
AcDbLinetypeTableRecord
  2
CENTER
 70
64
  3
____ _ ____ _ ____ _ ____ _ ____ _ ____ _ ____
 72
65
 73
4
 40
0.6
 49
0.375
 74
0
 49
-0.075
 74
0
 49
0.075
 74
0
 49
-0.075
 74
0
  0
LTYPE
  5
1F6
100
AcDbSymbolTableRecord
100
AcDbLinetypeTableRecord
  2
HIDDEN
 70
64
  3
- - - - - - - - - - - - - - - - - - - -
 72
65
 73
2
 40
0.2
 49
0.1
 74
0
 49
-0.1
 74
0
  0
LTYPE
  5
1F7
100
AcDbSymbolTableRecord
100
AcDbLinetypeTableRecord
  2
PHANTOM
 70
64
  3
_____ _ _ _____ _ _ _____ _ _ _____
 72
65
 73
6
 40
0.8
 49
0.45
 74
0
 49
-0.05
 74
0
 49
0.1
 74
0
 49
-0.05
 74
0
 49
0.1
 74
0
 49
-0.05
 74
0
  0
LTYPE
  5
1F8
100
AcDbSymbolTableRecord
100
AcDbLinetypeTableRecord
  2
DOT
 70
64
  3
. . . . . . . . . . . . . . . . . . . .
 72
65
 73
2
 40
0.2
 49
0.1
 74
0
 49
-0.1
 74
0
  0
LTYPE
  5
1F9
100
AcDbSymbolTableRecord
100
AcDbLinetypeTableRecord
  2
DASHED
 70
64
  3
- - - - - - - - - - - - - - - - - - - -
 72
65
 73
2
 40
0.2
 49
0.1
 74
0
 49
-0.1
 74
0
  0
ENDTAB
  0
TABLE
  2
LAYER
  5
2
100
AcDbSymbolTable
 70
36
  0
LAYER
  5
10
100
AcDbSymbolTableRecord
100
AcDbLayerTableRecord
  2
0
 70
0
 62
7
  6
CONTINUOUS
370
-3
390
F
  0
LAYER
  5
1FA
100
AcDbSymbolTableRecord
100
AcDbLayerTableRecord
  2
DEFAULT_1
 70
0
 62
7
  6
CENTER
370
-3
390
F
  0
LAYER
  5
1FB
100
AcDbSymbolTableRecord
100
AcDbLayerTableRecord
  2
DEFAULT_2
 70
0
 62
8
  6
HIDDEN
370
-3
390
F
  0
LAYER
  5
1FC
100
AcDbSymbolTableRecord
100
AcDbLayerTableRecord
  2
DEFAULT_3
 70
0
 62
7
  6
PHANTOM
370
-3
390
F
  0
LAYER
  5
1FD
100
AcDbSymbolTableRecord
100
AcDbLayerTableRecord
  2
AUSFORMSCHRAEGEN
 70
0
 62
7
  6
CONTINUOUS
370
-3
390
F
  0
LAYER
  5
1FE
100
AcDbSymbolTableRecord
100
AcDbLayerTableRecord
  2
BEZUGSACHSEN
 70
0
 62
7
  6
CONTINUOUS
370
-3
390
F
  0
LAYER
  5
1FF
100
AcDbSymbolTableRecord
100
AcDbLayerTableRecord
  2
BEZUGSEBENEN
 70
0
 62
7
  6
CONTINUOUS
370
-3
390
F
  0
LAYER
  5
200
100
AcDbSymbolTableRecord
100
AcDbLayerTableRecord
  2
BG_STARTBEZUEGE
 70
0
 62
7
  6
CONTINUOUS
370
-3
390
F
  0
LAYER
  5
201
100
AcDbSymbolTableRecord
100
AcDbLayerTableRecord
  2
FASEN
 70
0
 62
7
  6
CONTINUOUS
370
-3
390
F
  0
LAYER
  5
202
100
AcDbSymbolTableRecord
100
AcDbLayerTableRecord
  2
FLAECHEN
 70
0
 62
7
  6
CONTINUOUS
370
-3
390
F
  0
LAYER
  5
203
100
AcDbSymbolTableRecord
100
AcDbLayerTableRecord
  2
FLAECHENVERBUND
 70
0
 62
7
  6
CONTINUOUS
370
-3
390
F
  0
LAYER
  5
204
100
AcDbSymbolTableRecord
100
AcDbLayerTableRecord
  2
HILFEN
 70
0
 62
7
  6
CONTINUOUS
370
-3
390
F
  0
LAYER
  5
205
100
AcDbSymbolTableRecord
100
AcDbLayerTableRecord
  2
KONSTRUKTIONSELEMENTE
 70
0
 62
7
  6
CONTINUOUS
370
-3
390
F
  0
LAYER
  5
206
100
AcDbSymbolTableRecord
100
AcDbLayerTableRecord
  2
KURVEN
 70
0
 62
7
  6
CONTINUOUS
370
-3
390
F
  0
LAYER
  5
207
100
AcDbSymbolTableRecord
100
AcDbLayerTableRecord
  2
NORM
 70
0
 62
7
  6
CONTINUOUS
370
-3
390
F
  0
LAYER
  5
208
100
AcDbSymbolTableRecord
100
AcDbLayerTableRecord
  2
PLATZIERUNG
 70
0
 62
7
  6
CONTINUOUS
370
-3
390
F
  0
LAYER
  5
209
100
AcDbSymbolTableRecord
100
AcDbLayerTableRecord
  2
RUNDUNGEN
 70
0
 62
7
  6
CONTINUOUS
370
-3
390
F
  0
LAYER
  5
20A
100
AcDbSymbolTableRecord
100
AcDbLayerTableRecord
  2
TEIL_STARTBEZUEGE
 70
0
 62
7
  6
CONTINUOUS
370
-3
390
F
  0
LAYER
  5
20B
100
AcDbSymbolTableRecord
100
AcDbLayerTableRecord
  2
T_STARTBEZUEGE
 70
0
 62
7
  6
CONTINUOUS
370
-3
390
F
  0
ENDTAB
  0
TABLE
  2
STYLE
  5
3
100
AcDbSymbolTable
 70
1
  0
STYLE
  5
11
100
AcDbSymbolTableRecord
100
AcDbTextStyleTableRecord
  2
STANDARD
 70
0
 40
0.0
 41
0.7
 50
0.0
 71
0
 42
0.2
  3
txt
  4

  0
STYLE
  5
20C
100
AcDbSymbolTableRecord
100
AcDbTextStyleTableRecord
  2
TEXTSTYLE_1
 70
0
 40
0.0
 41
0.8
 50
0.0
 71
0
 42
0.2
  3
gdt
  4

  0
ENDTAB
  0
TABLE
  2
VIEW
  5
6
100
AcDbSymbolTable
 70
0
  0
ENDTAB
  0
TABLE
  2
UCS
  5
7
100
AcDbSymbolTable
 70
0
  0
ENDTAB
  0
TABLE
  2
APPID
  5
9
100
AcDbSymbolTable
 70
1
  0
APPID
  5
20D
100
AcDbSymbolTableRecord
100
AcDbRegAppTableRecord
  2
ACAD
 70
0
  0
ENDTAB
  0
TABLE
  2
BLOCK_RECORD
  5
1
100
AcDbSymbolTable
 70
0
  0
BLOCK_RECORD
  5
20E
100
AcDbSymbolTableRecord
100
AcDbBlockTableRecord
  2
*Model_Space
  0
BLOCK_RECORD
  5
20F
100
AcDbSymbolTableRecord
100
AcDbBlockTableRecord
  2
*Paper_Space
  0
ENDTAB
  0
TABLE
  2
DIMSTYLE
  5
A
100
AcDbSymbolTable
 70
1
100
AcDbDimStyleTable
 71
0
  0
DIMSTYLE
105
210
100
AcDbSymbolTableRecord
100
AcDbDimStyleTableRecord
  2
STANDARD
 70
0
  3

  4

 40
1.0
 41
3.5
 42
0.0625
 43
0.38
 44
0.18
 45
0.0
 46
0.0
 47
0.005
 48
0.005
140
3.5
141
0.09
142
0.0
143
25.4
144
1.0
145
0.0
146
1.0
147
0.09
 71
1.0
 72
0.0
 73
0
 74
0
 75
0
 76
0
 77
1
 78
8
170
0
171
2
172
0
173
0
174
0
175
0
176
0
177
0
178
5
270
2
271
3
272
3
273
2
274
2
275
0
280
0
281
0
282
0
283
1
284
8
285
0
286
0
287
3
288
0
340
11
  0
ENDTAB
  0
ENDSEC
  0
SECTION
  2
BLOCKS
  0
BLOCK
  5
20
100
AcDbEntity
  8
0
100
AcDbBlockBegin
  2
*Model_Space
 70
0
 10
0.0
 20
0.0
 30
0.0
  3
*Model_Space
  1

  0
ENDBLK
  5
21
100
AcDbEntity
  8
0
100
AcDbBlockEnd
  0
BLOCK
  5
1C
100
AcDbEntity
  8
0
100
AcDbBlockBegin
  2
*Paper_Space
 70
0
 10
0.0
 20
0.0
 30
0.0
  3
*Paper_Space
  1

  0
ENDBLK
  5
1D
100
AcDbEntity
  8
0
100
AcDbBlockEnd
  0
ENDSEC
  0
SECTION
  2
ENTITIES
  0
MTEXT
  5
211
100
AcDbEntity
  8
0
100
AcDbMText
 62
5
  6
CONTINUOUS
  7
STANDARD
 71
2
 72
1
 10
218.5674021822
 20
323.1831703003
 30
0.0
 11
1.0
 21
0.0
 31
0.0
 44
0.9
  1
RUD\PICE\PCURT-K\P6
 40
3.5
 41
16.6666666667
  0
MTEXT
  5
212
100
AcDbEntity
  8
0
100
AcDbMText
 62
5
  6
CONTINUOUS
  7
STANDARD
 71
1
 72
1
 10
469.41425849
 20
276.2296912315
 30
0.0
 11
0.0
 21
1.0
 31
0.0
 44
0.9
  1
RUD
 40
3.5
 41
9.3333333333
  0
MTEXT
  5
213
100
AcDbEntity
  8
0
100
AcDbMText
 62
5
  6
CONTINUOUS
  7
STANDARD
 71
1
 72
1
 10
469.6831125344
 20
334.6936136156
 30
0.0
 11
0.0
 21
1.0
 31
0.0
 44
0.9
  1
ICE-CURT-K-6
 40
3.0
 41
28.0714285714
  0
MTEXT
  5
214
100
AcDbEntity
  8
0
100
AcDbMText
 62
5
  6
CONTINUOUS
  7
STANDARD
 71
1
 72
1
 10
250.6929186024
 20
122.1561422447
 30
0.0
 11
1.0
 21
0.0
 31
0.0
 44
0.9
  1
RUD ICE-CURT-K-6
 40
3.5
 41
44.1666666667
  0
LINE
  5
215
100
AcDbEntity
  8
0
100
AcDbLine
 62
7
  6
CONTINUOUS
 10
0.0
 20
0.0
 11
0.0
 21
420.0
  0
LINE
  5
216
100
AcDbEntity
  8
0
100
AcDbLine
 62
7
  6
CONTINUOUS
 10
0.0
 20
0.0
 11
594.0
 21
0.0
  0
LINE
  5
217
100
AcDbEntity
  8
0
100
AcDbLine
 62
7
  6
CONTINUOUS
 10
0.0
 20
420.0
 11
594.0
 21
420.0
  0
LINE
  5
218
100
AcDbEntity
  8
0
100
AcDbLine
 62
7
  6
CONTINUOUS
 10
594.0
 20
0.0
 11
594.0
 21
420.0
  0
LWPOLYLINE
  5
219
100
AcDbEntity
  8
BEZUGSACHSEN
100
AcDbPolyline
 62
7
  6
CONTINUOUS
 90
9
 70
0
 10
12.3557477489
 20
309.9002187168
 10
12.3578714852
 20
309.3917648674
 10
12.3670727781
 20
308.7273829212
 10
12.3835986197
 20
308.0646393826
 10
12.4074624395
 20
307.4061536091
 10
12.4386427001
 20
306.7545142291
 10
12.4770833426
 20
306.1122932907
 10
12.5226953511
 20
305.4820170111
 10
12.5613810425
 20
305.0204143847
  0
LWPOLYLINE
  5
21A
100
AcDbEntity
  8
RUNDUNGEN
100
AcDbPolyline
 62
7
  6
CONTINUOUS
 90
9
 70
0
 10
12.5613810425
 20
323.780023049
 10
12.5226953511
 20
323.3184204226
 10
12.4770833426
 20
322.688144143
 10
12.4386427001
 20
322.0459232047
 10
12.4074624395
 20
321.3942838246
 10
12.3835986197
 20
320.7357980511
 10
12.3670727781
 20
320.0730545125
 10
12.3578714852
 20
319.4086725663
 10
12.3557476906
 20
309.9002187168
  0
LINE
  5
21B
100
AcDbEntity
  8
RUNDUNGEN
100
AcDbLine
 62
7
  6
CONTINUOUS
 10
12.562638467
 20
323.7793810751
 11
12.5649080476
 21
323.7969413014
  0
LINE
  5
21C
100
AcDbEntity
  8
BEZUGSACHSEN
100
AcDbLine
 62
7
  6
CONTINUOUS
 10
12.562638467
 20
305.0210563587
 11
12.5649080476
 21
305.0034961323
  0
LINE
  5
21D
100
AcDbEntity
  8
BEZUGSACHSEN
100
AcDbLine
 62
7
  6
CONTINUOUS
 10
19.8470778962
 20
317.4002539066
 11
19.8470778962
 21
311.4001835272
  0
LINE
  5
21E
100
AcDbEntity
  8
0
100
AcDbLine
 62
7
  6
CONTINUOUS
 10
71.8557476906
 20
307.4002187169
 11
71.8557476906
 21
306.77896306
  0
LINE
  5
21F
100
AcDbEntity
  8
RUNDUNGEN
100
AcDbLine
 62
7
  6
CONTINUOUS
 10
93.7573734093
 20
296.9006958349
 11
93.7573734093
 21
331.9002187169
  0
LINE
  5
220
100
AcDbEntity
  8
RUNDUNGEN
100
AcDbLine
 62
7
  6
CONTINUOUS
 10
98.7573734093
 20
332.899714065
 11
98.7573734093
 21
295.9007233687
  0
LINE
  5
221
100
AcDbEntity
  8
RUNDUNGEN
100
AcDbLine
 62
7
  6
CONTINUOUS
 10
115.7573734093
 20
332.4002187169
 11
115.7573734093
 21
296.4002187169
  0
LINE
  5
222
100
AcDbEntity
  8
RUNDUNGEN
100
AcDbLine
 62
7
  6
CONTINUOUS
 10
121.7573734093
 20
306.5330288911
 11
121.7573734093
 21
322.2674085426
  0
LINE
  5
223
100
AcDbEntity
  8
RUNDUNGEN
100
AcDbLine
 62
7
  6
CONTINUOUS
 10
131.7573734093
 20
317.4003388233
 11
131.7573734093
 21
311.4000935998
  0
LINE
  5
224
100
AcDbEntity
  8
RUNDUNGEN
100
AcDbLine
 62
7
  6
CONTINUOUS
 10
16.6315243814
 20
327.767755321
 11
26.8500642175
 21
332.1052681399
  0
LINE
  5
225
100
AcDbEntity
  8
BEZUGSACHSEN
100
AcDbLine
 62
7
  6
CONTINUOUS
 10
26.8500642175
 20
296.6951692939
 11
16.6315243814
 21
301.0326821127
  0
LINE
  5
226
100
AcDbEntity
  8
BEZUGSACHSEN
100
AcDbLine
 62
7
  6
CONTINUOUS
 10
67.813112868
 20
304.3417383645
 11
58.3400863133
 21
297.7086537612
  0
LINE
  5
227
100
AcDbEntity
  8
0
100
AcDbLine
 62
7
  6
CONTINUOUS
 10
209.1496782547
 20
396.4002187169
 11
198.7573734093
 21
390.4002187169
  0
LINE
  5
228
100
AcDbEntity
  8
0
100
AcDbLine
 62
7
  6
CONTINUOUS
 10
209.1496782547
 20
232.4002187169
 11
228.3650685639
 21
232.4002187169
  0
LINE
  5
229
100
AcDbEntity
  8
0
100
AcDbLine
 62
7
  6
CONTINUOUS
 10
198.7573734093
 20
238.4002187169
 11
238.7573734093
 21
238.4002187169
  0
LINE
  5
22A
100
AcDbEntity
  8
0
100
AcDbLine
 62
7
  6
CONTINUOUS
 10
198.7573734093
 20
238.4002187169
 11
209.1496782547
 21
232.4002187169
  0
LINE
  5
22B
100
AcDbEntity
  8
RUNDUNGEN
100
AcDbLine
 62
7
  6
CONTINUOUS
 10
67.813112868
 20
324.4586990692
 11
58.3400863133
 21
331.0917836725
  0
LINE
  5
22C
100
AcDbEntity
  8
0
100
AcDbLine
 62
7
  6
CONTINUOUS
 10
198.7573734093
 20
249.4002187169
 11
238.7573734093
 21
249.4002187169
  0
LWPOLYLINE
  5
22D
100
AcDbEntity
  8
RUNDUNGEN
100
AcDbPolyline
 62
7
  6
CONTINUOUS
 90
4
 70
0
 10
70.9582568516
 20
322.9188296978
 10
70.8215013049
 20
322.9960885722
 10
70.6743863992
 20
323.0637178093
 10
70.5223055364
 20
323.1192029481
  0
LINE
  5
22E
100
AcDbEntity
  8
0
100
AcDbLine
 62
7
  6
CONTINUOUS
 10
166.3557476906
 20
321.4002187169
 11
166.3557476906
 21
311.9002187169
  0
LINE
  5
22F
100
AcDbEntity
  8
0
100
AcDbLine
 62
7
  6
CONTINUOUS
 10
166.3557476906
 20
307.8618703015
 11
166.3557476906
 21
307.4002187169
  0
LINE
  5
230
100
AcDbEntity
  8
0
100
AcDbLine
 62
7
  6
CONTINUOUS
 10
169.1057476906
 20
310.1502187169
 11
169.1057476906
 21
310.9632869456
  0
LINE
  5
231
100
AcDbEntity
  8
0
100
AcDbLine
 62
7
  6
CONTINUOUS
 10
169.1057476906
 20
311.9002187169
 11
169.1057476906
 21
318.6502187169
  0
LWPOLYLINE
  5
232
100
AcDbEntity
  8
RUNDUNGEN
100
AcDbPolyline
 62
7
  6
CONTINUOUS
 90
4
 70
0
 10
70.5222428689
 20
305.6812142571
 10
70.6743130747
 20
305.7366889922
 10
70.8214277857
 20
305.8043104588
 10
70.9583678752
 20
305.8816695166
  0
LINE
  5
233
100
AcDbEntity
  8
0
100
AcDbLine
 62
7
  6
CONTINUOUS
 10
207.4176274472
 20
264.4002187169
 11
230.0971193715
 21
264.4002187169
  0
LINE
  5
234
100
AcDbEntity
  8
0
100
AcDbLine
 62
7
  6
CONTINUOUS
 10
176.3557476906
 20
310.1503181267
 11
176.3557476906
 21
318.6501197856
  0
LINE
  5
235
100
AcDbEntity
  8
0
100
AcDbLine
 62
7
  6
CONTINUOUS
 10
166.3557476906
 20
307.4002187169
 11
169.1057476906
 21
310.1502187169
  0
LINE
  5
236
100
AcDbEntity
  8
0
100
AcDbLine
 62
7
  6
CONTINUOUS
 10
166.3557476906
 20
321.4002187169
 11
169.1057476906
 21
318.6502187169
  0
LINE
  5
237
100
AcDbEntity
  8
0
100
AcDbLine
 62
7
  6
CONTINUOUS
 10
198.7573734093
 20
390.4002187169
 11
198.7573734093
 21
379.4002187169
  0
LINE
  5
238
100
AcDbEntity
  8
0
100
AcDbLine
 62
7
  6
CONTINUOUS
 10
198.7573734093
 20
249.4002187169
 11
198.7573734093
 21
238.4002187169
  0
LINE
  5
239
100
AcDbEntity
  8
0
100
AcDbLine
 62
7
  6
CONTINUOUS
 10
238.7573734093
 20
379.4002187169
 11
230.0971193715
 21
364.4002187169
  0
LINE
  5
23A
100
AcDbEntity
  8
0
100
AcDbLine
 62
7
  6
CONTINUOUS
 10
202.0253226018
 20
330.6681679093
 11
202.8291701791
 21
331.1322695244
  0
LINE
  5
23B
100
AcDbEntity
  8
0
100
AcDbLine
 62
7
  6
CONTINUOUS
 10
126.5858392224
 20
295.7017556129
 11
133.1713398546
 21
298.0986818208
  0
LINE
  5
23C
100
AcDbEntity
  8
BEZUGSACHSEN
100
AcDbLine
 62
7
  6
CONTINUOUS
 10
98.2573734093
 20
295.4002187169
 11
95.2573734093
 21
295.4002187169
  0
LINE
  5
23D
100
AcDbEntity
  8
0
100
AcDbLine
 62
7
  6
CONTINUOUS
 10
116.7573734093
 20
295.4002187169
 11
124.8757385058
 21
295.4002187169
  0
LINE
  5
23E
100
AcDbEntity
  8
BEZUGSACHSEN
100
AcDbLine
 62
7
  6
CONTINUOUS
 10
52.6043742358
 20
295.9002187169
 11
30.7573746924
 21
295.9002187169
  0
LINE
  5
23F
100
AcDbEntity
  8
RUNDUNGEN
100
AcDbLine
 62
7
  6
CONTINUOUS
 10
384.9103725829
 20
295.9002187169
 11
406.7573721263
 21
295.9002187169
  0
LINE
  5
240
100
AcDbEntity
  8
0
100
AcDbLine
 62
7
  6
CONTINUOUS
 10
233.6855766396
 20
297.4002187169
 11
225.2573734093
 21
297.4002187169
  0
LINE
  5
241
100
AcDbEntity
  8
0
100
AcDbLine
 62
7
  6
CONTINUOUS
 10
212.2573734093
 20
297.4002187169
 11
203.8291701791
 21
297.4002187169
  0
LINE
  5
242
100
AcDbEntity
  8
0
100
AcDbLine
 62
7
  6
CONTINUOUS
 10
134.8814405712
 20
298.4002187169
 11
201.0253226018
 21
298.4002187169
  0
LINE
  5
243
100
AcDbEntity
  8
0
100
AcDbLine
 62
7
  6
CONTINUOUS
 10
236.4894242169
 20
298.4002187169
 11
320.2748975565
 21
298.4002187169
  0
LINE
  5
244
100
AcDbEntity
  8
0
100
AcDbLine
 62
7
  6
CONTINUOUS
 10
126.5858392224
 20
333.0986818208
 11
133.1713398546
 21
330.7017556129
  0
LINE
  5
245
100
AcDbEntity
  8
0
100
AcDbLine
 62
7
  6
CONTINUOUS
 10
202.0253226018
 20
298.1322695244
 11
202.8291701791
 21
297.6681679093
  0
LINE
  5
246
100
AcDbEntity
  8
0
100
AcDbLine
 62
7
  6
CONTINUOUS
 10
230.0971193715
 20
264.4002187169
 11
238.7573734093
 21
249.4002187169
  0
LINE
  5
247
100
AcDbEntity
  8
RUNDUNGEN
100
AcDbLine
 62
7
  6
CONTINUOUS
 10
206.7573734093
 20
311.4004722031
 11
206.7573734093
 21
317.3999658895
  0
LINE
  5
248
100
AcDbEntity
  8
0
100
AcDbLine
 62
7
  6
CONTINUOUS
 10
212.7573734093
 20
364.4002187169
 11
212.7573734093
 21
331.2159425665
  0
LINE
  5
249
100
AcDbEntity
  8
0
100
AcDbLine
 62
7
  6
CONTINUOUS
 10
212.7573734093
 20
297.5844938044
 11
212.7573734093
 21
264.4002187169
  0
LINE
  5
24A
100
AcDbEntity
  8
RUNDUNGEN
100
AcDbLine
 62
7
  6
CONTINUOUS
 10
300.7571298889
 20
306.4002187169
 11
235.7575623894
 21
306.4002187169
  0
LINE
  5
24B
100
AcDbEntity
  8
RUNDUNGEN
100
AcDbLine
 62
7
  6
CONTINUOUS
 10
136.7575341832
 20
306.4002187169
 11
201.7573734093
 21
306.4002187169
  0
LINE
  5
24C
100
AcDbEntity
  8
0
100
AcDbLine
 62
7
  6
CONTINUOUS
 10
235.7573734093
 20
306.4002187169
 11
236.4894242169
 21
306.4002187169
  0
LINE
  5
24D
100
AcDbEntity
  8
0
100
AcDbLine
 62
7
  6
CONTINUOUS
 10
361.2573734093
 20
307.4002187169
 11
322.7573734093
 21
307.4002187169
  0
LINE
  5
24E
100
AcDbEntity
  8
0
100
AcDbLine
 62
7
  6
CONTINUOUS
 10
303.7568678318
 20
307.4002187169
 11
276.1589991281
 21
307.4002187169
  0
LINE
  5
24F
100
AcDbEntity
  8
0
100
AcDbLine
 62
7
  6
CONTINUOUS
 10
76.2573734093
 20
307.4002187169
 11
93.7573734093
 21
307.4002187169
  0
LINE
  5
250
100
AcDbEntity
  8
0
100
AcDbLine
 62
7
  6
CONTINUOUS
 10
98.7573734093
 20
307.4002187169
 11
115.7573734093
 21
307.4002187169
  0
LINE
  5
251
100
AcDbEntity
  8
0
100
AcDbLine
 62
7
  6
CONTINUOUS
 10
133.7573734093
 20
307.4002187169
 11
166.3557476906
 21
307.4002187169
  0
LINE
  5
252
100
AcDbEntity
  8
0
100
AcDbLine
 62
7
  6
CONTINUOUS
 10
76.2573734093
 20
307.8618703015
 11
93.7573734093
 21
307.8618703015
  0
LINE
  5
253
100
AcDbEntity
  8
0
100
AcDbLine
 62
7
  6
CONTINUOUS
 10
98.7573734093
 20
307.8618703015
 11
115.7573734093
 21
307.8618703015
  0
LINE
  5
254
100
AcDbEntity
  8
0
100
AcDbLine
 62
7
  6
CONTINUOUS
 10
133.2252143976
 20
307.8618703015
 11
166.3557476906
 21
307.8618703015
  0
LINE
  5
255
100
AcDbEntity
  8
0
100
AcDbLine
 62
7
  6
CONTINUOUS
 10
273.4089991281
 20
310.1502187169
 11
266.1589991281
 21
310.1502187169
  0
LINE
  5
256
100
AcDbEntity
  8
0
100
AcDbLine
 62
7
  6
CONTINUOUS
 10
169.1057476906
 20
310.1502187169
 11
176.3557476906
 21
310.1502187169
  0
LINE
  5
257
100
AcDbEntity
  8
BEZUGSACHSEN
100
AcDbLine
 62
7
  6
CONTINUOUS
 10
20.8470778962
 20
310.4002187169
 11
30.5273142816
 21
310.4002187169
  0
LINE
  5
258
100
AcDbEntity
  8
RUNDUNGEN
100
AcDbLine
 62
7
  6
CONTINUOUS
 10
406.9874325371
 20
310.4002187169
 11
416.6676689225
 21
310.4002187169
  0
LINE
  5
259
100
AcDbEntity
  8
0
100
AcDbLine
 62
7
  6
CONTINUOUS
 10
169.1057476906
 20
310.9632869456
 11
176.3557476906
 21
310.9632869456
  0
LINE
  5
25A
100
AcDbEntity
  8
0
100
AcDbLine
 62
7
  6
CONTINUOUS
 10
76.3557476906
 20
311.9002187169
 11
93.7573734093
 21
311.9002187169
  0
LINE
  5
25B
100
AcDbEntity
  8
0
100
AcDbLine
 62
7
  6
CONTINUOUS
 10
98.7573734093
 20
311.9002187169
 11
115.7573734093
 21
311.9002187169
  0
LINE
  5
25C
100
AcDbEntity
  8
0
100
AcDbLine
 62
7
  6
CONTINUOUS
 10
131.7573734093
 20
311.9002187169
 11
176.3557476906
 21
311.9002187169
  0
LINE
  5
25D
100
AcDbEntity
  8
0
100
AcDbLine
 62
7
  6
CONTINUOUS
 10
224.7573734093
 20
364.4002187169
 11
224.7573734093
 21
331.2159181751
  0
LINE
  5
25E
100
AcDbEntity
  8
0
100
AcDbLine
 62
7
  6
CONTINUOUS
 10
224.7573734093
 20
297.5845183512
 11
224.7573734093
 21
264.4002187169
  0
LINE
  5
25F
100
AcDbEntity
  8
RUNDUNGEN
100
AcDbLine
 62
7
  6
CONTINUOUS
 10
230.7573734093
 20
317.3999984706
 11
230.7573734093
 21
311.400462307
  0
LINE
  5
260
100
AcDbEntity
  8
0
100
AcDbLine
 62
7
  6
CONTINUOUS
 10
207.4176274472
 20
264.4002187169
 11
198.7573734093
 21
249.4002187169
  0
LINE
  5
261
100
AcDbEntity
  8
RUNDUNGEN
100
AcDbLine
 62
7
  6
CONTINUOUS
 10
20.8470778962
 20
318.4002187169
 11
30.5273142816
 21
318.4002187169
  0
LINE
  5
262
100
AcDbEntity
  8
BEZUGSACHSEN
100
AcDbLine
 62
7
  6
CONTINUOUS
 10
406.9874325371
 20
318.4002187169
 11
416.6676689225
 21
318.4002187169
  0
LINE
  5
263
100
AcDbEntity
  8
0
100
AcDbLine
 62
7
  6
CONTINUOUS
 10
273.4089991281
 20
318.6502187169
 11
266.1589991281
 21
318.6502187169
  0
LINE
  5
264
100
AcDbEntity
  8
0
100
AcDbLine
 62
7
  6
CONTINUOUS
 10
169.1057476906
 20
318.6502187169
 11
176.3557476906
 21
318.6502187169
  0
LINE
  5
265
100
AcDbEntity
  8
0
100
AcDbLine
 62
7
  6
CONTINUOUS
 10
361.2573734093
 20
321.4002187169
 11
322.7573734093
 21
321.4002187169
  0
LINE
  5
266
100
AcDbEntity
  8
0
100
AcDbLine
 62
7
  6
CONTINUOUS
 10
303.7525267586
 20
321.4002187169
 11
276.1589991281
 21
321.4002187169
  0
LINE
  5
267
100
AcDbEntity
  8
0
100
AcDbLine
 62
7
  6
CONTINUOUS
 10
76.2573734093
 20
321.4002187169
 11
93.7573734093
 21
321.4002187169
  0
LINE
  5
268
100
AcDbEntity
  8
0
100
AcDbLine
 62
7
  6
CONTINUOUS
 10
98.7573734093
 20
321.4002187169
 11
115.7573734093
 21
321.4002187169
  0
LINE
  5
269
100
AcDbEntity
  8
0
100
AcDbLine
 62
7
  6
CONTINUOUS
 10
133.7588827026
 20
321.4002187169
 11
166.3557476906
 21
321.4002187169
  0
LINE
  5
26A
100
AcDbEntity
  8
0
100
AcDbLine
 62
7
  6
CONTINUOUS
 10
236.4894242169
 20
322.4002187169
 11
235.7573734093
 21
322.4002187169
  0
LINE
  5
26B
100
AcDbEntity
  8
RUNDUNGEN
100
AcDbLine
 62
7
  6
CONTINUOUS
 10
201.7573734093
 20
322.4002187169
 11
136.7574187806
 21
322.4002187169
  0
LINE
  5
26C
100
AcDbEntity
  8
RUNDUNGEN
100
AcDbLine
 62
7
  6
CONTINUOUS
 10
235.7573734093
 20
322.4002187169
 11
300.7573068251
 21
322.4002187169
  0
LINE
  5
26D
100
AcDbEntity
  8
0
100
AcDbLine
 62
7
  6
CONTINUOUS
 10
134.8814405712
 20
330.4002187169
 11
201.0253226018
 21
330.4002187169
  0
LINE
  5
26E
100
AcDbEntity
  8
0
100
AcDbLine
 62
7
  6
CONTINUOUS
 10
236.4894242169
 20
330.4002187169
 11
320.2748975565
 21
330.4002187169
  0
LINE
  5
26F
100
AcDbEntity
  8
0
100
AcDbLine
 62
7
  6
CONTINUOUS
 10
198.7573734093
 20
379.4002187169
 11
207.4176274472
 21
364.4002187169
  0
LINE
  5
270
100
AcDbEntity
  8
0
100
AcDbLine
 62
7
  6
CONTINUOUS
 10
238.7573734093
 20
390.4002187169
 11
238.7573734093
 21
379.4002187169
  0
LINE
  5
271
100
AcDbEntity
  8
0
100
AcDbLine
 62
7
  6
CONTINUOUS
 10
238.7573734093
 20
249.4002187169
 11
238.7573734093
 21
238.4002187169
  0
LINE
  5
272
100
AcDbEntity
  8
0
100
AcDbLine
 62
7
  6
CONTINUOUS
 10
234.6855766396
 20
297.6681679093
 11
235.4894242169
 21
298.1322695244
  0
LINE
  5
273
100
AcDbEntity
  8
0
100
AcDbLine
 62
7
  6
CONTINUOUS
 10
233.6855766396
 20
331.4002187169
 11
225.2573734093
 21
331.4002187169
  0
LINE
  5
274
100
AcDbEntity
  8
0
100
AcDbLine
 62
7
  6
CONTINUOUS
 10
212.2573734093
 20
331.4002187169
 11
203.8291701791
 21
331.4002187169
  0
LINE
  5
275
100
AcDbEntity
  8
RUNDUNGEN
100
AcDbLine
 62
7
  6
CONTINUOUS
 10
52.6043742358
 20
332.9002187169
 11
30.7573746924
 21
332.9002187169
  0
LINE
  5
276
100
AcDbEntity
  8
BEZUGSACHSEN
100
AcDbLine
 62
7
  6
CONTINUOUS
 10
384.9103725829
 20
332.9002187169
 11
406.7573721263
 21
332.9002187169
  0
LINE
  5
277
100
AcDbEntity
  8
RUNDUNGEN
100
AcDbLine
 62
7
  6
CONTINUOUS
 10
124.8757385058
 20
333.4002187169
 11
116.7573734093
 21
333.4002187169
  0
LINE
  5
278
100
AcDbEntity
  8
BEZUGSACHSEN
100
AcDbLine
 62
7
  6
CONTINUOUS
 10
98.2573734093
 20
333.4002187169
 11
95.2573734093
 21
333.4002187169
  0
LINE
  5
279
100
AcDbEntity
  8
0
100
AcDbLine
 62
7
  6
CONTINUOUS
 10
116.7573734093
 20
333.4002187169
 11
124.8757385058
 21
333.4002187169
  0
LINE
  5
27A
100
AcDbEntity
  8
0
100
AcDbLine
 62
7
  6
CONTINUOUS
 10
234.6855766396
 20
331.1322695244
 11
235.4894242169
 21
330.6681679093
  0
LINE
  5
27B
100
AcDbEntity
  8
0
100
AcDbLine
 62
7
  6
CONTINUOUS
 10
276.1589991281
 20
321.4002187169
 11
273.4089991281
 21
318.6502187169
  0
LWPOLYLINE
  5
27C
100
AcDbEntity
  8
RUNDUNGEN
100
AcDbPolyline
 62
7
  6
CONTINUOUS
 90
4
 70
0
 10
366.9925087957
 20
323.1192246724
 10
366.8404430866
 20
323.063752169
 10
366.6933305954
 20
322.9961326368
 10
366.5563622394
 20
322.9187581108
  0
LINE
  5
27D
100
AcDbEntity
  8
0
100
AcDbLine
 62
7
  6
CONTINUOUS
 10
276.1589991281
 20
307.4002187169
 11
273.4089991281
 21
310.1502187169
  0
LINE
  5
27E
100
AcDbEntity
  8
0
100
AcDbLine
 62
7
  6
CONTINUOUS
 10
266.1589991281
 20
310.1504096789
 11
266.1589991281
 21
318.6500277548
  0
LINE
  5
27F
100
AcDbEntity
  8
0
100
AcDbLine
 62
7
  6
CONTINUOUS
 10
273.4089991281
 20
310.1502187169
 11
273.4089991281
 21
318.6502187169
  0
LINE
  5
280
100
AcDbEntity
  8
0
100
AcDbLine
 62
7
  6
CONTINUOUS
 10
276.1589991281
 20
307.4002187169
 11
276.1589991281
 21
321.4002187169
  0
LINE
  5
281
100
AcDbEntity
  8
0
100
AcDbLine
 62
7
  6
CONTINUOUS
 10
207.4176274472
 20
364.4002187169
 11
230.0971193715
 21
364.4002187169
  0
LINE
  5
282
100
AcDbEntity
  8
0
100
AcDbLine
 62
7
  6
CONTINUOUS
 10
238.7573734093
 20
238.4002187169
 11
228.3650685639
 21
232.4002187169
  0
LINE
  5
283
100
AcDbEntity
  8
0
100
AcDbLine
 62
7
  6
CONTINUOUS
 10
198.7573734093
 20
379.4002187169
 11
238.7573734093
 21
379.4002187169
  0
LINE
  5
284
100
AcDbEntity
  8
0
100
AcDbLine
 62
7
  6
CONTINUOUS
 10
198.7573734093
 20
390.4002187169
 11
238.7573734093
 21
390.4002187169
  0
LWPOLYLINE
  5
285
100
AcDbEntity
  8
RUNDUNGEN
100
AcDbPolyline
 62
7
  6
CONTINUOUS
 90
4
 70
0
 10
366.5564701416
 20
305.8816193576
 10
366.6932553119
 20
305.8043441419
 10
366.8403678995
 20
305.7367166851
 10
366.9924443975
 20
305.6812335527
  0
LINE
  5
286
100
AcDbEntity
  8
0
100
AcDbLine
 62
7
  6
CONTINUOUS
 10
228.3650685639
 20
396.4002187169
 11
238.7573734093
 21
390.4002187169
  0
LINE
  5
287
100
AcDbEntity
  8
RUNDUNGEN
100
AcDbLine
 62
7
  6
CONTINUOUS
 10
305.7573734093
 20
311.400469929
 11
305.7573734093
 21
317.3999919999
  0
LINE
  5
288
100
AcDbEntity
  8
BEZUGSACHSEN
100
AcDbLine
 62
7
  6
CONTINUOUS
 10
369.7016339507
 20
324.4586990692
 11
379.1746605054
 21
331.0917836725
  0
LINE
  5
289
100
AcDbEntity
  8
0
100
AcDbLine
 62
7
  6
CONTINUOUS
 10
209.1496782547
 20
396.4002187169
 11
228.3650685639
 21
396.4002187169
  0
LINE
  5
28A
100
AcDbEntity
  8
RUNDUNGEN
100
AcDbLine
 62
7
  6
CONTINUOUS
 10
369.7016339507
 20
304.3417383645
 11
379.1746605054
 21
297.7086537612
  0
LINE
  5
28B
100
AcDbEntity
  8
0
100
AcDbLine
 62
7
  6
CONTINUOUS
 10
322.2639413472
 20
328.6092756434
 11
322.7573734093
 21
323.9145831711
  0
LINE
  5
28C
100
AcDbEntity
  8
0
100
AcDbLine
 62
7
  6
CONTINUOUS
 10
322.7573734093
 20
323.9145831711
 11
322.7573734093
 21
304.8858542626
  0
LINE
  5
28D
100
AcDbEntity
  8
0
100
AcDbLine
 62
7
  6
CONTINUOUS
 10
322.2639413472
 20
300.1911617903
 11
322.7573734093
 21
304.8858542626
  0
LINE
  5
28E
100
AcDbEntity
  8
RUNDUNGEN
100
AcDbLine
 62
7
  6
CONTINUOUS
 10
410.6646826011
 20
296.6951692939
 11
420.8832224372
 21
301.0326821127
  0
LINE
  5
28F
100
AcDbEntity
  8
BEZUGSACHSEN
100
AcDbLine
 62
7
  6
CONTINUOUS
 10
410.6646826011
 20
332.1052681399
 11
420.8832224372
 21
327.767755321
  0
LWPOLYLINE
  5
290
100
AcDbEntity
  8
BEZUGSACHSEN
100
AcDbPolyline
 62
7
  6
CONTINUOUS
 90
9
 70
0
 10
425.1589990697
 20
318.9002187169
 10
425.1568753335
 20
319.4086725663
 10
425.1476740405
 20
320.0730545125
 10
425.1311481989
 20
320.7357980511
 10
425.1072843791
 20
321.3942838246
 10
425.0761041186
 20
322.0459232047
 10
425.0376634761
 20
322.688144143
 10
424.9920514676
 20
323.3184204226
 10
424.9533657762
 20
323.780023049
  0
LINE
  5
291
100
AcDbEntity
  8
BEZUGSACHSEN
100
AcDbLine
 62
7
  6
CONTINUOUS
 10
417.6676689225
 20
311.4001835272
 11
417.6676689225
 21
317.4002539066
  0
LWPOLYLINE
  5
292
100
AcDbEntity
  8
RUNDUNGEN
100
AcDbPolyline
 62
7
  6
CONTINUOUS
 90
9
 70
0
 10
424.9533657762
 20
305.0204143847
 10
424.9920514676
 20
305.4820170111
 10
425.0376634761
 20
306.1122932907
 10
425.0761041186
 20
306.7545142291
 10
425.1072843791
 20
307.4061536091
 10
425.1311481989
 20
308.0646393826
 10
425.1476740405
 20
308.7273829212
 10
425.1568753335
 20
309.3917648674
 10
425.1589991281
 20
318.9002187169
  0
LINE
  5
293
100
AcDbEntity
  8
RUNDUNGEN
100
AcDbLine
 62
7
  6
CONTINUOUS
 10
424.9521083517
 20
305.0210563587
 11
424.9498387711
 21
305.0034961323
  0
LINE
  5
294
100
AcDbEntity
  8
BEZUGSACHSEN
100
AcDbLine
 62
7
  6
CONTINUOUS
 10
424.9521083517
 20
323.7793810751
 11
424.9498387711
 21
323.7969413014
  0
LINE
  5
295
100
AcDbEntity
  8
0
100
AcDbLine
 62
7
  6
CONTINUOUS
 10
461.7068119845
 20
232.4002187169
 11
480.9218664354
 21
232.4002187169
  0
LINE
  5
296
100
AcDbEntity
  8
0
100
AcDbLine
 62
7
  6
CONTINUOUS
 10
461.7066440554
 20
396.4002187169
 11
451.31433921
 21
390.4002187169
  0
LINE
  5
297
100
AcDbEntity
  8
0
100
AcDbLine
 62
7
  6
CONTINUOUS
 10
451.31433921
 20
238.4002187169
 11
491.31433921
 21
238.4002187169
  0
LINE
  5
298
100
AcDbEntity
  8
0
100
AcDbLine
 62
7
  6
CONTINUOUS
 10
451.31433921
 20
238.4002187169
 11
461.7066440554
 21
232.4002187169
  0
LINE
  5
299
100
AcDbEntity
  8
0
100
AcDbLine
 62
7
  6
CONTINUOUS
 10
451.31433921
 20
249.4002187169
 11
491.31433921
 21
249.4002187169
  0
LINE
  5
29A
100
AcDbEntity
  8
0
100
AcDbLine
 62
7
  6
CONTINUOUS
 10
459.9747914508
 20
264.4002187169
 11
482.6538869691
 21
264.4002187169
  0
LINE
  5
29B
100
AcDbEntity
  8
0
100
AcDbLine
 62
7
  6
CONTINUOUS
 10
451.31433921
 20
390.4002187169
 11
451.31433921
 21
379.4002187169
  0
LINE
  5
29C
100
AcDbEntity
  8
0
100
AcDbLine
 62
7
  6
CONTINUOUS
 10
451.31433921
 20
249.4002187169
 11
451.31433921
 21
238.4002187169
  0
LWPOLYLINE
  5
29D
100
AcDbEntity
  8
RUNDUNGEN
100
AcDbPolyline
 62
7
  6
CONTINUOUS
 90
4
 70
0
 10
453.8143566802
 20
325.7052860261
 10
453.8356142213
 20
325.2855670972
 10
453.9087635882
 20
324.7379398939
 10
453.940881293
 20
324.5718540448
  0
LWPOLYLINE
  5
29E
100
AcDbEntity
  8
BEZUGSACHSEN
100
AcDbPolyline
 62
7
  6
CONTINUOUS
 90
4
 70
0
 10
453.8291732623
 20
325.4095788508
 10
453.8351060739
 20
325.2910437448
 10
453.9071282476
 20
324.7477092152
 10
453.9405375267
 20
324.5741857309
  0
LWPOLYLINE
  5
29F
100
AcDbEntity
  8
RUNDUNGEN
100
AcDbPolyline
 62
7
  6
CONTINUOUS
 90
5
 70
0
 10
453.8143623556
 20
325.8704518956
 10
453.8307714256
 20
325.4736047313
 10
453.8867236922
 20
324.9391923311
 10
453.9716200575
 20
324.3633602247
 10
454.0778493791
 20
323.7435613303
  0
LINE
  5
2A0
100
AcDbEntity
  8
BEZUGSACHSEN
100
AcDbLine
 62
7
  6
CONTINUOUS
 10
453.8143507857
 20
325.7047063092
 11
453.81433921
 21
325.7127208847
  0
LINE
  5
2A1
100
AcDbEntity
  8
RUNDUNGEN
100
AcDbLine
 62
7
  6
CONTINUOUS
 10
453.81433921
 20
325.7127118108
 11
453.81433921
 21
331.9002187169
  0
LINE
  5
2A2
100
AcDbEntity
  8
0
100
AcDbLine
 62
7
  6
CONTINUOUS
 10
453.81433921
 20
325.8821378745
 11
453.81433921
 21
331.9002187169
  0
LINE
  5
2A3
100
AcDbEntity
  8
BEZUGSACHSEN
100
AcDbLine
 62
7
  6
CONTINUOUS
 10
453.81433921
 20
296.9002187169
 11
453.8143497839
 21
303.0953753339
  0
LWPOLYLINE
  5
2A4
100
AcDbEntity
  8
BEZUGSACHSEN
100
AcDbPolyline
 62
7
  6
CONTINUOUS
 90
8
 70
0
 10
455.7076901805
 20
314.4002187168
 10
455.6991238347
 20
313.7876311713
 10
455.6627189844
 20
312.9942246005
 10
455.5968608415
 20
312.1861686367
 10
455.5019907806
 20
311.3701464928
 10
455.3799954225
 20
310.5525417373
 10
455.2340463627
 20
309.7391836266
 10
455.1980409565
 20
309.564442755
  0
LINE
  5
2A5
100
AcDbEntity
  8
BEZUGSACHSEN
100
AcDbLine
 62
7
  6
CONTINUOUS
 10
454.5725392037
 20
307.782478777
 11
454.5726321034
 21
307.7830273754
  0
LWPOLYLINE
  5
2A6
100
AcDbEntity
  8
RUNDUNGEN
100
AcDbPolyline
 62
7
  6
CONTINUOUS
 90
3
 70
0
 10
454.0778493791
 20
305.0568761034
 10
453.9716200575
 20
304.437077209
 10
453.9405375267
 20
304.2262517028
  0
LWPOLYLINE
  5
2A7
100
AcDbEntity
  8
BEZUGSACHSEN
100
AcDbPolyline
 62
7
  6
CONTINUOUS
 90
5
 70
0
 10
454.0778493791
 20
305.0568761034
 10
453.9716200575
 20
304.437077209
 10
453.8867236922
 20
303.8612451026
 10
453.8307714256
 20
303.3268327024
 10
453.8143623556
 20
302.9299855381
  0
LINE
  5
2A8
100
AcDbEntity
  8
BEZUGSACHSEN
100
AcDbLine
 62
7
  6
CONTINUOUS
 10
454.5726313917
 20
307.7830274962
 11
454.4625830135
 21
307.1515755446
  0
LINE
  5
2A9
100
AcDbEntity
  8
BEZUGSACHSEN
100
AcDbLine
 62
7
  6
CONTINUOUS
 10
454.4625830135
 20
307.1515755446
 11
454.0778493791
 21
305.0568761034
  0
LINE
  5
2AA
100
AcDbEntity
  8
RUNDUNGEN
100
AcDbLine
 62
7
  6
CONTINUOUS
 10
454.258550298
 20
306.0391893037
 11
454.0778493791
 21
305.0568761034
  0
LWPOLYLINE
  5
2AB
100
AcDbEntity
  8
BEZUGSACHSEN
100
AcDbPolyline
 62
7
  6
CONTINUOUS
 90
4
 70
0
 10
453.9405375267
 20
304.2262517028
 10
453.9071282476
 20
304.0527282185
 10
453.8351060739
 20
303.5093936889
 10
453.81435561
 20
303.0948080614
  0
LWPOLYLINE
  5
2AC
100
AcDbEntity
  8
RUNDUNGEN
100
AcDbPolyline
 62
7
  6
CONTINUOUS
 90
4
 70
0
 10
453.940881293
 20
304.228583389
 10
453.9087635882
 20
304.0624975398
 10
453.8356142213
 20
303.5148703366
 10
453.8294443636
 20
303.3930497532
  0
LINE
  5
2AD
100
AcDbEntity
  8
0
100
AcDbLine
 62
7
  6
CONTINUOUS
 10
491.31433921
 20
379.4002187169
 11
482.6540851721
 21
364.4002187169
  0
LINE
  5
2AE
100
AcDbEntity
  8
0
100
AcDbLine
 62
7
  6
CONTINUOUS
 10
482.6540851721
 20
264.4002187169
 11
491.31433921
 21
249.4002187169
  0
LWPOLYLINE
  5
2AF
100
AcDbEntity
  8
RUNDUNGEN
100
AcDbPolyline
 62
7
  6
CONTINUOUS
 90
8
 70
0
 10
455.1979916922
 20
319.2358931677
 10
455.2358697019
 20
319.0518205174
 10
455.3816989645
 20
318.2375509301
 10
455.5034237205
 20
317.419509019
 10
455.5978842751
 20
316.6039169316
 10
455.6632687597
 20
315.7975573279
 10
455.6992667684
 20
315.0076701978
 10
455.7076901805
 20
314.4002187168
  0
LWPOLYLINE
  5
2B0
100
AcDbEntity
  8
RUNDUNGEN
100
AcDbPolyline
 62
7
  6
CONTINUOUS
 90
15
 70
0
 10
454.5725423038
 20
321.01794025
 10
454.6199963301
 20
320.7618907054
 10
454.7012816891
 20
320.406858231
 10
454.7977228098
 20
320.0763940799
 10
454.9096467814
 20
319.7740682666
 10
455.0376842079
 20
319.5007503445
 10
455.18232575
 20
319.2567289336
 10
455.3430772309
 20
319.04292882
 10
455.520359367
 20
318.8584156997
 10
455.7134443351
 20
318.7037092537
 10
455.9194085389
 20
318.5804501206
 10
456.1340172239
 20
318.4896518846
 10
456.3531479681
 20
318.4309872649
 10
456.5718277427
 20
318.4032478923
 10
456.671323613
 20
318.4002225673
  0
LINE
  5
2B1
100
AcDbEntity
  8
RUNDUNGEN
100
AcDbLine
 62
7
  6
CONTINUOUS
 10
454.0778493791
 20
323.7435613303
 11
454.4625830135
 21
321.6488618892
  0
LINE
  5
2B2
100
AcDbEntity
  8
RUNDUNGEN
100
AcDbLine
 62
7
  6
CONTINUOUS
 10
454.4625830135
 20
321.6488618892
 11
454.5726313917
 21
321.0174099375
  0
LINE
  5
2B3
100
AcDbEntity
  8
RUNDUNGEN
100
AcDbLine
 62
7
  6
CONTINUOUS
 10
454.5725423038
 20
321.01794025
 11
454.5726321034
 21
321.0174100584
  0
LWPOLYLINE
  5
2B4
100
AcDbEntity
  8
BEZUGSACHSEN
100
AcDbPolyline
 62
7
  6
CONTINUOUS
 90
4
 70
0
 10
453.940881293
 20
324.5718540448
 10
453.9716200575
 20
324.3633602247
 10
454.0778493791
 20
323.7435613303
 10
454.258550298
 20
322.7612481301
  0
LWPOLYLINE
  5
2B5
100
AcDbEntity
  8
BEZUGSACHSEN
100
AcDbPolyline
 62
7
  6
CONTINUOUS
 90
6
 70
0
 10
471.9882480013
 20
295.9002190082
 10
472.2977328621
 20
295.9149497746
 10
472.7505880804
 20
295.9810185127
 10
473.2540197086
 20
296.1008913701
 10
473.804231719
 20
296.2710490794
 10
474.3912837602
 20
296.482815783
  0
LINE
  5
2B6
100
AcDbEntity
  8
BEZUGSACHSEN
100
AcDbLine
 62
7
  6
CONTINUOUS
 10
471.9882483071
 20
295.9002190076
 11
454.81433921
 21
295.9002187169
  0
LINE
  5
2B7
100
AcDbEntity
  8
0
100
AcDbLine
 62
7
  6
CONTINUOUS
 10
465.31433921
 20
364.4002187169
 11
465.31433921
 21
332.9002187169
  0
LINE
  5
2B8
100
AcDbEntity
  8
0
100
AcDbLine
 62
7
  6
CONTINUOUS
 10
465.31433921
 20
295.9002187169
 11
465.31433921
 21
264.4002187169
  0
LINE
  5
2B9
100
AcDbEntity
  8
BEZUGSACHSEN
100
AcDbLine
 62
7
  6
CONTINUOUS
 10
476.8925335243
 20
297.3267210815
 11
477.2256440264
 21
297.4082444715
  0
LINE
  5
2BA
100
AcDbEntity
  8
BEZUGSACHSEN
100
AcDbLine
 62
7
  6
CONTINUOUS
 10
488.8566969944
 20
300.1449176696
 11
477.2256595175
 21
297.4082481547
  0
LWPOLYLINE
  5
2BB
100
AcDbEntity
  8
RUNDUNGEN
100
AcDbPolyline
 62
7
  6
CONTINUOUS
 90
4
 70
0
 10
479.2430140245
 20
317.2490976706
 10
479.2335523184
 20
317.6116107964
 10
479.2064007725
 20
317.9679311959
 10
479.1634294094
 20
318.3153326651
  0
LINE
  5
2BC
100
AcDbEntity
  8
0
100
AcDbLine
 62
7
  6
CONTINUOUS
 10
477.31433921
 20
364.4002187169
 11
477.31433921
 21
332.4182962086
  0
LINE
  5
2BD
100
AcDbEntity
  8
0
100
AcDbLine
 62
7
  6
CONTINUOUS
 10
477.31433921
 20
296.3821412251
 11
477.31433921
 21
264.4002187169
  0
LINE
  5
2BE
100
AcDbEntity
  8
RUNDUNGEN
100
AcDbLine
 62
7
  6
CONTINUOUS
 10
479.2430144594
 20
317.2273698404
 11
479.2430047714
 21
317.2572052373
  0
LINE
  5
2BF
100
AcDbEntity
  8
0
100
AcDbLine
 62
7
  6
CONTINUOUS
 10
479.2430144594
 20
311.553519026
 11
479.2430144594
 21
317.2469184077
  0
LINE
  5
2C0
100
AcDbEntity
  8
RUNDUNGEN
100
AcDbLine
 62
7
  6
CONTINUOUS
 10
479.2430144594
 20
311.5730672783
 11
479.2430047774
 21
311.5432355774
  0
LINE
  5
2C1
100
AcDbEntity
  8
BEZUGSACHSEN
100
AcDbLine
 62
7
  6
CONTINUOUS
 10
479.2430047695
 20
311.5432311856
 11
479.2430144594
 21
317.2469149331
  0
LWPOLYLINE
  5
2C2
100
AcDbEntity
  8
BEZUGSACHSEN
100
AcDbPolyline
 62
7
  6
CONTINUOUS
 90
4
 70
0
 10
479.1634294099
 20
310.4851047723
 10
479.2064007729
 20
310.8325062423
 10
479.2335523187
 20
311.1888266428
 10
479.2430140245
 20
311.5513397631
  0
LINE
  5
2C3
100
AcDbEntity
  8
BEZUGSACHSEN
100
AcDbLine
 62
7
  6
CONTINUOUS
 10
479.1491529374
 20
310.4002187169
 11
479.1634294099
 21
310.4851047723
  0
LWPOLYLINE
  5
2C4
100
AcDbEntity
  8
BEZUGSACHSEN
100
AcDbPolyline
 62
7
  6
CONTINUOUS
 90
15
 70
0
 10
456.6713200171
 20
310.4002148595
 10
456.5716453197
 20
310.3971785767
 10
456.3528184141
 20
310.3693858068
 10
456.1336003754
 20
310.3106425641
 10
455.9189066747
 20
310.2197325261
 10
455.7128243829
 20
310.0962967149
 10
455.5195847457
 20
309.9413120498
 10
455.3420951244
 20
309.7563506793
 10
455.1811250269
 20
309.5419074756
 10
455.0362114841
 20
309.2968879299
 10
454.9080479677
 20
309.02252361
 10
454.7961946448
 20
308.7193862865
 10
454.7000644996
 20
308.3888625436
 10
454.6193539169
 20
308.0353632943
 10
454.5725392037
 20
307.782478777
  0
LINE
  5
2C5
100
AcDbEntity
  8
BEZUGSACHSEN
100
AcDbLine
 62
7
  6
CONTINUOUS
 10
456.6713200132
 20
310.4002171401
 11
481.8143392109
 21
310.4002187169
  0
LINE
  5
2C6
100
AcDbEntity
  8
RUNDUNGEN
100
AcDbLine
 62
7
  6
CONTINUOUS
 10
479.1634294094
 20
318.3153326651
 11
479.1491529374
 21
318.4002187169
  0
LINE
  5
2C7
100
AcDbEntity
  8
BEZUGSACHSEN
100
AcDbLine
 62
7
  6
CONTINUOUS
 10
482.81433921
 20
311.400141462
 11
482.81433921
 21
317.4002959717
  0
LINE
  5
2C8
100
AcDbEntity
  8
RUNDUNGEN
100
AcDbLine
 62
7
  6
CONTINUOUS
 10
456.6729583132
 20
318.4002187169
 11
481.81444663
 21
318.4002187169
  0
LINE
  5
2C9
100
AcDbEntity
  8
0
100
AcDbLine
 62
7
  6
CONTINUOUS
 10
491.31433921
 20
390.4002187169
 11
491.31433921
 21
379.4002187169
  0
LINE
  5
2CA
100
AcDbEntity
  8
0
100
AcDbLine
 62
7
  6
CONTINUOUS
 10
491.31433921
 20
249.4002187169
 11
491.31433921
 21
238.4002187169
  0
LINE
  5
2CB
100
AcDbEntity
  8
0
100
AcDbLine
 62
7
  6
CONTINUOUS
 10
459.9745932478
 20
264.4002187169
 11
451.31433921
 21
249.4002187169
  0
LINE
  5
2CC
100
AcDbEntity
  8
0
100
AcDbLine
 62
7
  6
CONTINUOUS
 10
451.31433921
 20
379.4002187169
 11
459.9745932478
 21
364.4002187169
  0
LINE
  5
2CD
100
AcDbEntity
  8
RUNDUNGEN
100
AcDbLine
 62
7
  6
CONTINUOUS
 10
493.4549098826
 20
318.9002187169
 11
493.4549098826
 21
309.9002187169
  0
LINE
  5
2CE
100
AcDbEntity
  8
BEZUGSACHSEN
100
AcDbLine
 62
7
  6
CONTINUOUS
 10
489.2807523788
 20
300.3610658397
 11
489.2806982898
 21
300.3610192145
  0
LINE
  5
2CF
100
AcDbEntity
  8
BEZUGSACHSEN
100
AcDbLine
 62
7
  6
CONTINUOUS
 10
474.915005153
 20
296.68875061
 11
474.9144918331
 21
296.6885427265
  0
LWPOLYLINE
  5
2D0
100
AcDbEntity
  8
BEZUGSACHSEN
100
AcDbPolyline
 62
7
  6
CONTINUOUS
 90
6
 70
0
 10
474.3912837602
 20
296.482815783
 10
475.1876507804
 20
296.7953062616
 10
475.5892654098
 20
296.9400588921
 10
476.0081964396
 20
297.0772116183
 10
476.4430888144
 20
297.2062495164
 10
476.8925335243
 20
297.3267210815
  0
LINE
  5
2D1
100
AcDbEntity
  8
RUNDUNGEN
100
AcDbLine
 62
7
  6
CONTINUOUS
 10
477.2256595175
 20
331.392189279
 11
488.8566969944
 21
328.6555197641
  0
LINE
  5
2D2
100
AcDbEntity
  8
RUNDUNGEN
100
AcDbLine
 62
7
  6
CONTINUOUS
 10
477.2256440245
 20
331.3921929627
 11
476.892533312
 21
331.4737164063
  0
LWPOLYLINE
  5
2D3
100
AcDbEntity
  8
RUNDUNGEN
100
AcDbPolyline
 62
7
  6
CONTINUOUS
 90
5
 70
0
 10
476.892533312
 20
331.4737164063
 10
476.4430875484
 20
331.5941882745
 10
476.0081925332
 20
331.7232270334
 10
475.5892599212
 20
331.8603804275
 10
475.1876469898
 20
332.0051326049
  0
LWPOLYLINE
  5
2D4
100
AcDbEntity
  8
RUNDUNGEN
100
AcDbPolyline
 62
7
  6
CONTINUOUS
 90
7
 70
0
 10
475.1876469898
 20
332.0051326049
 10
474.3781995359
 20
332.3225950043
 10
473.7904241259
 20
332.534044106
 10
473.2552767947
 20
332.6991984345
 10
472.7647423805
 20
332.8166433763
 10
472.3089473581
 20
332.8844413675
 10
471.9895387121
 20
332.9002172509
  0
LINE
  5
2D5
100
AcDbEntity
  8
RUNDUNGEN
100
AcDbLine
 62
7
  6
CONTINUOUS
 10
474.9148788489
 20
332.1117380443
 11
474.9144918243
 21
332.1118947108
  0
LINE
  5
2D6
100
AcDbEntity
  8
RUNDUNGEN
100
AcDbLine
 62
7
  6
CONTINUOUS
 10
489.2807523788
 20
328.439371594
 11
489.2806982898
 21
328.4394182193
  0
LINE
  5
2D7
100
AcDbEntity
  8
RUNDUNGEN
100
AcDbLine
 62
7
  6
CONTINUOUS
 10
454.81433921
 20
332.9002187169
 11
471.9872117428
 21
332.9002187169
  0
LINE
  5
2D8
100
AcDbEntity
  8
0
100
AcDbLine
 62
7
  6
CONTINUOUS
 10
456.5781343779
 20
332.9002187169
 11
471.9872122426
 21
332.9002187169
  0
LINE
  5
2D9
100
AcDbEntity
  8
0
100
AcDbLine
 62
7
  6
CONTINUOUS
 10
459.9747914508
 20
364.4002187169
 11
482.6538869691
 21
364.4002187169
  0
LINE
  5
2DA
100
AcDbEntity
  8
0
100
AcDbLine
 62
7
  6
CONTINUOUS
 10
451.31433921
 20
379.4002187169
 11
491.31433921
 21
379.4002187169
  0
LINE
  5
2DB
100
AcDbEntity
  8
0
100
AcDbLine
 62
7
  6
CONTINUOUS
 10
491.31433921
 20
238.4002187169
 11
480.9220343646
 21
232.4002187169
  0
LINE
  5
2DC
100
AcDbEntity
  8
0
100
AcDbLine
 62
7
  6
CONTINUOUS
 10
451.31433921
 20
390.4002187169
 11
491.31433921
 21
390.4002187169
  0
LINE
  5
2DD
100
AcDbEntity
  8
0
100
AcDbLine
 62
7
  6
CONTINUOUS
 10
480.9220343646
 20
396.4002187169
 11
491.31433921
 21
390.4002187169
  0
LINE
  5
2DE
100
AcDbEntity
  8
0
100
AcDbLine
 62
7
  6
CONTINUOUS
 10
461.7068119845
 20
396.4002187169
 11
480.9218664354
 21
396.4002187169
  0
LINE
  5
2DF
100
AcDbEntity
  8
BEZUGSACHSEN
100
AcDbLine
 62
7
  6
CONTINUOUS
 10
12.3709399376
 20
101.4604549853
 11
12.5686074689
 21
102.5814832618
  0
LINE
  5
2E0
100
AcDbEntity
  8
RUNDUNGEN
100
AcDbLine
 62
7
  6
CONTINUOUS
 10
12.3709399376
 20
101.4604549853
 11
15.1677489617
 21
117.3219471565
  0
LINE
  5
2E1
100
AcDbEntity
  8
RUNDUNGEN
100
AcDbLine
 62
7
  6
CONTINUOUS
 10
26.3108519751
 20
114.3136539725
 11
17.7421830296
 21
98.8553659956
  0
LINE
  5
2E2
100
AcDbEntity
  8
BEZUGSACHSEN
100
AcDbLine
 62
7
  6
CONTINUOUS
 10
19.7367080235
 20
102.4535843337
 11
19.7374118725
 21
102.45484823
  0
LINE
  5
2E3
100
AcDbEntity
  8
0
100
AcDbLine
 62
7
  6
CONTINUOUS
 10
71.8557476906
 20
124.3965524362
 11
71.8557476906
 21
122.9807462884
  0
LINE
  5
2E4
100
AcDbEntity
  8
RUNDUNGEN
100
AcDbLine
 62
7
  6
CONTINUOUS
 10
93.7573734093
 20
102.9807462884
 11
93.7573734093
 21
137.9807462884
  0
LINE
  5
2E5
100
AcDbEntity
  8
RUNDUNGEN
100
AcDbLine
 62
7
  6
CONTINUOUS
 10
98.7573734093
 20
138.9807462884
 11
98.7573734093
 21
101.9807462884
  0
LINE
  5
2E6
100
AcDbEntity
  8
RUNDUNGEN
100
AcDbLine
 62
7
  6
CONTINUOUS
 10
16.3827537022
 20
98.4655559087
 11
12.8709380704
 21
100.4121871004
  0
LINE
  5
2E7
100
AcDbEntity
  8
RUNDUNGEN
100
AcDbLine
 62
7
  6
CONTINUOUS
 10
115.7573734093
 20
138.4807462884
 11
115.7573734093
 21
102.4807462884
  0
LINE
  5
2E8
100
AcDbEntity
  8
RUNDUNGEN
100
AcDbLine
 62
7
  6
CONTINUOUS
 10
121.7573734093
 20
101.480844768
 11
121.7573734093
 21
103.1860267404
  0
LINE
  5
2E9
100
AcDbEntity
  8
RUNDUNGEN
100
AcDbLine
 62
7
  6
CONTINUOUS
 10
141.2573734093
 20
134.4807462884
 11
141.2573734093
 21
135.9807462884
  0
LINE
  5
2EA
100
AcDbEntity
  8
0
100
AcDbLine
 62
7
  6
CONTINUOUS
 10
153.4573734093
 20
133.4807462884
 11
153.4573734093
 21
134.4807462884
  0
LINE
  5
2EB
100
AcDbEntity
  8
0
100
AcDbLine
 62
7
  6
CONTINUOUS
 10
156.2573734093
 20
133.4807462884
 11
156.2573734093
 21
134.4807462884
  0
LINE
  5
2EC
100
AcDbEntity
  8
0
100
AcDbLine
 62
7
  6
CONTINUOUS
 10
159.0573734093
 20
133.4807462884
 11
159.0573734093
 21
134.4807462884
  0
LINE
  5
2ED
100
AcDbEntity
  8
RUNDUNGEN
100
AcDbLine
 62
7
  6
CONTINUOUS
 10
132.3645396349
 20
105.7610779309
 11
132.3646435209
 21
105.7612030546
  0
LWPOLYLINE
  5
2EE
100
AcDbEntity
  8
RUNDUNGEN
100
AcDbPolyline
 62
7
  6
CONTINUOUS
 90
3
 70
0
 10
132.3646855176
 20
105.7612543121
 10
132.5005272466
 20
105.9230209944
 10
132.7418775834
 20
106.2026505661
  0
LINE
  5
2EF
100
AcDbEntity
  8
RUNDUNGEN
100
AcDbLine
 62
7
  6
CONTINUOUS
 10
132.7340463274
 20
106.1936986798
 11
133.0152272391
 21
106.5095074205
  0
LINE
  5
2F0
100
AcDbEntity
  8
RUNDUNGEN
100
AcDbLine
 62
7
  6
CONTINUOUS
 10
133.0068096782
 20
106.5001875324
 11
133.3212519046
 21
106.8428149566
  0
LINE
  5
2F1
100
AcDbEntity
  8
RUNDUNGEN
100
AcDbLine
 62
7
  6
CONTINUOUS
 10
133.3167761784
 20
106.8379402082
 11
133.6605743381
 21
107.2013688125
  0
LINE
  5
2F2
100
AcDbEntity
  8
RUNDUNGEN
100
AcDbLine
 62
7
  6
CONTINUOUS
 10
133.6511307918
 20
107.1915267973
 11
133.9142177054
 21
107.4624797336
  0
LWPOLYLINE
  5
2F3
100
AcDbEntity
  8
RUNDUNGEN
100
AcDbPolyline
 62
7
  6
CONTINUOUS
 90
11
 70
0
 10
133.9142148469
 20
107.4624808915
 10
133.9487177875
 20
107.4974006925
 10
134.1140133826
 20
107.6584426395
 10
134.2813131007
 20
107.8107554586
 10
134.4507463435
 20
107.9536111381
 10
134.6212641442
 20
108.0852123131
 10
134.7935174343
 20
108.2048622719
 10
134.9634788047
 20
108.3086956978
 10
135.1383456393
 20
108.3989322924
 10
135.3212845825
 20
108.4725557761
 10
135.3470629282
 20
108.4803605624
  0
LWPOLYLINE
  5
2F4
100
AcDbEntity
  8
RUNDUNGEN
100
AcDbPolyline
 62
7
  6
CONTINUOUS
 90
6
 70
0
 10
133.9319561542
 20
107.4804967009
 10
134.0689948641
 20
107.6156076807
 10
134.2073376121
 20
107.7447562754
 10
134.3472757727
 20
107.8677649896
 10
134.4890556081
 20
107.9842641912
 10
134.6317784285
 20
108.0929101
  0
LWPOLYLINE
  5
2F5
100
AcDbEntity
  8
RUNDUNGEN
100
AcDbPolyline
 62
7
  6
CONTINUOUS
 90
6
 70
0
 10
134.7732597963
 20
108.1915220671
 10
134.9160739609
 20
108.2812333755
 10
135.0592784213
 20
108.3603690148
 10
135.2061856144
 20
108.4289204767
 10
135.3578972192
 20
108.4843166064
 10
135.4029056444
 20
108.4972742337
  0
LINE
  5
2F6
100
AcDbEntity
  8
RUNDUNGEN
100
AcDbLine
 62
7
  6
CONTINUOUS
 10
191.2573734093
 20
135.9807462884
 11
191.2573734093
 21
134.4807581641
  0
LINE
  5
2F7
100
AcDbEntity
  8
0
100
AcDbLine
 62
7
  6
CONTINUOUS
 10
202.0253226018
 20
136.7486954809
 11
202.8291701791
 21
137.212797096
  0
LINE
  5
2F8
100
AcDbEntity
  8
RUNDUNGEN
100
AcDbLine
 62
7
  6
CONTINUOUS
 10
126.6012432617
 20
103.3182963747
 11
131.531449862
 21
105.1673904389
  0
LINE
  5
2F9
100
AcDbEntity
  8
RUNDUNGEN
100
AcDbLine
 62
7
  6
CONTINUOUS
 10
126.441561067
 20
103.2617874888
 11
126.6012409931
 21
103.3182992595
  0
LINE
  5
2FA
100
AcDbEntity
  8
RUNDUNGEN
100
AcDbLine
 62
7
  6
CONTINUOUS
 10
126.0950158668
 20
103.1597072249
 11
126.4580501358
 21
103.2673397012
  0
LWPOLYLINE
  5
2FB
100
AcDbEntity
  8
RUNDUNGEN
100
AcDbPolyline
 62
7
  6
CONTINUOUS
 90
27
 70
0
 10
201.4221538319
 20
108.5604431369
 10
201.4298945076
 20
108.5550768067
 10
201.4378670093
 20
108.5494611495
 10
201.4459689236
 20
108.5436636456
 10
201.4541378989
 20
108.5377269384
 10
201.462349615
 20
108.5316681021
 10
201.4705528266
 20
108.5255255583
 10
201.4787607102
 20
108.5192907972
 10
201.4869708215
 20
108.5129668129
 10
201.4951818451
 20
108.5065557155
 10
201.5033924854
 20
108.5000595627
 10
201.5116020254
 20
108.4934799153
 10
201.5198098553
 20
108.4868181995
 10
201.5280159527
 20
108.480075311
 10
201.5362203513
 20
108.4732520358
 10
201.5444236889
 20
108.4663485898
 10
201.5526266106
 20
108.4593651053
 10
201.5608303784
 20
108.4523011072
 10
201.5690362683
 20
108.445156017
 10
201.5772459907
 20
108.437928785
 10
201.5854614495
 20
108.4306181152
 10
201.5936853731
 20
108.4232218826
 10
201.6019203237
 20
108.4157379793
 10
201.6101696285
 20
108.4081634652
 10
201.6184364856
 20
108.4004953691
 10
201.6267244485
 20
108.3927302407
 10
201.6350399127
 20
108.3848617718
  0
LINE
  5
2FC
100
AcDbEntity
  8
RUNDUNGEN
100
AcDbLine
 62
7
  6
CONTINUOUS
 10
201.6350399127
 20
108.3848617718
 11
201.6798169958
 21
108.3419159765
  0
LINE
  5
2FD
100
AcDbEntity
  8
RUNDUNGEN
100
AcDbLine
 62
7
  6
CONTINUOUS
 10
201.6696756506
 20
108.3516503469
 11
201.850209717
 21
108.1768566757
  0
LINE
  5
2FE
100
AcDbEntity
  8
RUNDUNGEN
100
AcDbLine
 62
7
  6
CONTINUOUS
 10
201.8443640097
 20
108.1825194079
 11
202.0214512083
 21
108.0085768837
  0
LINE
  5
2FF
100
AcDbEntity
  8
RUNDUNGEN
100
AcDbLine
 62
7
  6
CONTINUOUS
 10
202.0156391221
 20
108.0142884473
 11
202.1935057279
 21
107.8371762325
  0
LINE
  5
300
100
AcDbEntity
  8
RUNDUNGEN
100
AcDbLine
 62
7
  6
CONTINUOUS
 10
202.1877385879
 20
107.8429214554
 11
202.4022597568
 21
107.6262196044
  0
LINE
  5
301
100
AcDbEntity
  8
RUNDUNGEN
100
AcDbLine
 62
7
  6
CONTINUOUS
 10
233.985218563
 20
107.0351615589
 11
234.1928516555
 21
107.0930129021
  0
LINE
  5
302
100
AcDbEntity
  8
RUNDUNGEN
100
AcDbLine
 62
7
  6
CONTINUOUS
 10
234.1925904097
 20
107.0929542018
 11
234.1928869325
 21
107.0930321615
  0
LWPOLYLINE
  5
303
100
AcDbEntity
  8
RUNDUNGEN
100
AcDbPolyline
 62
7
  6
CONTINUOUS
 90
3
 70
0
 10
236.269092526
 20
108.6530651315
 10
236.2950570843
 20
108.6595552437
 10
236.3312589142
 20
108.6660830873
  0
LWPOLYLINE
  5
304
100
AcDbEntity
  8
RUNDUNGEN
100
AcDbPolyline
 62
7
  6
CONTINUOUS
 90
4
 70
0
 10
236.2871246331
 20
108.6576543679
 10
236.379183754
 20
108.6752357237
 10
236.4662413059
 20
108.682452394
 10
236.4894242184
 20
108.6827868184
  0
LINE
  5
305
100
AcDbEntity
  8
RUNDUNGEN
100
AcDbLine
 62
7
  6
CONTINUOUS
 10
236.4227966191
 20
108.6788510295
 11
236.4780658124
 21
108.6826229681
  0
LINE
  5
306
100
AcDbEntity
  8
RUNDUNGEN
100
AcDbLine
 62
7
  6
CONTINUOUS
 10
125.0256587433
 20
103.008808816
 11
125.4026127969
 21
103.0347718162
  0
LINE
  5
307
100
AcDbEntity
  8
RUNDUNGEN
100
AcDbLine
 62
7
  6
CONTINUOUS
 10
136.4015257383
 20
108.6697732038
 11
136.4106251394
 21
108.6701760357
  0
LINE
  5
308
100
AcDbEntity
  8
RUNDUNGEN
100
AcDbLine
 62
7
  6
CONTINUOUS
 10
124.8757385057
 20
103.006527125
 11
125.0430880949
 21
103.0093699805
  0
LINE
  5
309
100
AcDbEntity
  8
BEZUGSACHSEN
100
AcDbLine
 62
7
  6
CONTINUOUS
 10
98.2573734093
 20
101.4807462884
 11
95.2573734093
 21
101.4807462884
  0
LINE
  5
30A
100
AcDbEntity
  8
RUNDUNGEN
100
AcDbLine
 62
7
  6
CONTINUOUS
 10
98.2573734093
 20
101.4807462884
 11
95.2573734093
 21
101.4807462884
  0
LINE
  5
30B
100
AcDbEntity
  8
0
100
AcDbLine
 62
7
  6
CONTINUOUS
 10
116.7573734093
 20
101.4807462884
 11
121.7573734093
 21
101.4807462884
  0
LINE
  5
30C
100
AcDbEntity
  8
RUNDUNGEN
100
AcDbLine
 62
7
  6
CONTINUOUS
 10
121.7573734093
 20
103.0065235349
 11
124.8757385046
 21
103.0065235349
  0
LINE
  5
30D
100
AcDbEntity
  8
RUNDUNGEN
100
AcDbLine
 62
7
  6
CONTINUOUS
 10
320.2748975565
 20
104.4807462884
 11
307.7573734093
 21
104.4807462884
  0
LINE
  5
30E
100
AcDbEntity
  8
RUNDUNGEN
100
AcDbLine
 62
7
  6
CONTINUOUS
 10
201.0253226018
 20
108.6827873173
 11
136.757373836
 21
108.6827873173
  0
LINE
  5
30F
100
AcDbEntity
  8
RUNDUNGEN
100
AcDbLine
 62
7
  6
CONTINUOUS
 10
236.4894242169
 20
108.6827873173
 11
300.757368603
 21
108.6827873173
  0
LINE
  5
310
100
AcDbEntity
  8
RUNDUNGEN
100
AcDbLine
 62
7
  6
CONTINUOUS
 10
71.6285756965
 20
112.5520710391
 11
69.2573855249
 21
112.5520710391
  0
LINE
  5
311
100
AcDbEntity
  8
RUNDUNGEN
100
AcDbLine
 62
7
  6
CONTINUOUS
 10
365.8861711222
 20
112.5520710391
 11
368.2573612937
 21
112.5520710391
  0
LINE
  5
312
100
AcDbEntity
  8
0
100
AcDbLine
 62
7
  6
CONTINUOUS
 10
361.2573734093
 20
113.4807462884
 11
322.7573734093
 21
113.4807462884
  0
LINE
  5
313
100
AcDbEntity
  8
0
100
AcDbLine
 62
7
  6
CONTINUOUS
 10
76.2573734093
 20
113.4807462884
 11
93.7573734093
 21
113.4807462884
  0
LINE
  5
314
100
AcDbEntity
  8
0
100
AcDbLine
 62
7
  6
CONTINUOUS
 10
98.7573734093
 20
113.4807462884
 11
115.7573734093
 21
113.4807462884
  0
LWPOLYLINE
  5
315
100
AcDbEntity
  8
RUNDUNGEN
100
AcDbPolyline
 62
7
  6
CONTINUOUS
 90
8
 70
0
 10
300.7573734088
 20
108.6827972721
 10
300.8547013782
 20
108.6818279488
 10
301.1487959671
 20
108.6670452171
 10
301.4510802281
 20
108.6335232344
 10
301.7576923913
 20
108.5808350495
 10
302.0647677319
 20
108.5097484002
 10
302.3714000657
 20
108.4211101448
 10
302.6619499207
 20
108.3209789069
  0
LWPOLYLINE
  5
316
100
AcDbEntity
  8
RUNDUNGEN
100
AcDbPolyline
 62
7
  6
CONTINUOUS
 90
5
 70
0
 10
201.0253226044
 20
108.6827926677
 10
201.0461261707
 20
108.6825273734
 10
201.133169761
 20
108.6755577835
 10
201.2257305602
 20
108.6581123426
 10
201.2456615752
 20
108.6530617017
  0
LWPOLYLINE
  5
317
100
AcDbEntity
  8
RUNDUNGEN
100
AcDbPolyline
 62
7
  6
CONTINUOUS
 90
26
 70
0
 10
300.7573685968
 20
108.6828014066
 10
300.9074622769
 20
108.6804799335
 10
301.2351128038
 20
108.6593652563
 10
301.5852957088
 20
108.6127451747
 10
301.9446756482
 20
108.5396913675
 10
302.3011120802
 20
108.4429623276
 10
302.6497870741
 20
108.3257941278
 10
302.983879612
 20
108.1935282673
 10
303.2999527381
 20
108.050886107
 10
303.5939168158
 20
107.9033906036
 10
303.8668162359
 20
107.7538162909
 10
304.118621957
 20
107.6049714027
 10
304.3511040685
 20
107.4581977222
 10
304.565739908
 20
107.3144452533
 10
304.76337734
 20
107.1747004158
 10
304.9450571448
 20
107.0395414924
 10
305.1112704655
 20
106.9097142712
 10
305.2626658146
 20
106.7856759154
 10
305.3992463174
 20
106.6682844671
 10
305.5214254506
 20
106.5579758466
 10
305.628083682
 20
106.4565879566
 10
305.7189610075
 20
106.36531806
 10
305.792821241
 20
106.2865533488
 10
305.8492850677
 20
106.2222139035
 10
305.8880997565
 20
106.1745919643
 10
305.9020432914
 20
106.1563187133
  0
LINE
  5
318
100
AcDbEntity
  8
RUNDUNGEN
100
AcDbLine
 62
7
  6
CONTINUOUS
 10
201.0253290762
 20
108.6827928494
 11
201.1189326642
 21
108.6773370929
  0
LINE
  5
319
100
AcDbEntity
  8
RUNDUNGEN
100
AcDbLine
 62
7
  6
CONTINUOUS
 10
201.1189326642
 20
108.6773370929
 11
201.1714993195
 21
108.6683336016
  0
LINE
  5
31A
100
AcDbEntity
  8
RUNDUNGEN
100
AcDbLine
 62
7
  6
CONTINUOUS
 10
203.3217874854
 20
107.0930512885
 11
203.3221620051
 21
107.0929527364
  0
LINE
  5
31B
100
AcDbEntity
  8
RUNDUNGEN
100
AcDbLine
 62
7
  6
CONTINUOUS
 10
203.321820728
 20
107.0930277392
 11
203.56200774
 21
107.0255006038
  0
LWPOLYLINE
  5
31C
100
AcDbEntity
  8
RUNDUNGEN
100
AcDbPolyline
 62
7
  6
CONTINUOUS
 90
23
 70
0
 10
201.2456497263
 20
108.6530726245
 10
201.253227889
 20
108.650874448
 10
201.2610746649
 20
108.6482821372
 10
201.2686646875
 20
108.6455304658
 10
201.276526319
 20
108.6424632242
 10
201.2844358308
 20
108.6391787308
 10
201.2927569627
 20
108.6355278569
 10
201.3012492768
 20
108.6316121815
 10
201.3098492083
 20
108.6274680692
 10
201.3184718742
 20
108.6231454552
 10
201.3270520515
 20
108.6186876683
 10
201.3355475705
 20
108.6141278932
 10
201.3439228151
 20
108.6094966281
 10
201.3521620024
 20
108.6048136713
 10
201.3602540973
 20
108.600095697
 10
201.3682050972
 20
108.5953486773
 10
201.3760239227
 20
108.5905756168
 10
201.383735245
 20
108.5857688945
 10
201.3913645419
 20
108.580919079
 10
201.3989545313
 20
108.5760037189
 10
201.4065472333
 20
108.570998429
 10
201.4141986113
 20
108.5658672108
 10
201.421985016
 20
108.5605573566
  0
LINE
  5
31D
100
AcDbEntity
  8
RUNDUNGEN
100
AcDbLine
 62
7
  6
CONTINUOUS
 10
203.5547783501
 20
107.0275331033
 11
203.9220583858
 21
106.9072797358
  0
LINE
  5
31E
100
AcDbEntity
  8
0
100
AcDbLine
 62
7
  6
CONTINUOUS
 10
126.5858392224
 20
139.1792093924
 11
133.1713398546
 21
136.7822831845
  0
LINE
  5
31F
100
AcDbEntity
  8
RUNDUNGEN
100
AcDbLine
 62
7
  6
CONTINUOUS
 10
203.9110844295
 20
106.9111820577
 11
204.1759842578
 21
106.8104022513
  0
LINE
  5
320
100
AcDbEntity
  8
RUNDUNGEN
100
AcDbLine
 62
7
  6
CONTINUOUS
 10
235.1124869713
 20
107.626219516
 11
235.3259941633
 21
107.8419049865
  0
LINE
  5
321
100
AcDbEntity
  8
RUNDUNGEN
100
AcDbLine
 62
7
  6
CONTINUOUS
 10
235.3202456913
 20
107.8361780852
 11
235.4988453042
 21
108.0140286976
  0
LINE
  5
322
100
AcDbEntity
  8
RUNDUNGEN
100
AcDbLine
 62
7
  6
CONTINUOUS
 10
235.4930298579
 20
108.008313893
 11
235.6709387424
 21
108.1830614983
  0
LINE
  5
323
100
AcDbEntity
  8
RUNDUNGEN
100
AcDbLine
 62
7
  6
CONTINUOUS
 10
235.6650695841
 20
108.177376311
 11
235.845643303
 21
108.3522001658
  0
LWPOLYLINE
  5
324
100
AcDbEntity
  8
RUNDUNGEN
100
AcDbPolyline
 62
7
  6
CONTINUOUS
 90
21
 70
0
 10
235.8354584936
 20
108.3424243138
 10
235.8792235537
 20
108.3844014587
 10
235.887688535
 20
108.3924149507
 10
235.8961265906
 20
108.400322883
 10
235.9045400628
 20
108.4081278083
 10
235.9129272799
 20
108.4158285023
 10
235.921293747
 20
108.4234302682
 10
235.9296432344
 20
108.4309366222
 10
235.9379785902
 20
108.4383500923
 10
235.9463029099
 20
108.4456732818
 10
235.9546184088
 20
108.4529078786
 10
235.9629274972
 20
108.4600556129
 10
235.9712317423
 20
108.4671173657
 10
235.9795328556
 20
108.4740940299
 10
235.9878317381
 20
108.4809857099
 10
235.9961293854
 20
108.4877924946
 10
236.0044260099
 20
108.4945137398
 10
236.0127219037
 20
108.5011487871
 10
236.0210164656
 20
108.5076961908
 10
236.0293092589
 20
108.514154575
 10
236.0375984454
 20
108.5205214738
  0
LWPOLYLINE
  5
325
100
AcDbEntity
  8
RUNDUNGEN
100
AcDbPolyline
 62
7
  6
CONTINUOUS
 90
3
 70
0
 10
236.0379276229
 20
108.5207724697
 10
236.0461592849
 20
108.5270042946
 10
236.0543805209
 20
108.5331391925
  0
LINE
  5
326
100
AcDbEntity
  8
RUNDUNGEN
100
AcDbLine
 62
7
  6
CONTINUOUS
 10
236.0541554269
 20
108.5329694863
 11
236.0624197154
 21
108.5390463977
  0
LINE
  5
327
100
AcDbEntity
  8
RUNDUNGEN
100
AcDbLine
 62
7
  6
CONTINUOUS
 10
236.0625980723
 20
108.5391811351
 11
236.0707797424
 21
108.5451056987
  0
LINE
  5
328
100
AcDbEntity
  8
RUNDUNGEN
100
AcDbLine
 62
7
  6
CONTINUOUS
 10
236.0706642769
 20
108.5450167174
 11
236.0788931787
 21
108.5508826626
  0
LWPOLYLINE
  5
329
100
AcDbEntity
  8
RUNDUNGEN
100
AcDbPolyline
 62
7
  6
CONTINUOUS
 90
25
 70
0
 10
236.0788996729
 20
108.5508942679
 10
236.0869486463
 20
108.5565408719
 10
236.0948901785
 20
108.5620213344
 10
236.1027805713
 20
108.5673757632
 10
236.110650994
 20
108.5726249763
 10
236.1185256015
 20
108.5777836286
 10
236.1264284829
 20
108.5828649723
 10
236.1343738409
 20
108.5878746261
 10
236.1423758897
 20
108.5928171282
 10
236.150438209
 20
108.5976894384
 10
236.1585642169
 20
108.6024876221
 10
236.1667442057
 20
108.6071993291
 10
236.1749675076
 20
108.6118117523
 10
236.1832121149
 20
108.6163067366
 10
236.1914534248
 20
108.6206654555
 10
236.1996558743
 20
108.6248641937
 10
236.2077752271
 20
108.6288763167
 10
236.2157755125
 20
108.6326808755
 10
236.223521077
 20
108.6362135311
 10
236.2312117406
 20
108.639561814
 10
236.2388977605
 20
108.6427353385
 10
236.2465369676
 20
108.6457016253
 10
236.253636937
 20
108.6482704418
 10
236.2610930547
 20
108.65074207
 10
236.2690907876
 20
108.6530717587
  0
LINE
  5
32A
100
AcDbEntity
  8
RUNDUNGEN
100
AcDbLine
 62
7
  6
CONTINUOUS
 10
233.3406059807
 20
106.812382224
 11
233.3484563772
 21
106.8156497694
  0
LINE
  5
32B
100
AcDbEntity
  8
RUNDUNGEN
100
AcDbLine
 62
7
  6
CONTINUOUS
 10
233.3407916064
 20
106.8125816
 11
233.6626024174
 21
106.931819939
  0
LINE
  5
32C
100
AcDbEntity
  8
RUNDUNGEN
100
AcDbLine
 62
7
  6
CONTINUOUS
 10
233.6520048232
 20
106.928149323
 11
233.9924695044
 21
107.0371818375
  0
LWPOLYLINE
  5
32D
100
AcDbEntity
  8
RUNDUNGEN
100
AcDbPolyline
 62
7
  6
CONTINUOUS
 90
6
 70
0
 10
135.5037874503
 20
108.5235112679
 10
135.8259640299
 20
108.5942860325
 10
136.126704576
 20
108.6420223194
 10
136.4194521014
 20
108.671051322
 10
136.7006829649
 20
108.6824602121
 10
136.7573738366
 20
108.6827906894
  0
LINE
  5
32E
100
AcDbEntity
  8
RUNDUNGEN
100
AcDbLine
 62
7
  6
CONTINUOUS
 10
125.7423060371
 20
103.083308355
 11
126.1119135153
 21
103.1640513419
  0
LINE
  5
32F
100
AcDbEntity
  8
RUNDUNGEN
100
AcDbLine
 62
7
  6
CONTINUOUS
 10
135.808369263
 20
108.5909339349
 11
135.8170502111
 21
108.5923429685
  0
LINE
  5
330
100
AcDbEntity
  8
RUNDUNGEN
100
AcDbLine
 62
7
  6
CONTINUOUS
 10
125.3852428014
 20
103.032934988
 11
125.7594975771
 21
103.0864099685
  0
LINE
  5
331
100
AcDbEntity
  8
BEZUGSACHSEN
100
AcDbLine
 62
7
  6
CONTINUOUS
 10
401.5830790967
 20
119.9807462884
 11
388.7573734093
 21
119.9807462884
  0
LINE
  5
332
100
AcDbEntity
  8
RUNDUNGEN
100
AcDbLine
 62
7
  6
CONTINUOUS
 10
48.7573646429
 20
119.9807462884
 11
35.9316677219
 21
119.9807462884
  0
LINE
  5
333
100
AcDbEntity
  8
0
100
AcDbLine
 62
7
  6
CONTINUOUS
 10
71.8557476906
 20
122.9807462884
 11
93.7573734093
 21
122.9807462884
  0
LINE
  5
334
100
AcDbEntity
  8
0
100
AcDbLine
 62
7
  6
CONTINUOUS
 10
98.7573734093
 20
122.9807462884
 11
115.7573734093
 21
122.9807462884
  0
LINE
  5
335
100
AcDbEntity
  8
0
100
AcDbLine
 62
7
  6
CONTINUOUS
 10
76.3557476906
 20
127.0190947038
 11
93.7573734093
 21
127.0190947038
  0
LINE
  5
336
100
AcDbEntity
  8
0
100
AcDbLine
 62
7
  6
CONTINUOUS
 10
98.7573734093
 20
127.0190947038
 11
115.7573734093
 21
127.0190947038
  0
LINE
  5
337
100
AcDbEntity
  8
0
100
AcDbLine
 62
7
  6
CONTINUOUS
 10
361.2573734093
 20
127.4807462884
 11
322.7573734093
 21
127.4807462884
  0
LINE
  5
338
100
AcDbEntity
  8
0
100
AcDbLine
 62
7
  6
CONTINUOUS
 10
76.2573734093
 20
127.4807462884
 11
93.7573734093
 21
127.4807462884
  0
LINE
  5
339
100
AcDbEntity
  8
0
100
AcDbLine
 62
7
  6
CONTINUOUS
 10
98.7573734093
 20
127.4807462884
 11
115.7573734093
 21
127.4807462884
  0
LINE
  5
33A
100
AcDbEntity
  8
RUNDUNGEN
100
AcDbLine
 62
7
  6
CONTINUOUS
 10
135.4029056444
 20
108.4972742337
 11
135.4018535577
 21
108.4969875498
  0
LINE
  5
33B
100
AcDbEntity
  8
RUNDUNGEN
100
AcDbLine
 62
7
  6
CONTINUOUS
 10
135.4019080875
 20
108.4970191638
 11
135.5211526464
 21
108.5278422285
  0
LINE
  5
33C
100
AcDbEntity
  8
RUNDUNGEN
100
AcDbLine
 62
7
  6
CONTINUOUS
 10
295.2573734093
 20
133.4807462884
 11
255.2573734093
 21
133.4807462884
  0
LINE
  5
33D
100
AcDbEntity
  8
RUNDUNGEN
100
AcDbLine
 62
7
  6
CONTINUOUS
 10
190.2573734093
 20
133.4807462884
 11
142.2573734093
 21
133.4807462884
  0
LINE
  5
33E
100
AcDbEntity
  8
0
100
AcDbLine
 62
7
  6
CONTINUOUS
 10
153.4573734093
 20
134.4807462884
 11
159.0573734093
 21
134.4807462884
  0
LINE
  5
33F
100
AcDbEntity
  8
0
100
AcDbLine
 62
7
  6
CONTINUOUS
 10
256.7573734093
 20
134.4807462884
 11
261.6323734093
 21
134.4807462884
  0
LINE
  5
340
100
AcDbEntity
  8
0
100
AcDbLine
 62
7
  6
CONTINUOUS
 10
262.6323735285
 20
134.4807462884
 11
267.1323731709
 21
134.4807462884
  0
LINE
  5
341
100
AcDbEntity
  8
0
100
AcDbLine
 62
7
  6
CONTINUOUS
 10
268.1323736478
 20
134.4807462884
 11
272.8823734093
 21
134.4807462884
  0
LINE
  5
342
100
AcDbEntity
  8
0
100
AcDbLine
 62
7
  6
CONTINUOUS
 10
273.8823738862
 20
134.4807462884
 11
278.6323729325
 21
134.4807462884
  0
LINE
  5
343
100
AcDbEntity
  8
0
100
AcDbLine
 62
7
  6
CONTINUOUS
 10
279.6323734093
 20
134.4807462884
 11
284.1323734093
 21
134.4807462884
  0
LINE
  5
344
100
AcDbEntity
  8
RUNDUNGEN
100
AcDbLine
 62
7
  6
CONTINUOUS
 10
320.2748975565
 20
136.4807462884
 11
303.514941151
 21
136.4807462884
  0
LINE
  5
345
100
AcDbEntity
  8
0
100
AcDbLine
 62
7
  6
CONTINUOUS
 10
134.8814405712
 20
136.4807462884
 11
140.7573734093
 21
136.4807462884
  0
LINE
  5
346
100
AcDbEntity
  8
0
100
AcDbLine
 62
7
  6
CONTINUOUS
 10
191.7573734093
 20
136.4807462884
 11
201.0253226018
 21
136.4807462884
  0
LINE
  5
347
100
AcDbEntity
  8
0
100
AcDbLine
 62
7
  6
CONTINUOUS
 10
236.4894242169
 20
136.4807462884
 11
253.7573734093
 21
136.4807462884
  0
LINE
  5
348
100
AcDbEntity
  8
0
100
AcDbLine
 62
7
  6
CONTINUOUS
 10
296.7573734093
 20
136.4807462884
 11
320.2748975565
 21
136.4807462884
  0
LINE
  5
349
100
AcDbEntity
  8
0
100
AcDbLine
 62
7
  6
CONTINUOUS
 10
233.6855766396
 20
137.4807462884
 11
229.2753620857
 21
137.4807462884
  0
LINE
  5
34A
100
AcDbEntity
  8
0
100
AcDbLine
 62
7
  6
CONTINUOUS
 10
208.239384733
 20
137.4807462884
 11
203.8291701791
 21
137.4807462884
  0
LINE
  5
34B
100
AcDbEntity
  8
BEZUGSACHSEN
100
AcDbLine
 62
7
  6
CONTINUOUS
 10
397.7268034016
 20
137.9807462884
 11
388.7573767419
 21
137.9807462884
  0
LINE
  5
34C
100
AcDbEntity
  8
RUNDUNGEN
100
AcDbLine
 62
7
  6
CONTINUOUS
 10
39.7879434171
 20
137.9807462884
 11
48.7573700767
 21
137.9807462884
  0
LINE
  5
34D
100
AcDbEntity
  8
BEZUGSACHSEN
100
AcDbLine
 62
7
  6
CONTINUOUS
 10
98.2573734093
 20
139.4807462884
 11
95.2573734093
 21
139.4807462884
  0
LINE
  5
34E
100
AcDbEntity
  8
RUNDUNGEN
100
AcDbLine
 62
7
  6
CONTINUOUS
 10
98.2573734093
 20
139.4807462884
 11
95.2573734093
 21
139.4807462884
  0
LINE
  5
34F
100
AcDbEntity
  8
0
100
AcDbLine
 62
7
  6
CONTINUOUS
 10
116.7573734093
 20
139.4807462884
 11
124.8757385058
 21
139.4807462884
  0
LINE
  5
350
100
AcDbEntity
  8
RUNDUNGEN
100
AcDbLine
 62
7
  6
CONTINUOUS
 10
302.7865782569
 20
108.2739715002
 11
302.9506881716
 21
108.2066686219
  0
LINE
  5
351
100
AcDbEntity
  8
RUNDUNGEN
100
AcDbLine
 62
7
  6
CONTINUOUS
 10
254.2573734093
 20
134.4807462884
 11
254.2573734093
 21
135.9807462883
  0
LINE
  5
352
100
AcDbEntity
  8
0
100
AcDbLine
 62
7
  6
CONTINUOUS
 10
256.7573734093
 20
133.4807462884
 11
256.7573734093
 21
134.4807462884
  0
LINE
  5
353
100
AcDbEntity
  8
0
100
AcDbLine
 62
7
  6
CONTINUOUS
 10
256.8823734131
 20
133.4807462884
 11
256.8823734131
 21
134.4807462884
  0
LINE
  5
354
100
AcDbEntity
  8
0
100
AcDbLine
 62
7
  6
CONTINUOUS
 10
257.1323734093
 20
133.4807462884
 11
257.1323734093
 21
134.4807462884
  0
LINE
  5
355
100
AcDbEntity
  8
0
100
AcDbLine
 62
7
  6
CONTINUOUS
 10
257.6323733795
 20
133.4807462884
 11
257.6323733795
 21
134.4807462884
  0
LINE
  5
356
100
AcDbEntity
  8
0
100
AcDbLine
 62
7
  6
CONTINUOUS
 10
258.1323734391
 20
133.4807462884
 11
258.1323734391
 21
134.4807462884
  0
LINE
  5
357
100
AcDbEntity
  8
0
100
AcDbLine
 62
7
  6
CONTINUOUS
 10
258.7573734689
 20
133.4807462884
 11
258.7573734689
 21
134.4807462884
  0
LINE
  5
358
100
AcDbEntity
  8
0
100
AcDbLine
 62
7
  6
CONTINUOUS
 10
259.8823732901
 20
133.4807462884
 11
259.8823732901
 21
134.4807462884
  0
LINE
  5
359
100
AcDbEntity
  8
0
100
AcDbLine
 62
7
  6
CONTINUOUS
 10
260.5073734093
 20
133.4807462884
 11
260.5073734093
 21
134.4807462884
  0
LINE
  5
35A
100
AcDbEntity
  8
0
100
AcDbLine
 62
7
  6
CONTINUOUS
 10
261.0073732901
 20
133.4807462884
 11
261.0073732901
 21
134.4807462884
  0
LINE
  5
35B
100
AcDbEntity
  8
0
100
AcDbLine
 62
7
  6
CONTINUOUS
 10
261.5073735285
 20
133.4807462884
 11
261.5073735285
 21
134.4807462884
  0
LINE
  5
35C
100
AcDbEntity
  8
0
100
AcDbLine
 62
7
  6
CONTINUOUS
 10
261.6323734093
 20
133.4807462884
 11
261.6323734093
 21
134.4807462884
  0
LINE
  5
35D
100
AcDbEntity
  8
0
100
AcDbLine
 62
7
  6
CONTINUOUS
 10
234.6855766396
 20
137.212797096
 11
235.4894242169
 21
136.7486954809
  0
LINE
  5
35E
100
AcDbEntity
  8
0
100
AcDbLine
 62
7
  6
CONTINUOUS
 10
262.6323735285
 20
133.4807462884
 11
262.6323735285
 21
134.4807462884
  0
LINE
  5
35F
100
AcDbEntity
  8
0
100
AcDbLine
 62
7
  6
CONTINUOUS
 10
262.7573734093
 20
133.4807462884
 11
262.7573734093
 21
134.4807462884
  0
LINE
  5
360
100
AcDbEntity
  8
0
100
AcDbLine
 62
7
  6
CONTINUOUS
 10
263.0073731709
 20
133.4807462884
 11
263.0073731709
 21
134.4807462884
  0
LINE
  5
361
100
AcDbEntity
  8
0
100
AcDbLine
 62
7
  6
CONTINUOUS
 10
263.5073734093
 20
133.4807462884
 11
263.5073734093
 21
134.4807462884
  0
LINE
  5
362
100
AcDbEntity
  8
0
100
AcDbLine
 62
7
  6
CONTINUOUS
 10
264.0073736478
 20
133.4807462884
 11
264.0073736478
 21
134.4807462884
  0
LINE
  5
363
100
AcDbEntity
  8
0
100
AcDbLine
 62
7
  6
CONTINUOUS
 10
264.6323734093
 20
133.4807462884
 11
264.6323734093
 21
134.4807462884
  0
LINE
  5
364
100
AcDbEntity
  8
0
100
AcDbLine
 62
7
  6
CONTINUOUS
 10
265.1323736478
 20
133.4807462884
 11
265.1323736478
 21
134.4807462884
  0
LINE
  5
365
100
AcDbEntity
  8
0
100
AcDbLine
 62
7
  6
CONTINUOUS
 10
265.7573734093
 20
133.4807462884
 11
265.7573734093
 21
134.4807462884
  0
LINE
  5
366
100
AcDbEntity
  8
0
100
AcDbLine
 62
7
  6
CONTINUOUS
 10
266.2573736478
 20
133.4807462884
 11
266.2573736478
 21
134.4807462884
  0
LINE
  5
367
100
AcDbEntity
  8
0
100
AcDbLine
 62
7
  6
CONTINUOUS
 10
266.7573731709
 20
133.4807462884
 11
266.7573731709
 21
134.4807462884
  0
LINE
  5
368
100
AcDbEntity
  8
0
100
AcDbLine
 62
7
  6
CONTINUOUS
 10
267.0073736478
 20
133.4807462884
 11
267.0073736478
 21
134.4807462884
  0
LINE
  5
369
100
AcDbEntity
  8
0
100
AcDbLine
 62
7
  6
CONTINUOUS
 10
267.1323731709
 20
133.4807462884
 11
267.1323731709
 21
134.4807462884
  0
LINE
  5
36A
100
AcDbEntity
  8
0
100
AcDbLine
 62
7
  6
CONTINUOUS
 10
268.1323736478
 20
133.4807462884
 11
268.1323736478
 21
134.4807462884
  0
LINE
  5
36B
100
AcDbEntity
  8
0
100
AcDbLine
 62
7
  6
CONTINUOUS
 10
268.8823729325
 20
133.4807462884
 11
268.8823729325
 21
134.4807462884
  0
LINE
  5
36C
100
AcDbEntity
  8
0
100
AcDbLine
 62
7
  6
CONTINUOUS
 10
271.0073734093
 20
133.4807462884
 11
271.0073734093
 21
134.4807462884
  0
LINE
  5
36D
100
AcDbEntity
  8
0
100
AcDbLine
 62
7
  6
CONTINUOUS
 10
272.0073738862
 20
133.4807462884
 11
272.0073738862
 21
134.4807462884
  0
LINE
  5
36E
100
AcDbEntity
  8
0
100
AcDbLine
 62
7
  6
CONTINUOUS
 10
272.8823734093
 20
133.4807462884
 11
272.8823734093
 21
134.4807462884
  0
LINE
  5
36F
100
AcDbEntity
  8
0
100
AcDbLine
 62
7
  6
CONTINUOUS
 10
273.8823738862
 20
133.4807462884
 11
273.8823738862
 21
134.4807462884
  0
LINE
  5
370
100
AcDbEntity
  8
0
100
AcDbLine
 62
7
  6
CONTINUOUS
 10
275.8823734093
 20
133.4807462884
 11
275.8823734093
 21
134.4807462884
  0
LINE
  5
371
100
AcDbEntity
  8
0
100
AcDbLine
 62
7
  6
CONTINUOUS
 10
276.6323734093
 20
133.4807462884
 11
276.6323734093
 21
134.4807462884
  0
LINE
  5
372
100
AcDbEntity
  8
0
100
AcDbLine
 62
7
  6
CONTINUOUS
 10
278.6323729325
 20
133.4807462884
 11
278.6323729325
 21
134.4807462884
  0
LINE
  5
373
100
AcDbEntity
  8
0
100
AcDbLine
 62
7
  6
CONTINUOUS
 10
279.6323734093
 20
133.4807462884
 11
279.6323734093
 21
134.4807462884
  0
LINE
  5
374
100
AcDbEntity
  8
0
100
AcDbLine
 62
7
  6
CONTINUOUS
 10
279.7573729325
 20
133.4807462884
 11
279.7573729325
 21
134.4807462884
  0
LINE
  5
375
100
AcDbEntity
  8
0
100
AcDbLine
 62
7
  6
CONTINUOUS
 10
280.0073734093
 20
133.4807462884
 11
280.0073734093
 21
134.4807462884
  0
LINE
  5
376
100
AcDbEntity
  8
0
100
AcDbLine
 62
7
  6
CONTINUOUS
 10
280.3823734093
 20
133.4807462884
 11
280.3823734093
 21
134.4807462884
  0
LINE
  5
377
100
AcDbEntity
  8
0
100
AcDbLine
 62
7
  6
CONTINUOUS
 10
281.0073724557
 20
133.4807462884
 11
281.0073724557
 21
134.4807462884
  0
LINE
  5
378
100
AcDbEntity
  8
0
100
AcDbLine
 62
7
  6
CONTINUOUS
 10
281.632374363
 20
133.4807462884
 11
281.632374363
 21
134.4807462884
  0
LINE
  5
379
100
AcDbEntity
  8
0
100
AcDbLine
 62
7
  6
CONTINUOUS
 10
282.2573734093
 20
133.4807462884
 11
282.2573734093
 21
134.4807462884
  0
LINE
  5
37A
100
AcDbEntity
  8
0
100
AcDbLine
 62
7
  6
CONTINUOUS
 10
282.8823724557
 20
133.4807462884
 11
282.8823724557
 21
134.4807462884
  0
LINE
  5
37B
100
AcDbEntity
  8
0
100
AcDbLine
 62
7
  6
CONTINUOUS
 10
283.507374363
 20
133.4807462884
 11
283.507374363
 21
134.4807462884
  0
LINE
  5
37C
100
AcDbEntity
  8
0
100
AcDbLine
 62
7
  6
CONTINUOUS
 10
283.882374363
 20
133.4807462884
 11
283.882374363
 21
134.4807462884
  0
LINE
  5
37D
100
AcDbEntity
  8
0
100
AcDbLine
 62
7
  6
CONTINUOUS
 10
284.1323734093
 20
133.4807462884
 11
284.1323734093
 21
134.4807462884
  0
LINE
  5
37E
100
AcDbEntity
  8
RUNDUNGEN
100
AcDbLine
 62
7
  6
CONTINUOUS
 10
296.2573734093
 20
135.9807462883
 11
296.2573734093
 21
134.4807570656
  0
LINE
  5
37F
100
AcDbEntity
  8
0
100
AcDbLine
 62
7
  6
CONTINUOUS
 10
322.2639413472
 20
134.689803215
 11
322.7573734093
 21
129.9951107427
  0
LINE
  5
380
100
AcDbEntity
  8
0
100
AcDbLine
 62
7
  6
CONTINUOUS
 10
322.7573734093
 20
129.9949444448
 11
322.7573734093
 21
110.9665481321
  0
LINE
  5
381
100
AcDbEntity
  8
0
100
AcDbLine
 62
7
  6
CONTINUOUS
 10
322.2639413472
 20
106.2716893619
 11
322.7573734093
 21
110.9663818342
  0
LINE
  5
382
100
AcDbEntity
  8
BEZUGSACHSEN
100
AcDbLine
 62
7
  6
CONTINUOUS
 10
421.1319931165
 20
98.4655559087
 11
424.6438087483
 21
100.4121871004
  0
LINE
  5
383
100
AcDbEntity
  8
BEZUGSACHSEN
100
AcDbLine
 62
7
  6
CONTINUOUS
 10
411.2038948435
 20
114.3136539725
 11
419.7725637891
 21
98.8553659956
  0
LINE
  5
384
100
AcDbEntity
  8
RUNDUNGEN
100
AcDbLine
 62
7
  6
CONTINUOUS
 10
425.1438068811
 20
101.4604549853
 11
424.9461393498
 21
102.5814832618
  0
LINE
  5
385
100
AcDbEntity
  8
BEZUGSACHSEN
100
AcDbLine
 62
7
  6
CONTINUOUS
 10
425.1438068811
 20
101.4604549853
 11
422.346997857
 21
117.3219471565
  0
ARC
  5
386
100
AcDbEntity
  8
0
100
AcDbCircle
 62
7
  6
CONTINUOUS
 10
76.2573734093
 20
297.4002187169
 40
10.0
100
AcDbArc
 50
90.0
 51
121.9963298722
  0
ARC
  5
387
100
AcDbEntity
  8
RUNDUNGEN
100
AcDbCircle
 62
7
  6
CONTINUOUS
 10
73.5488783672
 20
296.1502187169
 40
10.0
100
AcDbArc
 50
107.6314886906
 51
125.0000079438
  0
ARC
  5
388
100
AcDbEntity
  8
RUNDUNGEN
100
AcDbCircle
 62
7
  6
CONTINUOUS
 10
95.2573734093
 20
296.9002187169
 40
1.5
100
AcDbArc
 50
180.0
 51
270.0
  0
ARC
  5
389
100
AcDbEntity
  8
RUNDUNGEN
100
AcDbCircle
 62
7
  6
CONTINUOUS
 10
98.2573734093
 20
295.9002187169
 40
0.5
100
AcDbArc
 50
270.0
 51
360.0
  0
ARC
  5
38A
100
AcDbEntity
  8
BEZUGSACHSEN
100
AcDbCircle
 62
7
  6
CONTINUOUS
 10
30.7573734093
 20
305.9002187169
 40
10.0
100
AcDbArc
 50
247.0000130283
 51
270.0000073512
  0
ARC
  5
38B
100
AcDbEntity
  8
BEZUGSACHSEN
100
AcDbCircle
 62
7
  6
CONTINUOUS
 10
52.6043855205
 20
305.9002187169
 40
10.0
100
AcDbArc
 50
269.999935343
 51
304.9995553527
  0
ARC
  5
38C
100
AcDbEntity
  8
BEZUGSACHSEN
100
AcDbCircle
 62
7
  6
CONTINUOUS
 10
19.7573734093
 20
308.3967209404
 40
8.0
100
AcDbArc
 50
207.59056413
 51
247.0
  0
ARC
  5
38D
100
AcDbEntity
  8
BEZUGSACHSEN
100
AcDbCircle
 62
7
  6
CONTINUOUS
 10
30.5273142816
 20
305.4002187169
 40
5.0
100
AcDbArc
 50
33.6324266257
 51
90.0
  0
ARC
  5
38E
100
AcDbEntity
  8
0
100
AcDbCircle
 62
7
  6
CONTINUOUS
 10
76.3557476906
 20
307.4002187169
 40
4.5
100
AcDbArc
 50
90.0
 51
180.0
  0
ARC
  5
38F
100
AcDbEntity
  8
BEZUGSACHSEN
100
AcDbCircle
 62
7
  6
CONTINUOUS
 10
13.5596827576
 20
305.1567223518
 40
1.0065060989
100
AcDbArc
 50
188.7565123047
 51
207.5290470775
  0
ARC
  5
390
100
AcDbEntity
  8
BEZUGSACHSEN
100
AcDbCircle
 62
7
  6
CONTINUOUS
 10
20.8470778962
 20
311.4002187169
 40
1.0
100
AcDbArc
 50
180.0020162193
 51
270.0
  0
ARC
  5
391
100
AcDbEntity
  8
RUNDUNGEN
100
AcDbCircle
 62
7
  6
CONTINUOUS
 10
124.8757385058
 20
300.4002187169
 40
5.0
100
AcDbArc
 50
270.0
 51
290.0
  0
ARC
  5
392
100
AcDbEntity
  8
RUNDUNGEN
100
AcDbCircle
 62
7
  6
CONTINUOUS
 10
134.8814405712
 20
293.4002187169
 40
5.0
100
AcDbArc
 50
90.0
 51
110.0
  0
ARC
  5
393
100
AcDbEntity
  8
RUNDUNGEN
100
AcDbCircle
 62
7
  6
CONTINUOUS
 10
203.8291701791
 20
299.4002187169
 40
2.0
100
AcDbArc
 50
240.0
 51
270.0
  0
ARC
  5
394
100
AcDbEntity
  8
RUNDUNGEN
100
AcDbCircle
 62
7
  6
CONTINUOUS
 10
201.0253226018
 20
296.4002187169
 40
2.0
100
AcDbArc
 50
60.0
 51
90.0
  0
ARC
  5
395
100
AcDbEntity
  8
RUNDUNGEN
100
AcDbCircle
 62
7
  6
CONTINUOUS
 10
116.7573734093
 20
296.4002187169
 40
1.0
100
AcDbArc
 50
180.0
 51
270.0
  0
ARC
  5
396
100
AcDbEntity
  8
0
100
AcDbCircle
 62
7
  6
CONTINUOUS
 10
136.7573734093
 20
311.4002187169
 40
5.0
100
AcDbArc
 50
247.4915170683
 51
252.847331705
  0
ARC
  5
397
100
AcDbEntity
  8
0
100
AcDbCircle
 62
7
  6
CONTINUOUS
 10
136.7573734093
 20
311.4002187169
 40
5.0
100
AcDbArc
 50
233.2236924833
 51
247.104124408
  0
ARC
  5
398
100
AcDbEntity
  8
RUNDUNGEN
100
AcDbCircle
 62
7
  6
CONTINUOUS
 10
136.7573734093
 20
311.4002187169
 40
5.0
100
AcDbArc
 50
180.0014337711
 51
270.001842331
  0
ARC
  5
399
100
AcDbEntity
  8
RUNDUNGEN
100
AcDbCircle
 62
7
  6
CONTINUOUS
 10
201.7573734093
 20
311.4002187169
 40
5.0
100
AcDbArc
 50
270.0
 51
0.0029047464
  0
ARC
  5
39A
100
AcDbEntity
  8
RUNDUNGEN
100
AcDbCircle
 62
7
  6
CONTINUOUS
 10
20.8470778962
 20
317.4002187169
 40
1.0
100
AcDbArc
 50
90.0
 51
179.9979837807
  0
ARC
  5
39B
100
AcDbEntity
  8
RUNDUNGEN
100
AcDbCircle
 62
7
  6
CONTINUOUS
 10
30.7573734093
 20
322.9002187169
 40
10.0
100
AcDbArc
 50
89.9999926488
 51
112.9999869717
  0
ARC
  5
39C
100
AcDbEntity
  8
RUNDUNGEN
100
AcDbCircle
 62
7
  6
CONTINUOUS
 10
19.7573734093
 20
320.4037164934
 40
8.0
100
AcDbArc
 50
113.0
 51
152.40943587
  0
ARC
  5
39D
100
AcDbEntity
  8
RUNDUNGEN
100
AcDbCircle
 62
7
  6
CONTINUOUS
 10
30.5273142816
 20
323.4002187169
 40
5.0
100
AcDbArc
 50
270.0
 51
326.3675733743
  0
ARC
  5
39E
100
AcDbEntity
  8
RUNDUNGEN
100
AcDbCircle
 62
7
  6
CONTINUOUS
 10
13.5596827576
 20
323.6437150819
 40
1.0065060989
100
AcDbArc
 50
152.4709529225
 51
171.2434876953
  0
ARC
  5
39F
100
AcDbEntity
  8
BEZUGSACHSEN
100
AcDbCircle
 62
7
  6
CONTINUOUS
 10
44.0573734093
 20
314.4002187169
 40
11.25
100
AcDbArc
 50
213.6307667032
 51
77.2669924903
  0
ARC
  5
3A0
100
AcDbEntity
  8
RUNDUNGEN
100
AcDbCircle
 62
7
  6
CONTINUOUS
 10
44.0573734093
 20
314.4002187169
 40
11.25
100
AcDbArc
 50
67.7282608307
 51
71.4608892852
  0
ARC
  5
3A1
100
AcDbEntity
  8
RUNDUNGEN
100
AcDbCircle
 62
7
  6
CONTINUOUS
 10
44.0573734093
 20
314.4002187169
 40
11.25
100
AcDbArc
 50
77.2669924903
 51
146.3692332968
  0
ARC
  5
3A2
100
AcDbEntity
  8
RUNDUNGEN
100
AcDbCircle
 62
7
  6
CONTINUOUS
 10
52.6043855205
 20
322.9002187169
 40
10.0
100
AcDbArc
 50
55.0
 51
90.000064657
  0
ARC
  5
3A3
100
AcDbEntity
  8
0
100
AcDbCircle
 62
7
  6
CONTINUOUS
 10
76.2573734093
 20
331.4002187169
 40
10.0
100
AcDbArc
 50
238.002941551
 51
270.0
  0
ARC
  5
3A4
100
AcDbEntity
  8
RUNDUNGEN
100
AcDbCircle
 62
7
  6
CONTINUOUS
 10
73.5488783672
 20
332.6502187169
 40
10.0
100
AcDbArc
 50
234.9999920562
 51
252.3685163835
  0
ARC
  5
3A5
100
AcDbEntity
  8
RUNDUNGEN
100
AcDbCircle
 62
7
  6
CONTINUOUS
 10
95.2573734093
 20
331.9002187169
 40
1.5
100
AcDbArc
 50
90.0
 51
180.0
  0
ARC
  5
3A6
100
AcDbEntity
  8
RUNDUNGEN
100
AcDbCircle
 62
7
  6
CONTINUOUS
 10
98.2573734093
 20
332.9002187169
 40
0.5
100
AcDbArc
 50
0.0
 51
90.0
  0
ARC
  5
3A7
100
AcDbEntity
  8
RUNDUNGEN
100
AcDbCircle
 62
7
  6
CONTINUOUS
 10
136.7573734093
 20
317.4002187169
 40
5.0
100
AcDbArc
 50
89.9994800841
 51
179.9986236487
  0
ARC
  5
3A8
100
AcDbEntity
  8
RUNDUNGEN
100
AcDbCircle
 62
7
  6
CONTINUOUS
 10
201.7573734093
 20
317.4002187169
 40
5.0
100
AcDbArc
 50
359.9971028033
 51
90.0
  0
ARC
  5
3A9
100
AcDbEntity
  8
RUNDUNGEN
100
AcDbCircle
 62
7
  6
CONTINUOUS
 10
124.8757385058
 20
328.4002187169
 40
5.0
100
AcDbArc
 50
70.0
 51
90.0
  0
ARC
  5
3AA
100
AcDbEntity
  8
RUNDUNGEN
100
AcDbCircle
 62
7
  6
CONTINUOUS
 10
134.8814405712
 20
335.4002187169
 40
5.0
100
AcDbArc
 50
250.0
 51
270.0
  0
ARC
  5
3AB
100
AcDbEntity
  8
RUNDUNGEN
100
AcDbCircle
 62
7
  6
CONTINUOUS
 10
203.8291701791
 20
329.4002187169
 40
2.0
100
AcDbArc
 50
90.0
 51
120.0
  0
ARC
  5
3AC
100
AcDbEntity
  8
RUNDUNGEN
100
AcDbCircle
 62
7
  6
CONTINUOUS
 10
201.0253226018
 20
332.4002187169
 40
2.0
100
AcDbArc
 50
270.0
 51
300.0
  0
ARC
  5
3AD
100
AcDbEntity
  8
RUNDUNGEN
100
AcDbCircle
 62
7
  6
CONTINUOUS
 10
116.7573734093
 20
332.4002187169
 40
1.0
100
AcDbArc
 50
90.0
 51
180.0
  0
ARC
  5
3AE
100
AcDbEntity
  8
0
100
AcDbCircle
 62
7
  6
CONTINUOUS
 10
361.2573734093
 20
297.4002187169
 40
10.0
100
AcDbArc
 50
58.0030733231
 51
90.0
  0
ARC
  5
3AF
100
AcDbEntity
  8
RUNDUNGEN
100
AcDbCircle
 62
7
  6
CONTINUOUS
 10
406.7573734093
 20
305.9002187169
 40
10.0
100
AcDbArc
 50
269.9999926488
 51
292.9999869717
  0
ARC
  5
3B0
100
AcDbEntity
  8
RUNDUNGEN
100
AcDbCircle
 62
7
  6
CONTINUOUS
 10
363.9658684514
 20
296.1502187169
 40
10.0
100
AcDbArc
 50
54.9999920562
 51
72.3684964932
  0
ARC
  5
3B1
100
AcDbEntity
  8
RUNDUNGEN
100
AcDbCircle
 62
7
  6
CONTINUOUS
 10
384.9103612981
 20
305.9002187169
 40
10.0
100
AcDbArc
 50
235.0
 51
270.000064657
  0
ARC
  5
3B2
100
AcDbEntity
  8
RUNDUNGEN
100
AcDbCircle
 62
7
  6
CONTINUOUS
 10
417.7573734093
 20
308.3967209404
 40
8.0
100
AcDbArc
 50
293.0
 51
332.40943587
  0
ARC
  5
3B3
100
AcDbEntity
  8
RUNDUNGEN
100
AcDbCircle
 62
7
  6
CONTINUOUS
 10
406.9874325371
 20
305.4002187169
 40
5.0
100
AcDbArc
 50
90.0
 51
146.3675733743
  0
ARC
  5
3B4
100
AcDbEntity
  8
RUNDUNGEN
100
AcDbCircle
 62
7
  6
CONTINUOUS
 10
300.7573734093
 20
311.4002187169
 40
5.0
100
AcDbArc
 50
269.9972094646
 51
0.0028787004
  0
ARC
  5
3B5
100
AcDbEntity
  8
0
100
AcDbCircle
 62
7
  6
CONTINUOUS
 10
300.7573734093
 20
311.4002187169
 40
5.0
100
AcDbArc
 50
287.2434290739
 51
293.19945822
  0
ARC
  5
3B6
100
AcDbEntity
  8
0
100
AcDbCircle
 62
7
  6
CONTINUOUS
 10
300.7573734093
 20
311.4002187169
 40
5.0
100
AcDbArc
 50
299.4409559351
 51
306.7763075167
  0
ARC
  5
3B7
100
AcDbEntity
  8
RUNDUNGEN
100
AcDbCircle
 62
7
  6
CONTINUOUS
 10
235.7573734093
 20
311.4002187169
 40
5.0
100
AcDbArc
 50
179.997208655
 51
270.0021655439
  0
ARC
  5
3B8
100
AcDbEntity
  8
RUNDUNGEN
100
AcDbCircle
 62
7
  6
CONTINUOUS
 10
233.6855766396
 20
299.4002187169
 40
2.0
100
AcDbArc
 50
270.0
 51
300.0
  0
ARC
  5
3B9
100
AcDbEntity
  8
RUNDUNGEN
100
AcDbCircle
 62
7
  6
CONTINUOUS
 10
236.4894242169
 20
296.4002187169
 40
2.0
100
AcDbArc
 50
90.0
 51
120.0
  0
ARC
  5
3BA
100
AcDbEntity
  8
RUNDUNGEN
100
AcDbCircle
 62
7
  6
CONTINUOUS
 10
320.2748975565
 20
300.4002187169
 40
2.0
100
AcDbArc
 50
270.0
 51
354.0000000003
  0
ARC
  5
3BB
100
AcDbEntity
  8
RUNDUNGEN
100
AcDbCircle
 62
7
  6
CONTINUOUS
 10
423.955064061
 20
305.1567223518
 40
1.0065060989
100
AcDbArc
 50
332.4709529225
 51
351.2434876953
  0
ARC
  5
3BC
100
AcDbEntity
  8
RUNDUNGEN
100
AcDbCircle
 62
7
  6
CONTINUOUS
 10
416.6676689225
 20
311.4002187169
 40
1.0
100
AcDbArc
 50
270.0
 51
359.9979837807
  0
ARC
  5
3BD
100
AcDbEntity
  8
RUNDUNGEN
100
AcDbCircle
 62
7
  6
CONTINUOUS
 10
300.7573734093
 20
317.4002187169
 40
5.0
100
AcDbArc
 50
359.9974019971
 51
90.000762999
  0
ARC
  5
3BE
100
AcDbEntity
  8
RUNDUNGEN
100
AcDbCircle
 62
7
  6
CONTINUOUS
 10
235.7573734093
 20
317.4002187169
 40
5.0
100
AcDbArc
 50
90.0
 51
180.0025238426
  0
ARC
  5
3BF
100
AcDbEntity
  8
RUNDUNGEN
100
AcDbCircle
 62
7
  6
CONTINUOUS
 10
233.6855766396
 20
329.4002187169
 40
2.0
100
AcDbArc
 50
60.0
 51
90.0
  0
ARC
  5
3C0
100
AcDbEntity
  8
RUNDUNGEN
100
AcDbCircle
 62
7
  6
CONTINUOUS
 10
236.4894242169
 20
332.4002187169
 40
2.0
100
AcDbArc
 50
240.0
 51
270.0
  0
ARC
  5
3C1
100
AcDbEntity
  8
RUNDUNGEN
100
AcDbCircle
 62
7
  6
CONTINUOUS
 10
320.2748975565
 20
328.4002187169
 40
2.0
100
AcDbArc
 50
5.9999999997
 51
90.0
  0
ARC
  5
3C2
100
AcDbEntity
  8
BEZUGSACHSEN
100
AcDbCircle
 62
7
  6
CONTINUOUS
 10
393.4573734093
 20
314.4002187169
 40
11.25
100
AcDbArc
 50
33.6307667032
 51
257.2669924903
  0
ARC
  5
3C3
100
AcDbEntity
  8
RUNDUNGEN
100
AcDbCircle
 62
7
  6
CONTINUOUS
 10
393.4573734093
 20
314.4002187169
 40
11.25
100
AcDbArc
 50
247.7282608307
 51
251.4608892852
  0
ARC
  5
3C4
100
AcDbEntity
  8
RUNDUNGEN
100
AcDbCircle
 62
7
  6
CONTINUOUS
 10
393.4573734093
 20
314.4002187169
 40
11.25
100
AcDbArc
 50
257.2669924903
 51
326.3692332968
  0
ARC
  5
3C5
100
AcDbEntity
  8
BEZUGSACHSEN
100
AcDbCircle
 62
7
  6
CONTINUOUS
 10
384.9103612981
 20
322.9002187169
 40
10.0
100
AcDbArc
 50
89.999935343
 51
124.9995553527
  0
ARC
  5
3C6
100
AcDbEntity
  8
BEZUGSACHSEN
100
AcDbCircle
 62
7
  6
CONTINUOUS
 10
416.6676689225
 20
317.4002187169
 40
1.0
100
AcDbArc
 50
0.0020162193
 51
90.0
  0
ARC
  5
3C7
100
AcDbEntity
  8
BEZUGSACHSEN
100
AcDbCircle
 62
7
  6
CONTINUOUS
 10
406.7573734093
 20
322.9002187169
 40
10.0
100
AcDbArc
 50
67.0000130283
 51
90.0000073512
  0
ARC
  5
3C8
100
AcDbEntity
  8
BEZUGSACHSEN
100
AcDbCircle
 62
7
  6
CONTINUOUS
 10
417.7573734093
 20
320.4037164934
 40
8.0
100
AcDbArc
 50
27.59056413
 51
67.0
  0
ARC
  5
3C9
100
AcDbEntity
  8
BEZUGSACHSEN
100
AcDbCircle
 62
7
  6
CONTINUOUS
 10
406.9874325371
 20
323.4002187169
 40
5.0
100
AcDbArc
 50
213.6324266257
 51
270.0
  0
ARC
  5
3CA
100
AcDbEntity
  8
0
100
AcDbCircle
 62
7
  6
CONTINUOUS
 10
361.2573734093
 20
331.4002187169
 40
10.0
100
AcDbArc
 50
270.0
 51
301.9962188096
  0
ARC
  5
3CB
100
AcDbEntity
  8
RUNDUNGEN
100
AcDbCircle
 62
7
  6
CONTINUOUS
 10
363.9658684514
 20
332.6502187169
 40
10.0
100
AcDbArc
 50
287.6315048634
 51
305.0000079438
  0
ARC
  5
3CC
100
AcDbEntity
  8
BEZUGSACHSEN
100
AcDbCircle
 62
7
  6
CONTINUOUS
 10
423.955064061
 20
323.6437150819
 40
1.0065060989
100
AcDbArc
 50
8.7565123047
 51
27.5290470775
  0
ARC
  5
3CD
100
AcDbEntity
  8
BEZUGSACHSEN
100
AcDbCircle
 62
7
  6
CONTINUOUS
 10
454.81433921
 20
296.9002187169
 40
1.0
100
AcDbArc
 50
180.0
 51
270.0
  0
ARC
  5
3CE
100
AcDbEntity
  8
RUNDUNGEN
100
AcDbCircle
 62
7
  6
CONTINUOUS
 10
454.81433921
 20
331.9002187169
 40
1.0
100
AcDbArc
 50
90.0
 51
180.0
  0
ARC
  5
3CF
100
AcDbEntity
  8
BEZUGSACHSEN
100
AcDbCircle
 62
7
  6
CONTINUOUS
 10
481.81433921
 20
311.4002187169
 40
1.0
100
AcDbArc
 50
270.0061547425
 51
359.9955736268
  0
ARC
  5
3D0
100
AcDbEntity
  8
RUNDUNGEN
100
AcDbCircle
 62
7
  6
CONTINUOUS
 10
471.31433921
 20
314.4002187169
 40
19.0
100
AcDbArc
 50
57.2213937501
 51
102.9136436821
  0
ARC
  5
3D1
100
AcDbEntity
  8
RUNDUNGEN
100
AcDbCircle
 62
7
  6
CONTINUOUS
 10
471.31433921
 20
314.4002187169
 40
19.0
100
AcDbArc
 50
256.9538734445
 51
302.8207381476
  0
ARC
  5
3D2
100
AcDbEntity
  8
RUNDUNGEN
100
AcDbCircle
 62
7
  6
CONTINUOUS
 10
471.31433921
 20
314.4002187169
 40
19.0
100
AcDbArc
 50
153.8855480183
 51
206.1144519941
  0
ARC
  5
3D3
100
AcDbEntity
  8
BEZUGSACHSEN
100
AcDbCircle
 62
7
  6
CONTINUOUS
 10
471.31433921
 20
314.4002187169
 40
8.0
100
AcDbArc
 50
352.8661321603
 51
6.9643847676
  0
ARC
  5
3D4
100
AcDbEntity
  8
RUNDUNGEN
100
AcDbCircle
 62
7
  6
CONTINUOUS
 10
481.81433921
 20
317.4002187169
 40
1.0
100
AcDbArc
 50
0.0044263732
 51
90.0
  0
ARC
  5
3D5
100
AcDbEntity
  8
RUNDUNGEN
100
AcDbCircle
 62
7
  6
CONTINUOUS
 10
48.7573734093
 20
103.9807462884
 40
16.0
100
AcDbArc
 50
50.1615469978
 51
90.0000313924
  0
ARC
  5
3D6
100
AcDbEntity
  8
RUNDUNGEN
100
AcDbCircle
 62
7
  6
CONTINUOUS
 10
35.9316677219
 20
108.9807462884
 40
11.0
100
AcDbArc
 50
90.0
 51
150.9999889149
  0
ARC
  5
3D7
100
AcDbEntity
  8
0
100
AcDbCircle
 62
7
  6
CONTINUOUS
 10
76.2573734093
 20
103.4807462884
 40
10.0
100
AcDbArc
 50
90.0
 51
112.6892622012
  0
ARC
  5
3D8
100
AcDbEntity
  8
RUNDUNGEN
100
AcDbCircle
 62
7
  6
CONTINUOUS
 10
76.2573734093
 20
103.4807462884
 40
10.0
100
AcDbArc
 50
90.0
 51
112.6892622012
  0
ARC
  5
3D9
100
AcDbEntity
  8
RUNDUNGEN
100
AcDbCircle
 62
7
  6
CONTINUOUS
 10
95.2573734093
 20
102.9807462884
 40
1.5
100
AcDbArc
 50
180.0
 51
270.0
  0
ARC
  5
3DA
100
AcDbEntity
  8
BEZUGSACHSEN
100
AcDbCircle
 62
7
  6
CONTINUOUS
 10
13.3557477478
 20
101.2868071323
 40
1.0
100
AcDbArc
 50
170.0000188891
 51
241.0000061497
  0
ARC
  5
3DB
100
AcDbEntity
  8
RUNDUNGEN
100
AcDbCircle
 62
7
  6
CONTINUOUS
 10
13.3557477478
 20
101.2868071323
 40
1.0
100
AcDbArc
 50
170.0000188891
 51
241.0000061497
  0
ARC
  5
3DC
100
AcDbEntity
  8
RUNDUNGEN
100
AcDbCircle
 62
7
  6
CONTINUOUS
 10
16.8675633224
 20
99.3401756158
 40
1.0
100
AcDbArc
 50
241.0
 51
331.0
  0
ARC
  5
3DD
100
AcDbEntity
  8
RUNDUNGEN
100
AcDbCircle
 62
7
  6
CONTINUOUS
 10
98.2573734093
 20
101.9807462884
 40
0.5
100
AcDbArc
 50
270.0
 51
360.0
  0
ARC
  5
3DE
100
AcDbEntity
  8
RUNDUNGEN
100
AcDbCircle
 62
7
  6
CONTINUOUS
 10
39.7879434171
 20
112.9807462884
 40
25.0
100
AcDbArc
 50
90.0
 51
170.0000083164
  0
ARC
  5
3DF
100
AcDbEntity
  8
BEZUGSACHSEN
100
AcDbCircle
 62
7
  6
CONTINUOUS
 10
39.7879434171
 20
112.9807462884
 40
25.0
100
AcDbArc
 50
112.1030602806
 51
112.6511375168
  0
ARC
  5
3E0
100
AcDbEntity
  8
BEZUGSACHSEN
100
AcDbCircle
 62
7
  6
CONTINUOUS
 10
48.7573734093
 20
120.9807462884
 40
17.0
100
AcDbArc
 50
87.663021301
 51
90.000011232
  0
ARC
  5
3E1
100
AcDbEntity
  8
BEZUGSACHSEN
100
AcDbCircle
 62
7
  6
CONTINUOUS
 10
48.7573734093
 20
120.9807462884
 40
17.0
100
AcDbArc
 50
75.0558792935
 51
76.0865669541
  0
ARC
  5
3E2
100
AcDbEntity
  8
RUNDUNGEN
100
AcDbCircle
 62
7
  6
CONTINUOUS
 10
48.7573734093
 20
120.9807462884
 40
17.0
100
AcDbArc
 50
47.0656938951
 51
90.000011232
  0
ARC
  5
3E3
100
AcDbEntity
  8
0
100
AcDbCircle
 62
7
  6
CONTINUOUS
 10
76.3557307677
 20
115.2582163513
 40
11.7608783525
100
AcDbArc
 50
89.9999175561
 51
90.4791757079
  0
ARC
  5
3E4
100
AcDbEntity
  8
RUNDUNGEN
100
AcDbCircle
 62
7
  6
CONTINUOUS
 10
71.6285149851
 20
114.5520710391
 40
2.0
100
AcDbArc
 50
270.001739252
 51
292.6908667397
  0
ARC
  5
3E5
100
AcDbEntity
  8
RUNDUNGEN
100
AcDbCircle
 62
7
  6
CONTINUOUS
 10
130.8249242418
 20
107.0419284065
 40
2.0032606311
100
AcDbArc
 50
290.6552616226
 51
292.1855816554
  0
ARC
  5
3E6
100
AcDbEntity
  8
RUNDUNGEN
100
AcDbCircle
 62
7
  6
CONTINUOUS
 10
208.7573734093
 20
105.4807462884
 40
2.0
100
AcDbArc
 50
224.3213366653
 51
245.9494075974
  0
ARC
  5
3E7
100
AcDbEntity
  8
RUNDUNGEN
100
AcDbCircle
 62
7
  6
CONTINUOUS
 10
130.826103828
 20
107.0385254404
 40
1.9996641898
100
AcDbArc
 50
292.1911038964
 51
320.2953801507
  0
ARC
  5
3E8
100
AcDbEntity
  8
RUNDUNGEN
100
AcDbCircle
 62
7
  6
CONTINUOUS
 10
203.8290600497
 20
109.0272864013
 40
1.999646436
100
AcDbArc
 50
224.4926911467
 51
255.3156573568
  0
ARC
  5
3E9
100
AcDbEntity
  8
RUNDUNGEN
100
AcDbCircle
 62
7
  6
CONTINUOUS
 10
116.7573734093
 20
102.4807462884
 40
1.0
100
AcDbArc
 50
180.0
 51
270.0
  0
ARC
  5
3EA
100
AcDbEntity
  8
BEZUGSACHSEN
100
AcDbCircle
 62
7
  6
CONTINUOUS
 10
69.2573734093
 20
128.5520710391
 40
16.0
100
AcDbArc
 50
246.2386336216
 51
270.0000433858
  0
ARC
  5
3EB
100
AcDbEntity
  8
BEZUGSACHSEN
100
AcDbCircle
 62
7
  6
CONTINUOUS
 10
69.2573734093
 20
128.5520710391
 40
16.0
100
AcDbArc
 50
232.4745248117
 51
233.0054389208
  0
ARC
  5
3EC
100
AcDbEntity
  8
RUNDUNGEN
100
AcDbCircle
 62
7
  6
CONTINUOUS
 10
69.2573734093
 20
128.5520710391
 40
16.0
100
AcDbArc
 50
230.1615730482
 51
270.0000433858
  0
ARC
  5
3ED
100
AcDbEntity
  8
RUNDUNGEN
100
AcDbCircle
 62
7
  6
CONTINUOUS
 10
124.8757385058
 20
134.4807462884
 40
5.0
100
AcDbArc
 50
70.0
 51
90.0
  0
ARC
  5
3EE
100
AcDbEntity
  8
RUNDUNGEN
100
AcDbCircle
 62
7
  6
CONTINUOUS
 10
70.7989385338
 20
126.7940191793
 40
2.0000004872
100
AcDbArc
 50
62.9422814055
 51
85.7092550664
  0
ARC
  5
3EF
100
AcDbEntity
  8
RUNDUNGEN
100
AcDbCircle
 62
7
  6
CONTINUOUS
 10
72.2573734093
 20
146.2394081691
 40
17.5
100
AcDbArc
 50
227.0656846331
 51
265.7109283333
  0
ARC
  5
3F0
100
AcDbEntity
  8
BEZUGSACHSEN
100
AcDbCircle
 62
7
  6
CONTINUOUS
 10
72.2573734093
 20
146.2394081691
 40
17.5
100
AcDbArc
 50
227.0656846331
 51
250.3934431779
  0
ARC
  5
3F1
100
AcDbEntity
  8
0
100
AcDbCircle
 62
7
  6
CONTINUOUS
 10
76.2573734093
 20
137.4807462884
 40
10.0
100
AcDbArc
 50
242.9437715386
 51
270.0
  0
ARC
  5
3F2
100
AcDbEntity
  8
RUNDUNGEN
100
AcDbCircle
 62
7
  6
CONTINUOUS
 10
76.2573734093
 20
137.4807462884
 40
10.0
100
AcDbArc
 50
242.9437715386
 51
270.0
  0
ARC
  5
3F3
100
AcDbEntity
  8
RUNDUNGEN
100
AcDbCircle
 62
7
  6
CONTINUOUS
 10
134.8814405712
 20
141.4807462884
 40
5.0
100
AcDbArc
 50
250.0
 51
270.0
  0
ARC
  5
3F4
100
AcDbEntity
  8
RUNDUNGEN
100
AcDbCircle
 62
7
  6
CONTINUOUS
 10
95.2573734093
 20
137.9807462884
 40
1.5
100
AcDbArc
 50
90.0
 51
180.0
  0
ARC
  5
3F5
100
AcDbEntity
  8
RUNDUNGEN
100
AcDbCircle
 62
7
  6
CONTINUOUS
 10
116.7573734093
 20
138.4807462884
 40
1.0
100
AcDbArc
 50
90.0
 51
180.0
  0
ARC
  5
3F6
100
AcDbEntity
  8
RUNDUNGEN
100
AcDbCircle
 62
7
  6
CONTINUOUS
 10
98.2573734093
 20
138.9807462884
 40
0.5
100
AcDbArc
 50
0.0
 51
90.0
  0
ARC
  5
3F7
100
AcDbEntity
  8
RUNDUNGEN
100
AcDbCircle
 62
7
  6
CONTINUOUS
 10
203.8291701791
 20
135.4807462884
 40
2.0
100
AcDbArc
 50
90.0
 51
120.0
  0
ARC
  5
3F8
100
AcDbEntity
  8
RUNDUNGEN
100
AcDbCircle
 62
7
  6
CONTINUOUS
 10
142.2573734093
 20
134.4807462884
 40
1.0
100
AcDbArc
 50
179.9992886369
 51
270.0
  0
ARC
  5
3F9
100
AcDbEntity
  8
RUNDUNGEN
100
AcDbCircle
 62
7
  6
CONTINUOUS
 10
190.2573734093
 20
134.4807462884
 40
1.0
100
AcDbArc
 50
270.0
 51
0.0006804272
  0
ARC
  5
3FA
100
AcDbEntity
  8
RUNDUNGEN
100
AcDbCircle
 62
7
  6
CONTINUOUS
 10
191.7573734093
 20
135.9807462884
 40
0.5
100
AcDbArc
 50
90.0
 51
180.0
  0
ARC
  5
3FB
100
AcDbEntity
  8
RUNDUNGEN
100
AcDbCircle
 62
7
  6
CONTINUOUS
 10
140.7573734093
 20
135.9807462884
 40
0.5
100
AcDbArc
 50
0.0
 51
90.0
  0
ARC
  5
3FC
100
AcDbEntity
  8
RUNDUNGEN
100
AcDbCircle
 62
7
  6
CONTINUOUS
 10
201.0253226018
 20
138.4807462884
 40
2.0
100
AcDbArc
 50
270.0
 51
300.0
  0
ARC
  5
3FD
100
AcDbEntity
  8
RUNDUNGEN
100
AcDbCircle
 62
7
  6
CONTINUOUS
 10
228.7573734093
 20
105.4807462884
 40
2.0
100
AcDbArc
 50
294.0505924026
 51
315.6786633347
  0
ARC
  5
3FE
100
AcDbEntity
  8
RUNDUNGEN
100
AcDbCircle
 62
7
  6
CONTINUOUS
 10
307.7573734093
 20
106.4807462884
 40
2.0
100
AcDbArc
 50
184.7757011658
 51
270.0
  0
ARC
  5
3FF
100
AcDbEntity
  8
RUNDUNGEN
100
AcDbCircle
 62
7
  6
CONTINUOUS
 10
320.2748975565
 20
106.4807462884
 40
2.0
100
AcDbArc
 50
270.0
 51
354.0000000001
  0
ARC
  5
400
100
AcDbEntity
  8
RUNDUNGEN
100
AcDbCircle
 62
7
  6
CONTINUOUS
 10
233.6857155773
 20
109.0272337876
 40
1.999586792
100
AcDbArc
 50
284.6840918184
 51
315.5074083953
  0
CIRCLE
  5
401
100
AcDbEntity
  8
0
100
AcDbCircle
 62
7
  6
CONTINUOUS
 10
218.7573734093
 20
120.4807462884
 40
20.0
  0
CIRCLE
  5
402
100
AcDbEntity
  8
0
100
AcDbCircle
 62
7
  6
CONTINUOUS
 10
218.7573734093
 20
120.4807462884
 40
9.6076951546
  0
ARC
  5
403
100
AcDbEntity
  8
BEZUGSACHSEN
100
AcDbCircle
 62
7
  6
CONTINUOUS
 10
388.7573734093
 20
103.9807462884
 40
16.0
100
AcDbArc
 50
89.9999686076
 51
129.8384530022
  0
ARC
  5
404
100
AcDbEntity
  8
BEZUGSACHSEN
100
AcDbCircle
 62
7
  6
CONTINUOUS
 10
401.5830790967
 20
108.9807462884
 40
11.0
100
AcDbArc
 50
29.0000110851
 51
90.0
  0
ARC
  5
405
100
AcDbEntity
  8
0
100
AcDbCircle
 62
7
  6
CONTINUOUS
 10
361.2573734093
 20
103.4807462884
 40
10.0
100
AcDbArc
 50
67.3107377988
 51
90.0
  0
ARC
  5
406
100
AcDbEntity
  8
RUNDUNGEN
100
AcDbCircle
 62
7
  6
CONTINUOUS
 10
361.2573734093
 20
103.4807462884
 40
10.0
100
AcDbArc
 50
67.3107377988
 51
90.0
  0
ARC
  5
407
100
AcDbEntity
  8
BEZUGSACHSEN
100
AcDbCircle
 62
7
  6
CONTINUOUS
 10
424.1589990708
 20
101.2868071323
 40
1.0
100
AcDbArc
 50
298.9999938503
 51
9.9999811109
  0
ARC
  5
408
100
AcDbEntity
  8
RUNDUNGEN
100
AcDbCircle
 62
7
  6
CONTINUOUS
 10
424.1589990708
 20
101.2868071323
 40
1.0
100
AcDbArc
 50
298.9999938503
 51
9.9999811109
  0
ARC
  5
409
100
AcDbEntity
  8
BEZUGSACHSEN
100
AcDbCircle
 62
7
  6
CONTINUOUS
 10
420.6471834962
 20
99.3401756158
 40
1.0
100
AcDbArc
 50
209.0
 51
299.0
  0
ARC
  5
40A
100
AcDbEntity
  8
RUNDUNGEN
100
AcDbCircle
 62
7
  6
CONTINUOUS
 10
397.7268034016
 20
112.9807462884
 40
25.0
100
AcDbArc
 50
20.6985365184
 51
56.6282270457
  0
ARC
  5
40B
100
AcDbEntity
  8
RUNDUNGEN
100
AcDbCircle
 62
7
  6
CONTINUOUS
 10
397.7268034016
 20
112.9807462884
 40
25.0
100
AcDbArc
 50
67.3488624832
 51
67.8969397194
  0
ARC
  5
40C
100
AcDbEntity
  8
BEZUGSACHSEN
100
AcDbCircle
 62
7
  6
CONTINUOUS
 10
397.7268034016
 20
112.9807462884
 40
25.0
100
AcDbArc
 50
9.9999916836
 51
90.0
  0
ARC
  5
40D
100
AcDbEntity
  8
BEZUGSACHSEN
100
AcDbCircle
 62
7
  6
CONTINUOUS
 10
388.7573734093
 20
120.9807462884
 40
17.0
100
AcDbArc
 50
89.999988768
 51
132.9343061049
  0
ARC
  5
40E
100
AcDbEntity
  8
RUNDUNGEN
100
AcDbCircle
 62
7
  6
CONTINUOUS
 10
388.7573734093
 20
120.9807462884
 40
17.0
100
AcDbArc
 50
103.9134330459
 51
104.9441207065
  0
ARC
  5
40F
100
AcDbEntity
  8
RUNDUNGEN
100
AcDbCircle
 62
7
  6
CONTINUOUS
 10
388.7573734093
 20
120.9807462884
 40
17.0
100
AcDbArc
 50
89.999988768
 51
92.336978699
  0
ARC
  5
410
100
AcDbEntity
  8
RUNDUNGEN
100
AcDbCircle
 62
7
  6
CONTINUOUS
 10
365.8862321103
 20
114.5520710391
 40
2.0
100
AcDbArc
 50
247.3091259456
 51
269.9982528187
  0
ARC
  5
411
100
AcDbEntity
  8
RUNDUNGEN
100
AcDbCircle
 62
7
  6
CONTINUOUS
 10
233.6855766396
 20
135.4807462884
 40
2.0
100
AcDbArc
 50
60.0
 51
90.0
  0
ARC
  5
412
100
AcDbEntity
  8
RUNDUNGEN
100
AcDbCircle
 62
7
  6
CONTINUOUS
 10
255.2573734093
 20
134.4807462884
 40
1.0
100
AcDbArc
 50
179.9993901798
 51
270.0
  0
ARC
  5
413
100
AcDbEntity
  8
RUNDUNGEN
100
AcDbCircle
 62
7
  6
CONTINUOUS
 10
295.2573734093
 20
134.4807462884
 40
1.0
100
AcDbArc
 50
270.0
 51
0.000617483
  0
ARC
  5
414
100
AcDbEntity
  8
RUNDUNGEN
100
AcDbCircle
 62
7
  6
CONTINUOUS
 10
296.7573734093
 20
135.9807462884
 40
0.5
100
AcDbArc
 50
90.0
 51
180.0
  0
ARC
  5
415
100
AcDbEntity
  8
RUNDUNGEN
100
AcDbCircle
 62
7
  6
CONTINUOUS
 10
253.7573734093
 20
135.9807462884
 40
0.5
100
AcDbArc
 50
0.0
 51
90.0
  0
ARC
  5
416
100
AcDbEntity
  8
RUNDUNGEN
100
AcDbCircle
 62
7
  6
CONTINUOUS
 10
236.4894242169
 20
138.4807462884
 40
2.0
100
AcDbArc
 50
240.0
 51
270.0
  0
ARC
  5
417
100
AcDbEntity
  8
BEZUGSACHSEN
100
AcDbCircle
 62
7
  6
CONTINUOUS
 10
368.2573734093
 20
128.5520710391
 40
16.0
100
AcDbArc
 50
269.9999566142
 51
309.8384155954
  0
ARC
  5
418
100
AcDbEntity
  8
RUNDUNGEN
100
AcDbCircle
 62
7
  6
CONTINUOUS
 10
368.2573734093
 20
128.5520710391
 40
16.0
100
AcDbArc
 50
269.9999566142
 51
304.3358660532
  0
ARC
  5
419
100
AcDbEntity
  8
RUNDUNGEN
100
AcDbCircle
 62
7
  6
CONTINUOUS
 10
366.7158086907
 20
126.7940191779
 40
2.0000004904
100
AcDbArc
 50
94.2907565231
 51
117.0577289281
  0
ARC
  5
41A
100
AcDbEntity
  8
RUNDUNGEN
100
AcDbCircle
 62
7
  6
CONTINUOUS
 10
320.2748975565
 20
134.4807462884
 40
2.0
100
AcDbArc
 50
6.0
 51
90.0
  0
ARC
  5
41B
100
AcDbEntity
  8
BEZUGSACHSEN
100
AcDbCircle
 62
7
  6
CONTINUOUS
 10
365.2573734093
 20
146.2394081691
 40
17.5
100
AcDbArc
 50
289.6065568221
 51
312.9343153669
  0
ARC
  5
41C
100
AcDbEntity
  8
RUNDUNGEN
100
AcDbCircle
 62
7
  6
CONTINUOUS
 10
365.2573734093
 20
146.2394081691
 40
17.5
100
AcDbArc
 50
274.2890716667
 51
312.9343153669
  0
ARC
  5
41D
100
AcDbEntity
  8
0
100
AcDbCircle
 62
7
  6
CONTINUOUS
 10
361.2573734093
 20
137.4807462884
 40
10.0
100
AcDbArc
 50
270.0
 51
297.0562284614
  0
ARC
  5
41E
100
AcDbEntity
  8
RUNDUNGEN
100
AcDbCircle
 62
7
  6
CONTINUOUS
 10
361.2573734093
 20
137.4807462884
 40
10.0
100
AcDbArc
 50
270.0
 51
297.0562284614
  0
SPLINE
  5
41F
100
AcDbEntity
  8
RUNDUNGEN
100
AcDbSpline
 62
7
  6
CONTINUOUS
 70
0
 71
3
 72
9
 73
5
 74
0
 42
0.0000001
 43
0.0000001
 44
0.0000000001
 40
0.0
 40
0.0
 40
0.0
 40
0.0
 40
0.2599900138
 40
1.0
 40
1.0
 40
1.0
 40
1.0
 10
424.9498308627
 20
305.0034512811
 30
0.0
 10
424.9488576494
 20
304.997075339
 30
0.0
 10
424.9444669755
 20
304.9726588212
 30
0.0
 10
424.9373166577
 20
304.9487072423
 30
0.0
 10
424.9303403665
 20
304.9317263946
 30
0.0
  0
SPLINE
  5
420
100
AcDbEntity
  8
RUNDUNGEN
100
AcDbSpline
 62
7
  6
CONTINUOUS
 70
0
 71
3
 72
9
 73
5
 74
0
 42
0.0000001
 43
0.0000001
 44
0.0000000001
 40
0.0
 40
0.0
 40
0.0
 40
0.0
 40
0.4869352188
 40
1.0
 40
1.0
 40
1.0
 40
1.0
 10
424.9303403665
 20
304.9317263946
 30
0.0
 10
424.9173021584
 20
304.899990359
 30
0.0
 10
424.8772754634
 20
304.8394878666
 30
0.0
 10
424.8178944106
 20
304.7987745657
 30
0.0
 10
424.7855512553
 20
304.7826247112
 30
0.0
  0
SPLINE
  5
421
100
AcDbEntity
  8
RUNDUNGEN
100
AcDbSpline
 62
7
  6
CONTINUOUS
 70
0
 71
3
 72
9
 73
5
 74
0
 42
0.0000001
 43
0.0000001
 44
0.0000000001
 40
0.0
 40
0.0
 40
0.0
 40
0.0
 40
0.2410182408
 40
1.0
 40
1.0
 40
1.0
 40
1.0
 10
424.7855512553
 20
304.7826247112
 30
0.0
 10
424.7795545676
 20
304.779630395
 30
0.0
 10
424.7543526402
 20
304.7678514644
 30
0.0
 10
424.7280322812
 20
304.7585463617
 30
0.0
 10
424.7077796529
 20
304.7526010951
 30
0.0
  0
SPLINE
  5
422
100
AcDbEntity
  8
RUNDUNGEN
100
AcDbSpline
 62
7
  6
CONTINUOUS
 70
0
 71
3
 72
9
 73
5
 74
0
 42
0.0000001
 43
0.0000001
 44
0.0000000001
 40
0.0
 40
0.0
 40
0.0
 40
0.0
 40
0.2245767492
 40
1.0
 40
1.0
 40
1.0
 40
1.0
 10
424.7077796529
 20
304.7526010951
 30
0.0
 10
424.6854186368
 20
304.7460369002
 30
0.0
 10
424.584120143
 20
304.7229025025
 30
0.0
 10
424.4790041939
 20
304.7181839616
 30
0.0
 10
424.3986965418
 20
304.7232384063
 30
0.0
  0
SPLINE
  5
423
100
AcDbEntity
  8
BEZUGSACHSEN
100
AcDbSpline
 62
7
  6
CONTINUOUS
 70
0
 71
3
 72
9
 73
5
 74
0
 42
0.0000001
 43
0.0000001
 44
0.0000000001
 40
0.0
 40
0.0
 40
0.0
 40
0.0
 40
0.2599900138
 40
1.0
 40
1.0
 40
1.0
 40
1.0
 10
424.9498308627
 20
323.7969861526
 30
0.0
 10
424.9488576494
 20
323.8033620947
 30
0.0
 10
424.9444669755
 20
323.8277786125
 30
0.0
 10
424.9373166577
 20
323.8517301914
 30
0.0
 10
424.9303403665
 20
323.8687110391
 30
0.0
  0
SPLINE
  5
424
100
AcDbEntity
  8
BEZUGSACHSEN
100
AcDbSpline
 62
7
  6
CONTINUOUS
 70
0
 71
3
 72
9
 73
5
 74
0
 42
0.0000001
 43
0.0000001
 44
0.0000000001
 40
0.0
 40
0.0
 40
0.0
 40
0.0
 40
0.4869352188
 40
1.0
 40
1.0
 40
1.0
 40
1.0
 10
424.9303403665
 20
323.8687110391
 30
0.0
 10
424.9173021584
 20
323.9004470748
 30
0.0
 10
424.8772754634
 20
323.9609495672
 30
0.0
 10
424.8178944106
 20
324.001662868
 30
0.0
 10
424.7855512553
 20
324.0178127225
 30
0.0
  0
SPLINE
  5
425
100
AcDbEntity
  8
BEZUGSACHSEN
100
AcDbSpline
 62
7
  6
CONTINUOUS
 70
0
 71
3
 72
9
 73
5
 74
0
 42
0.0000001
 43
0.0000001
 44
0.0000000001
 40
0.0
 40
0.0
 40
0.0
 40
0.0
 40
0.2410182408
 40
1.0
 40
1.0
 40
1.0
 40
1.0
 10
424.7855512553
 20
324.0178127225
 30
0.0
 10
424.7795545676
 20
324.0208070388
 30
0.0
 10
424.7543526402
 20
324.0325859694
 30
0.0
 10
424.7280322812
 20
324.041891072
 30
0.0
 10
424.7077796529
 20
324.0478363386
 30
0.0
  0
SPLINE
  5
426
100
AcDbEntity
  8
BEZUGSACHSEN
100
AcDbSpline
 62
7
  6
CONTINUOUS
 70
0
 71
3
 72
9
 73
5
 74
0
 42
0.0000001
 43
0.0000001
 44
0.0000000001
 40
0.0
 40
0.0
 40
0.0
 40
0.0
 40
0.2245767492
 40
1.0
 40
1.0
 40
1.0
 40
1.0
 10
424.7077796529
 20
324.0478363386
 30
0.0
 10
424.6854186368
 20
324.0544005335
 30
0.0
 10
424.584120143
 20
324.0775349312
 30
0.0
 10
424.4790041939
 20
324.0822534722
 30
0.0
 10
424.3986965418
 20
324.0771990275
 30
0.0
  0
SPLINE
  5
427
100
AcDbEntity
  8
RUNDUNGEN
100
AcDbSpline
 62
7
  6
CONTINUOUS
 70
0
 71
3
 72
9
 73
5
 74
0
 42
0.0000001
 43
0.0000001
 44
0.0000000001
 40
0.0
 40
0.0
 40
0.0
 40
0.0
 40
0.2599900138
 40
1.0
 40
1.0
 40
1.0
 40
1.0
 10
12.5649159559
 20
323.7969861526
 30
0.0
 10
12.5658891693
 20
323.8033620947
 30
0.0
 10
12.5702798432
 20
323.8277786125
 30
0.0
 10
12.577430161
 20
323.8517301914
 30
0.0
 10
12.5844064522
 20
323.8687110391
 30
0.0
  0
SPLINE
  5
428
100
AcDbEntity
  8
RUNDUNGEN
100
AcDbSpline
 62
7
  6
CONTINUOUS
 70
0
 71
3
 72
9
 73
5
 74
0
 42
0.0000001
 43
0.0000001
 44
0.0000000001
 40
0.0
 40
0.0
 40
0.0
 40
0.0
 40
0.4869352188
 40
1.0
 40
1.0
 40
1.0
 40
1.0
 10
12.5844064522
 20
323.8687110391
 30
0.0
 10
12.5974446602
 20
323.9004470748
 30
0.0
 10
12.6374713553
 20
323.9609495672
 30
0.0
 10
12.6968524081
 20
324.001662868
 30
0.0
 10
12.7291955634
 20
324.0178127225
 30
0.0
  0
SPLINE
  5
429
100
AcDbEntity
  8
RUNDUNGEN
100
AcDbSpline
 62
7
  6
CONTINUOUS
 70
0
 71
3
 72
9
 73
5
 74
0
 42
0.0000001
 43
0.0000001
 44
0.0000000001
 40
0.0
 40
0.0
 40
0.0
 40
0.0
 40
0.2410182408
 40
1.0
 40
1.0
 40
1.0
 40
1.0
 10
12.7291955634
 20
324.0178127225
 30
0.0
 10
12.7351922511
 20
324.0208070388
 30
0.0
 10
12.7603941785
 20
324.0325859694
 30
0.0
 10
12.7867145375
 20
324.041891072
 30
0.0
 10
12.8069671658
 20
324.0478363386
 30
0.0
  0
SPLINE
  5
42A
100
AcDbEntity
  8
RUNDUNGEN
100
AcDbSpline
 62
7
  6
CONTINUOUS
 70
0
 71
3
 72
9
 73
5
 74
0
 42
0.0000001
 43
0.0000001
 44
0.0000000001
 40
0.0
 40
0.0
 40
0.0
 40
0.0
 40
0.2245767492
 40
1.0
 40
1.0
 40
1.0
 40
1.0
 10
12.8069671658
 20
324.0478363386
 30
0.0
 10
12.8293281818
 20
324.0544005335
 30
0.0
 10
12.9306266756
 20
324.0775349312
 30
0.0
 10
13.0357426248
 20
324.0822534722
 30
0.0
 10
13.1160502769
 20
324.0771990275
 30
0.0
  0
SPLINE
  5
42B
100
AcDbEntity
  8
0
100
AcDbSpline
 62
7
  6
CONTINUOUS
 70
0
 71
3
 72
9
 73
5
 74
0
 42
0.0000001
 43
0.0000001
 44
0.0000000001
 40
0.0
 40
0.0
 40
0.0
 40
0.0
 40
0.4999569938
 40
1.0
 40
1.0
 40
1.0
 40
1.0
 10
76.2573734093
 20
307.8618703016
 30
0.0
 10
75.496552493
 20
307.8618703016
 30
0.0
 10
73.9691848209
 20
307.6735363856
 30
0.0
 10
72.5320073033
 20
307.1278478401
 30
0.0
 10
71.8557476906
 20
306.77896306
 30
0.0
  0
SPLINE
  5
42C
100
AcDbEntity
  8
0
100
AcDbSpline
 62
7
  6
CONTINUOUS
 70
0
 71
3
 72
9
 73
5
 74
0
 42
0.0000001
 43
0.0000001
 44
0.0000000001
 40
0.0
 40
0.0
 40
0.0
 40
0.0
 40
0.4999832232
 40
1.0
 40
1.0
 40
1.0
 40
1.0
 10
169.1057476906
 20
310.9632869456
 30
0.0
 10
168.6712994075
 20
310.4260620817
 30
0.0
 10
167.7633619865
 20
309.3833699733
 30
0.0
 10
166.8273927603
 20
308.3668167006
 30
0.0
 10
166.3557476906
 20
307.8618703016
 30
0.0
  0
SPLINE
  5
42D
100
AcDbEntity
  8
BEZUGSACHSEN
100
AcDbSpline
 62
7
  6
CONTINUOUS
 70
0
 71
3
 72
9
 73
5
 74
0
 42
0.0000001
 43
0.0000001
 44
0.0000000001
 40
0.0
 40
0.0
 40
0.0
 40
0.0
 40
0.2599900138
 40
1.0
 40
1.0
 40
1.0
 40
1.0
 10
12.5649159559
 20
305.0034512811
 30
0.0
 10
12.5658891693
 20
304.997075339
 30
0.0
 10
12.5702798432
 20
304.9726588212
 30
0.0
 10
12.577430161
 20
304.9487072423
 30
0.0
 10
12.5844064522
 20
304.9317263946
 30
0.0
  0
SPLINE
  5
42E
100
AcDbEntity
  8
BEZUGSACHSEN
100
AcDbSpline
 62
7
  6
CONTINUOUS
 70
0
 71
3
 72
9
 73
5
 74
0
 42
0.0000001
 43
0.0000001
 44
0.0000000001
 40
0.0
 40
0.0
 40
0.0
 40
0.0
 40
0.4869352188
 40
1.0
 40
1.0
 40
1.0
 40
1.0
 10
12.5844064522
 20
304.9317263946
 30
0.0
 10
12.5974446602
 20
304.899990359
 30
0.0
 10
12.6374713553
 20
304.8394878666
 30
0.0
 10
12.6968524081
 20
304.7987745657
 30
0.0
 10
12.7291955634
 20
304.7826247112
 30
0.0
  0
SPLINE
  5
42F
100
AcDbEntity
  8
BEZUGSACHSEN
100
AcDbSpline
 62
7
  6
CONTINUOUS
 70
0
 71
3
 72
9
 73
5
 74
0
 42
0.0000001
 43
0.0000001
 44
0.0000000001
 40
0.0
 40
0.0
 40
0.0
 40
0.0
 40
0.2410182408
 40
1.0
 40
1.0
 40
1.0
 40
1.0
 10
12.7291955634
 20
304.7826247112
 30
0.0
 10
12.7351922511
 20
304.779630395
 30
0.0
 10
12.7603941785
 20
304.7678514644
 30
0.0
 10
12.7867145375
 20
304.7585463617
 30
0.0
 10
12.8069671658
 20
304.7526010951
 30
0.0
  0
SPLINE
  5
430
100
AcDbEntity
  8
BEZUGSACHSEN
100
AcDbSpline
 62
7
  6
CONTINUOUS
 70
0
 71
3
 72
9
 73
5
 74
0
 42
0.0000001
 43
0.0000001
 44
0.0000000001
 40
0.0
 40
0.0
 40
0.0
 40
0.0
 40
0.2245767492
 40
1.0
 40
1.0
 40
1.0
 40
1.0
 10
12.8069671658
 20
304.7526010951
 30
0.0
 10
12.8293281818
 20
304.7460369002
 30
0.0
 10
12.9306266756
 20
304.7229025025
 30
0.0
 10
13.0357426248
 20
304.7181839616
 30
0.0
 10
13.1160502769
 20
304.7232384063
 30
0.0
  0
SPLINE
  5
431
100
AcDbEntity
  8
BEZUGSACHSEN
100
AcDbSpline
 62
7
  6
CONTINUOUS
 70
0
 71
3
 72
15
 73
11
 74
0
 42
0.0000001
 43
0.0000001
 44
0.0000000001
 40
0.0
 40
0.0
 40
0.0
 40
0.0
 40
0.0401088815
 40
0.1507605779
 40
0.3116649221
 40
0.500000516
 40
0.688336338
 40
0.8492409164
 40
0.9598921922
 40
1.0
 40
1.0
 40
1.0
 40
1.0
 10
225.2573734093
 20
331.4002187169
 30
0.0
 10
225.0910263294
 20
331.336614062
 30
0.0
 10
224.4630794048
 20
331.1043440658
 30
0.0
 10
223.1444380129
 20
330.6808685
 30
0.0
 10
221.1468312726
 20
330.2345797961
 30
0.0
 10
218.7573654862
 20
330.0405030715
 30
0.0
 10
216.3678987323
 20
330.2345819828
 30
0.0
 10
214.3702924705
 20
330.6808733291
 30
0.0
 10
213.0516563237
 20
331.1043469601
 30
0.0
 10
212.4237159283
 20
331.3366154661
 30
0.0
 10
212.2573734093
 20
331.4002187169
 30
0.0
  0
SPLINE
  5
432
100
AcDbEntity
  8
BEZUGSACHSEN
100
AcDbSpline
 62
7
  6
CONTINUOUS
 70
0
 71
3
 72
15
 73
11
 74
0
 42
0.0000001
 43
0.0000001
 44
0.0000000001
 40
0.0
 40
0.0
 40
0.0
 40
0.0
 40
0.0401078376
 40
0.1507591913
 40
0.3116636068
 40
0.4999994841
 40
0.6883351367
 40
0.8492393139
 40
0.9598910845
 40
1.0
 40
1.0
 40
1.0
 40
1.0
 10
212.2573734093
 20
297.4002187169
 30
0.0
 10
212.4237160524
 20
297.4638220136
 30
0.0
 10
213.0516569005
 20
297.6960906743
 30
0.0
 10
214.3702928372
 20
298.1195641632
 30
0.0
 10
216.3678989609
 20
298.5658554705
 30
0.0
 10
218.7573655032
 20
298.7599343948
 30
0.0
 10
221.1468310582
 20
298.5658576516
 30
0.0
 10
223.1444376416
 20
298.1195689951
 30
0.0
 10
224.4630788058
 20
297.6960935704
 30
0.0
 10
225.0910261869
 20
297.4638234227
 30
0.0
 10
225.2573734093
 20
297.4002187169
 30
0.0
  0
SPLINE
  5
433
100
AcDbEntity
  8
RUNDUNGEN
100
AcDbSpline
 62
7
  6
CONTINUOUS
 70
0
 71
3
 72
18
 73
14
 74
0
 42
0.0000001
 43
0.0000001
 44
0.0000000001
 40
0.0
 40
0.0
 40
0.0
 40
0.0
 40
0.0218475504
 40
0.049156136
 40
0.0846142943
 40
0.128993019
 40
0.1821207524
 40
0.2433000163
 40
0.3854335054
 40
0.5448424874
 40
0.7089696738
 40
0.8647367864
 40
1.0
 40
1.0
 40
1.0
 40
1.0
 10
201.7573734125
 20
306.4002077953
 30
0.0
 10
201.7314784761
 20
306.4002071969
 30
0.0
 10
201.6731209437
 20
306.3809232113
 30
0.0
 10
201.5997441921
 20
306.3101064528
 30
0.0
 10
201.5313634312
 20
306.2023501347
 30
0.0
 10
201.4678558258
 20
306.0576605624
 30
0.0
 10
201.4100329065
 20
305.8784574898
 30
0.0
 10
201.3388076658
 20
305.5827487827
 30
0.0
 10
201.2762508671
 20
305.1565785926
 30
0.0
 10
201.2413033768
 20
304.6052955416
 30
0.0
 10
201.2470690678
 20
304.0366605298
 30
0.0
 10
201.2929046515
 20
303.4986956653
 30
0.0
 10
201.3524655797
 20
303.1580528653
 30
0.0
 10
201.3913474698
 20
303.0025177057
 30
0.0
  0
SPLINE
  5
434
100
AcDbEntity
  8
RUNDUNGEN
100
AcDbSpline
 62
7
  6
CONTINUOUS
 70
0
 71
3
 72
18
 73
14
 74
0
 42
0.0000001
 43
0.0000001
 44
0.0000000001
 40
0.0
 40
0.0
 40
0.0
 40
0.0
 40
0.135263765
 40
0.2910310467
 40
0.4551586866
 40
0.6145685663
 40
0.7567029396
 40
0.8178824072
 40
0.8710100742
 40
0.9153884159
 40
0.9508458696
 40
0.9781534841
 40
1.0
 40
1.0
 40
1.0
 40
1.0
 10
236.1233985683
 20
303.0025206876
 30
0.0
 10
236.1622796814
 20
303.1580572731
 30
0.0
 10
236.2218393217
 20
303.498702313
 30
0.0
 10
236.2676732746
 20
304.0366705375
 30
0.0
 10
236.2734376051
 20
304.605309268
 30
0.0
 10
236.2384891236
 20
305.1565967675
 30
0.0
 10
236.175931873
 20
305.5827707135
 30
0.0
 10
236.1047066432
 20
305.8784817218
 30
0.0
 10
236.0468841285
 20
306.0576852743
 30
0.0
 10
235.9833774036
 20
306.2023743316
 30
0.0
 10
235.9149980905
 20
306.3101291394
 30
0.0
 10
235.8416233342
 20
306.3809439826
 30
0.0
 10
235.7832672074
 20
306.4002259246
 30
0.0
 10
235.7573734098
 20
306.4002254662
 30
0.0
  0
SPLINE
  5
435
100
AcDbEntity
  8
BEZUGSACHSEN
100
AcDbSpline
 62
7
  6
CONTINUOUS
 70
0
 71
3
 72
12
 73
8
 74
0
 42
0.0000001
 43
0.0000001
 44
0.0000000001
 40
0.0
 40
0.0
 40
0.0
 40
0.0
 40
0.2423791483
 40
0.3660273537
 40
0.4910766541
 40
0.7442015068
 40
1.0
 40
1.0
 40
1.0
 40
1.0
 10
489.2807523763
 20
300.3610658433
 30
0.0
 10
489.9365368016
 20
300.9266311807
 30
0.0
 10
490.8279218566
 20
301.9040783626
 30
0.0
 10
491.7801419813
 20
303.3804423431
 30
0.0
 10
492.585022487
 20
304.9862790376
 30
0.0
 10
493.2707875041
 20
307.162895025
 30
0.0
 10
493.4549098826
 20
308.9862960862
 30
0.0
 10
493.4549098826
 20
309.9002187169
 30
0.0
  0
SPLINE
  5
436
100
AcDbEntity
  8
BEZUGSACHSEN
100
AcDbSpline
 62
7
  6
CONTINUOUS
 70
0
 71
3
 72
8
 73
4
 74
0
 42
0.0000001
 43
0.0000001
 44
0.0000000001
 40
0.0
 40
0.0
 40
0.0
 40
0.0
 40
1.0
 40
1.0
 40
1.0
 40
1.0
 10
489.2804822387
 20
300.360822424
 30
0.0
 10
489.1603832925
 20
300.2573120809
 30
0.0
 10
489.0109988959
 20
300.1812120481
 30
0.0
 10
488.8566609818
 20
300.1449083808
 30
0.0
  0
SPLINE
  5
437
100
AcDbEntity
  8
BEZUGSACHSEN
100
AcDbSpline
 62
7
  6
CONTINUOUS
 70
0
 71
3
 72
9
 73
5
 74
0
 42
0.0000001
 43
0.0000001
 44
0.0000000001
 40
0.0
 40
0.0
 40
0.0
 40
0.0
 40
0.2743298756
 40
1.0
 40
1.0
 40
1.0
 40
1.0
 10
453.8724639185
 20
325.0678445946
 30
0.0
 10
453.8634426931
 20
325.1256716924
 30
0.0
 10
453.8333282617
 20
325.3368222635
 30
0.0
 10
453.8148305106
 20
325.5501118911
 30
0.0
 10
453.814351723
 20
325.7049282687
 30
0.0
  0
SPLINE
  5
438
100
AcDbEntity
  8
BEZUGSACHSEN
100
AcDbSpline
 62
7
  6
CONTINUOUS
 70
0
 71
3
 72
9
 73
5
 74
0
 42
0.0000001
 43
0.0000001
 44
0.0000000001
 40
0.0
 40
0.0
 40
0.0
 40
0.0
 40
0.274347011
 40
1.0
 40
1.0
 40
1.0
 40
1.0
 10
453.8724639185
 20
303.7325928391
 30
0.0
 10
453.8634372566
 20
303.6747308929
 30
0.0
 10
453.8333083592
 20
303.4634661674
 30
0.0
 10
453.8148092933
 20
303.2500591853
 30
0.0
 10
453.8143506746
 20
303.0951627819
 30
0.0
  0
SPLINE
  5
439
100
AcDbEntity
  8
BEZUGSACHSEN
100
AcDbSpline
 62
7
  6
CONTINUOUS
 70
0
 71
3
 72
12
 73
8
 74
0
 42
0.0000001
 43
0.0000001
 44
0.0000000001
 40
0.0
 40
0.0
 40
0.0
 40
0.0
 40
0.0777297324
 40
0.1702090116
 40
0.3975667479
 40
0.676536077
 40
1.0
 40
1.0
 40
1.0
 40
1.0
 10
453.8143610985
 20
302.930079346
 30
0.0
 10
453.8148140015
 20
303.0532284864
 30
0.0
 10
453.8302863848
 20
303.3228095308
 30
0.0
 10
453.9042227488
 20
303.9484940107
 30
0.0
 10
454.0690797902
 20
304.883265789
 30
0.0
 10
454.3224674545
 20
306.1731171288
 30
0.0
 10
454.5003549146
 20
307.1109451508
 30
0.0
 10
454.5895239996
 20
307.6156033322
 30
0.0
  0
SPLINE
  5
43A
100
AcDbEntity
  8
RUNDUNGEN
100
AcDbSpline
 62
7
  6
CONTINUOUS
 70
0
 71
3
 72
12
 73
8
 74
0
 42
0.0000001
 43
0.0000001
 44
0.0000000001
 40
0.0
 40
0.0
 40
0.0
 40
0.0
 40
0.2423791483
 40
0.3660273537
 40
0.4910766541
 40
0.7442015068
 40
1.0
 40
1.0
 40
1.0
 40
1.0
 10
489.2807523763
 20
328.4393715904
 30
0.0
 10
489.9365368016
 20
327.873806253
 30
0.0
 10
490.8279218566
 20
326.8963590712
 30
0.0
 10
491.7801419813
 20
325.4199950906
 30
0.0
 10
492.585022487
 20
323.8141583961
 30
0.0
 10
493.2707875041
 20
321.6375424087
 30
0.0
 10
493.4549098826
 20
319.8141413475
 30
0.0
 10
493.4549098826
 20
318.9002187169
 30
0.0
  0
SPLINE
  5
43B
100
AcDbEntity
  8
RUNDUNGEN
100
AcDbSpline
 62
7
  6
CONTINUOUS
 70
0
 71
3
 72
8
 73
4
 74
0
 42
0.0000001
 43
0.0000001
 44
0.0000000001
 40
0.0
 40
0.0
 40
0.0
 40
0.0
 40
1.0
 40
1.0
 40
1.0
 40
1.0
 10
489.2804822387
 20
328.4396150097
 30
0.0
 10
489.1603832925
 20
328.5431253528
 30
0.0
 10
489.0109988959
 20
328.6192253857
 30
0.0
 10
488.8566609818
 20
328.6555290529
 30
0.0
  0
SPLINE
  5
43C
100
AcDbEntity
  8
RUNDUNGEN
100
AcDbSpline
 62
7
  6
CONTINUOUS
 70
0
 71
3
 72
12
 73
8
 74
0
 42
0.0000001
 43
0.0000001
 44
0.0000000001
 40
0.0
 40
0.0
 40
0.0
 40
0.0
 40
0.0777297324
 40
0.1702090116
 40
0.3975667479
 40
0.676536077
 40
1.0
 40
1.0
 40
1.0
 40
1.0
 10
453.8143610985
 20
325.8703580877
 30
0.0
 10
453.8148140015
 20
325.7472089474
 30
0.0
 10
453.8302863848
 20
325.4776279029
 30
0.0
 10
453.9042227488
 20
324.8519434231
 30
0.0
 10
454.0690797902
 20
323.9171716447
 30
0.0
 10
454.3224674545
 20
322.6273203049
 30
0.0
 10
454.5003549146
 20
321.6894922829
 30
0.0
 10
454.5895239996
 20
321.1848341015
 30
0.0
  0
SPLINE
  5
43D
100
AcDbEntity
  8
RUNDUNGEN
100
AcDbSpline
 62
7
  6
CONTINUOUS
 70
0
 71
3
 72
15
 73
11
 74
0
 42
0.0000001
 43
0.0000001
 44
0.0000000001
 40
0.0
 40
0.0
 40
0.0
 40
0.0
 40
0.1481188552
 40
0.2956522129
 40
0.4395375696
 40
0.5763916473
 40
0.7032350749
 40
0.8175424483
 40
0.916874025
 40
1.0
 40
1.0
 40
1.0
 40
1.0
 10
489.2136009202
 20
323.6457695565
 30
0.0
 10
489.2520324769
 20
323.6828542351
 30
0.0
 10
489.3302258777
 20
323.7554811225
 30
0.0
 10
489.4578399405
 20
323.8501815394
 30
0.0
 10
489.5925260858
 20
323.9262951275
 30
0.0
 10
489.7262562105
 20
323.9876189396
 30
0.0
 10
489.8550131659
 20
324.0329773834
 30
0.0
 10
489.9744284066
 20
324.062281755
 30
0.0
 10
490.0802385318
 20
324.0787456046
 30
0.0
 10
490.1464841183
 20
324.0803851585
 30
0.0
 10
490.1762866412
 20
324.0771990275
 30
0.0
  0
SPLINE
  5
43E
100
AcDbEntity
  8
BEZUGSACHSEN
100
AcDbSpline
 62
7
  6
CONTINUOUS
 70
0
 71
3
 72
15
 73
11
 74
0
 42
0.0000001
 43
0.0000001
 44
0.0000000001
 40
0.0
 40
0.0
 40
0.0
 40
0.0
 40
0.1481188552
 40
0.2956522129
 40
0.4395375696
 40
0.5763916473
 40
0.7032350749
 40
0.8175424483
 40
0.916874025
 40
1.0
 40
1.0
 40
1.0
 40
1.0
 10
489.2136009202
 20
305.1546678772
 30
0.0
 10
489.2520324769
 20
305.1175831987
 30
0.0
 10
489.3302258777
 20
305.0449563112
 30
0.0
 10
489.4578399405
 20
304.9502558943
 30
0.0
 10
489.5925260858
 20
304.8741423062
 30
0.0
 10
489.7262562105
 20
304.8128184941
 30
0.0
 10
489.8550131659
 20
304.7674600503
 30
0.0
 10
489.9744284066
 20
304.7381556787
 30
0.0
 10
490.0802385318
 20
304.7216918291
 30
0.0
 10
490.1464841183
 20
304.7200522752
 30
0.0
 10
490.1762866412
 20
304.7232384063
 30
0.0
  0
SPLINE
  5
43F
100
AcDbEntity
  8
BEZUGSACHSEN
100
AcDbSpline
 62
7
  6
CONTINUOUS
 70
0
 71
3
 72
11
 73
7
 74
0
 42
0.0000001
 43
0.0000001
 44
0.0000000001
 40
0.0
 40
0.0
 40
0.0
 40
0.0
 40
0.212042077
 40
0.4591912553
 40
0.7258786391
 40
1.0
 40
1.0
 40
1.0
 40
1.0
 10
424.9461391177
 20
102.5814845782
 30
0.0
 10
424.9604499914
 20
102.5003232381
 30
0.0
 10
424.9483819786
 20
102.317147625
 30
0.0
 10
424.8445617565
 20
102.0515366845
 30
0.0
 10
424.6593947304
 20
101.8027794337
 30
0.0
 10
424.4905089488
 20
101.6728502992
 30
0.0
 10
424.3986965418
 20
101.6187988572
 30
0.0
  0
SPLINE
  5
440
100
AcDbEntity
  8
0
100
AcDbSpline
 62
7
  6
CONTINUOUS
 70
0
 71
3
 72
19
 73
15
 74
0
 42
0.0000001
 43
0.0000001
 44
0.0000000001
 40
0.0
 40
0.0
 40
0.0
 40
0.0
 40
0.132429482
 40
0.1928078587
 40
0.2487032061
 40
0.300278386
 40
0.3487219791
 40
0.3964042837
 40
0.4461680282
 40
0.5001824089
 40
0.5594218941
 40
0.6930394274
 40
0.8423020304
 40
1.0
 40
1.0
 40
1.0
 40
1.0
 10
71.8557476906
 20
124.3965524362
 30
0.0
 10
71.8557476906
 20
124.6718564505
 30
0.0
 10
71.8657330472
 20
125.073479272
 30
0.0
 10
71.9336091736
 20
125.5866337148
 30
0.0
 10
72.0158772687
 20
125.9266844006
 30
0.0
 10
72.1399237595
 20
126.2280343541
 30
0.0
 10
72.3152878788
 20
126.4835717358
 30
0.0
 10
72.5464866549
 20
126.6848990876
 30
0.0
 10
72.8288925242
 20
126.8297295846
 30
0.0
 10
73.1554793009
 20
126.9252843709
 30
0.0
 10
73.6634606016
 20
127.0044418979
 30
0.0
 10
74.3758290962
 20
127.0273084849
 30
0.0
 10
75.2912994518
 20
127.0182811467
 30
0.0
 10
75.9295508987
 20
127.0159412197
 30
0.0
 10
76.2573734093
 20
127.0186834105
 30
0.0
  0
SPLINE
  5
441
100
AcDbEntity
  8
RUNDUNGEN
100
AcDbSpline
 62
7
  6
CONTINUOUS
 70
0
 71
3
 72
11
 73
7
 74
0
 42
0.0000001
 43
0.0000001
 44
0.0000000001
 40
0.0
 40
0.0
 40
0.0
 40
0.0
 40
0.212042077
 40
0.4591912553
 40
0.7258786391
 40
1.0
 40
1.0
 40
1.0
 40
1.0
 10
12.568607701
 20
102.5814845782
 30
0.0
 10
12.5542968273
 20
102.5003232381
 30
0.0
 10
12.5663648401
 20
102.317147625
 30
0.0
 10
12.6701850621
 20
102.0515366845
 30
0.0
 10
12.8553520883
 20
101.8027794337
 30
0.0
 10
13.0242378699
 20
101.6728502992
 30
0.0
 10
13.1160502769
 20
101.6187988572
 30
0.0
  0
ENDSEC
  0
SECTION
  2
OBJECTS
  0
DICTIONARY
  5
C
100
AcDbDictionary
280
0
281
1
  3
ACAD_GROUP
350
D
  3
ACAD_MLINESTYLE
350
17
  3
ACAD_LAYOUT
350
1A
  3
ACAD_PLOTSETTINGS
350
19
  3
ACAD_PLOTSTYLENAME
350
E
  0
DICTIONARY
  5
D
102
{ACAD_REACTORS
330
C
102
}
100
AcDbDictionary
280
0
281
1
  0
ACDBDICTIONARYWDFLT
  5
E
102
{ACAD_REACTORS
330
C
102
}
100
AcDbDictionary
281
1
  3
Normal
350
F
100
AcDbDictionaryWithDefault
340
F
  0
DICTIONARY
  5
17
102
{ACAD_REACTORS
330
C
102
}
100
AcDbDictionary
280
0
281
1
  3
Standard
350
18
  0
DICTIONARY
  5
19
102
{ACAD_REACTORS
330
C
102
}
100
AcDbDictionary
281
1
  0
DICTIONARY
  5
1A
102
{ACAD_REACTORS
330
C
102
}
100
AcDbDictionary
281
1
  3
Model
350
442
  3
Layout1
350
443
  0
ACDBPLACEHOLDER
  5
F
102
{ACAD_REACTORS
330
E
102
}
  0
MLINESTYLE
  5
18
102
{ACAD_REACTORS
330
17
102
}
100
AcDbMlineStyle
  2
STANDARD
 70
0
  3

 62
256
 51
90.0
 52
90.0
 71
2
 49
0.5
 62
256
  6
BYLAYER
 49
-0.5
 62
256
  6
BYLAYER
  0
LAYOUT
  5
442
102
{ACAD_REACTORS
330
1A
102
}
100
AcDbPlotSettings
  1

  2
none_device
  4
ISO_A2_(594.00_x_420.00_MM)
  6

 40
0.0
 41
0.0
 42
0.0
 43
0.0
 44
594.0
 45
420.0
 46
0.0
 47
0.0
 48
0.0
 49
0.0
140
0.0
141
0.0
142
1.0
143
1.0
 70
1024
 72
1
 73
0
 74
0
  7

 75
0
147
1.0
148
0.0
149
0.0
100
AcDbLayout
  1
Model
 70
0
 71
0
 10
0.0
 20
0.0
 11
594.0
 21
420.0
 12
0.0
 22
0.0
 32
0.0
 14
0.0
 24
0.0
 34
0.0
 15
0.0
 25
0.0
 35
0.0
146
0.0
 13
0.0
 23
0.0
 33
0.0
 16
1.0
 26
0.0
 36
0.0
 17
0.0
 27
1.0
 37
0.0
 76
0
330
20E
345
0
346
0
  0
LAYOUT
  5
443
102
{ACAD_REACTORS
330
1A
102
}
100
AcDbPlotSettings
  1

  2
none_device
  4
ISO_A2_(594.00_x_420.00_MM)
  6

 40
0.0
 41
0.0
 42
0.0
 43
0.0
 44
594.0
 45
420.0
 46
0.0
 47
0.0
 48
0.0
 49
0.0
140
0.0
141
0.0
142
1.0
143
1.0
 70
0
 72
1
 73
0
 74
0
  7

 75
0
147
1.0
148
0.0
149
0.0
100
AcDbLayout
  1
Layout1
 70
0
 71
1
 10
0.0
 20
0.0
 11
594.0
 21
420.0
 12
0.0
 22
0.0
 32
0.0
 14
0.0
 24
0.0
 34
0.0
 15
0.0
 25
0.0
 35
0.0
146
0.0
 13
0.0
 23
0.0
 33
0.0
 16
1.0
 26
0.0
 36
0.0
 17
0.0
 27
1.0
 37
0.0
 76
0
330
20F
345
0
346
0
  0
ENDSEC
  0
EOF
