999
DXF file: ICE-CURT-K-10-SL_7904455_M34853-P-2.dxf
999
Pro/ENGINEER 2010140 by Parametric Technology Corporation
  0
SECTION
  2
HEADER
  9
$ACADVER
  1
AC1015
  9
$DWGCODEPAGE
  3
ANSI_1252
  9
$EXTMAX
 10
841.0
 20
594.0
 30
0.0
  9
$EXTMIN
 10
0.0
 20
0.0
 30
0.0
  9
$LIMMIN
 10
0.0
 20
0.0
  9
$LIMMAX
 10
841.0
 20
594.0
  9
$VIEWCTR
 10
420.5
 20
297.0
  9
$VIEWSIZE
 40
594.0
  9
$CLAYER
  8
0
  9
$LTSCALE
 40
46.255
  9
$CELTYPE
  6
BYLAYER
  9
$DIMSCALE
 40
1.0
  9
$DIMASZ
 40
3.5
  9
$DIMEXO
 40
5.25625
  9
$DIMDLI
 40
31.958
  9
$DIMEXE
 40
15.138
  9
$DIMCEN
 40
7.569
  9
$DIMLFAC
 40
1.0
  9
$DIMBLK
  1
_FILLED
  9
$DIMTXT
 40
3.5
  9
$DIMTOL
 70
1
  9
$DIMLIM
 70
0
  9
$DIMTFAC
 40
1.0
  9
$DIMTP
 40
0.005
  9
$DIMTM
 40
0.005
  9
$PDMODE
 70
3
  9
$PDSIZE
 40
0.3125
  9
$HANDSEED
  5
44E
  9
$TILEMODE
 70
1
  9
$MEASUREMENT
 70
1
  9
$INSUNITS
 70
4
  0
ENDSEC
  0
SECTION
  2
CLASSES
  0
CLASS
  1
ACDBDICTIONARYWDFLT
  2
AcDbDictionaryWithDefault
  3
AutoCAD 2000
 90
0
280
0
281
0
  0
CLASS
  1
ACDBPLACEHOLDER
  2
AcDbPlaceHolder
  3
AutoCAD 2000
 90
0
280
0
281
0
  0
CLASS
  1
LAYOUT
  2
AcDbLayout
  3
AutoCAD 2000
 90
0
280
0
281
0
  0
ENDSEC
  0
SECTION
  2
TABLES
  0
TABLE
  2
VPORT
  5
8
100
AcDbSymbolTable
 70
2
  0
VPORT
  5
1F4
100
AcDbSymbolTableRecord
100
AcDbViewportTableRecord
  2
*ACTIVE
 70
0
 10
0.0
 20
0.0
 11
1.0
 21
1.0
 12
420.5
 22
297.0
 13
0.0
 23
0.0
 14
1.0
 24
1.0
 15
0.0
 25
0.0
 16
0.0
 26
0.0
 36
1.0
 17
0.0
 27
0.0
 37
0.0
 40
594.0
 41
1.4158249158
 42
50.0
 43
0.0
 44
0.0
 50
0.0
 51
0.0
 71
0
 72
100
 73
1
 74
1
 75
0
 76
0
 77
0
 78
0
  0
ENDTAB
  0
TABLE
  2
LTYPE
  5
5
100
AcDbSymbolTable
 70
6
  0
LTYPE
  5
14
100
AcDbSymbolTableRecord
100
AcDbLinetypeTableRecord
  2
BYBLOCK
 70
0
  3

 72
65
 73
0
 40
0.0
  0
LTYPE
  5
15
100
AcDbSymbolTableRecord
100
AcDbLinetypeTableRecord
  2
BYLAYER
 70
0
  3

 72
65
 73
0
 40
0.0
  0
LTYPE
  5
16
100
AcDbSymbolTableRecord
100
AcDbLinetypeTableRecord
  2
CONTINUOUS
 70
64
  3
Solid line
 72
65
 73
0
 40
0.0
  0
LTYPE
  5
1F5
100
AcDbSymbolTableRecord
100
AcDbLinetypeTableRecord
  2
CENTER
 70
64
  3
____ _ ____ _ ____ _ ____ _ ____ _ ____ _ ____
 72
65
 73
4
 40
0.6
 49
0.375
 74
0
 49
-0.075
 74
0
 49
0.075
 74
0
 49
-0.075
 74
0
  0
LTYPE
  5
1F6
100
AcDbSymbolTableRecord
100
AcDbLinetypeTableRecord
  2
HIDDEN
 70
64
  3
- - - - - - - - - - - - - - - - - - - -
 72
65
 73
2
 40
0.2
 49
0.1
 74
0
 49
-0.1
 74
0
  0
LTYPE
  5
1F7
100
AcDbSymbolTableRecord
100
AcDbLinetypeTableRecord
  2
PHANTOM
 70
64
  3
_____ _ _ _____ _ _ _____ _ _ _____
 72
65
 73
6
 40
0.8
 49
0.45
 74
0
 49
-0.05
 74
0
 49
0.1
 74
0
 49
-0.05
 74
0
 49
0.1
 74
0
 49
-0.05
 74
0
  0
LTYPE
  5
1F8
100
AcDbSymbolTableRecord
100
AcDbLinetypeTableRecord
  2
DOT
 70
64
  3
. . . . . . . . . . . . . . . . . . . .
 72
65
 73
2
 40
0.2
 49
0.1
 74
0
 49
-0.1
 74
0
  0
LTYPE
  5
1F9
100
AcDbSymbolTableRecord
100
AcDbLinetypeTableRecord
  2
DASHED
 70
64
  3
- - - - - - - - - - - - - - - - - - - -
 72
65
 73
2
 40
0.2
 49
0.1
 74
0
 49
-0.1
 74
0
  0
ENDTAB
  0
TABLE
  2
LAYER
  5
2
100
AcDbSymbolTable
 70
36
  0
LAYER
  5
10
100
AcDbSymbolTableRecord
100
AcDbLayerTableRecord
  2
0
 70
0
 62
7
  6
CONTINUOUS
370
-3
390
F
  0
LAYER
  5
1FA
100
AcDbSymbolTableRecord
100
AcDbLayerTableRecord
  2
DEFAULT_1
 70
0
 62
7
  6
CENTER
370
-3
390
F
  0
LAYER
  5
1FB
100
AcDbSymbolTableRecord
100
AcDbLayerTableRecord
  2
DEFAULT_2
 70
0
 62
8
  6
HIDDEN
370
-3
390
F
  0
LAYER
  5
1FC
100
AcDbSymbolTableRecord
100
AcDbLayerTableRecord
  2
DEFAULT_3
 70
0
 62
7
  6
PHANTOM
370
-3
390
F
  0
LAYER
  5
1FD
100
AcDbSymbolTableRecord
100
AcDbLayerTableRecord
  2
AUSFORMSCHRAEGEN
 70
0
 62
7
  6
CONTINUOUS
370
-3
390
F
  0
LAYER
  5
1FE
100
AcDbSymbolTableRecord
100
AcDbLayerTableRecord
  2
BEZUGSACHSEN
 70
0
 62
7
  6
CONTINUOUS
370
-3
390
F
  0
LAYER
  5
1FF
100
AcDbSymbolTableRecord
100
AcDbLayerTableRecord
  2
BEZUGSEBENEN
 70
0
 62
7
  6
CONTINUOUS
370
-3
390
F
  0
LAYER
  5
200
100
AcDbSymbolTableRecord
100
AcDbLayerTableRecord
  2
BG_STARTBEZUEGE
 70
0
 62
7
  6
CONTINUOUS
370
-3
390
F
  0
LAYER
  5
201
100
AcDbSymbolTableRecord
100
AcDbLayerTableRecord
  2
FASEN
 70
0
 62
7
  6
CONTINUOUS
370
-3
390
F
  0
LAYER
  5
202
100
AcDbSymbolTableRecord
100
AcDbLayerTableRecord
  2
FLAECHEN
 70
0
 62
7
  6
CONTINUOUS
370
-3
390
F
  0
LAYER
  5
203
100
AcDbSymbolTableRecord
100
AcDbLayerTableRecord
  2
FLAECHENVERBUND
 70
0
 62
7
  6
CONTINUOUS
370
-3
390
F
  0
LAYER
  5
204
100
AcDbSymbolTableRecord
100
AcDbLayerTableRecord
  2
HILFEN
 70
0
 62
7
  6
CONTINUOUS
370
-3
390
F
  0
LAYER
  5
205
100
AcDbSymbolTableRecord
100
AcDbLayerTableRecord
  2
KONSTRUKTIONSELEMENTE
 70
0
 62
7
  6
CONTINUOUS
370
-3
390
F
  0
LAYER
  5
206
100
AcDbSymbolTableRecord
100
AcDbLayerTableRecord
  2
KURVEN
 70
0
 62
7
  6
CONTINUOUS
370
-3
390
F
  0
LAYER
  5
207
100
AcDbSymbolTableRecord
100
AcDbLayerTableRecord
  2
NORM
 70
0
 62
7
  6
CONTINUOUS
370
-3
390
F
  0
LAYER
  5
208
100
AcDbSymbolTableRecord
100
AcDbLayerTableRecord
  2
PLATZIERUNG
 70
0
 62
7
  6
CONTINUOUS
370
-3
390
F
  0
LAYER
  5
209
100
AcDbSymbolTableRecord
100
AcDbLayerTableRecord
  2
RUNDUNGEN
 70
0
 62
7
  6
CONTINUOUS
370
-3
390
F
  0
LAYER
  5
20A
100
AcDbSymbolTableRecord
100
AcDbLayerTableRecord
  2
TEIL_STARTBEZUEGE
 70
0
 62
7
  6
CONTINUOUS
370
-3
390
F
  0
LAYER
  5
20B
100
AcDbSymbolTableRecord
100
AcDbLayerTableRecord
  2
T_STARTBEZUEGE
 70
0
 62
7
  6
CONTINUOUS
370
-3
390
F
  0
LAYER
  5
20C
100
AcDbSymbolTableRecord
100
AcDbLayerTableRecord
  2
ZEICHNUNGSBEMASSUNGEN
 70
0
 62
7
  6
CONTINUOUS
370
-3
390
F
  0
ENDTAB
  0
TABLE
  2
STYLE
  5
3
100
AcDbSymbolTable
 70
1
  0
STYLE
  5
11
100
AcDbSymbolTableRecord
100
AcDbTextStyleTableRecord
  2
STANDARD
 70
0
 40
0.0
 41
0.7
 50
0.0
 71
0
 42
0.2
  3
txt
  4

  0
STYLE
  5
20D
100
AcDbSymbolTableRecord
100
AcDbTextStyleTableRecord
  2
TEXTSTYLE_1
 70
0
 40
0.0
 41
0.8
 50
0.0
 71
0
 42
0.2
  3
gdt
  4

  0
ENDTAB
  0
TABLE
  2
VIEW
  5
6
100
AcDbSymbolTable
 70
0
  0
ENDTAB
  0
TABLE
  2
UCS
  5
7
100
AcDbSymbolTable
 70
0
  0
ENDTAB
  0
TABLE
  2
APPID
  5
9
100
AcDbSymbolTable
 70
1
  0
APPID
  5
20E
100
AcDbSymbolTableRecord
100
AcDbRegAppTableRecord
  2
ACAD
 70
0
  0
ENDTAB
  0
TABLE
  2
BLOCK_RECORD
  5
1
100
AcDbSymbolTable
 70
0
  0
BLOCK_RECORD
  5
20F
100
AcDbSymbolTableRecord
100
AcDbBlockTableRecord
  2
*Model_Space
  0
BLOCK_RECORD
  5
210
100
AcDbSymbolTableRecord
100
AcDbBlockTableRecord
  2
*Paper_Space
  0
ENDTAB
  0
TABLE
  2
DIMSTYLE
  5
A
100
AcDbSymbolTable
 70
1
100
AcDbDimStyleTable
 71
0
  0
DIMSTYLE
105
211
100
AcDbSymbolTableRecord
100
AcDbDimStyleTableRecord
  2
STANDARD
 70
0
  3

  4

 40
1.0
 41
3.5
 42
0.0625
 43
0.38
 44
0.18
 45
0.0
 46
0.0
 47
0.005
 48
0.005
140
3.5
141
0.09
142
0.0
143
25.4
144
1.0
145
0.0
146
1.0
147
0.09
 71
1.0
 72
0.0
 73
0
 74
0
 75
0
 76
0
 77
1
 78
8
170
0
171
2
172
0
173
0
174
0
175
0
176
0
177
0
178
5
270
2
271
3
272
3
273
2
274
2
275
0
280
0
281
0
282
0
283
1
284
8
285
0
286
0
287
3
288
0
340
11
  0
ENDTAB
  0
ENDSEC
  0
SECTION
  2
BLOCKS
  0
BLOCK
  5
20
100
AcDbEntity
  8
0
100
AcDbBlockBegin
  2
*Model_Space
 70
0
 10
0.0
 20
0.0
 30
0.0
  3
*Model_Space
  1

  0
ENDBLK
  5
21
100
AcDbEntity
  8
0
100
AcDbBlockEnd
  0
BLOCK
  5
1C
100
AcDbEntity
  8
0
100
AcDbBlockBegin
  2
*Paper_Space
 70
0
 10
0.0
 20
0.0
 30
0.0
  3
*Paper_Space
  1

  0
ENDBLK
  5
1D
100
AcDbEntity
  8
0
100
AcDbBlockEnd
  0
ENDSEC
  0
SECTION
  2
ENTITIES
  0
MTEXT
  5
212
100
AcDbEntity
  8
0
100
AcDbMText
 62
5
  6
CONTINUOUS
  7
STANDARD
 71
2
 72
1
 10
330.1348300671
 20
460.0322148736
 30
0.0
 11
1.0
 21
0.0
 31
0.0
 44
0.9
  1
RUD\PICE\PCURT-K\P10
 40
5.0
 41
23.8095238095
  0
MTEXT
  5
213
100
AcDbEntity
  8
0
100
AcDbMText
 62
5
  6
CONTINUOUS
  7
STANDARD
 71
1
 72
1
 10
714.8336476615
 20
393.2713973182
 30
0.0
 11
0.0
 21
1.0
 31
0.0
 44
0.9
  1
RUD
 40
5.0
 41
13.3333333333
  0
MTEXT
  5
214
100
AcDbEntity
  8
0
100
AcDbMText
 62
5
  6
CONTINUOUS
  7
STANDARD
 71
1
 72
1
 10
715.0120333525
 20
478.1578220875
 30
0.0
 11
0.0
 21
1.0
 31
0.0
 44
0.9
  1
ICE-CURT-K-10
 40
4.3
 41
42.6928571429
  0
MTEXT
  5
215
100
AcDbEntity
  8
0
100
AcDbMText
 62
5
  6
CONTINUOUS
  7
STANDARD
 71
1
 72
1
 10
363.7812890243
 20
173.4258785867
 30
0.0
 11
1.0
 21
0.0
 31
0.0
 44
0.9
  1
RUD ICE-CURT-K-10
 40
5.0
 41
65.9523809524
  0
LINE
  5
216
100
AcDbEntity
  8
0
100
AcDbLine
 62
7
  6
CONTINUOUS
 10
0.0
 20
0.0
 11
0.0
 21
594.0
  0
LINE
  5
217
100
AcDbEntity
  8
0
100
AcDbLine
 62
7
  6
CONTINUOUS
 10
0.0
 20
0.0
 11
841.0
 21
0.0
  0
LINE
  5
218
100
AcDbEntity
  8
0
100
AcDbLine
 62
7
  6
CONTINUOUS
 10
0.0
 20
594.0
 11
841.0
 21
594.0
  0
LINE
  5
219
100
AcDbEntity
  8
0
100
AcDbLine
 62
7
  6
CONTINUOUS
 10
841.0
 20
0.0
 11
841.0
 21
594.0
  0
LINE
  5
21A
100
AcDbEntity
  8
BEZUGSACHSEN
100
AcDbLine
 62
7
  6
CONTINUOUS
 10
27.0833322897
 20
433.0994032077
 11
27.0910598533
 21
433.0111718327
  0
LWPOLYLINE
  5
21B
100
AcDbEntity
  8
BEZUGSACHSEN
100
AcDbPolyline
 62
7
  6
CONTINUOUS
 90
8
 70
0
 10
26.9234199615
 20
438.3683556469
 10
26.9256478514
 20
437.7383068066
 10
26.9346561515
 20
436.9544644491
 10
26.9506122487
 20
436.1716906952
 10
26.9735303614
 20
435.3919633287
 10
27.0034037869
 20
434.6172319025
 10
27.0402047288
 20
433.8494451482
 10
27.0833266273
 20
433.0994764393
  0
LWPOLYLINE
  5
21C
100
AcDbEntity
  8
RUNDUNGEN
100
AcDbPolyline
 62
7
  6
CONTINUOUS
 90
8
 70
0
 10
27.0833266273
 20
459.6372348545
 10
27.0402047288
 20
458.8872661455
 10
27.0034037869
 20
458.1194793913
 10
26.9735303614
 20
457.344747965
 10
26.9506122487
 20
456.5650205986
 10
26.9346561515
 20
455.7822468446
 10
26.9256478514
 20
454.9984044871
 10
26.92341993
 20
438.3683556469
  0
LINE
  5
21D
100
AcDbEntity
  8
RUNDUNGEN
100
AcDbLine
 62
7
  6
CONTINUOUS
 10
27.0910349475
 20
459.7253187937
 11
27.0833322661
 21
459.6373077063
  0
LINE
  5
21E
100
AcDbEntity
  8
RUNDUNGEN
100
AcDbLine
 62
7
  6
CONTINUOUS
 10
27.1178805677
 20
459.8916464555
 11
27.0910349475
 21
459.7253187937
  0
LINE
  5
21F
100
AcDbEntity
  8
BEZUGSACHSEN
100
AcDbLine
 62
7
  6
CONTINUOUS
 10
27.0910598533
 20
433.0111718327
 11
27.1179155192
 21
432.8448989965
  0
LINE
  5
220
100
AcDbEntity
  8
BEZUGSACHSEN
100
AcDbLine
 62
7
  6
CONTINUOUS
 10
39.7060803412
 20
450.6182926582
 11
39.7060803412
 21
442.1184186356
  0
LWPOLYLINE
  5
221
100
AcDbEntity
  8
RUNDUNGEN
100
AcDbPolyline
 62
7
  6
CONTINUOUS
 90
3
 70
0
 10
27.2110292706
 20
460.1954742427
 10
27.1604940339
 20
460.0549094519
 10
27.1178805677
 20
459.8916464555
  0
LINE
  5
222
100
AcDbEntity
  8
RUNDUNGEN
100
AcDbLine
 62
7
  6
CONTINUOUS
 10
27.2110292706
 20
460.1954742427
 11
27.2112245095
 21
460.1959527406
  0
LINE
  5
223
100
AcDbEntity
  8
BEZUGSACHSEN
100
AcDbLine
 62
7
  6
CONTINUOUS
 10
27.2110293651
 20
432.5412368193
 11
27.2112245095
 21
432.5407585531
  0
LWPOLYLINE
  5
224
100
AcDbEntity
  8
BEZUGSACHSEN
100
AcDbPolyline
 62
7
  6
CONTINUOUS
 90
3
 70
0
 10
27.1179155192
 20
432.8448989965
 10
27.160524807
 20
432.681703401
 10
27.2110293651
 20
432.5412368193
  0
LINE
  5
225
100
AcDbEntity
  8
RUNDUNGEN
100
AcDbLine
 62
7
  6
CONTINUOUS
 10
163.449264316
 20
470.3683555941
 11
163.449264316
 21
422.3683556996
  0
LINE
  5
226
100
AcDbEntity
  8
RUNDUNGEN
100
AcDbLine
 62
7
  6
CONTINUOUS
 10
170.449264316
 20
420.8683556469
 11
170.449264316
 21
471.8683556469
  0
LINE
  5
227
100
AcDbEntity
  8
RUNDUNGEN
100
AcDbLine
 62
7
  6
CONTINUOUS
 10
191.949264316
 20
469.3683556469
 11
191.949264316
 21
423.3683556469
  0
LINE
  5
228
100
AcDbEntity
  8
RUNDUNGEN
100
AcDbLine
 62
7
  6
CONTINUOUS
 10
196.449264316
 20
439.2225770362
 11
196.449264316
 21
453.5141342576
  0
LINE
  5
229
100
AcDbEntity
  8
0
100
AcDbLine
 62
7
  6
CONTINUOUS
 10
139.1424100665
 20
434.0252098964
 11
138.1142354735
 21
432.9970353033
  0
LINE
  5
22A
100
AcDbEntity
  8
RUNDUNGEN
100
AcDbLine
 62
7
  6
CONTINUOUS
 10
139.1424100665
 20
434.0252098964
 11
138.1142354735
 21
432.9970353033
  0
LINE
  5
22B
100
AcDbEntity
  8
RUNDUNGEN
100
AcDbLine
 62
7
  6
CONTINUOUS
 10
52.4715498729
 20
476.2784524744
 11
36.3068351317
 21
469.4169381556
  0
LINE
  5
22C
100
AcDbEntity
  8
BEZUGSACHSEN
100
AcDbLine
 62
7
  6
CONTINUOUS
 10
52.4715498729
 20
416.4582588193
 11
36.3068351317
 21
423.3197731382
  0
LINE
  5
22D
100
AcDbEntity
  8
0
100
AcDbLine
 62
7
  6
CONTINUOUS
 10
139.1424100665
 20
458.7115013974
 11
138.1142354735
 21
459.7396759904
  0
LINE
  5
22E
100
AcDbEntity
  8
RUNDUNGEN
100
AcDbLine
 62
7
  6
CONTINUOUS
 10
139.1424100665
 20
458.7115013974
 11
138.1142354735
 21
459.7396759904
  0
LINE
  5
22F
100
AcDbEntity
  8
RUNDUNGEN
100
AcDbLine
 62
7
  6
CONTINUOUS
 10
205.8774123228
 20
470.3683556469
 11
205.8774123228
 21
453.5141342576
  0
LINE
  5
230
100
AcDbEntity
  8
RUNDUNGEN
100
AcDbLine
 62
7
  6
CONTINUOUS
 10
205.8774123228
 20
439.2225770362
 11
205.8774123228
 21
422.3683556469
  0
LINE
  5
231
100
AcDbEntity
  8
RUNDUNGEN
100
AcDbLine
 62
7
  6
CONTINUOUS
 10
218.449264316
 20
451.3685810299
 11
218.449264316
 21
441.368301562
  0
LINE
  5
232
100
AcDbEntity
  8
0
100
AcDbLine
 62
7
  6
CONTINUOUS
 10
319.8415691614
 20
339.3683556469
 11
339.0569594706
 21
339.3683556469
  0
LINE
  5
233
100
AcDbEntity
  8
0
100
AcDbLine
 62
7
  6
CONTINUOUS
 10
319.8415691614
 20
553.3683556469
 11
309.449264316
 21
547.3683556469
  0
LINE
  5
234
100
AcDbEntity
  8
BEZUGSACHSEN
100
AcDbLine
 62
7
  6
CONTINUOUS
 10
124.6861232511
 20
429.4388629465
 11
101.7697714901
 21
416.2081010885
  0
LINE
  5
235
100
AcDbEntity
  8
0
100
AcDbLine
 62
7
  6
CONTINUOUS
 10
309.449264316
 20
345.3683556469
 11
349.449264316
 21
345.3683556469
  0
LINE
  5
236
100
AcDbEntity
  8
0
100
AcDbLine
 62
7
  6
CONTINUOUS
 10
309.449264316
 20
356.3683556469
 11
349.449264316
 21
356.3683556469
  0
LINE
  5
237
100
AcDbEntity
  8
0
100
AcDbLine
 62
7
  6
CONTINUOUS
 10
309.449264316
 20
345.3683556469
 11
319.8415691614
 21
339.3683556469
  0
LINE
  5
238
100
AcDbEntity
  8
RUNDUNGEN
100
AcDbLine
 62
7
  6
CONTINUOUS
 10
124.6861232511
 20
463.2978483472
 11
101.7697714901
 21
476.5286102052
  0
LINE
  5
239
100
AcDbEntity
  8
0
100
AcDbLine
 62
7
  6
CONTINUOUS
 10
318.1095183539
 20
371.3683556469
 11
340.7890102782
 21
371.3683556469
  0
LINE
  5
23A
100
AcDbEntity
  8
0
100
AcDbLine
 62
7
  6
CONTINUOUS
 10
273.299264316
 20
456.3683556469
 11
273.299264316
 21
441.3683556469
  0
LINE
  5
23B
100
AcDbEntity
  8
0
100
AcDbLine
 62
7
  6
CONTINUOUS
 10
273.299264316
 20
437.708101609
 11
273.299264316
 21
436.3683556469
  0
LINE
  5
23C
100
AcDbEntity
  8
0
100
AcDbLine
 62
7
  6
CONTINUOUS
 10
275.799264316
 20
453.8683556469
 11
275.799264316
 21
441.3683556469
  0
LINE
  5
23D
100
AcDbEntity
  8
0
100
AcDbLine
 62
7
  6
CONTINUOUS
 10
275.799264316
 20
440.7781857031
 11
275.799264316
 21
438.8683556469
  0
LINE
  5
23E
100
AcDbEntity
  8
0
100
AcDbLine
 62
7
  6
CONTINUOUS
 10
286.799264316
 20
438.868388815
 11
286.799264316
 21
453.8683235395
  0
LINE
  5
23F
100
AcDbEntity
  8
0
100
AcDbLine
 62
7
  6
CONTINUOUS
 10
205.8774123228
 20
422.3683556469
 11
211.7267641191
 21
426.4641158683
  0
LINE
  5
240
100
AcDbEntity
  8
0
100
AcDbLine
 62
7
  6
CONTINUOUS
 10
205.8774123228
 20
470.3683556469
 11
211.7267641191
 21
466.2725954254
  0
LINE
  5
241
100
AcDbEntity
  8
0
100
AcDbLine
 62
7
  6
CONTINUOUS
 10
309.449264316
 20
547.3683556469
 11
309.449264316
 21
536.3683556469
  0
LINE
  5
242
100
AcDbEntity
  8
0
100
AcDbLine
 62
7
  6
CONTINUOUS
 10
309.449264316
 20
356.3683556469
 11
309.449264316
 21
345.3683556469
  0
LINE
  5
243
100
AcDbEntity
  8
0
100
AcDbLine
 62
7
  6
CONTINUOUS
 10
349.449264316
 20
536.3683556469
 11
340.7890102782
 21
521.3683556469
  0
LINE
  5
244
100
AcDbEntity
  8
0
100
AcDbLine
 62
7
  6
CONTINUOUS
 10
275.799264316
 20
438.8683556469
 11
273.299264316
 21
436.3683556469
  0
LINE
  5
245
100
AcDbEntity
  8
0
100
AcDbLine
 62
7
  6
CONTINUOUS
 10
305.2856958023
 20
465.4889704053
 11
305.9966618616
 21
465.7477408884
  0
LINE
  5
246
100
AcDbEntity
  8
BEZUGSACHSEN
100
AcDbLine
 62
7
  6
CONTINUOUS
 10
96.7697723917
 20
414.8683556469
 11
60.2861730116
 21
414.8683556469
  0
LINE
  5
247
100
AcDbEntity
  8
RUNDUNGEN
100
AcDbLine
 62
7
  6
CONTINUOUS
 10
562.1287562403
 20
414.8683556469
 11
598.6123556204
 21
414.8683556469
  0
LINE
  5
248
100
AcDbEntity
  8
BEZUGSACHSEN
100
AcDbLine
 62
7
  6
CONTINUOUS
 10
165.449264316
 20
420.3683556469
 11
169.949264316
 21
420.3683556469
  0
LINE
  5
249
100
AcDbEntity
  8
RUNDUNGEN
100
AcDbLine
 62
7
  6
CONTINUOUS
 10
205.8774123228
 20
422.3683556469
 11
192.949264316
 21
422.3683556469
  0
LINE
  5
24A
100
AcDbEntity
  8
0
100
AcDbLine
 62
7
  6
CONTINUOUS
 10
192.949264316
 20
422.3683556469
 11
205.8774123228
 21
422.3683556469
  0
LINE
  5
24B
100
AcDbEntity
  8
RUNDUNGEN
100
AcDbLine
 62
7
  6
CONTINUOUS
 10
466.949264316
 20
426.8683556469
 11
446.4833318029
 21
426.8683556469
  0
LINE
  5
24C
100
AcDbEntity
  8
BEZUGSACHSEN
100
AcDbLine
 62
7
  6
CONTINUOUS
 10
352.2178264838
 20
426.8683556469
 11
336.949264316
 21
426.8683556469
  0
LINE
  5
24D
100
AcDbEntity
  8
BEZUGSACHSEN
100
AcDbLine
 62
7
  6
CONTINUOUS
 10
321.949264316
 20
426.8683556469
 11
306.6807021482
 21
426.8683556469
  0
LINE
  5
24E
100
AcDbEntity
  8
0
100
AcDbLine
 62
7
  6
CONTINUOUS
 10
306.6807021482
 20
426.8683556469
 11
321.949264316
 21
426.8683556469
  0
LINE
  5
24F
100
AcDbEntity
  8
0
100
AcDbLine
 62
7
  6
CONTINUOUS
 10
336.949264316
 20
426.8683556469
 11
352.2178264838
 21
426.8683556469
  0
LINE
  5
250
100
AcDbEntity
  8
0
100
AcDbLine
 62
7
  6
CONTINUOUS
 10
446.4833318029
 20
426.8683556469
 11
466.949264316
 21
426.8683556469
  0
LINE
  5
251
100
AcDbEntity
  8
0
100
AcDbLine
 62
7
  6
CONTINUOUS
 10
214.5946463009
 20
427.3683556469
 11
304.6016555157
 21
427.3683556469
  0
LINE
  5
252
100
AcDbEntity
  8
0
100
AcDbLine
 62
7
  6
CONTINUOUS
 10
354.2968731163
 20
427.3683556469
 11
444.3038823312
 21
427.3683556469
  0
LINE
  5
253
100
AcDbEntity
  8
0
100
AcDbLine
 62
7
  6
CONTINUOUS
 10
305.2856958023
 20
427.2477408884
 11
305.9966618616
 21
426.9889704053
  0
LINE
  5
254
100
AcDbEntity
  8
0
100
AcDbLine
 62
7
  6
CONTINUOUS
 10
275.799264316
 20
453.8683556469
 11
273.299264316
 21
456.3683556469
  0
LINE
  5
255
100
AcDbEntity
  8
0
100
AcDbLine
 62
7
  6
CONTINUOUS
 10
340.7890102782
 20
371.3683556469
 11
349.449264316
 21
356.3683556469
  0
LINE
  5
256
100
AcDbEntity
  8
RUNDUNGEN
100
AcDbLine
 62
7
  6
CONTINUOUS
 10
313.449264316
 20
451.3681664866
 11
313.449264316
 21
441.3685335114
  0
LINE
  5
257
100
AcDbEntity
  8
0
100
AcDbLine
 62
7
  6
CONTINUOUS
 10
322.449264316
 20
521.3683556469
 11
322.449264316
 21
465.6815786039
  0
LINE
  5
258
100
AcDbEntity
  8
0
100
AcDbLine
 62
7
  6
CONTINUOUS
 10
322.449264316
 20
427.0551323087
 11
322.449264316
 21
371.3683556469
  0
LINE
  5
259
100
AcDbEntity
  8
RUNDUNGEN
100
AcDbLine
 62
7
  6
CONTINUOUS
 10
135.9929151299
 20
432.1183556469
 11
134.6861259029
 21
432.1183556469
  0
LINE
  5
25A
100
AcDbEntity
  8
RUNDUNGEN
100
AcDbLine
 62
7
  6
CONTINUOUS
 10
522.9056135021
 20
432.1183556469
 11
524.2124027291
 21
432.1183556469
  0
LINE
  5
25B
100
AcDbEntity
  8
RUNDUNGEN
100
AcDbLine
 62
7
  6
CONTINUOUS
 10
434.449264316
 20
435.3683556469
 11
351.4493320339
 21
435.3683556469
  0
LINE
  5
25C
100
AcDbEntity
  8
RUNDUNGEN
100
AcDbLine
 62
7
  6
CONTINUOUS
 10
307.4492004799
 20
435.3683556469
 11
224.4495241316
 21
435.3683556469
  0
LINE
  5
25D
100
AcDbEntity
  8
0
100
AcDbLine
 62
7
  6
CONTINUOUS
 10
273.299264316
 20
436.3683556469
 11
221.1357481635
 21
436.3683556469
  0
LINE
  5
25E
100
AcDbEntity
  8
0
100
AcDbLine
 62
7
  6
CONTINUOUS
 10
191.949264316
 20
436.3683556469
 11
170.449264316
 21
436.3683556469
  0
LINE
  5
25F
100
AcDbEntity
  8
0
100
AcDbLine
 62
7
  6
CONTINUOUS
 10
163.449264316
 20
436.3683556469
 11
144.799264316
 21
436.3683556469
  0
LINE
  5
260
100
AcDbEntity
  8
0
100
AcDbLine
 62
7
  6
CONTINUOUS
 10
395.599264316
 20
436.3683556469
 11
437.7601362417
 21
436.3683556469
  0
LINE
  5
261
100
AcDbEntity
  8
0
100
AcDbLine
 62
7
  6
CONTINUOUS
 10
467.949264316
 20
436.3683556469
 11
514.099264316
 21
436.3683556469
  0
LINE
  5
262
100
AcDbEntity
  8
0
100
AcDbLine
 62
7
  6
CONTINUOUS
 10
273.299264316
 20
437.708101609
 11
219.6979892803
 21
437.708101609
  0
LINE
  5
263
100
AcDbEntity
  8
0
100
AcDbLine
 62
7
  6
CONTINUOUS
 10
191.949264316
 20
437.708101609
 11
170.449264316
 21
437.708101609
  0
LINE
  5
264
100
AcDbEntity
  8
0
100
AcDbLine
 62
7
  6
CONTINUOUS
 10
163.449264316
 20
437.708101609
 11
144.799264316
 21
437.708101609
  0
LINE
  5
265
100
AcDbEntity
  8
0
100
AcDbLine
 62
7
  6
CONTINUOUS
 10
286.799264316
 20
438.8683556469
 11
275.799264316
 21
438.8683556469
  0
LINE
  5
266
100
AcDbEntity
  8
0
100
AcDbLine
 62
7
  6
CONTINUOUS
 10
382.099264316
 20
438.8683556469
 11
393.099264316
 21
438.8683556469
  0
LINE
  5
267
100
AcDbEntity
  8
BEZUGSACHSEN
100
AcDbLine
 62
7
  6
CONTINUOUS
 10
41.6786651124
 20
440.1183556469
 11
61.0519723826
 21
440.1183556469
  0
LINE
  5
268
100
AcDbEntity
  8
RUNDUNGEN
100
AcDbLine
 62
7
  6
CONTINUOUS
 10
597.8465562494
 20
440.1183556469
 11
617.2198635197
 21
440.1183556469
  0
LINE
  5
269
100
AcDbEntity
  8
0
100
AcDbLine
 62
7
  6
CONTINUOUS
 10
286.799264316
 20
440.7781857031
 11
275.799264316
 21
440.7781857031
  0
LINE
  5
26A
100
AcDbEntity
  8
0
100
AcDbLine
 62
7
  6
CONTINUOUS
 10
286.799264316
 20
441.3683556469
 11
218.4492643163
 21
441.3683556469
  0
LINE
  5
26B
100
AcDbEntity
  8
0
100
AcDbLine
 62
7
  6
CONTINUOUS
 10
191.949264316
 20
441.3683556469
 11
170.449264316
 21
441.3683556469
  0
LINE
  5
26C
100
AcDbEntity
  8
0
100
AcDbLine
 62
7
  6
CONTINUOUS
 10
163.449264316
 20
441.3683556469
 11
148.799264316
 21
441.3683556469
  0
LINE
  5
26D
100
AcDbEntity
  8
0
100
AcDbLine
 62
7
  6
CONTINUOUS
 10
336.449264316
 20
521.3683556469
 11
336.449264316
 21
465.6815771392
  0
LINE
  5
26E
100
AcDbEntity
  8
0
100
AcDbLine
 62
7
  6
CONTINUOUS
 10
336.449264316
 20
427.0551342004
 11
336.449264316
 21
371.3683556469
  0
LINE
  5
26F
100
AcDbEntity
  8
RUNDUNGEN
100
AcDbLine
 62
7
  6
CONTINUOUS
 10
345.449264316
 20
441.3685365743
 11
345.449264316
 21
451.3681666708
  0
LINE
  5
270
100
AcDbEntity
  8
0
100
AcDbLine
 62
7
  6
CONTINUOUS
 10
349.449264316
 20
547.3683556469
 11
349.449264316
 21
536.3683556469
  0
LINE
  5
271
100
AcDbEntity
  8
0
100
AcDbLine
 62
7
  6
CONTINUOUS
 10
349.449264316
 20
356.3683556469
 11
349.449264316
 21
345.3683556469
  0
LINE
  5
272
100
AcDbEntity
  8
RUNDUNGEN
100
AcDbLine
 62
7
  6
CONTINUOUS
 10
41.6786651124
 20
452.6183556469
 11
61.0519723826
 21
452.6183556469
  0
LINE
  5
273
100
AcDbEntity
  8
BEZUGSACHSEN
100
AcDbLine
 62
7
  6
CONTINUOUS
 10
597.8465562494
 20
452.6183556469
 11
617.2198635197
 21
452.6183556469
  0
LINE
  5
274
100
AcDbEntity
  8
0
100
AcDbLine
 62
7
  6
CONTINUOUS
 10
286.799264316
 20
453.8683556469
 11
275.799264316
 21
453.8683556469
  0
LINE
  5
275
100
AcDbEntity
  8
0
100
AcDbLine
 62
7
  6
CONTINUOUS
 10
382.099264316
 20
453.8683556469
 11
393.099264316
 21
453.8683556469
  0
LINE
  5
276
100
AcDbEntity
  8
0
100
AcDbLine
 62
7
  6
CONTINUOUS
 10
273.299264316
 20
456.3683556469
 11
221.135731027
 21
456.3683556469
  0
LINE
  5
277
100
AcDbEntity
  8
0
100
AcDbLine
 62
7
  6
CONTINUOUS
 10
191.949264316
 20
456.3683556469
 11
170.449264316
 21
456.3683556469
  0
LINE
  5
278
100
AcDbEntity
  8
0
100
AcDbLine
 62
7
  6
CONTINUOUS
 10
163.449264316
 20
456.3683556469
 11
144.799264316
 21
456.3683556469
  0
LINE
  5
279
100
AcDbEntity
  8
0
100
AcDbLine
 62
7
  6
CONTINUOUS
 10
395.599264316
 20
456.3683556469
 11
437.7598337817
 21
456.3683556469
  0
LINE
  5
27A
100
AcDbEntity
  8
0
100
AcDbLine
 62
7
  6
CONTINUOUS
 10
467.949264316
 20
456.3683556469
 11
514.099264316
 21
456.3683556469
  0
LINE
  5
27B
100
AcDbEntity
  8
RUNDUNGEN
100
AcDbLine
 62
7
  6
CONTINUOUS
 10
224.4494374019
 20
457.3683556469
 11
307.4490990992
 21
457.3683556469
  0
LINE
  5
27C
100
AcDbEntity
  8
RUNDUNGEN
100
AcDbLine
 62
7
  6
CONTINUOUS
 10
351.4494295335
 20
457.3683556469
 11
434.4490901409
 21
457.3683556469
  0
LINE
  5
27D
100
AcDbEntity
  8
RUNDUNGEN
100
AcDbLine
 62
7
  6
CONTINUOUS
 10
135.9929151299
 20
460.6183556469
 11
134.6861259029
 21
460.6183556469
  0
LINE
  5
27E
100
AcDbEntity
  8
RUNDUNGEN
100
AcDbLine
 62
7
  6
CONTINUOUS
 10
522.9056135021
 20
460.6183556469
 11
524.2124027291
 21
460.6183556469
  0
LINE
  5
27F
100
AcDbEntity
  8
0
100
AcDbLine
 62
7
  6
CONTINUOUS
 10
214.5946463009
 20
465.3683556469
 11
304.6016555157
 21
465.3683556469
  0
LINE
  5
280
100
AcDbEntity
  8
RUNDUNGEN
100
AcDbLine
 62
7
  6
CONTINUOUS
 10
354.2968731163
 20
465.3683556469
 11
444.3038823312
 21
465.3683556469
  0
LINE
  5
281
100
AcDbEntity
  8
0
100
AcDbLine
 62
7
  6
CONTINUOUS
 10
354.2968731163
 20
465.3683556469
 11
444.3038823312
 21
465.3683556469
  0
LINE
  5
282
100
AcDbEntity
  8
RUNDUNGEN
100
AcDbLine
 62
7
  6
CONTINUOUS
 10
466.949264316
 20
465.8683556469
 11
446.4833318029
 21
465.8683556469
  0
LINE
  5
283
100
AcDbEntity
  8
BEZUGSACHSEN
100
AcDbLine
 62
7
  6
CONTINUOUS
 10
352.2178264838
 20
465.8683556469
 11
336.949264316
 21
465.8683556469
  0
LINE
  5
284
100
AcDbEntity
  8
BEZUGSACHSEN
100
AcDbLine
 62
7
  6
CONTINUOUS
 10
321.949264316
 20
465.8683556469
 11
306.6807021482
 21
465.8683556469
  0
LINE
  5
285
100
AcDbEntity
  8
0
100
AcDbLine
 62
7
  6
CONTINUOUS
 10
306.6807021482
 20
465.8683556469
 11
321.949264316
 21
465.8683556469
  0
LINE
  5
286
100
AcDbEntity
  8
0
100
AcDbLine
 62
7
  6
CONTINUOUS
 10
336.949264316
 20
465.8683556469
 11
352.2178264838
 21
465.8683556469
  0
LINE
  5
287
100
AcDbEntity
  8
0
100
AcDbLine
 62
7
  6
CONTINUOUS
 10
446.4833318029
 20
465.8683556469
 11
466.949264316
 21
465.8683556469
  0
LINE
  5
288
100
AcDbEntity
  8
RUNDUNGEN
100
AcDbLine
 62
7
  6
CONTINUOUS
 10
205.8774123228
 20
470.3683556469
 11
192.949264316
 21
470.3683556469
  0
LINE
  5
289
100
AcDbEntity
  8
0
100
AcDbLine
 62
7
  6
CONTINUOUS
 10
192.949264316
 20
470.3683556469
 11
205.8774123228
 21
470.3683556469
  0
LINE
  5
28A
100
AcDbEntity
  8
0
100
AcDbLine
 62
7
  6
CONTINUOUS
 10
318.1095183539
 20
371.3683556469
 11
309.449264316
 21
356.3683556469
  0
LINE
  5
28B
100
AcDbEntity
  8
0
100
AcDbLine
 62
7
  6
CONTINUOUS
 10
393.099264316
 20
453.8683556469
 11
395.599264316
 21
456.3683556469
  0
LINE
  5
28C
100
AcDbEntity
  8
0
100
AcDbLine
 62
7
  6
CONTINUOUS
 10
352.9018667704
 20
426.9889704053
 11
353.6128328297
 21
427.2477408884
  0
LINE
  5
28D
100
AcDbEntity
  8
BEZUGSACHSEN
100
AcDbLine
 62
7
  6
CONTINUOUS
 10
165.449264316
 20
472.3683556469
 11
169.949264316
 21
472.3683556469
  0
LINE
  5
28E
100
AcDbEntity
  8
RUNDUNGEN
100
AcDbLine
 62
7
  6
CONTINUOUS
 10
96.7697723917
 20
477.8683556469
 11
60.2861730116
 21
477.8683556469
  0
LINE
  5
28F
100
AcDbEntity
  8
BEZUGSACHSEN
100
AcDbLine
 62
7
  6
CONTINUOUS
 10
562.1287562403
 20
477.8683556469
 11
598.6123556204
 21
477.8683556469
  0
LINE
  5
290
100
AcDbEntity
  8
0
100
AcDbLine
 62
7
  6
CONTINUOUS
 10
352.9018667704
 20
465.7477408884
 11
353.6128328297
 21
465.4889704053
  0
LINE
  5
291
100
AcDbEntity
  8
0
100
AcDbLine
 62
7
  6
CONTINUOUS
 10
393.099264316
 20
438.8683556469
 11
395.599264316
 21
436.3683556469
  0
LINE
  5
292
100
AcDbEntity
  8
0
100
AcDbLine
 62
7
  6
CONTINUOUS
 10
309.449264316
 20
536.3683556469
 11
318.1095183539
 21
521.3683556469
  0
LINE
  5
293
100
AcDbEntity
  8
0
100
AcDbLine
 62
7
  6
CONTINUOUS
 10
382.099264316
 20
438.8683556469
 11
382.099264316
 21
453.8683556469
  0
LINE
  5
294
100
AcDbEntity
  8
0
100
AcDbLine
 62
7
  6
CONTINUOUS
 10
393.099264316
 20
438.8683556469
 11
393.099264316
 21
453.8683556469
  0
LINE
  5
295
100
AcDbEntity
  8
0
100
AcDbLine
 62
7
  6
CONTINUOUS
 10
395.599264316
 20
436.3683556469
 11
395.599264316
 21
456.3683556469
  0
LINE
  5
296
100
AcDbEntity
  8
BEZUGSACHSEN
100
AcDbLine
 62
7
  6
CONTINUOUS
 10
534.2124053809
 20
463.2978483472
 11
557.1287571419
 21
476.5286102052
  0
LINE
  5
297
100
AcDbEntity
  8
0
100
AcDbLine
 62
7
  6
CONTINUOUS
 10
318.1095183539
 20
521.3683556469
 11
340.7890102782
 21
521.3683556469
  0
LINE
  5
298
100
AcDbEntity
  8
RUNDUNGEN
100
AcDbLine
 62
7
  6
CONTINUOUS
 10
534.2124053809
 20
429.4388629465
 11
557.1287571419
 21
416.2081010885
  0
LINE
  5
299
100
AcDbEntity
  8
0
100
AcDbLine
 62
7
  6
CONTINUOUS
 10
349.449264316
 20
345.3683556469
 11
339.0569594706
 21
339.3683556469
  0
LINE
  5
29A
100
AcDbEntity
  8
0
100
AcDbLine
 62
7
  6
CONTINUOUS
 10
309.449264316
 20
536.3683556469
 11
349.449264316
 21
536.3683556469
  0
LINE
  5
29B
100
AcDbEntity
  8
0
100
AcDbLine
 62
7
  6
CONTINUOUS
 10
309.449264316
 20
547.3683556469
 11
349.449264316
 21
547.3683556469
  0
LINE
  5
29C
100
AcDbEntity
  8
0
100
AcDbLine
 62
7
  6
CONTINUOUS
 10
319.8415691614
 20
553.3683556469
 11
339.0569594706
 21
553.3683556469
  0
LINE
  5
29D
100
AcDbEntity
  8
0
100
AcDbLine
 62
7
  6
CONTINUOUS
 10
339.0569594706
 20
553.3683556469
 11
349.449264316
 21
547.3683556469
  0
LINE
  5
29E
100
AcDbEntity
  8
RUNDUNGEN
100
AcDbLine
 62
7
  6
CONTINUOUS
 10
440.449264316
 20
451.3681737411
 11
440.449264316
 21
441.3685420082
  0
LINE
  5
29F
100
AcDbEntity
  8
0
100
AcDbLine
 62
7
  6
CONTINUOUS
 10
446.4833318029
 20
465.8683556469
 11
446.4833318029
 21
426.8683556469
  0
LINE
  5
2A0
100
AcDbEntity
  8
0
100
AcDbLine
 62
7
  6
CONTINUOUS
 10
519.7561185655
 20
458.7115013974
 11
520.7842931586
 21
459.7396759904
  0
LINE
  5
2A1
100
AcDbEntity
  8
RUNDUNGEN
100
AcDbLine
 62
7
  6
CONTINUOUS
 10
519.7561185655
 20
458.7115013974
 11
520.7842931586
 21
459.7396759904
  0
LINE
  5
2A2
100
AcDbEntity
  8
0
100
AcDbLine
 62
7
  6
CONTINUOUS
 10
519.7561185655
 20
434.0252098964
 11
520.7842931586
 21
432.9970353033
  0
LINE
  5
2A3
100
AcDbEntity
  8
RUNDUNGEN
100
AcDbLine
 62
7
  6
CONTINUOUS
 10
519.7561185655
 20
434.0252098964
 11
520.7842931586
 21
432.9970353033
  0
LINE
  5
2A4
100
AcDbEntity
  8
RUNDUNGEN
100
AcDbLine
 62
7
  6
CONTINUOUS
 10
467.949264316
 20
427.8683556469
 11
467.949264316
 21
464.8683556469
  0
LINE
  5
2A5
100
AcDbEntity
  8
RUNDUNGEN
100
AcDbLine
 62
7
  6
CONTINUOUS
 10
606.4269787591
 20
416.4582588193
 11
622.5916935003
 21
423.3197731382
  0
LINE
  5
2A6
100
AcDbEntity
  8
BEZUGSACHSEN
100
AcDbLine
 62
7
  6
CONTINUOUS
 10
606.4269787591
 20
476.2784524744
 11
622.5916935003
 21
469.4169381556
  0
LINE
  5
2A7
100
AcDbEntity
  8
BEZUGSACHSEN
100
AcDbLine
 62
7
  6
CONTINUOUS
 10
631.8151963424
 20
459.6373080861
 11
631.8074687787
 21
459.7255394611
  0
LWPOLYLINE
  5
2A8
100
AcDbEntity
  8
BEZUGSACHSEN
100
AcDbPolyline
 62
7
  6
CONTINUOUS
 90
8
 70
0
 10
631.9751086705
 20
454.3683556469
 10
631.9728807806
 20
454.9984044871
 10
631.9638724805
 20
455.7822468446
 10
631.9479163833
 20
456.5650205986
 10
631.9249982706
 20
457.344747965
 10
631.8951248451
 20
458.1194793913
 10
631.8583239033
 20
458.8872661455
 10
631.8152020048
 20
459.6372348545
  0
LINE
  5
2A9
100
AcDbEntity
  8
BEZUGSACHSEN
100
AcDbLine
 62
7
  6
CONTINUOUS
 10
619.1924482908
 20
442.1184186356
 11
619.1924482908
 21
450.6182926582
  0
LWPOLYLINE
  5
2AA
100
AcDbEntity
  8
RUNDUNGEN
100
AcDbPolyline
 62
7
  6
CONTINUOUS
 90
8
 70
0
 10
631.8152020048
 20
433.0994764393
 10
631.8583239033
 20
433.8494451482
 10
631.8951248451
 20
434.6172319025
 10
631.9249982706
 20
435.3919633287
 10
631.9479163833
 20
436.1716906952
 10
631.9638724805
 20
436.9544644491
 10
631.9728807806
 20
437.7383068066
 10
631.9751087021
 20
454.3683556469
  0
LINE
  5
2AB
100
AcDbEntity
  8
RUNDUNGEN
100
AcDbLine
 62
7
  6
CONTINUOUS
 10
631.8074936846
 20
433.0113925
 11
631.815196366
 21
433.0994035874
  0
LINE
  5
2AC
100
AcDbEntity
  8
RUNDUNGEN
100
AcDbLine
 62
7
  6
CONTINUOUS
 10
631.7806480643
 20
432.8450648382
 11
631.8074936846
 21
433.0113925
  0
LWPOLYLINE
  5
2AD
100
AcDbEntity
  8
RUNDUNGEN
100
AcDbPolyline
 62
7
  6
CONTINUOUS
 90
3
 70
0
 10
631.6874993614
 20
432.5412370511
 10
631.7380345981
 20
432.6818018418
 10
631.7806480643
 20
432.8450648382
  0
LINE
  5
2AE
100
AcDbEntity
  8
RUNDUNGEN
100
AcDbLine
 62
7
  6
CONTINUOUS
 10
631.6874993614
 20
432.5412370511
 11
631.6873041226
 21
432.5407585531
  0
LINE
  5
2AF
100
AcDbEntity
  8
BEZUGSACHSEN
100
AcDbLine
 62
7
  6
CONTINUOUS
 10
631.6874992669
 20
460.1954744745
 11
631.6873041226
 21
460.1959527406
  0
LWPOLYLINE
  5
2B0
100
AcDbEntity
  8
BEZUGSACHSEN
100
AcDbPolyline
 62
7
  6
CONTINUOUS
 90
3
 70
0
 10
631.7806131128
 20
459.8918122973
 10
631.738003825
 20
460.0550078927
 10
631.6874992669
 20
460.1954744745
  0
LINE
  5
2B1
100
AcDbEntity
  8
BEZUGSACHSEN
100
AcDbLine
 62
7
  6
CONTINUOUS
 10
631.8074687787
 20
459.7255394611
 11
631.7806131128
 21
459.8918122973
  0
LINE
  5
2B2
100
AcDbEntity
  8
0
100
AcDbLine
 62
7
  6
CONTINUOUS
 10
707.3968508018
 20
339.3683556469
 11
726.612241111
 21
339.3683556469
  0
LINE
  5
2B3
100
AcDbEntity
  8
0
100
AcDbLine
 62
7
  6
CONTINUOUS
 10
707.3968508018
 20
553.3683556469
 11
697.0045459564
 21
547.3683556469
  0
LINE
  5
2B4
100
AcDbEntity
  8
0
100
AcDbLine
 62
7
  6
CONTINUOUS
 10
697.0045459564
 20
345.3683556469
 11
737.0045459564
 21
345.3683556469
  0
LINE
  5
2B5
100
AcDbEntity
  8
0
100
AcDbLine
 62
7
  6
CONTINUOUS
 10
697.0045459564
 20
345.3683556469
 11
707.3968508018
 21
339.3683556469
  0
LINE
  5
2B6
100
AcDbEntity
  8
0
100
AcDbLine
 62
7
  6
CONTINUOUS
 10
697.0045459564
 20
356.3683556469
 11
737.0045459564
 21
356.3683556469
  0
LINE
  5
2B7
100
AcDbEntity
  8
0
100
AcDbLine
 62
7
  6
CONTINUOUS
 10
705.6649328642
 20
371.3683556469
 11
728.3441590485
 21
371.3683556469
  0
LWPOLYLINE
  5
2B8
100
AcDbEntity
  8
RUNDUNGEN
100
AcDbPolyline
 62
7
  6
CONTINUOUS
 90
10
 70
0
 10
687.0552318964
 20
454.3335975826
 10
687.1459292318
 20
450.9594372122
 10
687.1708368064
 20
449.8166837532
 10
687.1898190772
 20
448.6681805771
 10
687.2016708316
 20
447.5158228066
 10
687.2056699384
 20
446.3615583952
 10
687.2015761332
 20
445.2073078639
 10
687.1896353309
 20
444.0549914791
 10
687.1705755209
 20
442.9065570949
 10
687.1456078169
 20
441.7638993629
  0
LWPOLYLINE
  5
2B9
100
AcDbEntity
  8
RUNDUNGEN
100
AcDbPolyline
 62
7
  6
CONTINUOUS
 90
8
 70
0
 10
687.0045491878
 20
464.3515998407
 10
687.0159864101
 20
463.8115375973
 10
687.0546321925
 20
463.1457059836
 10
687.1149551546
 20
462.4531810393
 10
687.1923808202
 20
461.7327136789
 10
687.2831345517
 20
460.9846968229
 10
687.3835707047
 20
460.2126162672
 10
687.7128298515
 20
457.7807029112
  0
LWPOLYLINE
  5
2BA
100
AcDbEntity
  8
RUNDUNGEN
100
AcDbPolyline
 62
7
  6
CONTINUOUS
 90
4
 70
0
 10
687.0045463306
 20
457.441925294
 10
687.0104584549
 20
456.5193232661
 10
687.0288601372
 20
455.4337508753
 10
687.0552318964
 20
454.3335975826
  0
LINE
  5
2BB
100
AcDbEntity
  8
RUNDUNGEN
100
AcDbLine
 62
7
  6
CONTINUOUS
 10
687.0045463589
 20
457.4419298707
 11
687.0045459564
 21
475.8683556469
  0
LINE
  5
2BC
100
AcDbEntity
  8
RUNDUNGEN
100
AcDbLine
 62
7
  6
CONTINUOUS
 10
687.0045464219
 20
435.2953018462
 11
687.0045459564
 21
416.8683556469
  0
LWPOLYLINE
  5
2BD
100
AcDbEntity
  8
RUNDUNGEN
100
AcDbPolyline
 62
7
  6
CONTINUOUS
 90
4
 70
0
 10
687.0548937072
 20
438.390189217
 10
687.0285918171
 20
437.2902394486
 10
687.0103094142
 20
436.2048955457
 10
687.004546395
 20
435.2953064192
  0
LINE
  5
2BE
100
AcDbEntity
  8
RUNDUNGEN
100
AcDbLine
 62
7
  6
CONTINUOUS
 10
687.1456078169
 20
441.7638993629
 11
687.0548937072
 21
438.390189217
  0
LWPOLYLINE
  5
2BF
100
AcDbEntity
  8
RUNDUNGEN
100
AcDbPolyline
 62
7
  6
CONTINUOUS
 90
7
 70
0
 10
687.3848619484
 20
432.5337974517
 10
687.2843042466
 20
431.7612612786
 10
687.1933967359
 20
431.0128029908
 10
687.1157809029
 20
430.2919066168
 10
687.0552249642
 20
429.5989808146
 10
687.0162923009
 20
428.9328013035
 10
687.0045489259
 20
428.384555513
  0
LINE
  5
2C0
100
AcDbEntity
  8
RUNDUNGEN
100
AcDbLine
 62
7
  6
CONTINUOUS
 10
687.8064268212
 20
435.6649877371
 11
687.7143163251
 21
434.9671297724
  0
LINE
  5
2C1
100
AcDbEntity
  8
RUNDUNGEN
100
AcDbLine
 62
7
  6
CONTINUOUS
 10
687.7143163251
 20
434.9671297724
 11
687.3848619484
 21
432.5337974517
  0
LINE
  5
2C2
100
AcDbEntity
  8
0
100
AcDbLine
 62
7
  6
CONTINUOUS
 10
737.0045459564
 20
536.3683556469
 11
728.3442919185
 21
521.3683556469
  0
LWPOLYLINE
  5
2C3
100
AcDbEntity
  8
BEZUGSACHSEN
100
AcDbPolyline
 62
7
  6
CONTINUOUS
 90
9
 70
0
 10
716.1893349601
 20
414.8683562809
 10
716.5978766286
 20
414.8878303417
 10
717.1181305414
 20
414.9625798653
 10
717.646440153
 20
415.0857137101
 10
718.2063371601
 20
415.2574736539
 10
718.8180063614
 20
415.4827071497
 10
719.4997297109
 20
415.7685656146
 10
720.2777636028
 20
416.1274595644
 10
721.0623517839
 20
416.5142335076
  0
LINE
  5
2C4
100
AcDbEntity
  8
BEZUGSACHSEN
100
AcDbLine
 62
7
  6
CONTINUOUS
 10
716.1893338386
 20
414.8683560673
 11
689.0045459564
 21
414.8683556469
  0
LINE
  5
2C5
100
AcDbEntity
  8
0
100
AcDbLine
 62
7
  6
CONTINUOUS
 10
728.3442919185
 20
371.3683556469
 11
737.0045459564
 21
356.3683556469
  0
LWPOLYLINE
  5
2C6
100
AcDbEntity
  8
RUNDUNGEN
100
AcDbPolyline
 62
7
  6
CONTINUOUS
 90
19
 70
0
 10
687.8063884788
 20
457.0720317043
 10
687.8631891696
 20
456.6740576051
 10
687.9466273644
 20
456.1961362484
 10
688.0417296631
 20
455.7564927807
 10
688.1490346405
 20
455.3522889577
 10
688.2694606273
 20
454.9801847497
 10
688.4041934197
 20
454.6372199955
 10
688.5549524005
 20
454.3202465361
 10
688.7230713302
 20
454.0279973773
 10
688.909816519
 20
453.7598049166
 10
689.1161830501
 20
453.5156905058
 10
689.3428415393
 20
453.2964398042
 10
689.5880481352
 20
453.1048723894
 10
689.8488951855
 20
452.9435053737
 10
690.1224655496
 20
452.8138402596
 10
690.4045540594
 20
452.7171081309
 10
690.6918218798
 20
452.6533359292
 10
690.9803395727
 20
452.6221044585
 10
691.1193194956
 20
452.6183639329
  0
LINE
  5
2C7
100
AcDbEntity
  8
RUNDUNGEN
100
AcDbLine
 62
7
  6
CONTINUOUS
 10
687.7128298515
 20
457.7807029112
 11
687.8064257847
 21
457.0717332366
  0
LINE
  5
2C8
100
AcDbEntity
  8
0
100
AcDbLine
 62
7
  6
CONTINUOUS
 10
697.0045459564
 20
547.3683556469
 11
697.0045459564
 21
536.3683556469
  0
LINE
  5
2C9
100
AcDbEntity
  8
0
100
AcDbLine
 62
7
  6
CONTINUOUS
 10
697.0045459564
 20
356.3683556469
 11
697.0045459564
 21
345.3683556469
  0
LINE
  5
2CA
100
AcDbEntity
  8
RUNDUNGEN
100
AcDbLine
 62
7
  6
CONTINUOUS
 10
746.9968089287
 20
423.2664304795
 11
747.2231357732
 21
423.3215897226
  0
LINE
  5
2CB
100
AcDbEntity
  8
BEZUGSACHSEN
100
AcDbLine
 62
7
  6
CONTINUOUS
 10
746.9968089287
 20
423.2664304795
 11
747.1599354825
 21
423.3060908291
  0
LINE
  5
2CC
100
AcDbEntity
  8
RUNDUNGEN
100
AcDbLine
 62
7
  6
CONTINUOUS
 10
746.7763451139
 20
423.2139468141
 11
746.9968089287
 21
423.2664304795
  0
LINE
  5
2CD
100
AcDbEntity
  8
BEZUGSACHSEN
100
AcDbLine
 62
7
  6
CONTINUOUS
 10
746.9968089287
 20
423.2664304795
 11
726.7968058119
 21
418.5129563761
  0
LINE
  5
2CE
100
AcDbEntity
  8
BEZUGSACHSEN
100
AcDbLine
 62
7
  6
CONTINUOUS
 10
747.15876606
 20
423.3108594172
 11
747.2231527493
 21
423.3216025469
  0
LINE
  5
2CF
100
AcDbEntity
  8
0
100
AcDbLine
 62
7
  6
CONTINUOUS
 10
710.0045459564
 20
521.3683556469
 11
710.0045459564
 21
477.8683556469
  0
LINE
  5
2D0
100
AcDbEntity
  8
0
100
AcDbLine
 62
7
  6
CONTINUOUS
 10
710.0045459564
 20
414.8683556469
 11
710.0045459564
 21
371.3683556469
  0
LWPOLYLINE
  5
2D1
100
AcDbEntity
  8
RUNDUNGEN
100
AcDbPolyline
 62
7
  6
CONTINUOUS
 90
19
 70
0
 10
691.1192392337
 20
440.1183472493
 10
690.9930462129
 20
440.11525087
 10
690.7041091088
 20
440.0853629176
 10
690.4163626393
 20
440.0228945254
 10
690.1336988922
 20
439.927411194
 10
689.8594472503
 20
439.7989193505
 10
689.5978083766
 20
439.6386146542
 10
689.3517000449
 20
439.4479573492
 10
689.1240853776
 20
439.2294559551
 10
688.9167474582
 20
438.9859169955
 10
688.7290676063
 20
438.7181614579
 10
688.5600821233
 20
438.4262439508
 10
688.4085379625
 20
438.1095122723
 10
688.273096846
 20
437.7666937079
 10
688.1520473068
 20
437.3946665453
 10
688.0442001514
 20
436.9904924294
 10
687.9486255352
 20
436.5508167375
 10
687.8647775769
 20
436.0728057646
 10
687.8063900428
 20
435.6646916181
  0
LINE
  5
2D2
100
AcDbEntity
  8
RUNDUNGEN
100
AcDbLine
 62
7
  6
CONTINUOUS
 10
734.5045882875
 20
440.1183556469
 11
691.1214727853
 21
440.1183556469
  0
LINE
  5
2D3
100
AcDbEntity
  8
0
100
AcDbLine
 62
7
  6
CONTINUOUS
 10
724.0045459564
 20
521.3683556469
 11
724.0045459564
 21
475.0154446466
  0
LINE
  5
2D4
100
AcDbEntity
  8
0
100
AcDbLine
 62
7
  6
CONTINUOUS
 10
724.0045459564
 20
417.7212670014
 11
724.0045459564
 21
371.3683556469
  0
LINE
  5
2D5
100
AcDbEntity
  8
RUNDUNGEN
100
AcDbLine
 62
7
  6
CONTINUOUS
 10
691.1214093489
 20
452.6183556469
 11
734.5045459567
 21
452.6183556469
  0
LWPOLYLINE
  5
2D6
100
AcDbEntity
  8
RUNDUNGEN
100
AcDbPolyline
 62
7
  6
CONTINUOUS
 90
3
 70
0
 10
731.0535178393
 20
451.7593152266
 10
731.0196458594
 20
452.2250485905
 10
730.9672132798
 20
452.6183556469
  0
LINE
  5
2D7
100
AcDbEntity
  8
RUNDUNGEN
100
AcDbLine
 62
7
  6
CONTINUOUS
 10
731.0858838173
 20
450.998270102
 11
731.0535250015
 21
451.7592704673
  0
LINE
  5
2D8
100
AcDbEntity
  8
RUNDUNGEN
100
AcDbLine
 62
7
  6
CONTINUOUS
 10
736.5045459564
 20
450.6183338305
 11
736.5045459564
 21
442.1183777508
  0
LWPOLYLINE
  5
2D9
100
AcDbEntity
  8
RUNDUNGEN
100
AcDbPolyline
 62
7
  6
CONTINUOUS
 90
12
 70
0
 10
731.0535251886
 20
440.9774447998
 10
731.0854669562
 20
441.7275318511
 10
731.1157408539
 20
442.6324635438
 10
731.1382998263
 20
443.551131291
 10
731.153802784
 20
444.4810992251
 10
731.1628478281
 20
445.420170325
 10
731.1658324385
 20
446.3637690466
 10
731.1629059608
 20
447.3073005409
 10
731.1539254869
 20
448.2461684692
 10
731.1384996036
 20
449.1757957581
 10
731.1160365388
 20
450.093977082
 10
731.0858838173
 20
450.998270102
  0
LWPOLYLINE
  5
2DA
100
AcDbEntity
  8
RUNDUNGEN
100
AcDbPolyline
 62
7
  6
CONTINUOUS
 90
3
 70
0
 10
730.9671016066
 20
440.1183556469
 10
731.0182791246
 20
440.4978774928
 10
731.0535184145
 20
440.9773952274
  0
LINE
  5
2DB
100
AcDbEntity
  8
0
100
AcDbLine
 62
7
  6
CONTINUOUS
 10
737.0045459564
 20
547.3683556469
 11
737.0045459564
 21
536.3683556469
  0
LINE
  5
2DC
100
AcDbEntity
  8
0
100
AcDbLine
 62
7
  6
CONTINUOUS
 10
737.0045459564
 20
356.3683556469
 11
737.0045459564
 21
345.3683556469
  0
LINE
  5
2DD
100
AcDbEntity
  8
0
100
AcDbLine
 62
7
  6
CONTINUOUS
 10
705.6647999942
 20
371.3683556469
 11
697.0045459564
 21
356.3683556469
  0
LWPOLYLINE
  5
2DE
100
AcDbEntity
  8
BEZUGSACHSEN
100
AcDbPolyline
 62
7
  6
CONTINUOUS
 90
9
 70
0
 10
721.0622852764
 20
416.5141999264
 10
721.5884664557
 20
416.7694051454
 10
722.2488285558
 20
417.0625982878
 10
722.947298068
 20
417.3444945821
 10
723.6814689797
 20
417.6137381319
 10
724.4489336276
 20
417.8691713939
 10
725.2472783859
 20
418.1097986776
 10
726.073797118
 20
418.3346865849
 10
726.7967864191
 20
418.5129517873
  0
LWPOLYLINE
  5
2DF
100
AcDbEntity
  8
RUNDUNGEN
100
AcDbPolyline
 62
7
  6
CONTINUOUS
 90
5
 70
0
 10
724.0045459564
 20
417.7212666472
 10
724.4489455159
 20
417.8691751606
 10
725.2473214478
 20
418.1098110152
 10
726.0738346128
 20
418.3346962631
 10
726.7967863776
 20
418.5129517776
  0
LINE
  5
2E0
100
AcDbEntity
  8
RUNDUNGEN
100
AcDbLine
 62
7
  6
CONTINUOUS
 10
747.15876606
 20
469.4258518766
 11
747.2231527493
 21
469.4151087468
  0
LINE
  5
2E1
100
AcDbEntity
  8
BEZUGSACHSEN
100
AcDbLine
 62
7
  6
CONTINUOUS
 10
746.9968089287
 20
469.4702808142
 11
746.7763451139
 21
469.5227644797
  0
LINE
  5
2E2
100
AcDbEntity
  8
RUNDUNGEN
100
AcDbLine
 62
7
  6
CONTINUOUS
 10
746.9968089287
 20
469.4702808142
 11
726.7968058119
 21
474.2237549177
  0
LINE
  5
2E3
100
AcDbEntity
  8
BEZUGSACHSEN
100
AcDbLine
 62
7
  6
CONTINUOUS
 10
747.2231357732
 20
469.4151215711
 11
746.9968089287
 21
469.4702808142
  0
LINE
  5
2E4
100
AcDbEntity
  8
RUNDUNGEN
100
AcDbLine
 62
7
  6
CONTINUOUS
 10
747.2231357732
 20
469.4151215711
 11
746.9968089287
 21
469.4702808142
  0
LINE
  5
2E5
100
AcDbEntity
  8
BEZUGSACHSEN
100
AcDbLine
 62
7
  6
CONTINUOUS
 10
726.7967864191
 20
474.2237595064
 11
726.0738176384
 21
474.4020196492
  0
LWPOLYLINE
  5
2E6
100
AcDbEntity
  8
RUNDUNGEN
100
AcDbPolyline
 62
7
  6
CONTINUOUS
 90
9
 70
0
 10
726.7967863776
 20
474.2237595162
 10
726.0738346128
 20
474.4020150306
 10
725.2473214478
 20
474.6269002785
 10
724.4489455159
 20
474.8675361332
 10
723.6814404925
 20
475.1229831169
 10
722.9472366053
 20
475.3922403612
 10
722.2487546754
 20
475.6741442821
 10
721.5884172068
 20
475.9673290873
 10
721.0622851758
 20
476.2225114182
  0
LWPOLYLINE
  5
2E7
100
AcDbEntity
  8
BEZUGSACHSEN
100
AcDbPolyline
 62
7
  6
CONTINUOUS
 90
4
 70
0
 10
726.073797118
 20
474.4020247088
 10
725.2472783859
 20
474.6269126162
 10
724.4489336276
 20
474.8675398999
 10
724.0045459564
 20
475.0154442923
  0
LWPOLYLINE
  5
2E8
100
AcDbEntity
  8
RUNDUNGEN
100
AcDbPolyline
 62
7
  6
CONTINUOUS
 90
9
 70
0
 10
721.0623512621
 20
476.2224780499
 10
720.2830565342
 20
476.6067157911
 10
719.5089979362
 20
476.9640533796
 10
718.8304196118
 20
477.2490956845
 10
718.2204453739
 20
477.4744460619
 10
717.6607533566
 20
477.647093149
 10
717.1304889384
 20
477.771754648
 10
716.605174243
 20
477.848198309
 10
716.1895901379
 20
477.8683548259
  0
LINE
  5
2E9
100
AcDbEntity
  8
0
100
AcDbLine
 62
7
  6
CONTINUOUS
 10
697.0045459564
 20
536.3683556469
 11
705.6647999942
 21
521.3683556469
  0
LINE
  5
2EA
100
AcDbEntity
  8
RUNDUNGEN
100
AcDbLine
 62
7
  6
CONTINUOUS
 10
754.4856873016
 20
454.3683556469
 11
754.4856873016
 21
438.3683556469
  0
LINE
  5
2EB
100
AcDbEntity
  8
RUNDUNGEN
100
AcDbLine
 62
7
  6
CONTINUOUS
 10
689.0045459564
 20
477.8683556469
 11
716.1880724058
 21
477.8683556469
  0
LINE
  5
2EC
100
AcDbEntity
  8
0
100
AcDbLine
 62
7
  6
CONTINUOUS
 10
691.3860202478
 20
477.8683556469
 11
716.1880724058
 21
477.8683556469
  0
LINE
  5
2ED
100
AcDbEntity
  8
0
100
AcDbLine
 62
7
  6
CONTINUOUS
 10
705.6649328642
 20
521.3683556469
 11
728.3441590485
 21
521.3683556469
  0
LINE
  5
2EE
100
AcDbEntity
  8
0
100
AcDbLine
 62
7
  6
CONTINUOUS
 10
697.0045459564
 20
536.3683556469
 11
737.0045459564
 21
536.3683556469
  0
LINE
  5
2EF
100
AcDbEntity
  8
0
100
AcDbLine
 62
7
  6
CONTINUOUS
 10
737.0045459564
 20
345.3683556469
 11
726.612241111
 21
339.3683556469
  0
LINE
  5
2F0
100
AcDbEntity
  8
0
100
AcDbLine
 62
7
  6
CONTINUOUS
 10
726.612241111
 20
553.3683556469
 11
737.0045459564
 21
547.3683556469
  0
LINE
  5
2F1
100
AcDbEntity
  8
0
100
AcDbLine
 62
7
  6
CONTINUOUS
 10
697.0045459564
 20
547.3683556469
 11
737.0045459564
 21
547.3683556469
  0
LINE
  5
2F2
100
AcDbEntity
  8
0
100
AcDbLine
 62
7
  6
CONTINUOUS
 10
707.3968508018
 20
553.3683556469
 11
726.612241111
 21
553.3683556469
  0
LINE
  5
2F3
100
AcDbEntity
  8
BEZUGSACHSEN
100
AcDbLine
 62
7
  6
CONTINUOUS
 10
26.9538044239
 20
137.6779460513
 11
29.6604705344
 21
153.0282123555
  0
LINE
  5
2F4
100
AcDbEntity
  8
RUNDUNGEN
100
AcDbLine
 62
7
  6
CONTINUOUS
 10
26.9538044239
 20
137.6779460513
 11
31.7093151614
 21
164.6477876398
  0
LINE
  5
2F5
100
AcDbEntity
  8
BEZUGSACHSEN
100
AcDbLine
 62
7
  6
CONTINUOUS
 10
38.837536803
 20
139.8975691297
 11
38.780182527
 21
139.794099277
  0
LINE
  5
2F6
100
AcDbEntity
  8
RUNDUNGEN
100
AcDbLine
 62
7
  6
CONTINUOUS
 10
49.912376778
 20
159.8771093268
 11
35.4188835565
 21
133.7301554144
  0
LINE
  5
2F7
100
AcDbEntity
  8
RUNDUNGEN
100
AcDbLine
 62
7
  6
CONTINUOUS
 10
163.449264316
 20
194.1809160001
 11
163.449264316
 21
146.1809160001
  0
LINE
  5
2F8
100
AcDbEntity
  8
RUNDUNGEN
100
AcDbLine
 62
7
  6
CONTINUOUS
 10
32.7000249017
 20
132.9505352406
 11
27.9538006895
 21
135.5814102817
  0
LINE
  5
2F9
100
AcDbEntity
  8
RUNDUNGEN
100
AcDbLine
 62
7
  6
CONTINUOUS
 10
170.449264316
 20
144.6809160001
 11
170.449264316
 21
195.6809160001
  0
LINE
  5
2FA
100
AcDbEntity
  8
RUNDUNGEN
100
AcDbLine
 62
7
  6
CONTINUOUS
 10
191.949264316
 20
193.1808172298
 11
191.949264316
 21
147.1809160001
  0
LINE
  5
2FB
100
AcDbEntity
  8
RUNDUNGEN
100
AcDbLine
 62
7
  6
CONTINUOUS
 10
196.449264316
 20
146.1809160002
 11
196.449264316
 21
147.2693938323
  0
LINE
  5
2FC
100
AcDbEntity
  8
0
100
AcDbLine
 62
7
  6
CONTINUOUS
 10
205.8774123228
 20
194.1809160001
 11
205.8774123228
 21
170.1809160001
  0
LINE
  5
2FD
100
AcDbEntity
  8
RUNDUNGEN
100
AcDbLine
 62
7
  6
CONTINUOUS
 10
205.8774123228
 20
170.1809160001
 11
205.8774123228
 21
147.2693938323
  0
LINE
  5
2FE
100
AcDbEntity
  8
0
100
AcDbLine
 62
7
  6
CONTINUOUS
 10
139.1424100665
 20
157.8377702496
 11
138.2024344922
 21
156.8977946753
  0
LINE
  5
2FF
100
AcDbEntity
  8
0
100
AcDbLine
 62
7
  6
CONTINUOUS
 10
139.1424100665
 20
182.5240617506
 11
137.8306473271
 21
183.83582449
  0
LWPOLYLINE
  5
300
100
AcDbEntity
  8
RUNDUNGEN
100
AcDbPolyline
 62
7
  6
CONTINUOUS
 90
5
 70
0
 10
218.4086166965
 20
153.6402193767
 10
218.4076561658
 20
153.6374127974
 10
218.4044794996
 20
153.6287277999
 10
218.4118096756
 20
153.6444989347
 10
218.4320688742
 20
153.6830157079
  0
LWPOLYLINE
  5
301
100
AcDbEntity
  8
RUNDUNGEN
100
AcDbPolyline
 62
7
  6
CONTINUOUS
 90
8
 70
0
 10
137.8391186768
 20
183.8273529289
 10
137.6557842552
 20
183.9960567257
 10
137.4285367772
 20
184.1704542135
 10
137.1856924454
 20
184.3223824925
 10
136.9294654293
 20
184.4504565271
 10
136.6621918906
 20
184.5535087803
 10
136.3863086818
 20
184.6305998557
 10
136.104370647
 20
184.6810219245
  0
LINE
  5
302
100
AcDbEntity
  8
0
100
AcDbLine
 62
7
  6
CONTINUOUS
 10
235.449264316
 20
189.1809160001
 11
235.449264316
 21
189.7553891731
  0
LINE
  5
303
100
AcDbEntity
  8
0
100
AcDbLine
 62
7
  6
CONTINUOUS
 10
243.449264316
 20
187.8444377328
 11
243.449264316
 21
188.488291563
  0
LINE
  5
304
100
AcDbEntity
  8
RUNDUNGEN
100
AcDbLine
 62
7
  6
CONTINUOUS
 10
218.4320688742
 20
153.6830157079
 11
218.4692409281
 21
153.7460801349
  0
LWPOLYLINE
  5
305
100
AcDbEntity
  8
RUNDUNGEN
100
AcDbPolyline
 62
7
  6
CONTINUOUS
 90
27
 70
0
 10
218.4668882868
 20
153.7422702135
 10
218.5172292409
 20
153.8201339606
 10
218.5843598104
 20
153.9156128846
 10
218.6690994339
 20
154.0274392611
 10
218.7725066837
 20
154.1549372735
 10
218.8955109335
 20
154.2973455359
 10
219.0390930987
 20
154.4539796909
 10
219.2046207696
 20
154.6245229899
 10
219.3914601496
 20
154.8065763559
 10
219.5992973667
 20
154.9981613687
 10
219.8267319672
 20
155.1964157177
 10
220.0720210998
 20
155.3983736638
 10
220.333280119
 20
155.6010730237
 10
220.608203569
 20
155.8014034753
 10
220.8941481737
 20
155.9962434448
 10
221.1876500346
 20
156.1822180592
 10
221.4865924567
 20
156.3571191451
 10
221.7870137256
 20
156.518014027
 10
222.0896260451
 20
156.6647933749
 10
222.3937765601
 20
156.7963967198
 10
222.7000579323
 20
156.9123317766
 10
223.0090653099
 20
157.0118407377
 10
223.3199782756
 20
157.0935801959
 10
223.6328643112
 20
157.1566417277
 10
223.94573859
 20
157.1998004229
 10
224.2573261801
 20
157.2225879726
 10
224.4492643161
 20
157.2264717497
  0
LINE
  5
306
100
AcDbEntity
  8
0
100
AcDbLine
 62
7
  6
CONTINUOUS
 10
251.449264316
 20
189.1809160001
 11
251.449264316
 21
189.7553891731
  0
LINE
  5
307
100
AcDbEntity
  8
RUNDUNGEN
100
AcDbLine
 62
7
  6
CONTINUOUS
 10
205.8775543472
 20
147.1794990625
 11
211.7291056772
 21
151.2775539983
  0
LINE
  5
308
100
AcDbEntity
  8
RUNDUNGEN
100
AcDbLine
 62
7
  6
CONTINUOUS
 10
211.7291056764
 20
151.2775538483
 11
211.758695586
 21
151.2981778472
  0
LINE
  5
309
100
AcDbEntity
  8
RUNDUNGEN
100
AcDbLine
 62
7
  6
CONTINUOUS
 10
211.758695586
 20
151.2981778472
 11
211.844097261
 21
151.3559604259
  0
LINE
  5
30A
100
AcDbEntity
  8
RUNDUNGEN
100
AcDbLine
 62
7
  6
CONTINUOUS
 10
211.8340169309
 20
151.3492725214
 11
211.9172499437
 21
151.4034202445
  0
LINE
  5
30B
100
AcDbEntity
  8
RUNDUNGEN
100
AcDbLine
 62
7
  6
CONTINUOUS
 10
211.9101950799
 20
151.3989565218
 11
211.9503605228
 21
151.4243698258
  0
LINE
  5
30C
100
AcDbEntity
  8
RUNDUNGEN
100
AcDbLine
 62
7
  6
CONTINUOUS
 10
211.950366755
 20
151.4243469301
 11
212.1487969405
 21
151.5415420445
  0
LINE
  5
30D
100
AcDbEntity
  8
RUNDUNGEN
100
AcDbLine
 62
7
  6
CONTINUOUS
 10
212.1380224977
 20
151.5355025659
 11
212.4765561463
 21
151.7068126152
  0
LINE
  5
30E
100
AcDbEntity
  8
0
100
AcDbLine
 62
7
  6
CONTINUOUS
 10
205.8774123228
 20
194.1809160001
 11
211.7267641191
 21
190.0851557787
  0
LINE
  5
30F
100
AcDbEntity
  8
RUNDUNGEN
100
AcDbLine
 62
7
  6
CONTINUOUS
 10
212.4651002251
 20
151.7015899126
 11
212.8218064971
 21
151.8476580782
  0
LINE
  5
310
100
AcDbEntity
  8
0
100
AcDbLine
 62
7
  6
CONTINUOUS
 10
305.2856958023
 20
189.3015307586
 11
305.9966618616
 21
189.5603012417
  0
LINE
  5
311
100
AcDbEntity
  8
RUNDUNGEN
100
AcDbLine
 62
7
  6
CONTINUOUS
 10
212.8097208931
 20
151.8432615284
 11
213.1828925116
 21
151.9630949118
  0
LINE
  5
312
100
AcDbEntity
  8
RUNDUNGEN
100
AcDbLine
 62
7
  6
CONTINUOUS
 10
165.449264316
 20
144.1809160001
 11
169.949264316
 21
144.1809160001
  0
LINE
  5
313
100
AcDbEntity
  8
BEZUGSACHSEN
100
AcDbLine
 62
7
  6
CONTINUOUS
 10
165.449264316
 20
144.1809160001
 11
169.949264316
 21
144.1809160001
  0
LINE
  5
314
100
AcDbEntity
  8
0
100
AcDbLine
 62
7
  6
CONTINUOUS
 10
192.949264316
 20
146.1809160001
 11
196.449264316
 21
146.1809160001
  0
LINE
  5
315
100
AcDbEntity
  8
RUNDUNGEN
100
AcDbLine
 62
7
  6
CONTINUOUS
 10
205.8726840643
 20
147.1786873463
 11
196.449264316
 21
147.1786873463
  0
LWPOLYLINE
  5
316
100
AcDbEntity
  8
RUNDUNGEN
100
AcDbPolyline
 62
7
  6
CONTINUOUS
 90
11
 70
0
 10
135.8386747611
 20
156.0294833895
 10
136.0982471241
 20
156.0196754817
 10
136.3576949863
 20
156.032358574
 10
136.6150732437
 20
156.0674376047
 10
136.8684522793
 20
156.1246496028
 10
137.1159324549
 20
156.2035656566
 10
137.3556583852
 20
156.3035941425
 10
137.5858328108
 20
156.4239851548
 10
137.8047300694
 20
156.5638361217
 10
138.0107090447
 20
156.7220985766
 10
138.202948786
 20
156.898309088
  0
LINE
  5
317
100
AcDbEntity
  8
RUNDUNGEN
100
AcDbLine
 62
7
  6
CONTINUOUS
 10
305.3454014674
 20
156.9160456435
 11
305.7253944252
 21
156.7084452486
  0
LINE
  5
318
100
AcDbEntity
  8
RUNDUNGEN
100
AcDbLine
 62
7
  6
CONTINUOUS
 10
305.0004011147
 20
157.106326087
 11
305.3512463696
 21
156.9128436936
  0
LINE
  5
319
100
AcDbEntity
  8
RUNDUNGEN
100
AcDbLine
 62
7
  6
CONTINUOUS
 10
313.3296056893
 20
153.3334166592
 11
313.3998397563
 21
153.2373967168
  0
LINE
  5
31A
100
AcDbEntity
  8
RUNDUNGEN
100
AcDbLine
 62
7
  6
CONTINUOUS
 10
313.3967992981
 20
153.2417380635
 11
313.4482033179
 21
153.1652546018
  0
LWPOLYLINE
  5
31B
100
AcDbEntity
  8
RUNDUNGEN
100
AcDbPolyline
 62
7
  6
CONTINUOUS
 90
3
 70
0
 10
313.4460391574
 20
153.168634451
 10
313.4790035339
 20
153.1148498745
 10
313.4888810331
 20
153.0974018479
  0
LINE
  5
31C
100
AcDbEntity
  8
RUNDUNGEN
100
AcDbLine
 62
7
  6
CONTINUOUS
 10
313.449264316
 20
153.1633722919
 11
313.449264316
 21
152.6809912526
  0
LINE
  5
31D
100
AcDbEntity
  8
RUNDUNGEN
100
AcDbLine
 62
7
  6
CONTINUOUS
 10
349.8661554982
 20
156.2289963833
 11
350.2251434192
 21
156.3232112511
  0
LINE
  5
31E
100
AcDbEntity
  8
RUNDUNGEN
100
AcDbLine
 62
7
  6
CONTINUOUS
 10
350.2147858508
 20
156.3208167663
 11
350.5735471642
 21
156.3923387557
  0
LWPOLYLINE
  5
31F
100
AcDbEntity
  8
RUNDUNGEN
100
AcDbPolyline
 62
7
  6
CONTINUOUS
 90
7
 70
0
 10
522.79415798
 20
184.6810219248
 10
522.5122198911
 20
184.6305998438
 10
522.2363366218
 20
184.5535087431
 10
521.9690630497
 20
184.4504564629
 10
521.7128360256
 20
184.3223824066
 10
521.4699917084
 20
184.1704541178
 10
521.2427442637
 20
183.9960566377
  0
LINE
  5
320
100
AcDbEntity
  8
RUNDUNGEN
100
AcDbLine
 62
7
  6
CONTINUOUS
 10
350.5628443014
 20
156.3905488788
 11
350.9177006408
 21
156.4384818232
  0
LINE
  5
321
100
AcDbEntity
  8
RUNDUNGEN
100
AcDbLine
 62
7
  6
CONTINUOUS
 10
213.9310800569
 20
152.1121783444
 11
214.3403680584
 21
152.1471615257
  0
LINE
  5
322
100
AcDbEntity
  8
RUNDUNGEN
100
AcDbLine
 62
7
  6
CONTINUOUS
 10
350.9067692509
 20
156.4373583932
 11
351.2535036565
 21
156.4618656954
  0
LINE
  5
323
100
AcDbEntity
  8
RUNDUNGEN
100
AcDbLine
 62
7
  6
CONTINUOUS
 10
214.3277175097
 20
152.1465547478
 11
214.594646301
 21
152.1531387391
  0
LINE
  5
324
100
AcDbEntity
  8
RUNDUNGEN
100
AcDbLine
 62
7
  6
CONTINUOUS
 10
351.2425392869
 20
156.4614443307
 11
351.4492643163
 21
156.4655434553
  0
LINE
  5
325
100
AcDbEntity
  8
0
100
AcDbLine
 62
7
  6
CONTINUOUS
 10
315.449264316
 20
150.6809160001
 11
325.0512235861
 21
150.6809160001
  0
LINE
  5
326
100
AcDbEntity
  8
0
100
AcDbLine
 62
7
  6
CONTINUOUS
 10
333.8473050459
 20
150.6809160001
 11
343.449264316
 21
150.6809160001
  0
LINE
  5
327
100
AcDbEntity
  8
0
100
AcDbLine
 62
7
  6
CONTINUOUS
 10
446.4833318029
 20
150.6809160001
 11
466.949264316
 21
150.6809160001
  0
LINE
  5
328
100
AcDbEntity
  8
0
100
AcDbLine
 62
7
  6
CONTINUOUS
 10
442.449264316
 20
151.1809160001
 11
444.3038823312
 21
151.1809160001
  0
LINE
  5
329
100
AcDbEntity
  8
RUNDUNGEN
100
AcDbLine
 62
7
  6
CONTINUOUS
 10
214.594646301
 20
152.1531382224
 11
216.4770847942
 21
152.1531382224
  0
LINE
  5
32A
100
AcDbEntity
  8
RUNDUNGEN
100
AcDbLine
 62
7
  6
CONTINUOUS
 10
306.6807021482
 20
156.4655414863
 11
307.4492648976
 21
156.4655414863
  0
LINE
  5
32B
100
AcDbEntity
  8
RUNDUNGEN
100
AcDbLine
 62
7
  6
CONTINUOUS
 10
351.449264316
 20
156.4655414863
 11
352.2178264838
 21
156.4655414863
  0
LINE
  5
32C
100
AcDbEntity
  8
RUNDUNGEN
100
AcDbLine
 62
7
  6
CONTINUOUS
 10
224.449264316
 20
157.22646485
 11
304.6016536743
 21
157.22646485
  0
LINE
  5
32D
100
AcDbEntity
  8
RUNDUNGEN
100
AcDbLine
 62
7
  6
CONTINUOUS
 10
354.2968731163
 20
157.22646485
 11
434.4492634428
 21
157.22646485
  0
LINE
  5
32E
100
AcDbEntity
  8
0
100
AcDbLine
 62
7
  6
CONTINUOUS
 10
191.949264316
 20
160.1809160001
 11
170.449264316
 21
160.1809160001
  0
LINE
  5
32F
100
AcDbEntity
  8
0
100
AcDbLine
 62
7
  6
CONTINUOUS
 10
163.449264316
 20
160.1809160001
 11
144.799264316
 21
160.1809160001
  0
LINE
  5
330
100
AcDbEntity
  8
0
100
AcDbLine
 62
7
  6
CONTINUOUS
 10
467.949264316
 20
160.1809160001
 11
514.099264316
 21
160.1809160001
  0
LWPOLYLINE
  5
331
100
AcDbEntity
  8
RUNDUNGEN
100
AcDbPolyline
 62
7
  6
CONTINUOUS
 90
24
 70
0
 10
307.4492649009
 20
156.4655433917
 10
307.6450937233
 20
156.4618652227
 10
307.9808022469
 20
156.4384829605
 10
308.3246178746
 20
156.3924000006
 10
308.6725447619
 20
156.3234047739
 10
309.0210440299
 20
156.2323190079
 10
309.3666346644
 20
156.1209172494
 10
309.7052220851
 20
155.9920279354
 10
310.0357871553
 20
155.8478516872
 10
310.3567822142
 20
155.6908950134
 10
310.6674312515
 20
155.5233241683
 10
310.9672735718
 20
155.3470283297
 10
311.2551082753
 20
155.1642394502
 10
311.5302144371
 20
154.976844967
 10
311.7915694077
 20
154.7868650394
 10
312.0387499949
 20
154.595811086
 10
312.2696949557
 20
154.4064476966
 10
312.4832559158
 20
154.2209186376
 10
312.6775767419
 20
154.0421091702
 10
312.8514938778
 20
153.8724762144
 10
313.0039377306
 20
153.7146130852
 10
313.1342954347
 20
153.5709155336
 10
313.2427691437
 20
153.4431651136
 10
313.3296056893
 20
153.3334166592
  0
LWPOLYLINE
  5
332
100
AcDbEntity
  8
RUNDUNGEN
100
AcDbPolyline
 62
7
  6
CONTINUOUS
 90
24
 70
0
 10
434.4492634402
 20
157.2264718501
 10
434.6502685191
 20
157.222212221
 10
434.9819564828
 20
157.1966318574
 10
435.3165665606
 20
157.1477220352
 10
435.6517816205
 20
157.0760164326
 10
435.9852726235
 20
156.9829096206
 10
436.3144903881
 20
156.8704040307
 10
436.6364274675
 20
156.7414139947
 10
436.9507231597
 20
156.5979389875
 10
437.2566549862
 20
156.4421518182
 10
437.5541480852
 20
156.2757484401
 10
437.8433794582
 20
156.1000082324
 10
438.1235597057
 20
155.9166860356
 10
438.3942245092
 20
155.7272163286
 10
438.654689509
 20
155.5330649955
 10
438.9049261019
 20
155.3350760568
 10
439.142344966
 20
155.1361056815
 10
439.3657515664
 20
154.9379928285
 10
439.571731653
 20
154.7447029529
 10
439.7581831952
 20
154.5594323747
 10
439.9231444837
 20
154.3855969991
 10
440.0650877435
 20
154.2265698476
 10
440.1843270706
 20
154.0840762556
 10
440.280856838
 20
153.9605345374
  0
LWPOLYLINE
  5
333
100
AcDbEntity
  8
RUNDUNGEN
100
AcDbPolyline
 62
7
  6
CONTINUOUS
 90
9
 70
0
 10
304.60165367
 20
157.2264647361
 10
304.6482602655
 20
157.2245984337
 10
304.7016181019
 20
157.2179456933
 10
304.7552727148
 20
157.2067094314
 10
304.8101553801
 20
157.190854975
 10
304.8650519965
 20
157.1709524805
 10
304.9205325958
 20
157.1470335326
 10
304.9769574006
 20
157.1190093891
 10
305.0003920889
 20
157.1063217922
  0
LINE
  5
334
100
AcDbEntity
  8
RUNDUNGEN
100
AcDbLine
 62
7
  6
CONTINUOUS
 10
345.449264316
 20
153.1634921702
 11
345.449264316
 21
152.6809160001
  0
LWPOLYLINE
  5
335
100
AcDbEntity
  8
RUNDUNGEN
100
AcDbPolyline
 62
7
  6
CONTINUOUS
 90
5
 70
0
 10
345.3954465975
 20
153.0700918997
 10
345.3948474806
 20
153.0686839664
 10
345.4003541593
 20
153.0799606793
 10
345.4183247974
 20
153.1127739539
 10
345.4506359373
 20
153.1657406275
  0
LINE
  5
336
100
AcDbEntity
  8
RUNDUNGEN
100
AcDbLine
 62
7
  6
CONTINUOUS
 10
345.4506359373
 20
153.1657406275
 11
345.5011918383
 21
153.2409697605
  0
LINE
  5
337
100
AcDbEntity
  8
RUNDUNGEN
100
AcDbLine
 62
7
  6
CONTINUOUS
 10
345.4991884548
 20
153.2381135278
 11
345.5681602524
 21
153.3324102917
  0
LINE
  5
338
100
AcDbEntity
  8
RUNDUNGEN
100
AcDbLine
 62
7
  6
CONTINUOUS
 10
345.5656396741
 20
153.3290971065
 11
345.6547158233
 21
153.4418923332
  0
LINE
  5
339
100
AcDbEntity
  8
RUNDUNGEN
100
AcDbLine
 62
7
  6
CONTINUOUS
 10
345.6516842826
 20
153.4381844619
 11
345.7628427115
 21
153.5693281016
  0
LINE
  5
33A
100
AcDbEntity
  8
RUNDUNGEN
100
AcDbLine
 62
7
  6
CONTINUOUS
 10
345.7593011243
 20
153.5652873984
 11
345.8927840782
 21
153.7126796496
  0
LINE
  5
33B
100
AcDbEntity
  8
RUNDUNGEN
100
AcDbLine
 62
7
  6
CONTINUOUS
 10
345.8887645305
 20
153.7083792677
 11
346.0447478322
 21
153.8701766815
  0
LINE
  5
33C
100
AcDbEntity
  8
RUNDUNGEN
100
AcDbLine
 62
7
  6
CONTINUOUS
 10
346.0403106516
 20
153.8657089352
 11
346.2181648344
 21
154.0394657406
  0
LINE
  5
33D
100
AcDbEntity
  8
RUNDUNGEN
100
AcDbLine
 62
7
  6
CONTINUOUS
 10
346.2133428903
 20
154.0348905711
 11
346.4119892889
 21
154.2179807686
  0
LINE
  5
33E
100
AcDbEntity
  8
RUNDUNGEN
100
AcDbLine
 62
7
  6
CONTINUOUS
 10
346.4068169074
 20
154.2133471838
 11
346.6251014036
 21
154.4032942242
  0
LINE
  5
33F
100
AcDbEntity
  8
RUNDUNGEN
100
AcDbLine
 62
7
  6
CONTINUOUS
 10
346.619595759
 20
154.3986388601
 11
346.8556991203
 21
154.5925602774
  0
LINE
  5
340
100
AcDbEntity
  8
RUNDUNGEN
100
AcDbLine
 62
7
  6
CONTINUOUS
 10
346.8498612478
 20
154.5879022788
 11
347.1026483047
 21
154.7836297773
  0
LINE
  5
341
100
AcDbEntity
  8
RUNDUNGEN
100
AcDbLine
 62
7
  6
CONTINUOUS
 10
347.0964712841
 20
154.7789889986
 11
347.3639127903
 21
154.9737436416
  0
LINE
  5
342
100
AcDbEntity
  8
RUNDUNGEN
100
AcDbLine
 62
7
  6
CONTINUOUS
 10
347.3573859256
 20
154.9691385577
 11
347.6390611199
 21
155.1613678243
  0
LINE
  5
343
100
AcDbEntity
  8
RUNDUNGEN
100
AcDbLine
 62
7
  6
CONTINUOUS
 10
347.6321675638
 20
155.1568203029
 11
347.9270561817
 21
155.3444574947
  0
LINE
  5
344
100
AcDbEntity
  8
RUNDUNGEN
100
AcDbLine
 62
7
  6
CONTINUOUS
 10
347.9197836521
 20
155.3399987421
 11
348.2271714118
 21
155.5211083364
  0
LWPOLYLINE
  5
345
100
AcDbEntity
  8
RUNDUNGEN
100
AcDbPolyline
 62
7
  6
CONTINUOUS
 90
9
 70
0
 10
353.5414271017
 20
156.9096231247
 10
353.9086314002
 20
157.1120788483
 10
353.9655020037
 20
157.141142896
 10
354.0214100906
 20
157.1660667105
 10
354.0767784997
 20
157.1869769243
 10
354.1321350116
 20
157.2038410723
 10
354.1863240823
 20
157.2160787423
 10
354.2402581002
 20
157.2237115099
 10
354.2968731148
 20
157.2264648955
  0
LINE
  5
346
100
AcDbEntity
  8
RUNDUNGEN
100
AcDbLine
 62
7
  6
CONTINUOUS
 10
353.1731342048
 20
156.7084452477
 11
353.5472859117
 21
156.9128456967
  0
LINE
  5
347
100
AcDbEntity
  8
RUNDUNGEN
100
AcDbLine
 62
7
  6
CONTINUOUS
 10
348.219502713
 20
155.5167727488
 11
348.5381987923
 21
155.6890690638
  0
LINE
  5
348
100
AcDbEntity
  8
RUNDUNGEN
100
AcDbLine
 62
7
  6
CONTINUOUS
 10
348.5301132089
 20
155.6848967341
 11
348.8596561055
 21
155.8464221706
  0
LINE
  5
349
100
AcDbEntity
  8
RUNDUNGEN
100
AcDbLine
 62
7
  6
CONTINUOUS
 10
348.8511340083
 20
155.8424653372
 11
349.1907354625
 21
155.9909742984
  0
LINE
  5
34A
100
AcDbEntity
  8
RUNDUNGEN
100
AcDbLine
 62
7
  6
CONTINUOUS
 10
349.1817624326
 20
155.9872954487
 11
349.5298803421
 21
156.1202079302
  0
LINE
  5
34B
100
AcDbEntity
  8
RUNDUNGEN
100
AcDbLine
 62
7
  6
CONTINUOUS
 10
349.5204472194
 20
156.1168755412
 11
349.8760748124
 21
156.2319086357
  0
LINE
  5
34C
100
AcDbEntity
  8
RUNDUNGEN
100
AcDbLine
 62
7
  6
CONTINUOUS
 10
213.1703150927
 20
151.959584733
 11
213.5574398267
 21
152.0520699441
  0
LINE
  5
34D
100
AcDbEntity
  8
RUNDUNGEN
100
AcDbLine
 62
7
  6
CONTINUOUS
 10
213.5445932574
 20
152.0495140691
 11
213.9439260147
 21
152.1137624471
  0
LINE
  5
34E
100
AcDbEntity
  8
RUNDUNGEN
100
AcDbLine
 62
7
  6
CONTINUOUS
 10
99.4492674452
 20
170.1809160001
 11
67.4047704099
 21
170.1809160001
  0
LINE
  5
34F
100
AcDbEntity
  8
BEZUGSACHSEN
100
AcDbLine
 62
7
  6
CONTINUOUS
 10
559.4492611868
 20
170.1809160001
 11
591.4937582221
 21
170.1809160001
  0
LINE
  5
350
100
AcDbEntity
  8
0
100
AcDbLine
 62
7
  6
CONTINUOUS
 10
191.949264316
 20
175.1809160001
 11
170.449264316
 21
175.1809160001
  0
LINE
  5
351
100
AcDbEntity
  8
0
100
AcDbLine
 62
7
  6
CONTINUOUS
 10
163.449264316
 20
175.1809160001
 11
143.9684963758
 21
175.1809160001
  0
LINE
  5
352
100
AcDbEntity
  8
0
100
AcDbLine
 62
7
  6
CONTINUOUS
 10
191.949264316
 20
178.841170038
 11
170.449264316
 21
178.841170038
  0
LINE
  5
353
100
AcDbEntity
  8
0
100
AcDbLine
 62
7
  6
CONTINUOUS
 10
163.449264316
 20
178.841170038
 11
148.799264316
 21
178.841170038
  0
LINE
  5
354
100
AcDbEntity
  8
0
100
AcDbLine
 62
7
  6
CONTINUOUS
 10
191.949264316
 20
180.1809160001
 11
170.449264316
 21
180.1809160001
  0
LINE
  5
355
100
AcDbEntity
  8
0
100
AcDbLine
 62
7
  6
CONTINUOUS
 10
163.449264316
 20
180.1809160001
 11
144.799264316
 21
180.1809160001
  0
LINE
  5
356
100
AcDbEntity
  8
0
100
AcDbLine
 62
7
  6
CONTINUOUS
 10
467.949264316
 20
180.1809160001
 11
514.099264316
 21
180.1809160001
  0
LINE
  5
357
100
AcDbEntity
  8
RUNDUNGEN
100
AcDbLine
 62
7
  6
CONTINUOUS
 10
385.4491931885
 20
187.6809160001
 11
359.4492488499
 21
187.6809160001
  0
LINE
  5
358
100
AcDbEntity
  8
0
100
AcDbLine
 62
7
  6
CONTINUOUS
 10
359.949264316
 20
188.3809160001
 11
367.749264316
 21
188.3809160001
  0
LINE
  5
359
100
AcDbEntity
  8
0
100
AcDbLine
 62
7
  6
CONTINUOUS
 10
368.949264316
 20
188.3809160001
 11
376.149264316
 21
188.3809160001
  0
LINE
  5
35A
100
AcDbEntity
  8
0
100
AcDbLine
 62
7
  6
CONTINUOUS
 10
377.949264316
 20
188.3809160001
 11
385.299264316
 21
188.3809160001
  0
LINE
  5
35B
100
AcDbEntity
  8
0
100
AcDbLine
 62
7
  6
CONTINUOUS
 10
214.5946463009
 20
189.1809160001
 11
236.4492327781
 21
189.1809160001
  0
LINE
  5
35C
100
AcDbEntity
  8
0
100
AcDbLine
 62
7
  6
CONTINUOUS
 10
250.449295854
 20
189.1809160001
 11
304.6016555157
 21
189.1809160001
  0
LINE
  5
35D
100
AcDbEntity
  8
0
100
AcDbLine
 62
7
  6
CONTINUOUS
 10
354.2968731163
 20
189.1809160001
 11
356.3310865047
 21
189.1809160001
  0
LINE
  5
35E
100
AcDbEntity
  8
0
100
AcDbLine
 62
7
  6
CONTINUOUS
 10
388.5672994301
 20
189.1809160001
 11
444.3038823312
 21
189.1809160001
  0
LINE
  5
35F
100
AcDbEntity
  8
0
100
AcDbLine
 62
7
  6
CONTINUOUS
 10
250.4434409231
 20
189.7801242803
 11
251.449264316
 21
189.7553891731
  0
LINE
  5
360
100
AcDbEntity
  8
0
100
AcDbLine
 62
7
  6
CONTINUOUS
 10
359.949264316
 20
187.6809160001
 11
359.949264316
 21
188.3809160001
  0
LINE
  5
361
100
AcDbEntity
  8
0
100
AcDbLine
 62
7
  6
CONTINUOUS
 10
361.449264316
 20
187.6809160001
 11
361.449264316
 21
188.3809160001
  0
LINE
  5
362
100
AcDbEntity
  8
0
100
AcDbLine
 62
7
  6
CONTINUOUS
 10
366.0172135084
 20
187.6809160001
 11
366.0172135084
 21
188.3809160001
  0
LINE
  5
363
100
AcDbEntity
  8
0
100
AcDbLine
 62
7
  6
CONTINUOUS
 10
367.749264316
 20
187.6809160001
 11
367.749264316
 21
188.3809160001
  0
LINE
  5
364
100
AcDbEntity
  8
0
100
AcDbLine
 62
7
  6
CONTINUOUS
 10
368.949264316
 20
187.6809160001
 11
368.949264316
 21
188.3809160001
  0
LINE
  5
365
100
AcDbEntity
  8
0
100
AcDbLine
 62
7
  6
CONTINUOUS
 10
235.449264316
 20
189.7553891731
 11
236.4550816108
 21
189.7801256866
  0
LINE
  5
366
100
AcDbEntity
  8
0
100
AcDbLine
 62
7
  6
CONTINUOUS
 10
306.6807021482
 20
189.6809160001
 11
325.0512235861
 21
189.6809160001
  0
LINE
  5
367
100
AcDbEntity
  8
0
100
AcDbLine
 62
7
  6
CONTINUOUS
 10
333.8473050459
 20
189.6809160001
 11
352.2178264838
 21
189.6809160001
  0
LINE
  5
368
100
AcDbEntity
  8
0
100
AcDbLine
 62
7
  6
CONTINUOUS
 10
446.4833318029
 20
189.6809160001
 11
466.949264316
 21
189.6809160001
  0
LINE
  5
369
100
AcDbEntity
  8
0
100
AcDbLine
 62
7
  6
CONTINUOUS
 10
236.4486942765
 20
189.7809160001
 11
250.4498344315
 21
189.7809160001
  0
LINE
  5
36A
100
AcDbEntity
  8
0
100
AcDbLine
 62
7
  6
CONTINUOUS
 10
192.949264316
 20
194.1809160001
 11
205.8774123228
 21
194.1809160001
  0
LINE
  5
36B
100
AcDbEntity
  8
RUNDUNGEN
100
AcDbLine
 62
7
  6
CONTINUOUS
 10
165.449264316
 20
196.1809160001
 11
169.949264316
 21
196.1809160001
  0
LINE
  5
36C
100
AcDbEntity
  8
BEZUGSACHSEN
100
AcDbLine
 62
7
  6
CONTINUOUS
 10
165.449264316
 20
196.1809160001
 11
169.949264316
 21
196.1809160001
  0
LINE
  5
36D
100
AcDbEntity
  8
RUNDUNGEN
100
AcDbLine
 62
7
  6
CONTINUOUS
 10
562.1287562403
 20
200.1809160001
 11
559.449264316
 21
200.1809160001
  0
LINE
  5
36E
100
AcDbEntity
  8
BEZUGSACHSEN
100
AcDbLine
 62
7
  6
CONTINUOUS
 10
584.8424800911
 20
200.1809160001
 11
559.449264316
 21
200.1809160001
  0
LINE
  5
36F
100
AcDbEntity
  8
RUNDUNGEN
100
AcDbLine
 62
7
  6
CONTINUOUS
 10
74.056048541
 20
200.1809160001
 11
99.449264316
 21
200.1809160001
  0
LINE
  5
370
100
AcDbEntity
  8
0
100
AcDbLine
 62
7
  6
CONTINUOUS
 10
352.9018667704
 20
189.5603012417
 11
353.6128328297
 21
189.3015307586
  0
LWPOLYLINE
  5
371
100
AcDbEntity
  8
RUNDUNGEN
100
AcDbPolyline
 62
7
  6
CONTINUOUS
 90
11
 70
0
 10
357.8880141917
 20
188.4309159795
 10
357.758792949
 20
188.5770876231
 10
357.6158696979
 20
188.7100362078
 10
357.4606578152
 20
188.8284253113
 10
357.2946342399
 20
188.9311243726
 10
357.1193794112
 20
189.0171520995
 10
356.9365618181
 20
189.0856860376
 10
356.7479225482
 20
189.1360701723
 10
356.5552587212
 20
189.1678212861
 10
356.360406305
 20
189.1806336664
 10
356.3267637519
 20
189.1809166416
  0
LINE
  5
372
100
AcDbEntity
  8
0
100
AcDbLine
 62
7
  6
CONTINUOUS
 10
376.149264316
 20
187.6809160001
 11
376.149264316
 21
188.3809160001
  0
LINE
  5
373
100
AcDbEntity
  8
0
100
AcDbLine
 62
7
  6
CONTINUOUS
 10
377.949264316
 20
187.6809160001
 11
377.949264316
 21
188.3809160001
  0
LINE
  5
374
100
AcDbEntity
  8
0
100
AcDbLine
 62
7
  6
CONTINUOUS
 10
385.299264316
 20
187.6809160001
 11
385.299264316
 21
188.3809160001
  0
LINE
  5
375
100
AcDbEntity
  8
RUNDUNGEN
100
AcDbLine
 62
7
  6
CONTINUOUS
 10
440.280856838
 20
153.9605345374
 11
440.3598823835
 21
153.8514388668
  0
LWPOLYLINE
  5
376
100
AcDbEntity
  8
RUNDUNGEN
100
AcDbPolyline
 62
7
  6
CONTINUOUS
 90
4
 70
0
 10
440.3570916401
 20
153.8554532974
 10
440.4149241527
 20
153.7689195551
 10
440.4556614117
 20
153.7020747369
 10
440.4686817395
 20
153.6789942493
  0
LINE
  5
377
100
AcDbEntity
  8
RUNDUNGEN
100
AcDbLine
 62
7
  6
CONTINUOUS
 10
440.449264316
 20
153.7125715821
 11
440.449264316
 21
153.1809978921
  0
LINE
  5
378
100
AcDbEntity
  8
0
100
AcDbLine
 62
7
  6
CONTINUOUS
 10
446.4833318029
 20
189.6809160001
 11
446.4833318029
 21
150.6809160001
  0
LINE
  5
379
100
AcDbEntity
  8
0
100
AcDbLine
 62
7
  6
CONTINUOUS
 10
519.7561185655
 20
182.5240617506
 11
521.0678803522
 21
183.8358235373
  0
LINE
  5
37A
100
AcDbEntity
  8
RUNDUNGEN
100
AcDbLine
 62
7
  6
CONTINUOUS
 10
521.2427442637
 20
183.9960566377
 11
521.059409943
 21
183.8273529263
  0
LWPOLYLINE
  5
37B
100
AcDbEntity
  8
RUNDUNGEN
100
AcDbPolyline
 62
7
  6
CONTINUOUS
 90
11
 70
0
 10
520.6955798513
 20
156.898309087
 10
520.8878196289
 20
156.722098545
 10
521.0937986158
 20
156.563836087
 10
521.3126958845
 20
156.4239851201
 10
521.5428703183
 20
156.3035941106
 10
521.7825962541
 20
156.2035656294
 10
522.0300764325
 20
156.1246495818
 10
522.2834554684
 20
156.0674375905
 10
522.5408337227
 20
156.0323585669
 10
522.800281578
 20
156.0196754811
 10
523.0598539305
 20
156.0294833938
  0
LINE
  5
37C
100
AcDbEntity
  8
RUNDUNGEN
100
AcDbLine
 62
7
  6
CONTINUOUS
 10
467.949264316
 20
151.6809160001
 11
467.949264316
 21
188.6809160001
  0
LINE
  5
37D
100
AcDbEntity
  8
0
100
AcDbLine
 62
7
  6
CONTINUOUS
 10
519.7561185655
 20
157.8377702496
 11
520.6961040027
 21
156.8977848124
  0
LINE
  5
37E
100
AcDbEntity
  8
BEZUGSACHSEN
100
AcDbLine
 62
7
  6
CONTINUOUS
 10
626.1985037303
 20
132.9505352406
 11
630.9447279426
 21
135.5814102817
  0
LINE
  5
37F
100
AcDbEntity
  8
BEZUGSACHSEN
100
AcDbLine
 62
7
  6
CONTINUOUS
 10
608.986151854
 20
159.8771093268
 11
623.4796450755
 21
133.7301554144
  0
LINE
  5
380
100
AcDbEntity
  8
RUNDUNGEN
100
AcDbLine
 62
7
  6
CONTINUOUS
 10
620.0609918291
 20
139.8975691297
 11
620.118346105
 21
139.794099277
  0
LINE
  5
381
100
AcDbEntity
  8
BEZUGSACHSEN
100
AcDbLine
 62
7
  6
CONTINUOUS
 10
631.9447242081
 20
137.6779460513
 11
627.1892134706
 21
164.6477876398
  0
LINE
  5
382
100
AcDbEntity
  8
RUNDUNGEN
100
AcDbLine
 62
7
  6
CONTINUOUS
 10
631.9447242081
 20
137.6779460513
 11
627.1892134706
 21
164.6477876398
  0
ARC
  5
383
100
AcDbEntity
  8
BEZUGSACHSEN
100
AcDbCircle
 62
7
  6
CONTINUOUS
 10
134.6861245952
 20
412.1183556469
 40
20.0
100
AcDbArc
 50
89.9999962537
 51
120.0000044463
  0
ARC
  5
384
100
AcDbEntity
  8
BEZUGSACHSEN
100
AcDbCircle
 62
7
  6
CONTINUOUS
 10
96.7697723917
 20
424.8683556469
 40
10.0
100
AcDbArc
 50
270.0
 51
299.9999940354
  0
ARC
  5
385
100
AcDbEntity
  8
RUNDUNGEN
100
AcDbCircle
 62
7
  6
CONTINUOUS
 10
165.449264316
 20
422.3683556469
 40
2.0
100
AcDbArc
 50
179.9999984885
 51
270.0
  0
ARC
  5
386
100
AcDbEntity
  8
RUNDUNGEN
100
AcDbCircle
 62
7
  6
CONTINUOUS
 10
169.949264316
 20
420.8683556469
 40
0.5
100
AcDbArc
 50
270.0
 51
360.0
  0
ARC
  5
387
100
AcDbEntity
  8
BEZUGSACHSEN
100
AcDbCircle
 62
7
  6
CONTINUOUS
 10
60.2861730116
 20
434.8683556469
 40
20.0
100
AcDbArc
 50
246.9999982293
 51
270.0
  0
ARC
  5
388
100
AcDbEntity
  8
BEZUGSACHSEN
100
AcDbCircle
 62
7
  6
CONTINUOUS
 10
42.949264316
 20
438.9683556469
 40
17.0
100
AcDbArc
 50
202.2154066445
 51
247.0
  0
ARC
  5
389
100
AcDbEntity
  8
0
100
AcDbCircle
 62
7
  6
CONTINUOUS
 10
144.799264316
 20
428.3683556469
 40
8.0
100
AcDbArc
 50
90.0
 51
135.0
  0
ARC
  5
38A
100
AcDbEntity
  8
RUNDUNGEN
100
AcDbCircle
 62
7
  6
CONTINUOUS
 10
61.0521380691
 20
432.1183556469
 40
8.0
100
AcDbArc
 50
33.2344429529
 51
90.0011663096
  0
ARC
  5
38B
100
AcDbEntity
  8
BEZUGSACHSEN
100
AcDbCircle
 62
7
  6
CONTINUOUS
 10
61.0521380691
 20
432.1183556469
 40
8.0
100
AcDbArc
 50
33.2341734675
 51
90.0011866392
  0
ARC
  5
38C
100
AcDbEntity
  8
0
100
AcDbCircle
 62
7
  6
CONTINUOUS
 10
144.8003049028
 20
430.7513958683
 40
6.9567058185
100
AcDbArc
 50
90.0085703254
 51
96.8672469998
  0
ARC
  5
38D
100
AcDbEntity
  8
BEZUGSACHSEN
100
AcDbCircle
 62
7
  6
CONTINUOUS
 10
40.0496811592
 20
428.3267412538
 40
6.0167071772
100
AcDbArc
 50
234.5819944823
 51
236.4764568875
  0
ARC
  5
38E
100
AcDbEntity
  8
0
100
AcDbCircle
 62
7
  6
CONTINUOUS
 10
148.799264316
 20
436.3683556469
 40
5.0
100
AcDbArc
 50
90.0
 51
165.050503583
  0
ARC
  5
38F
100
AcDbEntity
  8
RUNDUNGEN
100
AcDbCircle
 62
7
  6
CONTINUOUS
 10
135.9929102774
 20
435.1183556469
 40
3.0
100
AcDbArc
 50
270.0000926758
 51
315.0000655315
  0
ARC
  5
390
100
AcDbEntity
  8
BEZUGSACHSEN
100
AcDbCircle
 62
7
  6
CONTINUOUS
 10
41.7060803412
 20
442.1183556469
 40
2.0
100
AcDbArc
 50
179.998195504
 51
265.8909357007
  0
ARC
  5
391
100
AcDbEntity
  8
RUNDUNGEN
100
AcDbCircle
 62
7
  6
CONTINUOUS
 10
214.5946463009
 20
422.3683556469
 40
5.0
100
AcDbArc
 50
90.0
 51
125.0
  0
ARC
  5
392
100
AcDbEntity
  8
RUNDUNGEN
100
AcDbCircle
 62
7
  6
CONTINUOUS
 10
304.6016555157
 20
425.3683556469
 40
2.0
100
AcDbArc
 50
70.0
 51
90.0
  0
ARC
  5
393
100
AcDbEntity
  8
RUNDUNGEN
100
AcDbCircle
 62
7
  6
CONTINUOUS
 10
192.949264316
 20
423.3683556469
 40
1.0
100
AcDbArc
 50
180.0
 51
270.0
  0
ARC
  5
394
100
AcDbEntity
  8
RUNDUNGEN
100
AcDbCircle
 62
7
  6
CONTINUOUS
 10
224.449264316
 20
441.3683556469
 40
6.0
100
AcDbArc
 50
180.0005164764
 51
270.002481054
  0
ARC
  5
395
100
AcDbEntity
  8
RUNDUNGEN
100
AcDbCircle
 62
7
  6
CONTINUOUS
 10
307.449264316
 20
441.3683556469
 40
6.0
100
AcDbArc
 50
269.9993904099
 51
0.0016984834
  0
ARC
  5
396
100
AcDbEntity
  8
RUNDUNGEN
100
AcDbCircle
 62
7
  6
CONTINUOUS
 10
306.6807021482
 20
428.8683556469
 40
2.0
100
AcDbArc
 50
250.0
 51
270.0
  0
ARC
  5
397
100
AcDbEntity
  8
RUNDUNGEN
100
AcDbCircle
 62
7
  6
CONTINUOUS
 10
207.2887884187
 20
439.2224450793
 40
1.4113761021
100
AcDbArc
 50
177.7886256087
 51
179.9946431205
  0
ARC
  5
398
100
AcDbEntity
  8
BEZUGSACHSEN
100
AcDbCircle
 62
7
  6
CONTINUOUS
 10
82.799264316
 20
446.3683556469
 40
18.0
100
AcDbArc
 50
213.2356297063
 51
65.6712753369
  0
ARC
  5
399
100
AcDbEntity
  8
RUNDUNGEN
100
AcDbCircle
 62
7
  6
CONTINUOUS
 10
82.799264316
 20
446.3683556469
 40
18.0
100
AcDbArc
 50
219.0844766695
 51
220.1658119331
  0
ARC
  5
39A
100
AcDbEntity
  8
RUNDUNGEN
100
AcDbCircle
 62
7
  6
CONTINUOUS
 10
82.799264316
 20
446.3683556469
 40
18.0
100
AcDbArc
 50
233.6667873055
 51
244.8819455307
  0
ARC
  5
39B
100
AcDbEntity
  8
RUNDUNGEN
100
AcDbCircle
 62
7
  6
CONTINUOUS
 10
82.799264316
 20
446.3683556469
 40
18.0
100
AcDbArc
 50
292.8875236444
 51
294.3287964332
  0
ARC
  5
39C
100
AcDbEntity
  8
RUNDUNGEN
100
AcDbCircle
 62
7
  6
CONTINUOUS
 10
82.799264316
 20
446.3683556469
 40
18.0
100
AcDbArc
 50
65.6712025724
 51
146.7643702937
  0
ARC
  5
39D
100
AcDbEntity
  8
RUNDUNGEN
100
AcDbCircle
 62
7
  6
CONTINUOUS
 10
41.7060803412
 20
450.6183556469
 40
2.0
100
AcDbArc
 50
94.1090642993
 51
180.001804496
  0
ARC
  5
39E
100
AcDbEntity
  8
RUNDUNGEN
100
AcDbCircle
 62
7
  6
CONTINUOUS
 10
60.2861730116
 20
457.8683556469
 40
20.0
100
AcDbArc
 50
90.0
 51
113.0000017707
  0
ARC
  5
39F
100
AcDbEntity
  8
RUNDUNGEN
100
AcDbCircle
 62
7
  6
CONTINUOUS
 10
42.949264316
 20
453.7683556469
 40
17.0
100
AcDbArc
 50
113.0
 51
157.7845933555
  0
ARC
  5
3A0
100
AcDbEntity
  8
RUNDUNGEN
100
AcDbCircle
 62
7
  6
CONTINUOUS
 10
61.0521380691
 20
460.6183556469
 40
8.0
100
AcDbArc
 50
269.9988133608
 51
326.7658265325
  0
ARC
  5
3A1
100
AcDbEntity
  8
RUNDUNGEN
100
AcDbCircle
 62
7
  6
CONTINUOUS
 10
135.9929118222
 20
457.6183556469
 40
3.0
100
AcDbArc
 50
44.999955331
 51
89.9999368283
  0
ARC
  5
3A2
100
AcDbEntity
  8
RUNDUNGEN
100
AcDbCircle
 62
7
  6
CONTINUOUS
 10
134.6861245952
 20
480.6183556469
 40
20.0
100
AcDbArc
 50
239.9999955537
 51
270.0000037463
  0
ARC
  5
3A3
100
AcDbEntity
  8
RUNDUNGEN
100
AcDbCircle
 62
7
  6
CONTINUOUS
 10
96.7697723917
 20
467.8683556469
 40
10.0
100
AcDbArc
 50
60.0000059646
 51
90.0
  0
ARC
  5
3A4
100
AcDbEntity
  8
0
100
AcDbCircle
 62
7
  6
CONTINUOUS
 10
144.799264316
 20
464.3683556469
 40
8.0
100
AcDbArc
 50
225.0
 51
270.0
  0
ARC
  5
3A5
100
AcDbEntity
  8
RUNDUNGEN
100
AcDbCircle
 62
7
  6
CONTINUOUS
 10
40.0496811592
 20
464.40997004
 40
6.0167071772
100
AcDbArc
 50
123.5235431125
 51
125.4180055177
  0
ARC
  5
3A6
100
AcDbEntity
  8
RUNDUNGEN
100
AcDbCircle
 62
7
  6
CONTINUOUS
 10
165.449264316
 20
470.3683556469
 40
2.0
100
AcDbArc
 50
90.0
 51
180.0000015115
  0
ARC
  5
3A7
100
AcDbEntity
  8
RUNDUNGEN
100
AcDbCircle
 62
7
  6
CONTINUOUS
 10
169.949264316
 20
471.8683556469
 40
0.5
100
AcDbArc
 50
0.0
 51
90.0
  0
ARC
  5
3A8
100
AcDbEntity
  8
RUNDUNGEN
100
AcDbCircle
 62
7
  6
CONTINUOUS
 10
224.449264316
 20
451.3683556469
 40
6.0
100
AcDbArc
 50
89.9983471528
 51
179.9978476667
  0
ARC
  5
3A9
100
AcDbEntity
  8
RUNDUNGEN
100
AcDbCircle
 62
7
  6
CONTINUOUS
 10
307.449264316
 20
451.3683556469
 40
6.0
100
AcDbArc
 50
359.9981936497
 51
90.0015777035
  0
ARC
  5
3AA
100
AcDbEntity
  8
RUNDUNGEN
100
AcDbCircle
 62
7
  6
CONTINUOUS
 10
207.2887883493
 20
453.5142624292
 40
1.4113760324
100
AcDbArc
 50
180.005203215
 51
182.2112211724
  0
ARC
  5
3AB
100
AcDbEntity
  8
RUNDUNGEN
100
AcDbCircle
 62
7
  6
CONTINUOUS
 10
214.5946463009
 20
470.3683556469
 40
5.0
100
AcDbArc
 50
235.0
 51
270.0
  0
ARC
  5
3AC
100
AcDbEntity
  8
RUNDUNGEN
100
AcDbCircle
 62
7
  6
CONTINUOUS
 10
306.6807021482
 20
463.8683556469
 40
2.0
100
AcDbArc
 50
90.0
 51
110.0
  0
ARC
  5
3AD
100
AcDbEntity
  8
RUNDUNGEN
100
AcDbCircle
 62
7
  6
CONTINUOUS
 10
304.6016555157
 20
467.3683556469
 40
2.0
100
AcDbArc
 50
270.0
 51
290.0
  0
ARC
  5
3AE
100
AcDbEntity
  8
RUNDUNGEN
100
AcDbCircle
 62
7
  6
CONTINUOUS
 10
192.949264316
 20
469.3683556469
 40
1.0
100
AcDbArc
 50
90.0
 51
180.0
  0
ARC
  5
3AF
100
AcDbEntity
  8
0
100
AcDbCircle
 62
7
  6
CONTINUOUS
 10
444.3038823312
 20
422.3683556469
 40
5.0
100
AcDbArc
 50
64.1580672368
 51
90.0
  0
ARC
  5
3B0
100
AcDbEntity
  8
RUNDUNGEN
100
AcDbCircle
 62
7
  6
CONTINUOUS
 10
354.2968731163
 20
425.3683556469
 40
2.0
100
AcDbArc
 50
90.0
 51
110.0
  0
ARC
  5
3B1
100
AcDbEntity
  8
RUNDUNGEN
100
AcDbCircle
 62
7
  6
CONTINUOUS
 10
434.449264316
 20
441.3683556469
 40
6.0
100
AcDbArc
 50
269.9974648987
 51
0.0017796289
  0
ARC
  5
3B2
100
AcDbEntity
  8
RUNDUNGEN
100
AcDbCircle
 62
7
  6
CONTINUOUS
 10
351.449264316
 20
441.3683556469
 40
6.0
100
AcDbArc
 50
179.9982722685
 51
270.0006466578
  0
ARC
  5
3B3
100
AcDbEntity
  8
RUNDUNGEN
100
AcDbCircle
 62
7
  6
CONTINUOUS
 10
352.2178264838
 20
428.8683556469
 40
2.0
100
AcDbArc
 50
270.0
 51
290.0
  0
ARC
  5
3B4
100
AcDbEntity
  8
RUNDUNGEN
100
AcDbCircle
 62
7
  6
CONTINUOUS
 10
466.949264316
 20
427.8683556469
 40
1.0
100
AcDbArc
 50
270.0
 51
360.0
  0
ARC
  5
3B5
100
AcDbEntity
  8
RUNDUNGEN
100
AcDbCircle
 62
7
  6
CONTINUOUS
 10
524.2124040368
 20
412.1183556469
 40
20.0
100
AcDbArc
 50
59.9999955537
 51
90.0000037463
  0
ARC
  5
3B6
100
AcDbEntity
  8
RUNDUNGEN
100
AcDbCircle
 62
7
  6
CONTINUOUS
 10
562.1287562403
 20
424.8683556469
 40
10.0
100
AcDbArc
 50
240.0000059646
 51
270.0
  0
ARC
  5
3B7
100
AcDbEntity
  8
RUNDUNGEN
100
AcDbCircle
 62
7
  6
CONTINUOUS
 10
598.6123556204
 20
434.8683556469
 40
20.0
100
AcDbArc
 50
270.0
 51
293.0000017707
  0
ARC
  5
3B8
100
AcDbEntity
  8
RUNDUNGEN
100
AcDbCircle
 62
7
  6
CONTINUOUS
 10
615.949264316
 20
438.9683556469
 40
17.0
100
AcDbArc
 50
293.0
 51
337.7845933555
  0
ARC
  5
3B9
100
AcDbEntity
  8
RUNDUNGEN
100
AcDbCircle
 62
7
  6
CONTINUOUS
 10
597.8463905629
 20
432.1183556469
 40
8.0
100
AcDbArc
 50
89.9988133608
 51
146.7658265325
  0
ARC
  5
3BA
100
AcDbEntity
  8
0
100
AcDbCircle
 62
7
  6
CONTINUOUS
 10
514.099264316
 20
428.3683556469
 40
8.0
100
AcDbArc
 50
45.0
 51
90.0
  0
ARC
  5
3BB
100
AcDbEntity
  8
RUNDUNGEN
100
AcDbCircle
 62
7
  6
CONTINUOUS
 10
618.8488474729
 20
428.3267412537
 40
6.0167071771
100
AcDbArc
 50
303.5235431124
 51
305.4180055177
  0
ARC
  5
3BC
100
AcDbEntity
  8
RUNDUNGEN
100
AcDbCircle
 62
7
  6
CONTINUOUS
 10
522.9056168098
 20
435.1183556469
 40
3.0
100
AcDbArc
 50
224.999955331
 51
269.9999368283
  0
ARC
  5
3BD
100
AcDbEntity
  8
RUNDUNGEN
100
AcDbCircle
 62
7
  6
CONTINUOUS
 10
617.1924482908
 20
442.1183556469
 40
2.0
100
AcDbArc
 50
274.1090642993
 51
0.001804496
  0
ARC
  5
3BE
100
AcDbEntity
  8
RUNDUNGEN
100
AcDbCircle
 62
7
  6
CONTINUOUS
 10
434.449264316
 20
451.3683556469
 40
6.0
100
AcDbArc
 50
359.9982629184
 51
90.0016632488
  0
ARC
  5
3BF
100
AcDbEntity
  8
RUNDUNGEN
100
AcDbCircle
 62
7
  6
CONTINUOUS
 10
351.449264316
 20
451.3683556469
 40
6.0
100
AcDbArc
 50
89.9984222897
 51
180.0018045908
  0
ARC
  5
3C0
100
AcDbEntity
  8
0
100
AcDbCircle
 62
7
  6
CONTINUOUS
 10
444.3038823312
 20
470.3683556469
 40
5.0
100
AcDbArc
 50
270.0
 51
295.8419327632
  0
ARC
  5
3C1
100
AcDbEntity
  8
RUNDUNGEN
100
AcDbCircle
 62
7
  6
CONTINUOUS
 10
352.2178264838
 20
463.8683556469
 40
2.0
100
AcDbArc
 50
70.0
 51
90.0
  0
ARC
  5
3C2
100
AcDbEntity
  8
RUNDUNGEN
100
AcDbCircle
 62
7
  6
CONTINUOUS
 10
354.2968731163
 20
467.3683556469
 40
2.0
100
AcDbArc
 50
250.0
 51
270.0
  0
ARC
  5
3C3
100
AcDbEntity
  8
RUNDUNGEN
100
AcDbCircle
 62
7
  6
CONTINUOUS
 10
466.949264316
 20
464.8683556469
 40
1.0
100
AcDbArc
 50
0.0
 51
90.0
  0
ARC
  5
3C4
100
AcDbEntity
  8
RUNDUNGEN
100
AcDbCircle
 62
7
  6
CONTINUOUS
 10
522.9056183546
 20
457.6183556469
 40
3.0
100
AcDbArc
 50
90.0000926758
 51
135.0000655315
  0
ARC
  5
3C5
100
AcDbEntity
  8
BEZUGSACHSEN
100
AcDbCircle
 62
7
  6
CONTINUOUS
 10
576.099264316
 20
446.3683556469
 40
18.0
100
AcDbArc
 50
33.2356297063
 51
245.6712753369
  0
ARC
  5
3C6
100
AcDbEntity
  8
RUNDUNGEN
100
AcDbCircle
 62
7
  6
CONTINUOUS
 10
576.099264316
 20
446.3683556469
 40
18.0
100
AcDbArc
 50
39.0844766695
 51
40.1658119331
  0
ARC
  5
3C7
100
AcDbEntity
  8
RUNDUNGEN
100
AcDbCircle
 62
7
  6
CONTINUOUS
 10
576.099264316
 20
446.3683556469
 40
18.0
100
AcDbArc
 50
53.6667873055
 51
64.8819455307
  0
ARC
  5
3C8
100
AcDbEntity
  8
RUNDUNGEN
100
AcDbCircle
 62
7
  6
CONTINUOUS
 10
576.099264316
 20
446.3683556469
 40
18.0
100
AcDbArc
 50
112.8875236444
 51
114.3287964332
  0
ARC
  5
3C9
100
AcDbEntity
  8
RUNDUNGEN
100
AcDbCircle
 62
7
  6
CONTINUOUS
 10
576.099264316
 20
446.3683556469
 40
18.0
100
AcDbArc
 50
245.6712025724
 51
326.7643702937
  0
ARC
  5
3CA
100
AcDbEntity
  8
BEZUGSACHSEN
100
AcDbCircle
 62
7
  6
CONTINUOUS
 10
617.1924482908
 20
450.6183556469
 40
2.0
100
AcDbArc
 50
359.998195504
 51
85.8909357007
  0
ARC
  5
3CB
100
AcDbEntity
  8
BEZUGSACHSEN
100
AcDbCircle
 62
7
  6
CONTINUOUS
 10
598.6123556204
 20
457.8683556469
 40
20.0
100
AcDbArc
 50
66.9999982293
 51
90.0
  0
ARC
  5
3CC
100
AcDbEntity
  8
BEZUGSACHSEN
100
AcDbCircle
 62
7
  6
CONTINUOUS
 10
615.949264316
 20
453.7683556469
 40
17.0
100
AcDbArc
 50
22.2154066445
 51
67.0
  0
ARC
  5
3CD
100
AcDbEntity
  8
RUNDUNGEN
100
AcDbCircle
 62
7
  6
CONTINUOUS
 10
597.8463905629
 20
460.6183556469
 40
8.0
100
AcDbArc
 50
213.2344429529
 51
270.0011663096
  0
ARC
  5
3CE
100
AcDbEntity
  8
BEZUGSACHSEN
100
AcDbCircle
 62
7
  6
CONTINUOUS
 10
597.8463905629
 20
460.6183556469
 40
8.0
100
AcDbArc
 50
213.2341734675
 51
270.0011866392
  0
ARC
  5
3CF
100
AcDbEntity
  8
BEZUGSACHSEN
100
AcDbCircle
 62
7
  6
CONTINUOUS
 10
524.2124040368
 20
480.6183556469
 40
20.0
100
AcDbArc
 50
269.9999962537
 51
300.0000044463
  0
ARC
  5
3D0
100
AcDbEntity
  8
BEZUGSACHSEN
100
AcDbCircle
 62
7
  6
CONTINUOUS
 10
562.1287562403
 20
467.8683556469
 40
10.0
100
AcDbArc
 50
90.0
 51
119.9999940354
  0
ARC
  5
3D1
100
AcDbEntity
  8
0
100
AcDbCircle
 62
7
  6
CONTINUOUS
 10
514.099264316
 20
464.3683556469
 40
8.0
100
AcDbArc
 50
270.0
 51
315.0
  0
ARC
  5
3D2
100
AcDbEntity
  8
BEZUGSACHSEN
100
AcDbCircle
 62
7
  6
CONTINUOUS
 10
618.8488474729
 20
464.4099700401
 40
6.0167071771
100
AcDbArc
 50
54.5819944823
 51
56.4764568876
  0
ARC
  5
3D3
100
AcDbEntity
  8
RUNDUNGEN
100
AcDbCircle
 62
7
  6
CONTINUOUS
 10
717.0045459564
 20
446.3683556469
 40
19.5
100
AcDbArc
 50
350.3343266444
 51
9.6656733572
  0
ARC
  5
3D4
100
AcDbEntity
  8
RUNDUNGEN
100
AcDbCircle
 62
7
  6
CONTINUOUS
 10
743.9275473342
 20
466.2310622637
 40
4.5439504923
100
AcDbArc
 50
42.7115571494
 51
44.350434636
  0
ARC
  5
3D5
100
AcDbEntity
  8
BEZUGSACHSEN
100
AcDbCircle
 62
7
  6
CONTINUOUS
 10
743.9275473342
 20
426.50564903
 40
4.5439504923
100
AcDbArc
 50
315.649565364
 51
317.2884428506
  0
ARC
  5
3D6
100
AcDbEntity
  8
RUNDUNGEN
100
AcDbCircle
 62
7
  6
CONTINUOUS
 10
744.0581479326
 20
466.3586517486
 40
4.3613701284
100
AcDbArc
 50
44.3512137113
 51
44.689567443
  0
ARC
  5
3D7
100
AcDbEntity
  8
BEZUGSACHSEN
100
AcDbCircle
 62
7
  6
CONTINUOUS
 10
744.0581479326
 20
426.3780595452
 40
4.3613701284
100
AcDbArc
 50
315.310432557
 51
315.6487862887
  0
ARC
  5
3D8
100
AcDbEntity
  8
BEZUGSACHSEN
100
AcDbCircle
 62
7
  6
CONTINUOUS
 10
735.0045459564
 20
446.3683556469
 40
3.5
100
AcDbArc
 50
64.5504968776
 51
295.4495031224
  0
ARC
  5
3D9
100
AcDbEntity
  8
RUNDUNGEN
100
AcDbCircle
 62
7
  6
CONTINUOUS
 10
734.5045459564
 20
450.6183556469
 40
2.0
100
AcDbArc
 50
359.9993750068
 51
89.9987877637
  0
ARC
  5
3DA
100
AcDbEntity
  8
RUNDUNGEN
100
AcDbCircle
 62
7
  6
CONTINUOUS
 10
689.0045459564
 20
475.8683556469
 40
2.0
100
AcDbArc
 50
90.0
 51
180.0
  0
ARC
  5
3DB
100
AcDbEntity
  8
RUNDUNGEN
100
AcDbCircle
 62
7
  6
CONTINUOUS
 10
734.5045459564
 20
442.1183556469
 40
2.0
100
AcDbArc
 50
270.0012126993
 51
0.0006332318
  0
ARC
  5
3DC
100
AcDbEntity
  8
BEZUGSACHSEN
100
AcDbCircle
 62
7
  6
CONTINUOUS
 10
689.0045459564
 20
416.8683556469
 40
2.0
100
AcDbArc
 50
180.0
 51
270.0
  0
ARC
  5
3DD
100
AcDbEntity
  8
RUNDUNGEN
100
AcDbCircle
 62
7
  6
CONTINUOUS
 10
747.0169679167
 20
468.3674955596
 40
1.0680848412
100
AcDbArc
 50
87.3809500862
 51
92.5165059704
  0
ARC
  5
3DE
100
AcDbEntity
  8
BEZUGSACHSEN
100
AcDbCircle
 62
7
  6
CONTINUOUS
 10
747.0169679167
 20
424.3692157342
 40
1.0680848413
100
AcDbArc
 50
267.4834940297
 51
272.6190499137
  0
ARC
  5
3DF
100
AcDbEntity
  8
RUNDUNGEN
100
AcDbCircle
 62
7
  6
CONTINUOUS
 10
747.0199728412
 20
468.4336345179
 40
1.0018776594
100
AcDbArc
 50
82.0370279981
 51
87.3797810149
  0
ARC
  5
3E0
100
AcDbEntity
  8
BEZUGSACHSEN
100
AcDbCircle
 62
7
  6
CONTINUOUS
 10
747.0199728412
 20
424.3030767758
 40
1.0018776594
100
AcDbArc
 50
272.6202189851
 51
277.962972002
  0
ARC
  5
3E1
100
AcDbEntity
  8
BEZUGSACHSEN
100
AcDbCircle
 62
7
  6
CONTINUOUS
 10
747.1249196291
 20
423.7196666622
 40
0.4099996566
100
AcDbArc
 50
283.8592672624
 51
287.129960197
  0
ARC
  5
3E2
100
AcDbEntity
  8
RUNDUNGEN
100
AcDbCircle
 62
7
  6
CONTINUOUS
 10
747.1249196291
 20
469.0170446315
 40
0.4099996567
100
AcDbArc
 50
72.8700398031
 51
76.1407327376
  0
ARC
  5
3E3
100
AcDbEntity
  8
BEZUGSACHSEN
100
AcDbCircle
 62
7
  6
CONTINUOUS
 10
747.1253223673
 20
423.712741448
 40
0.4035042737
100
AcDbArc
 50
299.6419810971
 51
306.8989094892
  0
ARC
  5
3E4
100
AcDbEntity
  8
RUNDUNGEN
100
AcDbCircle
 62
7
  6
CONTINUOUS
 10
747.1253223673
 20
469.0239698457
 40
0.4035042737
100
AcDbArc
 50
53.1010905108
 51
60.3580189029
  0
ARC
  5
3E5
100
AcDbEntity
  8
BEZUGSACHSEN
100
AcDbCircle
 62
7
  6
CONTINUOUS
 10
747.1284056551
 20
423.7084045081
 40
0.3982103274
100
AcDbArc
 50
287.1279131466
 51
299.5650283252
  0
ARC
  5
3E6
100
AcDbEntity
  8
RUNDUNGEN
100
AcDbCircle
 62
7
  6
CONTINUOUS
 10
747.1284056551
 20
469.0283067856
 40
0.3982103274
100
AcDbArc
 50
60.4349716748
 51
72.8720868534
  0
ARC
  5
3E7
100
AcDbEntity
  8
BEZUGSACHSEN
100
AcDbCircle
 62
7
  6
CONTINUOUS
 10
99.449264316
 20
140.1809160001
 40
30.0
100
AcDbArc
 50
60.161565414
 51
85.952460998
  0
ARC
  5
3E8
100
AcDbEntity
  8
RUNDUNGEN
100
AcDbCircle
 62
7
  6
CONTINUOUS
 10
99.449264316
 20
140.1809160001
 40
30.0
100
AcDbArc
 50
49.6850853669
 51
89.9999940237
  0
ARC
  5
3E9
100
AcDbEntity
  8
RUNDUNGEN
100
AcDbCircle
 62
7
  6
CONTINUOUS
 10
67.4047704099
 20
150.1809160001
 40
20.0
100
AcDbArc
 50
90.0
 51
150.999996981
  0
ARC
  5
3EA
100
AcDbEntity
  8
0
100
AcDbCircle
 62
7
  6
CONTINUOUS
 10
144.799264316
 20
152.1809160001
 40
8.0
100
AcDbArc
 50
90.0
 51
135.0
  0
ARC
  5
3EB
100
AcDbEntity
  8
RUNDUNGEN
100
AcDbCircle
 62
7
  6
CONTINUOUS
 10
165.449264316
 20
146.1809160001
 40
2.0
100
AcDbArc
 50
180.0
 51
270.0
  0
ARC
  5
3EC
100
AcDbEntity
  8
RUNDUNGEN
100
AcDbCircle
 62
7
  6
CONTINUOUS
 10
28.9234199607
 20
137.3306498704
 40
2.0
100
AcDbArc
 50
170.0000050728
 51
241.0000016515
  0
ARC
  5
3ED
100
AcDbEntity
  8
RUNDUNGEN
100
AcDbCircle
 62
7
  6
CONTINUOUS
 10
33.6696441422
 20
134.6997746549
 40
2.0
100
AcDbArc
 50
241.0
 51
331.0
  0
ARC
  5
3EE
100
AcDbEntity
  8
BEZUGSACHSEN
100
AcDbCircle
 62
7
  6
CONTINUOUS
 10
28.9234199607
 20
137.3306498704
 40
2.0
100
AcDbArc
 50
170.0000050728
 51
241.0000016515
  0
ARC
  5
3EF
100
AcDbEntity
  8
RUNDUNGEN
100
AcDbCircle
 62
7
  6
CONTINUOUS
 10
169.949264316
 20
144.6809160001
 40
0.5
100
AcDbArc
 50
270.0
 51
360.0
  0
ARC
  5
3F0
100
AcDbEntity
  8
BEZUGSACHSEN
100
AcDbCircle
 62
7
  6
CONTINUOUS
 10
74.056048541
 20
157.1809160001
 40
43.0
100
AcDbArc
 50
108.9928855579
 51
109.6242721642
  0
ARC
  5
3F1
100
AcDbEntity
  8
BEZUGSACHSEN
100
AcDbCircle
 62
7
  6
CONTINUOUS
 10
74.056048541
 20
157.1809160001
 40
43.0
100
AcDbArc
 50
107.1839159839
 51
108.49178395
  0
ARC
  5
3F2
100
AcDbEntity
  8
BEZUGSACHSEN
100
AcDbCircle
 62
7
  6
CONTINUOUS
 10
74.056048541
 20
157.1809160001
 40
43.0
100
AcDbArc
 50
99.7268740051
 51
101.2309786843
  0
ARC
  5
3F3
100
AcDbEntity
  8
BEZUGSACHSEN
100
AcDbCircle
 62
7
  6
CONTINUOUS
 10
74.056048541
 20
157.1809160001
 40
43.0
100
AcDbArc
 50
90.0
 51
92.4530340209
  0
ARC
  5
3F4
100
AcDbEntity
  8
RUNDUNGEN
100
AcDbCircle
 62
7
  6
CONTINUOUS
 10
74.056048541
 20
157.1809160001
 40
43.0
100
AcDbArc
 50
90.0
 51
170.0
  0
ARC
  5
3F5
100
AcDbEntity
  8
RUNDUNGEN
100
AcDbCircle
 62
7
  6
CONTINUOUS
 10
99.449264316
 20
170.1809160001
 40
30.0
100
AcDbArc
 50
47.5188894144
 51
90.0
  0
ARC
  5
3F6
100
AcDbEntity
  8
RUNDUNGEN
100
AcDbCircle
 62
7
  6
CONTINUOUS
 10
192.949264316
 20
147.1809160001
 40
1.0
100
AcDbArc
 50
180.0
 51
270.0
  0
ARC
  5
3F7
100
AcDbEntity
  8
RUNDUNGEN
100
AcDbCircle
 62
7
  6
CONTINUOUS
 10
216.4700769089
 20
154.1552460193
 40
2.0072935698
100
AcDbArc
 50
343.7141216232
 51
345.0705345369
  0
ARC
  5
3F8
100
AcDbEntity
  8
RUNDUNGEN
100
AcDbCircle
 62
7
  6
CONTINUOUS
 10
315.449264316
 20
152.6809160001
 40
2.0
100
AcDbArc
 50
180.0
 51
270.0
  0
ARC
  5
3F9
100
AcDbEntity
  8
RUNDUNGEN
100
AcDbCircle
 62
7
  6
CONTINUOUS
 10
216.4771232289
 20
154.1530760045
 40
1.9999254977
100
AcDbArc
 50
270.0055657425
 51
343.717185386
  0
ARC
  5
3FA
100
AcDbEntity
  8
RUNDUNGEN
100
AcDbCircle
 62
7
  6
CONTINUOUS
 10
306.680567425
 20
158.4650865614
 40
1.9995328354
100
AcDbArc
 50
241.4653270532
 51
270.0038601919
  0
ARC
  5
3FB
100
AcDbEntity
  8
BEZUGSACHSEN
100
AcDbCircle
 62
7
  6
CONTINUOUS
 10
138.2685571998
 20
185.9309160001
 40
30.0
100
AcDbArc
 50
229.6850962837
 51
260.1777573647
  0
ARC
  5
3FC
100
AcDbEntity
  8
RUNDUNGEN
100
AcDbCircle
 62
7
  6
CONTINUOUS
 10
139.9700922937
 20
214.4309160001
 40
30.0
100
AcDbArc
 50
227.5188848348
 51
262.59635898
  0
ARC
  5
3FD
100
AcDbEntity
  8
RUNDUNGEN
100
AcDbCircle
 62
7
  6
CONTINUOUS
 10
138.2685571998
 20
185.9309160001
 40
30.0
100
AcDbArc
 50
229.6850962837
 51
265.3541029213
  0
ARC
  5
3FE
100
AcDbEntity
  8
0
100
AcDbCircle
 62
7
  6
CONTINUOUS
 10
144.799264316
 20
188.1809160001
 40
8.0
100
AcDbArc
 50
225.0
 51
270.0
  0
ARC
  5
3FF
100
AcDbEntity
  8
RUNDUNGEN
100
AcDbCircle
 62
7
  6
CONTINUOUS
 10
214.5946463009
 20
194.1809160001
 40
5.0
100
AcDbArc
 50
235.0
 51
270.0
  0
ARC
  5
400
100
AcDbEntity
  8
RUNDUNGEN
100
AcDbCircle
 62
7
  6
CONTINUOUS
 10
165.449264316
 20
194.1809160001
 40
2.0
100
AcDbArc
 50
90.0
 51
180.0
  0
ARC
  5
401
100
AcDbEntity
  8
RUNDUNGEN
100
AcDbCircle
 62
7
  6
CONTINUOUS
 10
306.6807021482
 20
187.6809160001
 40
2.0
100
AcDbArc
 50
90.0
 51
110.0
  0
ARC
  5
402
100
AcDbEntity
  8
RUNDUNGEN
100
AcDbCircle
 62
7
  6
CONTINUOUS
 10
304.6016555157
 20
191.1809160001
 40
2.0
100
AcDbArc
 50
270.0
 51
290.0
  0
ARC
  5
403
100
AcDbEntity
  8
RUNDUNGEN
100
AcDbCircle
 62
7
  6
CONTINUOUS
 10
192.949264316
 20
193.1809160001
 40
1.0
100
AcDbArc
 50
90.0
 51
180.0
  0
ARC
  5
404
100
AcDbEntity
  8
RUNDUNGEN
100
AcDbCircle
 62
7
  6
CONTINUOUS
 10
169.949264316
 20
195.6809160001
 40
0.5
100
AcDbArc
 50
0.0
 51
90.0
  0
ARC
  5
405
100
AcDbEntity
  8
0
100
AcDbCircle
 62
7
  6
CONTINUOUS
 10
444.3038823312
 20
146.1809160001
 40
5.0
100
AcDbArc
 50
64.1580672368
 51
90.0
  0
ARC
  5
406
100
AcDbEntity
  8
RUNDUNGEN
100
AcDbCircle
 62
7
  6
CONTINUOUS
 10
466.949264316
 20
151.6809160001
 40
1.0
100
AcDbArc
 50
270.0
 51
360.0
  0
CIRCLE
  5
407
100
AcDbEntity
  8
0
100
AcDbCircle
 62
7
  6
CONTINUOUS
 10
329.449264316
 20
170.1809160001
 40
20.0
  0
CIRCLE
  5
408
100
AcDbEntity
  8
0
100
AcDbCircle
 62
7
  6
CONTINUOUS
 10
329.449264316
 20
170.1809160001
 40
9.6076951546
  0
ARC
  5
409
100
AcDbEntity
  8
RUNDUNGEN
100
AcDbCircle
 62
7
  6
CONTINUOUS
 10
343.449264316
 20
152.6809160001
 40
2.0
100
AcDbArc
 50
270.0
 51
360.0
  0
ARC
  5
40A
100
AcDbEntity
  8
RUNDUNGEN
100
AcDbCircle
 62
7
  6
CONTINUOUS
 10
442.449264316
 20
153.1809160001
 40
2.0
100
AcDbArc
 50
180.0
 51
270.0
  0
ARC
  5
40B
100
AcDbEntity
  8
RUNDUNGEN
100
AcDbCircle
 62
7
  6
CONTINUOUS
 10
352.217961207
 20
158.4650865614
 40
1.9995328354
100
AcDbArc
 50
269.9961398081
 51
298.5346729466
  0
ARC
  5
40C
100
AcDbEntity
  8
BEZUGSACHSEN
100
AcDbCircle
 62
7
  6
CONTINUOUS
 10
559.449264316
 20
140.1809160001
 40
30.0
100
AcDbArc
 50
90.0000059763
 51
130.3149146331
  0
ARC
  5
40D
100
AcDbEntity
  8
BEZUGSACHSEN
100
AcDbCircle
 62
7
  6
CONTINUOUS
 10
591.4937582221
 20
150.1809160001
 40
20.0
100
AcDbArc
 50
29.000003019
 51
90.0
  0
ARC
  5
40E
100
AcDbEntity
  8
0
100
AcDbCircle
 62
7
  6
CONTINUOUS
 10
514.099264316
 20
152.1809160001
 40
8.0
100
AcDbArc
 50
45.0
 51
90.0
  0
ARC
  5
40F
100
AcDbEntity
  8
BEZUGSACHSEN
100
AcDbCircle
 62
7
  6
CONTINUOUS
 10
625.2288844898
 20
134.6997746549
 40
2.0
100
AcDbArc
 50
209.0
 51
299.0
  0
ARC
  5
410
100
AcDbEntity
  8
RUNDUNGEN
100
AcDbCircle
 62
7
  6
CONTINUOUS
 10
629.9751086713
 20
137.3306498704
 40
2.0
100
AcDbArc
 50
298.9999983485
 51
9.9999949272
  0
ARC
  5
411
100
AcDbEntity
  8
BEZUGSACHSEN
100
AcDbCircle
 62
7
  6
CONTINUOUS
 10
629.9751086713
 20
137.3306498704
 40
2.0
100
AcDbArc
 50
298.9999983485
 51
9.9999949272
  0
ARC
  5
412
100
AcDbEntity
  8
BEZUGSACHSEN
100
AcDbCircle
 62
7
  6
CONTINUOUS
 10
559.449264316
 20
170.1809160001
 40
30.0
100
AcDbArc
 50
90.0
 51
132.4811105856
  0
ARC
  5
413
100
AcDbEntity
  8
RUNDUNGEN
100
AcDbCircle
 62
7
  6
CONTINUOUS
 10
584.8424800911
 20
157.1809160001
 40
43.0
100
AcDbArc
 50
26.7209571956
 51
59.5097908531
  0
ARC
  5
414
100
AcDbEntity
  8
RUNDUNGEN
100
AcDbCircle
 62
7
  6
CONTINUOUS
 10
584.8424800911
 20
157.1809160001
 40
43.0
100
AcDbArc
 50
10.0
 51
15.5611725987
  0
ARC
  5
415
100
AcDbEntity
  8
RUNDUNGEN
100
AcDbCircle
 62
7
  6
CONTINUOUS
 10
584.8424800911
 20
157.1809160001
 40
43.0
100
AcDbArc
 50
21.1922405612
 51
25.623889717
  0
ARC
  5
416
100
AcDbEntity
  8
RUNDUNGEN
100
AcDbCircle
 62
7
  6
CONTINUOUS
 10
584.8424800911
 20
157.1809160001
 40
43.0
100
AcDbArc
 50
70.375753221
 51
71.5082160498
  0
ARC
  5
417
100
AcDbEntity
  8
BEZUGSACHSEN
100
AcDbCircle
 62
7
  6
CONTINUOUS
 10
584.8424800911
 20
157.1809160001
 40
43.0
100
AcDbArc
 50
10.0
 51
90.0
  0
ARC
  5
418
100
AcDbEntity
  8
RUNDUNGEN
100
AcDbCircle
 62
7
  6
CONTINUOUS
 10
584.8424800911
 20
157.1809160001
 40
43.0
100
AcDbArc
 50
82.6499915755
 51
85.0489903766
  0
ARC
  5
419
100
AcDbEntity
  8
RUNDUNGEN
100
AcDbCircle
 62
7
  6
CONTINUOUS
 10
584.8424800911
 20
157.1809160001
 40
43.0
100
AcDbArc
 50
85.1907554615
 51
90.0005088856
  0
ARC
  5
41A
100
AcDbEntity
  8
RUNDUNGEN
100
AcDbCircle
 62
7
  6
CONTINUOUS
 10
584.8424800911
 20
157.1809160001
 40
43.0
100
AcDbArc
 50
72.8163602909
 51
82.6168856212
  0
ARC
  5
41B
100
AcDbEntity
  8
BEZUGSACHSEN
100
AcDbCircle
 62
7
  6
CONTINUOUS
 10
520.6299714322
 20
185.9309160001
 40
30.0
100
AcDbArc
 50
279.8222426353
 51
310.3149037163
  0
ARC
  5
41C
100
AcDbEntity
  8
RUNDUNGEN
100
AcDbCircle
 62
7
  6
CONTINUOUS
 10
520.6299714322
 20
185.9309160001
 40
30.0
100
AcDbArc
 50
274.6458971155
 51
310.3149037163
  0
ARC
  5
41D
100
AcDbEntity
  8
BEZUGSACHSEN
100
AcDbCircle
 62
7
  6
CONTINUOUS
 10
518.9284363383
 20
214.4309160001
 40
30.0
100
AcDbArc
 50
300.4829024615
 51
312.4811151652
  0
ARC
  5
41E
100
AcDbEntity
  8
RUNDUNGEN
100
AcDbCircle
 62
7
  6
CONTINUOUS
 10
518.9284363383
 20
214.4309160001
 40
30.0
100
AcDbArc
 50
277.4036412293
 51
300.4829024615
  0
ARC
  5
41F
100
AcDbEntity
  8
0
100
AcDbCircle
 62
7
  6
CONTINUOUS
 10
514.099264316
 20
188.1809160001
 40
8.0
100
AcDbArc
 50
270.0
 51
315.0
  0
ARC
  5
420
100
AcDbEntity
  8
0
100
AcDbCircle
 62
7
  6
CONTINUOUS
 10
444.3038823312
 20
194.1809160001
 40
5.0
100
AcDbArc
 50
270.0
 51
295.8419327632
  0
ARC
  5
421
100
AcDbEntity
  8
RUNDUNGEN
100
AcDbCircle
 62
7
  6
CONTINUOUS
 10
388.5717711616
 20
187.1809154783
 40
2.0000032256
100
AcDbArc
 50
89.9999296797
 51
141.3148450367
  0
ARC
  5
422
100
AcDbEntity
  8
RUNDUNGEN
100
AcDbCircle
 62
7
  6
CONTINUOUS
 10
352.2178264838
 20
187.6809160001
 40
2.0
100
AcDbArc
 50
70.0
 51
90.0
  0
ARC
  5
423
100
AcDbEntity
  8
RUNDUNGEN
100
AcDbCircle
 62
7
  6
CONTINUOUS
 10
354.2968731163
 20
191.1809160001
 40
2.0
100
AcDbArc
 50
250.0
 51
270.0
  0
ARC
  5
424
100
AcDbEntity
  8
RUNDUNGEN
100
AcDbCircle
 62
7
  6
CONTINUOUS
 10
385.449264316
 20
189.6809160001
 40
2.0
100
AcDbArc
 50
269.9979623464
 51
321.316292637
  0
ARC
  5
425
100
AcDbEntity
  8
RUNDUNGEN
100
AcDbCircle
 62
7
  6
CONTINUOUS
 10
359.449264316
 20
189.6809160001
 40
2.0
100
AcDbArc
 50
218.683612922
 51
269.9991338747
  0
ARC
  5
426
100
AcDbEntity
  8
RUNDUNGEN
100
AcDbCircle
 62
7
  6
CONTINUOUS
 10
466.949264316
 20
188.6809160001
 40
1.0
100
AcDbArc
 50
0.0
 51
90.0
  0
SPLINE
  5
427
100
AcDbEntity
  8
BEZUGSACHSEN
100
AcDbSpline
 62
7
  6
CONTINUOUS
 70
0
 71
3
 72
15
 73
11
 74
0
 42
0.0000001
 43
0.0000001
 44
0.0000000001
 40
0.0
 40
0.0
 40
0.0
 40
0.0
 40
0.0401243133
 40
0.1507765763
 40
0.3116737125
 40
0.4999999395
 40
0.6883261742
 40
0.8492233524
 40
0.959875647
 40
1.0
 40
1.0
 40
1.0
 40
1.0
 10
321.949264316
 20
426.8683556469
 30
0.0
 10
322.1411893087
 20
426.9421743429
 30
0.0
 10
322.8655143383
 20
427.2116976864
 30
0.0
 10
324.3866287635
 20
427.7032734383
 30
0.0
 10
326.6914599707
 20
428.2217804225
 30
0.0
 10
329.4492634189
 20
428.4473692602
 30
0.0
 10
332.2070671009
 20
428.2217806407
 30
0.0
 10
334.5118987582
 20
427.7032737466
 30
0.0
 10
336.0330137634
 20
427.211697894
 30
0.0
 10
336.7573391352
 20
426.9421744208
 30
0.0
 10
336.949264316
 20
426.8683556469
 30
0.0
  0
SPLINE
  5
428
100
AcDbEntity
  8
BEZUGSACHSEN
100
AcDbSpline
 62
7
  6
CONTINUOUS
 70
0
 71
3
 72
15
 73
11
 74
0
 42
0.0000001
 43
0.0000001
 44
0.0000000001
 40
0.0
 40
0.0
 40
0.0
 40
0.0
 40
0.0401243517
 40
0.150776644
 40
0.3116738184
 40
0.5000000487
 40
0.6883262746
 40
0.849223414
 40
0.9598756791
 40
1.0
 40
1.0
 40
1.0
 40
1.0
 10
336.949264316
 20
465.8683556469
 30
0.0
 10
336.7573391413
 20
465.7945368755
 30
0.0
 10
336.0330137867
 20
465.5250134088
 30
0.0
 10
334.5118988187
 20
465.0334375647
 30
0.0
 10
332.2070672164
 20
464.5149306721
 30
0.0
 10
329.449263584
 20
464.2893420331
 30
0.0
 10
326.6914601458
 20
464.5149308487
 30
0.0
 10
324.386628913
 20
465.0334378148
 30
0.0
 10
322.8655144213
 20
465.5250135757
 30
0.0
 10
322.141189345
 20
465.7945369362
 30
0.0
 10
321.949264316
 20
465.8683556469
 30
0.0
  0
SPLINE
  5
429
100
AcDbEntity
  8
RUNDUNGEN
100
AcDbSpline
 62
7
  6
CONTINUOUS
 70
0
 71
3
 72
13
 73
9
 74
0
 42
0.0000001
 43
0.0000001
 44
0.0000000001
 40
0.0
 40
0.0
 40
0.0
 40
0.0
 40
0.3203778116
 40
0.6202633572
 40
0.7472365533
 40
0.8534425386
 40
0.9372257173
 40
1.0
 40
1.0
 40
1.0
 40
1.0
 10
205.8784634023
 20
439.2769046953
 30
0.0
 10
205.8894312625
 20
439.5616002077
 30
0.0
 10
205.8707387238
 20
440.1145856552
 30
0.0
 10
205.7648161775
 20
440.7733165546
 30
0.0
 10
205.6285190536
 20
441.227994684
 30
0.0
 10
205.5170217341
 20
441.4880064001
 30
0.0
 10
205.3965285558
 20
441.6786370582
 30
0.0
 10
205.2969071952
 20
441.7687962675
 30
0.0
 10
205.246814745
 20
441.7934352683
 30
0.0
  0
SPLINE
  5
42A
100
AcDbEntity
  8
RUNDUNGEN
100
AcDbSpline
 62
7
  6
CONTINUOUS
 70
0
 71
3
 72
13
 73
9
 74
0
 42
0.0000001
 43
0.0000001
 44
0.0000000001
 40
0.0
 40
0.0
 40
0.0
 40
0.0
 40
0.0627742238
 40
0.1465574174
 40
0.2527634099
 40
0.3797366138
 40
0.6796221741
 40
1.0
 40
1.0
 40
1.0
 40
1.0
 10
205.246814745
 20
450.9432760255
 30
0.0
 10
205.2969071432
 20
450.9679150052
 30
0.0
 10
205.3965282906
 20
451.0580743907
 30
0.0
 10
205.5170215738
 20
451.2487048738
 30
0.0
 10
205.6285188482
 20
451.5087166484
 30
0.0
 10
205.7648160187
 20
451.9633947434
 30
0.0
 10
205.8707385707
 20
452.6221256454
 30
0.0
 10
205.8894311192
 20
453.1751110803
 30
0.0
 10
205.878463257
 20
453.4598065874
 30
0.0
  0
SPLINE
  5
42B
100
AcDbEntity
  8
BEZUGSACHSEN
100
AcDbSpline
 62
7
  6
CONTINUOUS
 70
0
 71
3
 72
9
 73
5
 74
0
 42
0.0000001
 43
0.0000001
 44
0.0000000001
 40
0.0
 40
0.0
 40
0.0
 40
0.0
 40
0.2632816735
 40
1.0
 40
1.0
 40
1.0
 40
1.0
 10
617.3357311107
 20
452.6132165521
 30
0.0
 10
617.3255776942
 20
452.6139456414
 30
0.0
 10
617.2870066328
 20
452.6165707161
 30
0.0
 10
617.2483481012
 20
452.6183553482
 30
0.0
 10
617.2198635197
 20
452.6183556469
 30
0.0
  0
SPLINE
  5
42C
100
AcDbEntity
  8
RUNDUNGEN
100
AcDbSpline
 62
7
  6
CONTINUOUS
 70
0
 71
3
 72
9
 73
5
 74
0
 42
0.0000001
 43
0.0000001
 44
0.0000000001
 40
0.0
 40
0.0
 40
0.0
 40
0.0
 40
0.2632816735
 40
1.0
 40
1.0
 40
1.0
 40
1.0
 10
617.3357311107
 20
440.1234947416
 30
0.0
 10
617.3255776942
 20
440.1227656523
 30
0.0
 10
617.2870066328
 20
440.1201405776
 30
0.0
 10
617.2483481012
 20
440.1183559455
 30
0.0
 10
617.2198635197
 20
440.1183556469
 30
0.0
  0
SPLINE
  5
42D
100
AcDbEntity
  8
RUNDUNGEN
100
AcDbSpline
 62
7
  6
CONTINUOUS
 70
0
 71
3
 72
9
 73
5
 74
0
 42
0.0000001
 43
0.0000001
 44
0.0000000001
 40
0.0
 40
0.0
 40
0.0
 40
0.0
 40
0.4902444418
 40
1.0
 40
1.0
 40
1.0
 40
1.0
 10
622.7508271032
 20
423.3882823507
 30
0.0
 10
622.6625202639
 20
423.3497312415
 30
0.0
 10
622.4701709348
 20
423.2966937214
 30
0.0
 10
622.2711542203
 20
423.298321433
 30
0.0
 10
622.1717520242
 20
423.3108594172
 30
0.0
  0
SPLINE
  5
42E
100
AcDbEntity
  8
RUNDUNGEN
100
AcDbSpline
 62
7
  6
CONTINUOUS
 70
0
 71
3
 72
11
 73
7
 74
0
 42
0.0000001
 43
0.0000001
 44
0.0000000001
 40
0.0
 40
0.0
 40
0.0
 40
0.0
 40
0.2378605158
 40
0.4913619759
 40
0.7496106851
 40
1.0
 40
1.0
 40
1.0
 40
1.0
 10
622.1717520242
 20
423.3108594172
 30
0.0
 10
621.9371633842
 20
423.3222457569
 30
0.0
 10
621.4549837467
 20
423.4487935764
 30
0.0
 10
620.8327009262
 20
423.8706747847
 30
0.0
 10
620.3556976646
 20
424.4664583435
 30
0.0
 10
620.1685029715
 20
424.9431744354
 30
0.0
 10
620.118346105
 20
425.1852691226
 30
0.0
  0
SPLINE
  5
42F
100
AcDbEntity
  8
BEZUGSACHSEN
100
AcDbSpline
 62
7
  6
CONTINUOUS
 70
0
 71
3
 72
9
 73
5
 74
0
 42
0.0000001
 43
0.0000001
 44
0.0000000001
 40
0.0
 40
0.0
 40
0.0
 40
0.0
 40
0.4902444418
 40
1.0
 40
1.0
 40
1.0
 40
1.0
 10
622.7508271032
 20
469.348428943
 30
0.0
 10
622.6625202639
 20
469.3869800523
 30
0.0
 10
622.4701709348
 20
469.4400175723
 30
0.0
 10
622.2711542203
 20
469.4383898607
 30
0.0
 10
622.1717520242
 20
469.4258518766
 30
0.0
  0
SPLINE
  5
430
100
AcDbEntity
  8
BEZUGSACHSEN
100
AcDbSpline
 62
7
  6
CONTINUOUS
 70
0
 71
3
 72
11
 73
7
 74
0
 42
0.0000001
 43
0.0000001
 44
0.0000000001
 40
0.0
 40
0.0
 40
0.0
 40
0.0
 40
0.2378605158
 40
0.4913619759
 40
0.7496106851
 40
1.0
 40
1.0
 40
1.0
 40
1.0
 10
622.1717520242
 20
469.4258518766
 30
0.0
 10
621.9371633842
 20
469.4144655369
 30
0.0
 10
621.4549837467
 20
469.2879177173
 30
0.0
 10
620.8327009262
 20
468.8660365091
 30
0.0
 10
620.3556976646
 20
468.2702529503
 30
0.0
 10
620.1685029715
 20
467.7935368583
 30
0.0
 10
620.118346105
 20
467.5514421711
 30
0.0
  0
SPLINE
  5
431
100
AcDbEntity
  8
BEZUGSACHSEN
100
AcDbSpline
 62
7
  6
CONTINUOUS
 70
0
 71
3
 72
9
 73
5
 74
0
 42
0.0000001
 43
0.0000001
 44
0.0000000001
 40
0.0
 40
0.0
 40
0.0
 40
0.0
 40
0.2632816735
 40
1.0
 40
1.0
 40
1.0
 40
1.0
 10
41.5627975213
 20
440.1234947416
 30
0.0
 10
41.5729509378
 20
440.1227656523
 30
0.0
 10
41.6115219993
 20
440.1201405776
 30
0.0
 10
41.6501805308
 20
440.1183559455
 30
0.0
 10
41.6786651124
 20
440.1183556469
 30
0.0
  0
SPLINE
  5
432
100
AcDbEntity
  8
RUNDUNGEN
100
AcDbSpline
 62
7
  6
CONTINUOUS
 70
0
 71
3
 72
9
 73
5
 74
0
 42
0.0000001
 43
0.0000001
 44
0.0000000001
 40
0.0
 40
0.0
 40
0.0
 40
0.0
 40
0.2632816735
 40
1.0
 40
1.0
 40
1.0
 40
1.0
 10
41.5627975213
 20
452.6132165521
 30
0.0
 10
41.5729509378
 20
452.6139456414
 30
0.0
 10
41.6115219993
 20
452.6165707161
 30
0.0
 10
41.6501805308
 20
452.6183553482
 30
0.0
 10
41.6786651124
 20
452.6183556469
 30
0.0
  0
SPLINE
  5
433
100
AcDbEntity
  8
RUNDUNGEN
100
AcDbSpline
 62
7
  6
CONTINUOUS
 70
0
 71
3
 72
9
 73
5
 74
0
 42
0.0000001
 43
0.0000001
 44
0.0000000001
 40
0.0
 40
0.0
 40
0.0
 40
0.0
 40
0.4902444418
 40
1.0
 40
1.0
 40
1.0
 40
1.0
 10
36.1477015288
 20
469.348428943
 30
0.0
 10
36.2360083681
 20
469.3869800523
 30
0.0
 10
36.4283576972
 20
469.4400175723
 30
0.0
 10
36.6273744117
 20
469.4383898607
 30
0.0
 10
36.7267766078
 20
469.4258518766
 30
0.0
  0
SPLINE
  5
434
100
AcDbEntity
  8
RUNDUNGEN
100
AcDbSpline
 62
7
  6
CONTINUOUS
 70
0
 71
3
 72
11
 73
7
 74
0
 42
0.0000001
 43
0.0000001
 44
0.0000000001
 40
0.0
 40
0.0
 40
0.0
 40
0.0
 40
0.2378605158
 40
0.4913619759
 40
0.7496106851
 40
1.0
 40
1.0
 40
1.0
 40
1.0
 10
36.7267766078
 20
469.4258518766
 30
0.0
 10
36.9613652479
 20
469.4144655369
 30
0.0
 10
37.4435448853
 20
469.2879177173
 30
0.0
 10
38.0658277058
 20
468.8660365091
 30
0.0
 10
38.5428309674
 20
468.2702529503
 30
0.0
 10
38.7300256606
 20
467.7935368583
 30
0.0
 10
38.780182527
 20
467.5514421711
 30
0.0
  0
SPLINE
  5
435
100
AcDbEntity
  8
0
100
AcDbSpline
 62
7
  6
CONTINUOUS
 70
0
 71
3
 72
9
 73
5
 74
0
 42
0.0000001
 43
0.0000001
 44
0.0000000001
 40
0.0
 40
0.0
 40
0.0
 40
0.0
 40
0.5000097218
 40
1.0
 40
1.0
 40
1.0
 40
1.0
 10
273.299264316
 20
437.708101609
 30
0.0
 10
273.7313272246
 20
438.2070048822
 30
0.0
 10
274.585038544
 20
439.2138332517
 30
0.0
 10
275.4048619847
 20
440.2490394492
 30
0.0
 10
275.799264316
 20
440.7781857031
 30
0.0
  0
SPLINE
  5
436
100
AcDbEntity
  8
BEZUGSACHSEN
100
AcDbSpline
 62
7
  6
CONTINUOUS
 70
0
 71
3
 72
9
 73
5
 74
0
 42
0.0000001
 43
0.0000001
 44
0.0000000001
 40
0.0
 40
0.0
 40
0.0
 40
0.0
 40
0.4902444418
 40
1.0
 40
1.0
 40
1.0
 40
1.0
 10
36.1477015288
 20
423.3882823507
 30
0.0
 10
36.2360083681
 20
423.3497312415
 30
0.0
 10
36.4283576972
 20
423.2966937214
 30
0.0
 10
36.6273744117
 20
423.298321433
 30
0.0
 10
36.7267766078
 20
423.3108594172
 30
0.0
  0
SPLINE
  5
437
100
AcDbEntity
  8
BEZUGSACHSEN
100
AcDbSpline
 62
7
  6
CONTINUOUS
 70
0
 71
3
 72
11
 73
7
 74
0
 42
0.0000001
 43
0.0000001
 44
0.0000000001
 40
0.0
 40
0.0
 40
0.0
 40
0.0
 40
0.2378605158
 40
0.4913619759
 40
0.7496106851
 40
1.0
 40
1.0
 40
1.0
 40
1.0
 10
36.7267766078
 20
423.3108594172
 30
0.0
 10
36.9613652479
 20
423.3222457569
 30
0.0
 10
37.4435448853
 20
423.4487935764
 30
0.0
 10
38.0658277058
 20
423.8706747847
 30
0.0
 10
38.5428309674
 20
424.4664583435
 30
0.0
 10
38.7300256606
 20
424.9431744354
 30
0.0
 10
38.780182527
 20
425.1852691226
 30
0.0
  0
SPLINE
  5
438
100
AcDbEntity
  8
RUNDUNGEN
100
AcDbSpline
 62
7
  6
CONTINUOUS
 70
0
 71
3
 72
11
 73
7
 74
0
 42
0.0000001
 43
0.0000001
 44
0.0000000001
 40
0.0
 40
0.0
 40
0.0
 40
0.0
 40
0.1877822547
 40
0.4197280355
 40
0.6920671694
 40
1.0
 40
1.0
 40
1.0
 40
1.0
 10
687.0045473322
 20
464.351278069
 30
0.0
 10
687.0047888791
 20
463.9085314398
 30
0.0
 10
687.070210378
 20
462.9194647996
 30
0.0
 10
687.2650978285
 20
461.2994823286
 30
0.0
 10
687.5356227797
 20
459.4035318738
 30
0.0
 10
687.7298267184
 20
458.0492605471
 30
0.0
 10
687.8279941488
 20
457.3298941084
 30
0.0
  0
SPLINE
  5
439
100
AcDbEntity
  8
BEZUGSACHSEN
100
AcDbSpline
 62
7
  6
CONTINUOUS
 70
0
 71
3
 72
12
 73
8
 74
0
 42
0.0000001
 43
0.0000001
 44
0.0000000001
 40
0.0
 40
0.0
 40
0.0
 40
0.0
 40
0.2420689193
 40
0.3656339023
 40
0.4906507832
 40
0.7438865203
 40
1.0
 40
1.0
 40
1.0
 40
1.0
 10
747.3675877277
 20
423.3900616892
 30
0.0
 10
748.4748297173
 20
424.2205370331
 30
0.0
 10
749.9905821017
 20
425.7013897574
 30
0.0
 10
751.6149879817
 20
427.9938728456
 30
0.0
 10
752.9922713378
 20
430.518060044
 30
0.0
 10
754.1694147571
 20
433.9822355794
 30
0.0
 10
754.4856873016
 20
436.9039741876
 30
0.0
 10
754.4856873016
 20
438.3683556469
 30
0.0
  0
SPLINE
  5
43A
100
AcDbEntity
  8
RUNDUNGEN
100
AcDbSpline
 62
7
  6
CONTINUOUS
 70
0
 71
3
 72
12
 73
8
 74
0
 42
0.0000001
 43
0.0000001
 44
0.0000000001
 40
0.0
 40
0.0
 40
0.0
 40
0.0
 40
0.2420689193
 40
0.3656339023
 40
0.4906507832
 40
0.7438865203
 40
1.0
 40
1.0
 40
1.0
 40
1.0
 10
747.3675877277
 20
469.3466496046
 30
0.0
 10
748.4748297173
 20
468.5161742606
 30
0.0
 10
749.9905821017
 20
467.0353215363
 30
0.0
 10
751.6149879817
 20
464.7428384482
 30
0.0
 10
752.9922713378
 20
462.2186512497
 30
0.0
 10
754.1694147571
 20
458.7544757143
 30
0.0
 10
754.4856873016
 20
455.8327371061
 30
0.0
 10
754.4856873016
 20
454.3683556469
 30
0.0
  0
SPLINE
  5
43B
100
AcDbEntity
  8
RUNDUNGEN
100
AcDbSpline
 62
7
  6
CONTINUOUS
 70
0
 71
3
 72
9
 73
5
 74
0
 42
0.0000001
 43
0.0000001
 44
0.0000000001
 40
0.0
 40
0.0
 40
0.0
 40
0.0
 40
0.2599437141
 40
1.0
 40
1.0
 40
1.0
 40
1.0
 10
746.5715728103
 20
469.348428943
 30
0.0
 10
746.6046258544
 20
469.3611345219
 30
0.0
 10
746.7334662321
 20
469.4053769363
 30
0.0
 10
746.8693520404
 20
469.4301692853
 30
0.0
 10
746.9700713075
 20
469.4345503549
 30
0.0
  0
SPLINE
  5
43C
100
AcDbEntity
  8
BEZUGSACHSEN
100
AcDbSpline
 62
7
  6
CONTINUOUS
 70
0
 71
3
 72
9
 73
5
 74
0
 42
0.0000001
 43
0.0000001
 44
0.0000000001
 40
0.0
 40
0.0
 40
0.0
 40
0.0
 40
0.2599437141
 40
1.0
 40
1.0
 40
1.0
 40
1.0
 10
746.5715728103
 20
423.3882823507
 30
0.0
 10
746.6046258544
 20
423.3755767719
 30
0.0
 10
746.7334662321
 20
423.3313343574
 30
0.0
 10
746.8693520404
 20
423.3065420084
 30
0.0
 10
746.9700713075
 20
423.3021609388
 30
0.0
  0
SPLINE
  5
43D
100
AcDbEntity
  8
RUNDUNGEN
100
AcDbSpline
 62
7
  6
CONTINUOUS
 70
0
 71
3
 72
9
 73
5
 74
0
 42
0.0000001
 43
0.0000001
 44
0.0000000001
 40
0.0
 40
0.0
 40
0.0
 40
0.0
 40
0.3036686244
 40
1.0
 40
1.0
 40
1.0
 40
1.0
 10
205.8775538957
 20
147.1795000417
 30
0.0
 10
205.8837444858
 20
147.1838214169
 30
0.0
 10
205.8821267003
 20
147.2142999746
 30
0.0
 10
205.8808142079
 20
147.2361391146
 30
0.0
 10
205.878463257
 20
147.2532906398
 30
0.0
  0
SPLINE
  5
43E
100
AcDbEntity
  8
RUNDUNGEN
100
AcDbSpline
 62
7
  6
CONTINUOUS
 70
0
 71
3
 72
8
 73
4
 74
0
 42
0.0000001
 43
0.0000001
 44
0.0000000001
 40
0.0
 40
0.0
 40
0.0
 40
0.0
 40
1.0
 40
1.0
 40
1.0
 40
1.0
 10
205.8774123228
 20
147.2693938323
 30
0.0
 10
205.8774123228
 20
147.2640146825
 30
0.0
 10
205.8777327699
 20
147.2586199588
 30
0.0
 10
205.878463257
 20
147.2532906398
 30
0.0
  0
SPLINE
  5
43F
100
AcDbEntity
  8
BEZUGSACHSEN
100
AcDbSpline
 62
7
  6
CONTINUOUS
 70
0
 71
3
 72
12
 73
8
 74
0
 42
0.0000001
 43
0.0000001
 44
0.0000000001
 40
0.0
 40
0.0
 40
0.0
 40
0.0
 40
0.330575391
 40
0.6202356242
 40
0.7413866403
 40
0.8443931344
 40
1.0
 40
1.0
 40
1.0
 40
1.0
 10
622.1717520242
 20
140.0266958965
 30
0.0
 10
621.9651059003
 20
139.9169458217
 30
0.0
 10
621.5628672107
 20
139.7371861382
 30
0.0
 10
621.0541624852
 20
139.5965341331
 30
0.0
 10
620.6898023749
 20
139.5641496014
 30
0.0
 10
620.4232994531
 20
139.5800686831
 30
0.0
 10
620.2366762514
 20
139.6510951366
 30
0.0
 10
620.1625789052
 20
139.7325824668
 30
0.0
  0
SPLINE
  5
440
100
AcDbEntity
  8
BEZUGSACHSEN
100
AcDbSpline
 62
7
  6
CONTINUOUS
 70
0
 71
3
 72
8
 73
4
 74
0
 42
0.0000001
 43
0.0000001
 44
0.0000000001
 40
0.0
 40
0.0
 40
0.0
 40
0.0
 40
1.0
 40
1.0
 40
1.0
 40
1.0
 10
620.1625789052
 20
139.7325824668
 30
0.0
 10
620.1455875253
 20
139.7512684557
 30
0.0
 10
620.1305905297
 20
139.7720097492
 30
0.0
 10
620.118346105
 20
139.794099277
 30
0.0
  0
LINE
  5
441
100
AcDbEntity
  8
BEZUGSACHSEN
100
AcDbLine
 62
7
  6
CONTINUOUS
 10
622.3357537183
 20
139.9191207289
 11
622.1717520242
 21
140.0266958965
  0
SPLINE
  5
442
100
AcDbEntity
  8
BEZUGSACHSEN
100
AcDbSpline
 62
7
  6
CONTINUOUS
 70
0
 71
3
 72
9
 73
5
 74
0
 42
0.0000001
 43
0.0000001
 44
0.0000000001
 40
0.0
 40
0.0
 40
0.0
 40
0.0
 40
0.2456382456
 40
1.0
 40
1.0
 40
1.0
 40
1.0
 10
622.7508271032
 20
140.6138891463
 30
0.0
 10
622.7061894557
 20
140.563194646
 30
0.0
 10
622.5216606206
 20
140.3593235177
 30
0.0
 10
622.3260701191
 20
140.1653153807
 30
0.0
 10
622.1717520242
 20
140.0266958965
 30
0.0
  0
SPLINE
  5
443
100
AcDbEntity
  8
RUNDUNGEN
100
AcDbSpline
 62
7
  6
CONTINUOUS
 70
0
 71
3
 72
9
 73
5
 74
0
 42
0.0000001
 43
0.0000001
 44
0.0000000001
 40
0.0
 40
0.0
 40
0.0
 40
0.0
 40
0.2456382456
 40
1.0
 40
1.0
 40
1.0
 40
1.0
 10
36.1477015288
 20
140.6138891463
 30
0.0
 10
36.1923391763
 20
140.563194646
 30
0.0
 10
36.3768680115
 20
140.3593235177
 30
0.0
 10
36.5724585129
 20
140.1653153807
 30
0.0
 10
36.7267766078
 20
140.0266958965
 30
0.0
  0
LINE
  5
444
100
AcDbEntity
  8
RUNDUNGEN
100
AcDbLine
 62
7
  6
CONTINUOUS
 10
36.5627749137
 20
139.9191207289
 11
36.7267766078
 21
140.0266958965
  0
SPLINE
  5
445
100
AcDbEntity
  8
RUNDUNGEN
100
AcDbSpline
 62
7
  6
CONTINUOUS
 70
0
 71
3
 72
14
 73
10
 74
0
 42
0.0000001
 43
0.0000001
 44
0.0000000001
 40
0.0
 40
0.0
 40
0.0
 40
0.0
 40
0.3386776286
 40
0.4927550545
 40
0.6307149099
 40
0.7497021449
 40
0.8487778652
 40
0.9299844953
 40
1.0
 40
1.0
 40
1.0
 40
1.0
 10
36.7267766078
 20
140.0266958965
 30
0.0
 10
36.9464532316
 20
139.9100253032
 30
0.0
 10
37.2791071835
 20
139.762297985
 30
0.0
 10
37.7240277517
 20
139.6314326825
 30
0.0
 10
38.0215789044
 20
139.5766368115
 30
0.0
 10
38.2837457615
 20
139.5634997475
 30
0.0
 10
38.5032503636
 20
139.5926835532
 30
0.0
 10
38.6757338461
 20
139.6652365252
 30
0.0
 10
38.7552527468
 20
139.7491247613
 30
0.0
 10
38.780182527
 20
139.794099277
 30
0.0
  0
SPLINE
  5
446
100
AcDbEntity
  8
0
100
AcDbSpline
 62
7
  6
CONTINUOUS
 70
0
 71
3
 72
10
 73
6
 74
0
 42
0.0000001
 43
0.0000001
 44
0.0000000001
 40
0.0
 40
0.0
 40
0.0
 40
0.0
 40
0.5146955127
 40
0.7589428619
 40
1.0
 40
1.0
 40
1.0
 40
1.0
 10
143.9684963758
 20
175.1809160001
 30
0.0
 10
144.0307177904
 20
175.5738210701
 30
0.0
 10
144.1631769582
 20
176.1510420605
 30
0.0
 10
144.4809614774
 20
176.8581444443
 30
0.0
 10
144.6860486244
 20
177.1743796624
 30
0.0
 10
144.799264316
 20
177.3223444287
 30
0.0
  0
SPLINE
  5
447
100
AcDbEntity
  8
0
100
AcDbSpline
 62
7
  6
CONTINUOUS
 70
0
 71
3
 72
11
 73
7
 74
0
 42
0.0000001
 43
0.0000001
 44
0.0000000001
 40
0.0
 40
0.0
 40
0.0
 40
0.0
 40
0.2210393519
 40
0.4596431216
 40
0.7219603978
 40
1.0
 40
1.0
 40
1.0
 40
1.0
 10
144.799264316
 20
177.3223444287
 30
0.0
 10
144.9972167577
 20
177.5810540329
 30
0.0
 10
145.4987349597
 20
178.0559535307
 30
0.0
 10
146.4673704759
 20
178.5253127649
 30
0.0
 10
147.5918154122
 20
178.7861934254
 30
0.0
 10
148.3895065962
 20
178.841170038
 30
0.0
 10
148.799264316
 20
178.841170038
 30
0.0
  0
ELLIPSE
  5
448
100
AcDbEntity
  8
0
100
AcDbEllipse
 62
7
  6
CONTINUOUS
 10
250.449264316
 20
170.1809160001
 30
0.0
 11
13.8592929113
 21
-13.8592929113
 31
0.0
 40
1.0
 41
2.3564916081
 42
2.7214017115
  0
ELLIPSE
  5
449
100
AcDbEntity
  8
0
100
AcDbEllipse
 62
7
  6
CONTINUOUS
 10
236.449264316
 20
170.1809160001
 30
0.0
 11
19.1072363702
 21
-4.3673239283
 31
0.0
 40
1.0
 41
1.4302980663
 42
1.7952084809
  0
ELLIPSE
  5
44A
100
AcDbEntity
  8
0
100
AcDbEllipse
 62
7
  6
CONTINUOUS
 10
250.449264316
 20
170.1809160001
 30
0.0
 11
15.2411429905
 21
11.344935449
 31
0.0
 40
1.0
 41
0.9310001131
 42
1.308223018
  0
ELLIPSE
  5
44B
100
AcDbEntity
  8
0
100
AcDbEllipse
 62
7
  6
CONTINUOUS
 10
236.449264316
 20
170.1809160001
 30
0.0
 11
18.6095997247
 21
-3.8318139421
 31
0.0
 40
1.0
 41
1.39655346
 42
1.7737763649
  0
ENDSEC
  0
SECTION
  2
OBJECTS
  0
DICTIONARY
  5
C
100
AcDbDictionary
280
0
281
1
  3
ACAD_GROUP
350
D
  3
ACAD_MLINESTYLE
350
17
  3
ACAD_LAYOUT
350
1A
  3
ACAD_PLOTSETTINGS
350
19
  3
ACAD_PLOTSTYLENAME
350
E
  0
DICTIONARY
  5
D
102
{ACAD_REACTORS
330
C
102
}
100
AcDbDictionary
280
0
281
1
  0
ACDBDICTIONARYWDFLT
  5
E
102
{ACAD_REACTORS
330
C
102
}
100
AcDbDictionary
281
1
  3
Normal
350
F
100
AcDbDictionaryWithDefault
340
F
  0
DICTIONARY
  5
17
102
{ACAD_REACTORS
330
C
102
}
100
AcDbDictionary
280
0
281
1
  3
Standard
350
18
  0
DICTIONARY
  5
19
102
{ACAD_REACTORS
330
C
102
}
100
AcDbDictionary
281
1
  0
DICTIONARY
  5
1A
102
{ACAD_REACTORS
330
C
102
}
100
AcDbDictionary
281
1
  3
Model
350
44C
  3
Layout1
350
44D
  0
ACDBPLACEHOLDER
  5
F
102
{ACAD_REACTORS
330
E
102
}
  0
MLINESTYLE
  5
18
102
{ACAD_REACTORS
330
17
102
}
100
AcDbMlineStyle
  2
STANDARD
 70
0
  3

 62
256
 51
90.0
 52
90.0
 71
2
 49
0.5
 62
256
  6
BYLAYER
 49
-0.5
 62
256
  6
BYLAYER
  0
LAYOUT
  5
44C
102
{ACAD_REACTORS
330
1A
102
}
100
AcDbPlotSettings
  1

  2
none_device
  4
ISO_A1_(594.00_x_841.00_MM)
  6

 40
0.0
 41
0.0
 42
0.0
 43
0.0
 44
841.0
 45
594.0
 46
0.0
 47
0.0
 48
0.0
 49
0.0
140
0.0
141
0.0
142
1.0
143
1.0
 70
1024
 72
1
 73
0
 74
0
  7

 75
0
147
1.0
148
0.0
149
0.0
100
AcDbLayout
  1
Model
 70
0
 71
0
 10
0.0
 20
0.0
 11
841.0
 21
594.0
 12
0.0
 22
0.0
 32
0.0
 14
0.0
 24
0.0
 34
0.0
 15
0.0
 25
0.0
 35
0.0
146
0.0
 13
0.0
 23
0.0
 33
0.0
 16
1.0
 26
0.0
 36
0.0
 17
0.0
 27
1.0
 37
0.0
 76
0
330
20F
345
0
346
0
  0
LAYOUT
  5
44D
102
{ACAD_REACTORS
330
1A
102
}
100
AcDbPlotSettings
  1

  2
none_device
  4
ISO_A1_(594.00_x_841.00_MM)
  6

 40
0.0
 41
0.0
 42
0.0
 43
0.0
 44
841.0
 45
594.0
 46
0.0
 47
0.0
 48
0.0
 49
0.0
140
0.0
141
0.0
142
1.0
143
1.0
 70
0
 72
1
 73
0
 74
0
  7

 75
0
147
1.0
148
0.0
149
0.0
100
AcDbLayout
  1
Layout1
 70
0
 71
1
 10
0.0
 20
0.0
 11
841.0
 21
594.0
 12
0.0
 22
0.0
 32
0.0
 14
0.0
 24
0.0
 34
0.0
 15
0.0
 25
0.0
 35
0.0
146
0.0
 13
0.0
 23
0.0
 33
0.0
 16
1.0
 26
0.0
 36
0.0
 17
0.0
 27
1.0
 37
0.0
 76
0
330
210
345
0
346
0
  0
ENDSEC
  0
EOF
