999
DXF file: ICE-CURT-8-SL-KPL_7999435_M33787-P-3.dxf
999
Pro/ENGINEER 2010140 by Parametric Technology Corporation
  0
SECTION
  2
HEADER
  9
$ACADVER
  1
AC1015
  9
$DWGCODEPAGE
  3
ANSI_1252
  9
$EXTMAX
 10
420.0
 20
297.0
 30
0.0
  9
$EXTMIN
 10
0.0
 20
0.0
 30
0.0
  9
$LIMMIN
 10
0.0
 20
0.0
  9
$LIMMAX
 10
420.0
 20
297.0
  9
$VIEWCTR
 10
210.0
 20
148.5
  9
$VIEWSIZE
 40
297.0
  9
$CLAYER
  8
0
  9
$LTSCALE
 40
23.1
  9
$CELTYPE
  6
BYLAYER
  9
$DIMSCALE
 40
1.0
  9
$DIMASZ
 40
3.5
  9
$DIMEXO
 40
2.625
  9
$DIMDLI
 40
15.96
  9
$DIMEXE
 40
7.56
  9
$DIMCEN
 40
3.78
  9
$DIMLFAC
 40
1.0
  9
$DIMBLK
  1
_FILLED
  9
$DIMTXT
 40
3.5
  9
$DIMTOL
 70
1
  9
$DIMLIM
 70
0
  9
$DIMTFAC
 40
1.0
  9
$DIMTP
 40
0.005
  9
$DIMTM
 40
0.005
  9
$PDMODE
 70
3
  9
$PDSIZE
 40
0.3125
  9
$HANDSEED
  5
60E
  9
$TILEMODE
 70
1
  9
$MEASUREMENT
 70
1
  9
$INSUNITS
 70
4
  0
ENDSEC
  0
SECTION
  2
CLASSES
  0
CLASS
  1
ACDBDICTIONARYWDFLT
  2
AcDbDictionaryWithDefault
  3
AutoCAD 2000
 90
0
280
0
281
0
  0
CLASS
  1
ACDBPLACEHOLDER
  2
AcDbPlaceHolder
  3
AutoCAD 2000
 90
0
280
0
281
0
  0
CLASS
  1
LAYOUT
  2
AcDbLayout
  3
AutoCAD 2000
 90
0
280
0
281
0
  0
ENDSEC
  0
SECTION
  2
TABLES
  0
TABLE
  2
VPORT
  5
8
100
AcDbSymbolTable
 70
2
  0
VPORT
  5
1F4
100
AcDbSymbolTableRecord
100
AcDbViewportTableRecord
  2
*ACTIVE
 70
0
 10
0.0
 20
0.0
 11
1.0
 21
1.0
 12
210.0
 22
148.5
 13
0.0
 23
0.0
 14
1.0
 24
1.0
 15
0.0
 25
0.0
 16
0.0
 26
0.0
 36
1.0
 17
0.0
 27
0.0
 37
0.0
 40
297.0
 41
1.4141414141
 42
50.0
 43
0.0
 44
0.0
 50
0.0
 51
0.0
 71
0
 72
100
 73
1
 74
1
 75
0
 76
0
 77
0
 78
0
  0
ENDTAB
  0
TABLE
  2
LTYPE
  5
5
100
AcDbSymbolTable
 70
6
  0
LTYPE
  5
14
100
AcDbSymbolTableRecord
100
AcDbLinetypeTableRecord
  2
BYBLOCK
 70
0
  3

 72
65
 73
0
 40
0.0
  0
LTYPE
  5
15
100
AcDbSymbolTableRecord
100
AcDbLinetypeTableRecord
  2
BYLAYER
 70
0
  3

 72
65
 73
0
 40
0.0
  0
LTYPE
  5
16
100
AcDbSymbolTableRecord
100
AcDbLinetypeTableRecord
  2
CONTINUOUS
 70
64
  3
Solid line
 72
65
 73
0
 40
0.0
  0
LTYPE
  5
1F5
100
AcDbSymbolTableRecord
100
AcDbLinetypeTableRecord
  2
CENTER
 70
64
  3
____ _ ____ _ ____ _ ____ _ ____ _ ____ _ ____
 72
65
 73
4
 40
0.6
 49
0.375
 74
0
 49
-0.075
 74
0
 49
0.075
 74
0
 49
-0.075
 74
0
  0
LTYPE
  5
1F6
100
AcDbSymbolTableRecord
100
AcDbLinetypeTableRecord
  2
HIDDEN
 70
64
  3
- - - - - - - - - - - - - - - - - - - -
 72
65
 73
2
 40
0.2
 49
0.1
 74
0
 49
-0.1
 74
0
  0
LTYPE
  5
1F7
100
AcDbSymbolTableRecord
100
AcDbLinetypeTableRecord
  2
PHANTOM
 70
64
  3
_____ _ _ _____ _ _ _____ _ _ _____
 72
65
 73
6
 40
0.8
 49
0.45
 74
0
 49
-0.05
 74
0
 49
0.1
 74
0
 49
-0.05
 74
0
 49
0.1
 74
0
 49
-0.05
 74
0
  0
LTYPE
  5
1F8
100
AcDbSymbolTableRecord
100
AcDbLinetypeTableRecord
  2
DOT
 70
64
  3
. . . . . . . . . . . . . . . . . . . .
 72
65
 73
2
 40
0.2
 49
0.1
 74
0
 49
-0.1
 74
0
  0
LTYPE
  5
1F9
100
AcDbSymbolTableRecord
100
AcDbLinetypeTableRecord
  2
DASHED
 70
64
  3
- - - - - - - - - - - - - - - - - - - -
 72
65
 73
2
 40
0.2
 49
0.1
 74
0
 49
-0.1
 74
0
  0
ENDTAB
  0
TABLE
  2
LAYER
  5
2
100
AcDbSymbolTable
 70
36
  0
LAYER
  5
10
100
AcDbSymbolTableRecord
100
AcDbLayerTableRecord
  2
0
 70
0
 62
7
  6
CONTINUOUS
370
-3
390
F
  0
LAYER
  5
1FA
100
AcDbSymbolTableRecord
100
AcDbLayerTableRecord
  2
DEFAULT_1
 70
0
 62
7
  6
CENTER
370
-3
390
F
  0
LAYER
  5
1FB
100
AcDbSymbolTableRecord
100
AcDbLayerTableRecord
  2
DEFAULT_2
 70
0
 62
8
  6
HIDDEN
370
-3
390
F
  0
LAYER
  5
1FC
100
AcDbSymbolTableRecord
100
AcDbLayerTableRecord
  2
DEFAULT_3
 70
0
 62
7
  6
PHANTOM
370
-3
390
F
  0
LAYER
  5
1FD
100
AcDbSymbolTableRecord
100
AcDbLayerTableRecord
  2
AUSFORMSCHRAEGEN
 70
0
 62
7
  6
CONTINUOUS
370
-3
390
F
  0
LAYER
  5
1FE
100
AcDbSymbolTableRecord
100
AcDbLayerTableRecord
  2
BEZUGSACHSEN
 70
0
 62
7
  6
CONTINUOUS
370
-3
390
F
  0
LAYER
  5
1FF
100
AcDbSymbolTableRecord
100
AcDbLayerTableRecord
  2
BEZUGSEBENEN
 70
0
 62
7
  6
CONTINUOUS
370
-3
390
F
  0
LAYER
  5
200
100
AcDbSymbolTableRecord
100
AcDbLayerTableRecord
  2
BEZUGSPUNKTE
 70
0
 62
7
  6
CONTINUOUS
370
-3
390
F
  0
LAYER
  5
201
100
AcDbSymbolTableRecord
100
AcDbLayerTableRecord
  2
BG_STARTBEZUEGE
 70
0
 62
7
  6
CONTINUOUS
370
-3
390
F
  0
LAYER
  5
202
100
AcDbSymbolTableRecord
100
AcDbLayerTableRecord
  2
FASEN
 70
0
 62
7
  6
CONTINUOUS
370
-3
390
F
  0
LAYER
  5
203
100
AcDbSymbolTableRecord
100
AcDbLayerTableRecord
  2
FLAECHEN
 70
0
 62
7
  6
CONTINUOUS
370
-3
390
F
  0
LAYER
  5
204
100
AcDbSymbolTableRecord
100
AcDbLayerTableRecord
  2
FLAECHENVERBUND
 70
0
 62
7
  6
CONTINUOUS
370
-3
390
F
  0
LAYER
  5
205
100
AcDbSymbolTableRecord
100
AcDbLayerTableRecord
  2
HILFEN
 70
0
 62
7
  6
CONTINUOUS
370
-3
390
F
  0
LAYER
  5
206
100
AcDbSymbolTableRecord
100
AcDbLayerTableRecord
  2
KONSTRUKTIONSELEMENTE
 70
0
 62
7
  6
CONTINUOUS
370
-3
390
F
  0
LAYER
  5
207
100
AcDbSymbolTableRecord
100
AcDbLayerTableRecord
  2
KURVEN
 70
0
 62
7
  6
CONTINUOUS
370
-3
390
F
  0
LAYER
  5
208
100
AcDbSymbolTableRecord
100
AcDbLayerTableRecord
  2
MESSBEREICH
 70
0
 62
7
  6
CONTINUOUS
370
-3
390
F
  0
LAYER
  5
209
100
AcDbSymbolTableRecord
100
AcDbLayerTableRecord
  2
NORM
 70
0
 62
7
  6
CONTINUOUS
370
-3
390
F
  0
LAYER
  5
20A
100
AcDbSymbolTableRecord
100
AcDbLayerTableRecord
  2
PLATZIERUNG
 70
0
 62
7
  6
CONTINUOUS
370
-3
390
F
  0
LAYER
  5
20B
100
AcDbSymbolTableRecord
100
AcDbLayerTableRecord
  2
RUNDUNGEN
 70
0
 62
7
  6
CONTINUOUS
370
-3
390
F
  0
LAYER
  5
20C
100
AcDbSymbolTableRecord
100
AcDbLayerTableRecord
  2
TEIL_STARTBEZUEGE
 70
0
 62
7
  6
CONTINUOUS
370
-3
390
F
  0
LAYER
  5
20D
100
AcDbSymbolTableRecord
100
AcDbLayerTableRecord
  2
XSEC_DATUMS
 70
0
 62
7
  6
CONTINUOUS
370
-3
390
F
  0
LAYER
  5
20E
100
AcDbSymbolTableRecord
100
AcDbLayerTableRecord
  2
ZEICHNUNGSBEMASSUNGEN
 70
0
 62
7
  6
CONTINUOUS
370
-3
390
F
  0
ENDTAB
  0
TABLE
  2
STYLE
  5
3
100
AcDbSymbolTable
 70
1
  0
STYLE
  5
11
100
AcDbSymbolTableRecord
100
AcDbTextStyleTableRecord
  2
STANDARD
 70
0
 40
0.0
 41
0.7
 50
0.0
 71
0
 42
0.2
  3
txt
  4

  0
STYLE
  5
20F
100
AcDbSymbolTableRecord
100
AcDbTextStyleTableRecord
  2
TEXTSTYLE_1
 70
0
 40
0.0
 41
0.8
 50
0.0
 71
0
 42
0.2
  3
gdt
  4

  0
ENDTAB
  0
TABLE
  2
VIEW
  5
6
100
AcDbSymbolTable
 70
0
  0
ENDTAB
  0
TABLE
  2
UCS
  5
7
100
AcDbSymbolTable
 70
0
  0
ENDTAB
  0
TABLE
  2
APPID
  5
9
100
AcDbSymbolTable
 70
1
  0
APPID
  5
210
100
AcDbSymbolTableRecord
100
AcDbRegAppTableRecord
  2
ACAD
 70
0
  0
ENDTAB
  0
TABLE
  2
BLOCK_RECORD
  5
1
100
AcDbSymbolTable
 70
0
  0
BLOCK_RECORD
  5
211
100
AcDbSymbolTableRecord
100
AcDbBlockTableRecord
  2
*Model_Space
  0
BLOCK_RECORD
  5
212
100
AcDbSymbolTableRecord
100
AcDbBlockTableRecord
  2
*Paper_Space
  0
ENDTAB
  0
TABLE
  2
DIMSTYLE
  5
A
100
AcDbSymbolTable
 70
1
100
AcDbDimStyleTable
 71
0
  0
DIMSTYLE
105
213
100
AcDbSymbolTableRecord
100
AcDbDimStyleTableRecord
  2
STANDARD
 70
0
  3

  4

 40
1.0
 41
3.5
 42
0.0625
 43
0.38
 44
0.18
 45
0.0
 46
0.0
 47
0.005
 48
0.005
140
3.5
141
0.09
142
0.0
143
25.4
144
1.0
145
0.0
146
1.0
147
0.09
 71
1.0
 72
0.0
 73
0
 74
0
 75
0
 76
0
 77
1
 78
8
170
0
171
2
172
0
173
0
174
0
175
0
176
0
177
0
178
5
270
2
271
3
272
3
273
2
274
2
275
0
280
0
281
0
282
0
283
1
284
8
285
0
286
0
287
3
288
0
340
11
  0
ENDTAB
  0
ENDSEC
  0
SECTION
  2
BLOCKS
  0
BLOCK
  5
20
100
AcDbEntity
  8
0
100
AcDbBlockBegin
  2
*Model_Space
 70
0
 10
0.0
 20
0.0
 30
0.0
  3
*Model_Space
  1

  0
ENDBLK
  5
21
100
AcDbEntity
  8
0
100
AcDbBlockEnd
  0
BLOCK
  5
1C
100
AcDbEntity
  8
0
100
AcDbBlockBegin
  2
*Paper_Space
 70
0
 10
0.0
 20
0.0
 30
0.0
  3
*Paper_Space
  1

  0
ENDBLK
  5
1D
100
AcDbEntity
  8
0
100
AcDbBlockEnd
  0
ENDSEC
  0
SECTION
  2
ENTITIES
  0
MTEXT
  5
214
100
AcDbEntity
  8
0
100
AcDbMText
 62
5
  6
CONTINUOUS
  7
STANDARD
 71
1
 72
1
 10
263.4772964188
 20
145.4708902071
 30
0.0
 11
0.0
 21
1.0
 31
0.0
 44
0.9
  1
ICE-CURT 8 RUD
 40
9.0
 41
100.7142857143
  0
MTEXT
  5
215
100
AcDbEntity
  8
0
100
AcDbMText
 62
5
  6
CONTINUOUS
  7
STANDARD
 71
1
 72
1
 10
706.1417242498
 20
157.5588200946
 30
0.0
 11
0.0
 21
1.0
 31
0.0
 44
0.9
  1
ICE-CURT 8 RUD
 40
9.0
 41
100.7142857143
  0
MTEXT
  5
216
100
AcDbEntity
  8
0
100
AcDbMText
 62
5
  6
CONTINUOUS
  7
STANDARD
 71
1
 72
1
 10
1146.6398654093
 20
150.6044099642
 30
0.0
 11
0.0
 21
1.0
 31
0.0
 44
0.9
  1
ICE-CURT 8 RUD
 40
9.0
 41
100.7142857143
  0
MTEXT
  5
217
100
AcDbEntity
  8
0
100
AcDbMText
 62
5
  6
CONTINUOUS
  7
STANDARD
 71
2
 72
1
 10
341.1208538182
 20
556.7156430153
 30
0.0
 11
1.0
 21
0.0
 31
0.0
 44
0.9
  1
ICE-CURT 8\PRUD
 40
9.0
 41
71.3571428571
  0
MTEXT
  5
218
100
AcDbEntity
  8
0
100
AcDbMText
 62
5
  6
CONTINUOUS
  7
STANDARD
 71
2
 72
1
 10
347.0334832865
 20
-66.8439966017
 30
0.0
 11
1.0
 21
0.0
 31
0.0
 44
0.9
  1
ICE-CURT 8\PRUD
 40
9.0
 41
71.3571428571
  0
LINE
  5
219
100
AcDbEntity
  8
0
100
AcDbLine
 62
7
  6
CONTINUOUS
 10
0.0
 20
0.0
 11
0.0
 21
297.0
  0
LINE
  5
21A
100
AcDbEntity
  8
0
100
AcDbLine
 62
7
  6
CONTINUOUS
 10
0.0
 20
0.0
 11
420.0
 21
0.0
  0
LINE
  5
21B
100
AcDbEntity
  8
0
100
AcDbLine
 62
7
  6
CONTINUOUS
 10
0.0
 20
297.0
 11
420.0
 21
297.0
  0
LINE
  5
21C
100
AcDbEntity
  8
0
100
AcDbLine
 62
7
  6
CONTINUOUS
 10
420.0
 20
0.0
 11
420.0
 21
297.0
  0
LWPOLYLINE
  5
21D
100
AcDbEntity
  8
RUNDUNGEN
100
AcDbPolyline
 62
7
  6
CONTINUOUS
 90
3
 70
0
 10
-30.4212519652
 20
402.4395256304
 10
-30.4485874052
 20
402.2946561396
 10
-30.4595211184
 20
402.194562958
  0
LINE
  5
21E
100
AcDbEntity
  8
RUNDUNGEN
100
AcDbLine
 62
7
  6
CONTINUOUS
 10
-30.3806105931
 20
402.5814025442
 11
-30.4212519652
 21
402.4395256304
  0
LWPOLYLINE
  5
21F
100
AcDbEntity
  8
RUNDUNGEN
100
AcDbPolyline
 62
7
  6
CONTINUOUS
 90
3
 70
0
 10
-30.3184522131
 20
402.737869679
 10
-30.326386574
 20
402.7203299515
 10
-30.3806105931
 20
402.5814025442
  0
LINE
  5
220
100
AcDbEntity
  8
RUNDUNGEN
100
AcDbLine
 62
7
  6
CONTINUOUS
 10
-30.3184522131
 20
402.737869679
 11
-30.3183347228
 21
402.7381254063
  0
LWPOLYLINE
  5
221
100
AcDbEntity
  8
RUNDUNGEN
100
AcDbPolyline
 62
7
  6
CONTINUOUS
 90
10
 70
0
 10
-30.4595134939
 20
402.1946549524
 10
-30.475438483
 20
401.9845165026
 10
-30.5214862383
 20
401.3159260373
 10
-30.5612782524
 20
400.6381073644
 10
-30.5947726279
 20
399.9528137482
 10
-30.6219445974
 20
399.2618290725
 10
-30.6427879165
 20
398.5669561376
 10
-30.6573158212
 20
397.8699942419
 10
-30.6655608146
 20
397.172760846
 10
-30.6676700178
 20
384.5984108157
  0
LWPOLYLINE
  5
222
100
AcDbEntity
  8
BEZUGSACHSEN
100
AcDbPolyline
 62
7
  6
CONTINUOUS
 90
3
 70
0
 10
-30.4595210172
 20
379.0022573661
 10
-30.4485596395
 20
378.9019690099
 10
-30.4212246646
 20
378.7571808192
  0
LWPOLYLINE
  5
223
100
AcDbEntity
  8
BEZUGSACHSEN
100
AcDbPolyline
 62
7
  6
CONTINUOUS
 90
10
 70
0
 10
-30.6676699962
 20
384.5984108157
 10
-30.6655608146
 20
384.0240607855
 10
-30.6573158212
 20
383.3268273896
 10
-30.6427879165
 20
382.6298654939
 10
-30.6219445974
 20
381.9349925589
 10
-30.5947726279
 20
381.2440078832
 10
-30.5612782524
 20
380.558714267
 10
-30.5214862383
 20
379.8808955941
 10
-30.475438483
 20
379.2123051288
 10
-30.4595134939
 20
379.002166679
  0
LINE
  5
224
100
AcDbEntity
  8
BEZUGSACHSEN
100
AcDbLine
 62
7
  6
CONTINUOUS
 10
-20.3850096065
 20
394.6983642423
 11
-20.3850096065
 21
386.4984573891
  0
LINE
  5
225
100
AcDbEntity
  8
RUNDUNGEN
100
AcDbLine
 62
7
  6
CONTINUOUS
 10
-23.3275327949
 20
409.5252797753
 11
-10.8386677729
 21
414.8264884602
  0
LINE
  5
226
100
AcDbEntity
  8
BEZUGSACHSEN
100
AcDbLine
 62
7
  6
CONTINUOUS
 10
56.2763962676
 20
377.2270904722
 11
57.5974640794
 21
378.548158284
  0
LINE
  5
227
100
AcDbEntity
  8
RUNDUNGEN
100
AcDbLine
 62
7
  6
CONTINUOUS
 10
56.2763962676
 20
377.2270904722
 11
57.5974640794
 21
378.548158284
  0
LINE
  5
228
100
AcDbEntity
  8
BEZUGSACHSEN
100
AcDbLine
 62
7
  6
CONTINUOUS
 10
-30.4212246646
 20
378.7571808192
 11
-30.3805978378
 21
378.6153812723
  0
LINE
  5
229
100
AcDbEntity
  8
0
100
AcDbLine
 62
7
  6
CONTINUOUS
 10
58.5472115477
 20
380.5984108157
 11
58.5472115477
 21
380.514519205
  0
LINE
  5
22A
100
AcDbEntity
  8
BEZUGSACHSEN
100
AcDbLine
 62
7
  6
CONTINUOUS
 10
44.4199689302
 20
374.2048165364
 11
30.9677231706
 21
366.4381588259
  0
LINE
  5
22B
100
AcDbEntity
  8
BEZUGSACHSEN
100
AcDbLine
 62
7
  6
CONTINUOUS
 10
-30.3184521452
 20
378.4589518045
 11
-30.3183347228
 21
378.4586962252
  0
LWPOLYLINE
  5
22C
100
AcDbEntity
  8
BEZUGSACHSEN
100
AcDbPolyline
 62
7
  6
CONTINUOUS
 90
3
 70
0
 10
-30.3805978378
 20
378.6153812723
 10
-30.3263844793
 20
378.476486974
 10
-30.3184521452
 20
378.4589518045
  0
LINE
  5
22D
100
AcDbEntity
  8
0
100
AcDbLine
 62
7
  6
CONTINUOUS
 10
143.8753595545
 20
366.5984108157
 11
149.7247113508
 21
370.6941710372
  0
LINE
  5
22E
100
AcDbEntity
  8
0
100
AcDbLine
 62
7
  6
CONTINUOUS
 10
243.283643034
 20
409.7190255742
 11
243.9946090933
 21
409.9777960573
  0
LINE
  5
22F
100
AcDbEntity
  8
BEZUGSACHSEN
100
AcDbLine
 62
7
  6
CONTINUOUS
 10
266.4472115477
 20
70.5984108157
 11
268.4472115477
 21
70.5984108157
  0
LINE
  5
230
100
AcDbEntity
  8
RUNDUNGEN
100
AcDbLine
 62
7
  6
CONTINUOUS
 10
107.9472115477
 20
414.598410763
 11
107.9472115477
 21
366.5984108685
  0
LINE
  5
231
100
AcDbEntity
  8
RUNDUNGEN
100
AcDbLine
 62
7
  6
CONTINUOUS
 10
114.9472115477
 20
365.0984108157
 11
114.9472115477
 21
416.0984108157
  0
LINE
  5
232
100
AcDbEntity
  8
BEZUGSACHSEN
100
AcDbLine
 62
7
  6
CONTINUOUS
 10
187.5472115477
 20
380.5984108157
 11
189.5472115477
 21
383.0984108157
  0
LINE
  5
233
100
AcDbEntity
  8
RUNDUNGEN
100
AcDbLine
 62
7
  6
CONTINUOUS
 10
129.9472115477
 20
413.5984108157
 11
129.9472115477
 21
367.5984108157
  0
LINE
  5
234
100
AcDbEntity
  8
RUNDUNGEN
100
AcDbLine
 62
7
  6
CONTINUOUS
 10
134.4472115477
 20
383.452632205
 11
134.4472115477
 21
397.7441894264
  0
LINE
  5
235
100
AcDbEntity
  8
RUNDUNGEN
100
AcDbLine
 62
7
  6
CONTINUOUS
 10
143.8753595545
 20
414.5984108157
 11
143.8753595545
 21
397.7441894264
  0
LINE
  5
236
100
AcDbEntity
  8
RUNDUNGEN
100
AcDbLine
 62
7
  6
CONTINUOUS
 10
143.8753595545
 20
383.452632205
 11
143.8753595545
 21
366.5984108157
  0
LINE
  5
237
100
AcDbEntity
  8
RUNDUNGEN
100
AcDbLine
 62
7
  6
CONTINUOUS
 10
156.4472115477
 20
395.5986361988
 11
156.4472115477
 21
385.5983567309
  0
LINE
  5
238
100
AcDbEntity
  8
0
100
AcDbLine
 62
7
  6
CONTINUOUS
 10
290.8998140021
 20
371.2190255742
 11
291.6107800614
 21
371.4777960573
  0
LINE
  5
239
100
AcDbEntity
  8
0
100
AcDbLine
 62
7
  6
CONTINUOUS
 10
187.5472115477
 20
380.5984108157
 11
187.5472115477
 21
381.9381567779
  0
LINE
  5
23A
100
AcDbEntity
  8
0
100
AcDbLine
 62
7
  6
CONTINUOUS
 10
187.5472115477
 20
385.5984108157
 11
187.5472115477
 21
400.5984108157
  0
LINE
  5
23B
100
AcDbEntity
  8
0
100
AcDbLine
 62
7
  6
CONTINUOUS
 10
189.5472115477
 20
383.0984108157
 11
189.5472115477
 21
385.008240872
  0
LINE
  5
23C
100
AcDbEntity
  8
0
100
AcDbLine
 62
7
  6
CONTINUOUS
 10
189.5472115477
 20
385.5984108157
 11
189.5472115477
 21
398.0984108157
  0
LINE
  5
23D
100
AcDbEntity
  8
0
100
AcDbLine
 62
7
  6
CONTINUOUS
 10
200.5472115477
 20
383.098454908
 11
200.5472115477
 21
398.0983673045
  0
LINE
  5
23E
100
AcDbEntity
  8
BEZUGSACHSEN
100
AcDbLine
 62
7
  6
CONTINUOUS
 10
345.3472115477
 20
400.5984108157
 11
343.3472115477
 21
398.0984108157
  0
LINE
  5
23F
100
AcDbEntity
  8
BEZUGSACHSEN
100
AcDbLine
 62
7
  6
CONTINUOUS
 10
480.4744541653
 20
406.9920050951
 11
493.9266999248
 21
414.7586628056
  0
LINE
  5
240
100
AcDbEntity
  8
BEZUGSACHSEN
100
AcDbLine
 62
7
  6
CONTINUOUS
 10
56.2763962676
 20
403.9697311593
 11
57.5974640794
 21
402.6486633474
  0
LINE
  5
241
100
AcDbEntity
  8
RUNDUNGEN
100
AcDbLine
 62
7
  6
CONTINUOUS
 10
56.2763962676
 20
403.9697311593
 11
57.5974640794
 21
402.6486633474
  0
LINE
  5
242
100
AcDbEntity
  8
BEZUGSACHSEN
100
AcDbLine
 62
7
  6
CONTINUOUS
 10
249.4472115477
 20
327.1874918774
 11
249.4472115477
 21
416.5983317465
  0
LINE
  5
243
100
AcDbEntity
  8
BEZUGSACHSEN
100
AcDbLine
 62
7
  6
CONTINUOUS
 10
258.4472115477
 20
78.5984108157
 11
258.4472115477
 21
293.509329754
  0
LINE
  5
244
100
AcDbEntity
  8
0
100
AcDbLine
 62
7
  6
CONTINUOUS
 10
260.4472115477
 20
362.5984108157
 11
260.4472115477
 21
421.5984108157
  0
LINE
  5
245
100
AcDbEntity
  8
RUNDUNGEN
100
AcDbLine
 62
7
  6
CONTINUOUS
 10
276.8943464348
 20
296.6136875435
 11
284.9974738483
 21
324.0742997232
  0
LINE
  5
246
100
AcDbEntity
  8
RUNDUNGEN
100
AcDbLine
 62
7
  6
CONTINUOUS
 10
535.7330908683
 20
366.3703331713
 11
548.2219558904
 21
371.6715418562
  0
LINE
  5
247
100
AcDbEntity
  8
0
100
AcDbLine
 62
7
  6
CONTINUOUS
 10
274.4472115477
 20
421.5984108157
 11
274.4472115477
 21
362.5984108157
  0
LINE
  5
248
100
AcDbEntity
  8
RUNDUNGEN
100
AcDbLine
 62
7
  6
CONTINUOUS
 10
276.4472115477
 20
78.5984108157
 11
276.4472115477
 21
293.509329754
  0
LINE
  5
249
100
AcDbEntity
  8
RUNDUNGEN
100
AcDbLine
 62
7
  6
CONTINUOUS
 10
285.4472115477
 20
327.1874918774
 11
285.4472115477
 21
416.5983317465
  0
LINE
  5
24A
100
AcDbEntity
  8
BEZUGSACHSEN
100
AcDbLine
 62
7
  6
CONTINUOUS
 10
-10.8386677729
 20
366.3703331713
 11
-23.3275327949
 21
371.6715418562
  0
LINE
  5
24B
100
AcDbEntity
  8
BEZUGSACHSEN
100
AcDbLine
 62
7
  6
CONTINUOUS
 10
249.8969492472
 20
324.0742997232
 11
258.0007497398
 21
296.6114202758
  0
LINE
  5
24C
100
AcDbEntity
  8
RUNDUNGEN
100
AcDbLine
 62
7
  6
CONTINUOUS
 10
468.6180268279
 20
403.9697311593
 11
467.296959016
 21
402.6486633474
  0
LINE
  5
24D
100
AcDbEntity
  8
BEZUGSACHSEN
100
AcDbLine
 62
7
  6
CONTINUOUS
 10
467.296959016
 20
402.6486633474
 11
468.6180268279
 21
403.9697311593
  0
LINE
  5
24E
100
AcDbEntity
  8
RUNDUNGEN
100
AcDbLine
 62
7
  6
CONTINUOUS
 10
44.4199689302
 20
406.9920050951
 11
30.9677231706
 21
414.7586628056
  0
LINE
  5
24F
100
AcDbEntity
  8
BEZUGSACHSEN
100
AcDbLine
 62
7
  6
CONTINUOUS
 10
187.5472115477
 20
400.5984108157
 11
189.5472115477
 21
398.0984108157
  0
LINE
  5
250
100
AcDbEntity
  8
BEZUGSACHSEN
100
AcDbLine
 62
7
  6
CONTINUOUS
 10
332.3472115477
 20
398.0984108157
 11
332.3472115477
 21
383.0984108157
  0
LINE
  5
251
100
AcDbEntity
  8
0
100
AcDbLine
 62
7
  6
CONTINUOUS
 10
143.8753595545
 20
414.5984108157
 11
149.7247113508
 21
410.5026505943
  0
LINE
  5
252
100
AcDbEntity
  8
BEZUGSACHSEN
100
AcDbLine
 62
7
  6
CONTINUOUS
 10
343.3472115477
 20
398.0984108157
 11
343.3472115477
 21
383.0984108157
  0
LINE
  5
253
100
AcDbEntity
  8
BEZUGSACHSEN
100
AcDbLine
 62
7
  6
CONTINUOUS
 10
345.3472115477
 20
400.5984108157
 11
345.3472115477
 21
380.5984108157
  0
LINE
  5
254
100
AcDbEntity
  8
RUNDUNGEN
100
AcDbLine
 62
7
  6
CONTINUOUS
 10
378.4472115477
 20
395.5982289099
 11
378.4472115477
 21
385.598597177
  0
LINE
  5
255
100
AcDbEntity
  8
0
100
AcDbLine
 62
7
  6
CONTINUOUS
 10
272.4472115477
 20
360.5984108157
 11
262.4472115477
 21
360.5984108157
  0
LINE
  5
256
100
AcDbEntity
  8
0
100
AcDbLine
 62
7
  6
CONTINUOUS
 10
261.1243358922
 20
361.0984108157
 11
273.7700872033
 21
361.0984108157
  0
LINE
  5
257
100
AcDbEntity
  8
0
100
AcDbLine
 62
7
  6
CONTINUOUS
 10
243.283643034
 20
371.4777960573
 11
243.9946090933
 21
371.2190255742
  0
LINE
  5
258
100
AcDbEntity
  8
0
100
AcDbLine
 62
7
  6
CONTINUOUS
 10
384.4812790346
 20
410.0984108157
 11
384.4812790346
 21
371.0984108157
  0
LINE
  5
259
100
AcDbEntity
  8
BEZUGSACHSEN
100
AcDbLine
 62
7
  6
CONTINUOUS
 10
109.9472115477
 20
364.5984108157
 11
114.4472115477
 21
364.5984108157
  0
LINE
  5
25A
100
AcDbEntity
  8
BEZUGSACHSEN
100
AcDbLine
 62
7
  6
CONTINUOUS
 10
25.9677191973
 20
365.0984108157
 11
-4.5869696917
 21
365.0984108157
  0
LINE
  5
25B
100
AcDbEntity
  8
RUNDUNGEN
100
AcDbLine
 62
7
  6
CONTINUOUS
 10
498.9267038982
 20
365.0984108157
 11
529.4813927871
 21
365.0984108157
  0
LINE
  5
25C
100
AcDbEntity
  8
RUNDUNGEN
100
AcDbLine
 62
7
  6
CONTINUOUS
 10
143.8753595545
 20
366.5984108157
 11
130.9472115477
 21
366.5984108157
  0
LINE
  5
25D
100
AcDbEntity
  8
0
100
AcDbLine
 62
7
  6
CONTINUOUS
 10
130.9472115477
 20
366.5984108157
 11
143.8753595545
 21
366.5984108157
  0
LINE
  5
25E
100
AcDbEntity
  8
RUNDUNGEN
100
AcDbLine
 62
7
  6
CONTINUOUS
 10
404.9472115477
 20
371.0984108157
 11
384.4812790346
 21
371.0984108157
  0
LINE
  5
25F
100
AcDbEntity
  8
RUNDUNGEN
100
AcDbLine
 62
7
  6
CONTINUOUS
 10
290.2157737155
 20
371.0984108157
 11
285.4472115477
 21
371.0984108157
  0
LINE
  5
260
100
AcDbEntity
  8
RUNDUNGEN
100
AcDbLine
 62
7
  6
CONTINUOUS
 10
249.4472115477
 20
371.0984108157
 11
244.67864938
 21
371.0984108157
  0
LINE
  5
261
100
AcDbEntity
  8
0
100
AcDbLine
 62
7
  6
CONTINUOUS
 10
244.67864938
 20
371.0984108157
 11
249.4472115477
 21
371.0984108157
  0
LINE
  5
262
100
AcDbEntity
  8
0
100
AcDbLine
 62
7
  6
CONTINUOUS
 10
285.4472115477
 20
371.0984108157
 11
290.2157737155
 21
371.0984108157
  0
LINE
  5
263
100
AcDbEntity
  8
0
100
AcDbLine
 62
7
  6
CONTINUOUS
 10
384.4812790346
 20
371.0984108157
 11
404.9472115477
 21
371.0984108157
  0
LINE
  5
264
100
AcDbEntity
  8
0
100
AcDbLine
 62
7
  6
CONTINUOUS
 10
152.5925935326
 20
371.5984108157
 11
242.5996027474
 21
371.5984108157
  0
LINE
  5
265
100
AcDbEntity
  8
0
100
AcDbLine
 62
7
  6
CONTINUOUS
 10
292.294820348
 20
371.5984108157
 11
382.3018295629
 21
371.5984108157
  0
LINE
  5
266
100
AcDbEntity
  8
RUNDUNGEN
100
AcDbLine
 62
7
  6
CONTINUOUS
 10
472.4744510207
 20
376.3484108157
 11
470.7393471715
 21
376.3484108157
  0
LINE
  5
267
100
AcDbEntity
  8
RUNDUNGEN
100
AcDbLine
 62
7
  6
CONTINUOUS
 10
54.155075924
 20
376.3484108157
 11
52.419968433
 21
376.3484108157
  0
LINE
  5
268
100
AcDbEntity
  8
RUNDUNGEN
100
AcDbLine
 62
7
  6
CONTINUOUS
 10
372.4472115477
 20
379.5984108157
 11
289.4472792656
 21
379.5984108157
  0
LINE
  5
269
100
AcDbEntity
  8
RUNDUNGEN
100
AcDbLine
 62
7
  6
CONTINUOUS
 10
245.4472115477
 20
379.5984108157
 11
162.4474713633
 21
379.5984108157
  0
LINE
  5
26A
100
AcDbEntity
  8
BEZUGSACHSEN
100
AcDbLine
 62
7
  6
CONTINUOUS
 10
462.3472115477
 20
380.5984108157
 11
405.9472115477
 21
380.5984108157
  0
LINE
  5
26B
100
AcDbEntity
  8
BEZUGSACHSEN
100
AcDbLine
 62
7
  6
CONTINUOUS
 10
375.7638363381
 20
380.5984108157
 11
345.3472115477
 21
380.5984108157
  0
LINE
  5
26C
100
AcDbEntity
  8
BEZUGSACHSEN
100
AcDbLine
 62
7
  6
CONTINUOUS
 10
62.5472115477
 20
380.5984108157
 11
107.9472115477
 21
380.5984108157
  0
LINE
  5
26D
100
AcDbEntity
  8
BEZUGSACHSEN
100
AcDbLine
 62
7
  6
CONTINUOUS
 10
114.9472115477
 20
380.5984108157
 11
129.9472115477
 21
380.5984108157
  0
LINE
  5
26E
100
AcDbEntity
  8
BEZUGSACHSEN
100
AcDbLine
 62
7
  6
CONTINUOUS
 10
159.1336953952
 20
380.5984108157
 11
187.5472115477
 21
380.5984108157
  0
LINE
  5
26F
100
AcDbEntity
  8
0
100
AcDbLine
 62
7
  6
CONTINUOUS
 10
62.5472115477
 20
381.9381567779
 11
107.9472115477
 21
381.9381567779
  0
LINE
  5
270
100
AcDbEntity
  8
0
100
AcDbLine
 62
7
  6
CONTINUOUS
 10
114.9472115477
 20
381.9381567779
 11
129.9472115477
 21
381.9381567779
  0
LINE
  5
271
100
AcDbEntity
  8
0
100
AcDbLine
 62
7
  6
CONTINUOUS
 10
157.695936512
 20
381.9381567779
 11
187.5472115477
 21
381.9381567779
  0
LINE
  5
272
100
AcDbEntity
  8
BEZUGSACHSEN
100
AcDbLine
 62
7
  6
CONTINUOUS
 10
343.3472115477
 20
383.0984108157
 11
332.3472115477
 21
383.0984108157
  0
LINE
  5
273
100
AcDbEntity
  8
BEZUGSACHSEN
100
AcDbLine
 62
7
  6
CONTINUOUS
 10
189.5472115477
 20
383.0984108157
 11
200.5472115477
 21
383.0984108157
  0
LINE
  5
274
100
AcDbEntity
  8
0
100
AcDbLine
 62
7
  6
CONTINUOUS
 10
189.5472115477
 20
385.008240872
 11
200.5472115477
 21
385.008240872
  0
LINE
  5
275
100
AcDbEntity
  8
BEZUGSACHSEN
100
AcDbLine
 62
7
  6
CONTINUOUS
 10
-3.465363996
 20
385.4984108157
 11
-19.3850096065
 21
385.4984108157
  0
LINE
  5
276
100
AcDbEntity
  8
RUNDUNGEN
100
AcDbLine
 62
7
  6
CONTINUOUS
 10
528.3597870915
 20
385.4984108157
 11
544.279432702
 21
385.4984108157
  0
LINE
  5
277
100
AcDbEntity
  8
0
100
AcDbLine
 62
7
  6
CONTINUOUS
 10
63.5472115477
 20
385.5984108157
 11
107.9472115477
 21
385.5984108157
  0
LINE
  5
278
100
AcDbEntity
  8
0
100
AcDbLine
 62
7
  6
CONTINUOUS
 10
114.9472115477
 20
385.5984108157
 11
129.9472115477
 21
385.5984108157
  0
LINE
  5
279
100
AcDbEntity
  8
0
100
AcDbLine
 62
7
  6
CONTINUOUS
 10
156.447211548
 20
385.5984108157
 11
200.5472115477
 21
385.5984108157
  0
LINE
  5
27A
100
AcDbEntity
  8
RUNDUNGEN
100
AcDbLine
 62
7
  6
CONTINUOUS
 10
405.9472115477
 20
372.0984108157
 11
405.9472115477
 21
409.0984108157
  0
LINE
  5
27B
100
AcDbEntity
  8
RUNDUNGEN
100
AcDbLine
 62
7
  6
CONTINUOUS
 10
-3.465363996
 20
395.6984108157
 11
-19.3850096065
 21
395.6984108157
  0
LINE
  5
27C
100
AcDbEntity
  8
BEZUGSACHSEN
100
AcDbLine
 62
7
  6
CONTINUOUS
 10
528.3597870915
 20
395.6984108157
 11
544.279432702
 21
395.6984108157
  0
LINE
  5
27D
100
AcDbEntity
  8
BEZUGSACHSEN
100
AcDbLine
 62
7
  6
CONTINUOUS
 10
343.3472115477
 20
398.0984108157
 11
332.3472115477
 21
398.0984108157
  0
LINE
  5
27E
100
AcDbEntity
  8
BEZUGSACHSEN
100
AcDbLine
 62
7
  6
CONTINUOUS
 10
189.5472115477
 20
398.0984108157
 11
200.5472115477
 21
398.0984108157
  0
LINE
  5
27F
100
AcDbEntity
  8
BEZUGSACHSEN
100
AcDbLine
 62
7
  6
CONTINUOUS
 10
462.3472115477
 20
400.5984108157
 11
405.9472115477
 21
400.5984108157
  0
LINE
  5
280
100
AcDbEntity
  8
BEZUGSACHSEN
100
AcDbLine
 62
7
  6
CONTINUOUS
 10
375.7577810134
 20
400.5984108157
 11
345.3472115477
 21
400.5984108157
  0
LINE
  5
281
100
AcDbEntity
  8
BEZUGSACHSEN
100
AcDbLine
 62
7
  6
CONTINUOUS
 10
62.5472115477
 20
400.5984108157
 11
107.9472115477
 21
400.5984108157
  0
LINE
  5
282
100
AcDbEntity
  8
BEZUGSACHSEN
100
AcDbLine
 62
7
  6
CONTINUOUS
 10
114.9472115477
 20
400.5984108157
 11
129.9472115477
 21
400.5984108157
  0
LINE
  5
283
100
AcDbEntity
  8
BEZUGSACHSEN
100
AcDbLine
 62
7
  6
CONTINUOUS
 10
159.1336782587
 20
400.5984108157
 11
187.5472115477
 21
400.5984108157
  0
LINE
  5
284
100
AcDbEntity
  8
RUNDUNGEN
100
AcDbLine
 62
7
  6
CONTINUOUS
 10
162.4472115477
 20
401.5984108157
 11
245.4472115473
 21
401.5984108157
  0
LINE
  5
285
100
AcDbEntity
  8
RUNDUNGEN
100
AcDbLine
 62
7
  6
CONTINUOUS
 10
289.4473767652
 20
401.5984108157
 11
372.4470373726
 21
401.5984108157
  0
LINE
  5
286
100
AcDbEntity
  8
RUNDUNGEN
100
AcDbLine
 62
7
  6
CONTINUOUS
 10
472.4744510207
 20
404.8484108157
 11
470.7393471715
 21
404.8484108157
  0
LINE
  5
287
100
AcDbEntity
  8
RUNDUNGEN
100
AcDbLine
 62
7
  6
CONTINUOUS
 10
52.4199702118
 20
404.8484108157
 11
54.155075924
 21
404.8484108157
  0
LINE
  5
288
100
AcDbEntity
  8
BEZUGSACHSEN
100
AcDbLine
 62
7
  6
CONTINUOUS
 10
343.3472115477
 20
383.0984108157
 11
345.3472115477
 21
380.5984108157
  0
LINE
  5
289
100
AcDbEntity
  8
0
100
AcDbLine
 62
7
  6
CONTINUOUS
 10
152.5925935326
 20
409.5984108157
 11
242.5996027474
 21
409.5984108157
  0
LINE
  5
28A
100
AcDbEntity
  8
RUNDUNGEN
100
AcDbLine
 62
7
  6
CONTINUOUS
 10
292.294820348
 20
409.5984108157
 11
382.3018295629
 21
409.5984108157
  0
LINE
  5
28B
100
AcDbEntity
  8
0
100
AcDbLine
 62
7
  6
CONTINUOUS
 10
292.294820348
 20
409.5984108157
 11
382.3018295629
 21
409.5984108157
  0
LINE
  5
28C
100
AcDbEntity
  8
RUNDUNGEN
100
AcDbLine
 62
7
  6
CONTINUOUS
 10
404.9472115477
 20
410.0984108157
 11
384.4812790346
 21
410.0984108157
  0
LINE
  5
28D
100
AcDbEntity
  8
RUNDUNGEN
100
AcDbLine
 62
7
  6
CONTINUOUS
 10
290.2157737155
 20
410.0984108157
 11
285.4472115477
 21
410.0984108157
  0
LINE
  5
28E
100
AcDbEntity
  8
RUNDUNGEN
100
AcDbLine
 62
7
  6
CONTINUOUS
 10
249.4472115477
 20
410.0984108157
 11
244.67864938
 21
410.0984108157
  0
LINE
  5
28F
100
AcDbEntity
  8
0
100
AcDbLine
 62
7
  6
CONTINUOUS
 10
244.67864938
 20
410.0984108157
 11
249.4472115477
 21
410.0984108157
  0
LINE
  5
290
100
AcDbEntity
  8
0
100
AcDbLine
 62
7
  6
CONTINUOUS
 10
285.4472115477
 20
410.0984108157
 11
290.2157737155
 21
410.0984108157
  0
LINE
  5
291
100
AcDbEntity
  8
0
100
AcDbLine
 62
7
  6
CONTINUOUS
 10
384.4812790346
 20
410.0984108157
 11
404.9472115477
 21
410.0984108157
  0
LINE
  5
292
100
AcDbEntity
  8
RUNDUNGEN
100
AcDbLine
 62
7
  6
CONTINUOUS
 10
143.8753595545
 20
414.5984108157
 11
130.9472115477
 21
414.5984108157
  0
LINE
  5
293
100
AcDbEntity
  8
0
100
AcDbLine
 62
7
  6
CONTINUOUS
 10
130.9472115477
 20
414.5984108157
 11
143.8753595545
 21
414.5984108157
  0
LINE
  5
294
100
AcDbEntity
  8
RUNDUNGEN
100
AcDbLine
 62
7
  6
CONTINUOUS
 10
25.9677191973
 20
416.0984108157
 11
-4.5869696917
 21
416.0984108157
  0
LINE
  5
295
100
AcDbEntity
  8
BEZUGSACHSEN
100
AcDbLine
 62
7
  6
CONTINUOUS
 10
498.9267038982
 20
416.0984108157
 11
529.4813927871
 21
416.0984108157
  0
LINE
  5
296
100
AcDbEntity
  8
BEZUGSACHSEN
100
AcDbLine
 62
7
  6
CONTINUOUS
 10
109.9472115477
 20
416.5984108157
 11
114.4472115477
 21
416.5984108157
  0
LINE
  5
297
100
AcDbEntity
  8
0
100
AcDbLine
 62
7
  6
CONTINUOUS
 10
260.4472115477
 20
420.0984108157
 11
274.4472115477
 21
420.0984108157
  0
LINE
  5
298
100
AcDbEntity
  8
0
100
AcDbLine
 62
7
  6
CONTINUOUS
 10
254.4472115477
 20
421.5984108157
 11
260.4472115477
 21
421.5984108157
  0
LINE
  5
299
100
AcDbEntity
  8
0
100
AcDbLine
 62
7
  6
CONTINUOUS
 10
274.4472115477
 20
421.5984108157
 11
280.4472115477
 21
421.5984108157
  0
LINE
  5
29A
100
AcDbEntity
  8
0
100
AcDbLine
 62
7
  6
CONTINUOUS
 10
290.8998140021
 20
409.9777960573
 11
291.6107800614
 21
409.7190255742
  0
LWPOLYLINE
  5
29B
100
AcDbEntity
  8
RUNDUNGEN
100
AcDbPolyline
 62
7
  6
CONTINUOUS
 90
3
 70
0
 10
555.2128753085
 20
378.4589519524
 10
555.2208096694
 20
378.4764916798
 10
555.2750336885
 20
378.615419087
  0
LINE
  5
29C
100
AcDbEntity
  8
RUNDUNGEN
100
AcDbLine
 62
7
  6
CONTINUOUS
 10
555.2128753085
 20
378.4589519524
 11
555.2127578182
 21
378.4586962252
  0
LINE
  5
29D
100
AcDbEntity
  8
RUNDUNGEN
100
AcDbLine
 62
7
  6
CONTINUOUS
 10
480.4744541653
 20
374.2048165364
 11
493.9266999248
 21
366.4381588259
  0
LINE
  5
29E
100
AcDbEntity
  8
RUNDUNGEN
100
AcDbLine
 62
7
  6
CONTINUOUS
 10
555.2750336885
 20
378.615419087
 11
555.3156750606
 21
378.7572960008
  0
LINE
  5
29F
100
AcDbEntity
  8
RUNDUNGEN
100
AcDbLine
 62
7
  6
CONTINUOUS
 10
468.6180268279
 20
377.2270904722
 11
467.296959016
 21
378.548158284
  0
LINE
  5
2A0
100
AcDbEntity
  8
BEZUGSACHSEN
100
AcDbLine
 62
7
  6
CONTINUOUS
 10
467.296959016
 20
378.548158284
 11
468.6180268279
 21
377.2270904722
  0
LWPOLYLINE
  5
2A1
100
AcDbEntity
  8
RUNDUNGEN
100
AcDbPolyline
 62
7
  6
CONTINUOUS
 90
3
 70
0
 10
555.3156750606
 20
378.7572960008
 10
555.3430105006
 20
378.9021654916
 10
555.3539442139
 20
379.0022586733
  0
LINE
  5
2A2
100
AcDbEntity
  8
BEZUGSACHSEN
100
AcDbLine
 62
7
  6
CONTINUOUS
 10
535.7330908683
 20
414.8264884602
 11
548.2219558904
 21
409.5252797753
  0
LWPOLYLINE
  5
2A3
100
AcDbEntity
  8
BEZUGSACHSEN
100
AcDbPolyline
 62
7
  6
CONTINUOUS
 90
8
 70
0
 10
555.5620930917
 20
396.5984108157
 10
555.5585088381
 20
397.3470272124
 10
555.545262803
 20
398.2186239359
 10
555.5221715973
 20
399.0884065399
 10
555.4891957912
 20
399.9528122087
 10
555.4463424487
 20
400.8083311014
 10
555.393664099
 20
401.6514838533
 10
555.3539339827
 20
402.1946885764
  0
LINE
  5
2A4
100
AcDbEntity
  8
BEZUGSACHSEN
100
AcDbLine
 62
7
  6
CONTINUOUS
 10
545.279432702
 20
386.4984573891
 11
545.279432702
 21
394.6983642423
  0
LINE
  5
2A5
100
AcDbEntity
  8
RUNDUNGEN
100
AcDbLine
 62
7
  6
CONTINUOUS
 10
555.5620931132
 20
396.5984108157
 11
555.5620931132
 21
384.5984108157
  0
LWPOLYLINE
  5
2A6
100
AcDbEntity
  8
RUNDUNGEN
100
AcDbPolyline
 62
7
  6
CONTINUOUS
 90
8
 70
0
 10
555.3539339827
 20
379.002133055
 10
555.393664099
 20
379.5453377781
 10
555.4463424487
 20
380.3884905301
 10
555.4891957912
 20
381.2440094227
 10
555.5221715973
 20
382.1084150915
 10
555.545262803
 20
382.9781976956
 10
555.5585088381
 20
383.8497944191
 10
555.5620930917
 20
384.5984108157
  0
LWPOLYLINE
  5
2A7
100
AcDbEntity
  8
BEZUGSACHSEN
100
AcDbPolyline
 62
7
  6
CONTINUOUS
 90
3
 70
0
 10
555.3539441126
 20
402.1945642655
 10
555.3429827349
 20
402.2948526218
 10
555.31564776
 20
402.4396408125
  0
LINE
  5
2A8
100
AcDbEntity
  8
BEZUGSACHSEN
100
AcDbLine
 62
7
  6
CONTINUOUS
 10
555.2128752406
 20
402.7378698271
 11
555.2127578182
 21
402.7381254062
  0
LWPOLYLINE
  5
2A9
100
AcDbEntity
  8
BEZUGSACHSEN
100
AcDbPolyline
 62
7
  6
CONTINUOUS
 90
3
 70
0
 10
555.2750209331
 20
402.5814403594
 10
555.2208075746
 20
402.7203346576
 10
555.2128752406
 20
402.7378698271
  0
LINE
  5
2AA
100
AcDbEntity
  8
BEZUGSACHSEN
100
AcDbLine
 62
7
  6
CONTINUOUS
 10
555.31564776
 20
402.4396408125
 11
555.2750209331
 21
402.5814403594
  0
LINE
  5
2AB
100
AcDbEntity
  8
BEZUGSACHSEN
100
AcDbLine
 62
7
  6
CONTINUOUS
 10
714.4640859308
 20
366.4101975701
 11
714.4639489501
 21
366.410131445
  0
LWPOLYLINE
  5
2AC
100
AcDbEntity
  8
BEZUGSACHSEN
100
AcDbPolyline
 62
7
  6
CONTINUOUS
 90
9
 70
0
 10
714.4639489501
 20
366.410131445
 10
714.8208264874
 20
366.5760958038
 10
715.2822175655
 20
366.7738274606
 10
715.7699635811
 20
366.9648832113
 10
716.2824333113
 20
367.1482352098
 10
716.8180260584
 20
367.3230134548
 10
717.3751279103
 20
367.4884635555
 10
717.9518517748
 20
367.6438632298
 10
718.4424953113
 20
367.7644007779
  0
LWPOLYLINE
  5
2AD
100
AcDbEntity
  8
BEZUGSACHSEN
100
AcDbPolyline
 62
7
  6
CONTINUOUS
 90
3
 70
0
 10
734.2715294186
 20
371.5599089981
 10
734.3649308397
 20
371.6267145297
 10
734.3780440388
 20
371.6372254254
  0
LINE
  5
2AE
100
AcDbEntity
  8
BEZUGSACHSEN
100
AcDbLine
 62
7
  6
CONTINUOUS
 10
732.3022460732
 20
368.5767076358
 11
732.3023255649
 21
368.5767863956
  0
LWPOLYLINE
  5
2AF
100
AcDbEntity
  8
BEZUGSACHSEN
100
AcDbPolyline
 62
7
  6
CONTINUOUS
 90
7
 70
0
 10
686.8631404837
 20
378.273660417
 10
686.7604655087
 20
377.7172722364
 10
686.6693316444
 20
377.1895404984
 10
686.5928467816
 20
376.69310427
 10
686.5335462188
 20
376.2239650671
 10
686.4952098337
 20
375.7759588899
 10
686.4838055185
 20
375.4180677762
  0
LINE
  5
2B0
100
AcDbEntity
  8
BEZUGSACHSEN
100
AcDbLine
 62
7
  6
CONTINUOUS
 10
687.3381839973
 20
380.7514469326
 11
686.8631404837
 21
378.273660417
  0
LWPOLYLINE
  5
2B1
100
AcDbEntity
  8
BEZUGSACHSEN
100
AcDbPolyline
 62
7
  6
CONTINUOUS
 90
3
 70
0
 10
686.5046596705
 20
414.3865969816
 10
686.4856217596
 20
414.1838414109
 10
686.4838000466
 20
414.0984993324
  0
LINE
  5
2B2
100
AcDbEntity
  8
BEZUGSACHSEN
100
AcDbLine
 62
7
  6
CONTINUOUS
 10
687.7920113626
 20
383.4160338995
 11
687.7920314664
 21
383.4161671139
  0
LWPOLYLINE
  5
2B3
100
AcDbEntity
  8
BEZUGSACHSEN
100
AcDbPolyline
 62
7
  6
CONTINUOUS
 90
5
 70
0
 10
687.7920091622
 20
383.416034232
 10
687.6979241796
 20
382.8111924023
 10
687.581766264
 20
382.1102313182
 10
687.461240052
 20
381.4228657805
 10
687.3381839973
 20
380.7514469326
  0
LINE
  5
2B4
100
AcDbEntity
  8
RUNDUNGEN
100
AcDbLine
 62
7
  6
CONTINUOUS
 10
686.4837952754
 20
394.938933727
 11
686.4918218407
 21
391.2297692744
  0
LINE
  5
2B5
100
AcDbEntity
  8
RUNDUNGEN
100
AcDbLine
 62
7
  6
CONTINUOUS
 10
686.4918218407
 20
391.2297692744
 11
686.4921698085
 21
390.5984108157
  0
LINE
  5
2B6
100
AcDbEntity
  8
RUNDUNGEN
100
AcDbLine
 62
7
  6
CONTINUOUS
 10
686.4837999999
 20
394.9389176986
 11
686.4837999999
 21
414.0984107777
  0
LINE
  5
2B7
100
AcDbEntity
  8
0
100
AcDbLine
 62
7
  6
CONTINUOUS
 10
686.4837999999
 20
405.7834651889
 11
686.4837999999
 21
414.0984108157
  0
LWPOLYLINE
  5
2B8
100
AcDbEntity
  8
BEZUGSACHSEN
100
AcDbPolyline
 62
7
  6
CONTINUOUS
 90
3
 70
0
 10
686.4921698085
 20
390.5984108157
 10
686.4885317991
 20
388.4265506668
 10
686.4837999999
 20
367.0984108538
  0
LWPOLYLINE
  5
2B9
100
AcDbEntity
  8
BEZUGSACHSEN
100
AcDbPolyline
 62
7
  6
CONTINUOUS
 90
17
 70
0
 10
686.4847837649
 20
367.0356025692
 10
686.4986451523
 20
366.8550984528
 10
686.528772847
 20
366.6765856144
 10
686.5749202776
 20
366.5015275403
 10
686.6367093933
 20
366.3313593235
 10
686.713633996
 20
366.167475516
 10
686.8050637312
 20
366.0112193345
 10
686.9102494072
 20
365.8638713218
 10
687.0283290334
 20
365.7266390717
 10
687.1583349812
 20
365.6006472011
 10
687.2992018391
 20
365.4869282339
 10
687.4497752404
 20
365.3864140568
 10
687.6088212503
 20
365.2999283565
 10
687.7750365167
 20
365.2281798416
 10
687.9470589208
 20
365.1717564528
 10
688.1234787995
 20
365.1311205251
 10
688.3028504457
 20
365.106605025
  0
LWPOLYLINE
  5
2BA
100
AcDbEntity
  8
RUNDUNGEN
100
AcDbPolyline
 62
7
  6
CONTINUOUS
 90
17
 70
0
 10
686.4846628693
 20
367.0433106093
 10
686.4975146253
 20
366.8645100023
 10
686.5269182203
 20
366.6852763109
 10
686.572461802
 20
366.5094484063
 10
686.6337698501
 20
366.3384770288
 10
686.7103367684
 20
366.1737726122
 10
686.8015309303
 20
366.0166940436
 10
686.9066001984
 20
365.8685369162
 10
687.0246779198
 20
365.7305233397
 10
687.154790142
 20
365.6037917273
 10
687.2958636207
 20
365.4893874391
 10
687.4467347165
 20
365.3882541209
 10
687.606158949
 20
365.30122596
 10
687.7728213381
 20
365.2290207626
 10
687.9453471849
 20
365.1722340795
 10
688.122313449
 20
365.1313342769
 10
688.3022604645
 20
365.1066586853
  0
LWPOLYLINE
  5
2BB
100
AcDbEntity
  8
RUNDUNGEN
100
AcDbPolyline
 62
7
  6
CONTINUOUS
 90
8
 70
0
 10
686.4838055185
 20
405.7787538552
 10
686.4952098337
 20
405.4208627415
 10
686.5335462188
 20
404.9728565643
 10
686.5928467816
 20
404.5037173614
 10
686.6693316444
 20
404.007281133
 10
686.7604655087
 20
403.4795493951
 10
686.8631404837
 20
402.9231612145
 10
687.2146251967
 20
401.0983123632
  0
LINE
  5
2BC
100
AcDbEntity
  8
BEZUGSACHSEN
100
AcDbLine
 62
7
  6
CONTINUOUS
 10
686.4838000466
 20
367.0983222966
 11
686.4847837649
 21
367.0356025692
  0
LINE
  5
2BD
100
AcDbEntity
  8
0
100
AcDbLine
 62
7
  6
CONTINUOUS
 10
690.4837999999
 20
326.3166470997
 11
690.4837999999
 21
360.8663600082
  0
LINE
  5
2BE
100
AcDbEntity
  8
BEZUGSACHSEN
100
AcDbLine
 62
7
  6
CONTINUOUS
 10
694.4837999999
 20
294.3801745317
 11
694.4837999999
 21
86.5984108157
  0
LWPOLYLINE
  5
2BF
100
AcDbEntity
  8
RUNDUNGEN
100
AcDbPolyline
 62
7
  6
CONTINUOUS
 90
13
 70
0
 10
723.6991335543
 20
385.4984108157
 10
723.7299596362
 20
385.7763963644
 10
723.8166898726
 20
386.7556022499
 10
723.8820986739
 20
387.7239381943
 10
723.9277519801
 20
388.6843131072
 10
723.9547642821
 20
389.639995777
 10
723.9637598795
 20
390.5933287336
 10
723.9549539579
 20
391.546681977
 10
723.9281321827
 20
392.5024211317
 10
723.882671076
 20
393.4628904925
 10
723.8174574059
 20
394.4313462343
 10
723.7309269345
 20
395.4106895661
 10
723.6990856316
 20
395.6984108157
  0
LINE
  5
2C0
100
AcDbEntity
  8
RUNDUNGEN
100
AcDbLine
 62
7
  6
CONTINUOUS
 10
687.7920113626
 20
397.780787732
 11
687.7920338224
 21
397.780638931
  0
LINE
  5
2C1
100
AcDbEntity
  8
BEZUGSACHSEN
100
AcDbLine
 62
7
  6
CONTINUOUS
 10
694.3937079472
 20
295.785362718
 11
690.5771951633
 21
324.8862726949
  0
LINE
  5
2C2
100
AcDbEntity
  8
RUNDUNGEN
100
AcDbLine
 62
7
  6
CONTINUOUS
 10
690.5996002847
 20
324.7154336443
 11
690.5771951633
 21
324.8862726949
  0
LINE
  5
2C3
100
AcDbEntity
  8
BEZUGSACHSEN
100
AcDbLine
 62
7
  6
CONTINUOUS
 10
730.3904048365
 20
324.8862726949
 11
726.573891913
 21
295.7853616531
  0
LINE
  5
2C4
100
AcDbEntity
  8
RUNDUNGEN
100
AcDbLine
 62
7
  6
CONTINUOUS
 10
730.3904048365
 20
324.8862726949
 11
730.367995565
 21
324.7154019999
  0
LWPOLYLINE
  5
2C5
100
AcDbEntity
  8
RUNDUNGEN
100
AcDbPolyline
 62
7
  6
CONTINUOUS
 90
6
 70
0
 10
687.2146251967
 20
401.0983123632
 10
687.3381839973
 20
400.4453746988
 10
687.461240052
 20
399.7739558509
 10
687.581766264
 20
399.0865903132
 10
687.6979241796
 20
398.3856292291
 10
687.7920091622
 20
397.7807873994
  0
LWPOLYLINE
  5
2C6
100
AcDbEntity
  8
RUNDUNGEN
100
AcDbPolyline
 62
7
  6
CONTINUOUS
 90
18
 70
0
 10
687.7920338224
 20
397.780638931
 10
687.819914461
 20
397.6146918661
 10
687.8684981688
 20
397.3874929774
 10
687.9228790882
 20
397.1883640151
 10
687.9838306201
 20
397.0078961747
 10
688.0528681748
 20
396.8397266937
 10
688.1317677292
 20
396.6802476792
 10
688.2241530294
 20
396.5250173186
 10
688.3306714673
 20
396.3766090323
 10
688.4528486177
 20
396.2361139211
 10
688.5898279111
 20
396.1071727712
 10
688.7401132311
 20
395.9928037564
 10
688.9010918956
 20
395.8956843998
 10
689.0689226987
 20
395.8178764667
 10
689.2405908931
 20
395.7598648396
 10
689.4124030596
 20
395.7215542594
 10
689.5812347056
 20
395.7019185515
 10
689.6893687407
 20
395.69841735
  0
LINE
  5
2C7
100
AcDbEntity
  8
BEZUGSACHSEN
100
AcDbLine
 62
7
  6
CONTINUOUS
 10
726.0837999999
 20
386.4983700168
 11
726.0837999999
 21
394.6984516147
  0
LINE
  5
2C8
100
AcDbEntity
  8
BEZUGSACHSEN
100
AcDbLine
 62
7
  6
CONTINUOUS
 10
726.4837999999
 20
294.3801745317
 11
726.4837999999
 21
86.5984108157
  0
LINE
  5
2C9
100
AcDbEntity
  8
0
100
AcDbLine
 62
7
  6
CONTINUOUS
 10
730.4837999999
 20
326.3166470997
 11
730.4837999999
 21
360.8663600082
  0
LINE
  5
2CA
100
AcDbEntity
  8
RUNDUNGEN
100
AcDbLine
 62
7
  6
CONTINUOUS
 10
740.2649413451
 20
396.5984108157
 11
740.2649413451
 21
384.5984108157
  0
LWPOLYLINE
  5
2CB
100
AcDbEntity
  8
BEZUGSACHSEN
100
AcDbPolyline
 62
7
  6
CONTINUOUS
 90
5
 70
0
 10
733.8966142953
 20
371.4006062111
 10
733.9593802058
 20
371.4171640692
 10
734.0677056322
 20
371.4546063649
 10
734.1721070697
 20
371.5023309302
 10
734.2715294186
 20
371.5599089981
  0
LINE
  5
2CC
100
AcDbEntity
  8
BEZUGSACHSEN
100
AcDbLine
 62
7
  6
CONTINUOUS
 10
733.8960780251
 20
371.4004778625
 11
718.4425127668
 21
367.7644048962
  0
LWPOLYLINE
  5
2CD
100
AcDbEntity
  8
BEZUGSACHSEN
100
AcDbPolyline
 62
7
  6
CONTINUOUS
 90
11
 70
0
 10
710.401881824
 20
365.0984108875
 10
710.6606633257
 20
365.1071681061
 10
711.0179816229
 20
365.1458754699
 10
711.3848280402
 20
365.2136435352
 10
711.7652044111
 20
365.3092256252
 10
712.1624406657
 20
365.4317323622
 10
712.5814699977
 20
365.5812038648
 10
713.0259853337
 20
365.7576734554
 10
713.4992576649
 20
365.9611685771
 10
714.0040415046
 20
366.1915103935
 10
714.4640859212
 20
366.41019759
  0
LINE
  5
2CE
100
AcDbEntity
  8
BEZUGSACHSEN
100
AcDbLine
 62
7
  6
CONTINUOUS
 10
710.4019908722
 20
365.0984108157
 11
688.4838078078
 21
365.0984108157
  0
LINE
  5
2CF
100
AcDbEntity
  8
RUNDUNGEN
100
AcDbLine
 62
7
  6
CONTINUOUS
 10
688.4834009529
 20
365.0984245451
 11
688.4847766282
 21
365.0984202992
  0
LINE
  5
2D0
100
AcDbEntity
  8
BEZUGSACHSEN
100
AcDbLine
 62
7
  6
CONTINUOUS
 10
688.4640693277
 20
365.098508143
 11
688.4837999999
 21
365.0984108157
  0
LINE
  5
2D1
100
AcDbEntity
  8
BEZUGSACHSEN
100
AcDbLine
 62
7
  6
CONTINUOUS
 10
688.3028504457
 20
365.106605025
 11
688.4837039733
 21
365.0984108157
  0
LINE
  5
2D2
100
AcDbEntity
  8
RUNDUNGEN
100
AcDbLine
 62
7
  6
CONTINUOUS
 10
688.3022604645
 20
365.1066586853
 11
688.4837039715
 21
365.0984108157
  0
LWPOLYLINE
  5
2D3
100
AcDbEntity
  8
BEZUGSACHSEN
100
AcDbPolyline
 62
7
  6
CONTINUOUS
 90
18
 70
0
 10
689.6893710919
 20
385.4984042786
 10
689.5794696628
 20
385.4947875838
 10
689.4101444974
 20
385.4748856827
 10
689.2380752299
 20
385.4362531015
 10
689.0663430047
 20
385.3779134316
 10
688.8986366055
 20
385.2998302779
 10
688.7379551921
 20
385.2025486495
 10
688.5880583477
 20
385.0881456933
 10
688.4515074506
 20
384.9593082754
 10
688.3297182921
 20
384.8190029598
 10
688.2235064521
 20
384.6708132173
 10
688.13131228
 20
384.5157330328
 10
688.0524412238
 20
384.3561473853
 10
687.9833916217
 20
384.1877474906
 10
687.9224089941
 20
384.0069142218
 10
687.8680847048
 20
383.8076285379
 10
687.8196978427
 20
383.5809653101
 10
687.7920314664
 20
383.4161671139
  0
LINE
  5
2D4
100
AcDbEntity
  8
BEZUGSACHSEN
100
AcDbLine
 62
7
  6
CONTINUOUS
 10
689.6892129345
 20
385.4984108157
 11
725.0838396743
 21
385.4984108157
  0
LWPOLYLINE
  5
2D5
100
AcDbEntity
  8
RUNDUNGEN
100
AcDbPolyline
 62
7
  6
CONTINUOUS
 90
3
 70
0
 10
734.3780928745
 20
409.5595564808
 10
734.3529314671
 20
409.5794658074
 10
734.2588272013
 20
409.6449952371
  0
LINE
  5
2D6
100
AcDbEntity
  8
RUNDUNGEN
100
AcDbLine
 62
7
  6
CONTINUOUS
 10
734.3780685818
 20
409.5595769372
 11
734.3781277468
 21
409.5595288223
  0
LINE
  5
2D7
100
AcDbEntity
  8
RUNDUNGEN
100
AcDbLine
 62
7
  6
CONTINUOUS
 10
689.6892129345
 20
395.6984108157
 11
725.0838396743
 21
395.6984108157
  0
LWPOLYLINE
  5
2D8
100
AcDbEntity
  8
RUNDUNGEN
100
AcDbPolyline
 62
7
  6
CONTINUOUS
 90
11
 70
0
 10
714.4640837079
 20
414.7866251101
 10
714.0028275401
 20
415.0058785118
 10
713.49729332
 20
415.2365252384
 10
713.0237069
 20
415.4400923317
 10
712.5791817284
 20
415.6164823257
 10
712.1603587907
 20
415.7657838094
 10
711.7634637833
 20
415.8880851937
 10
711.3835032778
 20
415.9834686088
 10
711.0171040183
 20
416.0510760007
 10
710.6602186882
 20
416.0896831187
 10
710.4018786601
 20
416.0984107437
  0
LINE
  5
2D9
100
AcDbEntity
  8
RUNDUNGEN
100
AcDbLine
 62
7
  6
CONTINUOUS
 10
714.4640837175
 20
414.78662513
 11
714.4639488583
 21
414.7866902307
  0
LWPOLYLINE
  5
2DA
100
AcDbEntity
  8
RUNDUNGEN
100
AcDbPolyline
 62
7
  6
CONTINUOUS
 90
5
 70
0
 10
734.2588272013
 20
409.6449952371
 10
734.1587935293
 20
409.7012633239
 10
734.053860925
 20
409.7476565989
 10
733.9450950423
 20
409.7837460632
 10
733.896670465
 20
409.7962022337
  0
LWPOLYLINE
  5
2DB
100
AcDbEntity
  8
BEZUGSACHSEN
100
AcDbPolyline
 62
7
  6
CONTINUOUS
 90
15
 70
0
 10
688.4837039715
 20
416.0984108157
 10
688.2803177756
 20
416.0880419155
 10
688.0790404449
 20
416.0570427152
 10
687.8819591166
 20
416.0057346303
 10
687.6911174096
 20
415.9346496645
 10
687.5084942366
 20
415.8445248882
 10
687.3359833381
 20
415.7362948269
 10
687.1753735655
 20
415.6110817358
 10
687.028330424
 20
415.4701840362
 10
686.8963786993
 20
415.3150627871
 10
686.7808866877
 20
415.1473265747
 10
686.6830519279
 20
414.9687147039
 10
686.6038890105
 20
414.7810796214
 10
686.5442187047
 20
414.5863671435
 10
686.5046596705
 20
414.3865969816
  0
LWPOLYLINE
  5
2DC
100
AcDbEntity
  8
RUNDUNGEN
100
AcDbPolyline
 62
7
  6
CONTINUOUS
 90
19
 70
0
 10
688.4837039733
 20
416.0984108157
 10
688.3022603662
 20
416.0901629371
 10
688.1223132031
 20
416.0654873091
 10
687.9453467436
 20
416.0245874282
 10
687.7728206773
 20
415.967800617
 10
687.6061580585
 20
415.895595236
 10
687.4467336196
 20
415.8085668447
 10
687.295862373
 20
415.7074332704
 10
687.1547887943
 20
415.5930287048
 10
687.0246765175
 20
415.4662967949
 10
686.9065988105
 20
415.3282829342
 10
686.8015296237
 20
415.1801255546
 10
686.710335633
 20
415.0230468403
 10
686.6337689909
 20
414.8583425097
 10
686.5724612251
 20
414.6873713514
 10
686.5269178733
 20
414.5115436752
 10
686.4975144733
 20
414.3323103363
 10
686.4844932242
 20
414.151150364
 10
686.4838000466
 20
414.0984993343
  0
LINE
  5
2DD
100
AcDbEntity
  8
BEZUGSACHSEN
100
AcDbLine
 62
7
  6
CONTINUOUS
 10
688.4678325499
 20
416.0983298744
 11
688.4640787573
 21
416.0983135815
  0
LINE
  5
2DE
100
AcDbEntity
  8
RUNDUNGEN
100
AcDbLine
 62
7
  6
CONTINUOUS
 10
688.4682135504
 20
416.0983500805
 11
710.4019908722
 21
416.0984108157
  0
LINE
  5
2DF
100
AcDbEntity
  8
0
100
AcDbLine
 62
7
  6
CONTINUOUS
 10
690.6217551711
 20
416.0984108157
 11
710.4019908722
 21
416.0984108157
  0
LINE
  5
2E0
100
AcDbEntity
  8
RUNDUNGEN
100
AcDbLine
 62
7
  6
CONTINUOUS
 10
718.4425127668
 20
413.4324167353
 11
733.8960780251
 21
409.796343769
  0
LWPOLYLINE
  5
2E1
100
AcDbEntity
  8
RUNDUNGEN
100
AcDbPolyline
 62
7
  6
CONTINUOUS
 90
9
 70
0
 10
718.4424952564
 20
413.4324208665
 10
717.9518967834
 20
413.5529468663
 10
717.3751877131
 20
413.7083411509
 10
716.8180669308
 20
413.8737954479
 10
716.2824433619
 20
414.0485829865
 10
715.7699444549
 20
414.2319455817
 10
715.2821816701
 20
414.4230088801
 10
714.8207998963
 20
414.6207377481
 10
714.4639488583
 20
414.7866902307
  0
LWPOLYLINE
  5
2E2
100
AcDbEntity
  8
BEZUGSACHSEN
100
AcDbPolyline
 62
7
  6
CONTINUOUS
 90
6
 70
0
 10
863.6403628522
 20
402.7378698271
 10
863.6324305181
 20
402.7203346576
 10
863.5782171596
 20
402.5814403594
 10
863.5375903328
 20
402.4396408125
 10
863.5102553578
 20
402.2948526218
 10
863.4992939801
 20
402.1945642655
  0
LINE
  5
2E3
100
AcDbEntity
  8
BEZUGSACHSEN
100
AcDbLine
 62
7
  6
CONTINUOUS
 10
863.6403628522
 20
402.7378698271
 11
863.6404802745
 21
402.7381254062
  0
LINE
  5
2E4
100
AcDbEntity
  8
RUNDUNGEN
100
AcDbLine
 62
7
  6
CONTINUOUS
 10
863.2911449796
 20
396.5984108157
 11
863.2911449796
 21
384.5984108157
  0
LWPOLYLINE
  5
2E5
100
AcDbEntity
  8
BEZUGSACHSEN
100
AcDbPolyline
 62
7
  6
CONTINUOUS
 90
8
 70
0
 10
863.4993041101
 20
402.1946885764
 10
863.4595739938
 20
401.6514838533
 10
863.4068956441
 20
400.8083311014
 10
863.3640423015
 20
399.9528122087
 10
863.3310664955
 20
399.0884065399
 10
863.3079752897
 20
398.2186239359
 10
863.2947292546
 20
397.3470272124
 10
863.2911450011
 20
396.5984108157
  0
LWPOLYLINE
  5
2E6
100
AcDbEntity
  8
RUNDUNGEN
100
AcDbPolyline
 62
7
  6
CONTINUOUS
 90
6
 70
0
 10
863.4992938789
 20
379.0022586733
 10
863.5102275921
 20
378.9021654916
 10
863.5375630322
 20
378.7572960008
 10
863.5782044043
 20
378.615419087
 10
863.6324284234
 20
378.4764916798
 10
863.6403627842
 20
378.4589519524
  0
LINE
  5
2E7
100
AcDbEntity
  8
RUNDUNGEN
100
AcDbLine
 62
7
  6
CONTINUOUS
 10
863.4595739938
 20
379.5453377781
 11
863.4993041101
 21
379.002133055
  0
LWPOLYLINE
  5
2E8
100
AcDbEntity
  8
RUNDUNGEN
100
AcDbPolyline
 62
7
  6
CONTINUOUS
 90
7
 70
0
 10
863.2911450011
 20
384.5984108157
 10
863.2947292546
 20
383.8497944191
 10
863.3079752897
 20
382.9781976956
 10
863.3310664955
 20
382.1084150915
 10
863.3640423015
 20
381.2440094227
 10
863.4068956441
 20
380.3884905301
 10
863.4595739938
 20
379.5453377781
  0
LINE
  5
2E9
100
AcDbEntity
  8
BEZUGSACHSEN
100
AcDbLine
 62
7
  6
CONTINUOUS
 10
873.5738053908
 20
394.6984108157
 11
873.5738053908
 21
386.4984108157
  0
LINE
  5
2EA
100
AcDbEntity
  8
BEZUGSACHSEN
100
AcDbLine
 62
7
  6
CONTINUOUS
 10
870.6312822024
 20
409.5252797753
 11
883.1201472244
 21
414.8264884602
  0
LINE
  5
2EB
100
AcDbEntity
  8
BEZUGSACHSEN
100
AcDbLine
 62
7
  6
CONTINUOUS
 10
951.5562790767
 20
378.548158284
 11
950.2352112649
 21
377.2270904722
  0
LINE
  5
2EC
100
AcDbEntity
  8
RUNDUNGEN
100
AcDbLine
 62
7
  6
CONTINUOUS
 10
950.2352112649
 20
377.2270904722
 11
951.5562790767
 21
378.548158284
  0
LINE
  5
2ED
100
AcDbEntity
  8
RUNDUNGEN
100
AcDbLine
 62
7
  6
CONTINUOUS
 10
924.9265346207
 20
366.4381567779
 11
938.3787829847
 21
374.204815992
  0
LINE
  5
2EE
100
AcDbEntity
  8
RUNDUNGEN
100
AcDbLine
 62
7
  6
CONTINUOUS
 10
863.6403627842
 20
378.4589519524
 11
863.6404802745
 21
378.4586962252
  0
LINE
  5
2EF
100
AcDbEntity
  8
0
100
AcDbLine
 62
7
  6
CONTINUOUS
 10
1127.9534240906
 20
409.9777960573
 11
1127.2424580314
 21
409.7190255742
  0
LINE
  5
2F0
100
AcDbEntity
  8
BEZUGSACHSEN
100
AcDbLine
 62
7
  6
CONTINUOUS
 10
1152.406026545
 20
70.5984108157
 11
1150.406026545
 21
70.5984108157
  0
LINE
  5
2F1
100
AcDbEntity
  8
RUNDUNGEN
100
AcDbLine
 62
7
  6
CONTINUOUS
 10
1012.906026545
 20
409.0984108157
 11
1012.906026545
 21
372.0984108157
  0
LINE
  5
2F2
100
AcDbEntity
  8
0
100
AcDbLine
 62
7
  6
CONTINUOUS
 10
1034.3719590581
 20
371.0984108157
 11
1034.3719590581
 21
410.0984108157
  0
LINE
  5
2F3
100
AcDbEntity
  8
0
100
AcDbLine
 62
7
  6
CONTINUOUS
 10
1175.5695950587
 20
371.4777960573
 11
1174.8586289995
 21
371.2190255742
  0
LINE
  5
2F4
100
AcDbEntity
  8
0
100
AcDbLine
 62
7
  6
CONTINUOUS
 10
1274.9778785383
 20
414.5984108157
 11
1269.128526742
 21
410.5026505943
  0
LINE
  5
2F5
100
AcDbEntity
  8
0
100
AcDbLine
 62
7
  6
CONTINUOUS
 10
1095.556026545
 20
391.7984108157
 11
1095.556026545
 21
389.3984108157
  0
LINE
  5
2F6
100
AcDbEntity
  8
0
100
AcDbLine
 62
7
  6
CONTINUOUS
 10
1097.356026545
 20
389.4734108157
 11
1097.356026545
 21
391.7234108157
  0
LINE
  5
2F7
100
AcDbEntity
  8
0
100
AcDbLine
 62
7
  6
CONTINUOUS
 10
1101.106026545
 20
393.5984108157
 11
1101.106026545
 21
388.4984108157
  0
LINE
  5
2F8
100
AcDbEntity
  8
0
100
AcDbLine
 62
7
  6
CONTINUOUS
 10
1102.906026545
 20
386.0984108157
 11
1102.906026545
 21
387.5984108157
  0
LINE
  5
2F9
100
AcDbEntity
  8
0
100
AcDbLine
 62
7
  6
CONTINUOUS
 10
1102.906026545
 20
388.4984108157
 11
1102.906026545
 21
395.0984108157
  0
LINE
  5
2FA
100
AcDbEntity
  8
0
100
AcDbLine
 62
7
  6
CONTINUOUS
 10
1104.706026545
 20
391.4984108157
 11
1104.706026545
 21
386.0984108157
  0
LINE
  5
2FB
100
AcDbEntity
  8
0
100
AcDbLine
 62
7
  6
CONTINUOUS
 10
1106.506026545
 20
386.0984108157
 11
1106.506026545
 21
391.4984108157
  0
LINE
  5
2FC
100
AcDbEntity
  8
0
100
AcDbLine
 62
7
  6
CONTINUOUS
 10
1110.106026545
 20
391.4984108157
 11
1110.106026545
 21
386.0984108157
  0
LINE
  5
2FD
100
AcDbEntity
  8
0
100
AcDbLine
 62
7
  6
CONTINUOUS
 10
1111.906026545
 20
386.0984108157
 11
1111.906026545
 21
391.4984108157
  0
LINE
  5
2FE
100
AcDbEntity
  8
0
100
AcDbLine
 62
7
  6
CONTINUOUS
 10
1237.406026545
 20
397.5984108157
 11
1229.406026545
 21
389.5984108157
  0
LINE
  5
2FF
100
AcDbEntity
  8
0
100
AcDbLine
 62
7
  6
CONTINUOUS
 10
1119.406026545
 20
395.0984108157
 11
1119.406026545
 21
391.3484108157
  0
LINE
  5
300
100
AcDbEntity
  8
0
100
AcDbLine
 62
7
  6
CONTINUOUS
 10
1119.406026545
 20
389.8484108157
 11
1119.406026545
 21
388.4984108157
  0
LINE
  5
301
100
AcDbEntity
  8
0
100
AcDbLine
 62
7
  6
CONTINUOUS
 10
1120.906026545
 20
386.0984108157
 11
1120.906026545
 21
387.5984108157
  0
LINE
  5
302
100
AcDbEntity
  8
0
100
AcDbLine
 62
7
  6
CONTINUOUS
 10
1120.906026545
 20
388.4984108157
 11
1120.906026545
 21
395.0984108157
  0
LINE
  5
303
100
AcDbEntity
  8
RUNDUNGEN
100
AcDbLine
 62
7
  6
CONTINUOUS
 10
1133.406026545
 20
327.1874918774
 11
1133.406026545
 21
416.5983317465
  0
LINE
  5
304
100
AcDbEntity
  8
RUNDUNGEN
100
AcDbLine
 62
7
  6
CONTINUOUS
 10
1387.8855184694
 20
414.7586648536
 11
1374.433270105
 21
406.9920056392
  0
LINE
  5
305
100
AcDbEntity
  8
BEZUGSACHSEN
100
AcDbLine
 62
7
  6
CONTINUOUS
 10
951.5562790767
 20
402.6486633474
 11
950.2352112649
 21
403.9697311593
  0
LINE
  5
306
100
AcDbEntity
  8
RUNDUNGEN
100
AcDbLine
 62
7
  6
CONTINUOUS
 10
950.2352112649
 20
403.9697311593
 11
951.5562790767
 21
402.6486633474
  0
LINE
  5
307
100
AcDbEntity
  8
RUNDUNGEN
100
AcDbLine
 62
7
  6
CONTINUOUS
 10
1142.406026545
 20
293.509329754
 11
1142.406026545
 21
78.5984108157
  0
LINE
  5
308
100
AcDbEntity
  8
0
100
AcDbLine
 62
7
  6
CONTINUOUS
 10
1144.406026545
 20
362.5984108157
 11
1144.406026545
 21
421.5984108157
  0
LINE
  5
309
100
AcDbEntity
  8
0
100
AcDbLine
 62
7
  6
CONTINUOUS
 10
1158.406026545
 20
362.5984108157
 11
1158.406026545
 21
421.5984108157
  0
LINE
  5
30A
100
AcDbEntity
  8
BEZUGSACHSEN
100
AcDbLine
 62
7
  6
CONTINUOUS
 10
1168.9562888456
 20
324.0742997232
 11
1160.8524883529
 21
296.6114202758
  0
LINE
  5
30B
100
AcDbEntity
  8
BEZUGSACHSEN
100
AcDbLine
 62
7
  6
CONTINUOUS
 10
1442.1807708877
 20
371.6715418562
 11
1429.6919042884
 21
366.3703325018
  0
LINE
  5
30C
100
AcDbEntity
  8
RUNDUNGEN
100
AcDbLine
 62
7
  6
CONTINUOUS
 10
1133.8557642445
 20
324.0742997232
 11
1141.9595628089
 21
296.6114268105
  0
LINE
  5
30D
100
AcDbEntity
  8
BEZUGSACHSEN
100
AcDbLine
 62
7
  6
CONTINUOUS
 10
1160.406026545
 20
293.509329754
 11
1160.406026545
 21
78.5984108157
  0
LINE
  5
30E
100
AcDbEntity
  8
BEZUGSACHSEN
100
AcDbLine
 62
7
  6
CONTINUOUS
 10
1169.406026545
 20
327.1874918774
 11
1169.406026545
 21
416.5984108157
  0
LINE
  5
30F
100
AcDbEntity
  8
RUNDUNGEN
100
AcDbLine
 62
7
  6
CONTINUOUS
 10
870.6312822024
 20
371.6715418562
 11
883.1201472244
 21
366.3703331713
  0
LINE
  5
310
100
AcDbEntity
  8
BEZUGSACHSEN
100
AcDbLine
 62
7
  6
CONTINUOUS
 10
1362.5768418252
 20
403.9697311593
 11
1361.2557740134
 21
402.6486633474
  0
LINE
  5
311
100
AcDbEntity
  8
RUNDUNGEN
100
AcDbLine
 62
7
  6
CONTINUOUS
 10
1362.5768418252
 20
403.9697311593
 11
1361.2557740134
 21
402.6486633474
  0
LINE
  5
312
100
AcDbEntity
  8
BEZUGSACHSEN
100
AcDbLine
 62
7
  6
CONTINUOUS
 10
924.9265346207
 20
414.7586648536
 11
938.3787829847
 21
406.9920056394
  0
LINE
  5
313
100
AcDbEntity
  8
0
100
AcDbLine
 62
7
  6
CONTINUOUS
 10
1113.106026545
 20
395.0984108157
 11
1115.3751442725
 21
391.1681836234
  0
LINE
  5
314
100
AcDbEntity
  8
0
100
AcDbLine
 62
7
  6
CONTINUOUS
 10
1116.5701281602
 20
392.0984108157
 11
1114.8380773526
 21
395.0984108157
  0
LINE
  5
315
100
AcDbEntity
  8
0
100
AcDbLine
 62
7
  6
CONTINUOUS
 10
1233.406026545
 20
389.5984108157
 11
1233.406026545
 21
379.5984108157
  0
LINE
  5
316
100
AcDbEntity
  8
0
100
AcDbLine
 62
7
  6
CONTINUOUS
 10
1241.406026545
 20
379.5984108157
 11
1241.406026545
 21
389.5984108157
  0
LINE
  5
317
100
AcDbEntity
  8
0
100
AcDbLine
 62
7
  6
CONTINUOUS
 10
1146.406026545
 20
360.5984108157
 11
1156.406026545
 21
360.5984108157
  0
LINE
  5
318
100
AcDbEntity
  8
0
100
AcDbLine
 62
7
  6
CONTINUOUS
 10
1157.7289022006
 20
361.0984108157
 11
1145.0831508895
 21
361.0984108157
  0
LINE
  5
319
100
AcDbEntity
  8
0
100
AcDbLine
 62
7
  6
CONTINUOUS
 10
1127.9534240906
 20
371.2190255742
 11
1127.2424580314
 21
371.4777960573
  0
LINE
  5
31A
100
AcDbEntity
  8
0
100
AcDbLine
 62
7
  6
CONTINUOUS
 10
1274.9778785383
 20
366.5984108157
 11
1274.9778785383
 21
414.5984108157
  0
LINE
  5
31B
100
AcDbEntity
  8
RUNDUNGEN
100
AcDbLine
 62
7
  6
CONTINUOUS
 10
1288.906026545
 20
367.5984108157
 11
1288.906026545
 21
413.5984108157
  0
LINE
  5
31C
100
AcDbEntity
  8
BEZUGSACHSEN
100
AcDbLine
 62
7
  6
CONTINUOUS
 10
1308.906026545
 20
364.5984108157
 11
1304.406026545
 21
364.5984108157
  0
LINE
  5
31D
100
AcDbEntity
  8
BEZUGSACHSEN
100
AcDbLine
 62
7
  6
CONTINUOUS
 10
1423.4402077845
 20
365.0984108157
 11
1392.8854339152
 21
365.0984108157
  0
LINE
  5
31E
100
AcDbEntity
  8
RUNDUNGEN
100
AcDbLine
 62
7
  6
CONTINUOUS
 10
889.3718453056
 20
365.0984108157
 11
919.9266180424
 21
365.0984108157
  0
LINE
  5
31F
100
AcDbEntity
  8
0
100
AcDbLine
 62
7
  6
CONTINUOUS
 10
1287.906026545
 20
366.5984108157
 11
1274.9778785383
 21
366.5984108157
  0
LINE
  5
320
100
AcDbEntity
  8
RUNDUNGEN
100
AcDbLine
 62
7
  6
CONTINUOUS
 10
1274.9778785383
 20
366.5984108157
 11
1287.906026545
 21
366.5984108157
  0
LINE
  5
321
100
AcDbEntity
  8
0
100
AcDbLine
 62
7
  6
CONTINUOUS
 10
1174.1745887128
 20
371.0984108157
 11
1169.406026545
 21
371.0984108157
  0
LINE
  5
322
100
AcDbEntity
  8
0
100
AcDbLine
 62
7
  6
CONTINUOUS
 10
1133.406026545
 20
371.0984108157
 11
1128.6374643773
 21
371.0984108157
  0
LINE
  5
323
100
AcDbEntity
  8
0
100
AcDbLine
 62
7
  6
CONTINUOUS
 10
1034.3719590581
 20
371.0984108157
 11
1013.906026545
 21
371.0984108157
  0
LINE
  5
324
100
AcDbEntity
  8
RUNDUNGEN
100
AcDbLine
 62
7
  6
CONTINUOUS
 10
1013.906026545
 20
371.0984108157
 11
1034.3719590581
 21
371.0984108157
  0
LINE
  5
325
100
AcDbEntity
  8
RUNDUNGEN
100
AcDbLine
 62
7
  6
CONTINUOUS
 10
1128.6374643773
 20
371.0984108157
 11
1133.406026545
 21
371.0984108157
  0
LINE
  5
326
100
AcDbEntity
  8
RUNDUNGEN
100
AcDbLine
 62
7
  6
CONTINUOUS
 10
1169.406026545
 20
371.0984108157
 11
1174.1745887128
 21
371.0984108157
  0
LINE
  5
327
100
AcDbEntity
  8
0
100
AcDbLine
 62
7
  6
CONTINUOUS
 10
1266.2606445602
 20
371.5984108157
 11
1176.2536353454
 21
371.5984108157
  0
LINE
  5
328
100
AcDbEntity
  8
0
100
AcDbLine
 62
7
  6
CONTINUOUS
 10
1126.5584177447
 20
371.5984108157
 11
1036.5514085299
 21
371.5984108157
  0
LINE
  5
329
100
AcDbEntity
  8
RUNDUNGEN
100
AcDbLine
 62
7
  6
CONTINUOUS
 10
1366.4332651804
 20
376.3484108157
 11
1364.6981621688
 21
376.3484108157
  0
LINE
  5
32A
100
AcDbEntity
  8
RUNDUNGEN
100
AcDbLine
 62
7
  6
CONTINUOUS
 10
946.3787870721
 20
376.3484108157
 11
948.1138909213
 21
376.3484108157
  0
LINE
  5
32B
100
AcDbEntity
  8
0
100
AcDbLine
 62
7
  6
CONTINUOUS
 10
1233.406026545
 20
379.5984108157
 11
1241.406026545
 21
379.5984108157
  0
LINE
  5
32C
100
AcDbEntity
  8
BEZUGSACHSEN
100
AcDbLine
 62
7
  6
CONTINUOUS
 10
1356.306026545
 20
380.5984108157
 11
1310.906026545
 21
380.5984108157
  0
LINE
  5
32D
100
AcDbEntity
  8
BEZUGSACHSEN
100
AcDbLine
 62
7
  6
CONTINUOUS
 10
1303.906026545
 20
380.5984108157
 11
1288.906026545
 21
380.5984108157
  0
LINE
  5
32E
100
AcDbEntity
  8
BEZUGSACHSEN
100
AcDbLine
 62
7
  6
CONTINUOUS
 10
1012.906026545
 20
380.5984108157
 11
956.506026545
 21
380.5984108157
  0
LINE
  5
32F
100
AcDbEntity
  8
RUNDUNGEN
100
AcDbLine
 62
7
  6
CONTINUOUS
 10
890.4934510013
 20
385.4984108157
 11
866.7327584605
 21
385.4984108157
  0
LINE
  5
330
100
AcDbEntity
  8
BEZUGSACHSEN
100
AcDbLine
 62
7
  6
CONTINUOUS
 10
1422.3186020888
 20
385.4984108157
 11
1446.0792946296
 21
385.4984108157
  0
LINE
  5
331
100
AcDbEntity
  8
RUNDUNGEN
100
AcDbLine
 62
7
  6
CONTINUOUS
 10
1303.906026545
 20
416.0984108157
 11
1303.906026545
 21
365.0984108157
  0
LINE
  5
332
100
AcDbEntity
  8
RUNDUNGEN
100
AcDbLine
 62
7
  6
CONTINUOUS
 10
1310.906026545
 20
414.5984107557
 11
1310.906026545
 21
366.5984108757
  0
LINE
  5
333
100
AcDbEntity
  8
0
100
AcDbLine
 62
7
  6
CONTINUOUS
 10
1098.856026545
 20
386.0984108157
 11
1102.906026545
 21
386.0984108157
  0
LINE
  5
334
100
AcDbEntity
  8
0
100
AcDbLine
 62
7
  6
CONTINUOUS
 10
1104.706026545
 20
386.0984108157
 11
1106.506026545
 21
386.0984108157
  0
LINE
  5
335
100
AcDbEntity
  8
0
100
AcDbLine
 62
7
  6
CONTINUOUS
 10
1110.106026545
 20
386.0984108157
 11
1111.906026545
 21
386.0984108157
  0
LINE
  5
336
100
AcDbEntity
  8
0
100
AcDbLine
 62
7
  6
CONTINUOUS
 10
1116.331026545
 20
386.0984108157
 11
1120.906026545
 21
386.0984108157
  0
LINE
  5
337
100
AcDbEntity
  8
0
100
AcDbLine
 62
7
  6
CONTINUOUS
 10
1120.906026545
 20
387.5984108157
 11
1116.931026545
 21
387.5984108157
  0
LINE
  5
338
100
AcDbEntity
  8
0
100
AcDbLine
 62
7
  6
CONTINUOUS
 10
1102.906026545
 20
387.5984108157
 11
1099.231026545
 21
387.5984108157
  0
LINE
  5
339
100
AcDbEntity
  8
0
100
AcDbLine
 62
7
  6
CONTINUOUS
 10
1101.106026545
 20
388.4984108157
 11
1102.906026545
 21
388.4984108157
  0
LINE
  5
33A
100
AcDbEntity
  8
0
100
AcDbLine
 62
7
  6
CONTINUOUS
 10
1119.406026545
 20
388.4984108157
 11
1120.906026545
 21
388.4984108157
  0
LINE
  5
33B
100
AcDbEntity
  8
0
100
AcDbLine
 62
7
  6
CONTINUOUS
 10
1229.406026545
 20
389.5984108157
 11
1233.406026545
 21
389.5984108157
  0
LINE
  5
33C
100
AcDbEntity
  8
0
100
AcDbLine
 62
7
  6
CONTINUOUS
 10
1241.406026545
 20
389.5984108157
 11
1245.406026545
 21
389.5984108157
  0
LINE
  5
33D
100
AcDbEntity
  8
0
100
AcDbLine
 62
7
  6
CONTINUOUS
 10
1116.931026545
 20
389.8484108157
 11
1119.406026545
 21
389.8484108157
  0
LINE
  5
33E
100
AcDbEntity
  8
0
100
AcDbLine
 62
7
  6
CONTINUOUS
 10
1119.406026545
 20
391.3484108157
 11
1117.8691662659
 21
391.3484108157
  0
LINE
  5
33F
100
AcDbEntity
  8
0
100
AcDbLine
 62
7
  6
CONTINUOUS
 10
1099.231026545
 20
393.5984108157
 11
1101.106026545
 21
393.5984108157
  0
LINE
  5
340
100
AcDbEntity
  8
0
100
AcDbLine
 62
7
  6
CONTINUOUS
 10
1120.906026545
 20
395.0984108157
 11
1119.406026545
 21
395.0984108157
  0
LINE
  5
341
100
AcDbEntity
  8
0
100
AcDbLine
 62
7
  6
CONTINUOUS
 10
1114.8380773526
 20
395.0984108157
 11
1113.106026545
 21
395.0984108157
  0
LINE
  5
342
100
AcDbEntity
  8
0
100
AcDbLine
 62
7
  6
CONTINUOUS
 10
1102.906026545
 20
395.0984108157
 11
1098.856026545
 21
395.0984108157
  0
LINE
  5
343
100
AcDbEntity
  8
0
100
AcDbLine
 62
7
  6
CONTINUOUS
 10
1355.306026545
 20
395.5984108157
 11
1310.906026545
 21
395.5984108157
  0
LINE
  5
344
100
AcDbEntity
  8
0
100
AcDbLine
 62
7
  6
CONTINUOUS
 10
1303.906026545
 20
395.5984108157
 11
1288.906026545
 21
395.5984108157
  0
LINE
  5
345
100
AcDbEntity
  8
BEZUGSACHSEN
100
AcDbLine
 62
7
  6
CONTINUOUS
 10
890.4934510013
 20
395.6984108157
 11
866.7327584605
 21
395.6984108157
  0
LINE
  5
346
100
AcDbEntity
  8
RUNDUNGEN
100
AcDbLine
 62
7
  6
CONTINUOUS
 10
1422.3186020888
 20
395.6984108157
 11
1446.0792946296
 21
395.6984108157
  0
LINE
  5
347
100
AcDbEntity
  8
0
100
AcDbLine
 62
7
  6
CONTINUOUS
 10
1356.306026545
 20
399.2586648536
 11
1310.906026545
 21
399.2586648536
  0
LINE
  5
348
100
AcDbEntity
  8
0
100
AcDbLine
 62
7
  6
CONTINUOUS
 10
1303.906026545
 20
399.2586648536
 11
1288.906026545
 21
399.2586648536
  0
LINE
  5
349
100
AcDbEntity
  8
BEZUGSACHSEN
100
AcDbLine
 62
7
  6
CONTINUOUS
 10
1356.306026545
 20
400.5984108157
 11
1310.906026545
 21
400.5984108157
  0
LINE
  5
34A
100
AcDbEntity
  8
BEZUGSACHSEN
100
AcDbLine
 62
7
  6
CONTINUOUS
 10
1303.906026545
 20
400.5984108157
 11
1288.906026545
 21
400.5984108157
  0
LINE
  5
34B
100
AcDbEntity
  8
BEZUGSACHSEN
100
AcDbLine
 62
7
  6
CONTINUOUS
 10
1012.906026545
 20
400.5984108157
 11
956.506026545
 21
400.5984108157
  0
LINE
  5
34C
100
AcDbEntity
  8
RUNDUNGEN
100
AcDbLine
 62
7
  6
CONTINUOUS
 10
1366.433267881
 20
404.8484108157
 11
1364.6981621688
 21
404.8484108157
  0
LINE
  5
34D
100
AcDbEntity
  8
RUNDUNGEN
100
AcDbLine
 62
7
  6
CONTINUOUS
 10
946.3787870721
 20
404.8484108157
 11
948.1138909213
 21
404.8484108157
  0
LINE
  5
34E
100
AcDbEntity
  8
0
100
AcDbLine
 62
7
  6
CONTINUOUS
 10
1175.5695950587
 20
409.7190255742
 11
1174.8586289995
 21
409.9777960573
  0
LINE
  5
34F
100
AcDbEntity
  8
0
100
AcDbLine
 62
7
  6
CONTINUOUS
 10
1266.2606445602
 20
409.5984108157
 11
1176.2536353454
 21
409.5984108157
  0
LINE
  5
350
100
AcDbEntity
  8
0
100
AcDbLine
 62
7
  6
CONTINUOUS
 10
1126.5584177447
 20
409.5984108157
 11
1036.5514085299
 21
409.5984108157
  0
LINE
  5
351
100
AcDbEntity
  8
RUNDUNGEN
100
AcDbLine
 62
7
  6
CONTINUOUS
 10
1126.5584177447
 20
409.5984108157
 11
1036.5514085299
 21
409.5984108157
  0
LINE
  5
352
100
AcDbEntity
  8
0
100
AcDbLine
 62
7
  6
CONTINUOUS
 10
1174.1745887128
 20
410.0984108157
 11
1169.406026545
 21
410.0984108157
  0
LINE
  5
353
100
AcDbEntity
  8
0
100
AcDbLine
 62
7
  6
CONTINUOUS
 10
1133.406026545
 20
410.0984108157
 11
1128.6374643773
 21
410.0984108157
  0
LINE
  5
354
100
AcDbEntity
  8
0
100
AcDbLine
 62
7
  6
CONTINUOUS
 10
1034.3719590581
 20
410.0984108157
 11
1013.906026545
 21
410.0984108157
  0
LINE
  5
355
100
AcDbEntity
  8
RUNDUNGEN
100
AcDbLine
 62
7
  6
CONTINUOUS
 10
1013.906026545
 20
410.0984108157
 11
1034.3719590581
 21
410.0984108157
  0
LINE
  5
356
100
AcDbEntity
  8
RUNDUNGEN
100
AcDbLine
 62
7
  6
CONTINUOUS
 10
1128.6374643773
 20
410.0984108157
 11
1133.406026545
 21
410.0984108157
  0
LINE
  5
357
100
AcDbEntity
  8
RUNDUNGEN
100
AcDbLine
 62
7
  6
CONTINUOUS
 10
1169.406026545
 20
410.0984108157
 11
1174.1745887128
 21
410.0984108157
  0
LINE
  5
358
100
AcDbEntity
  8
0
100
AcDbLine
 62
7
  6
CONTINUOUS
 10
1287.906026545
 20
414.5984108157
 11
1274.9778785383
 21
414.5984108157
  0
LINE
  5
359
100
AcDbEntity
  8
RUNDUNGEN
100
AcDbLine
 62
7
  6
CONTINUOUS
 10
1274.9778785383
 20
414.5984108157
 11
1287.906026545
 21
414.5984108157
  0
LINE
  5
35A
100
AcDbEntity
  8
RUNDUNGEN
100
AcDbLine
 62
7
  6
CONTINUOUS
 10
1423.4402077845
 20
416.0984108157
 11
1392.8854339152
 21
416.0984108157
  0
LINE
  5
35B
100
AcDbEntity
  8
BEZUGSACHSEN
100
AcDbLine
 62
7
  6
CONTINUOUS
 10
889.3718453056
 20
416.0984108157
 11
919.9266180424
 21
416.0984108157
  0
LINE
  5
35C
100
AcDbEntity
  8
BEZUGSACHSEN
100
AcDbLine
 62
7
  6
CONTINUOUS
 10
1308.906026545
 20
416.5984108157
 11
1304.406026545
 21
416.5984108157
  0
LINE
  5
35D
100
AcDbEntity
  8
0
100
AcDbLine
 62
7
  6
CONTINUOUS
 10
1158.406026545
 20
420.0984108157
 11
1144.406026545
 21
420.0984108157
  0
LINE
  5
35E
100
AcDbEntity
  8
0
100
AcDbLine
 62
7
  6
CONTINUOUS
 10
1164.406026545
 20
421.5984108157
 11
1158.406026545
 21
421.5984108157
  0
LINE
  5
35F
100
AcDbEntity
  8
0
100
AcDbLine
 62
7
  6
CONTINUOUS
 10
1144.406026545
 20
421.5984108157
 11
1138.406026545
 21
421.5984108157
  0
LINE
  5
360
100
AcDbEntity
  8
0
100
AcDbLine
 62
7
  6
CONTINUOUS
 10
1274.9778785383
 20
366.5984108157
 11
1269.128526742
 21
370.6941710372
  0
LINE
  5
361
100
AcDbEntity
  8
0
100
AcDbLine
 62
7
  6
CONTINUOUS
 10
1245.406026545
 20
389.5984108157
 11
1237.406026545
 21
397.5984108157
  0
LINE
  5
362
100
AcDbEntity
  8
0
100
AcDbLine
 62
7
  6
CONTINUOUS
 10
1360.306026545
 20
400.5984108157
 11
1360.306026545
 21
400.6823024265
  0
LWPOLYLINE
  5
363
100
AcDbEntity
  8
BEZUGSACHSEN
100
AcDbPolyline
 62
7
  6
CONTINUOUS
 90
6
 70
0
 10
1449.171690238
 20
378.4589518045
 10
1449.179622572
 20
378.476486974
 10
1449.2338359305
 20
378.6153812723
 10
1449.2744627573
 20
378.7571808192
 10
1449.3017977323
 20
378.9019690099
 10
1449.3127591099
 20
379.0022573661
  0
LINE
  5
364
100
AcDbEntity
  8
BEZUGSACHSEN
100
AcDbLine
 62
7
  6
CONTINUOUS
 10
1449.171690238
 20
378.4589518045
 11
1449.1715728155
 21
378.4586962252
  0
LINE
  5
365
100
AcDbEntity
  8
BEZUGSACHSEN
100
AcDbLine
 62
7
  6
CONTINUOUS
 10
1387.8855184694
 20
366.4381567779
 11
1374.433270105
 21
374.2048159922
  0
LINE
  5
366
100
AcDbEntity
  8
BEZUGSACHSEN
100
AcDbLine
 62
7
  6
CONTINUOUS
 10
1362.5768418252
 20
377.2270904722
 11
1361.2557740134
 21
378.548158284
  0
LINE
  5
367
100
AcDbEntity
  8
RUNDUNGEN
100
AcDbLine
 62
7
  6
CONTINUOUS
 10
1362.5768418252
 20
377.2270904722
 11
1361.2557740134
 21
378.548158284
  0
LINE
  5
368
100
AcDbEntity
  8
RUNDUNGEN
100
AcDbLine
 62
7
  6
CONTINUOUS
 10
1442.1807708877
 20
409.5252797753
 11
1429.6919042884
 21
414.8264891297
  0
LWPOLYLINE
  5
369
100
AcDbEntity
  8
RUNDUNGEN
100
AcDbPolyline
 62
7
  6
CONTINUOUS
 90
7
 70
0
 10
1449.5187989074
 20
397.172760846
 10
1449.5105539139
 20
397.8699942419
 10
1449.4960260092
 20
398.5669561376
 10
1449.4751826902
 20
399.2618290725
 10
1449.4480107207
 20
399.9528137482
 10
1449.4145163452
 20
400.6381073644
 10
1449.374724331
 20
401.3159260373
  0
LINE
  5
36A
100
AcDbEntity
  8
BEZUGSACHSEN
100
AcDbLine
 62
7
  6
CONTINUOUS
 10
1439.2382476993
 20
386.4984108157
 11
1439.2382476993
 21
394.6984108157
  0
LINE
  5
36B
100
AcDbEntity
  8
RUNDUNGEN
100
AcDbLine
 62
7
  6
CONTINUOUS
 10
1449.5209081105
 20
384.5984108157
 11
1449.5187989074
 21
397.172760846
  0
LWPOLYLINE
  5
36C
100
AcDbEntity
  8
BEZUGSACHSEN
100
AcDbPolyline
 62
7
  6
CONTINUOUS
 90
9
 70
0
 10
1449.3286765758
 20
379.2123051288
 10
1449.374724331
 20
379.8808955941
 10
1449.4145163452
 20
380.558714267
 10
1449.4480107207
 20
381.2440078832
 10
1449.4751826902
 20
381.9349925589
 10
1449.4960260092
 20
382.6298654939
 10
1449.5105539139
 20
383.3268273896
 10
1449.5187989074
 20
384.0240607855
 10
1449.520908089
 20
384.5984108157
  0
LINE
  5
36D
100
AcDbEntity
  8
BEZUGSACHSEN
100
AcDbLine
 62
7
  6
CONTINUOUS
 10
1449.3127515866
 20
379.002166679
 11
1449.3286765758
 21
379.2123051288
  0
LWPOLYLINE
  5
36E
100
AcDbEntity
  8
RUNDUNGEN
100
AcDbPolyline
 62
7
  6
CONTINUOUS
 90
6
 70
0
 10
1449.3127592112
 20
402.194562958
 10
1449.301825498
 20
402.2946561396
 10
1449.274490058
 20
402.4395256304
 10
1449.2338486859
 20
402.5814025442
 10
1449.1796246668
 20
402.7203299515
 10
1449.1716903059
 20
402.737869679
  0
LINE
  5
36F
100
AcDbEntity
  8
RUNDUNGEN
100
AcDbLine
 62
7
  6
CONTINUOUS
 10
1449.3286765758
 20
401.9845165026
 11
1449.3127515866
 21
402.1946549524
  0
LINE
  5
370
100
AcDbEntity
  8
RUNDUNGEN
100
AcDbLine
 62
7
  6
CONTINUOUS
 10
1449.374724331
 20
401.3159260373
 11
1449.3286765758
 21
401.9845165026
  0
LINE
  5
371
100
AcDbEntity
  8
RUNDUNGEN
100
AcDbLine
 62
7
  6
CONTINUOUS
 10
1449.1716903059
 20
402.737869679
 11
1449.1715728155
 21
402.7381254063
  0
LINE
  5
372
100
AcDbEntity
  8
BEZUGSACHSEN
100
AcDbLine
 62
7
  6
CONTINUOUS
 10
-30.6372855238
 20
573.4255764356
 11
-26.9698981178
 21
552.6267889148
  0
LINE
  5
373
100
AcDbEntity
  8
RUNDUNGEN
100
AcDbLine
 62
7
  6
CONTINUOUS
 10
-30.6372855238
 20
573.4255764356
 11
-28.7032611707
 21
562.4571792833
  0
LINE
  5
374
100
AcDbEntity
  8
BEZUGSACHSEN
100
AcDbLine
 62
7
  6
CONTINUOUS
 10
-11.8415034842
 20
556.5879103141
 11
-23.0831692118
 21
576.8684121355
  0
LINE
  5
375
100
AcDbEntity
  8
0
100
AcDbLine
 62
7
  6
CONTINUOUS
 10
58.5472115477
 20
553.2833915759
 11
58.5472115477
 21
553.1176515498
  0
LINE
  5
376
100
AcDbEntity
  8
BEZUGSACHSEN
100
AcDbLine
 62
7
  6
CONTINUOUS
 10
-25.8020278666
 20
577.6480323093
 11
-29.6372892582
 21
575.5221122052
  0
LINE
  5
377
100
AcDbEntity
  8
RUNDUNGEN
100
AcDbLine
 62
7
  6
CONTINUOUS
 10
107.9472115477
 20
572.1176515498
 11
107.9472115477
 21
524.1176515498
  0
LINE
  5
378
100
AcDbEntity
  8
RUNDUNGEN
100
AcDbLine
 62
7
  6
CONTINUOUS
 10
114.9472115477
 20
522.6176515498
 11
114.9472115477
 21
573.6176515498
  0
LINE
  5
379
100
AcDbEntity
  8
BEZUGSACHSEN
100
AcDbLine
 62
7
  6
CONTINUOUS
 10
56.1995420056
 20
534.6694769443
 11
57.5974640794
 21
536.0673990181
  0
LINE
  5
37A
100
AcDbEntity
  8
BEZUGSACHSEN
100
AcDbLine
 62
7
  6
CONTINUOUS
 10
57.0463892327
 20
560.7189789282
 11
57.5974640794
 21
560.1679040815
  0
LINE
  5
37B
100
AcDbEntity
  8
RUNDUNGEN
100
AcDbLine
 62
7
  6
CONTINUOUS
 10
129.9472115477
 20
571.1175527794
 11
129.9472115477
 21
525.1176515498
  0
LINE
  5
37C
100
AcDbEntity
  8
RUNDUNGEN
100
AcDbLine
 62
7
  6
CONTINUOUS
 10
134.4472115477
 20
571.0291737176
 11
134.4472115477
 21
572.1176515497
  0
LINE
  5
37D
100
AcDbEntity
  8
RUNDUNGEN
100
AcDbLine
 62
7
  6
CONTINUOUS
 10
143.8753595545
 20
571.0291737176
 11
143.8753595545
 21
548.1176515498
  0
LINE
  5
37E
100
AcDbEntity
  8
0
100
AcDbLine
 62
7
  6
CONTINUOUS
 10
143.8753595545
 20
548.1176515498
 11
143.8753595545
 21
524.1176515498
  0
LINE
  5
37F
100
AcDbEntity
  8
0
100
AcDbLine
 62
7
  6
CONTINUOUS
 10
173.4472115477
 20
529.1439855887
 11
173.4472115477
 21
528.5431783768
  0
LINE
  5
380
100
AcDbEntity
  8
0
100
AcDbLine
 62
7
  6
CONTINUOUS
 10
177.4472115477
 20
532.6257181649
 11
177.4472115477
 21
528.5431783768
  0
LINE
  5
381
100
AcDbEntity
  8
0
100
AcDbLine
 62
7
  6
CONTINUOUS
 10
185.4472115477
 20
528.5431783768
 11
185.4472115477
 21
532.6257181649
  0
LINE
  5
382
100
AcDbEntity
  8
RUNDUNGEN
100
AcDbLine
 62
7
  6
CONTINUOUS
 10
156.5866094632
 20
564.3770753984
 11
156.5151764726
 21
564.4784335893
  0
LINE
  5
383
100
AcDbEntity
  8
RUNDUNGEN
100
AcDbLine
 62
7
  6
CONTINUOUS
 10
156.5184594147
 20
564.4735741581
 11
156.4648355185
 21
564.5562973364
  0
LINE
  5
384
100
AcDbEntity
  8
RUNDUNGEN
100
AcDbLine
 62
7
  6
CONTINUOUS
 10
156.4671881598
 20
564.552487415
 11
156.4300161059
 21
564.615551842
  0
LWPOLYLINE
  5
385
100
AcDbEntity
  8
RUNDUNGEN
100
AcDbPolyline
 62
7
  6
CONTINUOUS
 90
3
 70
0
 10
156.4315102489
 20
564.61287169
 10
156.4104873547
 20
564.6525868938
 10
156.4075794547
 20
564.6585663271
  0
LINE
  5
386
100
AcDbEntity
  8
0
100
AcDbLine
 62
7
  6
CONTINUOUS
 10
189.4472115477
 20
529.1439855887
 11
189.4472115477
 21
528.5431783768
  0
LINE
  5
387
100
AcDbEntity
  8
RUNDUNGEN
100
AcDbLine
 62
7
  6
CONTINUOUS
 10
156.6724886101
 20
564.2642022144
 11
156.5823070421
 21
564.3829546653
  0
LINE
  5
388
100
AcDbEntity
  8
0
100
AcDbLine
 62
7
  6
CONTINUOUS
 10
143.8753595545
 20
524.1176515498
 11
149.7247113508
 21
528.2134117712
  0
LINE
  5
389
100
AcDbEntity
  8
RUNDUNGEN
100
AcDbLine
 62
7
  6
CONTINUOUS
 10
150.1467441722
 20
566.7570255054
 11
149.9483059417
 21
566.8742136119
  0
LINE
  5
38A
100
AcDbEntity
  8
RUNDUNGEN
100
AcDbLine
 62
7
  6
CONTINUOUS
 10
149.9483044804
 20
566.8741998256
 11
149.9081423116
 21
566.8996110281
  0
LINE
  5
38B
100
AcDbEntity
  8
RUNDUNGEN
100
AcDbLine
 62
7
  6
CONTINUOUS
 10
149.9183423379
 20
566.8931067946
 11
149.8319641626
 21
566.9492950285
  0
LINE
  5
38C
100
AcDbEntity
  8
RUNDUNGEN
100
AcDbLine
 62
7
  6
CONTINUOUS
 10
149.8420444928
 20
566.942607124
 11
149.7566428178
 21
567.0003897027
  0
LINE
  5
38D
100
AcDbEntity
  8
RUNDUNGEN
100
AcDbLine
 62
7
  6
CONTINUOUS
 10
149.7665995137
 20
566.9935205638
 11
149.7270528224
 21
567.0210136635
  0
LINE
  5
38E
100
AcDbEntity
  8
RUNDUNGEN
100
AcDbLine
 62
7
  6
CONTINUOUS
 10
149.727052907
 20
567.0210135507
 11
143.8755015789
 21
571.1190684874
  0
LWPOLYLINE
  5
38F
100
AcDbEntity
  8
RUNDUNGEN
100
AcDbPolyline
 62
7
  6
CONTINUOUS
 90
14
 70
0
 10
249.4472115477
 20
563.2667060111
 10
249.2685501206
 20
563.1445493218
 10
248.9807804333
 20
562.9610793719
 10
248.6807967428
 20
562.7839597524
 10
248.3698169055
 20
562.6154550825
 10
248.0483444355
 20
562.4574993612
 10
247.7172131631
 20
562.3123012563
 10
247.3779823403
 20
562.182383609
 10
247.0316826219
 20
562.0699702292
 10
246.6824961062
 20
561.9779383641
 10
246.3339726288
 20
561.9080765807
 10
245.9897176034
 20
561.8612090523
 10
245.6538637371
 20
561.8371226137
 10
245.4472115481
 20
561.8330230865
  0
LWPOLYLINE
  5
390
100
AcDbEntity
  8
RUNDUNGEN
100
AcDbPolyline
 62
7
  6
CONTINUOUS
 90
9
 70
0
 10
243.3550524341
 20
561.3889464405
 10
242.9878380388
 20
561.1864859561
 10
242.9309661877
 20
561.15742104
 10
242.8750597966
 20
561.1324978887
 10
242.8196936863
 20
561.1115896678
 10
242.7643370765
 20
561.094725423
 10
242.7101519026
 20
561.0824886197
 10
242.6562173398
 20
561.0748561027
 10
242.5996027486
 20
561.0721028091
  0
LINE
  5
391
100
AcDbEntity
  8
RUNDUNGEN
100
AcDbLine
 62
7
  6
CONTINUOUS
 10
243.7233416569
 20
561.5901223013
 11
243.3491936013
 21
561.3857238563
  0
LINE
  5
392
100
AcDbEntity
  8
RUNDUNGEN
100
AcDbLine
 62
7
  6
CONTINUOUS
 10
373.9937514056
 20
561.3189461268
 11
373.6497288522
 21
561.2225511173
  0
LINE
  5
393
100
AcDbEntity
  8
0
100
AcDbLine
 62
7
  6
CONTINUOUS
 10
188.4413881548
 20
528.5184432696
 11
189.4472115477
 21
528.5431783768
  0
LWPOLYLINE
  5
394
100
AcDbEntity
  8
RUNDUNGEN
100
AcDbPolyline
 62
7
  6
CONTINUOUS
 90
11
 70
0
 10
294.3247109836
 20
529.1176509083
 10
294.3583535367
 20
529.1179338835
 10
294.5532059529
 20
529.1307462638
 10
294.7458697799
 20
529.1624973776
 10
294.9345090498
 20
529.2128815123
 10
295.1173266429
 20
529.2814154504
 10
295.2925814716
 20
529.3674431773
 10
295.458605047
 20
529.4701422386
 10
295.6138169296
 20
529.5885313421
 10
295.7567401807
 20
529.7214799268
 10
295.8859614234
 20
529.8676515704
  0
LINE
  5
395
100
AcDbEntity
  8
0
100
AcDbLine
 62
7
  6
CONTINUOUS
 10
254.4472115477
 20
517.1176515498
 11
260.4472115477
 21
517.1176515498
  0
LINE
  5
396
100
AcDbEntity
  8
0
100
AcDbLine
 62
7
  6
CONTINUOUS
 10
274.4472115477
 20
517.1176515498
 11
280.4472115477
 21
517.1176515498
  0
LINE
  5
397
100
AcDbEntity
  8
0
100
AcDbLine
 62
7
  6
CONTINUOUS
 10
260.4472115477
 20
518.6176515498
 11
274.4472115477
 21
518.6176515498
  0
LINE
  5
398
100
AcDbEntity
  8
RUNDUNGEN
100
AcDbLine
 62
7
  6
CONTINUOUS
 10
109.9472115477
 20
522.1176515498
 11
114.4472115477
 21
522.1176515498
  0
LINE
  5
399
100
AcDbEntity
  8
BEZUGSACHSEN
100
AcDbLine
 62
7
  6
CONTINUOUS
 10
109.9472115477
 20
522.1176515498
 11
114.4472115477
 21
522.1176515498
  0
LINE
  5
39A
100
AcDbEntity
  8
RUNDUNGEN
100
AcDbLine
 62
7
  6
CONTINUOUS
 10
517.8884459906
 20
524.1176515498
 11
497.4472115477
 21
524.1176515498
  0
LINE
  5
39B
100
AcDbEntity
  8
BEZUGSACHSEN
100
AcDbLine
 62
7
  6
CONTINUOUS
 10
27.4472115477
 20
524.1176515498
 11
7.0063155991
 21
524.1176515498
  0
LINE
  5
39C
100
AcDbEntity
  8
0
100
AcDbLine
 62
7
  6
CONTINUOUS
 10
130.9472115477
 20
524.1176515498
 11
143.8753595545
 21
524.1176515498
  0
LINE
  5
39D
100
AcDbEntity
  8
BEZUGSACHSEN
100
AcDbLine
 62
7
  6
CONTINUOUS
 10
273.4472115477
 20
528.1176515498
 11
261.4472115477
 21
528.1176515498
  0
LINE
  5
39E
100
AcDbEntity
  8
0
100
AcDbLine
 62
7
  6
CONTINUOUS
 10
174.4466415082
 20
528.5176515498
 11
188.4477816632
 21
528.5176515498
  0
LINE
  5
39F
100
AcDbEntity
  8
0
100
AcDbLine
 62
7
  6
CONTINUOUS
 10
189.4472115477
 20
528.5431783768
 11
185.4472115477
 21
528.5431783768
  0
LINE
  5
3A0
100
AcDbEntity
  8
0
100
AcDbLine
 62
7
  6
CONTINUOUS
 10
177.4472115477
 20
528.5431783768
 11
173.4472115477
 21
528.5431783768
  0
LINE
  5
3A1
100
AcDbEntity
  8
0
100
AcDbLine
 62
7
  6
CONTINUOUS
 10
244.67864938
 20
528.6176515498
 11
249.4472115477
 21
528.6176515498
  0
LINE
  5
3A2
100
AcDbEntity
  8
0
100
AcDbLine
 62
7
  6
CONTINUOUS
 10
285.4472115477
 20
528.6176515498
 11
290.2157737155
 21
528.6176515498
  0
LINE
  5
3A3
100
AcDbEntity
  8
0
100
AcDbLine
 62
7
  6
CONTINUOUS
 10
384.4812790346
 20
528.6176515498
 11
404.9472115477
 21
528.6176515498
  0
LINE
  5
3A4
100
AcDbEntity
  8
0
100
AcDbLine
 62
7
  6
CONTINUOUS
 10
152.5925935326
 20
529.1176515498
 11
173.4472115477
 21
529.1176515498
  0
LINE
  5
3A5
100
AcDbEntity
  8
0
100
AcDbLine
 62
7
  6
CONTINUOUS
 10
189.4472115477
 20
529.1176515498
 11
242.5996027474
 21
529.1176515498
  0
LINE
  5
3A6
100
AcDbEntity
  8
0
100
AcDbLine
 62
7
  6
CONTINUOUS
 10
292.294820348
 20
529.1176515498
 11
294.3290337364
 21
529.1176515498
  0
LINE
  5
3A7
100
AcDbEntity
  8
0
100
AcDbLine
 62
7
  6
CONTINUOUS
 10
326.5652466618
 20
529.1176515498
 11
382.3018295629
 21
529.1176515498
  0
LINE
  5
3A8
100
AcDbEntity
  8
0
100
AcDbLine
 62
7
  6
CONTINUOUS
 10
173.4472115477
 20
529.1439855887
 11
177.4472115477
 21
529.1439855887
  0
LINE
  5
3A9
100
AcDbEntity
  8
0
100
AcDbLine
 62
7
  6
CONTINUOUS
 10
185.4472115477
 20
529.1439855887
 11
189.4472115477
 21
529.1439855887
  0
LINE
  5
3AA
100
AcDbEntity
  8
0
100
AcDbLine
 62
7
  6
CONTINUOUS
 10
323.2972115477
 20
529.9176515498
 11
315.9472115477
 21
529.9176515498
  0
LINE
  5
3AB
100
AcDbEntity
  8
0
100
AcDbLine
 62
7
  6
CONTINUOUS
 10
314.1472115477
 20
529.9176515498
 11
306.9472115477
 21
529.9176515498
  0
LINE
  5
3AC
100
AcDbEntity
  8
0
100
AcDbLine
 62
7
  6
CONTINUOUS
 10
305.7472115477
 20
529.9176515498
 11
297.9472115477
 21
529.9176515498
  0
LINE
  5
3AD
100
AcDbEntity
  8
RUNDUNGEN
100
AcDbLine
 62
7
  6
CONTINUOUS
 10
297.4471813142
 20
530.6176515498
 11
323.4471545163
 21
530.6176515498
  0
LINE
  5
3AE
100
AcDbEntity
  8
0
100
AcDbLine
 62
7
  6
CONTINUOUS
 10
173.4472115477
 20
528.5431783768
 11
174.4530288425
 21
528.5184418633
  0
LINE
  5
3AF
100
AcDbEntity
  8
0
100
AcDbLine
 62
7
  6
CONTINUOUS
 10
243.283643034
 20
528.9970367913
 11
243.9946090933
 21
528.7382663082
  0
LINE
  5
3B0
100
AcDbEntity
  8
BEZUGSACHSEN
100
AcDbLine
 62
7
  6
CONTINUOUS
 10
249.4472115477
 20
574.1176158993
 11
249.4472115477
 21
522.1176875404
  0
LINE
  5
3B1
100
AcDbEntity
  8
BEZUGSACHSEN
100
AcDbLine
 62
7
  6
CONTINUOUS
 10
258.4472115477
 20
540.1176515498
 11
258.4472115477
 21
556.1176515498
  0
LINE
  5
3B2
100
AcDbEntity
  8
0
100
AcDbLine
 62
7
  6
CONTINUOUS
 10
260.4472115477
 20
517.1177246705
 11
260.4472115477
 21
528.1593530207
  0
LINE
  5
3B3
100
AcDbEntity
  8
0
100
AcDbLine
 62
7
  6
CONTINUOUS
 10
260.4472115477
 20
568.0759500345
 11
260.4472115477
 21
579.1175784291
  0
LINE
  5
3B4
100
AcDbEntity
  8
RUNDUNGEN
100
AcDbLine
 62
7
  6
CONTINUOUS
 10
373.6603883394
 20
561.2251975926
 11
373.3145137923
 21
561.1508455147
  0
LINE
  5
3B5
100
AcDbEntity
  8
RUNDUNGEN
100
AcDbLine
 62
7
  6
CONTINUOUS
 10
373.3252745228
 20
561.1527940002
 11
372.9799037145
 21
561.1019356925
  0
LINE
  5
3B6
100
AcDbEntity
  8
0
100
AcDbLine
 62
7
  6
CONTINUOUS
 10
185.4472115477
 20
531.8954445482
 11
177.4472115477
 21
531.8954445482
  0
LINE
  5
3B7
100
AcDbEntity
  8
BEZUGSACHSEN
100
AcDbLine
 62
7
  6
CONTINUOUS
 10
268.4472115477
 20
532.1176515498
 11
266.4472115477
 21
532.1176515498
  0
LINE
  5
3B8
100
AcDbEntity
  8
0
100
AcDbLine
 62
7
  6
CONTINUOUS
 10
177.4472115477
 20
532.6257181649
 11
185.4472115477
 21
532.6257181649
  0
LINE
  5
3B9
100
AcDbEntity
  8
BEZUGSACHSEN
100
AcDbLine
 62
7
  6
CONTINUOUS
 10
62.5472115477
 20
538.1176515498
 11
107.9472115477
 21
538.1176515498
  0
LINE
  5
3BA
100
AcDbEntity
  8
BEZUGSACHSEN
100
AcDbLine
 62
7
  6
CONTINUOUS
 10
114.9472115477
 20
538.1176515498
 11
129.9472115477
 21
538.1176515498
  0
LINE
  5
3BB
100
AcDbEntity
  8
BEZUGSACHSEN
100
AcDbLine
 62
7
  6
CONTINUOUS
 10
405.9472115477
 20
538.1176515498
 11
462.3472115477
 21
538.1176515498
  0
LINE
  5
3BC
100
AcDbEntity
  8
BEZUGSACHSEN
100
AcDbLine
 62
7
  6
CONTINUOUS
 10
27.4472105589
 20
549.1176515498
 11
0.8404813037
 21
549.1176515498
  0
LINE
  5
3BD
100
AcDbEntity
  8
RUNDUNGEN
100
AcDbLine
 62
7
  6
CONTINUOUS
 10
497.4472236267
 20
549.1176515498
 11
524.0539417918
 21
549.1176515498
  0
LINE
  5
3BE
100
AcDbEntity
  8
0
100
AcDbLine
 62
7
  6
CONTINUOUS
 10
274.4472115477
 20
579.1175784291
 11
274.4472115477
 21
568.0759500345
  0
LINE
  5
3BF
100
AcDbEntity
  8
0
100
AcDbLine
 62
7
  6
CONTINUOUS
 10
274.4472115477
 20
528.1593530207
 11
274.4472115477
 21
517.1177246705
  0
LINE
  5
3C0
100
AcDbEntity
  8
RUNDUNGEN
100
AcDbLine
 62
7
  6
CONTINUOUS
 10
276.4472115477
 20
540.1176515498
 11
276.4472115477
 21
556.1176515498
  0
LINE
  5
3C1
100
AcDbEntity
  8
RUNDUNGEN
100
AcDbLine
 62
7
  6
CONTINUOUS
 10
372.9906587612
 20
561.1031537621
 11
372.6522955582
 21
561.0766699709
  0
LINE
  5
3C2
100
AcDbEntity
  8
RUNDUNGEN
100
AcDbLine
 62
7
  6
CONTINUOUS
 10
372.6588848816
 20
561.0768168376
 11
372.4472115469
 21
561.0720989386
  0
LINE
  5
3C3
100
AcDbEntity
  8
0
100
AcDbLine
 62
7
  6
CONTINUOUS
 10
58.5472115477
 20
553.1176515498
 11
107.9472115477
 21
553.1176515498
  0
LINE
  5
3C4
100
AcDbEntity
  8
0
100
AcDbLine
 62
7
  6
CONTINUOUS
 10
114.9472115477
 20
553.1176515498
 11
129.9472115477
 21
553.1176515498
  0
LINE
  5
3C5
100
AcDbEntity
  8
0
100
AcDbLine
 62
7
  6
CONTINUOUS
 10
63.5472115477
 20
556.7779055876
 11
107.9472115477
 21
556.7779055876
  0
LINE
  5
3C6
100
AcDbEntity
  8
0
100
AcDbLine
 62
7
  6
CONTINUOUS
 10
114.9472115477
 20
556.7779055876
 11
129.9472115477
 21
556.7779055876
  0
LINE
  5
3C7
100
AcDbEntity
  8
BEZUGSACHSEN
100
AcDbLine
 62
7
  6
CONTINUOUS
 10
62.5472115477
 20
558.1176515498
 11
107.9472115477
 21
558.1176515498
  0
LINE
  5
3C8
100
AcDbEntity
  8
BEZUGSACHSEN
100
AcDbLine
 62
7
  6
CONTINUOUS
 10
114.9472115477
 20
558.1176515498
 11
129.9472115477
 21
558.1176515498
  0
LINE
  5
3C9
100
AcDbEntity
  8
BEZUGSACHSEN
100
AcDbLine
 62
7
  6
CONTINUOUS
 10
405.9472115477
 20
558.1176515498
 11
462.3472115477
 21
558.1176515498
  0
LINE
  5
3CA
100
AcDbEntity
  8
RUNDUNGEN
100
AcDbLine
 62
7
  6
CONTINUOUS
 10
372.4472115477
 20
561.0721026999
 11
292.2948226979
 21
561.0721026999
  0
LINE
  5
3CB
100
AcDbEntity
  8
RUNDUNGEN
100
AcDbLine
 62
7
  6
CONTINUOUS
 10
242.5996027474
 20
561.0721026999
 11
162.447209893
 21
561.0721026999
  0
LINE
  5
3CC
100
AcDbEntity
  8
RUNDUNGEN
100
AcDbLine
 62
7
  6
CONTINUOUS
 10
290.2157737155
 20
561.8330260636
 11
289.4472123063
 21
561.8330260636
  0
LINE
  5
3CD
100
AcDbEntity
  8
RUNDUNGEN
100
AcDbLine
 62
7
  6
CONTINUOUS
 10
245.4472115477
 20
561.8330260636
 11
244.67864938
 21
561.8330260636
  0
LINE
  5
3CE
100
AcDbEntity
  8
BEZUGSACHSEN
100
AcDbLine
 62
7
  6
CONTINUOUS
 10
266.4472115477
 20
564.1176515498
 11
268.4472115477
 21
564.1176515498
  0
LINE
  5
3CF
100
AcDbEntity
  8
RUNDUNGEN
100
AcDbLine
 62
7
  6
CONTINUOUS
 10
154.4750320259
 20
566.1454293275
 11
152.5925935663
 21
566.1454293275
  0
LINE
  5
3D0
100
AcDbEntity
  8
0
100
AcDbLine
 62
7
  6
CONTINUOUS
 10
380.4472115477
 20
567.1176515498
 11
382.3018295629
 21
567.1176515498
  0
LINE
  5
3D1
100
AcDbEntity
  8
0
100
AcDbLine
 62
7
  6
CONTINUOUS
 10
384.4812790346
 20
567.6176515498
 11
404.9472115477
 21
567.6176515498
  0
LINE
  5
3D2
100
AcDbEntity
  8
BEZUGSACHSEN
100
AcDbLine
 62
7
  6
CONTINUOUS
 10
261.4472115477
 20
568.1176515498
 11
273.4472115477
 21
568.1176515498
  0
LINE
  5
3D3
100
AcDbEntity
  8
RUNDUNGEN
100
AcDbLine
 62
7
  6
CONTINUOUS
 10
289.4472123106
 20
561.8330230574
 11
289.2514508882
 21
561.8367018545
  0
LWPOLYLINE
  5
3D4
100
AcDbEntity
  8
RUNDUNGEN
100
AcDbPolyline
 62
7
  6
CONTINUOUS
 90
24
 70
0
 10
162.4472098884
 20
561.0720989177
 10
162.2665460657
 20
561.0755345472
 10
161.9554483446
 20
561.0975433572
 10
161.6428688394
 20
561.1398889563
 10
161.330207061
 20
561.2021425368
 10
161.0193889846
 20
561.2831226595
 10
160.7104338867
 20
561.3818824224
 10
160.4042049253
 20
561.4971233368
 10
160.1001154954
 20
561.628025655
 10
159.7976667781
 20
561.7740761754
 10
159.4974670489
 20
561.9342222978
 10
159.1987883533
 20
562.1083206007
 10
158.9055392464
 20
562.2934948696
 10
158.6197361866
 20
562.4876003178
 10
158.3448064012
 20
562.6872948458
 10
158.0833823526
 20
562.8894804621
 10
157.8377282898
 20
563.0911076157
 10
157.6096866029
 20
563.2892691527
 10
157.4010061237
 20
563.4810116268
 10
157.2131061726
 20
563.6634981339
 10
157.0463768071
 20
563.8347066131
 10
156.9014591421
 20
563.9922452586
 10
156.7771236925
 20
564.1356730263
 10
156.6724886101
 20
564.2642022144
  0
LINE
  5
3D5
100
AcDbEntity
  8
RUNDUNGEN
100
AcDbLine
 62
7
  6
CONTINUOUS
 10
289.2473559954
 20
561.8369870052
 11
289.2404865186
 21
561.8371232192
  0
LWPOLYLINE
  5
3D6
100
AcDbEntity
  8
RUNDUNGEN
100
AcDbPolyline
 62
7
  6
CONTINUOUS
 90
8
 70
0
 10
152.5925935669
 20
566.1454281656
 10
152.3383152901
 20
566.1514060242
 10
151.9418732465
 20
566.1848051028
 10
151.5553870585
 20
566.2464976058
 10
151.1808397433
 20
566.3354726381
 10
150.8197537288
 20
566.4509094717
 10
150.474503378
 20
566.5917549347
 10
150.1467441722
 20
566.7570255054
  0
LWPOLYLINE
  5
3D7
100
AcDbEntity
  8
RUNDUNGEN
100
AcDbPolyline
 62
7
  6
CONTINUOUS
 90
9
 70
0
 10
292.2948227034
 20
561.0721026507
 10
292.2482153564
 20
561.0739693904
 10
292.1948575205
 20
561.0806217968
 10
292.141200633
 20
561.0918590031
 10
292.0863177842
 20
561.1077130424
 10
292.0314197998
 20
561.1276170376
 10
291.9759366256
 20
561.1515373264
 10
291.9195126428
 20
561.1795604169
 10
291.8960835337
 20
561.1922453222
  0
LINE
  5
3D8
100
AcDbEntity
  8
RUNDUNGEN
100
AcDbLine
 62
7
  6
CONTINUOUS
 10
289.2514508882
 20
561.8367018545
 11
288.9047164826
 21
561.8612091567
  0
LINE
  5
3D9
100
AcDbEntity
  8
RUNDUNGEN
100
AcDbLine
 62
7
  6
CONTINUOUS
 10
288.9156478726
 20
561.8600857267
 11
288.5607915331
 21
561.9080186711
  0
LINE
  5
3DA
100
AcDbEntity
  8
RUNDUNGEN
100
AcDbLine
 62
7
  6
CONTINUOUS
 10
288.5714943959
 20
561.9062287942
 11
288.2127330825
 21
561.9777507836
  0
LINE
  5
3DB
100
AcDbEntity
  8
RUNDUNGEN
100
AcDbLine
 62
7
  6
CONTINUOUS
 10
288.2230906509
 20
561.9753562988
 11
287.8641027299
 21
562.0695711666
  0
LINE
  5
3DC
100
AcDbEntity
  8
RUNDUNGEN
100
AcDbLine
 62
7
  6
CONTINUOUS
 10
287.8740220441
 20
562.0666589142
 11
287.5183944511
 21
562.1816920087
  0
LINE
  5
3DD
100
AcDbEntity
  8
RUNDUNGEN
100
AcDbLine
 62
7
  6
CONTINUOUS
 10
287.5278275738
 20
562.1783596197
 11
287.1797096643
 21
562.3112721012
  0
LINE
  5
3DE
100
AcDbEntity
  8
RUNDUNGEN
100
AcDbLine
 62
7
  6
CONTINUOUS
 10
285.4472115477
 20
574.1176158993
 11
285.4472115477
 21
522.1176875404
  0
LINE
  5
3DF
100
AcDbEntity
  8
0
100
AcDbLine
 62
7
  6
CONTINUOUS
 10
297.9472115477
 20
530.6176515498
 11
297.9472115477
 21
529.9176515498
  0
LINE
  5
3E0
100
AcDbEntity
  8
RUNDUNGEN
100
AcDbLine
 62
7
  6
CONTINUOUS
 10
375.2644775925
 20
561.8617061288
 11
374.9486703914
 21
561.7006285624
  0
LINE
  5
3E1
100
AcDbEntity
  8
RUNDUNGEN
100
AcDbLine
 62
7
  6
CONTINUOUS
 10
374.9587061268
 20
561.7054827984
 11
374.6343746992
 21
561.5571535552
  0
LINE
  5
3E2
100
AcDbEntity
  8
RUNDUNGEN
100
AcDbLine
 62
7
  6
CONTINUOUS
 10
374.6445620739
 20
561.5615409693
 11
374.3124376198
 21
561.4281635192
  0
LINE
  5
3E3
100
AcDbEntity
  8
0
100
AcDbLine
 62
7
  6
CONTINUOUS
 10
290.8998140021
 20
528.7382663082
 11
291.6107800614
 21
528.9970367913
  0
LINE
  5
3E4
100
AcDbEntity
  8
RUNDUNGEN
100
AcDbLine
 62
7
  6
CONTINUOUS
 10
374.322788877
 20
561.4320180077
 11
373.9832198552
 21
561.3156579293
  0
LINE
  5
3E5
100
AcDbEntity
  8
RUNDUNGEN
100
AcDbLine
 62
7
  6
CONTINUOUS
 10
134.4472115477
 20
571.1198802036
 11
143.8706314431
 21
571.1198802036
  0
LINE
  5
3E6
100
AcDbEntity
  8
0
100
AcDbLine
 62
7
  6
CONTINUOUS
 10
130.9472115477
 20
572.1176515498
 11
134.4472115477
 21
572.1176515498
  0
LINE
  5
3E7
100
AcDbEntity
  8
RUNDUNGEN
100
AcDbLine
 62
7
  6
CONTINUOUS
 10
109.9472115477
 20
574.1176515498
 11
114.4472115477
 21
574.1176515498
  0
LINE
  5
3E8
100
AcDbEntity
  8
BEZUGSACHSEN
100
AcDbLine
 62
7
  6
CONTINUOUS
 10
109.9472115477
 20
574.1176515498
 11
114.4472115477
 21
574.1176515498
  0
LINE
  5
3E9
100
AcDbEntity
  8
0
100
AcDbLine
 62
7
  6
CONTINUOUS
 10
260.4472115477
 20
577.6176515498
 11
274.4472115477
 21
577.6176515498
  0
LINE
  5
3EA
100
AcDbEntity
  8
0
100
AcDbLine
 62
7
  6
CONTINUOUS
 10
254.4472115477
 20
579.1176515498
 11
260.4472115477
 21
579.1176515498
  0
LINE
  5
3EB
100
AcDbEntity
  8
0
100
AcDbLine
 62
7
  6
CONTINUOUS
 10
274.4472115477
 20
579.1176515498
 11
280.4472115477
 21
579.1176515498
  0
LINE
  5
3EC
100
AcDbEntity
  8
RUNDUNGEN
100
AcDbLine
 62
7
  6
CONTINUOUS
 10
287.1886826942
 20
562.3075932515
 11
286.84908124
 21
562.4561022127
  0
LINE
  5
3ED
100
AcDbEntity
  8
RUNDUNGEN
100
AcDbLine
 62
7
  6
CONTINUOUS
 10
286.8576033372
 20
562.4521453793
 11
286.5280604406
 21
562.6136708158
  0
LINE
  5
3EE
100
AcDbEntity
  8
RUNDUNGEN
100
AcDbLine
 62
7
  6
CONTINUOUS
 10
286.536146024
 20
562.6094984861
 11
286.2174499447
 21
562.7817948011
  0
LINE
  5
3EF
100
AcDbEntity
  8
RUNDUNGEN
100
AcDbLine
 62
7
  6
CONTINUOUS
 10
291.5510780692
 20
561.3825198902
 11
291.1710814385
 21
561.5901223012
  0
LINE
  5
3F0
100
AcDbEntity
  8
RUNDUNGEN
100
AcDbLine
 62
7
  6
CONTINUOUS
 10
291.8960755283
 20
561.1922410314
 11
291.5452331434
 21
561.3857218532
  0
LINE
  5
3F1
100
AcDbEntity
  8
RUNDUNGEN
100
AcDbLine
 62
7
  6
CONTINUOUS
 10
286.2251186436
 20
562.7774592135
 11
285.9177308838
 21
562.9585688078
  0
LINE
  5
3F2
100
AcDbEntity
  8
RUNDUNGEN
100
AcDbLine
 62
7
  6
CONTINUOUS
 10
285.9250034134
 20
562.9541100551
 11
285.6301147955
 21
563.141747247
  0
LINE
  5
3F3
100
AcDbEntity
  8
RUNDUNGEN
100
AcDbLine
 62
7
  6
CONTINUOUS
 10
285.6370083516
 20
563.1371997256
 11
285.4472115477
 21
563.2666225364
  0
LINE
  5
3F4
100
AcDbEntity
  8
0
100
AcDbLine
 62
7
  6
CONTINUOUS
 10
305.1472115477
 20
530.6176515498
 11
305.1472115477
 21
529.9176515498
  0
LINE
  5
3F5
100
AcDbEntity
  8
0
100
AcDbLine
 62
7
  6
CONTINUOUS
 10
305.7472115477
 20
530.6176515498
 11
305.7472115477
 21
529.9176515498
  0
LINE
  5
3F6
100
AcDbEntity
  8
0
100
AcDbLine
 62
7
  6
CONTINUOUS
 10
306.9472115477
 20
530.6176515498
 11
306.9472115477
 21
529.9176515498
  0
LINE
  5
3F7
100
AcDbEntity
  8
0
100
AcDbLine
 62
7
  6
CONTINUOUS
 10
308.7472115477
 20
530.6176515498
 11
308.7472115477
 21
529.9176515498
  0
LINE
  5
3F8
100
AcDbEntity
  8
0
100
AcDbLine
 62
7
  6
CONTINUOUS
 10
312.3472115477
 20
530.6176515498
 11
312.3472115477
 21
529.9176515498
  0
LINE
  5
3F9
100
AcDbEntity
  8
0
100
AcDbLine
 62
7
  6
CONTINUOUS
 10
314.1472115477
 20
530.6176515498
 11
314.1472115477
 21
529.9176515498
  0
LINE
  5
3FA
100
AcDbEntity
  8
0
100
AcDbLine
 62
7
  6
CONTINUOUS
 10
315.9472115477
 20
530.6176515498
 11
315.9472115477
 21
529.9176515498
  0
LINE
  5
3FB
100
AcDbEntity
  8
0
100
AcDbLine
 62
7
  6
CONTINUOUS
 10
323.2972115477
 20
530.6176515498
 11
323.2972115477
 21
529.9176515498
  0
LINE
  5
3FC
100
AcDbEntity
  8
RUNDUNGEN
100
AcDbLine
 62
7
  6
CONTINUOUS
 10
376.91123414
 20
562.9703069893
 11
376.6526367407
 21
562.7655025544
  0
LINE
  5
3FD
100
AcDbEntity
  8
RUNDUNGEN
100
AcDbLine
 62
7
  6
CONTINUOUS
 10
376.6613611757
 20
562.7722123605
 11
376.3921717409
 21
562.5713512213
  0
LINE
  5
3FE
100
AcDbEntity
  8
RUNDUNGEN
100
AcDbLine
 62
7
  6
CONTINUOUS
 10
376.4011983065
 20
562.5778849111
 11
376.1215069374
 21
562.3818815143
  0
LINE
  5
3FF
100
AcDbEntity
  8
RUNDUNGEN
100
AcDbLine
 62
7
  6
CONTINUOUS
 10
376.1307912882
 20
562.388177848
 11
375.8413266899
 21
562.1985593175
  0
LINE
  5
400
100
AcDbEntity
  8
RUNDUNGEN
100
AcDbLine
 62
7
  6
CONTINUOUS
 10
375.8508468918
 20
562.2045748733
 11
375.5520953169
 21
562.0228191098
  0
LINE
  5
401
100
AcDbEntity
  8
RUNDUNGEN
100
AcDbLine
 62
7
  6
CONTINUOUS
 10
375.561812749
 20
562.0285018946
 11
375.2546022179
 21
561.8564157317
  0
LINE
  5
402
100
AcDbEntity
  8
RUNDUNGEN
100
AcDbLine
 62
7
  6
CONTINUOUS
 10
378.1864029087
 20
564.2196048304
 11
378.0630349752
 21
564.0719977023
  0
LINE
  5
403
100
AcDbEntity
  8
RUNDUNGEN
100
AcDbLine
 62
7
  6
CONTINUOUS
 10
378.0678995706
 20
564.0776324262
 11
377.9210917154
 21
563.9129705508
  0
LINE
  5
404
100
AcDbEntity
  8
RUNDUNGEN
100
AcDbLine
 62
7
  6
CONTINUOUS
 10
377.9266880831
 20
563.9190604614
 11
377.7561304269
 21
563.7391351752
  0
LINE
  5
405
100
AcDbEntity
  8
RUNDUNGEN
100
AcDbLine
 62
7
  6
CONTINUOUS
 10
377.7624015351
 20
563.7455604853
 11
377.5696788847
 21
563.553864597
  0
LINE
  5
406
100
AcDbEntity
  8
RUNDUNGEN
100
AcDbLine
 62
7
  6
CONTINUOUS
 10
377.5765733833
 20
563.5605277096
 11
377.3636987981
 21
563.3605747214
  0
LINE
  5
407
100
AcDbEntity
  8
RUNDUNGEN
100
AcDbLine
 62
7
  6
CONTINUOUS
 10
377.3711440948
 20
563.3673755114
 11
377.1402921977
 21
563.1624618684
  0
LINE
  5
408
100
AcDbEntity
  8
RUNDUNGEN
100
AcDbLine
 62
7
  6
CONTINUOUS
 10
377.148224481
 20
563.1693098237
 11
376.9028733336
 21
562.9634914931
  0
LWPOLYLINE
  5
409
100
AcDbEntity
  8
RUNDUNGEN
100
AcDbPolyline
 62
7
  6
CONTINUOUS
 90
4
 70
0
 10
378.4919962759
 20
564.6698373761
 10
378.4910045881
 20
564.6675557856
 10
378.4798658099
 20
564.6444860564
 10
378.4550982847
 20
564.599080931
  0
LINE
  5
40A
100
AcDbEntity
  8
RUNDUNGEN
100
AcDbLine
 62
7
  6
CONTINUOUS
 10
378.4550982847
 20
564.599080931
 11
378.4128713845
 21
564.5296479948
  0
LINE
  5
40B
100
AcDbEntity
  8
RUNDUNGEN
100
AcDbLine
 62
7
  6
CONTINUOUS
 10
378.415009547
 20
564.5330044259
 11
378.3550388718
 21
564.4431142525
  0
LINE
  5
40C
100
AcDbEntity
  8
RUNDUNGEN
100
AcDbLine
 62
7
  6
CONTINUOUS
 10
378.3578296152
 20
564.4471286831
 11
378.2822511141
 21
564.342620685
  0
LINE
  5
40D
100
AcDbEntity
  8
RUNDUNGEN
100
AcDbLine
 62
7
  6
CONTINUOUS
 10
378.2822511141
 20
564.342620685
 11
378.1822743023
 21
564.2144912943
  0
LINE
  5
40E
100
AcDbEntity
  8
RUNDUNGEN
100
AcDbLine
 62
7
  6
CONTINUOUS
 10
378.4472115477
 20
565.1175696578
 11
378.4472115477
 21
564.5860815689
  0
LINE
  5
40F
100
AcDbEntity
  8
0
100
AcDbLine
 62
7
  6
CONTINUOUS
 10
384.4812790346
 20
567.6176515498
 11
384.4812790346
 21
528.6176515498
  0
LINE
  5
410
100
AcDbEntity
  8
BEZUGSACHSEN
100
AcDbLine
 62
7
  6
CONTINUOUS
 10
467.296959016
 20
560.1679040815
 11
467.8480322567
 21
560.7189773221
  0
LWPOLYLINE
  5
411
100
AcDbEntity
  8
RUNDUNGEN
100
AcDbPolyline
 62
7
  6
CONTINUOUS
 90
10
 70
0
 10
468.6943899557
 20
534.6699681522
 10
468.8482429242
 20
534.5265430073
 10
469.0355360986
 20
534.3765463123
 10
469.2342178329
 20
534.2419980902
 10
469.4430170323
 20
534.1237590805
 10
469.6605978827
 20
534.02258568
 10
469.8855683974
 20
533.9391251051
 10
470.1164893065
 20
533.8739112572
 10
470.3518832776
 20
533.8273612996
 10
470.5902402872
 20
533.7997732976
  0
LINE
  5
412
100
AcDbEntity
  8
BEZUGSACHSEN
100
AcDbLine
 62
7
  6
CONTINUOUS
 10
467.296959016
 20
536.0673990181
 11
468.7001157139
 21
534.6642423202
  0
LINE
  5
413
100
AcDbEntity
  8
RUNDUNGEN
100
AcDbLine
 62
7
  6
CONTINUOUS
 10
405.9472115477
 20
529.6176515498
 11
405.9472115477
 21
566.6176515498
  0
LINE
  5
414
100
AcDbEntity
  8
RUNDUNGEN
100
AcDbLine
 62
7
  6
CONTINUOUS
 10
550.696450962
 20
577.6480323093
 11
554.5317123537
 21
575.5221122052
  0
LINE
  5
415
100
AcDbEntity
  8
RUNDUNGEN
100
AcDbLine
 62
7
  6
CONTINUOUS
 10
536.7359265796
 20
556.5879103141
 11
547.9775923072
 21
576.8684121355
  0
LINE
  5
416
100
AcDbEntity
  8
RUNDUNGEN
100
AcDbLine
 62
7
  6
CONTINUOUS
 10
555.5317086192
 20
573.4255764356
 11
551.8643212132
 21
552.626788914
  0
LINE
  5
417
100
AcDbEntity
  8
BEZUGSACHSEN
100
AcDbLine
 62
7
  6
CONTINUOUS
 10
555.5317086192
 20
573.4255764356
 11
553.5976842661
 21
562.4571792833
  0
LINE
  5
418
100
AcDbEntity
  8
BEZUGSACHSEN
100
AcDbLine
 62
7
  6
CONTINUOUS
 10
-30.6372855238
 20
-104.8143828462
 11
-28.7032611707
 21
-93.8459856939
  0
LINE
  5
419
100
AcDbEntity
  8
RUNDUNGEN
100
AcDbLine
 62
7
  6
CONTINUOUS
 10
-30.6372855238
 20
-104.8143828462
 11
-26.9698981178
 21
-84.0155953254
  0
LINE
  5
41A
100
AcDbEntity
  8
RUNDUNGEN
100
AcDbLine
 62
7
  6
CONTINUOUS
 10
-11.8415034842
 20
-87.9767167248
 11
-23.0831692118
 21
-108.2572185461
  0
LINE
  5
41B
100
AcDbEntity
  8
0
100
AcDbLine
 62
7
  6
CONTINUOUS
 10
58.5472115477
 20
-74.3407179343
 11
58.5472115477
 21
-74.5064579604
  0
LINE
  5
41C
100
AcDbEntity
  8
RUNDUNGEN
100
AcDbLine
 62
7
  6
CONTINUOUS
 10
-25.8020278666
 20
-109.0368387199
 11
-29.6372892582
 21
-106.9109186158
  0
LINE
  5
41D
100
AcDbEntity
  8
RUNDUNGEN
100
AcDbLine
 62
7
  6
CONTINUOUS
 10
107.9472115477
 20
-103.5064579604
 11
107.9472115477
 21
-55.5064579604
  0
LINE
  5
41E
100
AcDbEntity
  8
RUNDUNGEN
100
AcDbLine
 62
7
  6
CONTINUOUS
 10
114.9472115477
 20
-105.0064579604
 11
114.9472115477
 21
-54.0064579604
  0
LINE
  5
41F
100
AcDbEntity
  8
BEZUGSACHSEN
100
AcDbLine
 62
7
  6
CONTINUOUS
 10
57.0463892327
 20
-92.1077853388
 11
57.5974640794
 21
-91.5567104921
  0
LINE
  5
420
100
AcDbEntity
  8
BEZUGSACHSEN
100
AcDbLine
 62
7
  6
CONTINUOUS
 10
56.1995420056
 20
-66.0582833549
 11
57.5974640794
 21
-67.4562054287
  0
LINE
  5
421
100
AcDbEntity
  8
RUNDUNGEN
100
AcDbLine
 62
7
  6
CONTINUOUS
 10
129.9472115477
 20
-56.5065567308
 11
129.9472115477
 21
-102.5064579604
  0
LINE
  5
422
100
AcDbEntity
  8
RUNDUNGEN
100
AcDbLine
 62
7
  6
CONTINUOUS
 10
134.4472115477
 20
-103.5064579604
 11
134.4472115477
 21
-102.4179801283
  0
LINE
  5
423
100
AcDbEntity
  8
0
100
AcDbLine
 62
7
  6
CONTINUOUS
 10
143.8753595545
 20
-55.5064579604
 11
143.8753595545
 21
-79.5064579604
  0
LINE
  5
424
100
AcDbEntity
  8
RUNDUNGEN
100
AcDbLine
 62
7
  6
CONTINUOUS
 10
143.8753595545
 20
-79.5064579604
 11
143.8753595545
 21
-102.4179801283
  0
LINE
  5
425
100
AcDbEntity
  8
0
100
AcDbLine
 62
7
  6
CONTINUOUS
 10
173.4472115477
 20
-60.5064579604
 11
173.4472115477
 21
-59.9319847874
  0
LINE
  5
426
100
AcDbEntity
  8
0
100
AcDbLine
 62
7
  6
CONTINUOUS
 10
181.4472115477
 20
-61.8429362278
 11
181.4472115477
 21
-61.1990823976
  0
LWPOLYLINE
  5
427
100
AcDbEntity
  8
RUNDUNGEN
100
AcDbPolyline
 62
7
  6
CONTINUOUS
 90
4
 70
0
 10
156.4065639282
 20
-96.0471545839
 10
156.4056033975
 20
-96.0499611632
 10
156.4024267313
 20
-96.0586461606
 10
156.4097569073
 20
-96.0428750258
  0
LINE
  5
428
100
AcDbEntity
  8
RUNDUNGEN
100
AcDbLine
 62
7
  6
CONTINUOUS
 10
156.4097569073
 20
-96.0428750258
 11
156.4315102489
 21
-96.0016781007
  0
LINE
  5
429
100
AcDbEntity
  8
RUNDUNGEN
100
AcDbLine
 62
7
  6
CONTINUOUS
 10
156.4300161059
 20
-96.0043582526
 11
156.4671881598
 21
-95.9412938257
  0
LWPOLYLINE
  5
42A
100
AcDbEntity
  8
RUNDUNGEN
100
AcDbPolyline
 62
7
  6
CONTINUOUS
 90
27
 70
0
 10
156.4648355185
 20
-95.9451037471
 10
156.5151764726
 20
-95.8672399999
 10
156.5823070421
 20
-95.7717610759
 10
156.6670466656
 20
-95.6599346994
 10
156.7704539154
 20
-95.5324366871
 10
156.8934581652
 20
-95.3900284247
 10
157.0370403304
 20
-95.2333942697
 10
157.2025680013
 20
-95.0628509706
 10
157.3894073813
 20
-94.8807976047
 10
157.5972445984
 20
-94.6892125919
 10
157.824679199
 20
-94.4909582429
 10
158.0699683315
 20
-94.2890002967
 10
158.3312273507
 20
-94.0863009368
 10
158.6061508007
 20
-93.8859704852
 10
158.8920954054
 20
-93.6911305158
 10
159.1855972663
 20
-93.5051559014
 10
159.4845396884
 20
-93.3302548155
 10
159.7849609573
 20
-93.1693599336
 10
160.0875732768
 20
-93.0225805857
 10
160.3917237919
 20
-92.8909772407
 10
160.698005164
 20
-92.775042184
 10
161.0070125416
 20
-92.6755332229
 10
161.3179255073
 20
-92.5937937646
 10
161.6308115429
 20
-92.5307322328
 10
161.9436858217
 20
-92.4875735377
 10
162.2552734118
 20
-92.4647859879
 10
162.4472115478
 20
-92.4609022109
  0
LINE
  5
42B
100
AcDbEntity
  8
0
100
AcDbLine
 62
7
  6
CONTINUOUS
 10
189.4472115477
 20
-60.5064579604
 11
189.4472115477
 21
-59.9319847874
  0
LINE
  5
42C
100
AcDbEntity
  8
RUNDUNGEN
100
AcDbLine
 62
7
  6
CONTINUOUS
 10
143.8755015789
 20
-102.5078748981
 11
149.727052909
 21
-98.4098199623
  0
LINE
  5
42D
100
AcDbEntity
  8
RUNDUNGEN
100
AcDbLine
 62
7
  6
CONTINUOUS
 10
149.7270529081
 20
-98.4098201122
 11
149.7566428178
 21
-98.3891961134
  0
LINE
  5
42E
100
AcDbEntity
  8
RUNDUNGEN
100
AcDbLine
 62
7
  6
CONTINUOUS
 10
149.7566428178
 20
-98.3891961134
 11
149.8420444928
 21
-98.3314135347
  0
LINE
  5
42F
100
AcDbEntity
  8
RUNDUNGEN
100
AcDbLine
 62
7
  6
CONTINUOUS
 10
149.8319641626
 20
-98.3381014391
 11
149.9183423379
 21
-98.2819132053
  0
LINE
  5
430
100
AcDbEntity
  8
RUNDUNGEN
100
AcDbLine
 62
7
  6
CONTINUOUS
 10
149.9081423116
 20
-98.2884174388
 11
149.9483077545
 21
-98.2630041348
  0
LINE
  5
431
100
AcDbEntity
  8
RUNDUNGEN
100
AcDbLine
 62
7
  6
CONTINUOUS
 10
149.9483139867
 20
-98.2630270305
 11
150.1467441722
 21
-98.1458319161
  0
LINE
  5
432
100
AcDbEntity
  8
0
100
AcDbLine
 62
7
  6
CONTINUOUS
 10
143.8753595545
 20
-55.5064579604
 11
149.7247113508
 21
-59.6022181819
  0
LINE
  5
433
100
AcDbEntity
  8
RUNDUNGEN
100
AcDbLine
 62
7
  6
CONTINUOUS
 10
150.1359697294
 20
-98.1518713947
 11
150.474503378
 21
-97.9805613454
  0
LINE
  5
434
100
AcDbEntity
  8
RUNDUNGEN
100
AcDbLine
 62
7
  6
CONTINUOUS
 10
150.4630474568
 20
-97.9857840479
 11
150.8197537288
 21
-97.8397158824
  0
LINE
  5
435
100
AcDbEntity
  8
0
100
AcDbLine
 62
7
  6
CONTINUOUS
 10
243.283643034
 20
-60.385843202
 11
243.9946090933
 21
-60.1270727189
  0
LINE
  5
436
100
AcDbEntity
  8
RUNDUNGEN
100
AcDbLine
 62
7
  6
CONTINUOUS
 10
287.8641027299
 20
-93.4583775772
 11
288.2230906509
 21
-93.3641627095
  0
LINE
  5
437
100
AcDbEntity
  8
RUNDUNGEN
100
AcDbLine
 62
7
  6
CONTINUOUS
 10
288.2127330825
 20
-93.3665571943
 11
288.5714943959
 21
-93.2950352049
  0
LINE
  5
438
100
AcDbEntity
  8
RUNDUNGEN
100
AcDbLine
 62
7
  6
CONTINUOUS
 10
288.5607915331
 20
-93.2968250817
 11
288.9156478726
 21
-93.2488921373
  0
LINE
  5
439
100
AcDbEntity
  8
0
100
AcDbLine
 62
7
  6
CONTINUOUS
 10
254.4472115477
 20
-110.5064579604
 11
260.4472115477
 21
-110.5064579604
  0
LINE
  5
43A
100
AcDbEntity
  8
0
100
AcDbLine
 62
7
  6
CONTINUOUS
 10
274.4472115477
 20
-110.5064579604
 11
280.4472115477
 21
-110.5064579604
  0
LINE
  5
43B
100
AcDbEntity
  8
0
100
AcDbLine
 62
7
  6
CONTINUOUS
 10
260.4472115477
 20
-109.0064579604
 11
274.4472115477
 21
-109.0064579604
  0
LINE
  5
43C
100
AcDbEntity
  8
RUNDUNGEN
100
AcDbLine
 62
7
  6
CONTINUOUS
 10
109.9472115477
 20
-105.5064579604
 11
114.4472115477
 21
-105.5064579604
  0
LINE
  5
43D
100
AcDbEntity
  8
BEZUGSACHSEN
100
AcDbLine
 62
7
  6
CONTINUOUS
 10
109.9472115477
 20
-105.5064579604
 11
114.4472115477
 21
-105.5064579604
  0
LINE
  5
43E
100
AcDbEntity
  8
0
100
AcDbLine
 62
7
  6
CONTINUOUS
 10
130.9472115477
 20
-103.5064579604
 11
134.4472115477
 21
-103.5064579604
  0
LINE
  5
43F
100
AcDbEntity
  8
RUNDUNGEN
100
AcDbLine
 62
7
  6
CONTINUOUS
 10
143.870631296
 20
-102.5086866143
 11
134.4472115477
 21
-102.5086866143
  0
LINE
  5
440
100
AcDbEntity
  8
0
100
AcDbLine
 62
7
  6
CONTINUOUS
 10
384.4812790346
 20
-99.0064579604
 11
404.9472115477
 21
-99.0064579604
  0
LINE
  5
441
100
AcDbEntity
  8
0
100
AcDbLine
 62
7
  6
CONTINUOUS
 10
380.4472115477
 20
-98.5064579604
 11
382.3018295629
 21
-98.5064579604
  0
LINE
  5
442
100
AcDbEntity
  8
RUNDUNGEN
100
AcDbLine
 62
7
  6
CONTINUOUS
 10
152.5925935327
 20
-97.5342357382
 11
154.4750320259
 21
-97.5342357382
  0
LINE
  5
443
100
AcDbEntity
  8
RUNDUNGEN
100
AcDbLine
 62
7
  6
CONTINUOUS
 10
243.3433486991
 20
-92.7713283171
 11
243.7233416569
 21
-92.9789287119
  0
LINE
  5
444
100
AcDbEntity
  8
RUNDUNGEN
100
AcDbLine
 62
7
  6
CONTINUOUS
 10
242.9983483464
 20
-92.5810478736
 11
243.3491936013
 21
-92.7745302669
  0
LINE
  5
445
100
AcDbEntity
  8
BEZUGSACHSEN
100
AcDbLine
 62
7
  6
CONTINUOUS
 10
249.4472115477
 20
-53.5064939511
 11
249.4472115477
 21
-105.50642231
  0
LINE
  5
446
100
AcDbEntity
  8
0
100
AcDbLine
 62
7
  6
CONTINUOUS
 10
260.4472115477
 20
-48.5065310811
 11
260.4472115477
 21
-110.5063848398
  0
LINE
  5
447
100
AcDbEntity
  8
RUNDUNGEN
100
AcDbLine
 62
7
  6
CONTINUOUS
 10
150.8076681248
 20
-97.8441124321
 11
151.1808397433
 21
-97.7242790488
  0
LINE
  5
448
100
AcDbEntity
  8
RUNDUNGEN
100
AcDbLine
 62
7
  6
CONTINUOUS
 10
151.5425404891
 20
-97.6378598914
 11
151.9418732465
 21
-97.5736115135
  0
LWPOLYLINE
  5
449
100
AcDbEntity
  8
RUNDUNGEN
100
AcDbPolyline
 62
7
  6
CONTINUOUS
 90
9
 70
0
 10
470.5902402872
 20
-65.1885797082
 10
470.3518832776
 20
-65.2161677103
 10
470.1164893065
 20
-65.2627176678
 10
469.8855683974
 20
-65.3279315158
 10
469.6605978827
 20
-65.4113920907
 10
469.4430170323
 20
-65.5125654912
 10
469.2342178329
 20
-65.6308045009
 10
469.0355360986
 20
-65.765352723
 10
468.8482429242
 20
-65.915349418
  0
LINE
  5
44A
100
AcDbEntity
  8
RUNDUNGEN
100
AcDbLine
 62
7
  6
CONTINUOUS
 10
151.9290272886
 20
-97.5751956161
 11
152.3383152901
 21
-97.5402124349
  0
LINE
  5
44B
100
AcDbEntity
  8
RUNDUNGEN
100
AcDbLine
 62
7
  6
CONTINUOUS
 10
288.9047164826
 20
-93.2500155673
 11
289.2514508882
 21
-93.2255082652
  0
LINE
  5
44C
100
AcDbEntity
  8
RUNDUNGEN
100
AcDbLine
 62
7
  6
CONTINUOUS
 10
152.3256647414
 20
-97.5408192128
 11
152.5925935327
 21
-97.5342352214
  0
LINE
  5
44D
100
AcDbEntity
  8
RUNDUNGEN
100
AcDbLine
 62
7
  6
CONTINUOUS
 10
289.2404865186
 20
-93.2259296299
 11
289.447211548
 21
-93.2218305053
  0
LINE
  5
44E
100
AcDbEntity
  8
RUNDUNGEN
100
AcDbLine
 62
7
  6
CONTINUOUS
 10
244.67864938
 20
-93.2218324743
 11
245.4472121293
 21
-93.2218324743
  0
LINE
  5
44F
100
AcDbEntity
  8
RUNDUNGEN
100
AcDbLine
 62
7
  6
CONTINUOUS
 10
289.4472115477
 20
-93.2218324743
 11
290.2157737155
 21
-93.2218324743
  0
LINE
  5
450
100
AcDbEntity
  8
RUNDUNGEN
100
AcDbLine
 62
7
  6
CONTINUOUS
 10
162.4472115477
 20
-92.4609091105
 11
242.599600906
 21
-92.4609091105
  0
LINE
  5
451
100
AcDbEntity
  8
RUNDUNGEN
100
AcDbLine
 62
7
  6
CONTINUOUS
 10
292.294820348
 20
-92.4609091105
 11
372.4472106745
 21
-92.4609091105
  0
LINE
  5
452
100
AcDbEntity
  8
BEZUGSACHSEN
100
AcDbLine
 62
7
  6
CONTINUOUS
 10
62.5472115477
 20
-89.5064579604
 11
107.9472115477
 21
-89.5064579604
  0
LINE
  5
453
100
AcDbEntity
  8
BEZUGSACHSEN
100
AcDbLine
 62
7
  6
CONTINUOUS
 10
114.9472115477
 20
-89.5064579604
 11
129.9472115477
 21
-89.5064579604
  0
LINE
  5
454
100
AcDbEntity
  8
BEZUGSACHSEN
100
AcDbLine
 62
7
  6
CONTINUOUS
 10
405.9472115477
 20
-89.5064579604
 11
462.3472115477
 21
-89.5064579604
  0
LINE
  5
455
100
AcDbEntity
  8
RUNDUNGEN
100
AcDbLine
 62
7
  6
CONTINUOUS
 10
27.4472105589
 20
-80.5064579604
 11
0.8404813037
 21
-80.5064579604
  0
LINE
  5
456
100
AcDbEntity
  8
BEZUGSACHSEN
100
AcDbLine
 62
7
  6
CONTINUOUS
 10
497.4472236267
 20
-80.5064579604
 11
524.0539417918
 21
-80.5064579604
  0
LWPOLYLINE
  5
457
100
AcDbEntity
  8
RUNDUNGEN
100
AcDbPolyline
 62
7
  6
CONTINUOUS
 90
14
 70
0
 10
245.4472121326
 20
-93.2218305689
 10
245.643040955
 20
-93.2255087379
 10
245.9787494786
 20
-93.248891
 10
246.3225651063
 20
-93.29497396
 10
246.6704919936
 20
-93.3639691866
 10
247.0189912616
 20
-93.4550549527
 10
247.3645818961
 20
-93.5664567112
 10
247.7031693168
 20
-93.6953460251
 10
248.033734387
 20
-93.8395222734
 10
248.3547294459
 20
-93.9964789472
 10
248.6653784832
 20
-94.1640497923
 10
248.9652208035
 20
-94.3403456308
 10
249.253055507
 20
-94.5231345103
 10
249.4472115477
 20
-94.6553880763
  0
LWPOLYLINE
  5
458
100
AcDbEntity
  8
RUNDUNGEN
100
AcDbPolyline
 62
7
  6
CONTINUOUS
 90
24
 70
0
 10
372.4472106719
 20
-92.4609021105
 10
372.6482157508
 20
-92.4651617396
 10
372.9799037145
 20
-92.4907421032
 10
373.3145137923
 20
-92.5396519254
 10
373.6497288522
 20
-92.611357528
 10
373.9832198552
 20
-92.70446434
 10
374.3124376198
 20
-92.8169699298
 10
374.6343746992
 20
-92.9459599659
 10
374.9486703914
 20
-93.0894349731
 10
375.2546022179
 20
-93.2452221423
 10
375.5520953169
 20
-93.4116255205
 10
375.8413266899
 20
-93.5873657282
 10
376.1215069374
 20
-93.770687925
 10
376.3921717409
 20
-93.960157632
 10
376.6526367407
 20
-94.1543089651
 10
376.9028733336
 20
-94.3522979038
 10
377.1402921977
 20
-94.5512682791
 10
377.3636987981
 20
-94.7493811321
 10
377.5696788847
 20
-94.9426710077
 10
377.7561304269
 20
-95.1279415859
 10
377.9210917154
 20
-95.3017769615
 10
378.0630349752
 20
-95.460804113
 10
378.1822743023
 20
-95.603297705
 10
378.2788040697
 20
-95.7268394232
  0
LWPOLYLINE
  5
459
100
AcDbEntity
  8
RUNDUNGEN
100
AcDbPolyline
 62
7
  6
CONTINUOUS
 90
9
 70
0
 10
242.5996009017
 20
-92.4609092245
 10
242.6462074972
 20
-92.4627755269
 10
242.6995653337
 20
-92.4694282672
 10
242.7532199465
 20
-92.4806645291
 10
242.8081026118
 20
-92.4965189855
 10
242.8629992282
 20
-92.51642148
 10
242.9184798276
 20
-92.540340428
 10
242.9749046323
 20
-92.5683645715
 10
242.9983393206
 20
-92.5810521683
  0
LINE
  5
45A
100
AcDbEntity
  8
0
100
AcDbLine
 62
7
  6
CONTINUOUS
 10
274.4472115477
 20
-48.5065310811
 11
274.4472115477
 21
-110.5063848398
  0
LINE
  5
45B
100
AcDbEntity
  8
RUNDUNGEN
100
AcDbLine
 62
7
  6
CONTINUOUS
 10
287.1797096643
 20
-93.7000785119
 11
287.5278275738
 21
-93.5671660304
  0
LINE
  5
45C
100
AcDbEntity
  8
RUNDUNGEN
100
AcDbLine
 62
7
  6
CONTINUOUS
 10
287.5183944511
 20
-93.5704984194
 11
287.8740220441
 21
-93.4554653249
  0
LINE
  5
45D
100
AcDbEntity
  8
RUNDUNGEN
100
AcDbLine
 62
7
  6
CONTINUOUS
 10
151.1682623245
 20
-97.7277892275
 11
151.5553870585
 21
-97.6353040165
  0
LINE
  5
45E
100
AcDbEntity
  8
0
100
AcDbLine
 62
7
  6
CONTINUOUS
 10
173.4472115477
 20
-59.9319847874
 11
174.4530288425
 21
-59.907248274
  0
LINE
  5
45F
100
AcDbEntity
  8
0
100
AcDbLine
 62
7
  6
CONTINUOUS
 10
58.5472115477
 20
-74.5064579604
 11
107.9472115477
 21
-74.5064579604
  0
LINE
  5
460
100
AcDbEntity
  8
0
100
AcDbLine
 62
7
  6
CONTINUOUS
 10
114.9472115477
 20
-74.5064579604
 11
129.9472115477
 21
-74.5064579604
  0
LINE
  5
461
100
AcDbEntity
  8
0
100
AcDbLine
 62
7
  6
CONTINUOUS
 10
63.5472115477
 20
-70.8462039226
 11
107.9472115477
 21
-70.8462039226
  0
LINE
  5
462
100
AcDbEntity
  8
0
100
AcDbLine
 62
7
  6
CONTINUOUS
 10
114.9472115477
 20
-70.8462039226
 11
129.9472115477
 21
-70.8462039226
  0
LINE
  5
463
100
AcDbEntity
  8
BEZUGSACHSEN
100
AcDbLine
 62
7
  6
CONTINUOUS
 10
62.5472115477
 20
-69.5064579604
 11
107.9472115477
 21
-69.5064579604
  0
LINE
  5
464
100
AcDbEntity
  8
BEZUGSACHSEN
100
AcDbLine
 62
7
  6
CONTINUOUS
 10
114.9472115477
 20
-69.5064579604
 11
129.9472115477
 21
-69.5064579604
  0
LINE
  5
465
100
AcDbEntity
  8
BEZUGSACHSEN
100
AcDbLine
 62
7
  6
CONTINUOUS
 10
405.9472115477
 20
-69.5064579604
 11
462.3472115477
 21
-69.5064579604
  0
LINE
  5
466
100
AcDbEntity
  8
RUNDUNGEN
100
AcDbLine
 62
7
  6
CONTINUOUS
 10
323.4471404202
 20
-62.0064579604
 11
297.4471960816
 21
-62.0064579604
  0
LINE
  5
467
100
AcDbEntity
  8
0
100
AcDbLine
 62
7
  6
CONTINUOUS
 10
297.9472115477
 20
-61.3064579604
 11
305.7472115477
 21
-61.3064579604
  0
LINE
  5
468
100
AcDbEntity
  8
0
100
AcDbLine
 62
7
  6
CONTINUOUS
 10
306.9472115477
 20
-61.3064579604
 11
314.1472115477
 21
-61.3064579604
  0
LINE
  5
469
100
AcDbEntity
  8
0
100
AcDbLine
 62
7
  6
CONTINUOUS
 10
315.9472115477
 20
-61.3064579604
 11
323.2972115477
 21
-61.3064579604
  0
LINE
  5
46A
100
AcDbEntity
  8
0
100
AcDbLine
 62
7
  6
CONTINUOUS
 10
152.5925935326
 20
-60.5064579604
 11
174.4471800098
 21
-60.5064579604
  0
LINE
  5
46B
100
AcDbEntity
  8
0
100
AcDbLine
 62
7
  6
CONTINUOUS
 10
188.4472430857
 20
-60.5064579604
 11
242.5996027474
 21
-60.5064579604
  0
LINE
  5
46C
100
AcDbEntity
  8
0
100
AcDbLine
 62
7
  6
CONTINUOUS
 10
292.294820348
 20
-60.5064579604
 11
294.3290337364
 21
-60.5064579604
  0
LINE
  5
46D
100
AcDbEntity
  8
0
100
AcDbLine
 62
7
  6
CONTINUOUS
 10
326.5652466618
 20
-60.5064579604
 11
382.3018295629
 21
-60.5064579604
  0
LINE
  5
46E
100
AcDbEntity
  8
0
100
AcDbLine
 62
7
  6
CONTINUOUS
 10
244.67864938
 20
-60.0064579604
 11
249.4472115477
 21
-60.0064579604
  0
LINE
  5
46F
100
AcDbEntity
  8
0
100
AcDbLine
 62
7
  6
CONTINUOUS
 10
285.4472115477
 20
-60.0064579604
 11
290.2157737155
 21
-60.0064579604
  0
LINE
  5
470
100
AcDbEntity
  8
0
100
AcDbLine
 62
7
  6
CONTINUOUS
 10
384.4812790346
 20
-60.0064579604
 11
404.9472115477
 21
-60.0064579604
  0
LINE
  5
471
100
AcDbEntity
  8
0
100
AcDbLine
 62
7
  6
CONTINUOUS
 10
174.4466415082
 20
-59.9064579604
 11
188.4477816632
 21
-59.9064579604
  0
LINE
  5
472
100
AcDbEntity
  8
0
100
AcDbLine
 62
7
  6
CONTINUOUS
 10
188.4413881548
 20
-59.9072496803
 11
189.4472115477
 21
-59.9319847874
  0
LINE
  5
473
100
AcDbEntity
  8
RUNDUNGEN
100
AcDbLine
 62
7
  6
CONTINUOUS
 10
285.4472115477
 20
-53.5064939511
 11
285.4472115477
 21
-105.50642231
  0
LINE
  5
474
100
AcDbEntity
  8
0
100
AcDbLine
 62
7
  6
CONTINUOUS
 10
297.9472115477
 20
-62.0064579604
 11
297.9472115477
 21
-61.3064579604
  0
LINE
  5
475
100
AcDbEntity
  8
0
100
AcDbLine
 62
7
  6
CONTINUOUS
 10
299.4472115477
 20
-62.0064579604
 11
299.4472115477
 21
-61.3064579604
  0
LINE
  5
476
100
AcDbEntity
  8
0
100
AcDbLine
 62
7
  6
CONTINUOUS
 10
304.0151607402
 20
-62.0064579604
 11
304.0151607402
 21
-61.3064579604
  0
LINE
  5
477
100
AcDbEntity
  8
RUNDUNGEN
100
AcDbLine
 62
7
  6
CONTINUOUS
 10
285.4472115477
 20
-94.655480494
 11
285.6370083516
 21
-94.5260061363
  0
LINE
  5
478
100
AcDbEntity
  8
RUNDUNGEN
100
AcDbLine
 62
7
  6
CONTINUOUS
 10
285.6301147955
 20
-94.5305536576
 11
285.9250034134
 21
-94.3429164658
  0
LINE
  5
479
100
AcDbEntity
  8
RUNDUNGEN
100
AcDbLine
 62
7
  6
CONTINUOUS
 10
285.9177308838
 20
-94.3473752185
 11
286.2251186436
 21
-94.1662656241
  0
LWPOLYLINE
  5
47A
100
AcDbEntity
  8
RUNDUNGEN
100
AcDbPolyline
 62
7
  6
CONTINUOUS
 90
9
 70
0
 10
291.5393743334
 20
-92.7777508358
 10
291.9065786319
 20
-92.5752951122
 10
291.9634492354
 20
-92.5462310646
 10
292.0193573224
 20
-92.5213072501
 10
292.0747257314
 20
-92.5003970363
 10
292.1300822433
 20
-92.4835328882
 10
292.184271314
 20
-92.4712952182
 10
292.2382053319
 20
-92.4636624507
 10
292.2948203465
 20
-92.4609090651
  0
LINE
  5
47B
100
AcDbEntity
  8
RUNDUNGEN
100
AcDbLine
 62
7
  6
CONTINUOUS
 10
291.1710814366
 20
-92.9789287129
 11
291.5452331434
 21
-92.7745282639
  0
LINE
  5
47C
100
AcDbEntity
  8
RUNDUNGEN
100
AcDbLine
 62
7
  6
CONTINUOUS
 10
286.2174499447
 20
-94.1706012118
 11
286.536146024
 21
-93.9983048968
  0
LINE
  5
47D
100
AcDbEntity
  8
RUNDUNGEN
100
AcDbLine
 62
7
  6
CONTINUOUS
 10
286.5280604406
 20
-94.0024772265
 11
286.8576033372
 21
-93.8409517899
  0
LINE
  5
47E
100
AcDbEntity
  8
RUNDUNGEN
100
AcDbLine
 62
7
  6
CONTINUOUS
 10
286.84908124
 20
-93.8449086233
 11
287.1886826942
 21
-93.6963996621
  0
LINE
  5
47F
100
AcDbEntity
  8
BEZUGSACHSEN
100
AcDbLine
 62
7
  6
CONTINUOUS
 10
517.8884459906
 20
-55.5064579604
 11
497.4472115477
 21
-55.5064579604
  0
LINE
  5
480
100
AcDbEntity
  8
RUNDUNGEN
100
AcDbLine
 62
7
  6
CONTINUOUS
 10
27.4472115477
 20
-55.5064579604
 11
7.0063155991
 21
-55.5064579604
  0
LINE
  5
481
100
AcDbEntity
  8
0
100
AcDbLine
 62
7
  6
CONTINUOUS
 10
130.9472115477
 20
-55.5064579604
 11
143.8753595545
 21
-55.5064579604
  0
LINE
  5
482
100
AcDbEntity
  8
RUNDUNGEN
100
AcDbLine
 62
7
  6
CONTINUOUS
 10
109.9472115477
 20
-53.5064579604
 11
114.4472115477
 21
-53.5064579604
  0
LINE
  5
483
100
AcDbEntity
  8
BEZUGSACHSEN
100
AcDbLine
 62
7
  6
CONTINUOUS
 10
109.9472115477
 20
-53.5064579604
 11
114.4472115477
 21
-53.5064579604
  0
LINE
  5
484
100
AcDbEntity
  8
0
100
AcDbLine
 62
7
  6
CONTINUOUS
 10
260.4472115477
 20
-50.0064579604
 11
274.4472115477
 21
-50.0064579604
  0
LINE
  5
485
100
AcDbEntity
  8
0
100
AcDbLine
 62
7
  6
CONTINUOUS
 10
254.4472115477
 20
-48.5064579604
 11
260.4472115477
 21
-48.5064579604
  0
LINE
  5
486
100
AcDbEntity
  8
0
100
AcDbLine
 62
7
  6
CONTINUOUS
 10
274.4472115477
 20
-48.5064579604
 11
280.4472115477
 21
-48.5064579604
  0
LINE
  5
487
100
AcDbEntity
  8
0
100
AcDbLine
 62
7
  6
CONTINUOUS
 10
290.8998140021
 20
-60.1270727189
 11
291.6107800614
 21
-60.385843202
  0
LWPOLYLINE
  5
488
100
AcDbEntity
  8
RUNDUNGEN
100
AcDbPolyline
 62
7
  6
CONTINUOUS
 90
11
 70
0
 10
295.8859614234
 20
-61.2564579811
 10
295.7567401807
 20
-61.1102863374
 10
295.6138169296
 20
-60.9773377528
 10
295.458605047
 20
-60.8589486493
 10
295.2925814716
 20
-60.7562495879
 10
295.1173266429
 20
-60.6702218611
 10
294.9345090498
 20
-60.601687923
 10
294.7458697799
 20
-60.5513037882
 10
294.5532059529
 20
-60.5195526745
 10
294.3583535367
 20
-60.5067402942
 10
294.3247109836
 20
-60.506457319
  0
LINE
  5
489
100
AcDbEntity
  8
0
100
AcDbLine
 62
7
  6
CONTINUOUS
 10
305.7472115477
 20
-62.0064579604
 11
305.7472115477
 21
-61.3064579604
  0
LINE
  5
48A
100
AcDbEntity
  8
0
100
AcDbLine
 62
7
  6
CONTINUOUS
 10
306.9472115477
 20
-62.0064579604
 11
306.9472115477
 21
-61.3064579604
  0
LINE
  5
48B
100
AcDbEntity
  8
0
100
AcDbLine
 62
7
  6
CONTINUOUS
 10
314.1472115477
 20
-62.0064579604
 11
314.1472115477
 21
-61.3064579604
  0
LINE
  5
48C
100
AcDbEntity
  8
0
100
AcDbLine
 62
7
  6
CONTINUOUS
 10
315.9472115477
 20
-62.0064579604
 11
315.9472115477
 21
-61.3064579604
  0
LINE
  5
48D
100
AcDbEntity
  8
0
100
AcDbLine
 62
7
  6
CONTINUOUS
 10
323.2972115477
 20
-62.0064579604
 11
323.2972115477
 21
-61.3064579604
  0
LINE
  5
48E
100
AcDbEntity
  8
RUNDUNGEN
100
AcDbLine
 62
7
  6
CONTINUOUS
 10
378.2788040697
 20
-95.7268394232
 11
378.3578296152
 21
-95.8359350937
  0
LWPOLYLINE
  5
48F
100
AcDbEntity
  8
RUNDUNGEN
100
AcDbPolyline
 62
7
  6
CONTINUOUS
 90
4
 70
0
 10
378.3550388718
 20
-95.8319206632
 10
378.4128713845
 20
-95.9184544055
 10
378.4536086434
 20
-95.9852992237
 10
378.4666289712
 20
-96.0083797113
  0
LINE
  5
490
100
AcDbEntity
  8
RUNDUNGEN
100
AcDbLine
 62
7
  6
CONTINUOUS
 10
378.4472115477
 20
-95.9748023785
 11
378.4472115477
 21
-96.5063760685
  0
LINE
  5
491
100
AcDbEntity
  8
0
100
AcDbLine
 62
7
  6
CONTINUOUS
 10
384.4812790346
 20
-60.0064579604
 11
384.4812790346
 21
-99.0064579604
  0
LINE
  5
492
100
AcDbEntity
  8
BEZUGSACHSEN
100
AcDbLine
 62
7
  6
CONTINUOUS
 10
467.296959016
 20
-67.4562054287
 11
468.7001157139
 21
-66.0530487309
  0
LINE
  5
493
100
AcDbEntity
  8
RUNDUNGEN
100
AcDbLine
 62
7
  6
CONTINUOUS
 10
468.8482429242
 20
-65.915349418
 11
468.6943899557
 21
-66.0587745629
  0
LINE
  5
494
100
AcDbEntity
  8
BEZUGSACHSEN
100
AcDbLine
 62
7
  6
CONTINUOUS
 10
467.296959016
 20
-91.5567104921
 11
467.8480322567
 21
-92.1077837328
  0
LINE
  5
495
100
AcDbEntity
  8
RUNDUNGEN
100
AcDbLine
 62
7
  6
CONTINUOUS
 10
405.9472115477
 20
-98.0064579604
 11
405.9472115477
 21
-61.0064579604
  0
LINE
  5
496
100
AcDbEntity
  8
BEZUGSACHSEN
100
AcDbLine
 62
7
  6
CONTINUOUS
 10
550.696450962
 20
-109.0368387199
 11
554.5317123537
 21
-106.9109186158
  0
LINE
  5
497
100
AcDbEntity
  8
BEZUGSACHSEN
100
AcDbLine
 62
7
  6
CONTINUOUS
 10
536.7359265796
 20
-87.9767167248
 11
547.9775923072
 21
-108.2572185461
  0
LINE
  5
498
100
AcDbEntity
  8
RUNDUNGEN
100
AcDbLine
 62
7
  6
CONTINUOUS
 10
555.5317086192
 20
-104.8143828462
 11
553.5976842661
 21
-93.8459856939
  0
LINE
  5
499
100
AcDbEntity
  8
BEZUGSACHSEN
100
AcDbLine
 62
7
  6
CONTINUOUS
 10
555.5317086192
 20
-104.8143828462
 11
551.8643212132
 21
-84.0155953247
  0
ARC
  5
49A
100
AcDbEntity
  8
BEZUGSACHSEN
100
AcDbCircle
 62
7
  6
CONTINUOUS
 10
-4.5869696917
 20
381.0984108157
 40
16.0
100
AcDbArc
 50
247.0000060371
 51
270.0
  0
ARC
  5
49B
100
AcDbEntity
  8
BEZUGSACHSEN
100
AcDbCircle
 62
7
  6
CONTINUOUS
 10
-18.0527884523
 20
384.0984108157
 40
13.5
100
AcDbArc
 50
204.6929094431
 51
247.0005804446
  0
ARC
  5
49C
100
AcDbEntity
  8
BEZUGSACHSEN
100
AcDbCircle
 62
7
  6
CONTINUOUS
 10
25.9677196234
 20
375.0984108157
 40
10.0
100
AcDbArc
 50
269.9999975585
 51
300.0000234681
  0
ARC
  5
49D
100
AcDbEntity
  8
BEZUGSACHSEN
100
AcDbCircle
 62
7
  6
CONTINUOUS
 10
-3.465363996
 20
382.4984108157
 40
3.0
100
AcDbArc
 50
27.5722101353
 51
90.0
  0
ARC
  5
49E
100
AcDbEntity
  8
BEZUGSACHSEN
100
AcDbCircle
 62
7
  6
CONTINUOUS
 10
-19.3850096065
 20
386.4984108157
 40
1.0
100
AcDbArc
 50
180.0
 51
270.0
  0
ARC
  5
49F
100
AcDbEntity
  8
RUNDUNGEN
100
AcDbCircle
 62
7
  6
CONTINUOUS
 10
-18.0527884523
 20
397.0984108157
 40
13.5
100
AcDbArc
 50
112.9994195554
 51
155.3070905569
  0
ARC
  5
4A0
100
AcDbEntity
  8
RUNDUNGEN
100
AcDbCircle
 62
7
  6
CONTINUOUS
 10
-19.3850096065
 20
394.6984108157
 40
1.0
100
AcDbArc
 50
90.0
 51
180.0
  0
ARC
  5
4A1
100
AcDbEntity
  8
RUNDUNGEN
100
AcDbCircle
 62
7
  6
CONTINUOUS
 10
-4.5869696917
 20
400.0984108157
 40
16.0
100
AcDbArc
 50
90.0
 51
113.0000000987
  0
ARC
  5
4A2
100
AcDbEntity
  8
RUNDUNGEN
100
AcDbCircle
 62
7
  6
CONTINUOUS
 10
-3.465363996
 20
398.6984108157
 40
3.0
100
AcDbArc
 50
270.0
 51
332.4277898647
  0
ARC
  5
4A3
100
AcDbEntity
  8
BEZUGSACHSEN
100
AcDbCircle
 62
7
  6
CONTINUOUS
 10
12.0472115477
 20
390.5984108157
 40
14.5
100
AcDbArc
 50
207.5715074863
 51
33.1229402077
  0
ARC
  5
4A4
100
AcDbEntity
  8
RUNDUNGEN
100
AcDbCircle
 62
7
  6
CONTINUOUS
 10
12.0472115477
 20
390.5984108157
 40
14.5
100
AcDbArc
 50
33.1229402077
 51
152.4284925137
  0
ARC
  5
4A5
100
AcDbEntity
  8
RUNDUNGEN
100
AcDbCircle
 62
7
  6
CONTINUOUS
 10
25.9677196234
 20
406.0984108157
 40
10.0
100
AcDbArc
 50
59.9999765319
 51
90.0000024415
  0
ARC
  5
4A6
100
AcDbEntity
  8
BEZUGSACHSEN
100
AcDbCircle
 62
7
  6
CONTINUOUS
 10
52.4199702118
 20
360.3484108157
 40
16.0
100
AcDbArc
 50
104.2712463559
 51
120.0000052993
  0
ARC
  5
4A7
100
AcDbEntity
  8
RUNDUNGEN
100
AcDbCircle
 62
7
  6
CONTINUOUS
 10
52.4199702118
 20
360.3484108157
 40
16.0
100
AcDbArc
 50
90.0000063697
 51
104.2712463559
  0
ARC
  5
4A8
100
AcDbEntity
  8
0
100
AcDbCircle
 62
7
  6
CONTINUOUS
 10
63.0409984127
 20
374.7325695495
 40
7.3229135053
100
AcDbArc
 50
127.4694714378
 51
127.8546948332
  0
ARC
  5
4A9
100
AcDbEntity
  8
BEZUGSACHSEN
100
AcDbCircle
 62
7
  6
CONTINUOUS
 10
62.5472115477
 20
373.5984108157
 40
7.0
100
AcDbArc
 50
90.0
 51
135.0
  0
ARC
  5
4AA
100
AcDbEntity
  8
0
100
AcDbCircle
 62
7
  6
CONTINUOUS
 10
63.5472115477
 20
380.5984108157
 40
5.0
100
AcDbArc
 50
90.0
 51
180.0
  0
ARC
  5
4AB
100
AcDbEntity
  8
RUNDUNGEN
100
AcDbCircle
 62
7
  6
CONTINUOUS
 10
54.1550754853
 20
379.3484108157
 40
3.0
100
AcDbArc
 50
270.000008379
 51
315.0000059248
  0
ARC
  5
4AC
100
AcDbEntity
  8
RUNDUNGEN
100
AcDbCircle
 62
7
  6
CONTINUOUS
 10
109.9472115477
 20
366.5984108157
 40
2.0
100
AcDbArc
 50
179.9999984885
 51
270.0
  0
ARC
  5
4AD
100
AcDbEntity
  8
RUNDUNGEN
100
AcDbCircle
 62
7
  6
CONTINUOUS
 10
114.4472115477
 20
365.0984108157
 40
0.5
100
AcDbArc
 50
270.0
 51
360.0
  0
ARC
  5
4AE
100
AcDbEntity
  8
RUNDUNGEN
100
AcDbCircle
 62
7
  6
CONTINUOUS
 10
52.4199702118
 20
420.8484108157
 40
16.0
100
AcDbArc
 50
239.9999947007
 51
269.999993646
  0
ARC
  5
4AF
100
AcDbEntity
  8
BEZUGSACHSEN
100
AcDbCircle
 62
7
  6
CONTINUOUS
 10
62.5472115477
 20
407.5984108157
 40
7.0
100
AcDbArc
 50
225.0
 51
270.0
  0
ARC
  5
4B0
100
AcDbEntity
  8
RUNDUNGEN
100
AcDbCircle
 62
7
  6
CONTINUOUS
 10
54.1550720506
 20
401.8484108157
 40
3.0
100
AcDbArc
 50
44.9999476908
 51
89.9999260234
  0
ARC
  5
4B1
100
AcDbEntity
  8
RUNDUNGEN
100
AcDbCircle
 62
7
  6
CONTINUOUS
 10
109.9472115477
 20
414.5984108157
 40
2.0
100
AcDbArc
 50
90.0
 51
180.0000015115
  0
ARC
  5
4B2
100
AcDbEntity
  8
RUNDUNGEN
100
AcDbCircle
 62
7
  6
CONTINUOUS
 10
114.4472115477
 20
416.0984108157
 40
0.5
100
AcDbArc
 50
0.0
 51
90.0
  0
ARC
  5
4B3
100
AcDbEntity
  8
BEZUGSACHSEN
100
AcDbCircle
 62
7
  6
CONTINUOUS
 10
247.4472115477
 20
293.509329754
 40
11.0
100
AcDbArc
 50
0.0
 51
16.4403795217
  0
ARC
  5
4B4
100
AcDbEntity
  8
BEZUGSACHSEN
100
AcDbCircle
 62
7
  6
CONTINUOUS
 10
260.4472115477
 20
327.1874918774
 40
11.0
100
AcDbArc
 50
180.0
 51
196.4403795217
  0
ARC
  5
4B5
100
AcDbEntity
  8
RUNDUNGEN
100
AcDbCircle
 62
7
  6
CONTINUOUS
 10
162.4472115477
 20
395.5984108157
 40
6.0
100
AcDbArc
 50
89.9983471528
 51
179.9978476667
  0
ARC
  5
4B6
100
AcDbEntity
  8
RUNDUNGEN
100
AcDbCircle
 62
7
  6
CONTINUOUS
 10
162.4472115477
 20
385.5984108157
 40
6.0
100
AcDbArc
 50
180.0005164764
 51
270.002481054
  0
ARC
  5
4B7
100
AcDbEntity
  8
RUNDUNGEN
100
AcDbCircle
 62
7
  6
CONTINUOUS
 10
245.4472115477
 20
395.5984108157
 40
6.0
100
AcDbArc
 50
48.1970765251
 51
90.0015777035
  0
ARC
  5
4B8
100
AcDbEntity
  8
RUNDUNGEN
100
AcDbCircle
 62
7
  6
CONTINUOUS
 10
245.4472115477
 20
385.5984108157
 40
6.0
100
AcDbArc
 50
269.9993904099
 51
311.8185594356
  0
ARC
  5
4B9
100
AcDbEntity
  8
RUNDUNGEN
100
AcDbCircle
 62
7
  6
CONTINUOUS
 10
152.5925935326
 20
414.5984108157
 40
5.0
100
AcDbArc
 50
235.0
 51
270.0
  0
ARC
  5
4BA
100
AcDbEntity
  8
RUNDUNGEN
100
AcDbCircle
 62
7
  6
CONTINUOUS
 10
152.5925935326
 20
366.5984108157
 40
5.0
100
AcDbArc
 50
90.0
 51
125.0
  0
ARC
  5
4BB
100
AcDbEntity
  8
BEZUGSACHSEN
100
AcDbCircle
 62
7
  6
CONTINUOUS
 10
254.4472115477
 20
416.5984108157
 40
5.0
100
AcDbArc
 50
90.0
 51
180.0
  0
ARC
  5
4BC
100
AcDbEntity
  8
RUNDUNGEN
100
AcDbCircle
 62
7
  6
CONTINUOUS
 10
244.67864938
 20
408.0984108157
 40
2.0
100
AcDbArc
 50
90.0
 51
110.0
  0
ARC
  5
4BD
100
AcDbEntity
  8
RUNDUNGEN
100
AcDbCircle
 62
7
  6
CONTINUOUS
 10
244.67864938
 20
373.0984108157
 40
2.0
100
AcDbArc
 50
250.0
 51
270.0
  0
ARC
  5
4BE
100
AcDbEntity
  8
RUNDUNGEN
100
AcDbCircle
 62
7
  6
CONTINUOUS
 10
242.5996027474
 20
411.5984108157
 40
2.0
100
AcDbArc
 50
270.0
 51
290.0
  0
ARC
  5
4BF
100
AcDbEntity
  8
RUNDUNGEN
100
AcDbCircle
 62
7
  6
CONTINUOUS
 10
242.5996027474
 20
369.5984108157
 40
2.0
100
AcDbArc
 50
70.0
 51
90.0
  0
ARC
  5
4C0
100
AcDbEntity
  8
RUNDUNGEN
100
AcDbCircle
 62
7
  6
CONTINUOUS
 10
145.2867356504
 20
383.4525002482
 40
1.4113761021
100
AcDbArc
 50
177.7886256087
 51
179.9946431205
  0
ARC
  5
4C1
100
AcDbEntity
  8
RUNDUNGEN
100
AcDbCircle
 62
7
  6
CONTINUOUS
 10
145.2867355812
 20
397.744317598
 40
1.4113760325
100
AcDbArc
 50
180.0052032151
 51
182.2112211723
  0
ARC
  5
4C2
100
AcDbEntity
  8
RUNDUNGEN
100
AcDbCircle
 62
7
  6
CONTINUOUS
 10
130.9472115477
 20
413.5984108157
 40
1.0
100
AcDbArc
 50
90.0
 51
180.0
  0
ARC
  5
4C3
100
AcDbEntity
  8
RUNDUNGEN
100
AcDbCircle
 62
7
  6
CONTINUOUS
 10
130.9472115477
 20
367.5984108157
 40
1.0
100
AcDbArc
 50
180.0
 51
270.0
  0
ARC
  5
4C4
100
AcDbEntity
  8
BEZUGSACHSEN
100
AcDbCircle
 62
7
  6
CONTINUOUS
 10
266.4472115477
 20
78.5984108157
 40
8.0
100
AcDbArc
 50
180.0
 51
270.0
  0
ARC
  5
4C5
100
AcDbEntity
  8
RUNDUNGEN
100
AcDbCircle
 62
7
  6
CONTINUOUS
 10
268.4472115477
 20
78.5984108157
 40
8.0
100
AcDbArc
 50
270.0
 51
360.0
  0
ARC
  5
4C6
100
AcDbEntity
  8
RUNDUNGEN
100
AcDbCircle
 62
7
  6
CONTINUOUS
 10
287.4472115477
 20
293.509329754
 40
11.0
100
AcDbArc
 50
163.5596204783
 51
180.0
  0
ARC
  5
4C7
100
AcDbEntity
  8
RUNDUNGEN
100
AcDbCircle
 62
7
  6
CONTINUOUS
 10
274.4472115477
 20
327.1874918774
 40
11.0
100
AcDbArc
 50
343.5596204783
 51
360.0
  0
ARC
  5
4C8
100
AcDbEntity
  8
RUNDUNGEN
100
AcDbCircle
 62
7
  6
CONTINUOUS
 10
289.4472115477
 20
385.5984108157
 40
6.0
100
AcDbArc
 50
228.1824826611
 51
270.0006466578
  0
ARC
  5
4C9
100
AcDbEntity
  8
RUNDUNGEN
100
AcDbCircle
 62
7
  6
CONTINUOUS
 10
290.2157737155
 20
373.0984108157
 40
2.0
100
AcDbArc
 50
270.0
 51
290.0
  0
ARC
  5
4CA
100
AcDbEntity
  8
RUNDUNGEN
100
AcDbCircle
 62
7
  6
CONTINUOUS
 10
292.294820348
 20
369.5984108157
 40
2.0
100
AcDbArc
 50
90.0
 51
110.0
  0
ARC
  5
4CB
100
AcDbEntity
  8
0
100
AcDbCircle
 62
7
  6
CONTINUOUS
 10
272.4472115477
 20
362.5984108157
 40
2.0
100
AcDbArc
 50
270.0
 51
360.0
  0
ARC
  5
4CC
100
AcDbEntity
  8
0
100
AcDbCircle
 62
7
  6
CONTINUOUS
 10
262.4472115477
 20
362.5984108157
 40
2.0
100
AcDbArc
 50
180.0
 51
270.0
  0
ARC
  5
4CD
100
AcDbEntity
  8
RUNDUNGEN
100
AcDbCircle
 62
7
  6
CONTINUOUS
 10
289.4472115477
 20
395.5984108157
 40
6.0
100
AcDbArc
 50
89.9984222897
 51
131.8438342939
  0
ARC
  5
4CE
100
AcDbEntity
  8
RUNDUNGEN
100
AcDbCircle
 62
7
  6
CONTINUOUS
 10
280.4472115477
 20
416.5984108157
 40
5.0
100
AcDbArc
 50
0.0
 51
90.0
  0
ARC
  5
4CF
100
AcDbEntity
  8
RUNDUNGEN
100
AcDbCircle
 62
7
  6
CONTINUOUS
 10
290.2157737155
 20
408.0984108157
 40
2.0
100
AcDbArc
 50
70.0
 51
90.0
  0
ARC
  5
4D0
100
AcDbEntity
  8
RUNDUNGEN
100
AcDbCircle
 62
7
  6
CONTINUOUS
 10
292.294820348
 20
411.5984108157
 40
2.0
100
AcDbArc
 50
250.0
 51
270.0
  0
ARC
  5
4D1
100
AcDbEntity
  8
RUNDUNGEN
100
AcDbCircle
 62
7
  6
CONTINUOUS
 10
372.4472115477
 20
385.5984108157
 40
6.0
100
AcDbArc
 50
269.9974648987
 51
0.0017796289
  0
ARC
  5
4D2
100
AcDbEntity
  8
0
100
AcDbCircle
 62
7
  6
CONTINUOUS
 10
382.3018295629
 20
366.5984108157
 40
5.0
100
AcDbArc
 50
64.1580672368
 51
90.0
  0
ARC
  5
4D3
100
AcDbEntity
  8
RUNDUNGEN
100
AcDbCircle
 62
7
  6
CONTINUOUS
 10
372.4472115477
 20
395.5984108157
 40
6.0
100
AcDbArc
 50
359.9982629184
 51
90.0016632488
  0
ARC
  5
4D4
100
AcDbEntity
  8
0
100
AcDbCircle
 62
7
  6
CONTINUOUS
 10
382.3018295629
 20
414.5984108157
 40
5.0
100
AcDbArc
 50
270.0
 51
295.8419327632
  0
ARC
  5
4D5
100
AcDbEntity
  8
RUNDUNGEN
100
AcDbCircle
 62
7
  6
CONTINUOUS
 10
472.4744528837
 20
360.3484108157
 40
16.0
100
AcDbArc
 50
59.9999947007
 51
89.999993646
  0
ARC
  5
4D6
100
AcDbEntity
  8
BEZUGSACHSEN
100
AcDbCircle
 62
7
  6
CONTINUOUS
 10
462.3472115477
 20
373.5984108157
 40
7.0
100
AcDbArc
 50
45.0
 51
90.0
  0
ARC
  5
4D7
100
AcDbEntity
  8
RUNDUNGEN
100
AcDbCircle
 62
7
  6
CONTINUOUS
 10
470.7393493139
 20
379.3484108157
 40
3.0
100
AcDbArc
 50
224.9999710675
 51
269.9999590832
  0
ARC
  5
4D8
100
AcDbEntity
  8
RUNDUNGEN
100
AcDbCircle
 62
7
  6
CONTINUOUS
 10
404.9472115477
 20
372.0984108157
 40
1.0
100
AcDbArc
 50
270.0
 51
360.0
  0
ARC
  5
4D9
100
AcDbEntity
  8
BEZUGSACHSEN
100
AcDbCircle
 62
7
  6
CONTINUOUS
 10
472.4744528837
 20
420.8484108157
 40
16.0
100
AcDbArc
 50
284.2712463555
 51
300.0000052993
  0
ARC
  5
4DA
100
AcDbEntity
  8
RUNDUNGEN
100
AcDbCircle
 62
7
  6
CONTINUOUS
 10
472.4744528837
 20
420.8484108157
 40
16.0
100
AcDbArc
 50
270.0000063696
 51
284.2712463555
  0
ARC
  5
4DB
100
AcDbEntity
  8
BEZUGSACHSEN
100
AcDbCircle
 62
7
  6
CONTINUOUS
 10
462.3472115477
 20
407.5984108157
 40
7.0
100
AcDbArc
 50
270.0
 51
315.0
  0
ARC
  5
4DC
100
AcDbEntity
  8
RUNDUNGEN
100
AcDbCircle
 62
7
  6
CONTINUOUS
 10
470.7393474464
 20
401.8484108157
 40
3.0
100
AcDbArc
 50
90.000005252
 51
135.0000037137
  0
ARC
  5
4DD
100
AcDbEntity
  8
RUNDUNGEN
100
AcDbCircle
 62
7
  6
CONTINUOUS
 10
404.9472115477
 20
409.0984108157
 40
1.0
100
AcDbArc
 50
0.0
 51
90.0
  0
ARC
  5
4DE
100
AcDbEntity
  8
RUNDUNGEN
100
AcDbCircle
 62
7
  6
CONTINUOUS
 10
529.4813927871
 20
381.0984108157
 40
16.0
100
AcDbArc
 50
270.0
 51
293.0000000987
  0
ARC
  5
4DF
100
AcDbEntity
  8
RUNDUNGEN
100
AcDbCircle
 62
7
  6
CONTINUOUS
 10
542.9472115477
 20
384.0984108157
 40
13.5
100
AcDbArc
 50
292.9994195554
 51
335.3070907066
  0
ARC
  5
4E0
100
AcDbEntity
  8
RUNDUNGEN
100
AcDbCircle
 62
7
  6
CONTINUOUS
 10
498.926703472
 20
375.0984108157
 40
10.0
100
AcDbArc
 50
239.9999765319
 51
270.0000024415
  0
ARC
  5
4E1
100
AcDbEntity
  8
RUNDUNGEN
100
AcDbCircle
 62
7
  6
CONTINUOUS
 10
528.3597870915
 20
382.4984108157
 40
3.0
100
AcDbArc
 50
90.0
 51
152.4277898647
  0
ARC
  5
4E2
100
AcDbEntity
  8
RUNDUNGEN
100
AcDbCircle
 62
7
  6
CONTINUOUS
 10
544.279432702
 20
386.4984108157
 40
1.0
100
AcDbArc
 50
270.0
 51
360.0
  0
ARC
  5
4E3
100
AcDbEntity
  8
BEZUGSACHSEN
100
AcDbCircle
 62
7
  6
CONTINUOUS
 10
512.8472115477
 20
390.5984108157
 40
14.5
100
AcDbArc
 50
27.5715074863
 51
213.1229402077
  0
ARC
  5
4E4
100
AcDbEntity
  8
RUNDUNGEN
100
AcDbCircle
 62
7
  6
CONTINUOUS
 10
512.8472115477
 20
390.5984108157
 40
14.5
100
AcDbArc
 50
213.1229402077
 51
332.4284925137
  0
ARC
  5
4E5
100
AcDbEntity
  8
BEZUGSACHSEN
100
AcDbCircle
 62
7
  6
CONTINUOUS
 10
498.926703472
 20
406.0984108157
 40
10.0
100
AcDbArc
 50
89.9999975585
 51
120.0000234681
  0
ARC
  5
4E6
100
AcDbEntity
  8
BEZUGSACHSEN
100
AcDbCircle
 62
7
  6
CONTINUOUS
 10
542.9472115477
 20
397.0984108157
 40
13.5
100
AcDbArc
 50
24.6929092934
 51
67.0005804446
  0
ARC
  5
4E7
100
AcDbEntity
  8
BEZUGSACHSEN
100
AcDbCircle
 62
7
  6
CONTINUOUS
 10
544.279432702
 20
394.6984108157
 40
1.0
100
AcDbArc
 50
0.0
 51
90.0
  0
ARC
  5
4E8
100
AcDbEntity
  8
BEZUGSACHSEN
100
AcDbCircle
 62
7
  6
CONTINUOUS
 10
529.4813927871
 20
400.0984108157
 40
16.0
100
AcDbArc
 50
67.0000043297
 51
90.0
  0
ARC
  5
4E9
100
AcDbEntity
  8
BEZUGSACHSEN
100
AcDbCircle
 62
7
  6
CONTINUOUS
 10
528.3597870915
 20
398.6984108157
 40
3.0
100
AcDbArc
 50
207.5722101353
 51
270.0
  0
ARC
  5
4EA
100
AcDbEntity
  8
BEZUGSACHSEN
100
AcDbCircle
 62
7
  6
CONTINUOUS
 10
701.4837999999
 20
326.3166470997
 40
11.0
100
AcDbArc
 50
180.0
 51
187.4715591766
  0
ARC
  5
4EB
100
AcDbEntity
  8
RUNDUNGEN
100
AcDbCircle
 62
7
  6
CONTINUOUS
 10
701.4837999999
 20
326.3166470997
 40
11.0
100
AcDbArc
 50
180.0
 51
187.4715591766
  0
ARC
  5
4EC
100
AcDbEntity
  8
BEZUGSACHSEN
100
AcDbCircle
 62
7
  6
CONTINUOUS
 10
683.4837999999
 20
294.3801745317
 40
11.0
100
AcDbArc
 50
0.0
 51
7.4715591766
  0
ARC
  5
4ED
100
AcDbEntity
  8
RUNDUNGEN
100
AcDbCircle
 62
7
  6
CONTINUOUS
 10
683.4837999999
 20
294.3801745317
 40
11.0
100
AcDbArc
 50
7.3392533634
 51
7.4715591766
  0
ARC
  5
4EE
100
AcDbEntity
  8
0
100
AcDbCircle
 62
7
  6
CONTINUOUS
 10
680.420331509
 20
362.5705216942
 40
10.1052084472
100
AcDbArc
 50
0.1581294434
 51
14.4912826364
  0
ARC
  5
4EF
100
AcDbEntity
  8
0
100
AcDbCircle
 62
7
  6
CONTINUOUS
 10
683.425228279
 20
362.5787483742
 40
7.1003004169
100
AcDbArc
 50
359.9304706692
 51
0.1586660124
  0
ARC
  5
4F0
100
AcDbEntity
  8
RUNDUNGEN
100
AcDbCircle
 62
7
  6
CONTINUOUS
 10
688.4837999999
 20
414.0984108157
 40
2.0
100
AcDbArc
 50
90.4465234077
 51
180.0
  0
ARC
  5
4F1
100
AcDbEntity
  8
BEZUGSACHSEN
100
AcDbCircle
 62
7
  6
CONTINUOUS
 10
688.4837999999
 20
367.0984108157
 40
2.0
100
AcDbArc
 50
180.0
 51
269.4347487097
  0
ARC
  5
4F2
100
AcDbEntity
  8
RUNDUNGEN
100
AcDbCircle
 62
7
  6
CONTINUOUS
 10
710.4837999999
 20
86.5984108157
 40
16.0
100
AcDbArc
 50
180.0
 51
360.0
  0
ARC
  5
4F3
100
AcDbEntity
  8
BEZUGSACHSEN
100
AcDbCircle
 62
7
  6
CONTINUOUS
 10
710.4837999999
 20
86.5984108157
 40
16.0
100
AcDbArc
 50
180.0
 51
360.0
  0
ARC
  5
4F4
100
AcDbEntity
  8
BEZUGSACHSEN
100
AcDbCircle
 62
7
  6
CONTINUOUS
 10
719.4837998983
 20
326.3166463252
 40
11.0
100
AcDbArc
 50
352.5284448924
 51
0.0000040345
  0
ARC
  5
4F5
100
AcDbEntity
  8
RUNDUNGEN
100
AcDbCircle
 62
7
  6
CONTINUOUS
 10
719.4837998983
 20
326.3166463252
 40
11.0
100
AcDbArc
 50
352.5284448924
 51
0.0000040345
  0
ARC
  5
4F6
100
AcDbEntity
  8
0
100
AcDbCircle
 62
7
  6
CONTINUOUS
 10
710.4837999999
 20
390.5984108157
 40
31.0
100
AcDbArc
 50
314.7344216658
 51
316.9830506742
  0
ARC
  5
4F7
100
AcDbEntity
  8
BEZUGSACHSEN
100
AcDbCircle
 62
7
  6
CONTINUOUS
 10
710.4837999999
 20
390.5984108157
 40
31.0
100
AcDbArc
 50
32.8486930668
 51
124.6371172028
  0
ARC
  5
4F8
100
AcDbEntity
  8
BEZUGSACHSEN
100
AcDbCircle
 62
7
  6
CONTINUOUS
 10
710.4837999999
 20
390.5984108157
 40
31.0
100
AcDbArc
 50
340.8581777157
 51
19.1332871992
  0
ARC
  5
4F9
100
AcDbEntity
  8
BEZUGSACHSEN
100
AcDbCircle
 62
7
  6
CONTINUOUS
 10
710.4837999999
 20
390.5984108157
 40
31.0
100
AcDbArc
 50
314.7343584339
 51
327.1924630187
  0
ARC
  5
4FA
100
AcDbEntity
  8
BEZUGSACHSEN
100
AcDbCircle
 62
7
  6
CONTINUOUS
 10
710.4837999999
 20
390.5984108157
 40
31.0
100
AcDbArc
 50
140.7497943785
 51
219.2643652146
  0
ARC
  5
4FB
100
AcDbEntity
  8
RUNDUNGEN
100
AcDbCircle
 62
7
  6
CONTINUOUS
 10
710.4837999999
 20
390.5984108157
 40
26.0
100
AcDbArc
 50
258.9701696154
 51
305.532318124
  0
ARC
  5
4FC
100
AcDbEntity
  8
RUNDUNGEN
100
AcDbCircle
 62
7
  6
CONTINUOUS
 10
710.4837999999
 20
390.5984108157
 40
26.0
100
AcDbArc
 50
54.5074054199
 51
101.0306417448
  0
ARC
  5
4FD
100
AcDbEntity
  8
RUNDUNGEN
100
AcDbCircle
 62
7
  6
CONTINUOUS
 10
710.4837999999
 20
390.5984108157
 40
26.0
100
AcDbArc
 50
157.4664839674
 51
202.6098695446
  0
ARC
  5
4FE
100
AcDbEntity
  8
RUNDUNGEN
100
AcDbCircle
 62
7
  6
CONTINUOUS
 10
725.0837999999
 20
394.6984108157
 40
1.0
100
AcDbArc
 50
0.0
 51
90.0
  0
ARC
  5
4FF
100
AcDbEntity
  8
BEZUGSACHSEN
100
AcDbCircle
 62
7
  6
CONTINUOUS
 10
725.0837999999
 20
386.4984108157
 40
1.0
100
AcDbArc
 50
270.0
 51
360.0
  0
ARC
  5
500
100
AcDbEntity
  8
BEZUGSACHSEN
100
AcDbCircle
 62
7
  6
CONTINUOUS
 10
737.4837993625
 20
294.3801696717
 40
10.999999631
100
AcDbArc
 50
172.5284152922
 51
179.9999746855
  0
ARC
  5
501
100
AcDbEntity
  8
0
100
AcDbCircle
 62
7
  6
CONTINUOUS
 10
740.5318253554
 20
362.5729343956
 40
10.0897590345
100
AcDbArc
 50
143.8800889256
 51
179.8553292606
  0
ARC
  5
502
100
AcDbEntity
  8
0
100
AcDbCircle
 62
7
  6
CONTINUOUS
 10
740.5036050168
 20
362.5886631136
 40
10.0576956533
100
AcDbArc
 50
136.9863028074
 51
143.1383219437
  0
ARC
  5
503
100
AcDbEntity
  8
0
100
AcDbCircle
 62
7
  6
CONTINUOUS
 10
740.4953138083
 20
362.5951489895
 40
10.0471711941
100
AcDbArc
 50
143.1395507882
 51
143.8596841528
  0
ARC
  5
504
100
AcDbEntity
  8
0
100
AcDbCircle
 62
7
  6
CONTINUOUS
 10
737.5423900749
 20
362.578754158
 40
7.1003187992
100
AcDbArc
 50
179.8413810709
 51
180.0695710254
  0
ARC
  5
505
100
AcDbEntity
  8
BEZUGSACHSEN
100
AcDbCircle
 62
7
  6
CONTINUOUS
 10
728.4837999999
 20
390.5984108157
 40
3.5
100
AcDbArc
 50
133.3826713036
 51
226.6173286964
  0
ARC
  5
506
100
AcDbEntity
  8
BEZUGSACHSEN
100
AcDbCircle
 62
7
  6
CONTINUOUS
 10
1152.406026545
 20
78.5984108157
 40
8.0
100
AcDbArc
 50
270.0
 51
360.0
  0
ARC
  5
507
100
AcDbEntity
  8
RUNDUNGEN
100
AcDbCircle
 62
7
  6
CONTINUOUS
 10
1150.406026545
 20
78.5984108157
 40
8.0
100
AcDbArc
 50
180.0
 51
270.0
  0
ARC
  5
508
100
AcDbEntity
  8
RUNDUNGEN
100
AcDbCircle
 62
7
  6
CONTINUOUS
 10
889.3718453056
 20
381.0984108157
 40
16.0
100
AcDbArc
 50
247.0000043297
 51
270.0
  0
ARC
  5
509
100
AcDbEntity
  8
RUNDUNGEN
100
AcDbCircle
 62
7
  6
CONTINUOUS
 10
875.906026545
 20
384.0984108157
 40
13.5
100
AcDbArc
 50
204.6929092934
 51
247.0
  0
ARC
  5
50A
100
AcDbEntity
  8
RUNDUNGEN
100
AcDbCircle
 62
7
  6
CONTINUOUS
 10
890.4934510013
 20
382.4984108157
 40
3.0
100
AcDbArc
 50
27.5722101353
 51
90.0
  0
ARC
  5
50B
100
AcDbEntity
  8
RUNDUNGEN
100
AcDbCircle
 62
7
  6
CONTINUOUS
 10
874.5738053908
 20
386.4984108157
 40
1.0
100
AcDbArc
 50
180.0
 51
270.0
  0
ARC
  5
50C
100
AcDbEntity
  8
BEZUGSACHSEN
100
AcDbCircle
 62
7
  6
CONTINUOUS
 10
889.3718453056
 20
400.0984108157
 40
16.0
100
AcDbArc
 50
90.0
 51
112.9999956703
  0
ARC
  5
50D
100
AcDbEntity
  8
BEZUGSACHSEN
100
AcDbCircle
 62
7
  6
CONTINUOUS
 10
906.006026545
 20
390.5984108157
 40
14.5
100
AcDbArc
 50
344.2594514748
 51
152.4284530548
  0
ARC
  5
50E
100
AcDbEntity
  8
RUNDUNGEN
100
AcDbCircle
 62
7
  6
CONTINUOUS
 10
906.006026545
 20
390.5984108157
 40
14.5
100
AcDbArc
 50
207.5715469452
 51
344.2594514748
  0
ARC
  5
50F
100
AcDbEntity
  8
BEZUGSACHSEN
100
AcDbCircle
 62
7
  6
CONTINUOUS
 10
875.906026545
 20
397.0984108157
 40
13.5
100
AcDbArc
 50
113.0
 51
155.3070907066
  0
ARC
  5
510
100
AcDbEntity
  8
BEZUGSACHSEN
100
AcDbCircle
 62
7
  6
CONTINUOUS
 10
890.4934510013
 20
398.6984108157
 40
3.0
100
AcDbArc
 50
270.0
 51
332.427980583
  0
ARC
  5
511
100
AcDbEntity
  8
BEZUGSACHSEN
100
AcDbCircle
 62
7
  6
CONTINUOUS
 10
874.5738053908
 20
394.6984108157
 40
1.0
100
AcDbArc
 50
90.0
 51
180.0
  0
ARC
  5
512
100
AcDbEntity
  8
RUNDUNGEN
100
AcDbCircle
 62
7
  6
CONTINUOUS
 10
946.3787852091
 20
360.3484108157
 40
16.0
100
AcDbArc
 50
89.9999933287
 51
120.0000091976
  0
ARC
  5
513
100
AcDbEntity
  8
RUNDUNGEN
100
AcDbCircle
 62
7
  6
CONTINUOUS
 10
919.9265346207
 20
375.0984108157
 40
10.0
100
AcDbArc
 50
270.0004779713
 51
300.0
  0
ARC
  5
514
100
AcDbEntity
  8
BEZUGSACHSEN
100
AcDbCircle
 62
7
  6
CONTINUOUS
 10
956.506026545
 20
373.5984108157
 40
7.0
100
AcDbArc
 50
90.0
 51
135.0
  0
ARC
  5
515
100
AcDbEntity
  8
RUNDUNGEN
100
AcDbCircle
 62
7
  6
CONTINUOUS
 10
948.1138887789
 20
379.3484108157
 40
3.0
100
AcDbArc
 50
270.0000409168
 51
315.0000289325
  0
ARC
  5
516
100
AcDbEntity
  8
BEZUGSACHSEN
100
AcDbCircle
 62
7
  6
CONTINUOUS
 10
946.3787852091
 20
420.8484108157
 40
16.0
100
AcDbArc
 50
239.9999908024
 51
270.0000066713
  0
ARC
  5
517
100
AcDbEntity
  8
BEZUGSACHSEN
100
AcDbCircle
 62
7
  6
CONTINUOUS
 10
919.9265346207
 20
406.0984108157
 40
10.0
100
AcDbArc
 50
60.0
 51
89.9995220287
  0
ARC
  5
518
100
AcDbEntity
  8
BEZUGSACHSEN
100
AcDbCircle
 62
7
  6
CONTINUOUS
 10
956.506026545
 20
407.5984108157
 40
7.0
100
AcDbArc
 50
225.0
 51
270.0
  0
ARC
  5
519
100
AcDbEntity
  8
RUNDUNGEN
100
AcDbCircle
 62
7
  6
CONTINUOUS
 10
948.1138906463
 20
401.8484108157
 40
3.0
100
AcDbArc
 50
44.9999962863
 51
89.999994748
  0
ARC
  5
51A
100
AcDbEntity
  8
RUNDUNGEN
100
AcDbCircle
 62
7
  6
CONTINUOUS
 10
1144.406026545
 20
327.1874918774
 40
11.0
100
AcDbArc
 50
180.0
 51
196.4403795217
  0
ARC
  5
51B
100
AcDbEntity
  8
RUNDUNGEN
100
AcDbCircle
 62
7
  6
CONTINUOUS
 10
1131.4060265711
 20
293.5093296656
 40
10.9999999849
100
AcDbArc
 50
0.0000004604
 51
16.4403800017
  0
ARC
  5
51C
100
AcDbEntity
  8
0
100
AcDbCircle
 62
7
  6
CONTINUOUS
 10
1036.5514085299
 20
366.5984108157
 40
5.0
100
AcDbArc
 50
90.0
 51
115.8419327632
  0
ARC
  5
51D
100
AcDbEntity
  8
RUNDUNGEN
100
AcDbCircle
 62
7
  6
CONTINUOUS
 10
1013.906026545
 20
372.0984108157
 40
1.0
100
AcDbArc
 50
180.0
 51
270.0
  0
ARC
  5
51E
100
AcDbEntity
  8
0
100
AcDbCircle
 62
7
  6
CONTINUOUS
 10
1036.5514085299
 20
414.5984108157
 40
5.0
100
AcDbArc
 50
244.1580672368
 51
270.0
  0
ARC
  5
51F
100
AcDbEntity
  8
RUNDUNGEN
100
AcDbCircle
 62
7
  6
CONTINUOUS
 10
1013.906026545
 20
409.0984108157
 40
1.0
100
AcDbArc
 50
90.0
 51
180.0
  0
ARC
  5
520
100
AcDbEntity
  8
0
100
AcDbCircle
 62
7
  6
CONTINUOUS
 10
1098.856026545
 20
389.3984108157
 40
3.3
100
AcDbArc
 50
180.0
 51
270.0
  0
ARC
  5
521
100
AcDbEntity
  8
0
100
AcDbCircle
 62
7
  6
CONTINUOUS
 10
1116.331026545
 20
388.7234108157
 40
2.625
100
AcDbArc
 50
111.3550126288
 51
270.0
  0
ARC
  5
522
100
AcDbEntity
  8
RUNDUNGEN
100
AcDbCircle
 62
7
  6
CONTINUOUS
 10
1128.6374643773
 20
373.0984108157
 40
2.0
100
AcDbArc
 50
250.0
 51
270.0
  0
ARC
  5
523
100
AcDbEntity
  8
RUNDUNGEN
100
AcDbCircle
 62
7
  6
CONTINUOUS
 10
1126.5584177447
 20
369.5984108157
 40
2.0
100
AcDbArc
 50
70.0
 51
90.0
  0
ARC
  5
524
100
AcDbEntity
  8
0
100
AcDbCircle
 62
7
  6
CONTINUOUS
 10
1146.406026545
 20
362.5984108157
 40
2.0
100
AcDbArc
 50
180.0
 51
270.0
  0
ARC
  5
525
100
AcDbEntity
  8
0
100
AcDbCircle
 62
7
  6
CONTINUOUS
 10
1099.231026545
 20
389.4734108157
 40
1.875
100
AcDbArc
 50
180.0
 51
270.0
  0
ARC
  5
526
100
AcDbEntity
  8
0
100
AcDbCircle
 62
7
  6
CONTINUOUS
 10
1116.931026545
 20
388.7234108157
 40
1.125
100
AcDbArc
 50
90.0
 51
270.0
  0
ARC
  5
527
100
AcDbEntity
  8
RUNDUNGEN
100
AcDbCircle
 62
7
  6
CONTINUOUS
 10
1138.406026545
 20
416.5984108157
 40
5.0
100
AcDbArc
 50
90.0
 51
180.0
  0
ARC
  5
528
100
AcDbEntity
  8
0
100
AcDbCircle
 62
7
  6
CONTINUOUS
 10
1108.306026545
 20
391.4984108157
 40
3.6
100
AcDbArc
 50
0.0
 51
180.0
  0
ARC
  5
529
100
AcDbEntity
  8
0
100
AcDbCircle
 62
7
  6
CONTINUOUS
 10
1098.856026545
 20
391.7984108157
 40
3.3
100
AcDbArc
 50
90.0
 51
180.0
  0
ARC
  5
52A
100
AcDbEntity
  8
RUNDUNGEN
100
AcDbCircle
 62
7
  6
CONTINUOUS
 10
1128.6374643773
 20
408.0984108157
 40
2.0
100
AcDbArc
 50
90.0
 51
110.0
  0
ARC
  5
52B
100
AcDbEntity
  8
RUNDUNGEN
100
AcDbCircle
 62
7
  6
CONTINUOUS
 10
1126.5584177447
 20
411.5984108157
 40
2.0
100
AcDbArc
 50
270.0
 51
290.0
  0
ARC
  5
52C
100
AcDbEntity
  8
0
100
AcDbCircle
 62
7
  6
CONTINUOUS
 10
1099.231026545
 20
391.7234108157
 40
1.875
100
AcDbArc
 50
90.0
 51
180.0
  0
ARC
  5
52D
100
AcDbEntity
  8
0
100
AcDbCircle
 62
7
  6
CONTINUOUS
 10
1108.306026545
 20
391.4984108157
 40
1.8
100
AcDbArc
 50
0.0
 51
180.0
  0
ARC
  5
52E
100
AcDbEntity
  8
0
100
AcDbCircle
 62
7
  6
CONTINUOUS
 10
1117.8691662659
 20
392.8484108157
 40
1.5
100
AcDbArc
 50
210.0
 51
270.0
  0
ARC
  5
52F
100
AcDbEntity
  8
BEZUGSACHSEN
100
AcDbCircle
 62
7
  6
CONTINUOUS
 10
1158.406026545
 20
327.1874918774
 40
11.0
100
AcDbArc
 50
343.5596204783
 51
360.0
  0
ARC
  5
530
100
AcDbEntity
  8
BEZUGSACHSEN
100
AcDbCircle
 62
7
  6
CONTINUOUS
 10
1171.406026519
 20
293.5093296656
 40
10.9999999849
100
AcDbArc
 50
163.5596199983
 51
179.9999995396
  0
ARC
  5
531
100
AcDbEntity
  8
RUNDUNGEN
100
AcDbCircle
 62
7
  6
CONTINUOUS
 10
1266.2606445602
 20
366.5984108157
 40
5.0
100
AcDbArc
 50
55.0
 51
90.0
  0
ARC
  5
532
100
AcDbEntity
  8
RUNDUNGEN
100
AcDbCircle
 62
7
  6
CONTINUOUS
 10
1266.2606445602
 20
414.5984108157
 40
5.0
100
AcDbArc
 50
270.0
 51
305.0
  0
ARC
  5
533
100
AcDbEntity
  8
BEZUGSACHSEN
100
AcDbCircle
 62
7
  6
CONTINUOUS
 10
1164.406026545
 20
416.5984108157
 40
5.0
100
AcDbArc
 50
0.0
 51
90.0
  0
ARC
  5
534
100
AcDbEntity
  8
RUNDUNGEN
100
AcDbCircle
 62
7
  6
CONTINUOUS
 10
1174.1745887128
 20
373.0984108157
 40
2.0
100
AcDbArc
 50
270.0
 51
290.0
  0
ARC
  5
535
100
AcDbEntity
  8
RUNDUNGEN
100
AcDbCircle
 62
7
  6
CONTINUOUS
 10
1174.1745887128
 20
408.0984108157
 40
2.0
100
AcDbArc
 50
70.0
 51
90.0
  0
ARC
  5
536
100
AcDbEntity
  8
RUNDUNGEN
100
AcDbCircle
 62
7
  6
CONTINUOUS
 10
1176.2536353454
 20
369.5984108157
 40
2.0
100
AcDbArc
 50
90.0
 51
110.0
  0
ARC
  5
537
100
AcDbEntity
  8
RUNDUNGEN
100
AcDbCircle
 62
7
  6
CONTINUOUS
 10
1176.2536353454
 20
411.5984108157
 40
2.0
100
AcDbArc
 50
250.0
 51
270.0
  0
ARC
  5
538
100
AcDbEntity
  8
0
100
AcDbCircle
 62
7
  6
CONTINUOUS
 10
1156.406026545
 20
362.5984108157
 40
2.0
100
AcDbArc
 50
270.0
 51
360.0
  0
ARC
  5
539
100
AcDbEntity
  8
RUNDUNGEN
100
AcDbCircle
 62
7
  6
CONTINUOUS
 10
1287.906026545
 20
413.5984108157
 40
1.0
100
AcDbArc
 50
0.0
 51
90.0
  0
ARC
  5
53A
100
AcDbEntity
  8
RUNDUNGEN
100
AcDbCircle
 62
7
  6
CONTINUOUS
 10
1287.906026545
 20
367.5984108157
 40
1.0
100
AcDbArc
 50
270.0
 51
360.0
  0
ARC
  5
53B
100
AcDbEntity
  8
BEZUGSACHSEN
100
AcDbCircle
 62
7
  6
CONTINUOUS
 10
1366.433267881
 20
360.3484108157
 40
16.0
100
AcDbArc
 50
59.9999908036
 51
90.0000096707
  0
ARC
  5
53C
100
AcDbEntity
  8
BEZUGSACHSEN
100
AcDbCircle
 62
7
  6
CONTINUOUS
 10
1356.306026545
 20
373.5984108157
 40
7.0
100
AcDbArc
 50
45.0
 51
90.0
  0
ARC
  5
53D
100
AcDbEntity
  8
RUNDUNGEN
100
AcDbCircle
 62
7
  6
CONTINUOUS
 10
1364.6981626075
 20
379.3484108157
 40
3.0
100
AcDbArc
 50
224.9999940752
 51
269.999991621
  0
ARC
  5
53E
100
AcDbEntity
  8
RUNDUNGEN
100
AcDbCircle
 62
7
  6
CONTINUOUS
 10
1308.906026545
 20
366.5984108157
 40
2.0
100
AcDbArc
 50
270.0
 51
0.0000015115
  0
ARC
  5
53F
100
AcDbEntity
  8
RUNDUNGEN
100
AcDbCircle
 62
7
  6
CONTINUOUS
 10
1304.406026545
 20
365.0984108157
 40
0.5
100
AcDbArc
 50
180.0
 51
270.0
  0
ARC
  5
540
100
AcDbEntity
  8
RUNDUNGEN
100
AcDbCircle
 62
7
  6
CONTINUOUS
 10
1366.433267881
 20
420.8484108157
 40
16.0
100
AcDbArc
 50
269.9999903293
 51
300.0000091964
  0
ARC
  5
541
100
AcDbEntity
  8
0
100
AcDbCircle
 62
7
  6
CONTINUOUS
 10
1355.8122396862
 20
406.4642520741
 40
7.3229134953
100
AcDbArc
 50
307.4694714375
 51
307.8546948334
  0
ARC
  5
542
100
AcDbEntity
  8
BEZUGSACHSEN
100
AcDbCircle
 62
7
  6
CONTINUOUS
 10
1356.306026545
 20
407.5984108157
 40
7.0
100
AcDbArc
 50
270.0
 51
315.0
  0
ARC
  5
543
100
AcDbEntity
  8
0
100
AcDbCircle
 62
7
  6
CONTINUOUS
 10
1355.306026545
 20
400.5984108157
 40
5.0
100
AcDbArc
 50
270.0
 51
360.0
  0
ARC
  5
544
100
AcDbEntity
  8
RUNDUNGEN
100
AcDbCircle
 62
7
  6
CONTINUOUS
 10
1364.6981660422
 20
401.8484108157
 40
3.0
100
AcDbArc
 50
90.0000739766
 51
135.0000523092
  0
ARC
  5
545
100
AcDbEntity
  8
RUNDUNGEN
100
AcDbCircle
 62
7
  6
CONTINUOUS
 10
1308.906026545
 20
414.5984108157
 40
2.0
100
AcDbArc
 50
359.9999984885
 51
90.0
  0
ARC
  5
546
100
AcDbEntity
  8
RUNDUNGEN
100
AcDbCircle
 62
7
  6
CONTINUOUS
 10
1304.406026545
 20
416.0984108157
 40
0.5
100
AcDbArc
 50
90.0
 51
180.0
  0
ARC
  5
547
100
AcDbEntity
  8
BEZUGSACHSEN
100
AcDbCircle
 62
7
  6
CONTINUOUS
 10
1423.4402077845
 20
381.0984108157
 40
16.0
100
AcDbArc
 50
270.0
 51
292.9999939629
  0
ARC
  5
548
100
AcDbEntity
  8
BEZUGSACHSEN
100
AcDbCircle
 62
7
  6
CONTINUOUS
 10
1436.906026545
 20
384.0984108157
 40
13.5
100
AcDbArc
 50
293.0
 51
335.3070905569
  0
ARC
  5
549
100
AcDbEntity
  8
BEZUGSACHSEN
100
AcDbCircle
 62
7
  6
CONTINUOUS
 10
1392.8855184694
 20
375.0984108157
 40
10.0
100
AcDbArc
 50
240.0
 51
269.99951554
  0
ARC
  5
54A
100
AcDbEntity
  8
BEZUGSACHSEN
100
AcDbCircle
 62
7
  6
CONTINUOUS
 10
1422.3186020888
 20
382.4984108157
 40
3.0
100
AcDbArc
 50
90.0
 51
152.427980583
  0
ARC
  5
54B
100
AcDbEntity
  8
BEZUGSACHSEN
100
AcDbCircle
 62
7
  6
CONTINUOUS
 10
1438.2382476993
 20
386.4984108157
 40
1.0
100
AcDbArc
 50
270.0
 51
360.0
  0
ARC
  5
54C
100
AcDbEntity
  8
RUNDUNGEN
100
AcDbCircle
 62
7
  6
CONTINUOUS
 10
1423.4402077845
 20
400.0984108157
 40
16.0
100
AcDbArc
 50
67.0000060371
 51
90.0
  0
ARC
  5
54D
100
AcDbEntity
  8
BEZUGSACHSEN
100
AcDbCircle
 62
7
  6
CONTINUOUS
 10
1406.806026545
 20
390.5984108157
 40
14.5
100
AcDbArc
 50
164.2594514748
 51
332.4284530548
  0
ARC
  5
54E
100
AcDbEntity
  8
RUNDUNGEN
100
AcDbCircle
 62
7
  6
CONTINUOUS
 10
1406.806026545
 20
390.5984108157
 40
14.5
100
AcDbArc
 50
27.5715469452
 51
164.2594514748
  0
ARC
  5
54F
100
AcDbEntity
  8
RUNDUNGEN
100
AcDbCircle
 62
7
  6
CONTINUOUS
 10
1436.906026545
 20
397.0984108157
 40
13.5
100
AcDbArc
 50
24.6929094431
 51
67.0
  0
ARC
  5
550
100
AcDbEntity
  8
RUNDUNGEN
100
AcDbCircle
 62
7
  6
CONTINUOUS
 10
1392.8855184694
 20
406.0984108157
 40
10.0
100
AcDbArc
 50
90.00048446
 51
120.0
  0
ARC
  5
551
100
AcDbEntity
  8
RUNDUNGEN
100
AcDbCircle
 62
7
  6
CONTINUOUS
 10
1422.3186020888
 20
398.6984108157
 40
3.0
100
AcDbArc
 50
207.5722101353
 51
270.0
  0
ARC
  5
552
100
AcDbEntity
  8
RUNDUNGEN
100
AcDbCircle
 62
7
  6
CONTINUOUS
 10
1438.2382476993
 20
394.6984108157
 40
1.0
100
AcDbArc
 50
0.0
 51
90.0
  0
ARC
  5
553
100
AcDbEntity
  8
RUNDUNGEN
100
AcDbCircle
 62
7
  6
CONTINUOUS
 10
60.5597091883
 20
538.3676515498
 40
24.0
100
AcDbArc
 50
105.5640582151
 51
115.3665267148
  0
ARC
  5
554
100
AcDbEntity
  8
BEZUGSACHSEN
100
AcDbCircle
 62
7
  6
CONTINUOUS
 10
60.5597091883
 20
538.3676515498
 40
24.0
100
AcDbArc
 50
115.3665267148
 51
133.6177396404
  0
ARC
  5
555
100
AcDbEntity
  8
BEZUGSACHSEN
100
AcDbCircle
 62
7
  6
CONTINUOUS
 10
56.1079425223
 20
509.8676515498
 40
24.0
100
AcDbArc
 50
119.3763838556
 51
127.575768273
  0
ARC
  5
556
100
AcDbEntity
  8
RUNDUNGEN
100
AcDbCircle
 62
7
  6
CONTINUOUS
 10
56.1079425223
 20
509.8676515498
 40
24.0
100
AcDbArc
 50
94.3102302443
 51
127.575768273
  0
ARC
  5
557
100
AcDbEntity
  8
0
100
AcDbCircle
 62
7
  6
CONTINUOUS
 10
261.4472115477
 20
540.1176515498
 40
12.0
100
AcDbArc
 50
251.446995465
 51
257.8532188521
  0
ARC
  5
558
100
AcDbEntity
  8
0
100
AcDbCircle
 62
7
  6
CONTINUOUS
 10
261.4472115477
 20
540.1176515498
 40
12.0
100
AcDbArc
 50
258.397196836
 51
260.6246377199
  0
ARC
  5
559
100
AcDbEntity
  8
0
100
AcDbCircle
 62
7
  6
CONTINUOUS
 10
261.4472115477
 20
540.1176515498
 40
12.0
100
AcDbArc
 50
263.9048612023
 51
265.2207657203
  0
ARC
  5
55A
100
AcDbEntity
  8
BEZUGSACHSEN
100
AcDbCircle
 62
7
  6
CONTINUOUS
 10
261.4472115477
 20
540.1176515498
 40
12.0
100
AcDbArc
 50
180.0
 51
270.0
  0
ARC
  5
55B
100
AcDbEntity
  8
BEZUGSACHSEN
100
AcDbCircle
 62
7
  6
CONTINUOUS
 10
62.5472115477
 20
531.1176515498
 40
7.0
100
AcDbArc
 50
90.0
 51
135.0
  0
ARC
  5
55C
100
AcDbEntity
  8
BEZUGSACHSEN
100
AcDbCircle
 62
7
  6
CONTINUOUS
 10
254.4472115477
 20
522.1176515498
 40
5.0
100
AcDbArc
 50
180.0
 51
270.0
  0
ARC
  5
55D
100
AcDbEntity
  8
RUNDUNGEN
100
AcDbCircle
 62
7
  6
CONTINUOUS
 10
152.5925935326
 20
524.1176515498
 40
5.0
100
AcDbArc
 50
90.0
 51
125.0
  0
ARC
  5
55E
100
AcDbEntity
  8
RUNDUNGEN
100
AcDbCircle
 62
7
  6
CONTINUOUS
 10
54.0787094702
 20
536.7912891832
 40
3.0000001033
100
AcDbArc
 50
274.3109365304
 51
314.9999184743
  0
ARC
  5
55F
100
AcDbEntity
  8
RUNDUNGEN
100
AcDbCircle
 62
7
  6
CONTINUOUS
 10
109.9472115477
 20
524.1176515498
 40
2.0
100
AcDbArc
 50
180.0
 51
270.0
  0
ARC
  5
560
100
AcDbEntity
  8
RUNDUNGEN
100
AcDbCircle
 62
7
  6
CONTINUOUS
 10
244.67864938
 20
530.6176515498
 40
2.0
100
AcDbArc
 50
250.0
 51
270.0
  0
ARC
  5
561
100
AcDbEntity
  8
RUNDUNGEN
100
AcDbCircle
 62
7
  6
CONTINUOUS
 10
242.5996027474
 20
527.1176515498
 40
2.0
100
AcDbArc
 50
70.0
 51
90.0
  0
ARC
  5
562
100
AcDbEntity
  8
RUNDUNGEN
100
AcDbCircle
 62
7
  6
CONTINUOUS
 10
130.9472115477
 20
525.1176515498
 40
1.0
100
AcDbArc
 50
180.0
 51
270.0
  0
ARC
  5
563
100
AcDbEntity
  8
RUNDUNGEN
100
AcDbCircle
 62
7
  6
CONTINUOUS
 10
114.4472115477
 20
522.6176515498
 40
0.5
100
AcDbArc
 50
270.0
 51
360.0
  0
ARC
  5
564
100
AcDbEntity
  8
RUNDUNGEN
100
AcDbCircle
 62
7
  6
CONTINUOUS
 10
7.0059692719
 20
558.6176515498
 40
34.5
100
AcDbArc
 50
206.7277127253
 51
237.5288153517
  0
ARC
  5
565
100
AcDbEntity
  8
RUNDUNGEN
100
AcDbCircle
 62
7
  6
CONTINUOUS
 10
7.0059692719
 20
558.6176515498
 40
34.5
100
AcDbArc
 50
268.7393417321
 51
270.0000130099
  0
ARC
  5
566
100
AcDbEntity
  8
RUNDUNGEN
100
AcDbCircle
 62
7
  6
CONTINUOUS
 10
7.0059692719
 20
558.6176515498
 40
34.5
100
AcDbArc
 50
190.0000008525
 51
198.3449957882
  0
ARC
  5
567
100
AcDbEntity
  8
RUNDUNGEN
100
AcDbCircle
 62
7
  6
CONTINUOUS
 10
7.0059692719
 20
558.6176515498
 40
34.5
100
AcDbArc
 50
201.2338991793
 51
204.0129900274
  0
ARC
  5
568
100
AcDbEntity
  8
BEZUGSACHSEN
100
AcDbCircle
 62
7
  6
CONTINUOUS
 10
7.0059692719
 20
558.6176515498
 40
34.5
100
AcDbArc
 50
190.0000008525
 51
270.0005751593
  0
ARC
  5
569
100
AcDbEntity
  8
BEZUGSACHSEN
100
AcDbCircle
 62
7
  6
CONTINUOUS
 10
27.4472115477
 20
547.1176515498
 40
23.0
100
AcDbArc
 50
270.0
 51
307.5746980091
  0
ARC
  5
56A
100
AcDbEntity
  8
RUNDUNGEN
100
AcDbCircle
 62
7
  6
CONTINUOUS
 10
27.4472115477
 20
547.1176515498
 40
23.0
100
AcDbArc
 50
271.6753266282
 51
307.5746980091
  0
ARC
  5
56B
100
AcDbEntity
  8
RUNDUNGEN
100
AcDbCircle
 62
7
  6
CONTINUOUS
 10
54.9250796923
 20
558.5976128565
 40
3.0000013062
100
AcDbArc
 50
45.0005633795
 51
105.5640582145
  0
ARC
  5
56C
100
AcDbEntity
  8
BEZUGSACHSEN
100
AcDbCircle
 62
7
  6
CONTINUOUS
 10
27.4472115477
 20
573.1176515498
 40
24.0
100
AcDbArc
 50
269.9999976394
 51
313.6179056153
  0
ARC
  5
56D
100
AcDbEntity
  8
BEZUGSACHSEN
100
AcDbCircle
 62
7
  6
CONTINUOUS
 10
0.8404813037
 20
563.6176515498
 40
14.5
100
AcDbArc
 50
209.0000078706
 51
270.0
  0
ARC
  5
56E
100
AcDbEntity
  8
BEZUGSACHSEN
100
AcDbCircle
 62
7
  6
CONTINUOUS
 10
62.5472115477
 20
565.1176515498
 40
7.0
100
AcDbArc
 50
225.0
 51
270.0
  0
ARC
  5
56F
100
AcDbEntity
  8
RUNDUNGEN
100
AcDbCircle
 62
7
  6
CONTINUOUS
 10
109.9472115477
 20
572.1176515498
 40
2.0
100
AcDbArc
 50
90.0
 51
180.0
  0
ARC
  5
570
100
AcDbEntity
  8
RUNDUNGEN
100
AcDbCircle
 62
7
  6
CONTINUOUS
 10
-28.6676699968
 20
573.7728726722
 40
2.0
100
AcDbArc
 50
118.9999988757
 51
189.9999965468
  0
ARC
  5
571
100
AcDbEntity
  8
BEZUGSACHSEN
100
AcDbCircle
 62
7
  6
CONTINUOUS
 10
-28.6676699968
 20
573.7728726722
 40
2.0
100
AcDbArc
 50
118.9999988757
 51
189.9999965468
  0
ARC
  5
572
100
AcDbEntity
  8
BEZUGSACHSEN
100
AcDbCircle
 62
7
  6
CONTINUOUS
 10
-24.8324086261
 20
575.898792895
 40
2.0
100
AcDbArc
 50
29.0
 51
119.0
  0
ARC
  5
573
100
AcDbEntity
  8
RUNDUNGEN
100
AcDbCircle
 62
7
  6
CONTINUOUS
 10
114.4472115477
 20
573.6176515498
 40
0.5
100
AcDbArc
 50
0.0
 51
90.0
  0
ARC
  5
574
100
AcDbEntity
  8
BEZUGSACHSEN
100
AcDbCircle
 62
7
  6
CONTINUOUS
 10
261.4472115477
 20
556.1176515498
 40
12.0
100
AcDbArc
 50
90.0
 51
180.0
  0
ARC
  5
575
100
AcDbEntity
  8
0
100
AcDbCircle
 62
7
  6
CONTINUOUS
 10
261.4472115477
 20
556.1176515498
 40
12.0
100
AcDbArc
 50
102.1467924948
 51
108.553004535
  0
ARC
  5
576
100
AcDbEntity
  8
0
100
AcDbCircle
 62
7
  6
CONTINUOUS
 10
261.4472115477
 20
556.1176515498
 40
12.0
100
AcDbArc
 50
99.3763920395
 51
101.0420286216
  0
ARC
  5
577
100
AcDbEntity
  8
0
100
AcDbCircle
 62
7
  6
CONTINUOUS
 10
261.4472115477
 20
556.1176515498
 40
12.0
100
AcDbArc
 50
94.7792343284
 51
96.0955871289
  0
ARC
  5
578
100
AcDbEntity
  8
RUNDUNGEN
100
AcDbCircle
 62
7
  6
CONTINUOUS
 10
244.6785146567
 20
559.8334809885
 40
1.9995328354
100
AcDbArc
 50
89.9961398081
 51
118.5346729468
  0
ARC
  5
579
100
AcDbEntity
  8
BEZUGSACHSEN
100
AcDbCircle
 62
7
  6
CONTINUOUS
 10
254.4472115477
 20
574.1176515498
 40
5.0
100
AcDbArc
 50
90.0
 51
180.0
  0
ARC
  5
57A
100
AcDbEntity
  8
RUNDUNGEN
100
AcDbCircle
 62
7
  6
CONTINUOUS
 10
154.4750136446
 20
564.1454025634
 40
2.0000267643
100
AcDbArc
 50
14.8700385267
 51
89.9994734225
  0
ARC
  5
57B
100
AcDbEntity
  8
RUNDUNGEN
100
AcDbCircle
 62
7
  6
CONTINUOUS
 10
130.9472115477
 20
571.1176515498
 40
1.0
100
AcDbArc
 50
90.0
 51
180.0
  0
ARC
  5
57C
100
AcDbEntity
  8
RUNDUNGEN
100
AcDbCircle
 62
7
  6
CONTINUOUS
 10
280.4472115477
 20
522.1176515498
 40
5.0
100
AcDbArc
 50
270.0
 51
360.0
  0
ARC
  5
57D
100
AcDbEntity
  8
RUNDUNGEN
100
AcDbCircle
 62
7
  6
CONTINUOUS
 10
273.4472115477
 20
540.1176515498
 40
12.0
100
AcDbArc
 50
270.0
 51
360.0
  0
ARC
  5
57E
100
AcDbEntity
  8
0
100
AcDbCircle
 62
7
  6
CONTINUOUS
 10
273.4472115477
 20
540.1176515498
 40
12.0
100
AcDbArc
 50
282.1467811479
 51
288.553004535
  0
ARC
  5
57F
100
AcDbEntity
  8
0
100
AcDbCircle
 62
7
  6
CONTINUOUS
 10
273.4472115477
 20
540.1176515498
 40
12.0
100
AcDbArc
 50
279.3753622801
 51
281.0409606917
  0
ARC
  5
580
100
AcDbEntity
  8
0
100
AcDbCircle
 62
7
  6
CONTINUOUS
 10
273.4472115477
 20
540.1176515498
 40
12.0
100
AcDbArc
 50
274.7792342797
 51
276.0951387977
  0
ARC
  5
581
100
AcDbEntity
  8
BEZUGSACHSEN
100
AcDbCircle
 62
7
  6
CONTINUOUS
 10
266.4472115477
 20
540.1176515498
 40
8.0
100
AcDbArc
 50
180.0
 51
270.0
  0
ARC
  5
582
100
AcDbEntity
  8
RUNDUNGEN
100
AcDbCircle
 62
7
  6
CONTINUOUS
 10
268.4472115477
 20
540.1176515498
 40
8.0
100
AcDbArc
 50
270.0
 51
360.0
  0
ARC
  5
583
100
AcDbEntity
  8
RUNDUNGEN
100
AcDbCircle
 62
7
  6
CONTINUOUS
 10
326.5697183933
 20
531.1176520716
 40
2.0000032256
100
AcDbArc
 50
218.6851549633
 51
270.0000703203
  0
ARC
  5
584
100
AcDbEntity
  8
RUNDUNGEN
100
AcDbCircle
 62
7
  6
CONTINUOUS
 10
290.2157737155
 20
530.6176515498
 40
2.0
100
AcDbArc
 50
270.0
 51
290.0
  0
ARC
  5
585
100
AcDbEntity
  8
RUNDUNGEN
100
AcDbCircle
 62
7
  6
CONTINUOUS
 10
292.294820348
 20
527.1176515498
 40
2.0
100
AcDbArc
 50
90.0
 51
110.0
  0
ARC
  5
586
100
AcDbEntity
  8
RUNDUNGEN
100
AcDbCircle
 62
7
  6
CONTINUOUS
 10
323.4472115477
 20
528.6176515498
 40
2.0
100
AcDbArc
 50
38.683707363
 51
90.0020376536
  0
ARC
  5
587
100
AcDbEntity
  8
RUNDUNGEN
100
AcDbCircle
 62
7
  6
CONTINUOUS
 10
297.4472115477
 20
528.6176515498
 40
2.0
100
AcDbArc
 50
90.0008661253
 51
141.316387078
  0
ARC
  5
588
100
AcDbEntity
  8
BEZUGSACHSEN
100
AcDbCircle
 62
7
  6
CONTINUOUS
 10
468.7864805731
 20
509.8676515498
 40
24.0
100
AcDbArc
 50
52.4243313818
 51
60.6236161444
  0
ARC
  5
589
100
AcDbEntity
  8
RUNDUNGEN
100
AcDbCircle
 62
7
  6
CONTINUOUS
 10
468.7864805731
 20
509.8676515498
 40
24.0
100
AcDbArc
 50
52.4243313818
 51
85.6897172694
  0
ARC
  5
58A
100
AcDbEntity
  8
0
100
AcDbCircle
 62
7
  6
CONTINUOUS
 10
382.3018295629
 20
524.1176515498
 40
5.0
100
AcDbArc
 50
64.1580672368
 51
90.0
  0
ARC
  5
58B
100
AcDbEntity
  8
RUNDUNGEN
100
AcDbCircle
 62
7
  6
CONTINUOUS
 10
464.3347139071
 20
538.3676515498
 40
24.0
100
AcDbArc
 50
46.3824301969
 51
74.4359417542
  0
ARC
  5
58C
100
AcDbEntity
  8
BEZUGSACHSEN
100
AcDbCircle
 62
7
  6
CONTINUOUS
 10
462.3472115477
 20
531.1176515498
 40
7.0
100
AcDbArc
 50
45.0
 51
90.0
  0
ARC
  5
58D
100
AcDbEntity
  8
RUNDUNGEN
100
AcDbCircle
 62
7
  6
CONTINUOUS
 10
404.9472115477
 20
529.6176515498
 40
1.0
100
AcDbArc
 50
270.0
 51
360.0
  0
ARC
  5
58E
100
AcDbEntity
  8
0
100
AcDbCircle
 62
7
  6
CONTINUOUS
 10
273.4472115477
 20
556.1176515498
 40
12.0
100
AcDbArc
 50
71.446995465
 51
77.8532075052
  0
ARC
  5
58F
100
AcDbEntity
  8
0
100
AcDbCircle
 62
7
  6
CONTINUOUS
 10
273.4472115477
 20
556.1176515498
 40
12.0
100
AcDbArc
 50
78.3961535075
 51
80.6236079605
  0
ARC
  5
590
100
AcDbEntity
  8
0
100
AcDbCircle
 62
7
  6
CONTINUOUS
 10
273.4472115477
 20
556.1176515498
 40
12.0
100
AcDbArc
 50
83.9044128711
 51
85.2207656716
  0
ARC
  5
591
100
AcDbEntity
  8
RUNDUNGEN
100
AcDbCircle
 62
7
  6
CONTINUOUS
 10
273.4472115477
 20
556.1176515498
 40
12.0
100
AcDbArc
 50
0.0
 51
90.0
  0
ARC
  5
592
100
AcDbEntity
  8
BEZUGSACHSEN
100
AcDbCircle
 62
7
  6
CONTINUOUS
 10
266.4472115477
 20
556.1176515498
 40
8.0
100
AcDbArc
 50
90.0
 51
180.0
  0
ARC
  5
593
100
AcDbEntity
  8
RUNDUNGEN
100
AcDbCircle
 62
7
  6
CONTINUOUS
 10
268.4472115477
 20
556.1176515498
 40
8.0
100
AcDbArc
 50
0.0
 51
90.0
  0
ARC
  5
594
100
AcDbEntity
  8
RUNDUNGEN
100
AcDbCircle
 62
7
  6
CONTINUOUS
 10
290.2159084387
 20
559.8334809884
 40
1.9995328355
100
AcDbArc
 50
61.465327187
 51
90.0038601914
  0
ARC
  5
595
100
AcDbEntity
  8
RUNDUNGEN
100
AcDbCircle
 62
7
  6
CONTINUOUS
 10
280.4472115477
 20
574.1176515498
 40
5.0
100
AcDbArc
 50
0.0
 51
90.0
  0
ARC
  5
596
100
AcDbEntity
  8
0
100
AcDbCircle
 62
7
  6
CONTINUOUS
 10
382.3018295629
 20
572.1176515498
 40
5.0
100
AcDbArc
 50
270.0
 51
295.8419327632
  0
ARC
  5
597
100
AcDbEntity
  8
RUNDUNGEN
100
AcDbCircle
 62
7
  6
CONTINUOUS
 10
380.4472115477
 20
565.1176515498
 40
2.0
100
AcDbArc
 50
90.0
 51
180.0
  0
ARC
  5
598
100
AcDbEntity
  8
RUNDUNGEN
100
AcDbCircle
 62
7
  6
CONTINUOUS
 10
404.9472115477
 20
566.6176515498
 40
1.0
100
AcDbArc
 50
0.0
 51
90.0
  0
ARC
  5
599
100
AcDbEntity
  8
RUNDUNGEN
100
AcDbCircle
 62
7
  6
CONTINUOUS
 10
469.969343415
 20
558.5976128565
 40
3.0000013067
100
AcDbArc
 50
74.4359417544
 51
134.9994364163
  0
ARC
  5
59A
100
AcDbEntity
  8
BEZUGSACHSEN
100
AcDbCircle
 62
7
  6
CONTINUOUS
 10
478.9042692002
 20
555.5134403172
 40
1.4999999668
100
AcDbArc
 50
4.9999994579
 51
49.0478217093
  0
ARC
  5
59B
100
AcDbEntity
  8
BEZUGSACHSEN
100
AcDbCircle
 62
7
  6
CONTINUOUS
 10
497.4472115477
 20
547.1176515498
 40
23.0
100
AcDbArc
 50
268.9604522591
 51
269.4874282114
  0
ARC
  5
59C
100
AcDbEntity
  8
BEZUGSACHSEN
100
AcDbCircle
 62
7
  6
CONTINUOUS
 10
497.4472115477
 20
547.1176515498
 40
23.0
100
AcDbArc
 50
232.4251980046
 51
268.3080908622
  0
ARC
  5
59D
100
AcDbEntity
  8
RUNDUNGEN
100
AcDbCircle
 62
7
  6
CONTINUOUS
 10
497.4472115477
 20
547.1176515498
 40
23.0
100
AcDbArc
 50
232.4251980046
 51
270.0
  0
ARC
  5
59E
100
AcDbEntity
  8
RUNDUNGEN
100
AcDbCircle
 62
7
  6
CONTINUOUS
 10
517.8884538235
 20
558.6176515498
 40
34.5
100
AcDbArc
 50
269.9999869915
 51
349.9999991464
  0
ARC
  5
59F
100
AcDbEntity
  8
BEZUGSACHSEN
100
AcDbCircle
 62
7
  6
CONTINUOUS
 10
517.8884538235
 20
558.6176515498
 40
34.5
100
AcDbArc
 50
344.4075083688
 51
347.2045686561
  0
ARC
  5
5A0
100
AcDbEntity
  8
BEZUGSACHSEN
100
AcDbCircle
 62
7
  6
CONTINUOUS
 10
517.8884538235
 20
558.6176515498
 40
34.5
100
AcDbArc
 50
338.7662916699
 51
341.5832842973
  0
ARC
  5
5A1
100
AcDbEntity
  8
BEZUGSACHSEN
100
AcDbCircle
 62
7
  6
CONTINUOUS
 10
517.8884538235
 20
558.6176515498
 40
34.5
100
AcDbArc
 50
347.2179347443
 51
349.9999991464
  0
ARC
  5
5A2
100
AcDbEntity
  8
BEZUGSACHSEN
100
AcDbCircle
 62
7
  6
CONTINUOUS
 10
517.8884538235
 20
558.6176515498
 40
34.5
100
AcDbArc
 50
302.4711850943
 51
335.4084381356
  0
ARC
  5
5A3
100
AcDbEntity
  8
BEZUGSACHSEN
100
AcDbCircle
 62
7
  6
CONTINUOUS
 10
517.8884538235
 20
558.6176515498
 40
34.5
100
AcDbArc
 50
271.2606670261
 51
286.0824723044
  0
ARC
  5
5A4
100
AcDbEntity
  8
BEZUGSACHSEN
100
AcDbCircle
 62
7
  6
CONTINUOUS
 10
517.8884538235
 20
558.6176515498
 40
34.5
100
AcDbArc
 50
286.8827963306
 51
290.8980744962
  0
ARC
  5
5A5
100
AcDbEntity
  8
RUNDUNGEN
100
AcDbCircle
 62
7
  6
CONTINUOUS
 10
497.4472115477
 20
573.1176515498
 40
24.0
100
AcDbArc
 50
226.3820943847
 51
270.0000023606
  0
ARC
  5
5A6
100
AcDbEntity
  8
RUNDUNGEN
100
AcDbCircle
 62
7
  6
CONTINUOUS
 10
524.0539417918
 20
563.6176515498
 40
14.5
100
AcDbArc
 50
270.0
 51
330.9999921294
  0
ARC
  5
5A7
100
AcDbEntity
  8
BEZUGSACHSEN
100
AcDbCircle
 62
7
  6
CONTINUOUS
 10
462.3472115477
 20
565.1176515498
 40
7.0
100
AcDbArc
 50
270.0
 51
315.0
  0
ARC
  5
5A8
100
AcDbEntity
  8
RUNDUNGEN
100
AcDbCircle
 62
7
  6
CONTINUOUS
 10
549.7268317215
 20
575.898792895
 40
2.0
100
AcDbArc
 50
61.0
 51
151.0
  0
ARC
  5
5A9
100
AcDbEntity
  8
RUNDUNGEN
100
AcDbCircle
 62
7
  6
CONTINUOUS
 10
553.5620930923
 20
573.7728726722
 40
2.0
100
AcDbArc
 50
350.0000034532
 51
61.0000011243
  0
ARC
  5
5AA
100
AcDbEntity
  8
BEZUGSACHSEN
100
AcDbCircle
 62
7
  6
CONTINUOUS
 10
553.5620930923
 20
573.7728726722
 40
2.0
100
AcDbArc
 50
350.0000034532
 51
61.0000011243
  0
ARC
  5
5AB
100
AcDbEntity
  8
RUNDUNGEN
100
AcDbCircle
 62
7
  6
CONTINUOUS
 10
27.4472115477
 20
-104.5064579604
 40
24.0
100
AcDbArc
 50
46.3820943847
 51
90.0000023606
  0
ARC
  5
5AC
100
AcDbEntity
  8
RUNDUNGEN
100
AcDbCircle
 62
7
  6
CONTINUOUS
 10
0.8404813037
 20
-95.0064579604
 40
14.5
100
AcDbArc
 50
90.0
 51
150.9999921294
  0
ARC
  5
5AD
100
AcDbEntity
  8
BEZUGSACHSEN
100
AcDbCircle
 62
7
  6
CONTINUOUS
 10
62.5472115477
 20
-96.5064579604
 40
7.0
100
AcDbArc
 50
90.0
 51
135.0
  0
ARC
  5
5AE
100
AcDbEntity
  8
RUNDUNGEN
100
AcDbCircle
 62
7
  6
CONTINUOUS
 10
109.9472115477
 20
-103.5064579604
 40
2.0
100
AcDbArc
 50
180.0
 51
270.0
  0
ARC
  5
5AF
100
AcDbEntity
  8
RUNDUNGEN
100
AcDbCircle
 62
7
  6
CONTINUOUS
 10
-28.6676699968
 20
-105.1616790828
 40
2.0
100
AcDbArc
 50
170.0000034532
 51
241.0000011243
  0
ARC
  5
5B0
100
AcDbEntity
  8
RUNDUNGEN
100
AcDbCircle
 62
7
  6
CONTINUOUS
 10
-24.8324086261
 20
-107.2875993057
 40
2.0
100
AcDbArc
 50
241.0
 51
331.0
  0
ARC
  5
5B1
100
AcDbEntity
  8
BEZUGSACHSEN
100
AcDbCircle
 62
7
  6
CONTINUOUS
 10
-28.6676699968
 20
-105.1616790828
 40
2.0
100
AcDbArc
 50
170.0000034532
 51
241.0000011243
  0
ARC
  5
5B2
100
AcDbEntity
  8
RUNDUNGEN
100
AcDbCircle
 62
7
  6
CONTINUOUS
 10
7.0059692719
 20
-90.0064579604
 40
34.5
100
AcDbArc
 50
89.9999869901
 51
169.9999991475
  0
ARC
  5
5B3
100
AcDbEntity
  8
BEZUGSACHSEN
100
AcDbCircle
 62
7
  6
CONTINUOUS
 10
7.0059692719
 20
-90.0064579604
 40
34.5
100
AcDbArc
 50
164.4075484806
 51
169.9999991475
  0
ARC
  5
5B4
100
AcDbEntity
  8
BEZUGSACHSEN
100
AcDbCircle
 62
7
  6
CONTINUOUS
 10
7.0059692719
 20
-90.0064579604
 40
34.5
100
AcDbArc
 50
158.7661008207
 51
161.5832818201
  0
ARC
  5
5B5
100
AcDbEntity
  8
BEZUGSACHSEN
100
AcDbCircle
 62
7
  6
CONTINUOUS
 10
7.0059692719
 20
-90.0064579604
 40
34.5
100
AcDbArc
 50
122.4711846483
 51
155.4084381356
  0
ARC
  5
5B6
100
AcDbEntity
  8
BEZUGSACHSEN
100
AcDbCircle
 62
7
  6
CONTINUOUS
 10
7.0059692719
 20
-90.0064579604
 40
34.5
100
AcDbArc
 50
91.2606582679
 51
106.0824724256
  0
ARC
  5
5B7
100
AcDbEntity
  8
BEZUGSACHSEN
100
AcDbCircle
 62
7
  6
CONTINUOUS
 10
7.0059692719
 20
-90.0064579604
 40
34.5
100
AcDbArc
 50
106.8827425184
 51
110.8980260685
  0
ARC
  5
5B8
100
AcDbEntity
  8
BEZUGSACHSEN
100
AcDbCircle
 62
7
  6
CONTINUOUS
 10
27.4472115477
 20
-78.5064579604
 40
23.0
100
AcDbArc
 50
88.7088184504
 51
89.4874282114
  0
ARC
  5
5B9
100
AcDbEntity
  8
BEZUGSACHSEN
100
AcDbCircle
 62
7
  6
CONTINUOUS
 10
27.4472115477
 20
-78.5064579604
 40
23.0
100
AcDbArc
 50
52.4253019909
 51
88.3246733718
  0
ARC
  5
5BA
100
AcDbEntity
  8
RUNDUNGEN
100
AcDbCircle
 62
7
  6
CONTINUOUS
 10
27.4472115477
 20
-78.5064579604
 40
23.0
100
AcDbArc
 50
52.4253019909
 51
90.0
  0
ARC
  5
5BB
100
AcDbEntity
  8
RUNDUNGEN
100
AcDbCircle
 62
7
  6
CONTINUOUS
 10
54.9250796923
 20
-89.9864192672
 40
3.0000013062
100
AcDbArc
 50
254.4359417855
 51
314.9994366205
  0
ARC
  5
5BC
100
AcDbEntity
  8
BEZUGSACHSEN
100
AcDbCircle
 62
7
  6
CONTINUOUS
 10
254.4472115477
 20
-105.5064579604
 40
5.0
100
AcDbArc
 50
180.0
 51
270.0
  0
ARC
  5
5BD
100
AcDbEntity
  8
RUNDUNGEN
100
AcDbCircle
 62
7
  6
CONTINUOUS
 10
154.46802414
 20
-95.5321279411
 40
2.0072935705
100
AcDbArc
 50
343.7141216234
 51
345.0705345366
  0
ARC
  5
5BE
100
AcDbEntity
  8
RUNDUNGEN
100
AcDbCircle
 62
7
  6
CONTINUOUS
 10
154.4748374822
 20
-95.5310535794
 40
2.0031761905
100
AcDbArc
 50
270.0055657425
 51
273.1332431579
  0
ARC
  5
5BF
100
AcDbEntity
  8
RUNDUNGEN
100
AcDbCircle
 62
7
  6
CONTINUOUS
 10
154.4750704606
 20
-95.5342979561
 40
1.9999254977
100
AcDbArc
 50
273.1316589127
 51
343.717185386
  0
ARC
  5
5C0
100
AcDbEntity
  8
RUNDUNGEN
100
AcDbCircle
 62
7
  6
CONTINUOUS
 10
130.9472115477
 20
-102.5064579604
 40
1.0
100
AcDbArc
 50
180.0
 51
270.0
  0
ARC
  5
5C1
100
AcDbEntity
  8
RUNDUNGEN
100
AcDbCircle
 62
7
  6
CONTINUOUS
 10
114.4472115477
 20
-105.0064579604
 40
0.5
100
AcDbArc
 50
270.0
 51
360.0
  0
ARC
  5
5C2
100
AcDbEntity
  8
RUNDUNGEN
100
AcDbCircle
 62
7
  6
CONTINUOUS
 10
244.6808289552
 20
-91.2084350461
 40
2.0133863636
100
AcDbArc
 50
251.2650106527
 51
269.9379746579
  0
ARC
  5
5C3
100
AcDbEntity
  8
RUNDUNGEN
100
AcDbCircle
 62
7
  6
CONTINUOUS
 10
244.6785146568
 20
-91.222287399
 40
1.9995328355
100
AcDbArc
 50
241.4653272113
 51
270.0038601913
  0
ARC
  5
5C4
100
AcDbEntity
  8
BEZUGSACHSEN
100
AcDbCircle
 62
7
  6
CONTINUOUS
 10
56.1079425223
 20
-41.2564579604
 40
24.0
100
AcDbArc
 50
232.424231727
 51
240.6236161444
  0
ARC
  5
5C5
100
AcDbEntity
  8
RUNDUNGEN
100
AcDbCircle
 62
7
  6
CONTINUOUS
 10
60.5597091883
 20
-69.7564579604
 40
24.0
100
AcDbArc
 50
226.3824301968
 51
254.4359417849
  0
ARC
  5
5C6
100
AcDbEntity
  8
RUNDUNGEN
100
AcDbCircle
 62
7
  6
CONTINUOUS
 10
56.1079425223
 20
-41.2564579604
 40
24.0
100
AcDbArc
 50
232.424231727
 51
265.6897697557
  0
ARC
  5
5C7
100
AcDbEntity
  8
BEZUGSACHSEN
100
AcDbCircle
 62
7
  6
CONTINUOUS
 10
62.5472115477
 20
-62.5064579604
 40
7.0
100
AcDbArc
 50
225.0
 51
270.0
  0
ARC
  5
5C8
100
AcDbEntity
  8
BEZUGSACHSEN
100
AcDbCircle
 62
7
  6
CONTINUOUS
 10
254.4472115477
 20
-53.5064579604
 40
5.0
100
AcDbArc
 50
90.0
 51
180.0
  0
ARC
  5
5C9
100
AcDbEntity
  8
RUNDUNGEN
100
AcDbCircle
 62
7
  6
CONTINUOUS
 10
152.5925935326
 20
-55.5064579604
 40
5.0
100
AcDbArc
 50
235.0
 51
270.0
  0
ARC
  5
5CA
100
AcDbEntity
  8
RUNDUNGEN
100
AcDbCircle
 62
7
  6
CONTINUOUS
 10
54.0787094702
 20
-68.1800955939
 40
3.0000001033
100
AcDbArc
 50
45.0000815257
 51
85.6890634696
  0
ARC
  5
5CB
100
AcDbEntity
  8
RUNDUNGEN
100
AcDbCircle
 62
7
  6
CONTINUOUS
 10
109.9472115477
 20
-55.5064579604
 40
2.0
100
AcDbArc
 50
90.0
 51
180.0
  0
ARC
  5
5CC
100
AcDbEntity
  8
RUNDUNGEN
100
AcDbCircle
 62
7
  6
CONTINUOUS
 10
244.67864938
 20
-62.0064579604
 40
2.0
100
AcDbArc
 50
90.0
 51
110.0
  0
ARC
  5
5CD
100
AcDbEntity
  8
RUNDUNGEN
100
AcDbCircle
 62
7
  6
CONTINUOUS
 10
242.5996027474
 20
-58.5064579604
 40
2.0
100
AcDbArc
 50
270.0
 51
290.0
  0
ARC
  5
5CE
100
AcDbEntity
  8
RUNDUNGEN
100
AcDbCircle
 62
7
  6
CONTINUOUS
 10
130.9472115477
 20
-56.5064579604
 40
1.0
100
AcDbArc
 50
90.0
 51
180.0
  0
ARC
  5
5CF
100
AcDbEntity
  8
RUNDUNGEN
100
AcDbCircle
 62
7
  6
CONTINUOUS
 10
114.4472115477
 20
-54.0064579604
 40
0.5
100
AcDbArc
 50
0.0
 51
90.0
  0
ARC
  5
5D0
100
AcDbEntity
  8
RUNDUNGEN
100
AcDbCircle
 62
7
  6
CONTINUOUS
 10
280.4472115477
 20
-105.5064579604
 40
5.0
100
AcDbArc
 50
270.0
 51
360.0
  0
ARC
  5
5D1
100
AcDbEntity
  8
0
100
AcDbCircle
 62
7
  6
CONTINUOUS
 10
382.3018295629
 20
-103.5064579604
 40
5.0
100
AcDbArc
 50
64.1580672368
 51
90.0
  0
ARC
  5
5D2
100
AcDbEntity
  8
RUNDUNGEN
100
AcDbCircle
 62
7
  6
CONTINUOUS
 10
380.4472115477
 20
-96.5064579604
 40
2.0
100
AcDbArc
 50
180.0
 51
270.0
  0
ARC
  5
5D3
100
AcDbEntity
  8
RUNDUNGEN
100
AcDbCircle
 62
7
  6
CONTINUOUS
 10
404.9472115477
 20
-98.0064579604
 40
1.0
100
AcDbArc
 50
270.0
 51
360.0
  0
ARC
  5
5D4
100
AcDbEntity
  8
RUNDUNGEN
100
AcDbCircle
 62
7
  6
CONTINUOUS
 10
290.2144636767
 20
-91.2117778725
 40
2.0100427844
100
AcDbArc
 50
270.0373425832
 51
285.5854240521
  0
ARC
  5
5D5
100
AcDbEntity
  8
RUNDUNGEN
100
AcDbCircle
 62
7
  6
CONTINUOUS
 10
290.2159084387
 20
-91.2222873991
 40
1.9995328354
100
AcDbArc
 50
269.9961398081
 51
298.5346729466
  0
ARC
  5
5D6
100
AcDbEntity
  8
BEZUGSACHSEN
100
AcDbCircle
 62
7
  6
CONTINUOUS
 10
497.4472115477
 20
-104.5064579604
 40
24.0
100
AcDbArc
 50
89.9999976394
 51
133.6179056153
  0
ARC
  5
5D7
100
AcDbEntity
  8
BEZUGSACHSEN
100
AcDbCircle
 62
7
  6
CONTINUOUS
 10
524.0539417918
 20
-95.0064579604
 40
14.5
100
AcDbArc
 50
29.0000078706
 51
90.0
  0
ARC
  5
5D8
100
AcDbEntity
  8
BEZUGSACHSEN
100
AcDbCircle
 62
7
  6
CONTINUOUS
 10
462.3472115477
 20
-96.5064579604
 40
7.0
100
AcDbArc
 50
45.0
 51
90.0
  0
ARC
  5
5D9
100
AcDbEntity
  8
BEZUGSACHSEN
100
AcDbCircle
 62
7
  6
CONTINUOUS
 10
549.7268317215
 20
-107.2875993057
 40
2.0
100
AcDbArc
 50
209.0
 51
299.0
  0
ARC
  5
5DA
100
AcDbEntity
  8
RUNDUNGEN
100
AcDbCircle
 62
7
  6
CONTINUOUS
 10
553.5620930923
 20
-105.1616790828
 40
2.0
100
AcDbArc
 50
298.9999988757
 51
9.9999965468
  0
ARC
  5
5DB
100
AcDbEntity
  8
BEZUGSACHSEN
100
AcDbCircle
 62
7
  6
CONTINUOUS
 10
553.5620930923
 20
-105.1616790828
 40
2.0
100
AcDbArc
 50
298.9999988757
 51
9.9999965468
  0
ARC
  5
5DC
100
AcDbEntity
  8
RUNDUNGEN
100
AcDbCircle
 62
7
  6
CONTINUOUS
 10
517.8884538235
 20
-90.0064579604
 40
34.5
100
AcDbArc
 50
12.8150876627
 51
15.5924919959
  0
ARC
  5
5DD
100
AcDbEntity
  8
RUNDUNGEN
100
AcDbCircle
 62
7
  6
CONTINUOUS
 10
517.8884538235
 20
-90.0064579604
 40
34.5
100
AcDbArc
 50
88.7393329739
 51
90.0000130085
  0
ARC
  5
5DE
100
AcDbEntity
  8
RUNDUNGEN
100
AcDbCircle
 62
7
  6
CONTINUOUS
 10
517.8884538235
 20
-90.0064579604
 40
34.5
100
AcDbArc
 50
21.2337083301
 51
24.0129972331
  0
ARC
  5
5DF
100
AcDbEntity
  8
BEZUGSACHSEN
100
AcDbCircle
 62
7
  6
CONTINUOUS
 10
517.8884538235
 20
-90.0064579604
 40
34.5
100
AcDbArc
 50
10.0000008536
 51
90.0005751593
  0
ARC
  5
5E0
100
AcDbEntity
  8
BEZUGSACHSEN
100
AcDbCircle
 62
7
  6
CONTINUOUS
 10
497.4472115477
 20
-78.5064579604
 40
23.0
100
AcDbArc
 50
90.0
 51
127.5748019954
  0
ARC
  5
5E1
100
AcDbEntity
  8
RUNDUNGEN
100
AcDbCircle
 62
7
  6
CONTINUOUS
 10
497.4472115477
 20
-78.5064579604
 40
23.0
100
AcDbArc
 50
91.6919091378
 51
127.5748019954
  0
ARC
  5
5E2
100
AcDbEntity
  8
RUNDUNGEN
100
AcDbCircle
 62
7
  6
CONTINUOUS
 10
469.969343415
 20
-89.9864192671
 40
3.0000013067
100
AcDbArc
 50
225.0005635837
 51
285.5640582456
  0
ARC
  5
5E3
100
AcDbEntity
  8
BEZUGSACHSEN
100
AcDbCircle
 62
7
  6
CONTINUOUS
 10
478.9042692002
 20
-86.9022467279
 40
1.4999999668
100
AcDbArc
 50
310.9521782907
 51
355.0000005421
  0
ARC
  5
5E4
100
AcDbEntity
  8
RUNDUNGEN
100
AcDbCircle
 62
7
  6
CONTINUOUS
 10
464.3347139071
 20
-69.7564579604
 40
24.0
100
AcDbArc
 50
285.5640582458
 51
295.3665267148
  0
ARC
  5
5E5
100
AcDbEntity
  8
BEZUGSACHSEN
100
AcDbCircle
 62
7
  6
CONTINUOUS
 10
464.3347139071
 20
-69.7564579604
 40
24.0
100
AcDbArc
 50
295.3665267148
 51
313.6177396404
  0
ARC
  5
5E6
100
AcDbEntity
  8
RUNDUNGEN
100
AcDbCircle
 62
7
  6
CONTINUOUS
 10
464.3347139071
 20
-69.7564579604
 40
24.0
100
AcDbArc
 50
312.1355854067
 51
312.8516731294
  0
ARC
  5
5E7
100
AcDbEntity
  8
BEZUGSACHSEN
100
AcDbCircle
 62
7
  6
CONTINUOUS
 10
468.7864805731
 20
-41.2564579604
 40
24.0
100
AcDbArc
 50
299.3763838556
 51
307.5756686182
  0
ARC
  5
5E8
100
AcDbEntity
  8
RUNDUNGEN
100
AcDbCircle
 62
7
  6
CONTINUOUS
 10
468.7864805731
 20
-41.2564579604
 40
24.0
100
AcDbArc
 50
274.3102827306
 51
307.5756686182
  0
ARC
  5
5E9
100
AcDbEntity
  8
BEZUGSACHSEN
100
AcDbCircle
 62
7
  6
CONTINUOUS
 10
462.3472115477
 20
-62.5064579604
 40
7.0
100
AcDbArc
 50
270.0
 51
315.0
  0
ARC
  5
5EA
100
AcDbEntity
  8
RUNDUNGEN
100
AcDbCircle
 62
7
  6
CONTINUOUS
 10
280.4472115477
 20
-53.5064579604
 40
5.0
100
AcDbArc
 50
0.0
 51
90.0
  0
ARC
  5
5EB
100
AcDbEntity
  8
0
100
AcDbCircle
 62
7
  6
CONTINUOUS
 10
382.3018295629
 20
-55.5064579604
 40
5.0
100
AcDbArc
 50
270.0
 51
295.8419327632
  0
ARC
  5
5EC
100
AcDbEntity
  8
RUNDUNGEN
100
AcDbCircle
 62
7
  6
CONTINUOUS
 10
326.5697183933
 20
-62.5064584823
 40
2.0000032256
100
AcDbArc
 50
89.9999296797
 51
141.3148450367
  0
ARC
  5
5ED
100
AcDbEntity
  8
RUNDUNGEN
100
AcDbCircle
 62
7
  6
CONTINUOUS
 10
290.2157737155
 20
-62.0064579604
 40
2.0
100
AcDbArc
 50
70.0
 51
90.0
  0
ARC
  5
5EE
100
AcDbEntity
  8
RUNDUNGEN
100
AcDbCircle
 62
7
  6
CONTINUOUS
 10
292.294820348
 20
-58.5064579604
 40
2.0
100
AcDbArc
 50
250.0
 51
270.0
  0
ARC
  5
5EF
100
AcDbEntity
  8
RUNDUNGEN
100
AcDbCircle
 62
7
  6
CONTINUOUS
 10
323.4472115477
 20
-60.0064579604
 40
2.0
100
AcDbArc
 50
269.9979623464
 51
321.316292637
  0
ARC
  5
5F0
100
AcDbEntity
  8
RUNDUNGEN
100
AcDbCircle
 62
7
  6
CONTINUOUS
 10
297.4472115477
 20
-60.0064579604
 40
2.0
100
AcDbArc
 50
218.683612922
 51
269.9991338747
  0
ARC
  5
5F1
100
AcDbEntity
  8
RUNDUNGEN
100
AcDbCircle
 62
7
  6
CONTINUOUS
 10
404.9472115477
 20
-61.0064579604
 40
1.0
100
AcDbArc
 50
0.0
 51
90.0
  0
SPLINE
  5
5F2
100
AcDbEntity
  8
0
100
AcDbSpline
 62
7
  6
CONTINUOUS
 70
0
 71
3
 72
11
 73
7
 74
0
 42
0.0000001
 43
0.0000001
 44
0.0000000001
 40
0.0
 40
0.0
 40
0.0
 40
0.0
 40
0.249970644
 40
0.49994794
 40
0.7499524809
 40
1.0
 40
1.0
 40
1.0
 40
1.0
 10
62.5472115477
 20
381.9381567779
 30
0.0
 10
62.1913786706
 20
381.9381567779
 30
0.0
 10
61.478156791
 20
381.8749661206
 30
0.0
 10
60.4422760288
 20
381.5971911156
 30
0.0
 10
59.4662363111
 20
381.1536632345
 30
0.0
 10
58.8686909444
 20
380.7611350484
 30
0.0
 10
58.5861872801
 20
380.5446018945
 30
0.0
  0
SPLINE
  5
5F3
100
AcDbEntity
  8
0
100
AcDbSpline
 62
7
  6
CONTINUOUS
 70
0
 71
3
 72
9
 73
5
 74
0
 42
0.0000001
 43
0.0000001
 44
0.0000000001
 40
0.0
 40
0.0
 40
0.0
 40
0.0
 40
0.4999915501
 40
1.0
 40
1.0
 40
1.0
 40
1.0
 10
189.5472115477
 20
385.008240872
 30
0.0
 10
189.2344161711
 20
384.483667078
 30
0.0
 10
188.5807235587
 20
383.4512405103
 30
0.0
 10
187.8950436738
 20
382.440209207
 30
0.0
 10
187.5472115477
 20
381.9381567779
 30
0.0
  0
SPLINE
  5
5F4
100
AcDbEntity
  8
RUNDUNGEN
100
AcDbSpline
 62
7
  6
CONTINUOUS
 70
0
 71
3
 72
13
 73
9
 74
0
 42
0.0000001
 43
0.0000001
 44
0.0000000001
 40
0.0
 40
0.0
 40
0.0
 40
0.0
 40
0.3203778116
 40
0.6202633572
 40
0.7472365533
 40
0.8534425386
 40
0.9372257173
 40
1.0
 40
1.0
 40
1.0
 40
1.0
 10
143.876410634
 20
383.5069598641
 30
0.0
 10
143.8873784942
 20
383.7916553765
 30
0.0
 10
143.8686859556
 20
384.3446408241
 30
0.0
 10
143.7627634092
 20
385.0033717234
 30
0.0
 10
143.6264662853
 20
385.4580498528
 30
0.0
 10
143.5149689658
 20
385.7180615689
 30
0.0
 10
143.3944757876
 20
385.9086922271
 30
0.0
 10
143.2948544269
 20
385.9988514364
 30
0.0
 10
143.2447619767
 20
386.0234904371
 30
0.0
  0
SPLINE
  5
5F5
100
AcDbEntity
  8
RUNDUNGEN
100
AcDbSpline
 62
7
  6
CONTINUOUS
 70
0
 71
3
 72
13
 73
9
 74
0
 42
0.0000001
 43
0.0000001
 44
0.0000000001
 40
0.0
 40
0.0
 40
0.0
 40
0.0
 40
0.0627742238
 40
0.1465574174
 40
0.2527634099
 40
0.3797366138
 40
0.6796221741
 40
1.0
 40
1.0
 40
1.0
 40
1.0
 10
143.2447619767
 20
395.1733311943
 30
0.0
 10
143.2948543749
 20
395.197970174
 30
0.0
 10
143.3944755223
 20
395.2881295596
 30
0.0
 10
143.5149688055
 20
395.4787600427
 30
0.0
 10
143.6264660799
 20
395.7387718172
 30
0.0
 10
143.7627632504
 20
396.1934499122
 30
0.0
 10
143.8686858024
 20
396.8521808142
 30
0.0
 10
143.8873783509
 20
397.4051662491
 30
0.0
 10
143.8764104887
 20
397.6898617562
 30
0.0
  0
SPLINE
  5
5F6
100
AcDbEntity
  8
BEZUGSACHSEN
100
AcDbSpline
 62
7
  6
CONTINUOUS
 70
0
 71
3
 72
14
 73
10
 74
0
 42
0.0000001
 43
0.0000001
 44
0.0000000001
 40
0.0
 40
0.0
 40
0.0
 40
0.0
 40
0.0698460802
 40
0.1573405026
 40
0.2618591856
 40
0.3824177186
 40
0.5178351075
 40
0.6668169424
 40
1.0
 40
1.0
 40
1.0
 40
1.0
 10
686.4838037799
 20
375.4182994978
 30
0.0
 10
686.484074221
 20
375.6021283681
 30
0.0
 10
686.5145775062
 20
376.0159720414
 30
0.0
 10
686.6109268786
 20
376.6984824555
 30
0.0
 10
686.7561903519
 20
377.50837236
 30
0.0
 10
686.940688246
 20
378.4390451801
 30
0.0
 10
687.1536696189
 20
379.4833745988
 30
0.0
 10
687.4721074582
 20
381.0772734424
 30
0.0
 10
687.6976561184
 20
382.3264498717
 30
0.0
 10
687.8339939523
 20
383.19269653
 30
0.0
  0
SPLINE
  5
5F7
100
AcDbEntity
  8
BEZUGSACHSEN
100
AcDbSpline
 62
7
  6
CONTINUOUS
 70
0
 71
3
 72
13
 73
9
 74
0
 42
0.0000001
 43
0.0000001
 44
0.0000000001
 40
0.0
 40
0.0
 40
0.0
 40
0.0
 40
0.1208208864
 40
0.2430618907
 40
0.366716712
 40
0.4916971845
 40
0.7445527663
 40
1.0
 40
1.0
 40
1.0
 40
1.0
 10
734.3780648795
 20
371.6372416938
 30
0.0
 10
734.8370941288
 20
372.0104585708
 30
0.0
 10
735.7151117747
 20
372.8190335096
 30
0.0
 10
736.8847264184
 20
374.1866094289
 30
0.0
 10
737.9004579326
 20
375.6969570666
 30
0.0
 10
739.0359013184
 20
377.8791968118
 30
0.0
 10
740.0048518568
 20
380.8512565779
 30
0.0
 10
740.2649413451
 20
383.3475977903
 30
0.0
 10
740.2649413451
 20
384.5984108157
 30
0.0
  0
SPLINE
  5
5F8
100
AcDbEntity
  8
BEZUGSACHSEN
100
AcDbSpline
 62
7
  6
CONTINUOUS
 70
0
 71
3
 72
9
 73
5
 74
0
 42
0.0000001
 43
0.0000001
 44
0.0000000001
 40
0.0
 40
0.0
 40
0.0
 40
0.0
 40
0.5076766968
 40
1.0
 40
1.0
 40
1.0
 40
1.0
 10
699.4372333219
 20
390.5984108157
 30
0.0
 10
699.4372332596
 20
389.7256825544
 30
0.0
 10
699.5465154098
 20
388.0048246546
 30
0.0
 10
699.8806551191
 20
386.3122005408
 30
0.0
 10
700.1053067588
 20
385.4962261229
 30
0.0
  0
SPLINE
  5
5F9
100
AcDbEntity
  8
BEZUGSACHSEN
100
AcDbSpline
 62
7
  6
CONTINUOUS
 70
0
 71
3
 72
9
 73
5
 74
0
 42
0.0000001
 43
0.0000001
 44
0.0000000001
 40
0.0
 40
0.0
 40
0.0
 40
0.0
 40
0.5076766968
 40
1.0
 40
1.0
 40
1.0
 40
1.0
 10
699.4372333219
 20
390.5984108157
 30
0.0
 10
699.4372332596
 20
391.471139077
 30
0.0
 10
699.5465154098
 20
393.1919969768
 30
0.0
 10
699.8806551191
 20
394.8846210907
 30
0.0
 10
700.1053067588
 20
395.7005955085
 30
0.0
  0
SPLINE
  5
5FA
100
AcDbEntity
  8
RUNDUNGEN
100
AcDbSpline
 62
7
  6
CONTINUOUS
 70
0
 71
3
 72
14
 73
10
 74
0
 42
0.0000001
 43
0.0000001
 44
0.0000000001
 40
0.0
 40
0.0
 40
0.0
 40
0.0
 40
0.0698460802
 40
0.1573405026
 40
0.2618591856
 40
0.3824177186
 40
0.5178351075
 40
0.6668169424
 40
1.0
 40
1.0
 40
1.0
 40
1.0
 10
686.4838037799
 20
405.7785221336
 30
0.0
 10
686.484074221
 20
405.5946932634
 30
0.0
 10
686.5145775062
 20
405.1808495901
 30
0.0
 10
686.6109268786
 20
404.4983391759
 30
0.0
 10
686.7561903519
 20
403.6884492715
 30
0.0
 10
686.940688246
 20
402.7577764514
 30
0.0
 10
687.1536696189
 20
401.7134470326
 30
0.0
 10
687.4721074582
 20
400.1195481891
 30
0.0
 10
687.6976561184
 20
398.8703717597
 30
0.0
 10
687.8339939523
 20
398.0041251014
 30
0.0
  0
SPLINE
  5
5FB
100
AcDbEntity
  8
RUNDUNGEN
100
AcDbSpline
 62
7
  6
CONTINUOUS
 70
0
 71
3
 72
13
 73
9
 74
0
 42
0.0000001
 43
0.0000001
 44
0.0000000001
 40
0.0
 40
0.0
 40
0.0
 40
0.0
 40
0.1208208864
 40
0.2430618907
 40
0.366716712
 40
0.4916971845
 40
0.7445527663
 40
1.0
 40
1.0
 40
1.0
 40
1.0
 10
734.3780648795
 20
409.5595799376
 30
0.0
 10
734.8370941288
 20
409.1863630607
 30
0.0
 10
735.7151117747
 20
408.3777881218
 30
0.0
 10
736.8847264184
 20
407.0102122025
 30
0.0
 10
737.9004579326
 20
405.4998645649
 30
0.0
 10
739.0359013184
 20
403.3176248197
 30
0.0
 10
740.0048518568
 20
400.3455650536
 30
0.0
 10
740.2649413451
 20
397.8492238411
 30
0.0
 10
740.2649413451
 20
396.5984108157
 30
0.0
  0
SPLINE
  5
5FC
100
AcDbEntity
  8
0
100
AcDbSpline
 62
7
  6
CONTINUOUS
 70
0
 71
3
 72
10
 73
6
 74
0
 42
0.0000001
 43
0.0000001
 44
0.0000000001
 40
0.0
 40
0.0
 40
0.0
 40
0.0
 40
0.1836418241
 40
0.4225518627
 40
1.0
 40
1.0
 40
1.0
 40
1.0
 10
730.4837999999
 20
360.8663600082
 30
0.0
 10
730.4837999999
 20
360.9706883873
 30
0.0
 10
730.4761856633
 20
361.2106878795
 30
0.0
 10
730.4536231407
 20
361.7782939893
 30
0.0
 10
730.4424652934
 20
362.2420799996
 30
0.0
 10
730.4420774532
 20
362.5701326445
 30
0.0
  0
SPLINE
  5
5FD
100
AcDbEntity
  8
0
100
AcDbSpline
 62
7
  6
CONTINUOUS
 70
0
 71
3
 72
10
 73
6
 74
0
 42
0.0000001
 43
0.0000001
 44
0.0000000001
 40
0.0
 40
0.0
 40
0.0
 40
0.0
 40
0.5774471856
 40
0.8163587956
 40
1.0
 40
1.0
 40
1.0
 40
1.0
 10
690.5255225458
 20
362.5701320499
 30
0.0
 10
690.5251346982
 20
362.2420800601
 30
0.0
 10
690.513976856
 20
361.7782938599
 30
0.0
 10
690.4914143545
 20
361.2106879476
 30
0.0
 10
690.4837999999
 20
360.9706879989
 30
0.0
 10
690.4837999999
 20
360.8663600082
 30
0.0
  0
SPLINE
  5
5FE
100
AcDbEntity
  8
0
100
AcDbSpline
 62
7
  6
CONTINUOUS
 70
0
 71
3
 72
11
 73
7
 74
0
 42
0.0000001
 43
0.0000001
 44
0.0000000001
 40
0.0
 40
0.0
 40
0.0
 40
0.0
 40
0.249970644
 40
0.49994794
 40
0.7499524809
 40
1.0
 40
1.0
 40
1.0
 40
1.0
 10
1356.306026545
 20
399.2586648536
 30
0.0
 10
1356.6618594221
 20
399.2586648536
 30
0.0
 10
1357.3750813018
 20
399.3218555108
 30
0.0
 10
1358.410962064
 20
399.5996305159
 30
0.0
 10
1359.3870017817
 20
400.043158397
 30
0.0
 10
1359.9845471484
 20
400.4356865831
 30
0.0
 10
1360.2670508127
 20
400.652219737
 30
0.0
  0
SPLINE
  5
5FF
100
AcDbEntity
  8
0
100
AcDbSpline
 62
7
  6
CONTINUOUS
 70
0
 71
3
 72
20
 73
16
 74
0
 42
0.0000001
 43
0.0000001
 44
0.0000000001
 40
0.0
 40
0.0
 40
0.0
 40
0.0
 40
0.1383903511
 40
0.2030050338
 40
0.2638843847
 40
0.3207271745
 40
0.3737680612
 40
0.4241324394
 40
0.4738656873
 40
0.5253480876
 40
0.5804398168
 40
0.6400889301
 40
0.7044697012
 40
0.8459230051
 40
1.0
 40
1.0
 40
1.0
 40
1.0
 10
58.5472115477
 20
553.2833915759
 30
0.0
 10
58.5472115477
 20
553.57342492
 30
0.0
 10
58.5561243441
 20
553.9993209184
 30
0.0
 10
58.6101073969
 20
554.5500407779
 30
0.0
 10
58.6753847167
 20
554.9270495134
 30
0.0
 10
58.773299935
 20
555.2722129994
 30
0.0
 10
58.9117685854
 20
555.5799286563
 30
0.0
 10
59.0981405191
 20
555.8441063605
 30
0.0
 10
59.3354847562
 20
556.0591079074
 30
0.0
 10
59.6203563386
 20
556.2247851106
 30
0.0
 10
59.9472735058
 20
556.348307903
 30
0.0
 10
60.3118969674
 20
556.4397812973
 30
0.0
 10
60.86044995
 20
556.5345942989
 30
0.0
 10
61.6106741361
 20
556.6157907838
 30
0.0
 10
62.2266431687
 20
556.6799828659
 30
0.0
 10
62.5472115477
 20
556.7187904111
 30
0.0
  0
SPLINE
  5
600
100
AcDbEntity
  8
0
100
AcDbSpline
 62
7
  6
CONTINUOUS
 70
0
 71
3
 72
9
 73
5
 74
0
 42
0.0000001
 43
0.0000001
 44
0.0000000001
 40
0.0
 40
0.0
 40
0.0
 40
0.0
 40
0.2478508072
 40
1.0
 40
1.0
 40
1.0
 40
1.0
 10
62.5472115477
 20
556.7187904111
 30
0.0
 10
62.6294009951
 20
556.7287401469
 30
0.0
 10
62.9616420001
 20
556.7635285776
 30
0.0
 10
63.2959714499
 20
556.7779055876
 30
0.0
 10
63.5472115477
 20
556.7779055876
 30
0.0
  0
SPLINE
  5
601
100
AcDbEntity
  8
RUNDUNGEN
100
AcDbSpline
 62
7
  6
CONTINUOUS
 70
0
 71
3
 72
8
 73
4
 74
0
 42
0.0000001
 43
0.0000001
 44
0.0000000001
 40
0.0
 40
0.0
 40
0.0
 40
0.0
 40
1.0
 40
1.0
 40
1.0
 40
1.0
 10
143.876410634
 20
571.045276907
 30
0.0
 10
143.8756801468
 20
571.0399475859
 30
0.0
 10
143.8753595545
 20
571.0345528695
 30
0.0
 10
143.8753595545
 20
571.0291737176
 30
0.0
  0
SPLINE
  5
602
100
AcDbEntity
  8
RUNDUNGEN
100
AcDbSpline
 62
7
  6
CONTINUOUS
 70
0
 71
3
 72
10
 73
6
 74
0
 42
0.0000001
 43
0.0000001
 44
0.0000000001
 40
0.0
 40
0.0
 40
0.0
 40
0.0
 40
0.6926515335
 40
0.8906849967
 40
1.0
 40
1.0
 40
1.0
 40
1.0
 10
143.876410634
 20
571.045276907
 30
0.0
 10
143.8787615847
 20
571.0624284338
 30
0.0
 10
143.8814693463
 20
571.0850210358
 30
0.0
 10
143.8803591295
 20
571.1093928972
 30
0.0
 10
143.8777416081
 20
571.1175036309
 30
0.0
 10
143.8755012721
 20
571.119067509
 30
0.0
  0
SPLINE
  5
603
100
AcDbEntity
  8
0
100
AcDbSpline
 62
7
  6
CONTINUOUS
 70
0
 71
3
 72
9
 73
5
 74
0
 42
0.0000001
 43
0.0000001
 44
0.0000000001
 40
0.0
 40
0.0
 40
0.0
 40
0.0
 40
0.2478507949
 40
1.0
 40
1.0
 40
1.0
 40
1.0
 10
62.5472115477
 20
-70.9053190991
 30
0.0
 10
62.6294009911
 20
-70.8953693638
 30
0.0
 10
62.9616419959
 20
-70.8605809326
 30
0.0
 10
63.2959714458
 20
-70.8462039226
 30
0.0
 10
63.5472115477
 20
-70.8462039226
 30
0.0
  0
SPLINE
  5
604
100
AcDbEntity
  8
0
100
AcDbSpline
 62
7
  6
CONTINUOUS
 70
0
 71
3
 72
20
 73
16
 74
0
 42
0.0000001
 43
0.0000001
 44
0.0000000001
 40
0.0
 40
0.0
 40
0.0
 40
0.0
 40
0.1383903511
 40
0.2030050338
 40
0.2638843847
 40
0.3207271745
 40
0.3737680612
 40
0.4241324394
 40
0.4738656873
 40
0.5253480876
 40
0.5804398168
 40
0.6400889301
 40
0.7044697012
 40
0.8459230051
 40
1.0
 40
1.0
 40
1.0
 40
1.0
 10
58.5472115477
 20
-74.3407179343
 30
0.0
 10
58.5472115477
 20
-74.0506845902
 30
0.0
 10
58.5561243441
 20
-73.6247885918
 30
0.0
 10
58.6101073969
 20
-73.0740687323
 30
0.0
 10
58.6753847167
 20
-72.6970599968
 30
0.0
 10
58.773299935
 20
-72.3518965108
 30
0.0
 10
58.9117685854
 20
-72.0441808539
 30
0.0
 10
59.0981405191
 20
-71.7800031497
 30
0.0
 10
59.3354847562
 20
-71.5650016028
 30
0.0
 10
59.6203563386
 20
-71.3993243996
 30
0.0
 10
59.9472735058
 20
-71.2758016072
 30
0.0
 10
60.3118969674
 20
-71.1843282129
 30
0.0
 10
60.86044995
 20
-71.0895152113
 30
0.0
 10
61.6106741361
 20
-71.0083187264
 30
0.0
 10
62.2266431687
 20
-70.9441266443
 30
0.0
 10
62.5472115477
 20
-70.9053190991
 30
0.0
  0
SPLINE
  5
605
100
AcDbEntity
  8
RUNDUNGEN
100
AcDbSpline
 62
7
  6
CONTINUOUS
 70
0
 71
3
 72
9
 73
5
 74
0
 42
0.0000001
 43
0.0000001
 44
0.0000000001
 40
0.0
 40
0.0
 40
0.0
 40
0.0
 40
0.5000718528
 40
1.0
 40
1.0
 40
1.0
 40
1.0
 10
143.872908626
 20
-102.5086850661
 30
0.0
 10
143.8733670431
 20
-102.5086862686
 30
0.0
 10
143.8742918207
 20
-102.5085572071
 30
0.0
 10
143.8751253411
 20
-102.5081362385
 30
0.0
 10
143.8755011274
 20
-102.5078739188
 30
0.0
  0
SPLINE
  5
606
100
AcDbEntity
  8
RUNDUNGEN
100
AcDbSpline
 62
7
  6
CONTINUOUS
 70
0
 71
3
 72
10
 73
6
 74
0
 42
0.0000001
 43
0.0000001
 44
0.0000000001
 40
0.0
 40
0.0
 40
0.0
 40
0.0
 40
0.1093150213
 40
0.3073484902
 40
1.0
 40
1.0
 40
1.0
 40
1.0
 10
143.8755011274
 20
-102.5078739188
 30
0.0
 10
143.8777414633
 20
-102.5063100401
 30
0.0
 10
143.8803589848
 20
-102.4981993067
 30
0.0
 10
143.8814692017
 20
-102.473827446
 30
0.0
 10
143.8787614396
 20
-102.451234846
 30
0.0
 10
143.8764104887
 20
-102.4340833208
 30
0.0
  0
SPLINE
  5
607
100
AcDbEntity
  8
RUNDUNGEN
100
AcDbSpline
 62
7
  6
CONTINUOUS
 70
0
 71
3
 72
8
 73
4
 74
0
 42
0.0000001
 43
0.0000001
 44
0.0000000001
 40
0.0
 40
0.0
 40
0.0
 40
0.0
 40
1.0
 40
1.0
 40
1.0
 40
1.0
 10
143.8753595545
 20
-102.4179801283
 30
0.0
 10
143.8753595545
 20
-102.423359278
 30
0.0
 10
143.8756800016
 20
-102.4287540018
 30
0.0
 10
143.8764104887
 20
-102.4340833208
 30
0.0
  0
ELLIPSE
  5
608
100
AcDbEntity
  8
0
100
AcDbEllipse
 62
7
  6
CONTINUOUS
 10
188.4472115477
 20
-79.5064579604
 30
0.0
 11
16.3866758602
 21
-10.7534577813
 31
0.0
 40
1.0
 41
2.1518370762
 42
2.5167471796
  0
ELLIPSE
  5
609
100
AcDbEntity
  8
0
100
AcDbEllipse
 62
7
  6
CONTINUOUS
 10
174.4472115477
 20
-79.5064579604
 30
0.0
 11
15.908388371
 21
11.4491562762
 31
0.0
 40
1.0
 41
0.5817682468
 42
0.9466786613
  0
ELLIPSE
  5
60A
100
AcDbEntity
  8
0
100
AcDbEllipse
 62
7
  6
CONTINUOUS
 10
188.4472115477
 20
-79.5064579604
 30
0.0
 11
5.0929797763
 21
18.3046867495
 31
0.0
 40
1.0
 41
0.2714571431
 42
0.648680048
  0
ELLIPSE
  5
60B
100
AcDbEntity
  8
0
100
AcDbEllipse
 62
7
  6
CONTINUOUS
 10
174.4472115477
 20
-79.5064579604
 30
0.0
 11
14.4156895195
 21
12.376909779
 31
0.0
 40
1.0
 41
0.4840366493
 42
0.8612595543
  0
ENDSEC
  0
SECTION
  2
OBJECTS
  0
DICTIONARY
  5
C
100
AcDbDictionary
280
0
281
1
  3
ACAD_GROUP
350
D
  3
ACAD_MLINESTYLE
350
17
  3
ACAD_LAYOUT
350
1A
  3
ACAD_PLOTSETTINGS
350
19
  3
ACAD_PLOTSTYLENAME
350
E
  0
DICTIONARY
  5
D
102
{ACAD_REACTORS
330
C
102
}
100
AcDbDictionary
280
0
281
1
  0
ACDBDICTIONARYWDFLT
  5
E
102
{ACAD_REACTORS
330
C
102
}
100
AcDbDictionary
281
1
  3
Normal
350
F
100
AcDbDictionaryWithDefault
340
F
  0
DICTIONARY
  5
17
102
{ACAD_REACTORS
330
C
102
}
100
AcDbDictionary
280
0
281
1
  3
Standard
350
18
  0
DICTIONARY
  5
19
102
{ACAD_REACTORS
330
C
102
}
100
AcDbDictionary
281
1
  0
DICTIONARY
  5
1A
102
{ACAD_REACTORS
330
C
102
}
100
AcDbDictionary
281
1
  3
Model
350
60C
  3
Layout1
350
60D
  0
ACDBPLACEHOLDER
  5
F
102
{ACAD_REACTORS
330
E
102
}
  0
MLINESTYLE
  5
18
102
{ACAD_REACTORS
330
17
102
}
100
AcDbMlineStyle
  2
STANDARD
 70
0
  3

 62
256
 51
90.0
 52
90.0
 71
2
 49
0.5
 62
256
  6
BYLAYER
 49
-0.5
 62
256
  6
BYLAYER
  0
LAYOUT
  5
60C
102
{ACAD_REACTORS
330
1A
102
}
100
AcDbPlotSettings
  1

  2
none_device
  4
ISO_A3_(420.00_x_297.00_MM)
  6

 40
0.0
 41
0.0
 42
0.0
 43
0.0
 44
420.0
 45
297.0
 46
0.0
 47
0.0
 48
0.0
 49
0.0
140
0.0
141
0.0
142
1.0
143
1.0
 70
1024
 72
1
 73
0
 74
0
  7

 75
0
147
1.0
148
0.0
149
0.0
100
AcDbLayout
  1
Model
 70
0
 71
0
 10
0.0
 20
0.0
 11
420.0
 21
297.0
 12
0.0
 22
0.0
 32
0.0
 14
0.0
 24
0.0
 34
0.0
 15
0.0
 25
0.0
 35
0.0
146
0.0
 13
0.0
 23
0.0
 33
0.0
 16
1.0
 26
0.0
 36
0.0
 17
0.0
 27
1.0
 37
0.0
 76
0
330
211
345
0
346
0
  0
LAYOUT
  5
60D
102
{ACAD_REACTORS
330
1A
102
}
100
AcDbPlotSettings
  1

  2
none_device
  4
ISO_A3_(420.00_x_297.00_MM)
  6

 40
0.0
 41
0.0
 42
0.0
 43
0.0
 44
420.0
 45
297.0
 46
0.0
 47
0.0
 48
0.0
 49
0.0
140
0.0
141
0.0
142
1.0
143
1.0
 70
0
 72
1
 73
0
 74
0
  7

 75
0
147
1.0
148
0.0
149
0.0
100
AcDbLayout
  1
Layout1
 70
0
 71
1
 10
0.0
 20
0.0
 11
420.0
 21
297.0
 12
0.0
 22
0.0
 32
0.0
 14
0.0
 24
0.0
 34
0.0
 15
0.0
 25
0.0
 35
0.0
146
0.0
 13
0.0
 23
0.0
 33
0.0
 16
1.0
 26
0.0
 36
0.0
 17
0.0
 27
1.0
 37
0.0
 76
0
330
212
345
0
346
0
  0
ENDSEC
  0
EOF
