999
DXF file: ICE-CURT-6-SL-KPL_7903441_M34538-P-2.dxf
999
Pro/ENGINEER 2010140 by Parametric Technology Corporation
  0
SECTION
  2
HEADER
  9
$ACADVER
  1
AC1015
  9
$DWGCODEPAGE
  3
ANSI_1252
  9
$EXTMAX
 10
420.0
 20
297.0
 30
0.0
  9
$EXTMIN
 10
0.0
 20
0.0
 30
0.0
  9
$LIMMIN
 10
0.0
 20
0.0
  9
$LIMMAX
 10
420.0
 20
297.0
  9
$VIEWCTR
 10
210.0
 20
148.5
  9
$VIEWSIZE
 40
297.0
  9
$CLAYER
  8
0
  9
$LTSCALE
 40
23.1
  9
$CELTYPE
  6
BYLAYER
  9
$DIMSCALE
 40
1.0
  9
$DIMASZ
 40
3.5
  9
$DIMEXO
 40
2.625
  9
$DIMDLI
 40
15.96
  9
$DIMEXE
 40
7.56
  9
$DIMCEN
 40
3.78
  9
$DIMLFAC
 40
1.0
  9
$DIMBLK
  1
_FILLED
  9
$DIMTXT
 40
3.5
  9
$DIMTOL
 70
1
  9
$DIMLIM
 70
0
  9
$DIMTFAC
 40
1.0
  9
$DIMTP
 40
0.005
  9
$DIMTM
 40
0.005
  9
$PDMODE
 70
3
  9
$PDSIZE
 40
0.3125
  9
$HANDSEED
  5
6E7
  9
$TILEMODE
 70
1
  9
$MEASUREMENT
 70
1
  9
$INSUNITS
 70
4
  0
ENDSEC
  0
SECTION
  2
CLASSES
  0
CLASS
  1
ACDBDICTIONARYWDFLT
  2
AcDbDictionaryWithDefault
  3
AutoCAD 2000
 90
0
280
0
281
0
  0
CLASS
  1
ACDBPLACEHOLDER
  2
AcDbPlaceHolder
  3
AutoCAD 2000
 90
0
280
0
281
0
  0
CLASS
  1
LAYOUT
  2
AcDbLayout
  3
AutoCAD 2000
 90
0
280
0
281
0
  0
ENDSEC
  0
SECTION
  2
TABLES
  0
TABLE
  2
VPORT
  5
8
100
AcDbSymbolTable
 70
2
  0
VPORT
  5
1F4
100
AcDbSymbolTableRecord
100
AcDbViewportTableRecord
  2
*ACTIVE
 70
0
 10
0.0
 20
0.0
 11
1.0
 21
1.0
 12
210.0
 22
148.5
 13
0.0
 23
0.0
 14
1.0
 24
1.0
 15
0.0
 25
0.0
 16
0.0
 26
0.0
 36
1.0
 17
0.0
 27
0.0
 37
0.0
 40
297.0
 41
1.4141414141
 42
50.0
 43
0.0
 44
0.0
 50
0.0
 51
0.0
 71
0
 72
100
 73
1
 74
1
 75
0
 76
0
 77
0
 78
0
  0
ENDTAB
  0
TABLE
  2
LTYPE
  5
5
100
AcDbSymbolTable
 70
6
  0
LTYPE
  5
14
100
AcDbSymbolTableRecord
100
AcDbLinetypeTableRecord
  2
BYBLOCK
 70
0
  3

 72
65
 73
0
 40
0.0
  0
LTYPE
  5
15
100
AcDbSymbolTableRecord
100
AcDbLinetypeTableRecord
  2
BYLAYER
 70
0
  3

 72
65
 73
0
 40
0.0
  0
LTYPE
  5
16
100
AcDbSymbolTableRecord
100
AcDbLinetypeTableRecord
  2
CONTINUOUS
 70
64
  3
Solid line
 72
65
 73
0
 40
0.0
  0
LTYPE
  5
1F5
100
AcDbSymbolTableRecord
100
AcDbLinetypeTableRecord
  2
CENTER
 70
64
  3
____ _ ____ _ ____ _ ____ _ ____ _ ____ _ ____
 72
65
 73
4
 40
0.6
 49
0.375
 74
0
 49
-0.075
 74
0
 49
0.075
 74
0
 49
-0.075
 74
0
  0
LTYPE
  5
1F6
100
AcDbSymbolTableRecord
100
AcDbLinetypeTableRecord
  2
HIDDEN
 70
64
  3
- - - - - - - - - - - - - - - - - - - -
 72
65
 73
2
 40
0.2
 49
0.1
 74
0
 49
-0.1
 74
0
  0
LTYPE
  5
1F7
100
AcDbSymbolTableRecord
100
AcDbLinetypeTableRecord
  2
PHANTOM
 70
64
  3
_____ _ _ _____ _ _ _____ _ _ _____
 72
65
 73
6
 40
0.8
 49
0.45
 74
0
 49
-0.05
 74
0
 49
0.1
 74
0
 49
-0.05
 74
0
 49
0.1
 74
0
 49
-0.05
 74
0
  0
LTYPE
  5
1F8
100
AcDbSymbolTableRecord
100
AcDbLinetypeTableRecord
  2
DOT
 70
64
  3
. . . . . . . . . . . . . . . . . . . .
 72
65
 73
2
 40
0.2
 49
0.1
 74
0
 49
-0.1
 74
0
  0
LTYPE
  5
1F9
100
AcDbSymbolTableRecord
100
AcDbLinetypeTableRecord
  2
DASHED
 70
64
  3
- - - - - - - - - - - - - - - - - - - -
 72
65
 73
2
 40
0.2
 49
0.1
 74
0
 49
-0.1
 74
0
  0
ENDTAB
  0
TABLE
  2
LAYER
  5
2
100
AcDbSymbolTable
 70
36
  0
LAYER
  5
10
100
AcDbSymbolTableRecord
100
AcDbLayerTableRecord
  2
0
 70
0
 62
7
  6
CONTINUOUS
370
-3
390
F
  0
LAYER
  5
1FA
100
AcDbSymbolTableRecord
100
AcDbLayerTableRecord
  2
DEFAULT_1
 70
0
 62
7
  6
CENTER
370
-3
390
F
  0
LAYER
  5
1FB
100
AcDbSymbolTableRecord
100
AcDbLayerTableRecord
  2
DEFAULT_2
 70
0
 62
8
  6
HIDDEN
370
-3
390
F
  0
LAYER
  5
1FC
100
AcDbSymbolTableRecord
100
AcDbLayerTableRecord
  2
DEFAULT_3
 70
0
 62
7
  6
PHANTOM
370
-3
390
F
  0
LAYER
  5
1FD
100
AcDbSymbolTableRecord
100
AcDbLayerTableRecord
  2
AUSFORMSCHRAEGEN
 70
0
 62
7
  6
CONTINUOUS
370
-3
390
F
  0
LAYER
  5
1FE
100
AcDbSymbolTableRecord
100
AcDbLayerTableRecord
  2
BEZUGSACHSEN
 70
0
 62
7
  6
CONTINUOUS
370
-3
390
F
  0
LAYER
  5
1FF
100
AcDbSymbolTableRecord
100
AcDbLayerTableRecord
  2
BEZUGSEBENEN
 70
0
 62
7
  6
CONTINUOUS
370
-3
390
F
  0
LAYER
  5
200
100
AcDbSymbolTableRecord
100
AcDbLayerTableRecord
  2
BG_STARTBEZUEGE
 70
0
 62
7
  6
CONTINUOUS
370
-3
390
F
  0
LAYER
  5
201
100
AcDbSymbolTableRecord
100
AcDbLayerTableRecord
  2
FASEN
 70
0
 62
7
  6
CONTINUOUS
370
-3
390
F
  0
LAYER
  5
202
100
AcDbSymbolTableRecord
100
AcDbLayerTableRecord
  2
FLAECHEN
 70
0
 62
7
  6
CONTINUOUS
370
-3
390
F
  0
LAYER
  5
203
100
AcDbSymbolTableRecord
100
AcDbLayerTableRecord
  2
FLAECHENVERBUND
 70
0
 62
7
  6
CONTINUOUS
370
-3
390
F
  0
LAYER
  5
204
100
AcDbSymbolTableRecord
100
AcDbLayerTableRecord
  2
HILFEN
 70
0
 62
7
  6
CONTINUOUS
370
-3
390
F
  0
LAYER
  5
205
100
AcDbSymbolTableRecord
100
AcDbLayerTableRecord
  2
KONSTRUKTIONSELEMENTE
 70
0
 62
7
  6
CONTINUOUS
370
-3
390
F
  0
LAYER
  5
206
100
AcDbSymbolTableRecord
100
AcDbLayerTableRecord
  2
KURVEN
 70
0
 62
7
  6
CONTINUOUS
370
-3
390
F
  0
LAYER
  5
207
100
AcDbSymbolTableRecord
100
AcDbLayerTableRecord
  2
NORM
 70
0
 62
7
  6
CONTINUOUS
370
-3
390
F
  0
LAYER
  5
208
100
AcDbSymbolTableRecord
100
AcDbLayerTableRecord
  2
PLATZIERUNG
 70
0
 62
7
  6
CONTINUOUS
370
-3
390
F
  0
LAYER
  5
209
100
AcDbSymbolTableRecord
100
AcDbLayerTableRecord
  2
RUNDUNGEN
 70
0
 62
7
  6
CONTINUOUS
370
-3
390
F
  0
LAYER
  5
20A
100
AcDbSymbolTableRecord
100
AcDbLayerTableRecord
  2
TEIL_STARTBEZUEGE
 70
0
 62
7
  6
CONTINUOUS
370
-3
390
F
  0
LAYER
  5
20B
100
AcDbSymbolTableRecord
100
AcDbLayerTableRecord
  2
T_STARTBEZUEGE
 70
0
 62
7
  6
CONTINUOUS
370
-3
390
F
  0
ENDTAB
  0
TABLE
  2
STYLE
  5
3
100
AcDbSymbolTable
 70
1
  0
STYLE
  5
11
100
AcDbSymbolTableRecord
100
AcDbTextStyleTableRecord
  2
STANDARD
 70
0
 40
0.0
 41
0.7
 50
0.0
 71
0
 42
0.2
  3
txt
  4

  0
STYLE
  5
20C
100
AcDbSymbolTableRecord
100
AcDbTextStyleTableRecord
  2
TEXTSTYLE_1
 70
0
 40
0.0
 41
0.8
 50
0.0
 71
0
 42
0.2
  3
gdt
  4

  0
ENDTAB
  0
TABLE
  2
VIEW
  5
6
100
AcDbSymbolTable
 70
0
  0
ENDTAB
  0
TABLE
  2
UCS
  5
7
100
AcDbSymbolTable
 70
0
  0
ENDTAB
  0
TABLE
  2
APPID
  5
9
100
AcDbSymbolTable
 70
1
  0
APPID
  5
20D
100
AcDbSymbolTableRecord
100
AcDbRegAppTableRecord
  2
ACAD
 70
0
  0
ENDTAB
  0
TABLE
  2
BLOCK_RECORD
  5
1
100
AcDbSymbolTable
 70
0
  0
BLOCK_RECORD
  5
20E
100
AcDbSymbolTableRecord
100
AcDbBlockTableRecord
  2
*Model_Space
  0
BLOCK_RECORD
  5
20F
100
AcDbSymbolTableRecord
100
AcDbBlockTableRecord
  2
*Paper_Space
  0
ENDTAB
  0
TABLE
  2
DIMSTYLE
  5
A
100
AcDbSymbolTable
 70
1
100
AcDbDimStyleTable
 71
0
  0
DIMSTYLE
105
210
100
AcDbSymbolTableRecord
100
AcDbDimStyleTableRecord
  2
STANDARD
 70
0
  3

  4

 40
1.0
 41
3.5
 42
0.0625
 43
0.38
 44
0.18
 45
0.0
 46
0.0
 47
0.005
 48
0.005
140
3.5
141
0.09
142
0.0
143
25.4
144
1.0
145
0.0
146
1.0
147
0.09
 71
1.0
 72
0.0
 73
0
 74
0
 75
0
 76
0
 77
1
 78
8
170
0
171
2
172
0
173
0
174
0
175
0
176
0
177
0
178
5
270
2
271
3
272
3
273
2
274
2
275
0
280
0
281
0
282
0
283
1
284
8
285
0
286
0
287
3
288
0
340
11
  0
ENDTAB
  0
ENDSEC
  0
SECTION
  2
BLOCKS
  0
BLOCK
  5
20
100
AcDbEntity
  8
0
100
AcDbBlockBegin
  2
*Model_Space
 70
0
 10
0.0
 20
0.0
 30
0.0
  3
*Model_Space
  1

  0
ENDBLK
  5
21
100
AcDbEntity
  8
0
100
AcDbBlockEnd
  0
BLOCK
  5
1C
100
AcDbEntity
  8
0
100
AcDbBlockBegin
  2
*Paper_Space
 70
0
 10
0.0
 20
0.0
 30
0.0
  3
*Paper_Space
  1

  0
ENDBLK
  5
1D
100
AcDbEntity
  8
0
100
AcDbBlockEnd
  0
ENDSEC
  0
SECTION
  2
ENTITIES
  0
MTEXT
  5
211
100
AcDbEntity
  8
0
100
AcDbMText
 62
5
  6
CONTINUOUS
  7
STANDARD
 71
1
 72
1
 10
191.9284541428
 20
125.3030872343
 30
0.0
 11
0.0
 21
1.0
 31
0.0
 44
0.9
  1
ICE-CURT 6 RUD
 40
5.0
 41
55.9523809524
  0
MTEXT
  5
212
100
AcDbEntity
  8
0
100
AcDbMText
 62
5
  6
CONTINUOUS
  7
STANDARD
 71
2
 72
1
 10
248.8071729607
 20
363.5344729037
 30
0.0
 11
1.0
 21
0.0
 31
0.0
 44
0.9
  1
ICE-CURT 6\PRUD
 40
7.0
 41
55.5
  0
MTEXT
  5
213
100
AcDbEntity
  8
0
100
AcDbMText
 62
5
  6
CONTINUOUS
  7
STANDARD
 71
1
 72
1
 10
482.1235284899
 20
117.2535749392
 30
0.0
 11
0.0
 21
1.0
 31
0.0
 44
0.9
  1
ICE-CURT 6 RUD
 40
5.0
 41
55.9523809524
  0
MTEXT
  5
214
100
AcDbEntity
  8
0
100
AcDbMText
 62
5
  6
CONTINUOUS
  7
STANDARD
 71
1
 72
1
 10
776.8790553598
 20
119.500545214
 30
0.0
 11
0.0
 21
1.0
 31
0.0
 44
0.9
  1
ICE-CURT 6 RUD
 40
5.0
 41
55.9523809524
  0
MTEXT
  5
215
100
AcDbEntity
  8
0
100
AcDbMText
 62
5
  6
CONTINUOUS
  7
STANDARD
 71
2
 72
1
 10
251.785768608
 20
-35.3364552975
 30
0.0
 11
1.0
 21
0.0
 31
0.0
 44
0.9
  1
ICE-CURT 6\PRUD
 40
7.0
 41
55.5
  0
LINE
  5
216
100
AcDbEntity
  8
0
100
AcDbLine
 62
7
  6
CONTINUOUS
 10
0.0
 20
0.0
 11
0.0
 21
297.0
  0
LINE
  5
217
100
AcDbEntity
  8
0
100
AcDbLine
 62
7
  6
CONTINUOUS
 10
0.0
 20
0.0
 11
420.0
 21
0.0
  0
LINE
  5
218
100
AcDbEntity
  8
0
100
AcDbLine
 62
7
  6
CONTINUOUS
 10
0.0
 20
297.0
 11
420.0
 21
297.0
  0
LINE
  5
219
100
AcDbEntity
  8
0
100
AcDbLine
 62
7
  6
CONTINUOUS
 10
420.0
 20
0.0
 11
420.0
 21
297.0
  0
LWPOLYLINE
  5
21A
100
AcDbEntity
  8
RUNDUNGEN
100
AcDbPolyline
 62
7
  6
CONTINUOUS
 90
9
 70
0
 10
-16.3378217594
 20
231.3125711626
 10
-16.3765074508
 20
230.8509685362
 10
-16.4221194593
 20
230.2206922566
 10
-16.4605601018
 20
229.5784713182
 10
-16.4917403624
 20
228.9268319382
 10
-16.5156041822
 20
228.2683461647
 10
-16.5321300238
 20
227.6056026261
 10
-16.5413313167
 20
226.9412206798
 10
-16.543455053
 20
226.4327668304
  0
LINE
  5
21B
100
AcDbEntity
  8
RUNDUNGEN
100
AcDbLine
 62
7
  6
CONTINUOUS
 10
-16.3365643349
 20
231.3119291886
 11
-16.3342947543
 21
231.329489415
  0
LWPOLYLINE
  5
21C
100
AcDbEntity
  8
BEZUGSACHSEN
100
AcDbPolyline
 62
7
  6
CONTINUOUS
 90
9
 70
0
 10
-16.543455053
 20
217.4327668304
 10
-16.5413313167
 20
216.924312981
 10
-16.5321300238
 20
216.2599310348
 10
-16.5156041822
 20
215.5971874962
 10
-16.4917403624
 20
214.9387017226
 10
-16.4605601018
 20
214.2870623426
 10
-16.4221194593
 20
213.6448414043
 10
-16.3765074508
 20
213.0145651247
 10
-16.3378217594
 20
212.5529624983
  0
LINE
  5
21D
100
AcDbEntity
  8
RUNDUNGEN
100
AcDbLine
 62
7
  6
CONTINUOUS
 10
-16.5434551113
 20
217.4327668304
 11
-16.5434551113
 21
226.4327668304
  0
LINE
  5
21E
100
AcDbEntity
  8
BEZUGSACHSEN
100
AcDbLine
 62
7
  6
CONTINUOUS
 10
-9.0521249057
 20
224.9328020201
 11
-9.0521249057
 21
218.9327316407
  0
LINE
  5
21F
100
AcDbEntity
  8
BEZUGSACHSEN
100
AcDbLine
 62
7
  6
CONTINUOUS
 10
-16.3365643349
 20
212.5536044722
 11
-16.3342947543
 21
212.5360442458
  0
LINE
  5
220
100
AcDbEntity
  8
0
100
AcDbLine
 62
7
  6
CONTINUOUS
 10
42.9565448887
 20
214.9327668304
 11
42.9565448887
 21
214.3115111736
  0
LINE
  5
221
100
AcDbEntity
  8
RUNDUNGEN
100
AcDbLine
 62
7
  6
CONTINUOUS
 10
-12.2676784205
 20
235.3003034346
 11
-2.0491385843
 21
239.6378162534
  0
LINE
  5
222
100
AcDbEntity
  8
RUNDUNGEN
100
AcDbLine
 62
7
  6
CONTINUOUS
 10
66.8581706074
 20
204.4332439484
 11
66.8581706074
 21
239.4327668304
  0
LINE
  5
223
100
AcDbEntity
  8
RUNDUNGEN
100
AcDbLine
 62
7
  6
CONTINUOUS
 10
71.8581706074
 20
240.4322621786
 11
71.8581706074
 21
203.4332714823
  0
LINE
  5
224
100
AcDbEntity
  8
BEZUGSACHSEN
100
AcDbLine
 62
7
  6
CONTINUOUS
 10
38.9139100661
 20
211.8742864781
 11
29.4408835114
 21
205.2412018748
  0
LINE
  5
225
100
AcDbEntity
  8
RUNDUNGEN
100
AcDbLine
 62
7
  6
CONTINUOUS
 10
91.8581706074
 20
239.9327668304
 11
91.8581706074
 21
203.9327668304
  0
LINE
  5
226
100
AcDbEntity
  8
RUNDUNGEN
100
AcDbLine
 62
7
  6
CONTINUOUS
 10
97.8581706074
 20
214.0655770047
 11
97.8581706074
 21
229.7999566562
  0
LWPOLYLINE
  5
227
100
AcDbEntity
  8
RUNDUNGEN
100
AcDbPolyline
 62
7
  6
CONTINUOUS
 90
4
 70
0
 10
41.623040067
 20
213.2137623707
 10
41.7751102728
 20
213.2692371057
 10
41.9222249838
 20
213.3368585723
 10
42.0591650733
 20
213.4142176302
  0
LINE
  5
228
100
AcDbEntity
  8
RUNDUNGEN
100
AcDbLine
 62
7
  6
CONTINUOUS
 10
107.8581706074
 20
224.9328869368
 11
107.8581706074
 21
218.9326417134
  0
LINE
  5
229
100
AcDbEntity
  8
0
100
AcDbLine
 62
7
  6
CONTINUOUS
 10
137.4565448887
 20
214.9327668304
 11
140.2065448887
 21
217.6827668304
  0
LINE
  5
22A
100
AcDbEntity
  8
BEZUGSACHSEN
100
AcDbLine
 62
7
  6
CONTINUOUS
 10
197.8581706074
 20
75.4327668304
 11
191.8581706074
 21
75.4327668304
  0
LINE
  5
22B
100
AcDbEntity
  8
0
100
AcDbLine
 62
7
  6
CONTINUOUS
 10
178.1261197999
 20
238.2007160229
 11
178.9299673772
 21
238.664817638
  0
LINE
  5
22C
100
AcDbEntity
  8
0
100
AcDbLine
 62
7
  6
CONTINUOUS
 10
102.6866364205
 20
203.2343037265
 11
109.2721370527
 21
205.6312299344
  0
LINE
  5
22D
100
AcDbEntity
  8
0
100
AcDbLine
 62
7
  6
CONTINUOUS
 10
137.4565448887
 20
228.9327668304
 11
137.4565448887
 21
219.4327668304
  0
LINE
  5
22E
100
AcDbEntity
  8
0
100
AcDbLine
 62
7
  6
CONTINUOUS
 10
137.4565448887
 20
215.3944184151
 11
137.4565448887
 21
214.9327668304
  0
LINE
  5
22F
100
AcDbEntity
  8
0
100
AcDbLine
 62
7
  6
CONTINUOUS
 10
140.2065448887
 20
217.6827668304
 11
140.2065448887
 21
218.4958350592
  0
LINE
  5
230
100
AcDbEntity
  8
0
100
AcDbLine
 62
7
  6
CONTINUOUS
 10
140.2065448887
 20
219.4327668304
 11
140.2065448887
 21
226.1827668304
  0
LINE
  5
231
100
AcDbEntity
  8
0
100
AcDbLine
 62
7
  6
CONTINUOUS
 10
147.4565448887
 20
217.6828662403
 11
147.4565448887
 21
226.1826678992
  0
LINE
  5
232
100
AcDbEntity
  8
BEZUGSACHSEN
100
AcDbLine
 62
7
  6
CONTINUOUS
 10
-2.0491385843
 20
204.2277174074
 11
-12.2676784205
 21
208.5652302263
  0
LINE
  5
233
100
AcDbEntity
  8
RUNDUNGEN
100
AcDbLine
 62
7
  6
CONTINUOUS
 10
38.9139100661
 20
231.9912471828
 11
29.4408835114
 21
238.6243317861
  0
LINE
  5
234
100
AcDbEntity
  8
0
100
AcDbLine
 62
7
  6
CONTINUOUS
 10
210.7863738377
 20
205.2007160229
 11
211.590221415
 21
205.664817638
  0
LWPOLYLINE
  5
235
100
AcDbEntity
  8
RUNDUNGEN
100
AcDbPolyline
 62
7
  6
CONTINUOUS
 90
4
 70
0
 10
42.0590540497
 20
230.4513778113
 10
41.9222985031
 20
230.5286366857
 10
41.7751835974
 20
230.5962659228
 10
41.6231027345
 20
230.6517510616
  0
LINE
  5
236
100
AcDbEntity
  8
BEZUGSACHSEN
100
AcDbLine
 62
7
  6
CONTINUOUS
 10
188.8191072031
 20
149.1209654007
 11
188.8581706074
 21
147.8715614534
  0
LINE
  5
237
100
AcDbEntity
  8
RUNDUNGEN
100
AcDbLine
 62
7
  6
CONTINUOUS
 10
182.8581706074
 20
247.9327668304
 11
182.8581706074
 21
195.9327668304
  0
LINE
  5
238
100
AcDbEntity
  8
RUNDUNGEN
100
AcDbLine
 62
7
  6
CONTINUOUS
 10
183.8581706074
 20
193.819971638
 11
183.8581706074
 21
175.9939780513
  0
LINE
  5
239
100
AcDbEntity
  8
BEZUGSACHSEN
100
AcDbLine
 62
7
  6
CONTINUOUS
 10
183.8581706074
 20
175.9939722075
 11
183.8581706074
 21
193.8199749346
  0
LINE
  5
23A
100
AcDbEntity
  8
BEZUGSACHSEN
100
AcDbLine
 62
7
  6
CONTINUOUS
 10
188.8581706074
 20
147.8715614534
 11
188.8581706074
 21
78.4327668304
  0
LINE
  5
23B
100
AcDbEntity
  8
RUNDUNGEN
100
AcDbLine
 62
7
  6
CONTINUOUS
 10
189.8581706074
 20
248.9327668304
 11
189.8581706074
 21
196.4327668304
  0
LINE
  5
23C
100
AcDbEntity
  8
0
100
AcDbLine
 62
7
  6
CONTINUOUS
 10
252.2597963262
 20
228.9327668304
 11
249.5097963262
 21
226.1827668304
  0
LWPOLYLINE
  5
23D
100
AcDbEntity
  8
RUNDUNGEN
100
AcDbPolyline
 62
7
  6
CONTINUOUS
 90
4
 70
0
 10
343.0933059938
 20
230.651772786
 10
342.9412402847
 20
230.5963002826
 10
342.7941277934
 20
230.5286807503
 10
342.6571594375
 20
230.4513062243
  0
LINE
  5
23E
100
AcDbEntity
  8
BEZUGSACHSEN
100
AcDbLine
 62
7
  6
CONTINUOUS
 10
184.2785622127
 20
171.9148871252
 11
188.4377788872
 21
151.9506470873
  0
LINE
  5
23F
100
AcDbEntity
  8
RUNDUNGEN
100
AcDbLine
 62
7
  6
CONTINUOUS
 10
199.8581706074
 20
196.4327668304
 11
199.8581706074
 21
248.9327668304
  0
LINE
  5
240
100
AcDbEntity
  8
RUNDUNGEN
100
AcDbLine
 62
7
  6
CONTINUOUS
 10
200.8581706074
 20
147.8715614534
 11
200.8581706074
 21
78.4327668304
  0
LINE
  5
241
100
AcDbEntity
  8
RUNDUNGEN
100
AcDbLine
 62
7
  6
CONTINUOUS
 10
205.8581706074
 20
193.8199620915
 11
205.8581706074
 21
175.9939780513
  0
LINE
  5
242
100
AcDbEntity
  8
RUNDUNGEN
100
AcDbLine
 62
7
  6
CONTINUOUS
 10
206.8581706074
 20
247.9327668304
 11
206.8581706074
 21
195.9327668304
  0
LINE
  5
243
100
AcDbEntity
  8
RUNDUNGEN
100
AcDbLine
 62
7
  6
CONTINUOUS
 10
205.4377790022
 20
171.9148871252
 11
201.2785623276
 21
151.9506470873
  0
LINE
  5
244
100
AcDbEntity
  8
0
100
AcDbLine
 62
7
  6
CONTINUOUS
 10
137.4565448887
 20
228.9327668304
 11
140.2065448887
 21
226.1827668304
  0
LINE
  5
245
100
AcDbEntity
  8
BEZUGSACHSEN
100
AcDbLine
 62
7
  6
CONTINUOUS
 10
345.8024311488
 20
231.9912471828
 11
355.2754577035
 21
238.6243317861
  0
LINE
  5
246
100
AcDbEntity
  8
0
100
AcDbLine
 62
7
  6
CONTINUOUS
 10
178.1261197999
 20
205.664817638
 11
178.9299673772
 21
205.2007160229
  0
LINE
  5
247
100
AcDbEntity
  8
RUNDUNGEN
100
AcDbLine
 62
7
  6
CONTINUOUS
 10
386.7654797992
 20
204.2277174074
 11
396.9840196354
 21
208.5652302263
  0
LINE
  5
248
100
AcDbEntity
  8
RUNDUNGEN
100
AcDbLine
 62
7
  6
CONTINUOUS
 10
198.8581706074
 20
195.4327668304
 11
190.8581706074
 21
195.4327668304
  0
LINE
  5
249
100
AcDbEntity
  8
0
100
AcDbLine
 62
7
  6
CONTINUOUS
 10
189.9921452037
 20
195.9327668304
 11
199.7241960112
 21
195.9327668304
  0
LINE
  5
24A
100
AcDbEntity
  8
BEZUGSACHSEN
100
AcDbLine
 62
7
  6
CONTINUOUS
 10
71.3581706074
 20
202.9327668304
 11
68.3581706074
 21
202.9327668304
  0
LINE
  5
24B
100
AcDbEntity
  8
0
100
AcDbLine
 62
7
  6
CONTINUOUS
 10
92.8581706074
 20
202.9327668304
 11
100.9765357039
 21
202.9327668304
  0
LINE
  5
24C
100
AcDbEntity
  8
BEZUGSACHSEN
100
AcDbLine
 62
7
  6
CONTINUOUS
 10
23.7051714339
 20
203.4327668304
 11
1.8581718905
 21
203.4327668304
  0
LINE
  5
24D
100
AcDbEntity
  8
RUNDUNGEN
100
AcDbLine
 62
7
  6
CONTINUOUS
 10
361.011169781
 20
203.4327668304
 11
382.8581693244
 21
203.4327668304
  0
LINE
  5
24E
100
AcDbEntity
  8
0
100
AcDbLine
 62
7
  6
CONTINUOUS
 10
209.7863738377
 20
204.9327668304
 11
206.8581706074
 21
204.9327668304
  0
LINE
  5
24F
100
AcDbEntity
  8
0
100
AcDbLine
 62
7
  6
CONTINUOUS
 10
182.8581706074
 20
204.9327668304
 11
179.9299673772
 21
204.9327668304
  0
LINE
  5
250
100
AcDbEntity
  8
0
100
AcDbLine
 62
7
  6
CONTINUOUS
 10
110.9822377693
 20
205.9327668304
 11
177.1261197999
 21
205.9327668304
  0
LINE
  5
251
100
AcDbEntity
  8
0
100
AcDbLine
 62
7
  6
CONTINUOUS
 10
212.590221415
 20
205.9327668304
 11
296.3756947546
 21
205.9327668304
  0
LINE
  5
252
100
AcDbEntity
  8
0
100
AcDbLine
 62
7
  6
CONTINUOUS
 10
102.6866364205
 20
240.6312299344
 11
109.2721370527
 21
238.2343037265
  0
LINE
  5
253
100
AcDbEntity
  8
0
100
AcDbLine
 62
7
  6
CONTINUOUS
 10
242.2597963262
 20
217.6829577925
 11
242.2597963262
 21
226.1825758684
  0
LINE
  5
254
100
AcDbEntity
  8
0
100
AcDbLine
 62
7
  6
CONTINUOUS
 10
249.5097963262
 20
217.6827668304
 11
249.5097963262
 21
226.1827668304
  0
LINE
  5
255
100
AcDbEntity
  8
0
100
AcDbLine
 62
7
  6
CONTINUOUS
 10
252.2597963262
 20
214.9327668304
 11
252.2597963262
 21
228.9327668304
  0
LINE
  5
256
100
AcDbEntity
  8
RUNDUNGEN
100
AcDbLine
 62
7
  6
CONTINUOUS
 10
276.857927087
 20
213.9327668304
 11
211.8583595875
 21
213.9327668304
  0
LINE
  5
257
100
AcDbEntity
  8
RUNDUNGEN
100
AcDbLine
 62
7
  6
CONTINUOUS
 10
112.8581706074
 20
213.9327668304
 11
177.8581706074
 21
213.9327668304
  0
LINE
  5
258
100
AcDbEntity
  8
0
100
AcDbLine
 62
7
  6
CONTINUOUS
 10
211.8581706074
 20
213.9327668304
 11
212.590221415
 21
213.9327668304
  0
LINE
  5
259
100
AcDbEntity
  8
0
100
AcDbLine
 62
7
  6
CONTINUOUS
 10
337.3581706074
 20
214.9327668304
 11
298.8581706074
 21
214.9327668304
  0
LINE
  5
25A
100
AcDbEntity
  8
0
100
AcDbLine
 62
7
  6
CONTINUOUS
 10
279.8576650299
 20
214.9327668304
 11
252.2597963262
 21
214.9327668304
  0
LINE
  5
25B
100
AcDbEntity
  8
0
100
AcDbLine
 62
7
  6
CONTINUOUS
 10
47.3581706074
 20
214.9327668304
 11
66.8581706074
 21
214.9327668304
  0
LINE
  5
25C
100
AcDbEntity
  8
0
100
AcDbLine
 62
7
  6
CONTINUOUS
 10
71.8581706074
 20
214.9327668304
 11
91.8581706074
 21
214.9327668304
  0
LINE
  5
25D
100
AcDbEntity
  8
0
100
AcDbLine
 62
7
  6
CONTINUOUS
 10
109.8581706074
 20
214.9327668304
 11
137.4565448887
 21
214.9327668304
  0
LINE
  5
25E
100
AcDbEntity
  8
0
100
AcDbLine
 62
7
  6
CONTINUOUS
 10
47.3581706074
 20
215.3944184151
 11
66.8581706074
 21
215.3944184151
  0
LINE
  5
25F
100
AcDbEntity
  8
0
100
AcDbLine
 62
7
  6
CONTINUOUS
 10
71.8581706074
 20
215.3944184151
 11
91.8581706074
 21
215.3944184151
  0
LINE
  5
260
100
AcDbEntity
  8
0
100
AcDbLine
 62
7
  6
CONTINUOUS
 10
109.3260115957
 20
215.3944184151
 11
137.4565448887
 21
215.3944184151
  0
LINE
  5
261
100
AcDbEntity
  8
0
100
AcDbLine
 62
7
  6
CONTINUOUS
 10
249.5097963262
 20
217.6827668304
 11
242.2597963262
 21
217.6827668304
  0
LINE
  5
262
100
AcDbEntity
  8
0
100
AcDbLine
 62
7
  6
CONTINUOUS
 10
140.2065448887
 20
217.6827668304
 11
147.4565448887
 21
217.6827668304
  0
LINE
  5
263
100
AcDbEntity
  8
BEZUGSACHSEN
100
AcDbLine
 62
7
  6
CONTINUOUS
 10
1.6281114797
 20
217.9327668304
 11
-8.0521249057
 21
217.9327668304
  0
LINE
  5
264
100
AcDbEntity
  8
RUNDUNGEN
100
AcDbLine
 62
7
  6
CONTINUOUS
 10
383.0882297352
 20
217.9327668304
 11
392.7684661206
 21
217.9327668304
  0
LINE
  5
265
100
AcDbEntity
  8
0
100
AcDbLine
 62
7
  6
CONTINUOUS
 10
140.2065448887
 20
218.4958350592
 11
147.4565448887
 21
218.4958350592
  0
LINE
  5
266
100
AcDbEntity
  8
0
100
AcDbLine
 62
7
  6
CONTINUOUS
 10
47.4565448887
 20
219.4327668304
 11
66.8581706074
 21
219.4327668304
  0
LINE
  5
267
100
AcDbEntity
  8
0
100
AcDbLine
 62
7
  6
CONTINUOUS
 10
71.8581706074
 20
219.4327668304
 11
91.8581706074
 21
219.4327668304
  0
LINE
  5
268
100
AcDbEntity
  8
0
100
AcDbLine
 62
7
  6
CONTINUOUS
 10
107.8581706074
 20
219.4327668304
 11
147.4565448887
 21
219.4327668304
  0
LINE
  5
269
100
AcDbEntity
  8
RUNDUNGEN
100
AcDbLine
 62
7
  6
CONTINUOUS
 10
1.6281114797
 20
225.9327668304
 11
-8.0521249057
 21
225.9327668304
  0
LINE
  5
26A
100
AcDbEntity
  8
BEZUGSACHSEN
100
AcDbLine
 62
7
  6
CONTINUOUS
 10
383.0882297352
 20
225.9327668304
 11
392.7684661206
 21
225.9327668304
  0
LINE
  5
26B
100
AcDbEntity
  8
0
100
AcDbLine
 62
7
  6
CONTINUOUS
 10
249.5097963262
 20
226.1827668304
 11
242.2597963262
 21
226.1827668304
  0
LINE
  5
26C
100
AcDbEntity
  8
0
100
AcDbLine
 62
7
  6
CONTINUOUS
 10
140.2065448887
 20
226.1827668304
 11
147.4565448887
 21
226.1827668304
  0
LINE
  5
26D
100
AcDbEntity
  8
0
100
AcDbLine
 62
7
  6
CONTINUOUS
 10
337.3581706074
 20
228.9327668304
 11
298.8581706074
 21
228.9327668304
  0
LINE
  5
26E
100
AcDbEntity
  8
0
100
AcDbLine
 62
7
  6
CONTINUOUS
 10
279.8533239567
 20
228.9327668304
 11
252.2597963262
 21
228.9327668304
  0
LINE
  5
26F
100
AcDbEntity
  8
0
100
AcDbLine
 62
7
  6
CONTINUOUS
 10
47.3581706074
 20
228.9327668304
 11
66.8581706074
 21
228.9327668304
  0
LINE
  5
270
100
AcDbEntity
  8
0
100
AcDbLine
 62
7
  6
CONTINUOUS
 10
71.8581706074
 20
228.9327668304
 11
91.8581706074
 21
228.9327668304
  0
LINE
  5
271
100
AcDbEntity
  8
0
100
AcDbLine
 62
7
  6
CONTINUOUS
 10
109.8596799008
 20
228.9327668304
 11
137.4565448887
 21
228.9327668304
  0
LINE
  5
272
100
AcDbEntity
  8
0
100
AcDbLine
 62
7
  6
CONTINUOUS
 10
212.590221415
 20
229.9327668304
 11
211.8581706074
 21
229.9327668304
  0
LINE
  5
273
100
AcDbEntity
  8
RUNDUNGEN
100
AcDbLine
 62
7
  6
CONTINUOUS
 10
177.8581706074
 20
229.9327668304
 11
112.8582159787
 21
229.9327668304
  0
LINE
  5
274
100
AcDbEntity
  8
RUNDUNGEN
100
AcDbLine
 62
7
  6
CONTINUOUS
 10
211.8581706074
 20
229.9327668304
 11
276.8581040232
 21
229.9327668304
  0
LINE
  5
275
100
AcDbEntity
  8
0
100
AcDbLine
 62
7
  6
CONTINUOUS
 10
110.9822377693
 20
237.9327668304
 11
177.1261197999
 21
237.9327668304
  0
LINE
  5
276
100
AcDbEntity
  8
0
100
AcDbLine
 62
7
  6
CONTINUOUS
 10
212.590221415
 20
237.9327668304
 11
296.3756947546
 21
237.9327668304
  0
LINE
  5
277
100
AcDbEntity
  8
0
100
AcDbLine
 62
7
  6
CONTINUOUS
 10
209.7863738377
 20
238.9327668304
 11
206.8581706074
 21
238.9327668304
  0
LINE
  5
278
100
AcDbEntity
  8
0
100
AcDbLine
 62
7
  6
CONTINUOUS
 10
182.8581706074
 20
238.9327668304
 11
179.9299673772
 21
238.9327668304
  0
LINE
  5
279
100
AcDbEntity
  8
0
100
AcDbLine
 62
7
  6
CONTINUOUS
 10
210.7863738377
 20
238.664817638
 11
211.590221415
 21
238.2007160229
  0
LINE
  5
27A
100
AcDbEntity
  8
RUNDUNGEN
100
AcDbLine
 62
7
  6
CONTINUOUS
 10
281.8581706074
 20
218.9330180425
 11
281.8581706074
 21
224.9325401134
  0
LINE
  5
27B
100
AcDbEntity
  8
RUNDUNGEN
100
AcDbLine
 62
7
  6
CONTINUOUS
 10
23.7051714339
 20
240.4327668304
 11
1.8581718905
 21
240.4327668304
  0
LINE
  5
27C
100
AcDbEntity
  8
BEZUGSACHSEN
100
AcDbLine
 62
7
  6
CONTINUOUS
 10
361.011169781
 20
240.4327668304
 11
382.8581693244
 21
240.4327668304
  0
LINE
  5
27D
100
AcDbEntity
  8
RUNDUNGEN
100
AcDbLine
 62
7
  6
CONTINUOUS
 10
100.9765357039
 20
240.9327668304
 11
92.8581706074
 21
240.9327668304
  0
LINE
  5
27E
100
AcDbEntity
  8
BEZUGSACHSEN
100
AcDbLine
 62
7
  6
CONTINUOUS
 10
71.3581706074
 20
240.9327668304
 11
68.3581706074
 21
240.9327668304
  0
LINE
  5
27F
100
AcDbEntity
  8
0
100
AcDbLine
 62
7
  6
CONTINUOUS
 10
92.8581706074
 20
240.9327668304
 11
100.9765357039
 21
240.9327668304
  0
LINE
  5
280
100
AcDbEntity
  8
0
100
AcDbLine
 62
7
  6
CONTINUOUS
 10
189.8581706074
 20
247.9327668304
 11
199.8581706074
 21
247.9327668304
  0
LINE
  5
281
100
AcDbEntity
  8
0
100
AcDbLine
 62
7
  6
CONTINUOUS
 10
183.8581706074
 20
248.9327668304
 11
189.8581706074
 21
248.9327668304
  0
LINE
  5
282
100
AcDbEntity
  8
0
100
AcDbLine
 62
7
  6
CONTINUOUS
 10
199.8581706074
 20
248.9327668304
 11
205.8581706074
 21
248.9327668304
  0
LINE
  5
283
100
AcDbEntity
  8
0
100
AcDbLine
 62
7
  6
CONTINUOUS
 10
252.2597963262
 20
214.9327668304
 11
249.5097963262
 21
217.6827668304
  0
LINE
  5
284
100
AcDbEntity
  8
0
100
AcDbLine
 62
7
  6
CONTINUOUS
 10
298.8581706074
 20
231.4471312847
 11
298.8581706074
 21
212.4184023762
  0
LINE
  5
285
100
AcDbEntity
  8
0
100
AcDbLine
 62
7
  6
CONTINUOUS
 10
298.3647385453
 20
207.7237099039
 11
298.8581706074
 21
212.4184023762
  0
LINE
  5
286
100
AcDbEntity
  8
0
100
AcDbLine
 62
7
  6
CONTINUOUS
 10
298.3647385453
 20
236.141823757
 11
298.8581706074
 21
231.4471312847
  0
LWPOLYLINE
  5
287
100
AcDbEntity
  8
RUNDUNGEN
100
AcDbPolyline
 62
7
  6
CONTINUOUS
 90
4
 70
0
 10
342.6572673397
 20
213.4141674712
 10
342.79405251
 20
213.3368922555
 10
342.9411650976
 20
213.2692647987
 10
343.0932415956
 20
213.2137816663
  0
LINE
  5
288
100
AcDbEntity
  8
RUNDUNGEN
100
AcDbLine
 62
7
  6
CONTINUOUS
 10
345.8024311488
 20
211.8742864781
 11
355.2754577035
 21
205.2412018748
  0
LINE
  5
289
100
AcDbEntity
  8
BEZUGSACHSEN
100
AcDbLine
 62
7
  6
CONTINUOUS
 10
386.7654797992
 20
239.6378162534
 11
396.9840196354
 21
235.3003034346
  0
LWPOLYLINE
  5
28A
100
AcDbEntity
  8
BEZUGSACHSEN
100
AcDbPolyline
 62
7
  6
CONTINUOUS
 90
9
 70
0
 10
401.2597962678
 20
226.4327668304
 10
401.2576725316
 20
226.9412206798
 10
401.2484712386
 20
227.6056026261
 10
401.231945397
 20
228.2683461647
 10
401.2080815772
 20
228.9268319382
 10
401.1769013167
 20
229.5784713182
 10
401.1384606742
 20
230.2206922566
 10
401.0928486657
 20
230.8509685362
 10
401.0541629743
 20
231.3125711626
  0
LINE
  5
28B
100
AcDbEntity
  8
BEZUGSACHSEN
100
AcDbLine
 62
7
  6
CONTINUOUS
 10
393.7684661206
 20
218.9327316407
 11
393.7684661206
 21
224.9328020201
  0
LWPOLYLINE
  5
28C
100
AcDbEntity
  8
RUNDUNGEN
100
AcDbPolyline
 62
7
  6
CONTINUOUS
 90
9
 70
0
 10
401.0541629743
 20
212.5529624983
 10
401.0928486657
 20
213.0145651247
 10
401.1384606742
 20
213.6448414043
 10
401.1769013167
 20
214.2870623426
 10
401.2080815772
 20
214.9387017226
 10
401.231945397
 20
215.5971874962
 10
401.2484712386
 20
216.2599310348
 10
401.2576725316
 20
216.924312981
 10
401.2597963262
 20
226.4327668304
  0
LINE
  5
28D
100
AcDbEntity
  8
RUNDUNGEN
100
AcDbLine
 62
7
  6
CONTINUOUS
 10
401.0529055498
 20
212.5536044722
 11
401.0506359692
 21
212.5360442458
  0
LINE
  5
28E
100
AcDbEntity
  8
BEZUGSACHSEN
100
AcDbLine
 62
7
  6
CONTINUOUS
 10
401.0529055498
 20
231.3119291886
 11
401.0506359692
 21
231.329489415
  0
LINE
  5
28F
100
AcDbEntity
  8
RUNDUNGEN
100
AcDbLine
 62
7
  6
CONTINUOUS
 10
-16.5282628643
 20
374.026425052
 11
-16.330595333
 21
372.9053967754
  0
LINE
  5
290
100
AcDbEntity
  8
BEZUGSACHSEN
100
AcDbLine
 62
7
  6
CONTINUOUS
 10
-16.5282628643
 20
374.026425052
 11
-13.7314538402
 21
358.1649328807
  0
LINE
  5
291
100
AcDbEntity
  8
BEZUGSACHSEN
100
AcDbLine
 62
7
  6
CONTINUOUS
 10
-2.5883508267
 20
361.1732260647
 11
-11.1570197723
 21
376.6315140417
  0
LINE
  5
292
100
AcDbEntity
  8
0
100
AcDbLine
 62
7
  6
CONTINUOUS
 10
42.9565448887
 20
358.9219398966
 11
42.9565448887
 21
357.5061337488
  0
LINE
  5
293
100
AcDbEntity
  8
RUNDUNGEN
100
AcDbLine
 62
7
  6
CONTINUOUS
 10
66.8581706074
 20
337.5061337488
 11
66.8581706074
 21
372.5061337488
  0
LINE
  5
294
100
AcDbEntity
  8
RUNDUNGEN
100
AcDbLine
 62
7
  6
CONTINUOUS
 10
71.8581706074
 20
373.5061337488
 11
71.8581706074
 21
336.5061337488
  0
LINE
  5
295
100
AcDbEntity
  8
BEZUGSACHSEN
100
AcDbLine
 62
7
  6
CONTINUOUS
 10
-12.5164490997
 20
377.0213241286
 11
-16.0282647315
 21
375.0746929368
  0
LINE
  5
296
100
AcDbEntity
  8
RUNDUNGEN
100
AcDbLine
 62
7
  6
CONTINUOUS
 10
91.8581706074
 20
373.0061337488
 11
91.8581706074
 21
337.0061337488
  0
LINE
  5
297
100
AcDbEntity
  8
RUNDUNGEN
100
AcDbLine
 62
7
  6
CONTINUOUS
 10
97.8581706074
 20
372.3008532968
 11
97.8581706074
 21
374.0060352692
  0
LINE
  5
298
100
AcDbEntity
  8
RUNDUNGEN
100
AcDbLine
 62
7
  6
CONTINUOUS
 10
117.3581706074
 20
341.0061337488
 11
117.3581706074
 21
339.5061337488
  0
LINE
  5
299
100
AcDbEntity
  8
0
100
AcDbLine
 62
7
  6
CONTINUOUS
 10
129.5581706074
 20
342.0061337488
 11
129.5581706074
 21
341.0061337488
  0
LINE
  5
29A
100
AcDbEntity
  8
0
100
AcDbLine
 62
7
  6
CONTINUOUS
 10
130.9581706074
 20
342.0061337488
 11
130.9581706074
 21
341.0061337488
  0
LINE
  5
29B
100
AcDbEntity
  8
0
100
AcDbLine
 62
7
  6
CONTINUOUS
 10
133.7581706074
 20
342.0061337488
 11
133.7581706074
 21
341.0061337488
  0
LINE
  5
29C
100
AcDbEntity
  8
0
100
AcDbLine
 62
7
  6
CONTINUOUS
 10
135.1581706074
 20
342.0061337488
 11
135.1581706074
 21
341.0061337488
  0
LWPOLYLINE
  5
29D
100
AcDbEntity
  8
RUNDUNGEN
100
AcDbPolyline
 62
7
  6
CONTINUOUS
 90
4
 70
0
 10
109.4175733765
 20
368.6489398291
 10
109.1076068763
 20
368.9866925049
 10
108.8348435255
 20
369.2931813574
 10
108.5941675216
 20
369.5722871829
  0
LINE
  5
29E
100
AcDbEntity
  8
RUNDUNGEN
100
AcDbLine
 62
7
  6
CONTINUOUS
 10
109.1160244372
 20
368.9773726168
 11
109.111595345
 21
368.982344627
  0
LINE
  5
29F
100
AcDbEntity
  8
RUNDUNGEN
100
AcDbLine
 62
7
  6
CONTINUOUS
 10
108.6013244447
 20
369.5638590428
 11
108.4654827157
 21
369.7256257251
  0
LINE
  5
2A0
100
AcDbEntity
  8
RUNDUNGEN
100
AcDbLine
 62
7
  6
CONTINUOUS
 10
108.4654714824
 20
369.7256153519
 11
108.4654052969
 21
369.7256950732
  0
LWPOLYLINE
  5
2A1
100
AcDbEntity
  8
RUNDUNGEN
100
AcDbPolyline
 62
7
  6
CONTINUOUS
 90
6
 70
0
 10
110.7325756266
 20
367.3939699373
 10
110.5898528062
 20
367.502615846
 10
110.4480729708
 20
367.6191150476
 10
110.3081348102
 20
367.7421237619
 10
110.1697920622
 20
367.8712723566
 10
110.0327533523
 20
368.0063833363
  0
LWPOLYLINE
  5
2A2
100
AcDbEntity
  8
RUNDUNGEN
100
AcDbPolyline
 62
7
  6
CONTINUOUS
 90
3
 70
0
 10
110.0150149035
 20
368.0244003036
 10
109.7519279899
 20
368.29535324
 10
109.4131077656
 20
368.6536623005
  0
LINE
  5
2A3
100
AcDbEntity
  8
0
100
AcDbLine
 62
7
  6
CONTINUOUS
 10
183.8581706074
 20
328.0061337488
 11
189.8581706074
 21
328.0061337488
  0
LINE
  5
2A4
100
AcDbEntity
  8
0
100
AcDbLine
 62
7
  6
CONTINUOUS
 10
199.8581706074
 20
328.0061337488
 11
205.8581706074
 21
328.0061337488
  0
LINE
  5
2A5
100
AcDbEntity
  8
0
100
AcDbLine
 62
7
  6
CONTINUOUS
 10
189.8581706074
 20
329.0061337488
 11
199.8581706074
 21
329.0061337488
  0
LINE
  5
2A6
100
AcDbEntity
  8
RUNDUNGEN
100
AcDbLine
 62
7
  6
CONTINUOUS
 10
167.3581706074
 20
341.0061213166
 11
167.3581706074
 21
339.5061337488
  0
LINE
  5
2A7
100
AcDbEntity
  8
RUNDUNGEN
100
AcDbLine
 62
7
  6
CONTINUOUS
 10
178.5030570175
 20
367.8606604966
 11
178.2826589957
 21
367.6380325946
  0
LINE
  5
2A8
100
AcDbEntity
  8
RUNDUNGEN
100
AcDbLine
 62
7
  6
CONTINUOUS
 10
178.294302926
 20
367.6497038047
 11
178.1105015081
 21
367.4666846866
  0
LINE
  5
2A9
100
AcDbEntity
  8
RUNDUNGEN
100
AcDbLine
 62
7
  6
CONTINUOUS
 10
178.1222484064
 20
367.4783031535
 11
177.9391885572
 21
367.2984969356
  0
LINE
  5
2AA
100
AcDbEntity
  8
RUNDUNGEN
100
AcDbLine
 62
7
  6
CONTINUOUS
 10
177.9510069151
 20
367.3100233616
 11
177.7687574501
 21
367.1335696884
  0
LWPOLYLINE
  5
2AB
100
AcDbEntity
  8
RUNDUNGEN
100
AcDbPolyline
 62
7
  6
CONTINUOUS
 90
50
 70
0
 10
177.7806141939
 20
367.1449640608
 10
177.737325779
 20
367.1034352204
 10
177.7289240194
 20
367.0954717789
 10
177.7205479017
 20
367.0876115127
 10
177.7121959845
 20
367.079852728
 10
177.7038706728
 20
367.0721973243
 10
177.6955660564
 20
367.0646396041
 10
177.6872782528
 20
367.0571759341
 10
177.6790042518
 20
367.0498036286
 10
177.6707408191
 20
367.0425199498
 10
177.6624855442
 20
367.035323031
 10
177.654235849
 20
367.0282109912
 10
177.6459899365
 20
367.021182752
 10
177.637745897
 20
367.0142372553
 10
177.6295025648
 20
367.0073741839
 10
177.6212587153
 20
367.0005932729
 10
177.6130138373
 20
366.9938949432
 10
177.6047673718
 20
366.9872796645
 10
177.5965196135
 20
366.9807486741
 10
177.5882707714
 20
366.9743032105
 10
177.5800222927
 20
366.9679454635
 10
177.571776439
 20
366.9616780746
 10
177.5635353045
 20
366.9555035205
 10
177.5552995183
 20
366.9494232062
 10
177.547078177
 20
366.9434447235
 10
177.5388455394
 20
366.9375506251
 10
177.5307083302
 20
366.9318173376
 10
177.5227822141
 20
366.9263226806
 10
177.5149958094
 20
366.9210128264
 10
177.5073444314
 20
366.9158816082
 10
177.4997517294
 20
366.9108763184
 10
177.49216174
 20
366.9059609582
 10
177.4845324431
 20
366.9011111427
 10
177.4768211208
 20
366.8963044205
 10
177.4690022953
 20
366.89153136
 10
177.4610512954
 20
366.8867843402
 10
177.4529592005
 20
366.882066366
 10
177.4447200132
 20
366.8773834092
 10
177.4363447686
 20
366.8727521441
 10
177.4278492496
 20
366.8681923689
 10
177.4192690723
 20
366.863734582
 10
177.4106464065
 20
366.8594119681
 10
177.4020464749
 20
366.8552678558
 10
177.3935541608
 20
366.8513521804
 10
177.3852330289
 20
366.8477013064
 10
177.3773235171
 20
366.844416813
 10
177.3694618856
 20
366.8413495714
 10
177.361871863
 20
366.8385979
 10
177.3540250871
 20
366.8360055892
 10
177.3464469244
 20
366.8338074127
  0
LWPOLYLINE
  5
2AC
100
AcDbEntity
  8
RUNDUNGEN
100
AcDbPolyline
 62
7
  6
CONTINUOUS
 90
18
 70
0
 10
182.8581706074
 20
370.2535792943
 10
182.8378291299
 20
370.2342205583
 10
182.7486104585
 20
370.153878749
 10
182.6445755037
 20
370.064914082
 10
182.5256508157
 20
369.9681398135
 10
182.3910859825
 20
369.8638377687
 10
182.2402134518
 20
369.7524532965
 10
182.0721655083
 20
369.6344073037
 10
181.8858629593
 20
369.5101453249
 10
181.6807053026
 20
369.380635334
 10
181.4561589513
 20
369.247097199
 10
181.2112411347
 20
369.1107300779
 10
180.9454830959
 20
368.9732978465
 10
180.6575303573
 20
368.8365522266
 10
180.3469049233
 20
368.7031559061
 10
180.0118816276
 20
368.5756979795
 10
179.6508043479
 20
368.4577889079
 10
179.4226119231
 20
368.3938503913
  0
LINE
  5
2AD
100
AcDbEntity
  8
BEZUGSACHSEN
100
AcDbLine
 62
7
  6
CONTINUOUS
 10
71.3581706074
 20
336.0061337488
 11
68.3581706074
 21
336.0061337488
  0
LINE
  5
2AE
100
AcDbEntity
  8
RUNDUNGEN
100
AcDbLine
 62
7
  6
CONTINUOUS
 10
71.3581706074
 20
336.0061337488
 11
68.3581706074
 21
336.0061337488
  0
LINE
  5
2AF
100
AcDbEntity
  8
0
100
AcDbLine
 62
7
  6
CONTINUOUS
 10
92.8581706074
 20
336.0061337488
 11
100.9765357039
 21
336.0061337488
  0
LINE
  5
2B0
100
AcDbEntity
  8
RUNDUNGEN
100
AcDbLine
 62
7
  6
CONTINUOUS
 10
373.8276005997
 20
337.5061337488
 11
364.85817394
 21
337.5061337488
  0
LINE
  5
2B1
100
AcDbEntity
  8
BEZUGSACHSEN
100
AcDbLine
 62
7
  6
CONTINUOUS
 10
19.8581706074
 20
337.5061337488
 11
10.8887406152
 21
337.5061337488
  0
LINE
  5
2B2
100
AcDbEntity
  8
0
100
AcDbLine
 62
7
  6
CONTINUOUS
 10
209.7863738377
 20
338.0061337488
 11
206.8581706074
 21
338.0061337488
  0
LINE
  5
2B3
100
AcDbEntity
  8
0
100
AcDbLine
 62
7
  6
CONTINUOUS
 10
182.8581706074
 20
338.0061337488
 11
179.9299673772
 21
338.0061337488
  0
LINE
  5
2B4
100
AcDbEntity
  8
RUNDUNGEN
100
AcDbLine
 62
7
  6
CONTINUOUS
 10
296.3756947546
 20
339.0061337488
 11
279.6157383491
 21
339.0061337488
  0
LINE
  5
2B5
100
AcDbEntity
  8
0
100
AcDbLine
 62
7
  6
CONTINUOUS
 10
110.9822377693
 20
339.0061337488
 11
116.8581706074
 21
339.0061337488
  0
LINE
  5
2B6
100
AcDbEntity
  8
0
100
AcDbLine
 62
7
  6
CONTINUOUS
 10
167.8581706074
 20
339.0061337488
 11
177.1261197999
 21
339.0061337488
  0
LINE
  5
2B7
100
AcDbEntity
  8
0
100
AcDbLine
 62
7
  6
CONTINUOUS
 10
212.590221415
 20
339.0061337488
 11
229.8581706074
 21
339.0061337488
  0
LINE
  5
2B8
100
AcDbEntity
  8
0
100
AcDbLine
 62
7
  6
CONTINUOUS
 10
272.8581706074
 20
339.0061337488
 11
296.3756947546
 21
339.0061337488
  0
LINE
  5
2B9
100
AcDbEntity
  8
0
100
AcDbLine
 62
7
  6
CONTINUOUS
 10
260.2331706074
 20
341.0061337488
 11
255.7331706074
 21
341.0061337488
  0
LINE
  5
2BA
100
AcDbEntity
  8
0
100
AcDbLine
 62
7
  6
CONTINUOUS
 10
254.7331701306
 20
341.0061337488
 11
249.9831710843
 21
341.0061337488
  0
LINE
  5
2BB
100
AcDbEntity
  8
0
100
AcDbLine
 62
7
  6
CONTINUOUS
 10
248.9831706074
 20
341.0061337488
 11
244.2331708459
 21
341.0061337488
  0
LINE
  5
2BC
100
AcDbEntity
  8
0
100
AcDbLine
 62
7
  6
CONTINUOUS
 10
243.233170369
 20
341.0061337488
 11
238.7331707266
 21
341.0061337488
  0
LINE
  5
2BD
100
AcDbEntity
  8
0
100
AcDbLine
 62
7
  6
CONTINUOUS
 10
237.7331706074
 20
341.0061337488
 11
232.8581706074
 21
341.0061337488
  0
LINE
  5
2BE
100
AcDbEntity
  8
0
100
AcDbLine
 62
7
  6
CONTINUOUS
 10
135.1581706074
 20
341.0061337488
 11
129.5581706074
 21
341.0061337488
  0
LINE
  5
2BF
100
AcDbEntity
  8
RUNDUNGEN
100
AcDbLine
 62
7
  6
CONTINUOUS
 10
118.3581706074
 20
342.0061337488
 11
166.3581706074
 21
342.0061337488
  0
LINE
  5
2C0
100
AcDbEntity
  8
RUNDUNGEN
100
AcDbLine
 62
7
  6
CONTINUOUS
 10
231.3581706074
 20
342.0061337488
 11
271.3581706074
 21
342.0061337488
  0
LINE
  5
2C1
100
AcDbEntity
  8
BEZUGSACHSEN
100
AcDbLine
 62
7
  6
CONTINUOUS
 10
198.7785252457
 20
342.5061337488
 11
190.8581706074
 21
342.5061337488
  0
LINE
  5
2C2
100
AcDbEntity
  8
RUNDUNGEN
100
AcDbLine
 62
7
  6
CONTINUOUS
 10
198.8581706074
 20
342.5061337488
 11
190.9378159691
 21
342.5061337488
  0
LINE
  5
2C3
100
AcDbEntity
  8
BEZUGSACHSEN
100
AcDbLine
 62
7
  6
CONTINUOUS
 10
197.8581706074
 20
344.0061337488
 11
191.8581706074
 21
344.0061337488
  0
LINE
  5
2C4
100
AcDbEntity
  8
RUNDUNGEN
100
AcDbLine
 62
7
  6
CONTINUOUS
 10
111.5039065888
 20
366.9895327863
 11
111.5027052856
 21
366.9898608735
  0
LINE
  5
2C5
100
AcDbEntity
  8
RUNDUNGEN
100
AcDbLine
 62
7
  6
CONTINUOUS
 10
102.5588473339
 20
372.2195403361
 11
102.1958130649
 21
372.3271728123
  0
LWPOLYLINE
  5
2C6
100
AcDbEntity
  8
RUNDUNGEN
100
AcDbPolyline
 62
7
  6
CONTINUOUS
 90
11
 70
0
 10
111.5039109067
 20
366.9895492486
 10
111.4220817806
 20
367.0143242611
 10
111.2391428374
 20
367.0879477448
 10
111.0642760028
 20
367.1781843394
 10
110.8943146324
 20
367.2820177654
 10
110.7220613423
 20
367.4016677242
 10
110.5515435416
 20
367.5332688992
 10
110.3821102988
 20
367.6761245786
 10
110.2148105807
 20
367.8284373977
 10
110.0495149856
 20
367.9894793448
 10
110.0150799921
 20
368.0243202371
  0
LINE
  5
2C7
100
AcDbEntity
  8
RUNDUNGEN
100
AcDbLine
 62
7
  6
CONTINUOUS
 10
102.7020381912
 20
372.1685807778
 11
102.5423582651
 21
372.2250925484
  0
LWPOLYLINE
  5
2C8
100
AcDbEntity
  8
RUNDUNGEN
100
AcDbPolyline
 62
7
  6
CONTINUOUS
 90
5
 70
0
 10
111.4478601263
 20
367.0065194748
 10
111.3069828125
 20
367.0579595605
 10
111.1600756194
 20
367.1265110224
 10
111.016871159
 20
367.2056466617
 10
110.8740569944
 20
367.2953579701
  0
LINE
  5
2C9
100
AcDbEntity
  8
RUNDUNGEN
100
AcDbLine
 62
7
  6
CONTINUOUS
 10
107.6322813886
 20
370.3194765675
 11
102.7020404598
 21
372.1685836625
  0
LINE
  5
2CA
100
AcDbEntity
  8
0
100
AcDbLine
 62
7
  6
CONTINUOUS
 10
178.1261197999
 20
338.7381845564
 11
178.9299673772
 21
338.2740829412
  0
LINE
  5
2CB
100
AcDbEntity
  8
RUNDUNGEN
100
AcDbLine
 62
7
  6
CONTINUOUS
 10
177.3464469244
 20
366.8338074127
 11
177.4921446679
 21
366.2833040455
  0
LINE
  5
2CC
100
AcDbEntity
  8
RUNDUNGEN
100
AcDbLine
 62
7
  6
CONTINUOUS
 10
182.8581706074
 20
381.0061337488
 11
182.8581706074
 21
329.0061337488
  0
LINE
  5
2CD
100
AcDbEntity
  8
BEZUGSACHSEN
100
AcDbLine
 62
7
  6
CONTINUOUS
 10
183.8581706074
 20
360.5061337488
 11
183.8581706074
 21
349.5061337488
  0
LINE
  5
2CE
100
AcDbEntity
  8
BEZUGSACHSEN
100
AcDbLine
 62
7
  6
CONTINUOUS
 10
188.8581706074
 20
363.0061337488
 11
188.8581706074
 21
347.0061337488
  0
LINE
  5
2CF
100
AcDbEntity
  8
RUNDUNGEN
100
AcDbLine
 62
7
  6
CONTINUOUS
 10
189.8581706074
 20
382.0060465952
 11
189.8581706074
 21
367.4445266703
  0
LINE
  5
2D0
100
AcDbEntity
  8
RUNDUNGEN
100
AcDbLine
 62
7
  6
CONTINUOUS
 10
189.8581706074
 20
342.5677404279
 11
189.8581706074
 21
328.0062209024
  0
LINE
  5
2D1
100
AcDbEntity
  8
0
100
AcDbLine
 62
7
  6
CONTINUOUS
 10
102.6866364205
 20
336.3076706449
 11
109.2721370527
 21
338.7045968527
  0
LINE
  5
2D2
100
AcDbEntity
  8
0
100
AcDbLine
 62
7
  6
CONTINUOUS
 10
337.3581706074
 20
348.0061337488
 11
298.8581706074
 21
348.0061337488
  0
LINE
  5
2D3
100
AcDbEntity
  8
0
100
AcDbLine
 62
7
  6
CONTINUOUS
 10
47.3581706074
 20
348.0061337488
 11
66.8581706074
 21
348.0061337488
  0
LINE
  5
2D4
100
AcDbEntity
  8
0
100
AcDbLine
 62
7
  6
CONTINUOUS
 10
71.8581706074
 20
348.0061337488
 11
91.8581706074
 21
348.0061337488
  0
LINE
  5
2D5
100
AcDbEntity
  8
BEZUGSACHSEN
100
AcDbLine
 62
7
  6
CONTINUOUS
 10
19.858161841
 20
355.5061337488
 11
7.03246492
 21
355.5061337488
  0
LINE
  5
2D6
100
AcDbEntity
  8
RUNDUNGEN
100
AcDbLine
 62
7
  6
CONTINUOUS
 10
364.8581793738
 20
355.5061337488
 11
377.6838762948
 21
355.5061337488
  0
LINE
  5
2D7
100
AcDbEntity
  8
0
100
AcDbLine
 62
7
  6
CONTINUOUS
 10
42.9565448887
 20
357.5061337488
 11
66.8581706074
 21
357.5061337488
  0
LINE
  5
2D8
100
AcDbEntity
  8
0
100
AcDbLine
 62
7
  6
CONTINUOUS
 10
71.8581706074
 20
357.5061337488
 11
91.8581706074
 21
357.5061337488
  0
LINE
  5
2D9
100
AcDbEntity
  8
0
100
AcDbLine
 62
7
  6
CONTINUOUS
 10
47.4565448887
 20
361.5444821641
 11
66.8581706074
 21
361.5444821641
  0
LINE
  5
2DA
100
AcDbEntity
  8
0
100
AcDbLine
 62
7
  6
CONTINUOUS
 10
71.8581706074
 20
361.5444821641
 11
91.8581706074
 21
361.5444821641
  0
LINE
  5
2DB
100
AcDbEntity
  8
RUNDUNGEN
100
AcDbLine
 62
7
  6
CONTINUOUS
 10
112.5202492996
 20
366.8158287152
 11
112.2096629139
 21
366.8471715222
  0
LINE
  5
2DC
100
AcDbEntity
  8
RUNDUNGEN
100
AcDbLine
 62
7
  6
CONTINUOUS
 10
101.8602947752
 20
372.4004700687
 11
101.4860399995
 21
372.4539450492
  0
LWPOLYLINE
  5
2DD
100
AcDbEntity
  8
RUNDUNGEN
100
AcDbPolyline
 62
7
  6
CONTINUOUS
 90
4
 70
0
 10
112.2275017741
 20
366.8448577178
 10
111.9091664611
 20
366.8959461024
 10
111.6045846484
 20
366.9633687694
 10
111.5027052856
 20
366.9898608735
  0
LINE
  5
2DE
100
AcDbEntity
  8
RUNDUNGEN
100
AcDbLine
 62
7
  6
CONTINUOUS
 10
102.2127107134
 20
372.3228286954
 11
101.8431032352
 21
372.4035716823
  0
LINE
  5
2DF
100
AcDbEntity
  8
RUNDUNGEN
100
AcDbLine
 62
7
  6
CONTINUOUS
 10
199.8581706074
 20
328.0062209024
 11
199.8581706074
 21
342.5677409562
  0
LINE
  5
2E0
100
AcDbEntity
  8
RUNDUNGEN
100
AcDbLine
 62
7
  6
CONTINUOUS
 10
199.8581706074
 20
367.4445270712
 11
199.8581706074
 21
382.0060465952
  0
LINE
  5
2E1
100
AcDbEntity
  8
RUNDUNGEN
100
AcDbLine
 62
7
  6
CONTINUOUS
 10
200.8581706074
 20
363.0061337488
 11
200.8581706074
 21
347.0061337488
  0
LINE
  5
2E2
100
AcDbEntity
  8
RUNDUNGEN
100
AcDbLine
 62
7
  6
CONTINUOUS
 10
205.8581706074
 20
360.5061337488
 11
205.8581706074
 21
349.5061337488
  0
LINE
  5
2E3
100
AcDbEntity
  8
RUNDUNGEN
100
AcDbLine
 62
7
  6
CONTINUOUS
 10
206.8581706074
 20
381.0060498549
 11
206.8581706074
 21
329.0062176427
  0
LINE
  5
2E4
100
AcDbEntity
  8
RUNDUNGEN
100
AcDbLine
 62
7
  6
CONTINUOUS
 10
179.4225790758
 20
368.3938272236
 11
179.4229778287
 21
368.3939321818
  0
LINE
  5
2E5
100
AcDbEntity
  8
RUNDUNGEN
100
AcDbLine
 62
7
  6
CONTINUOUS
 10
177.3464587733
 20
366.8338183355
 11
177.3265277583
 21
366.8287676946
  0
LWPOLYLINE
  5
2E6
100
AcDbEntity
  8
RUNDUNGEN
100
AcDbPolyline
 62
7
  6
CONTINUOUS
 90
4
 70
0
 10
177.3464451876
 20
366.8338139547
 10
177.3115781873
 20
366.8252745062
 10
177.2197298623
 20
366.8095429444
 10
177.1261262743
 20
366.8040871879
  0
LINE
  5
2E7
100
AcDbEntity
  8
RUNDUNGEN
100
AcDbLine
 62
7
  6
CONTINUOUS
 10
177.3265277583
 20
366.8287676946
 11
177.2722965176
 21
366.8185464356
  0
LINE
  5
2E8
100
AcDbEntity
  8
0
100
AcDbLine
 62
7
  6
CONTINUOUS
 10
337.3581706074
 20
362.0061337488
 11
298.8581706074
 21
362.0061337488
  0
LINE
  5
2E9
100
AcDbEntity
  8
0
100
AcDbLine
 62
7
  6
CONTINUOUS
 10
47.3581706074
 20
362.0061337488
 11
66.8581706074
 21
362.0061337488
  0
LINE
  5
2EA
100
AcDbEntity
  8
0
100
AcDbLine
 62
7
  6
CONTINUOUS
 10
71.8581706074
 20
362.0061337488
 11
91.8581706074
 21
362.0061337488
  0
LINE
  5
2EB
100
AcDbEntity
  8
RUNDUNGEN
100
AcDbLine
 62
7
  6
CONTINUOUS
 10
40.358182723
 20
362.9348089982
 11
42.7293728946
 21
362.9348089982
  0
LINE
  5
2EC
100
AcDbEntity
  8
RUNDUNGEN
100
AcDbLine
 62
7
  6
CONTINUOUS
 10
341.9869683203
 20
362.9348089982
 11
344.3581584919
 21
362.9348089982
  0
LINE
  5
2ED
100
AcDbEntity
  8
RUNDUNGEN
100
AcDbLine
 62
7
  6
CONTINUOUS
 10
197.9030935224
 20
366.0061337488
 11
197.8581706074
 21
366.0061337488
  0
LINE
  5
2EE
100
AcDbEntity
  8
BEZUGSACHSEN
100
AcDbLine
 62
7
  6
CONTINUOUS
 10
191.8132476925
 20
366.0061337488
 11
197.8581706074
 21
366.0061337488
  0
LINE
  5
2EF
100
AcDbEntity
  8
RUNDUNGEN
100
AcDbLine
 62
7
  6
CONTINUOUS
 10
276.8581706074
 20
366.8040927199
 11
212.5902254211
 21
366.8040927199
  0
LINE
  5
2F0
100
AcDbEntity
  8
RUNDUNGEN
100
AcDbLine
 62
7
  6
CONTINUOUS
 10
112.8581706074
 20
366.8040927199
 11
177.126126264
 21
366.8040927199
  0
LINE
  5
2F1
100
AcDbEntity
  8
RUNDUNGEN
100
AcDbLine
 62
7
  6
CONTINUOUS
 10
198.8581706074
 20
367.5061337488
 11
198.7785252457
 21
367.5061337488
  0
LINE
  5
2F2
100
AcDbEntity
  8
BEZUGSACHSEN
100
AcDbLine
 62
7
  6
CONTINUOUS
 10
190.8581706074
 20
367.5061337488
 11
198.7785252457
 21
367.5061337488
  0
LINE
  5
2F3
100
AcDbEntity
  8
RUNDUNGEN
100
AcDbLine
 62
7
  6
CONTINUOUS
 10
296.3756947546
 20
371.0061337488
 11
283.8581706074
 21
371.0061337488
  0
LINE
  5
2F4
100
AcDbEntity
  8
RUNDUNGEN
100
AcDbLine
 62
7
  6
CONTINUOUS
 10
100.9765357038
 20
372.4803565023
 11
97.8581706074
 21
372.4803565023
  0
LINE
  5
2F5
100
AcDbEntity
  8
BEZUGSACHSEN
100
AcDbLine
 62
7
  6
CONTINUOUS
 10
71.3581706074
 20
374.0061337488
 11
68.3581706074
 21
374.0061337488
  0
LINE
  5
2F6
100
AcDbEntity
  8
RUNDUNGEN
100
AcDbLine
 62
7
  6
CONTINUOUS
 10
71.3581706074
 20
374.0061337488
 11
68.3581706074
 21
374.0061337488
  0
LINE
  5
2F7
100
AcDbEntity
  8
0
100
AcDbLine
 62
7
  6
CONTINUOUS
 10
92.8581706074
 20
374.0061337488
 11
97.8581706074
 21
374.0061337488
  0
LWPOLYLINE
  5
2F8
100
AcDbEntity
  8
RUNDUNGEN
100
AcDbPolyline
 62
7
  6
CONTINUOUS
 90
5
 70
0
 10
212.590225428
 20
366.8040932967
 10
212.5803752622
 20
366.804153863
 10
212.4902404422
 20
366.8103052647
 10
212.3958542824
 20
366.8273247936
 10
212.3698896353
 20
366.8338175023
  0
LINE
  5
2F9
100
AcDbEntity
  8
RUNDUNGEN
100
AcDbLine
 62
7
  6
CONTINUOUS
 10
112.8581710347
 20
366.8040893478
 11
112.7836315399
 21
366.8046532575
  0
LINE
  5
2FA
100
AcDbEntity
  8
RUNDUNGEN
100
AcDbLine
 62
7
  6
CONTINUOUS
 10
101.143885293
 20
372.4775100567
 11
100.9765357038
 21
372.4803529122
  0
LINE
  5
2FB
100
AcDbEntity
  8
RUNDUNGEN
100
AcDbLine
 62
7
  6
CONTINUOUS
 10
112.801480163
 20
366.8044198252
 11
112.5023229364
 21
366.8171068335
  0
LINE
  5
2FC
100
AcDbEntity
  8
RUNDUNGEN
100
AcDbLine
 62
7
  6
CONTINUOUS
 10
101.503409995
 20
372.4521082211
 11
101.1264559414
 21
372.4780712212
  0
LWPOLYLINE
  5
2FD
100
AcDbEntity
  8
RUNDUNGEN
100
AcDbPolyline
 62
7
  6
CONTINUOUS
 90
3
 70
0
 10
212.5235938172
 20
366.8080290078
 10
212.4799809521
 20
366.8116443136
 10
212.4320561123
 20
366.82079695
  0
LINE
  5
2FE
100
AcDbEntity
  8
RUNDUNGEN
100
AcDbLine
 62
7
  6
CONTINUOUS
 10
210.2933787244
 20
368.3939281634
 11
210.2936929203
 21
368.3938455397
  0
LINE
  5
2FF
100
AcDbEntity
  8
RUNDUNGEN
100
AcDbLine
 62
7
  6
CONTINUOUS
 10
210.2936577481
 20
368.393864042
 11
210.0860157611
 21
368.4517184783
  0
LWPOLYLINE
  5
300
100
AcDbEntity
  8
RUNDUNGEN
100
AcDbPolyline
 62
7
  6
CONTINUOUS
 90
48
 70
0
 10
212.3698889599
 20
366.8338149205
 10
212.3622164754
 20
366.8360369165
 10
212.3547607731
 20
366.8384919466
 10
212.3477200886
 20
366.8410282734
 10
212.3400920489
 20
366.8439823399
 10
212.3324039288
 20
366.8471526449
 10
212.3247209595
 20
366.8504943262
 10
212.3169888335
 20
366.8540158758
 10
212.3089931588
 20
366.8578116552
 10
212.3008776815
 20
366.8618141798
 10
212.2926824927
 20
366.8660007012
 10
212.2844503559
 20
366.870345469
 10
212.2762169882
 20
366.8748248143
 10
212.2680047899
 20
366.8794212438
 10
212.2598333881
 20
366.8841182786
 10
212.2517124448
 20
366.8889048767
 10
212.2436500746
 20
366.8937703463
 10
212.235640737
 20
366.8987118336
 10
212.2276792173
 20
366.9037271766
 10
212.2197476019
 20
366.9088232626
 10
212.2118285233
 20
366.9140079272
 10
212.2038939814
 20
366.919297315
 10
212.1959099178
 20
366.9247132726
 10
212.1878592318
 20
366.9302676018
 10
212.1796903768
 20
366.9359973746
 10
212.171461475
 20
366.9418633198
 10
212.1632169135
 20
366.9478336395
 10
212.154952625
 20
366.9539105509
 10
212.1466785499
 20
366.9600860285
 10
212.1383956435
 20
366.9663585635
 10
212.130106457
 20
366.9727254622
 10
212.1218136637
 20
366.9791838464
 10
212.1135191018
 20
366.9857312501
 10
212.105223208
 20
366.9923662975
 10
212.0969265835
 20
366.9990875426
 10
212.0886289362
 20
367.0058943274
 10
212.0803300537
 20
367.0127860074
 10
212.0720289404
 20
367.0197626715
 10
212.0637246953
 20
367.0268244243
 10
212.0554156069
 20
367.0339721586
 10
212.047100108
 20
367.0412067555
 10
212.0387757883
 20
367.048529945
 10
212.0304404325
 20
367.055943415
 10
212.0220909452
 20
367.063449769
 10
212.013724478
 20
367.0710515349
 10
212.0053372609
 20
367.0787522289
 10
211.9969237887
 20
367.0865571542
 10
211.9884857331
 20
367.0944650865
  0
LINE
  5
301
100
AcDbEntity
  8
RUNDUNGEN
100
AcDbLine
 62
7
  6
CONTINUOUS
 10
210.0977798498
 20
368.4482566683
 11
209.7528020213
 21
368.5587307142
  0
LINE
  5
302
100
AcDbEntity
  8
RUNDUNGEN
100
AcDbLine
 62
7
  6
CONTINUOUS
 10
209.7633996155
 20
368.5550600982
 11
209.4397090223
 21
368.6749964865
  0
LINE
  5
303
100
AcDbEntity
  8
RUNDUNGEN
100
AcDbLine
 62
7
  6
CONTINUOUS
 10
209.4492535753
 20
368.6712302678
 11
209.1456110041
 21
368.7978142366
  0
LINE
  5
304
100
AcDbEntity
  8
RUNDUNGEN
100
AcDbLine
 62
7
  6
CONTINUOUS
 10
209.154202667
 20
368.7940383647
 11
208.8693502613
 21
368.9251011113
  0
LINE
  5
305
100
AcDbEntity
  8
RUNDUNGEN
100
AcDbLine
 62
7
  6
CONTINUOUS
 10
208.877071475
 20
368.9213861135
 11
208.6107107131
 21
369.0548137899
  0
LINE
  5
306
100
AcDbEntity
  8
RUNDUNGEN
100
AcDbLine
 62
7
  6
CONTINUOUS
 10
208.6176394008
 20
369.0512063408
 11
208.3687391621
 21
369.1854883084
  0
LINE
  5
307
100
AcDbEntity
  8
RUNDUNGEN
100
AcDbLine
 62
7
  6
CONTINUOUS
 10
208.374946118
 20
369.1820202855
 11
208.1433333366
 21
369.3155468395
  0
LINE
  5
308
100
AcDbEntity
  8
RUNDUNGEN
100
AcDbLine
 62
7
  6
CONTINUOUS
 10
212.2241957664
 20
366.2833010949
 11
212.3698889599
 21
366.8338149205
  0
LINE
  5
309
100
AcDbEntity
  8
0
100
AcDbLine
 62
7
  6
CONTINUOUS
 10
210.7863738377
 20
338.2740829412
 11
211.590221415
 21
338.7381845564
  0
LINE
  5
30A
100
AcDbEntity
  8
RUNDUNGEN
100
AcDbLine
 62
7
  6
CONTINUOUS
 10
279.3857611815
 20
367.4288655367
 11
279.0696365948
 21
367.2869849026
  0
LINE
  5
30B
100
AcDbEntity
  8
RUNDUNGEN
100
AcDbLine
 62
7
  6
CONTINUOUS
 10
279.0793985196
 20
367.2911615977
 11
278.8874135974
 21
367.2129234842
  0
LINE
  5
30C
100
AcDbEntity
  8
RUNDUNGEN
100
AcDbLine
 62
7
  6
CONTINUOUS
 10
279.0552848071
 20
367.2813347251
 11
278.7400620164
 21
367.1572341771
  0
LWPOLYLINE
  5
30D
100
AcDbEntity
  8
RUNDUNGEN
100
AcDbPolyline
 62
7
  6
CONTINUOUS
 90
9
 70
0
 10
278.887924579
 20
367.2131111424
 10
278.7767608761
 20
367.1707306453
 10
278.4721972638
 20
367.0657698925
 10
278.1655649301
 20
366.977131637
 10
277.8584895894
 20
366.9060449877
 10
277.5518774262
 20
366.8533568029
 10
277.2495931652
 20
366.8198348202
 10
276.9554985764
 20
366.8050520885
 10
276.8581706069
 20
366.8040827651
  0
LINE
  5
30E
100
AcDbEntity
  8
0
100
AcDbLine
 62
7
  6
CONTINUOUS
 10
189.8581706074
 20
381.0061337488
 11
199.8581706074
 21
381.0061337488
  0
LINE
  5
30F
100
AcDbEntity
  8
0
100
AcDbLine
 62
7
  6
CONTINUOUS
 10
183.8581706074
 20
382.0061337488
 11
189.8581706074
 21
382.0061337488
  0
LINE
  5
310
100
AcDbEntity
  8
0
100
AcDbLine
 62
7
  6
CONTINUOUS
 10
199.8581706074
 20
382.0061337488
 11
205.8581706074
 21
382.0061337488
  0
LINE
  5
311
100
AcDbEntity
  8
RUNDUNGEN
100
AcDbLine
 62
7
  6
CONTINUOUS
 10
208.1488804366
 20
369.3122458647
 11
207.9340204383
 21
369.4438560836
  0
LINE
  5
312
100
AcDbEntity
  8
RUNDUNGEN
100
AcDbLine
 62
7
  6
CONTINUOUS
 10
207.9389499492
 20
369.4407486778
 11
207.740636402
 21
369.5692433129
  0
LINE
  5
313
100
AcDbEntity
  8
RUNDUNGEN
100
AcDbLine
 62
7
  6
CONTINUOUS
 10
207.7449914842
 20
369.5663439084
 11
207.5628001747
 21
369.690826181
  0
LINE
  5
314
100
AcDbEntity
  8
RUNDUNGEN
100
AcDbLine
 62
7
  6
CONTINUOUS
 10
207.566625208
 20
369.688142986
 11
207.4005147059
 21
369.8075942415
  0
LINE
  5
315
100
AcDbEntity
  8
RUNDUNGEN
100
AcDbLine
 62
7
  6
CONTINUOUS
 10
207.4038410104
 20
369.8051400149
 11
207.2535869694
 21
369.9187568761
  0
LINE
  5
316
100
AcDbEntity
  8
RUNDUNGEN
100
AcDbLine
 62
7
  6
CONTINUOUS
 10
207.2564426951
 20
369.9165421963
 11
207.1222534899
 21
370.0232471753
  0
LINE
  5
317
100
AcDbEntity
  8
RUNDUNGEN
100
AcDbLine
 62
7
  6
CONTINUOUS
 10
207.1246664958
 20
370.0212789415
 11
207.0064297104
 21
370.1202558439
  0
LWPOLYLINE
  5
318
100
AcDbEntity
  8
RUNDUNGEN
100
AcDbPolyline
 62
7
  6
CONTINUOUS
 90
3
 70
0
 10
207.0084213589
 20
370.1185433086
 10
206.9082666979
 20
370.2069451441
 10
206.8581706074
 20
370.253749662
  0
LINE
  5
319
100
AcDbEntity
  8
RUNDUNGEN
100
AcDbLine
 62
7
  6
CONTINUOUS
 10
211.9884857331
 20
367.0944650865
 11
211.9739472521
 21
367.1082775123
  0
LINE
  5
31A
100
AcDbEntity
  8
RUNDUNGEN
100
AcDbLine
 62
7
  6
CONTINUOUS
 10
211.9739487859
 20
367.1082761451
 11
211.7777039915
 21
367.2979594296
  0
LINE
  5
31B
100
AcDbEntity
  8
RUNDUNGEN
100
AcDbLine
 62
7
  6
CONTINUOUS
 10
211.9362556917
 20
367.1444557234
 11
211.7658667822
 21
367.3095037262
  0
LINE
  5
31C
100
AcDbEntity
  8
RUNDUNGEN
100
AcDbLine
 62
7
  6
CONTINUOUS
 10
211.7777039915
 20
367.2979594296
 11
211.593827056
 21
367.4785661442
  0
LINE
  5
31D
100
AcDbEntity
  8
RUNDUNGEN
100
AcDbLine
 62
7
  6
CONTINUOUS
 10
211.6055826402
 20
367.4669388518
 11
211.4210428894
 21
367.650701952
  0
LINE
  5
31E
100
AcDbEntity
  8
RUNDUNGEN
100
AcDbLine
 62
7
  6
CONTINUOUS
 10
211.4326836129
 20
367.639033073
 11
211.2132840988
 21
367.8606605932
  0
LINE
  5
31F
100
AcDbEntity
  8
RUNDUNGEN
100
AcDbLine
 62
7
  6
CONTINUOUS
 10
230.3581706074
 20
341.0061337488
 11
230.3581706074
 21
339.5061337488
  0
LINE
  5
320
100
AcDbEntity
  8
0
100
AcDbLine
 62
7
  6
CONTINUOUS
 10
232.8581706074
 20
342.0061337488
 11
232.8581706074
 21
341.0061337488
  0
LINE
  5
321
100
AcDbEntity
  8
0
100
AcDbLine
 62
7
  6
CONTINUOUS
 10
232.9831706112
 20
342.0061337488
 11
232.9831706112
 21
341.0061337488
  0
LINE
  5
322
100
AcDbEntity
  8
0
100
AcDbLine
 62
7
  6
CONTINUOUS
 10
233.2331706074
 20
342.0061337488
 11
233.2331706074
 21
341.0061337488
  0
LINE
  5
323
100
AcDbEntity
  8
0
100
AcDbLine
 62
7
  6
CONTINUOUS
 10
233.7331705776
 20
342.0061337488
 11
233.7331705776
 21
341.0061337488
  0
LINE
  5
324
100
AcDbEntity
  8
0
100
AcDbLine
 62
7
  6
CONTINUOUS
 10
234.2331706372
 20
342.0061337488
 11
234.2331706372
 21
341.0061337488
  0
LINE
  5
325
100
AcDbEntity
  8
0
100
AcDbLine
 62
7
  6
CONTINUOUS
 10
234.858170667
 20
342.0061337488
 11
234.858170667
 21
341.0061337488
  0
LINE
  5
326
100
AcDbEntity
  8
0
100
AcDbLine
 62
7
  6
CONTINUOUS
 10
235.9831704882
 20
342.0061337488
 11
235.9831704882
 21
341.0061337488
  0
LINE
  5
327
100
AcDbEntity
  8
RUNDUNGEN
100
AcDbLine
 62
7
  6
CONTINUOUS
 10
280.6482776401
 20
368.1598886131
 11
280.4242930187
 21
368.0107739897
  0
LWPOLYLINE
  5
328
100
AcDbEntity
  8
RUNDUNGEN
100
AcDbPolyline
 62
7
  6
CONTINUOUS
 90
3
 70
0
 10
280.4291697063
 20
368.0139216448
 10
280.1939712739
 20
367.8663952015
 10
279.9419632707
 20
367.7184989677
  0
LINE
  5
329
100
AcDbEntity
  8
RUNDUNGEN
100
AcDbLine
 62
7
  6
CONTINUOUS
 10
279.9430847993
 20
367.7191208527
 11
279.6725762824
 21
367.5718900584
  0
LINE
  5
32A
100
AcDbEntity
  8
RUNDUNGEN
100
AcDbLine
 62
7
  6
CONTINUOUS
 10
279.6729625125
 20
367.5720750063
 11
279.3816990249
 21
367.4269243996
  0
LINE
  5
32B
100
AcDbEntity
  8
0
100
AcDbLine
 62
7
  6
CONTINUOUS
 10
236.6081706074
 20
342.0061337488
 11
236.6081706074
 21
341.0061337488
  0
LINE
  5
32C
100
AcDbEntity
  8
0
100
AcDbLine
 62
7
  6
CONTINUOUS
 10
237.1081704882
 20
342.0061337488
 11
237.1081704882
 21
341.0061337488
  0
LINE
  5
32D
100
AcDbEntity
  8
0
100
AcDbLine
 62
7
  6
CONTINUOUS
 10
237.6081707266
 20
342.0061337488
 11
237.6081707266
 21
341.0061337488
  0
LINE
  5
32E
100
AcDbEntity
  8
0
100
AcDbLine
 62
7
  6
CONTINUOUS
 10
237.7331706074
 20
342.0061337488
 11
237.7331706074
 21
341.0061337488
  0
LINE
  5
32F
100
AcDbEntity
  8
0
100
AcDbLine
 62
7
  6
CONTINUOUS
 10
238.7331707266
 20
342.0061337488
 11
238.7331707266
 21
341.0061337488
  0
LINE
  5
330
100
AcDbEntity
  8
0
100
AcDbLine
 62
7
  6
CONTINUOUS
 10
239.483170369
 20
342.0061337488
 11
239.483170369
 21
341.0061337488
  0
LINE
  5
331
100
AcDbEntity
  8
0
100
AcDbLine
 62
7
  6
CONTINUOUS
 10
239.6081706074
 20
342.0061337488
 11
239.6081706074
 21
341.0061337488
  0
LINE
  5
332
100
AcDbEntity
  8
0
100
AcDbLine
 62
7
  6
CONTINUOUS
 10
239.858170369
 20
342.0061337488
 11
239.858170369
 21
341.0061337488
  0
LINE
  5
333
100
AcDbEntity
  8
0
100
AcDbLine
 62
7
  6
CONTINUOUS
 10
240.233170369
 20
342.0061337488
 11
240.233170369
 21
341.0061337488
  0
LINE
  5
334
100
AcDbEntity
  8
0
100
AcDbLine
 62
7
  6
CONTINUOUS
 10
240.7331706074
 20
342.0061337488
 11
240.7331706074
 21
341.0061337488
  0
LINE
  5
335
100
AcDbEntity
  8
0
100
AcDbLine
 62
7
  6
CONTINUOUS
 10
241.2331708459
 20
342.0061337488
 11
241.2331708459
 21
341.0061337488
  0
LINE
  5
336
100
AcDbEntity
  8
0
100
AcDbLine
 62
7
  6
CONTINUOUS
 10
241.733170369
 20
342.0061337488
 11
241.733170369
 21
341.0061337488
  0
LINE
  5
337
100
AcDbEntity
  8
0
100
AcDbLine
 62
7
  6
CONTINUOUS
 10
242.108170369
 20
342.0061337488
 11
242.108170369
 21
341.0061337488
  0
LINE
  5
338
100
AcDbEntity
  8
0
100
AcDbLine
 62
7
  6
CONTINUOUS
 10
242.3581708459
 20
342.0061337488
 11
242.3581708459
 21
341.0061337488
  0
LINE
  5
339
100
AcDbEntity
  8
0
100
AcDbLine
 62
7
  6
CONTINUOUS
 10
242.483170369
 20
342.0061337488
 11
242.483170369
 21
341.0061337488
  0
LINE
  5
33A
100
AcDbEntity
  8
0
100
AcDbLine
 62
7
  6
CONTINUOUS
 10
243.233170369
 20
342.0061337488
 11
243.233170369
 21
341.0061337488
  0
LINE
  5
33B
100
AcDbEntity
  8
0
100
AcDbLine
 62
7
  6
CONTINUOUS
 10
244.2331708459
 20
342.0061337488
 11
244.2331708459
 21
341.0061337488
  0
LINE
  5
33C
100
AcDbEntity
  8
0
100
AcDbLine
 62
7
  6
CONTINUOUS
 10
247.2331701306
 20
342.0061337488
 11
247.2331701306
 21
341.0061337488
  0
LINE
  5
33D
100
AcDbEntity
  8
0
100
AcDbLine
 62
7
  6
CONTINUOUS
 10
247.8581706074
 20
342.0061337488
 11
247.8581706074
 21
341.0061337488
  0
LINE
  5
33E
100
AcDbEntity
  8
0
100
AcDbLine
 62
7
  6
CONTINUOUS
 10
248.3581701306
 20
342.0061337488
 11
248.3581701306
 21
341.0061337488
  0
LINE
  5
33F
100
AcDbEntity
  8
0
100
AcDbLine
 62
7
  6
CONTINUOUS
 10
248.7331701306
 20
342.0061337488
 11
248.7331701306
 21
341.0061337488
  0
LINE
  5
340
100
AcDbEntity
  8
0
100
AcDbLine
 62
7
  6
CONTINUOUS
 10
248.8581710843
 20
342.0061337488
 11
248.8581710843
 21
341.0061337488
  0
LINE
  5
341
100
AcDbEntity
  8
0
100
AcDbLine
 62
7
  6
CONTINUOUS
 10
248.9831706074
 20
342.0061337488
 11
248.9831706074
 21
341.0061337488
  0
LINE
  5
342
100
AcDbEntity
  8
0
100
AcDbLine
 62
7
  6
CONTINUOUS
 10
249.9831710843
 20
342.0061337488
 11
249.9831710843
 21
341.0061337488
  0
LWPOLYLINE
  5
343
100
AcDbEntity
  8
RUNDUNGEN
100
AcDbPolyline
 62
7
  6
CONTINUOUS
 90
5
 70
0
 10
281.7974342689
 20
369.0986426008
 10
281.7039932947
 20
369.0061418127
 10
281.5955678418
 20
368.904356155
 10
281.4722660578
 20
368.79425273
 10
281.3348864076
 20
368.6773315743
  0
LINE
  5
344
100
AcDbEntity
  8
RUNDUNGEN
100
AcDbLine
 62
7
  6
CONTINUOUS
 10
281.3636987183
 20
368.7014005124
 11
281.1830588943
 21
368.5540521383
  0
LINE
  5
345
100
AcDbEntity
  8
RUNDUNGEN
100
AcDbLine
 62
7
  6
CONTINUOUS
 10
281.208821164
 20
368.5745678019
 11
281.0167054309
 21
368.4251973589
  0
LWPOLYLINE
  5
346
100
AcDbEntity
  8
RUNDUNGEN
100
AcDbPolyline
 62
7
  6
CONTINUOUS
 90
3
 70
0
 10
281.0380155414
 20
368.4413674096
 10
280.8351983299
 20
368.2912304907
 10
280.6380591058
 20
368.1528920463
  0
LINE
  5
347
100
AcDbEntity
  8
RUNDUNGEN
100
AcDbLine
 62
7
  6
CONTINUOUS
 10
280.8511539242
 20
368.3027483683
 11
280.6482776401
 21
368.1598886131
  0
LINE
  5
348
100
AcDbEntity
  8
0
100
AcDbLine
 62
7
  6
CONTINUOUS
 10
254.7331701306
 20
342.0061337488
 11
254.7331701306
 21
341.0061337488
  0
LINE
  5
349
100
AcDbEntity
  8
0
100
AcDbLine
 62
7
  6
CONTINUOUS
 10
255.7331706074
 20
342.0061337488
 11
255.7331706074
 21
341.0061337488
  0
LINE
  5
34A
100
AcDbEntity
  8
0
100
AcDbLine
 62
7
  6
CONTINUOUS
 10
255.8581701306
 20
342.0061337488
 11
255.8581701306
 21
341.0061337488
  0
LINE
  5
34B
100
AcDbEntity
  8
0
100
AcDbLine
 62
7
  6
CONTINUOUS
 10
256.1081706074
 20
342.0061337488
 11
256.1081706074
 21
341.0061337488
  0
LINE
  5
34C
100
AcDbEntity
  8
0
100
AcDbLine
 62
7
  6
CONTINUOUS
 10
256.4831706074
 20
342.0061337488
 11
256.4831706074
 21
341.0061337488
  0
LINE
  5
34D
100
AcDbEntity
  8
0
100
AcDbLine
 62
7
  6
CONTINUOUS
 10
257.1081696538
 20
342.0061337488
 11
257.1081696538
 21
341.0061337488
  0
LINE
  5
34E
100
AcDbEntity
  8
0
100
AcDbLine
 62
7
  6
CONTINUOUS
 10
257.7331715611
 20
342.0061337488
 11
257.7331715611
 21
341.0061337488
  0
LINE
  5
34F
100
AcDbEntity
  8
0
100
AcDbLine
 62
7
  6
CONTINUOUS
 10
258.2331696538
 20
342.0061337488
 11
258.2331696538
 21
341.0061337488
  0
LINE
  5
350
100
AcDbEntity
  8
0
100
AcDbLine
 62
7
  6
CONTINUOUS
 10
258.8581715611
 20
342.0061337488
 11
258.8581715611
 21
341.0061337488
  0
LINE
  5
351
100
AcDbEntity
  8
0
100
AcDbLine
 62
7
  6
CONTINUOUS
 10
259.4831706074
 20
342.0061337488
 11
259.4831706074
 21
341.0061337488
  0
LINE
  5
352
100
AcDbEntity
  8
0
100
AcDbLine
 62
7
  6
CONTINUOUS
 10
259.8581706074
 20
342.0061337488
 11
259.8581706074
 21
341.0061337488
  0
LINE
  5
353
100
AcDbEntity
  8
0
100
AcDbLine
 62
7
  6
CONTINUOUS
 10
259.9831715611
 20
342.0061337488
 11
259.9831715611
 21
341.0061337488
  0
LINE
  5
354
100
AcDbEntity
  8
0
100
AcDbLine
 62
7
  6
CONTINUOUS
 10
260.2331706074
 20
342.0061337488
 11
260.2331706074
 21
341.0061337488
  0
LWPOLYLINE
  5
355
100
AcDbEntity
  8
RUNDUNGEN
100
AcDbPolyline
 62
7
  6
CONTINUOUS
 90
11
 70
0
 10
282.0124698425
 20
369.3433078813
 10
282.0157565777
 20
369.3486458574
 10
282.0101794719
 20
369.3406154308
 10
281.9884952926
 20
369.3117724533
 10
281.9499176558
 20
369.2644736016
 10
281.8940415834
 20
369.2007933274
 10
281.8212435064
 20
369.1230961155
 10
281.731413792
 20
369.0327654879
 10
281.6251502642
 20
368.9316195569
 10
281.5024433774
 20
368.8207112804
 10
281.3636987183
 20
368.7014005124
  0
LINE
  5
356
100
AcDbEntity
  8
RUNDUNGEN
100
AcDbLine
 62
7
  6
CONTINUOUS
 10
281.8674913763
 20
369.172105415
 11
281.7974342689
 21
369.0986426008
  0
LINE
  5
357
100
AcDbEntity
  8
RUNDUNGEN
100
AcDbLine
 62
7
  6
CONTINUOUS
 10
272.3581706074
 20
341.0061224341
 11
272.3581706074
 21
339.5061337489
  0
LINE
  5
358
100
AcDbEntity
  8
0
100
AcDbLine
 62
7
  6
CONTINUOUS
 10
298.3647385453
 20
369.2151906753
 11
298.8581706074
 21
364.520498203
  0
LINE
  5
359
100
AcDbEntity
  8
0
100
AcDbLine
 62
7
  6
CONTINUOUS
 10
298.8581706074
 20
364.5203319052
 11
298.8581706074
 21
345.4919355924
  0
LINE
  5
35A
100
AcDbEntity
  8
0
100
AcDbLine
 62
7
  6
CONTINUOUS
 10
298.3647385453
 20
340.7970768223
 11
298.8581706074
 21
345.4917692946
  0
LINE
  5
35B
100
AcDbEntity
  8
RUNDUNGEN
100
AcDbLine
 62
7
  6
CONTINUOUS
 10
397.2327903146
 20
377.0213241286
 11
400.7446059464
 21
375.0746929368
  0
LINE
  5
35C
100
AcDbEntity
  8
RUNDUNGEN
100
AcDbLine
 62
7
  6
CONTINUOUS
 10
387.3046920416
 20
361.1732260647
 11
395.8733609872
 21
376.6315140417
  0
LINE
  5
35D
100
AcDbEntity
  8
BEZUGSACHSEN
100
AcDbLine
 62
7
  6
CONTINUOUS
 10
393.8788359294
 20
373.0332955883
 11
393.8781320842
 21
373.0320316987
  0
LINE
  5
35E
100
AcDbEntity
  8
BEZUGSACHSEN
100
AcDbLine
 62
7
  6
CONTINUOUS
 10
401.2446040792
 20
374.026425052
 11
401.0469365479
 21
372.9053967754
  0
LINE
  5
35F
100
AcDbEntity
  8
RUNDUNGEN
100
AcDbLine
 62
7
  6
CONTINUOUS
 10
401.2446040792
 20
374.026425052
 11
398.4477950551
 21
358.1649328807
  0
LINE
  5
360
100
AcDbEntity
  8
BEZUGSACHSEN
100
AcDbLine
 62
7
  6
CONTINUOUS
 10
486.0635132664
 20
75.4327668304
 11
484.0635132664
 21
75.4327668304
  0
LINE
  5
361
100
AcDbEntity
  8
BEZUGSACHSEN
100
AcDbLine
 62
7
  6
CONTINUOUS
 10
488.6641792095
 20
204.2212987235
 11
488.6636658895
 21
204.22109084
  0
LWPOLYLINE
  5
362
100
AcDbEntity
  8
BEZUGSACHSEN
100
AcDbPolyline
 62
7
  6
CONTINUOUS
 90
6
 70
0
 10
488.1404578166
 20
204.0153638966
 10
488.9368248368
 20
204.3278543752
 10
489.3384394662
 20
204.4726070057
 10
489.7573704961
 20
204.6097597318
 10
490.1922628709
 20
204.73879763
 10
490.6417075808
 20
204.859269195
  0
LINE
  5
363
100
AcDbEntity
  8
BEZUGSACHSEN
100
AcDbLine
 62
7
  6
CONTINUOUS
 10
468.3217132601
 20
215.3150268905
 11
468.3218061598
 21
215.3155754889
  0
LWPOLYLINE
  5
364
100
AcDbEntity
  8
BEZUGSACHSEN
100
AcDbPolyline
 62
7
  6
CONTINUOUS
 90
5
 70
0
 10
467.8270234356
 20
212.5894242169
 10
467.720794114
 20
211.9696253226
 10
467.6358977487
 20
211.3937932162
 10
467.579945482
 20
210.859380816
 10
467.5635364121
 20
210.4625336517
  0
LWPOLYLINE
  5
365
100
AcDbEntity
  8
BEZUGSACHSEN
100
AcDbPolyline
 62
7
  6
CONTINUOUS
 90
4
 70
0
 10
468.3218054482
 20
215.3155756098
 10
468.21175707
 20
214.6841236581
 10
468.0784352996
 20
213.9521592363
 10
467.8270234356
 20
212.5894242169
  0
LWPOLYLINE
  5
366
100
AcDbEntity
  8
BEZUGSACHSEN
100
AcDbPolyline
 62
7
  6
CONTINUOUS
 90
4
 70
0
 10
467.6897115832
 20
211.7587998164
 10
467.6563023041
 20
211.5852763321
 10
467.5842801304
 20
211.0419418025
 10
467.5635296664
 20
210.627356175
  0
LINE
  5
367
100
AcDbEntity
  8
BEZUGSACHSEN
100
AcDbLine
 62
7
  6
CONTINUOUS
 10
503.0299264353
 20
207.8936139533
 11
503.0298723462
 21
207.893567328
  0
LWPOLYLINE
  5
368
100
AcDbEntity
  8
RUNDUNGEN
100
AcDbPolyline
 62
7
  6
CONTINUOUS
 90
4
 70
0
 10
467.5635307367
 20
233.2378341397
 10
467.5847882777
 20
232.8181152107
 10
467.6579376446
 20
232.2704880074
 10
467.6900553495
 20
232.1044021583
  0
LWPOLYLINE
  5
369
100
AcDbEntity
  8
RUNDUNGEN
100
AcDbPolyline
 62
7
  6
CONTINUOUS
 90
6
 70
0
 10
467.5635364121
 20
233.4030000092
 10
467.579945482
 20
233.0061528449
 10
467.6358977487
 20
232.4717404447
 10
467.720794114
 20
231.8959083383
 10
467.8270234356
 20
231.2761094439
 10
468.0784352996
 20
229.9133744246
  0
LINE
  5
36A
100
AcDbEntity
  8
BEZUGSACHSEN
100
AcDbLine
 62
7
  6
CONTINUOUS
 10
467.5635248421
 20
233.2372544228
 11
467.5635132664
 21
233.2452689983
  0
LINE
  5
36B
100
AcDbEntity
  8
RUNDUNGEN
100
AcDbLine
 62
7
  6
CONTINUOUS
 10
467.5635132664
 20
233.2452599243
 11
467.5635132664
 21
239.4327668304
  0
LINE
  5
36C
100
AcDbEntity
  8
0
100
AcDbLine
 62
7
  6
CONTINUOUS
 10
467.5635132664
 20
233.414685988
 11
467.5635132664
 21
239.4327668304
  0
LINE
  5
36D
100
AcDbEntity
  8
BEZUGSACHSEN
100
AcDbLine
 62
7
  6
CONTINUOUS
 10
467.5635132664
 20
204.4327668304
 11
467.5635238403
 21
210.6279234474
  0
LWPOLYLINE
  5
36E
100
AcDbEntity
  8
BEZUGSACHSEN
100
AcDbPolyline
 62
7
  6
CONTINUOUS
 90
8
 70
0
 10
469.456864237
 20
221.9327668304
 10
469.4482978911
 20
221.3201792849
 10
469.4118930409
 20
220.5267727141
 10
469.346034898
 20
219.7187167503
 10
469.2511648371
 20
218.9026946064
 10
469.1291694789
 20
218.0850898509
 10
468.9832204191
 20
217.2717317402
 10
468.9472150129
 20
217.0969908685
  0
LINE
  5
36F
100
AcDbEntity
  8
BEZUGSACHSEN
100
AcDbLine
 62
7
  6
CONTINUOUS
 10
474.0245658631
 20
150.5559252841
 11
472.602461551
 21
173.3095942765
  0
LINE
  5
370
100
AcDbEntity
  8
RUNDUNGEN
100
AcDbLine
 62
7
  6
CONTINUOUS
 10
472.6277228001
 20
172.9054142916
 11
472.602461551
 21
173.3095942765
  0
LINE
  5
371
100
AcDbEntity
  8
BEZUGSACHSEN
100
AcDbLine
 62
7
  6
CONTINUOUS
 10
472.5635132664
 20
175.9939722075
 11
472.5635132664
 21
174.5571576681
  0
LINE
  5
372
100
AcDbEntity
  8
RUNDUNGEN
100
AcDbLine
 62
7
  6
CONTINUOUS
 10
472.5635132664
 20
175.9939722075
 11
472.5635132664
 21
195.4327668304
  0
LINE
  5
373
100
AcDbEntity
  8
BEZUGSACHSEN
100
AcDbLine
 62
7
  6
CONTINUOUS
 10
474.0635132664
 20
85.4327668304
 11
474.0635132664
 21
149.3083596348
  0
LINE
  5
374
100
AcDbEntity
  8
BEZUGSACHSEN
100
AcDbLine
 62
7
  6
CONTINUOUS
 10
492.8983269938
 20
217.9327668304
 11
492.9126034664
 21
218.0176528859
  0
LWPOLYLINE
  5
375
100
AcDbEntity
  8
RUNDUNGEN
100
AcDbPolyline
 62
7
  6
CONTINUOUS
 90
8
 70
0
 10
468.9471657486
 20
226.7684412813
 10
468.9850437583
 20
226.584368631
 10
469.1308730209
 20
225.7700990436
 10
469.252597777
 20
224.9520571326
 10
469.3470583315
 20
224.1364650451
 10
469.4124428161
 20
223.3301054414
 10
469.4484408248
 20
222.5402183114
 10
469.456864237
 20
221.9327668304
  0
LWPOLYLINE
  5
376
100
AcDbEntity
  8
RUNDUNGEN
100
AcDbPolyline
 62
7
  6
CONTINUOUS
 90
15
 70
0
 10
468.3217163602
 20
228.5504883635
 10
468.3691703865
 20
228.294438819
 10
468.4504557456
 20
227.9394063446
 10
468.5468968663
 20
227.6089421934
 10
468.6588208378
 20
227.3066163801
 10
468.7868582644
 20
227.0332984581
 10
468.9314998065
 20
226.7892770471
 10
469.0922512873
 20
226.5754769336
 10
469.2695334235
 20
226.3909638132
 10
469.4626183915
 20
226.2362573672
 10
469.6685825954
 20
226.1129982341
 10
469.8831912803
 20
226.0221999981
 10
470.1023220245
 20
225.9635353784
 10
470.3210017991
 20
225.9357960059
 10
470.4204976694
 20
225.9327706808
  0
LINE
  5
377
100
AcDbEntity
  8
RUNDUNGEN
100
AcDbLine
 62
7
  6
CONTINUOUS
 10
468.0784352996
 20
229.9133744246
 11
468.21175707
 21
229.1814100027
  0
LINE
  5
378
100
AcDbEntity
  8
RUNDUNGEN
100
AcDbLine
 62
7
  6
CONTINUOUS
 10
468.21175707
 20
229.1814100027
 11
468.3218054482
 21
228.5499580511
  0
LINE
  5
379
100
AcDbEntity
  8
RUNDUNGEN
100
AcDbLine
 62
7
  6
CONTINUOUS
 10
468.3217163602
 20
228.5504883635
 11
468.3218061598
 21
228.5499581719
  0
LWPOLYLINE
  5
37A
100
AcDbEntity
  8
BEZUGSACHSEN
100
AcDbPolyline
 62
7
  6
CONTINUOUS
 90
4
 70
0
 10
492.9126034664
 20
218.0176528859
 10
492.9555748293
 20
218.3650543559
 10
492.9827263751
 20
218.7213747563
 10
492.992188081
 20
219.0838878767
  0
LWPOLYLINE
  5
37B
100
AcDbEntity
  8
RUNDUNGEN
100
AcDbPolyline
 62
7
  6
CONTINUOUS
 90
4
 70
0
 10
492.992188081
 20
224.7816457842
 10
492.9827263749
 20
225.14415891
 10
492.9555748289
 20
225.5004793095
 10
492.9126034658
 20
225.8478807787
  0
LINE
  5
37C
100
AcDbEntity
  8
RUNDUNGEN
100
AcDbLine
 62
7
  6
CONTINUOUS
 10
492.9921885158
 20
224.759917954
 11
492.9921788278
 21
224.7897533508
  0
LINE
  5
37D
100
AcDbEntity
  8
0
100
AcDbLine
 62
7
  6
CONTINUOUS
 10
492.9921885158
 20
219.0860671396
 11
492.9921885158
 21
224.7794665213
  0
LINE
  5
37E
100
AcDbEntity
  8
BEZUGSACHSEN
100
AcDbLine
 62
7
  6
CONTINUOUS
 10
496.0635132664
 20
149.3083759928
 11
496.0635132664
 21
85.4327668304
  0
LINE
  5
37F
100
AcDbEntity
  8
BEZUGSACHSEN
100
AcDbLine
 62
7
  6
CONTINUOUS
 10
496.5635132664
 20
218.9326895756
 11
496.5635132664
 21
224.9328440853
  0
LINE
  5
380
100
AcDbEntity
  8
BEZUGSACHSEN
100
AcDbLine
 62
7
  6
CONTINUOUS
 10
492.9921788259
 20
219.0757792992
 11
492.9921885158
 21
224.7794630466
  0
LINE
  5
381
100
AcDbEntity
  8
RUNDUNGEN
100
AcDbLine
 62
7
  6
CONTINUOUS
 10
492.9921885158
 20
219.1056153919
 11
492.9921788338
 21
219.0757836909
  0
LINE
  5
382
100
AcDbEntity
  8
RUNDUNGEN
100
AcDbLine
 62
7
  6
CONTINUOUS
 10
497.5245648361
 20
173.309591945
 11
497.4987674563
 21
172.8968338682
  0
LINE
  5
383
100
AcDbEntity
  8
BEZUGSACHSEN
100
AcDbLine
 62
7
  6
CONTINUOUS
 10
497.5245648361
 20
173.309591945
 11
496.1024616967
 21
150.5559417159
  0
LINE
  5
384
100
AcDbEntity
  8
RUNDUNGEN
100
AcDbLine
 62
7
  6
CONTINUOUS
 10
497.5635132664
 20
195.4327668304
 11
497.5635132664
 21
175.9939722075
  0
LINE
  5
385
100
AcDbEntity
  8
BEZUGSACHSEN
100
AcDbLine
 62
7
  6
CONTINUOUS
 10
497.5635132664
 20
175.9939722075
 11
497.5635132664
 21
174.5571576681
  0
LINE
  5
386
100
AcDbEntity
  8
RUNDUNGEN
100
AcDbLine
 62
7
  6
CONTINUOUS
 10
507.204083939
 20
226.4327668304
 11
507.204083939
 21
217.4327668304
  0
LINE
  5
387
100
AcDbEntity
  8
RUNDUNGEN
100
AcDbLine
 62
7
  6
CONTINUOUS
 10
492.9126034658
 20
225.8478807787
 11
492.8983269939
 21
225.9327668304
  0
LINE
  5
388
100
AcDbEntity
  8
BEZUGSACHSEN
100
AcDbLine
 62
7
  6
CONTINUOUS
 10
490.6417075808
 20
204.859269195
 11
490.9748180828
 21
204.9407925851
  0
LINE
  5
389
100
AcDbEntity
  8
BEZUGSACHSEN
100
AcDbLine
 62
7
  6
CONTINUOUS
 10
502.6058710508
 20
207.6774657832
 11
490.9748335739
 21
204.9407962683
  0
LWPOLYLINE
  5
38A
100
AcDbEntity
  8
BEZUGSACHSEN
100
AcDbPolyline
 62
7
  6
CONTINUOUS
 90
6
 70
0
 10
485.7374220577
 20
203.4327671218
 10
486.0469069186
 20
203.4474978882
 10
486.4997621369
 20
203.5135666263
 10
487.003193765
 20
203.6334394837
 10
487.5534057754
 20
203.803597193
 10
488.1404578166
 20
204.0153638966
  0
LINE
  5
38B
100
AcDbEntity
  8
BEZUGSACHSEN
100
AcDbLine
 62
7
  6
CONTINUOUS
 10
485.7374223635
 20
203.4327671212
 11
468.5635132664
 21
203.4327668304
  0
LINE
  5
38C
100
AcDbEntity
  8
BEZUGSACHSEN
100
AcDbLine
 62
7
  6
CONTINUOUS
 10
470.4204940696
 20
217.9327652537
 11
495.5635132673
 21
217.9327668304
  0
LWPOLYLINE
  5
38D
100
AcDbEntity
  8
BEZUGSACHSEN
100
AcDbPolyline
 62
7
  6
CONTINUOUS
 90
15
 70
0
 10
470.4204940735
 20
217.9327629731
 10
470.3208193762
 20
217.9297266902
 10
470.1019924705
 20
217.9019339203
 10
469.8827744318
 20
217.8431906776
 10
469.6680807311
 20
217.7522806396
 10
469.4619984394
 20
217.6288448285
 10
469.2687588021
 20
217.4738601634
 10
469.0912691808
 20
217.2888987928
 10
468.9302990834
 20
217.0744555891
 10
468.7853855405
 20
216.8294360435
 10
468.6572220242
 20
216.5550717235
 10
468.5453687012
 20
216.2519344001
 10
468.449238556
 20
215.9214106571
 10
468.3685279733
 20
215.5679114079
 10
468.3217132601
 20
215.3150268905
  0
LINE
  5
38E
100
AcDbEntity
  8
RUNDUNGEN
100
AcDbLine
 62
7
  6
CONTINUOUS
 10
470.4221323697
 20
225.9327668304
 11
495.5636206864
 21
225.9327668304
  0
LINE
  5
38F
100
AcDbEntity
  8
RUNDUNGEN
100
AcDbLine
 62
7
  6
CONTINUOUS
 10
503.0299264353
 20
235.9719197076
 11
503.0298723462
 21
235.9719663328
  0
LINE
  5
390
100
AcDbEntity
  8
RUNDUNGEN
100
AcDbLine
 62
7
  6
CONTINUOUS
 10
490.974818081
 20
238.9247410762
 11
490.6417073684
 21
239.0062645198
  0
LWPOLYLINE
  5
391
100
AcDbEntity
  8
RUNDUNGEN
100
AcDbPolyline
 62
7
  6
CONTINUOUS
 90
5
 70
0
 10
490.6417073684
 20
239.0062645198
 10
490.1922616049
 20
239.1267363881
 10
489.7573665896
 20
239.255775147
 10
489.3384339777
 20
239.392928541
 10
488.9368210462
 20
239.5376807184
  0
LWPOLYLINE
  5
392
100
AcDbEntity
  8
RUNDUNGEN
100
AcDbPolyline
 62
7
  6
CONTINUOUS
 90
7
 70
0
 10
488.9368210462
 20
239.5376807184
 10
488.1273735923
 20
239.8551431179
 10
487.5395981824
 20
240.0665922196
 10
487.0044508512
 20
240.2317465481
 10
486.513916437
 20
240.3491914899
 10
486.0581214146
 20
240.4169894811
 10
485.7387127685
 20
240.4327653644
  0
LINE
  5
393
100
AcDbEntity
  8
RUNDUNGEN
100
AcDbLine
 62
7
  6
CONTINUOUS
 10
488.6640529054
 20
239.6442861579
 11
488.6636658808
 21
239.6444428243
  0
LINE
  5
394
100
AcDbEntity
  8
RUNDUNGEN
100
AcDbLine
 62
7
  6
CONTINUOUS
 10
468.5635132664
 20
240.4327668304
 11
485.7363857992
 21
240.4327668304
  0
LINE
  5
395
100
AcDbEntity
  8
0
100
AcDbLine
 62
7
  6
CONTINUOUS
 10
470.3273084343
 20
240.4327668304
 11
485.7363862991
 21
240.4327668304
  0
LINE
  5
396
100
AcDbEntity
  8
RUNDUNGEN
100
AcDbLine
 62
7
  6
CONTINUOUS
 10
490.9748335739
 20
238.9247373926
 11
502.6058710508
 21
236.1880678776
  0
LWPOLYLINE
  5
397
100
AcDbEntity
  8
BEZUGSACHSEN
100
AcDbPolyline
 62
7
  6
CONTINUOUS
 90
9
 70
0
 10
573.714151451
 20
231.3125711626
 10
573.6754657596
 20
230.8509685362
 10
573.6298537511
 20
230.2206922566
 10
573.5914131086
 20
229.5784713182
 10
573.560232848
 20
228.9268319382
 10
573.5363690282
 20
228.2683461647
 10
573.5198431866
 20
227.6056026261
 10
573.5106418937
 20
226.9412206798
 10
573.5085181574
 20
226.4327668304
  0
LINE
  5
398
100
AcDbEntity
  8
BEZUGSACHSEN
100
AcDbLine
 62
7
  6
CONTINUOUS
 10
573.7154088755
 20
231.3119291886
 11
573.7176784561
 21
231.329489415
  0
LINE
  5
399
100
AcDbEntity
  8
RUNDUNGEN
100
AcDbLine
 62
7
  6
CONTINUOUS
 10
573.6754657596
 20
213.0145651247
 11
573.714151451
 21
212.5529624983
  0
LWPOLYLINE
  5
39A
100
AcDbEntity
  8
RUNDUNGEN
100
AcDbPolyline
 62
7
  6
CONTINUOUS
 90
7
 70
0
 10
573.5106418937
 20
216.924312981
 10
573.5198431866
 20
216.2599310348
 10
573.5363690282
 20
215.5971874962
 10
573.560232848
 20
214.9387017226
 10
573.5914131086
 20
214.2870623426
 10
573.6298537511
 20
213.6448414043
 10
573.6754657596
 20
213.0145651247
  0
LINE
  5
39B
100
AcDbEntity
  8
RUNDUNGEN
100
AcDbLine
 62
7
  6
CONTINUOUS
 10
573.5085180991
 20
226.4327668304
 11
573.5106418937
 21
216.924312981
  0
LINE
  5
39C
100
AcDbEntity
  8
BEZUGSACHSEN
100
AcDbLine
 62
7
  6
CONTINUOUS
 10
580.9998483047
 20
224.9327668304
 11
580.9998483047
 21
218.9327668304
  0
LINE
  5
39D
100
AcDbEntity
  8
RUNDUNGEN
100
AcDbLine
 62
7
  6
CONTINUOUS
 10
573.7154088755
 20
212.5536044722
 11
573.7176784561
 21
212.5360442458
  0
LINE
  5
39E
100
AcDbEntity
  8
BEZUGSACHSEN
100
AcDbLine
 62
7
  6
CONTINUOUS
 10
577.7842947899
 20
235.3003034346
 11
588.0028346261
 21
239.6378162534
  0
LINE
  5
39F
100
AcDbEntity
  8
RUNDUNGEN
100
AcDbLine
 62
7
  6
CONTINUOUS
 10
619.4928567218
 20
205.2412018748
 11
628.9658791685
 21
211.8742836017
  0
LINE
  5
3A0
100
AcDbEntity
  8
0
100
AcDbLine
 62
7
  6
CONTINUOUS
 10
675.9101438178
 20
212.4184023762
 11
675.9101438178
 21
231.4471312847
  0
LINE
  5
3A1
100
AcDbEntity
  8
0
100
AcDbLine
 62
7
  6
CONTINUOUS
 10
676.4035758799
 20
236.141823757
 11
675.9101438178
 21
231.4471312847
  0
LINE
  5
3A2
100
AcDbEntity
  8
0
100
AcDbLine
 62
7
  6
CONTINUOUS
 10
676.4035758799
 20
207.7237099039
 11
675.9101438178
 21
212.4184023762
  0
LINE
  5
3A3
100
AcDbEntity
  8
0
100
AcDbLine
 62
7
  6
CONTINUOUS
 10
715.2851438178
 20
223.5285114999
 11
715.5351428642
 21
223.911490267
  0
LINE
  5
3A4
100
AcDbEntity
  8
0
100
AcDbLine
 62
7
  6
CONTINUOUS
 10
715.1601428642
 20
224.4221285487
 11
714.7851428642
 21
223.911490267
  0
LINE
  5
3A5
100
AcDbEntity
  8
0
100
AcDbLine
 62
7
  6
CONTINUOUS
 10
715.5351428642
 20
223.911490267
 11
715.9101428642
 21
224.1668093855
  0
LWPOLYLINE
  5
3A6
100
AcDbEntity
  8
RUNDUNGEN
100
AcDbPolyline
 62
7
  6
CONTINUOUS
 90
4
 70
0
 10
631.6750728297
 20
213.2137816663
 10
631.8271493277
 20
213.2692647987
 10
631.9742619153
 20
213.3368922555
 10
632.1110470855
 20
213.4141674712
  0
LINE
  5
3A7
100
AcDbEntity
  8
RUNDUNGEN
100
AcDbLine
 62
7
  6
CONTINUOUS
 10
702.4101438178
 20
215.2807286736
 11
702.4101438178
 21
228.5848063747
  0
LINE
  5
3A8
100
AcDbEntity
  8
0
100
AcDbLine
 62
7
  6
CONTINUOUS
 10
715.1601428642
 20
223.1455328221
 11
715.2851438178
 21
223.5285114999
  0
LINE
  5
3A9
100
AcDbEntity
  8
0
100
AcDbLine
 62
7
  6
CONTINUOUS
 10
718.2851438178
 20
222.7625541444
 11
718.1601442947
 21
222.3795752878
  0
LINE
  5
3AA
100
AcDbEntity
  8
0
100
AcDbLine
 62
7
  6
CONTINUOUS
 10
718.2851438178
 20
220.7200010176
 11
718.1601442947
 21
220.3370219822
  0
LINE
  5
3AB
100
AcDbEntity
  8
0
100
AcDbLine
 62
7
  6
CONTINUOUS
 10
714.7851428642
 20
223.911490267
 11
714.5351438178
 21
223.2731923814
  0
LINE
  5
3AC
100
AcDbEntity
  8
0
100
AcDbLine
 62
7
  6
CONTINUOUS
 10
718.6601438178
 20
219.9540433044
 11
718.9101442947
 21
220.5923414583
  0
LINE
  5
3AD
100
AcDbEntity
  8
0
100
AcDbLine
 62
7
  6
CONTINUOUS
 10
718.1601442947
 20
220.3370219822
 11
717.9101438178
 21
219.9540433044
  0
LINE
  5
3AE
100
AcDbEntity
  8
0
100
AcDbLine
 62
7
  6
CONTINUOUS
 10
732.4101435794
 20
223.4008519406
 11
732.6601440563
 21
223.7838306184
  0
LINE
  5
3AF
100
AcDbEntity
  8
0
100
AcDbLine
 62
7
  6
CONTINUOUS
 10
718.2851438178
 20
219.4434050674
 11
718.6601438178
 21
219.9540433044
  0
LINE
  5
3B0
100
AcDbEntity
  8
0
100
AcDbLine
 62
7
  6
CONTINUOUS
 10
726.4101442947
 20
221.7412774916
 11
726.0351442947
 21
221.2306392546
  0
LINE
  5
3B1
100
AcDbEntity
  8
0
100
AcDbLine
 62
7
  6
CONTINUOUS
 10
718.1601442947
 20
222.3795752878
 11
717.9101438178
 21
222.1242561693
  0
LINE
  5
3B2
100
AcDbEntity
  8
0
100
AcDbLine
 62
7
  6
CONTINUOUS
 10
726.7851442947
 20
221.1029796953
 11
727.035143341
 21
221.3582988138
  0
LINE
  5
3B3
100
AcDbEntity
  8
0
100
AcDbLine
 62
7
  6
CONTINUOUS
 10
732.4101435794
 20
224.549788108
 11
731.9101440563
 21
224.0391498263
  0
LINE
  5
3B4
100
AcDbEntity
  8
0
100
AcDbLine
 62
7
  6
CONTINUOUS
 10
737.660143937
 20
224.549788108
 11
737.1601436986
 21
224.0391498263
  0
LINE
  5
3B5
100
AcDbEntity
  8
0
100
AcDbLine
 62
7
  6
CONTINUOUS
 10
717.9101438178
 20
222.1242561693
 11
717.5351438178
 21
221.8689370508
  0
LINE
  5
3B6
100
AcDbEntity
  8
0
100
AcDbLine
 62
7
  6
CONTINUOUS
 10
717.6601447715
 20
221.2306392546
 11
718.410143341
 21
221.7412774916
  0
LINE
  5
3B7
100
AcDbEntity
  8
0
100
AcDbLine
 62
7
  6
CONTINUOUS
 10
717.9101438178
 20
219.9540433044
 11
717.5351438178
 21
219.6987241859
  0
LINE
  5
3B8
100
AcDbEntity
  8
0
100
AcDbLine
 62
7
  6
CONTINUOUS
 10
732.6601440563
 20
223.7838306184
 11
733.0351440563
 21
224.0391498263
  0
LINE
  5
3B9
100
AcDbEntity
  8
0
100
AcDbLine
 62
7
  6
CONTINUOUS
 10
737.9101436986
 20
223.7838306184
 11
738.2851436986
 21
224.0391498263
  0
LINE
  5
3BA
100
AcDbEntity
  8
0
100
AcDbLine
 62
7
  6
CONTINUOUS
 10
715.7851447715
 20
224.80510726
 11
715.1601428642
 21
224.4221285487
  0
LINE
  5
3BB
100
AcDbEntity
  8
0
100
AcDbLine
 62
7
  6
CONTINUOUS
 10
717.6601447715
 20
219.0604263897
 11
718.2851438178
 21
219.4434050674
  0
LINE
  5
3BC
100
AcDbEntity
  8
0
100
AcDbLine
 62
7
  6
CONTINUOUS
 10
763.9819405876
 20
238.664817638
 11
763.1780930103
 21
238.2007160229
  0
LINE
  5
3BD
100
AcDbEntity
  8
0
100
AcDbLine
 62
7
  6
CONTINUOUS
 10
726.9101438178
 20
221.9965966101
 11
726.4101442947
 21
221.7412774916
  0
LINE
  5
3BE
100
AcDbEntity
  8
0
100
AcDbLine
 62
7
  6
CONTINUOUS
 10
732.9101438178
 20
224.80510726
 11
732.4101435794
 21
224.549788108
  0
LINE
  5
3BF
100
AcDbEntity
  8
0
100
AcDbLine
 62
7
  6
CONTINUOUS
 10
738.1601438178
 20
224.80510726
 11
737.660143937
 21
224.549788108
  0
LINE
  5
3C0
100
AcDbEntity
  8
0
100
AcDbLine
 62
7
  6
CONTINUOUS
 10
715.9101428642
 20
224.1668093855
 11
716.2851428642
 21
224.2944689448
  0
LINE
  5
3C1
100
AcDbEntity
  8
0
100
AcDbLine
 62
7
  6
CONTINUOUS
 10
717.5351438178
 20
221.8689370508
 11
717.1601438178
 21
221.7412774916
  0
LINE
  5
3C2
100
AcDbEntity
  8
0
100
AcDbLine
 62
7
  6
CONTINUOUS
 10
717.5351438178
 20
219.6987241859
 11
717.1601438178
 21
219.5710646267
  0
LINE
  5
3C3
100
AcDbEntity
  8
0
100
AcDbLine
 62
7
  6
CONTINUOUS
 10
727.035143341
 20
221.3582988138
 11
727.410143341
 21
221.4859583731
  0
LINE
  5
3C4
100
AcDbEntity
  8
BEZUGSACHSEN
100
AcDbLine
 62
7
  6
CONTINUOUS
 10
782.9101438178
 20
75.4327668304
 11
776.9101438178
 21
75.4327668304
  0
LINE
  5
3C5
100
AcDbEntity
  8
0
100
AcDbLine
 62
7
  6
CONTINUOUS
 10
714.5351438178
 20
223.2731923814
 11
714.5351438178
 21
222.6348944063
  0
LINE
  5
3C6
100
AcDbEntity
  8
0
100
AcDbLine
 62
7
  6
CONTINUOUS
 10
715.1601428642
 20
222.7625541444
 11
715.1601428642
 21
223.1455328221
  0
LINE
  5
3C7
100
AcDbEntity
  8
0
100
AcDbLine
 62
7
  6
CONTINUOUS
 10
718.2851438178
 20
223.1455328221
 11
718.2851438178
 21
222.7625541444
  0
LINE
  5
3C8
100
AcDbEntity
  8
0
100
AcDbLine
 62
7
  6
CONTINUOUS
 10
718.410143341
 20
221.7412774916
 11
718.410143341
 21
221.4859583731
  0
LINE
  5
3C9
100
AcDbEntity
  8
0
100
AcDbLine
 62
7
  6
CONTINUOUS
 10
719.0351438178
 20
221.4859583731
 11
719.0351438178
 21
222.3795752878
  0
LINE
  5
3CA
100
AcDbEntity
  8
0
100
AcDbLine
 62
7
  6
CONTINUOUS
 10
720.0351442947
 20
219.5710646267
 11
720.0351442947
 21
218.9327668304
  0
LINE
  5
3CB
100
AcDbEntity
  8
0
100
AcDbLine
 62
7
  6
CONTINUOUS
 10
722.0351438178
 20
224.9327668304
 11
722.0351438178
 21
219.5710646267
  0
LINE
  5
3CC
100
AcDbEntity
  8
0
100
AcDbLine
 62
7
  6
CONTINUOUS
 10
722.7851438178
 20
219.5710646267
 11
722.7851438178
 21
224.9327668304
  0
LINE
  5
3CD
100
AcDbEntity
  8
0
100
AcDbLine
 62
7
  6
CONTINUOUS
 10
718.9101442947
 20
220.5923414583
 11
719.0351438178
 21
221.4859583731
  0
LINE
  5
3CE
100
AcDbEntity
  8
0
100
AcDbLine
 62
7
  6
CONTINUOUS
 10
718.410143341
 20
221.4859583731
 11
718.2851438178
 21
220.7200010176
  0
LINE
  5
3CF
100
AcDbEntity
  8
0
100
AcDbLine
 62
7
  6
CONTINUOUS
 10
731.6601435794
 20
223.5285114999
 11
731.5351440563
 21
222.8902137036
  0
LINE
  5
3D0
100
AcDbEntity
  8
0
100
AcDbLine
 62
7
  6
CONTINUOUS
 10
732.2851440563
 20
222.8902137036
 11
732.4101435794
 21
223.4008519406
  0
LINE
  5
3D1
100
AcDbEntity
  8
0
100
AcDbLine
 62
7
  6
CONTINUOUS
 10
726.0351442947
 20
221.2306392546
 11
725.910143341
 21
220.8476605768
  0
LINE
  5
3D2
100
AcDbEntity
  8
0
100
AcDbLine
 62
7
  6
CONTINUOUS
 10
726.660143341
 20
220.7200010176
 11
726.7851442947
 21
221.1029796953
  0
LINE
  5
3D3
100
AcDbEntity
  8
0
100
AcDbLine
 62
7
  6
CONTINUOUS
 10
737.7851438178
 20
223.4008519406
 11
737.9101436986
 21
223.7838306184
  0
LINE
  5
3D4
100
AcDbEntity
  8
0
100
AcDbLine
 62
7
  6
CONTINUOUS
 10
731.9101440563
 20
224.0391498263
 11
731.6601435794
 21
223.5285114999
  0
LINE
  5
3D5
100
AcDbEntity
  8
0
100
AcDbLine
 62
7
  6
CONTINUOUS
 10
741.5351438178
 20
219.8263837452
 11
741.7851438141
 21
220.3370219822
  0
LINE
  5
3D6
100
AcDbEntity
  8
0
100
AcDbLine
 62
7
  6
CONTINUOUS
 10
741.0351438476
 20
220.4646818991
 11
740.7851438178
 21
220.0817028637
  0
LINE
  5
3D7
100
AcDbEntity
  8
0
100
AcDbLine
 62
7
  6
CONTINUOUS
 10
741.0351438476
 20
219.3157455082
 11
741.5351438178
 21
219.8263837452
  0
LINE
  5
3D8
100
AcDbEntity
  8
0
100
AcDbLine
 62
7
  6
CONTINUOUS
 10
740.7851438178
 20
220.0817028637
 11
740.4101438178
 21
219.8263837452
  0
LINE
  5
3D9
100
AcDbEntity
  8
0
100
AcDbLine
 62
7
  6
CONTINUOUS
 10
740.535143788
 20
219.0604263897
 11
741.0351438476
 21
219.3157455082
  0
LINE
  5
3DA
100
AcDbEntity
  8
0
100
AcDbLine
 62
7
  6
CONTINUOUS
 10
724.785143341
 20
218.9327668304
 11
724.785143341
 21
219.5710646267
  0
LINE
  5
3DB
100
AcDbEntity
  8
0
100
AcDbLine
 62
7
  6
CONTINUOUS
 10
725.910143341
 20
220.8476605768
 11
725.910143341
 21
220.3370219822
  0
LINE
  5
3DC
100
AcDbEntity
  8
0
100
AcDbLine
 62
7
  6
CONTINUOUS
 10
726.660143341
 20
220.3370219822
 11
726.660143341
 21
220.7200010176
  0
LINE
  5
3DD
100
AcDbEntity
  8
0
100
AcDbLine
 62
7
  6
CONTINUOUS
 10
729.7851442947
 20
224.9327668304
 11
729.7851442947
 21
222.2519157286
  0
LINE
  5
3DE
100
AcDbEntity
  8
0
100
AcDbLine
 62
7
  6
CONTINUOUS
 10
729.7851442947
 20
221.4859583731
 11
729.7851442947
 21
219.5710646267
  0
LINE
  5
3DF
100
AcDbEntity
  8
0
100
AcDbLine
 62
7
  6
CONTINUOUS
 10
730.5351435794
 20
218.9327668304
 11
730.5351435794
 21
224.9327668304
  0
LINE
  5
3E0
100
AcDbEntity
  8
0
100
AcDbLine
 62
7
  6
CONTINUOUS
 10
731.5351440563
 20
222.8902137036
 11
731.5351440563
 21
218.9327668304
  0
LINE
  5
3E1
100
AcDbEntity
  8
0
100
AcDbLine
 62
7
  6
CONTINUOUS
 10
732.2851440563
 20
218.9327668304
 11
732.2851440563
 21
222.8902137036
  0
LINE
  5
3E2
100
AcDbEntity
  8
0
100
AcDbLine
 62
7
  6
CONTINUOUS
 10
735.2851440563
 20
222.8902137036
 11
735.2851440563
 21
218.9327668304
  0
LINE
  5
3E3
100
AcDbEntity
  8
0
100
AcDbLine
 62
7
  6
CONTINUOUS
 10
736.0351436986
 20
218.9327668304
 11
736.0351436986
 21
222.8902137036
  0
LINE
  5
3E4
100
AcDbEntity
  8
0
100
AcDbLine
 62
7
  6
CONTINUOUS
 10
737.1601436986
 20
224.0391498263
 11
737.0351438178
 21
223.4008519406
  0
LINE
  5
3E5
100
AcDbEntity
  8
0
100
AcDbLine
 62
7
  6
CONTINUOUS
 10
741.7851438141
 20
220.3370219822
 11
741.9101438178
 21
220.9753201361
  0
LINE
  5
3E6
100
AcDbEntity
  8
0
100
AcDbLine
 62
7
  6
CONTINUOUS
 10
741.1601438178
 20
220.9753201361
 11
741.0351438476
 21
220.4646818991
  0
LINE
  5
3E7
100
AcDbEntity
  8
0
100
AcDbLine
 62
7
  6
CONTINUOUS
 10
714.7851428642
 20
220.3370219822
 11
714.9101438178
 21
219.9540433044
  0
LINE
  5
3E8
100
AcDbEntity
  8
0
100
AcDbLine
 62
7
  6
CONTINUOUS
 10
715.2851438178
 20
222.3795752878
 11
715.1601428642
 21
222.7625541444
  0
LINE
  5
3E9
100
AcDbEntity
  8
0
100
AcDbLine
 62
7
  6
CONTINUOUS
 10
719.0351438178
 20
222.3795752878
 11
718.9101442947
 21
223.2731923814
  0
LINE
  5
3EA
100
AcDbEntity
  8
0
100
AcDbLine
 62
7
  6
CONTINUOUS
 10
741.1601438178
 20
222.8902137036
 11
741.1601438178
 21
220.9753201361
  0
LINE
  5
3EB
100
AcDbEntity
  8
0
100
AcDbLine
 62
7
  6
CONTINUOUS
 10
741.9101438178
 20
220.9753201361
 11
741.9101438178
 21
222.8902137036
  0
LINE
  5
3EC
100
AcDbEntity
  8
RUNDUNGEN
100
AcDbLine
 62
7
  6
CONTINUOUS
 10
744.4101438178
 20
228.5848067197
 11
744.4101438178
 21
215.2807221529
  0
LINE
  5
3ED
100
AcDbEntity
  8
0
100
AcDbLine
 62
7
  6
CONTINUOUS
 10
796.6421946254
 20
205.664817638
 11
795.8383470481
 21
205.2007160229
  0
LINE
  5
3EE
100
AcDbEntity
  8
0
100
AcDbLine
 62
7
  6
CONTINUOUS
 10
872.0816780048
 20
240.6312299344
 11
865.4961773726
 21
238.2343037265
  0
LINE
  5
3EF
100
AcDbEntity
  8
RUNDUNGEN
100
AcDbLine
 62
7
  6
CONTINUOUS
 10
577.7842947899
 20
208.5652302263
 11
588.0028346261
 21
204.2277174074
  0
LINE
  5
3F0
100
AcDbEntity
  8
BEZUGSACHSEN
100
AcDbLine
 62
7
  6
CONTINUOUS
 10
619.4928567218
 20
238.6243317861
 11
628.9658791685
 21
231.9912500592
  0
LINE
  5
3F1
100
AcDbEntity
  8
0
100
AcDbLine
 62
7
  6
CONTINUOUS
 10
714.5351438178
 20
222.6348944063
 11
714.7851428642
 21
221.9965966101
  0
LINE
  5
3F2
100
AcDbEntity
  8
0
100
AcDbLine
 62
7
  6
CONTINUOUS
 10
718.9101442947
 20
223.2731923814
 11
718.6601438178
 21
223.911490267
  0
LINE
  5
3F3
100
AcDbEntity
  8
0
100
AcDbLine
 62
7
  6
CONTINUOUS
 10
725.7851438178
 20
224.9327668304
 11
726.9101438178
 21
221.9965966101
  0
LINE
  5
3F4
100
AcDbEntity
  8
0
100
AcDbLine
 62
7
  6
CONTINUOUS
 10
727.6601438178
 20
222.2519157286
 11
726.660143341
 21
224.9327668304
  0
LINE
  5
3F5
100
AcDbEntity
  8
0
100
AcDbLine
 62
7
  6
CONTINUOUS
 10
718.1601442947
 20
223.5285114999
 11
718.2851438178
 21
223.1455328221
  0
LINE
  5
3F6
100
AcDbEntity
  8
0
100
AcDbLine
 62
7
  6
CONTINUOUS
 10
725.910143341
 20
220.3370219822
 11
726.0351442947
 21
219.9540433044
  0
LINE
  5
3F7
100
AcDbEntity
  8
0
100
AcDbLine
 62
7
  6
CONTINUOUS
 10
726.7851442947
 20
219.9540433044
 11
726.660143341
 21
220.3370219822
  0
LINE
  5
3F8
100
AcDbEntity
  8
0
100
AcDbLine
 62
7
  6
CONTINUOUS
 10
735.1601438178
 20
223.4008519406
 11
735.2851440563
 21
222.8902137036
  0
LINE
  5
3F9
100
AcDbEntity
  8
0
100
AcDbLine
 62
7
  6
CONTINUOUS
 10
736.0351436986
 20
222.8902137036
 11
735.9101438178
 21
223.5285114999
  0
LINE
  5
3FA
100
AcDbEntity
  8
0
100
AcDbLine
 62
7
  6
CONTINUOUS
 10
737.0351438178
 20
220.4646818991
 11
737.1601436986
 21
219.8263837452
  0
LINE
  5
3FB
100
AcDbEntity
  8
RUNDUNGEN
100
AcDbLine
 62
7
  6
CONTINUOUS
 10
767.9101438178
 20
195.9327668304
 11
767.9101438178
 21
247.9327668304
  0
LINE
  5
3FC
100
AcDbEntity
  8
RUNDUNGEN
100
AcDbLine
 62
7
  6
CONTINUOUS
 10
768.9101438178
 20
175.9939722075
 11
768.9101438178
 21
193.8199623068
  0
LWPOLYLINE
  5
3FD
100
AcDbEntity
  8
RUNDUNGEN
100
AcDbPolyline
 62
7
  6
CONTINUOUS
 90
4
 70
0
 10
632.1111549877
 20
230.4513062243
 10
631.9741866318
 20
230.5286807504
 10
631.8270741406
 20
230.5963002826
 10
631.6750084314
 20
230.651772786
  0
LINE
  5
3FE
100
AcDbEntity
  8
0
100
AcDbLine
 62
7
  6
CONTINUOUS
 10
714.9101438178
 20
219.9540433044
 11
715.2851438178
 21
219.4434050674
  0
LINE
  5
3FF
100
AcDbEntity
  8
0
100
AcDbLine
 62
7
  6
CONTINUOUS
 10
718.6601438178
 20
223.911490267
 11
718.2851438178
 21
224.4221285487
  0
LINE
  5
400
100
AcDbEntity
  8
0
100
AcDbLine
 62
7
  6
CONTINUOUS
 10
715.6601438178
 20
219.9540433044
 11
715.4101447715
 21
220.3370219822
  0
LINE
  5
401
100
AcDbEntity
  8
0
100
AcDbLine
 62
7
  6
CONTINUOUS
 10
717.9101438178
 20
223.911490267
 11
718.1601442947
 21
223.5285114999
  0
LINE
  5
402
100
AcDbEntity
  8
0
100
AcDbLine
 62
7
  6
CONTINUOUS
 10
735.9101438178
 20
223.5285114999
 11
735.6601440563
 21
224.0391498263
  0
LINE
  5
403
100
AcDbEntity
  8
0
100
AcDbLine
 62
7
  6
CONTINUOUS
 10
737.9101436986
 20
220.0817028637
 11
737.7851438178
 21
220.4646818991
  0
LINE
  5
404
100
AcDbEntity
  8
0
100
AcDbLine
 62
7
  6
CONTINUOUS
 10
741.0351438476
 20
223.4008519406
 11
741.1601438178
 21
222.8902137036
  0
LINE
  5
405
100
AcDbEntity
  8
0
100
AcDbLine
 62
7
  6
CONTINUOUS
 10
741.9101438178
 20
222.8902137036
 11
741.7851438141
 21
223.5285114999
  0
LINE
  5
406
100
AcDbEntity
  8
RUNDUNGEN
100
AcDbLine
 62
7
  6
CONTINUOUS
 10
768.9101438178
 20
175.9939722075
 11
769.0326751435
 21
173.7834883007
  0
LINE
  5
407
100
AcDbEntity
  8
RUNDUNGEN
100
AcDbLine
 62
7
  6
CONTINUOUS
 10
773.9101438178
 20
78.4327668304
 11
773.9101438178
 21
147.8715615035
  0
LINE
  5
408
100
AcDbEntity
  8
RUNDUNGEN
100
AcDbLine
 62
7
  6
CONTINUOUS
 10
774.9101438178
 20
248.9327668304
 11
774.9101438178
 21
196.4327668304
  0
LINE
  5
409
100
AcDbEntity
  8
0
100
AcDbLine
 62
7
  6
CONTINUOUS
 10
842.4101438178
 20
228.5327668304
 11
839.6101438178
 21
225.7327668304
  0
LWPOLYLINE
  5
40A
100
AcDbEntity
  8
RUNDUNGEN
100
AcDbPolyline
 62
7
  6
CONTINUOUS
 90
4
 70
0
 10
933.1452116908
 20
230.6517510616
 10
932.9931308279
 20
230.5962659228
 10
932.8460159223
 20
230.5286366857
 10
932.7092603755
 20
230.4513778113
  0
LINE
  5
40B
100
AcDbEntity
  8
0
100
AcDbLine
 62
7
  6
CONTINUOUS
 10
714.7851428642
 20
221.9965966101
 11
715.1601428642
 21
221.6136179323
  0
LINE
  5
40C
100
AcDbEntity
  8
0
100
AcDbLine
 62
7
  6
CONTINUOUS
 10
715.5351428642
 20
222.1242561693
 11
715.2851438178
 21
222.3795752878
  0
LINE
  5
40D
100
AcDbEntity
  8
0
100
AcDbLine
 62
7
  6
CONTINUOUS
 10
727.035143341
 20
219.6987241859
 11
726.7851442947
 21
219.9540433044
  0
LINE
  5
40E
100
AcDbEntity
  8
0
100
AcDbLine
 62
7
  6
CONTINUOUS
 10
726.0351442947
 20
219.9540433044
 11
726.4101442947
 21
219.4434050674
  0
LINE
  5
40F
100
AcDbEntity
  8
0
100
AcDbLine
 62
7
  6
CONTINUOUS
 10
734.9101440563
 20
223.7838306184
 11
735.1601438178
 21
223.4008519406
  0
LINE
  5
410
100
AcDbEntity
  8
0
100
AcDbLine
 62
7
  6
CONTINUOUS
 10
740.7851438178
 20
223.7838306184
 11
741.0351438476
 21
223.4008519406
  0
LINE
  5
411
100
AcDbEntity
  8
0
100
AcDbLine
 62
7
  6
CONTINUOUS
 10
741.7851438141
 20
223.5285114999
 11
741.5351438178
 21
224.0391498263
  0
LINE
  5
412
100
AcDbEntity
  8
RUNDUNGEN
100
AcDbLine
 62
7
  6
CONTINUOUS
 10
773.4897520749
 20
151.9506471964
 11
769.3305354231
 21
171.9148871252
  0
LINE
  5
413
100
AcDbEntity
  8
RUNDUNGEN
100
AcDbLine
 62
7
  6
CONTINUOUS
 10
784.9101438178
 20
196.4327668304
 11
784.9101438178
 21
248.9327668304
  0
LINE
  5
414
100
AcDbEntity
  8
BEZUGSACHSEN
100
AcDbLine
 62
7
  6
CONTINUOUS
 10
785.9101438178
 20
78.4327668304
 11
785.9101438178
 21
147.8715615035
  0
LINE
  5
415
100
AcDbEntity
  8
BEZUGSACHSEN
100
AcDbLine
 62
7
  6
CONTINUOUS
 10
790.9101438178
 20
193.8199749346
 11
790.9101438178
 21
175.9939722075
  0
LINE
  5
416
100
AcDbEntity
  8
RUNDUNGEN
100
AcDbLine
 62
7
  6
CONTINUOUS
 10
790.9101438178
 20
175.9939722075
 11
790.9101438178
 21
193.819971681
  0
LINE
  5
417
100
AcDbEntity
  8
RUNDUNGEN
100
AcDbLine
 62
7
  6
CONTINUOUS
 10
791.9101438178
 20
247.9327668304
 11
791.9101438178
 21
195.9327668304
  0
LINE
  5
418
100
AcDbEntity
  8
BEZUGSACHSEN
100
AcDbLine
 62
7
  6
CONTINUOUS
 10
786.3305355607
 20
151.9506471964
 11
790.4897522126
 21
171.9148871252
  0
LINE
  5
419
100
AcDbEntity
  8
0
100
AcDbLine
 62
7
  6
CONTINUOUS
 10
715.2851438178
 20
219.4434050674
 11
715.9101428642
 21
219.0604263897
  0
LINE
  5
41A
100
AcDbEntity
  8
0
100
AcDbLine
 62
7
  6
CONTINUOUS
 10
715.1601428642
 20
221.6136179323
 11
715.7851447715
 21
221.2306392546
  0
LINE
  5
41B
100
AcDbEntity
  8
0
100
AcDbLine
 62
7
  6
CONTINUOUS
 10
716.0351438178
 20
219.6987241859
 11
715.6601438178
 21
219.9540433044
  0
LINE
  5
41C
100
AcDbEntity
  8
0
100
AcDbLine
 62
7
  6
CONTINUOUS
 10
715.9101428642
 20
221.8689370508
 11
715.5351428642
 21
222.1242561693
  0
LINE
  5
41D
100
AcDbEntity
  8
0
100
AcDbLine
 62
7
  6
CONTINUOUS
 10
717.5351438178
 20
224.1668093855
 11
717.9101438178
 21
223.911490267
  0
LINE
  5
41E
100
AcDbEntity
  8
0
100
AcDbLine
 62
7
  6
CONTINUOUS
 10
726.4101442947
 20
219.4434050674
 11
726.9101438178
 21
219.0604263897
  0
LINE
  5
41F
100
AcDbEntity
  8
0
100
AcDbLine
 62
7
  6
CONTINUOUS
 10
737.1601436986
 20
219.8263837452
 11
737.660143937
 21
219.3157455082
  0
LINE
  5
420
100
AcDbEntity
  8
0
100
AcDbLine
 62
7
  6
CONTINUOUS
 10
735.6601440563
 20
224.0391498263
 11
735.1601438178
 21
224.549788108
  0
LINE
  5
421
100
AcDbEntity
  8
0
100
AcDbLine
 62
7
  6
CONTINUOUS
 10
741.5351438178
 20
224.0391498263
 11
741.0351438476
 21
224.549788108
  0
LINE
  5
422
100
AcDbEntity
  8
RUNDUNGEN
100
AcDbLine
 62
7
  6
CONTINUOUS
 10
807.4101438178
 20
215.2807315564
 11
807.4101438178
 21
228.5848035402
  0
LINE
  5
423
100
AcDbEntity
  8
RUNDUNGEN
100
AcDbLine
 62
7
  6
CONTINUOUS
 10
945.3273673431
 20
238.6242872733
 11
935.8544084671
 21
231.9912500592
  0
LINE
  5
424
100
AcDbEntity
  8
0
100
AcDbLine
 62
7
  6
CONTINUOUS
 10
737.660143937
 20
219.3157455082
 11
738.1601438178
 21
219.0604263897
  0
LINE
  5
425
100
AcDbEntity
  8
0
100
AcDbLine
 62
7
  6
CONTINUOUS
 10
763.9819405876
 20
205.2007160229
 11
763.1780930103
 21
205.664817638
  0
LINE
  5
426
100
AcDbEntity
  8
0
100
AcDbLine
 62
7
  6
CONTINUOUS
 10
718.2851438178
 20
224.4221285487
 11
717.6601447715
 21
224.80510726
  0
LINE
  5
427
100
AcDbEntity
  8
0
100
AcDbLine
 62
7
  6
CONTINUOUS
 10
738.2851436986
 20
219.8263837452
 11
737.9101436986
 21
220.0817028637
  0
LINE
  5
428
100
AcDbEntity
  8
0
100
AcDbLine
 62
7
  6
CONTINUOUS
 10
734.5351440563
 20
224.0391498263
 11
734.9101440563
 21
223.7838306184
  0
LINE
  5
429
100
AcDbEntity
  8
0
100
AcDbLine
 62
7
  6
CONTINUOUS
 10
740.4101438178
 20
224.0391498263
 11
740.7851438178
 21
223.7838306184
  0
LINE
  5
42A
100
AcDbEntity
  8
BEZUGSACHSEN
100
AcDbLine
 62
7
  6
CONTINUOUS
 10
987.0359928458
 20
208.5652302263
 11
976.8174525964
 21
204.227717232
  0
LINE
  5
42B
100
AcDbEntity
  8
RUNDUNGEN
100
AcDbLine
 62
7
  6
CONTINUOUS
 10
775.9101438178
 20
195.4327668304
 11
783.9101438178
 21
195.4327668304
  0
LINE
  5
42C
100
AcDbEntity
  8
0
100
AcDbLine
 62
7
  6
CONTINUOUS
 10
784.7761692216
 20
195.9327668304
 11
775.0441184141
 21
195.9327668304
  0
LINE
  5
42D
100
AcDbEntity
  8
0
100
AcDbLine
 62
7
  6
CONTINUOUS
 10
881.9101438178
 20
202.9327668304
 11
873.7917787214
 21
202.9327668304
  0
LINE
  5
42E
100
AcDbEntity
  8
BEZUGSACHSEN
100
AcDbLine
 62
7
  6
CONTINUOUS
 10
903.4101438178
 20
202.9327668304
 11
906.4101438178
 21
202.9327668304
  0
LINE
  5
42F
100
AcDbEntity
  8
BEZUGSACHSEN
100
AcDbLine
 62
7
  6
CONTINUOUS
 10
972.9101438178
 20
203.4327668304
 11
951.0631271441
 21
203.4327668304
  0
LINE
  5
430
100
AcDbEntity
  8
RUNDUNGEN
100
AcDbLine
 62
7
  6
CONTINUOUS
 10
591.9101438178
 20
203.4327668304
 11
613.7571446443
 21
203.4327668304
  0
LINE
  5
431
100
AcDbEntity
  8
0
100
AcDbLine
 62
7
  6
CONTINUOUS
 10
764.9819405876
 20
204.9327668304
 11
767.9101438178
 21
204.9327668304
  0
LINE
  5
432
100
AcDbEntity
  8
0
100
AcDbLine
 62
7
  6
CONTINUOUS
 10
791.9101438178
 20
204.9327668304
 11
794.8383470481
 21
204.9327668304
  0
LINE
  5
433
100
AcDbEntity
  8
0
100
AcDbLine
 62
7
  6
CONTINUOUS
 10
863.7860766559
 20
205.9327668304
 11
797.6421946254
 21
205.9327668304
  0
LINE
  5
434
100
AcDbEntity
  8
0
100
AcDbLine
 62
7
  6
CONTINUOUS
 10
678.3926196707
 20
205.9327668304
 11
762.1780930103
 21
205.9327668304
  0
LINE
  5
435
100
AcDbEntity
  8
0
100
AcDbLine
 62
7
  6
CONTINUOUS
 10
715.9101428642
 20
219.0604263897
 11
716.5351447715
 21
218.9327668304
  0
LINE
  5
436
100
AcDbEntity
  8
0
100
AcDbLine
 62
7
  6
CONTINUOUS
 10
715.7851447715
 20
221.2306392546
 11
716.4101438178
 21
221.1029796953
  0
LINE
  5
437
100
AcDbEntity
  8
0
100
AcDbLine
 62
7
  6
CONTINUOUS
 10
726.9101438178
 20
219.0604263897
 11
727.5351442947
 21
218.9327668304
  0
LINE
  5
438
100
AcDbEntity
  8
0
100
AcDbLine
 62
7
  6
CONTINUOUS
 10
738.1601438178
 20
219.0604263897
 11
738.785143937
 21
218.9327668304
  0
LINE
  5
439
100
AcDbEntity
  8
0
100
AcDbLine
 62
7
  6
CONTINUOUS
 10
738.785143937
 20
219.6987241859
 11
738.2851436986
 21
219.8263837452
  0
LINE
  5
43A
100
AcDbEntity
  8
0
100
AcDbLine
 62
7
  6
CONTINUOUS
 10
716.4101438178
 20
219.5710646267
 11
716.0351438178
 21
219.6987241859
  0
LINE
  5
43B
100
AcDbEntity
  8
0
100
AcDbLine
 62
7
  6
CONTINUOUS
 10
716.2851428642
 20
221.7412774916
 11
715.9101428642
 21
221.8689370508
  0
LINE
  5
43C
100
AcDbEntity
  8
0
100
AcDbLine
 62
7
  6
CONTINUOUS
 10
727.410143341
 20
219.5710646267
 11
727.035143341
 21
219.6987241859
  0
LINE
  5
43D
100
AcDbEntity
  8
0
100
AcDbLine
 62
7
  6
CONTINUOUS
 10
717.1601438178
 20
224.2944689448
 11
717.5351438178
 21
224.1668093855
  0
LINE
  5
43E
100
AcDbEntity
  8
0
100
AcDbLine
 62
7
  6
CONTINUOUS
 10
735.1601438178
 20
224.549788108
 11
734.6601435794
 21
224.80510726
  0
LINE
  5
43F
100
AcDbEntity
  8
0
100
AcDbLine
 62
7
  6
CONTINUOUS
 10
741.0351438476
 20
224.549788108
 11
740.535143788
 21
224.80510726
  0
LINE
  5
440
100
AcDbEntity
  8
0
100
AcDbLine
 62
7
  6
CONTINUOUS
 10
841.0101438178
 20
225.7327668304
 11
841.0101438178
 21
215.5327668304
  0
LINE
  5
441
100
AcDbEntity
  8
0
100
AcDbLine
 62
7
  6
CONTINUOUS
 10
843.8101438178
 20
215.5327668304
 11
843.8101438178
 21
225.7327668304
  0
LINE
  5
442
100
AcDbEntity
  8
0
100
AcDbLine
 62
7
  6
CONTINUOUS
 10
927.4101438178
 20
214.9327668304
 11
907.9101438178
 21
214.9327668304
  0
LINE
  5
443
100
AcDbEntity
  8
0
100
AcDbLine
 62
7
  6
CONTINUOUS
 10
902.9101438178
 20
214.9327668304
 11
882.9101438178
 21
214.9327668304
  0
LINE
  5
444
100
AcDbEntity
  8
0
100
AcDbLine
 62
7
  6
CONTINUOUS
 10
637.4101438178
 20
214.9327668304
 11
675.9101438178
 21
214.9327668304
  0
LINE
  5
445
100
AcDbEntity
  8
0
100
AcDbLine
 62
7
  6
CONTINUOUS
 10
841.0101438178
 20
215.5327668304
 11
843.8101438178
 21
215.5327668304
  0
LINE
  5
446
100
AcDbEntity
  8
RUNDUNGEN
100
AcDbLine
 62
7
  6
CONTINUOUS
 10
591.6800846901
 20
217.9327668304
 11
576.0414941981
 21
217.9327668304
  0
LINE
  5
447
100
AcDbEntity
  8
BEZUGSACHSEN
100
AcDbLine
 62
7
  6
CONTINUOUS
 10
973.1402029456
 20
217.9327668304
 11
988.7787934376
 21
217.9327668304
  0
LINE
  5
448
100
AcDbEntity
  8
0
100
AcDbLine
 62
7
  6
CONTINUOUS
 10
716.5351447715
 20
218.9327668304
 11
717.0351428642
 21
218.9327668304
  0
LINE
  5
449
100
AcDbEntity
  8
0
100
AcDbLine
 62
7
  6
CONTINUOUS
 10
720.0351442947
 20
218.9327668304
 11
724.785143341
 21
218.9327668304
  0
LINE
  5
44A
100
AcDbEntity
  8
0
100
AcDbLine
 62
7
  6
CONTINUOUS
 10
727.5351442947
 20
218.9327668304
 11
730.5351435794
 21
218.9327668304
  0
LINE
  5
44B
100
AcDbEntity
  8
0
100
AcDbLine
 62
7
  6
CONTINUOUS
 10
731.5351440563
 20
218.9327668304
 11
732.2851440563
 21
218.9327668304
  0
LINE
  5
44C
100
AcDbEntity
  8
0
100
AcDbLine
 62
7
  6
CONTINUOUS
 10
735.2851440563
 20
218.9327668304
 11
736.0351436986
 21
218.9327668304
  0
LINE
  5
44D
100
AcDbEntity
  8
0
100
AcDbLine
 62
7
  6
CONTINUOUS
 10
738.785143937
 20
218.9327668304
 11
739.9101437582
 21
218.9327668304
  0
LINE
  5
44E
100
AcDbEntity
  8
0
100
AcDbLine
 62
7
  6
CONTINUOUS
 10
729.7851442947
 20
219.5710646267
 11
727.410143341
 21
219.5710646267
  0
LINE
  5
44F
100
AcDbEntity
  8
0
100
AcDbLine
 62
7
  6
CONTINUOUS
 10
724.785143341
 20
219.5710646267
 11
722.7851438178
 21
219.5710646267
  0
LINE
  5
450
100
AcDbEntity
  8
0
100
AcDbLine
 62
7
  6
CONTINUOUS
 10
722.0351438178
 20
219.5710646267
 11
720.0351442947
 21
219.5710646267
  0
LINE
  5
451
100
AcDbEntity
  8
0
100
AcDbLine
 62
7
  6
CONTINUOUS
 10
717.1601438178
 20
219.5710646267
 11
716.4101438178
 21
219.5710646267
  0
LINE
  5
452
100
AcDbEntity
  8
0
100
AcDbLine
 62
7
  6
CONTINUOUS
 10
739.9101437582
 20
219.6987241859
 11
738.785143937
 21
219.6987241859
  0
LINE
  5
453
100
AcDbEntity
  8
0
100
AcDbLine
 62
7
  6
CONTINUOUS
 10
715.4101447715
 20
220.3370219822
 11
714.7851428642
 21
220.3370219822
  0
LINE
  5
454
100
AcDbEntity
  8
0
100
AcDbLine
 62
7
  6
CONTINUOUS
 10
737.7851438178
 20
220.4646818991
 11
737.0351438178
 21
220.4646818991
  0
LINE
  5
455
100
AcDbEntity
  8
0
100
AcDbLine
 62
7
  6
CONTINUOUS
 10
716.4101438178
 20
221.1029796953
 11
717.0351428642
 21
221.1029796953
  0
LINE
  5
456
100
AcDbEntity
  8
0
100
AcDbLine
 62
7
  6
CONTINUOUS
 10
727.410143341
 20
221.4859583731
 11
729.7851442947
 21
221.4859583731
  0
LINE
  5
457
100
AcDbEntity
  8
0
100
AcDbLine
 62
7
  6
CONTINUOUS
 10
717.1601438178
 20
221.7412774916
 11
716.2851428642
 21
221.7412774916
  0
LINE
  5
458
100
AcDbEntity
  8
0
100
AcDbLine
 62
7
  6
CONTINUOUS
 10
729.7851442947
 20
222.2519157286
 11
727.6601438178
 21
222.2519157286
  0
LINE
  5
459
100
AcDbEntity
  8
0
100
AcDbLine
 62
7
  6
CONTINUOUS
 10
737.0351438178
 20
223.4008519406
 11
737.7851438178
 21
223.4008519406
  0
LINE
  5
45A
100
AcDbEntity
  8
0
100
AcDbLine
 62
7
  6
CONTINUOUS
 10
733.5351435794
 20
224.1668093855
 11
734.0351438178
 21
224.1668093855
  0
LINE
  5
45B
100
AcDbEntity
  8
0
100
AcDbLine
 62
7
  6
CONTINUOUS
 10
738.785143937
 20
224.1668093855
 11
739.9101437582
 21
224.1668093855
  0
LINE
  5
45C
100
AcDbEntity
  8
0
100
AcDbLine
 62
7
  6
CONTINUOUS
 10
716.2851428642
 20
224.2944689448
 11
717.1601438178
 21
224.2944689448
  0
LINE
  5
45D
100
AcDbEntity
  8
0
100
AcDbLine
 62
7
  6
CONTINUOUS
 10
927.3117695366
 20
224.4327668304
 11
907.9101438178
 21
224.4327668304
  0
LINE
  5
45E
100
AcDbEntity
  8
0
100
AcDbLine
 62
7
  6
CONTINUOUS
 10
902.9101438178
 20
224.4327668304
 11
882.9101438178
 21
224.4327668304
  0
LINE
  5
45F
100
AcDbEntity
  8
0
100
AcDbLine
 62
7
  6
CONTINUOUS
 10
717.6601447715
 20
224.80510726
 11
717.0351428642
 21
224.9327668304
  0
LINE
  5
460
100
AcDbEntity
  8
0
100
AcDbLine
 62
7
  6
CONTINUOUS
 10
734.6601435794
 20
224.80510726
 11
734.0351438178
 21
224.9327668304
  0
LINE
  5
461
100
AcDbEntity
  8
0
100
AcDbLine
 62
7
  6
CONTINUOUS
 10
740.535143788
 20
224.80510726
 11
739.9101437582
 21
224.9327668304
  0
LINE
  5
462
100
AcDbEntity
  8
0
100
AcDbLine
 62
7
  6
CONTINUOUS
 10
734.0351438178
 20
224.1668093855
 11
734.5351440563
 21
224.0391498263
  0
LINE
  5
463
100
AcDbEntity
  8
0
100
AcDbLine
 62
7
  6
CONTINUOUS
 10
739.9101437582
 20
224.1668093855
 11
740.4101438178
 21
224.0391498263
  0
LINE
  5
464
100
AcDbEntity
  8
RUNDUNGEN
100
AcDbLine
 62
7
  6
CONTINUOUS
 10
857.4101438178
 20
228.5848021473
 11
857.4101438178
 21
215.2807301648
  0
LINE
  5
465
100
AcDbEntity
  8
0
100
AcDbLine
 62
7
  6
CONTINUOUS
 10
740.4101438178
 20
219.8263837452
 11
739.9101437582
 21
219.6987241859
  0
LINE
  5
466
100
AcDbEntity
  8
0
100
AcDbLine
 62
7
  6
CONTINUOUS
 10
738.2851436986
 20
224.0391498263
 11
738.785143937
 21
224.1668093855
  0
LINE
  5
467
100
AcDbEntity
  8
0
100
AcDbLine
 62
7
  6
CONTINUOUS
 10
733.0351440563
 20
224.0391498263
 11
733.5351435794
 21
224.1668093855
  0
LINE
  5
468
100
AcDbEntity
  8
0
100
AcDbLine
 62
7
  6
CONTINUOUS
 10
739.9101437582
 20
218.9327668304
 11
740.535143788
 21
219.0604263897
  0
LINE
  5
469
100
AcDbEntity
  8
0
100
AcDbLine
 62
7
  6
CONTINUOUS
 10
717.0351428642
 20
218.9327668304
 11
717.6601447715
 21
219.0604263897
  0
LINE
  5
46A
100
AcDbEntity
  8
0
100
AcDbLine
 62
7
  6
CONTINUOUS
 10
738.785143937
 20
224.9327668304
 11
738.1601438178
 21
224.80510726
  0
LINE
  5
46B
100
AcDbEntity
  8
0
100
AcDbLine
 62
7
  6
CONTINUOUS
 10
717.0351428642
 20
221.1029796953
 11
717.6601447715
 21
221.2306392546
  0
LINE
  5
46C
100
AcDbEntity
  8
0
100
AcDbLine
 62
7
  6
CONTINUOUS
 10
733.5351435794
 20
224.9327668304
 11
732.9101438178
 21
224.80510726
  0
LINE
  5
46D
100
AcDbEntity
  8
0
100
AcDbLine
 62
7
  6
CONTINUOUS
 10
716.4101438178
 20
224.9327668304
 11
715.7851447715
 21
224.80510726
  0
LINE
  5
46E
100
AcDbEntity
  8
0
100
AcDbLine
 62
7
  6
CONTINUOUS
 10
739.9101437582
 20
224.9327668304
 11
738.785143937
 21
224.9327668304
  0
LINE
  5
46F
100
AcDbEntity
  8
0
100
AcDbLine
 62
7
  6
CONTINUOUS
 10
734.0351438178
 20
224.9327668304
 11
733.5351435794
 21
224.9327668304
  0
LINE
  5
470
100
AcDbEntity
  8
0
100
AcDbLine
 62
7
  6
CONTINUOUS
 10
730.5351435794
 20
224.9327668304
 11
729.7851442947
 21
224.9327668304
  0
LINE
  5
471
100
AcDbEntity
  8
0
100
AcDbLine
 62
7
  6
CONTINUOUS
 10
726.660143341
 20
224.9327668304
 11
725.7851438178
 21
224.9327668304
  0
LINE
  5
472
100
AcDbEntity
  8
0
100
AcDbLine
 62
7
  6
CONTINUOUS
 10
722.7851438178
 20
224.9327668304
 11
722.0351438178
 21
224.9327668304
  0
LINE
  5
473
100
AcDbEntity
  8
0
100
AcDbLine
 62
7
  6
CONTINUOUS
 10
717.0351428642
 20
224.9327668304
 11
716.4101438178
 21
224.9327668304
  0
LINE
  5
474
100
AcDbEntity
  8
0
100
AcDbLine
 62
7
  6
CONTINUOUS
 10
839.6101438178
 20
225.7327668304
 11
841.0101438178
 21
225.7327668304
  0
LINE
  5
475
100
AcDbEntity
  8
0
100
AcDbLine
 62
7
  6
CONTINUOUS
 10
843.8101438178
 20
225.7327668304
 11
845.2101438178
 21
225.7327668304
  0
LINE
  5
476
100
AcDbEntity
  8
BEZUGSACHSEN
100
AcDbLine
 62
7
  6
CONTINUOUS
 10
591.6800846901
 20
225.9327668304
 11
576.0414752572
 21
225.9327668304
  0
LINE
  5
477
100
AcDbEntity
  8
RUNDUNGEN
100
AcDbLine
 62
7
  6
CONTINUOUS
 10
973.1402029456
 20
225.9327668304
 11
988.7787934376
 21
225.9327668304
  0
LINE
  5
478
100
AcDbEntity
  8
0
100
AcDbLine
 62
7
  6
CONTINUOUS
 10
927.4101438178
 20
228.4711152457
 11
907.9101438178
 21
228.4711152457
  0
LINE
  5
479
100
AcDbEntity
  8
0
100
AcDbLine
 62
7
  6
CONTINUOUS
 10
902.9101438178
 20
228.4711152457
 11
882.9101438178
 21
228.4711152457
  0
LINE
  5
47A
100
AcDbEntity
  8
0
100
AcDbLine
 62
7
  6
CONTINUOUS
 10
927.4101438178
 20
228.9327668304
 11
907.9101438178
 21
228.9327668304
  0
LINE
  5
47B
100
AcDbEntity
  8
0
100
AcDbLine
 62
7
  6
CONTINUOUS
 10
902.9101438178
 20
228.9327668304
 11
882.9101438178
 21
228.9327668304
  0
LINE
  5
47C
100
AcDbEntity
  8
0
100
AcDbLine
 62
7
  6
CONTINUOUS
 10
637.4101438178
 20
228.9327668304
 11
675.9101438178
 21
228.9327668304
  0
LINE
  5
47D
100
AcDbEntity
  8
0
100
AcDbLine
 62
7
  6
CONTINUOUS
 10
863.7860766559
 20
237.9327668304
 11
797.6421946254
 21
237.9327668304
  0
LINE
  5
47E
100
AcDbEntity
  8
0
100
AcDbLine
 62
7
  6
CONTINUOUS
 10
762.1780930103
 20
237.9327668304
 11
678.3926196707
 21
237.9327668304
  0
LINE
  5
47F
100
AcDbEntity
  8
0
100
AcDbLine
 62
7
  6
CONTINUOUS
 10
764.9819405876
 20
238.9327668304
 11
767.9101438178
 21
238.9327668304
  0
LINE
  5
480
100
AcDbEntity
  8
0
100
AcDbLine
 62
7
  6
CONTINUOUS
 10
791.9101438178
 20
238.9327668304
 11
794.8383470481
 21
238.9327668304
  0
LINE
  5
481
100
AcDbEntity
  8
0
100
AcDbLine
 62
7
  6
CONTINUOUS
 10
872.0816780048
 20
203.2343037265
 11
865.4961773726
 21
205.6312299344
  0
LINE
  5
482
100
AcDbEntity
  8
0
100
AcDbLine
 62
7
  6
CONTINUOUS
 10
796.6421946254
 20
238.2007160229
 11
795.8383470481
 21
238.664817638
  0
LINE
  5
483
100
AcDbEntity
  8
RUNDUNGEN
100
AcDbLine
 62
7
  6
CONTINUOUS
 10
972.9101438178
 20
240.4327668304
 11
951.0631271441
 21
240.4327668304
  0
LINE
  5
484
100
AcDbEntity
  8
BEZUGSACHSEN
100
AcDbLine
 62
7
  6
CONTINUOUS
 10
591.9101438178
 20
240.4327668304
 11
613.7571446443
 21
240.4327668304
  0
LINE
  5
485
100
AcDbEntity
  8
0
100
AcDbLine
 62
7
  6
CONTINUOUS
 10
881.9101438178
 20
240.9327668304
 11
873.7917787214
 21
240.9327668304
  0
LINE
  5
486
100
AcDbEntity
  8
RUNDUNGEN
100
AcDbLine
 62
7
  6
CONTINUOUS
 10
873.7917787214
 20
240.9327668304
 11
881.9101438178
 21
240.9327668304
  0
LINE
  5
487
100
AcDbEntity
  8
BEZUGSACHSEN
100
AcDbLine
 62
7
  6
CONTINUOUS
 10
903.4101438178
 20
240.9327668304
 11
906.4101438178
 21
240.9327668304
  0
LINE
  5
488
100
AcDbEntity
  8
0
100
AcDbLine
 62
7
  6
CONTINUOUS
 10
784.9101438178
 20
247.9327668304
 11
774.9101438178
 21
247.9327668304
  0
LINE
  5
489
100
AcDbEntity
  8
0
100
AcDbLine
 62
7
  6
CONTINUOUS
 10
790.9101438178
 20
248.9327668304
 11
784.9101438178
 21
248.9327668304
  0
LINE
  5
48A
100
AcDbEntity
  8
0
100
AcDbLine
 62
7
  6
CONTINUOUS
 10
774.9101438178
 20
248.9327668304
 11
768.9101438178
 21
248.9327668304
  0
LINE
  5
48B
100
AcDbEntity
  8
0
100
AcDbLine
 62
7
  6
CONTINUOUS
 10
845.2101438178
 20
225.7327668304
 11
842.4101438178
 21
228.5327668304
  0
LINE
  5
48C
100
AcDbEntity
  8
RUNDUNGEN
100
AcDbLine
 62
7
  6
CONTINUOUS
 10
882.9101438178
 20
203.9327668304
 11
882.9101438178
 21
239.9327668304
  0
LINE
  5
48D
100
AcDbEntity
  8
RUNDUNGEN
100
AcDbLine
 62
7
  6
CONTINUOUS
 10
902.9101438178
 20
240.4327668304
 11
902.9101438178
 21
203.4327668304
  0
LWPOLYLINE
  5
48E
100
AcDbEntity
  8
RUNDUNGEN
100
AcDbPolyline
 62
7
  6
CONTINUOUS
 90
4
 70
0
 10
932.709149352
 20
213.4142176302
 10
932.8460894415
 20
213.3368585723
 10
932.9932041525
 20
213.2692371057
 10
933.1452743582
 20
213.2137623707
  0
LINE
  5
48F
100
AcDbEntity
  8
RUNDUNGEN
100
AcDbLine
 62
7
  6
CONTINUOUS
 10
907.9101438178
 20
239.4322897124
 11
907.9101438178
 21
204.4327668304
  0
LINE
  5
490
100
AcDbEntity
  8
BEZUGSACHSEN
100
AcDbLine
 62
7
  6
CONTINUOUS
 10
945.3273673431
 20
205.2412463875
 11
935.8544084671
 21
211.8742836017
  0
LINE
  5
491
100
AcDbEntity
  8
0
100
AcDbLine
 62
7
  6
CONTINUOUS
 10
931.8117695366
 20
228.9327668304
 11
931.8117695366
 21
229.5540224873
  0
LINE
  5
492
100
AcDbEntity
  8
RUNDUNGEN
100
AcDbLine
 62
7
  6
CONTINUOUS
 10
987.0359928458
 20
235.3003034346
 11
976.8174525964
 21
239.6378164288
  0
LINE
  5
493
100
AcDbEntity
  8
RUNDUNGEN
100
AcDbLine
 62
7
  6
CONTINUOUS
 10
991.1448218761
 20
230.8509685362
 11
991.1061361847
 21
231.3125711626
  0
LWPOLYLINE
  5
494
100
AcDbEntity
  8
RUNDUNGEN
100
AcDbPolyline
 62
7
  6
CONTINUOUS
 90
7
 70
0
 10
991.309645742
 20
226.9412206798
 10
991.300444449
 20
227.6056026261
 10
991.2839186074
 20
228.2683461647
 10
991.2600547876
 20
228.9268319382
 10
991.2288745271
 20
229.5784713182
 10
991.1904338846
 20
230.2206922566
 10
991.1448218761
 20
230.8509685362
  0
LINE
  5
495
100
AcDbEntity
  8
BEZUGSACHSEN
100
AcDbLine
 62
7
  6
CONTINUOUS
 10
983.820439331
 20
218.9327668304
 11
983.820439331
 21
224.9327668304
  0
LINE
  5
496
100
AcDbEntity
  8
RUNDUNGEN
100
AcDbLine
 62
7
  6
CONTINUOUS
 10
991.3117695366
 20
217.4327668304
 11
991.309645742
 21
226.9412206798
  0
LWPOLYLINE
  5
497
100
AcDbEntity
  8
BEZUGSACHSEN
100
AcDbPolyline
 62
7
  6
CONTINUOUS
 90
9
 70
0
 10
991.1061361847
 20
212.5529624983
 10
991.1448218761
 20
213.0145651247
 10
991.1904338846
 20
213.6448414043
 10
991.2288745271
 20
214.2870623426
 10
991.2600547876
 20
214.9387017226
 10
991.2839186074
 20
215.5971874962
 10
991.300444449
 20
216.2599310348
 10
991.309645742
 20
216.924312981
 10
991.3117694782
 20
217.4327668304
  0
LINE
  5
498
100
AcDbEntity
  8
BEZUGSACHSEN
100
AcDbLine
 62
7
  6
CONTINUOUS
 10
991.1048787602
 20
212.5536044722
 11
991.1026091796
 21
212.5360442458
  0
LINE
  5
499
100
AcDbEntity
  8
RUNDUNGEN
100
AcDbLine
 62
7
  6
CONTINUOUS
 10
991.1048787602
 20
231.3119291886
 11
991.1026091796
 21
231.329489415
  0
LINE
  5
49A
100
AcDbEntity
  8
BEZUGSACHSEN
100
AcDbLine
 62
7
  6
CONTINUOUS
 10
-16.5282628643
 20
-63.0551141968
 11
-16.330595333
 21
-61.9340859202
  0
LINE
  5
49B
100
AcDbEntity
  8
RUNDUNGEN
100
AcDbLine
 62
7
  6
CONTINUOUS
 10
-16.5282628643
 20
-63.0551141968
 11
-13.7314538402
 21
-47.1936220255
  0
LINE
  5
49C
100
AcDbEntity
  8
RUNDUNGEN
100
AcDbLine
 62
7
  6
CONTINUOUS
 10
-2.5883508267
 20
-50.2019152095
 11
-11.1570197723
 21
-65.6602031864
  0
LINE
  5
49D
100
AcDbEntity
  8
BEZUGSACHSEN
100
AcDbLine
 62
7
  6
CONTINUOUS
 10
-9.1624947145
 20
-62.0619847331
 11
-9.1617908693
 21
-62.0607208435
  0
LINE
  5
49E
100
AcDbEntity
  8
0
100
AcDbLine
 62
7
  6
CONTINUOUS
 10
42.9565448887
 20
-40.1190167458
 11
42.9565448887
 21
-41.5348228936
  0
LINE
  5
49F
100
AcDbEntity
  8
RUNDUNGEN
100
AcDbLine
 62
7
  6
CONTINUOUS
 10
66.8581706074
 20
-61.5348228936
 11
66.8581706074
 21
-26.5348228936
  0
LINE
  5
4A0
100
AcDbEntity
  8
RUNDUNGEN
100
AcDbLine
 62
7
  6
CONTINUOUS
 10
71.8581706074
 20
-25.5348228936
 11
71.8581706074
 21
-62.5348228936
  0
LINE
  5
4A1
100
AcDbEntity
  8
RUNDUNGEN
100
AcDbLine
 62
7
  6
CONTINUOUS
 10
-12.5164490997
 20
-66.0500132733
 11
-16.0282647315
 21
-64.1033820816
  0
LINE
  5
4A2
100
AcDbEntity
  8
RUNDUNGEN
100
AcDbLine
 62
7
  6
CONTINUOUS
 10
91.8581706074
 20
-26.0348228936
 11
91.8581706074
 21
-62.0348228936
  0
LINE
  5
4A3
100
AcDbEntity
  8
RUNDUNGEN
100
AcDbLine
 62
7
  6
CONTINUOUS
 10
97.8581706074
 20
-63.034724414
 11
97.8581706074
 21
-61.3295424416
  0
LINE
  5
4A4
100
AcDbEntity
  8
RUNDUNGEN
100
AcDbLine
 62
7
  6
CONTINUOUS
 10
117.3581706074
 20
-30.0348104779
 11
117.3581706074
 21
-28.5348228936
  0
LINE
  5
4A5
100
AcDbEntity
  8
0
100
AcDbLine
 62
7
  6
CONTINUOUS
 10
129.5581706074
 20
-31.0348228936
 11
129.5581706074
 21
-30.0348228936
  0
LINE
  5
4A6
100
AcDbEntity
  8
0
100
AcDbLine
 62
7
  6
CONTINUOUS
 10
132.3581706074
 20
-31.0348228936
 11
132.3581706074
 21
-30.0348228936
  0
LINE
  5
4A7
100
AcDbEntity
  8
0
100
AcDbLine
 62
7
  6
CONTINUOUS
 10
135.1581706074
 20
-31.0348228936
 11
135.1581706074
 21
-30.0348228936
  0
LINE
  5
4A8
100
AcDbEntity
  8
RUNDUNGEN
100
AcDbLine
 62
7
  6
CONTINUOUS
 10
108.465336833
 20
-58.7544912511
 11
108.465440719
 21
-58.7543661274
  0
LWPOLYLINE
  5
4A9
100
AcDbEntity
  8
RUNDUNGEN
100
AcDbPolyline
 62
7
  6
CONTINUOUS
 90
3
 70
0
 10
108.4654827157
 20
-58.7543148699
 10
108.6013244447
 20
-58.5925481876
 10
108.8426747816
 20
-58.3129186159
  0
LINE
  5
4AA
100
AcDbEntity
  8
RUNDUNGEN
100
AcDbLine
 62
7
  6
CONTINUOUS
 10
108.8348435255
 20
-58.3218705022
 11
109.1160244372
 21
-58.0060617616
  0
LINE
  5
4AB
100
AcDbEntity
  8
RUNDUNGEN
100
AcDbLine
 62
7
  6
CONTINUOUS
 10
109.1076068763
 20
-58.0153816496
 11
109.4220491027
 21
-57.6727542254
  0
LINE
  5
4AC
100
AcDbEntity
  8
RUNDUNGEN
100
AcDbLine
 62
7
  6
CONTINUOUS
 10
109.4175733765
 20
-57.6776289738
 11
109.7613715362
 21
-57.3142003695
  0
LINE
  5
4AD
100
AcDbEntity
  8
RUNDUNGEN
100
AcDbLine
 62
7
  6
CONTINUOUS
 10
109.7519279899
 20
-57.3240423848
 11
110.0150149035
 21
-57.0530894484
  0
LWPOLYLINE
  5
4AE
100
AcDbEntity
  8
RUNDUNGEN
100
AcDbPolyline
 62
7
  6
CONTINUOUS
 90
11
 70
0
 10
110.015012045
 20
-57.0530882905
 10
110.0495149856
 20
-57.0181684896
 10
110.2148105807
 20
-56.8571265425
 10
110.3821102988
 20
-56.7048137234
 10
110.5515435416
 20
-56.561958044
 10
110.7220613423
 20
-56.4303568689
 10
110.8943146324
 20
-56.3107069102
 10
111.0642760028
 20
-56.2068734842
 10
111.2391428374
 20
-56.1166368896
 10
111.4220817806
 20
-56.0430134059
 10
111.4478601263
 20
-56.0352086196
  0
LWPOLYLINE
  5
4AF
100
AcDbEntity
  8
RUNDUNGEN
100
AcDbPolyline
 62
7
  6
CONTINUOUS
 90
6
 70
0
 10
110.0327533523
 20
-57.0350724811
 10
110.1697920622
 20
-56.8999615014
 10
110.3081348102
 20
-56.7708129066
 10
110.4480729708
 20
-56.6478041924
 10
110.5898528062
 20
-56.5313049908
 10
110.7325756266
 20
-56.422659082
  0
LWPOLYLINE
  5
4B0
100
AcDbEntity
  8
RUNDUNGEN
100
AcDbPolyline
 62
7
  6
CONTINUOUS
 90
6
 70
0
 10
110.8740569944
 20
-56.3240471149
 10
111.016871159
 20
-56.2343358065
 10
111.1600756194
 20
-56.1552001672
 10
111.3069828125
 20
-56.0866487053
 10
111.4586944174
 20
-56.0312525756
 10
111.5037028425
 20
-56.0182949484
  0
LINE
  5
4B1
100
AcDbEntity
  8
RUNDUNGEN
100
AcDbLine
 62
7
  6
CONTINUOUS
 10
167.3581706074
 20
-28.5348228936
 11
167.3581706074
 21
-30.0348110179
  0
LINE
  5
4B2
100
AcDbEntity
  8
0
100
AcDbLine
 62
7
  6
CONTINUOUS
 10
178.1261197999
 20
-27.7668737011
 11
178.9299673772
 21
-27.302772086
  0
LINE
  5
4B3
100
AcDbEntity
  8
RUNDUNGEN
100
AcDbLine
 62
7
  6
CONTINUOUS
 10
102.7020404598
 20
-61.1972728073
 11
107.6322470601
 21
-59.3481787432
  0
LINE
  5
4B4
100
AcDbEntity
  8
RUNDUNGEN
100
AcDbLine
 62
7
  6
CONTINUOUS
 10
102.5423582651
 20
-61.2537816932
 11
102.7020381912
 21
-61.1972699225
  0
LINE
  5
4B5
100
AcDbEntity
  8
RUNDUNGEN
100
AcDbLine
 62
7
  6
CONTINUOUS
 10
102.1958130649
 20
-61.3558619571
 11
102.5588473339
 21
-61.2482294809
  0
LINE
  5
4B6
100
AcDbEntity
  8
RUNDUNGEN
100
AcDbLine
 62
7
  6
CONTINUOUS
 10
210.0860157611
 20
-57.4804076231
 11
210.2936488536
 21
-57.4225562799
  0
LINE
  5
4B7
100
AcDbEntity
  8
RUNDUNGEN
100
AcDbLine
 62
7
  6
CONTINUOUS
 10
210.2933876078
 20
-57.4226149802
 11
210.2936841306
 21
-57.4225370205
  0
LINE
  5
4B8
100
AcDbEntity
  8
0
100
AcDbLine
 62
7
  6
CONTINUOUS
 10
183.8581706074
 20
-71.0348228936
 11
189.8581706074
 21
-71.0348228936
  0
LINE
  5
4B9
100
AcDbEntity
  8
0
100
AcDbLine
 62
7
  6
CONTINUOUS
 10
199.8581706074
 20
-71.0348228936
 11
205.8581706074
 21
-71.0348228936
  0
LINE
  5
4BA
100
AcDbEntity
  8
0
100
AcDbLine
 62
7
  6
CONTINUOUS
 10
189.8581706074
 20
-70.0348228936
 11
199.8581706074
 21
-70.0348228936
  0
LINE
  5
4BB
100
AcDbEntity
  8
BEZUGSACHSEN
100
AcDbLine
 62
7
  6
CONTINUOUS
 10
71.3581706074
 20
-63.0348228936
 11
68.3581706074
 21
-63.0348228936
  0
LINE
  5
4BC
100
AcDbEntity
  8
RUNDUNGEN
100
AcDbLine
 62
7
  6
CONTINUOUS
 10
71.3581706074
 20
-63.0348228936
 11
68.3581706074
 21
-63.0348228936
  0
LINE
  5
4BD
100
AcDbEntity
  8
0
100
AcDbLine
 62
7
  6
CONTINUOUS
 10
92.8581706074
 20
-63.0348228936
 11
97.8581706074
 21
-63.0348228936
  0
LINE
  5
4BE
100
AcDbEntity
  8
RUNDUNGEN
100
AcDbLine
 62
7
  6
CONTINUOUS
 10
97.8581706074
 20
-61.5090456471
 11
100.9765357027
 21
-61.5090456471
  0
LINE
  5
4BF
100
AcDbEntity
  8
RUNDUNGEN
100
AcDbLine
 62
7
  6
CONTINUOUS
 10
180.0118816276
 20
-57.6043871243
 11
180.3568849912
 21
-57.7359034694
  0
LINE
  5
4C0
100
AcDbEntity
  8
RUNDUNGEN
100
AcDbLine
 62
7
  6
CONTINUOUS
 10
180.3469049233
 20
-57.7318450509
 11
180.6665609748
 21
-57.8693376481
  0
LINE
  5
4C1
100
AcDbEntity
  8
RUNDUNGEN
100
AcDbLine
 62
7
  6
CONTINUOUS
 10
180.6575303573
 20
-57.8652413714
 11
180.9536081477
 21
-58.0060290928
  0
LINE
  5
4C2
100
AcDbEntity
  8
RUNDUNGEN
100
AcDbLine
 62
7
  6
CONTINUOUS
 10
180.9454830959
 20
-58.0019869913
 11
181.2185127628
 21
-58.1433322473
  0
LINE
  5
4C3
100
AcDbEntity
  8
RUNDUNGEN
100
AcDbLine
 62
7
  6
CONTINUOUS
 10
181.2112411347
 20
-58.1394192227
 11
181.4626211292
 21
-58.2795132816
  0
LINE
  5
4C4
100
AcDbEntity
  8
RUNDUNGEN
100
AcDbLine
 62
7
  6
CONTINUOUS
 10
181.4561589513
 20
-58.2757863438
 11
181.6864090595
 21
-58.4128263851
  0
LINE
  5
4C5
100
AcDbEntity
  8
RUNDUNGEN
100
AcDbLine
 62
7
  6
CONTINUOUS
 10
181.6807053026
 20
-58.4093244788
 11
181.8908613599
 21
-58.5420832847
  0
LINE
  5
4C6
100
AcDbEntity
  8
RUNDUNGEN
100
AcDbLine
 62
7
  6
CONTINUOUS
 10
181.8858629593
 20
-58.5388344697
 11
182.0765165519
 21
-58.6660787443
  0
LWPOLYLINE
  5
4C7
100
AcDbEntity
  8
RUNDUNGEN
100
AcDbPolyline
 62
7
  6
CONTINUOUS
 90
27
 70
0
 10
177.52295103
 20
-55.9551260451
 10
177.5306917057
 20
-55.9604923753
 10
177.5386642074
 20
-55.9661080325
 10
177.5467661217
 20
-55.9719055364
 10
177.554935097
 20
-55.9778422436
 10
177.5631468131
 20
-55.98390108
 10
177.5713500248
 20
-55.9900436237
 10
177.5795579083
 20
-55.9962783848
 10
177.5877680197
 20
-56.0026023691
 10
177.5959790432
 20
-56.0090134665
 10
177.6041896835
 20
-56.0155096193
 10
177.6123992235
 20
-56.0220892667
 10
177.6206070534
 20
-56.0287509825
 10
177.6288131508
 20
-56.035493871
 10
177.6370175494
 20
-56.0423171462
 10
177.645220887
 20
-56.0492205922
 10
177.6534238087
 20
-56.0562040768
 10
177.6616275765
 20
-56.0632680748
 10
177.6698334664
 20
-56.0704131651
 10
177.6780431888
 20
-56.077640397
 10
177.6862586476
 20
-56.0849510668
 10
177.6944825712
 20
-56.0923472994
 10
177.7027175218
 20
-56.0998312028
 10
177.7109668266
 20
-56.1074057168
 10
177.7192336837
 20
-56.1150738129
 10
177.7275216466
 20
-56.1228389414
 10
177.7358371108
 20
-56.1307074103
  0
LINE
  5
4C8
100
AcDbEntity
  8
RUNDUNGEN
100
AcDbLine
 62
7
  6
CONTINUOUS
 10
182.0721655083
 20
-58.6630964484
 11
182.2439778019
 21
-58.7838564171
  0
LINE
  5
4C9
100
AcDbEntity
  8
RUNDUNGEN
100
AcDbLine
 62
7
  6
CONTINUOUS
 10
182.2402134518
 20
-58.7811424412
 11
182.3943176035
 21
-58.8949740699
  0
LINE
  5
4CA
100
AcDbEntity
  8
RUNDUNGEN
100
AcDbLine
 62
7
  6
CONTINUOUS
 10
182.3910859825
 20
-58.8925269134
 11
182.5284034148
 21
-58.9990171209
  0
LINE
  5
4CB
100
AcDbEntity
  8
RUNDUNGEN
100
AcDbLine
 62
7
  6
CONTINUOUS
 10
182.5256508157
 20
-58.9968289583
 11
182.6468898034
 21
-59.0955352632
  0
LINE
  5
4CC
100
AcDbEntity
  8
RUNDUNGEN
100
AcDbLine
 62
7
  6
CONTINUOUS
 10
182.6445755037
 20
-59.0936032268
 11
182.7505183646
 21
-59.1842428364
  0
LINE
  5
4CD
100
AcDbEntity
  8
RUNDUNGEN
100
AcDbLine
 62
7
  6
CONTINUOUS
 10
182.7486104585
 20
-59.1825678938
 11
182.8378291299
 21
-59.2629097031
  0
LINE
  5
4CE
100
AcDbEntity
  8
RUNDUNGEN
100
AcDbLine
 62
7
  6
CONTINUOUS
 10
182.8393569155
 20
-59.2643243733
 11
182.8581706074
 21
-59.2822478925
  0
LINE
  5
4CF
100
AcDbEntity
  8
RUNDUNGEN
100
AcDbLine
 62
7
  6
CONTINUOUS
 10
177.7358371108
 20
-56.1307074103
 11
177.7806141939
 21
-56.1736532055
  0
LINE
  5
4D0
100
AcDbEntity
  8
RUNDUNGEN
100
AcDbLine
 62
7
  6
CONTINUOUS
 10
177.7704728487
 20
-56.1639188351
 11
177.9510069151
 21
-56.3387125064
  0
LINE
  5
4D1
100
AcDbEntity
  8
RUNDUNGEN
100
AcDbLine
 62
7
  6
CONTINUOUS
 10
177.9391885572
 20
-56.3271860804
 11
178.1222484064
 21
-56.5069922983
  0
LINE
  5
4D2
100
AcDbEntity
  8
RUNDUNGEN
100
AcDbLine
 62
7
  6
CONTINUOUS
 10
178.1105015081
 20
-56.4953738314
 11
178.294302926
 21
-56.6783929495
  0
LINE
  5
4D3
100
AcDbEntity
  8
RUNDUNGEN
100
AcDbLine
 62
7
  6
CONTINUOUS
 10
178.2826589957
 20
-56.6667217394
 11
178.5030569549
 21
-56.8893495776
  0
LINE
  5
4D4
100
AcDbEntity
  8
RUNDUNGEN
100
AcDbLine
 62
7
  6
CONTINUOUS
 10
182.8581706074
 20
-18.0348228936
 11
182.8581706074
 21
-70.0347389996
  0
LINE
  5
4D5
100
AcDbEntity
  8
RUNDUNGEN
100
AcDbLine
 62
7
  6
CONTINUOUS
 10
189.8581706074
 20
-17.0349100472
 11
189.8581706074
 21
-71.03473574
  0
LWPOLYLINE
  5
4D6
100
AcDbEntity
  8
RUNDUNGEN
100
AcDbPolyline
 62
7
  6
CONTINUOUS
 90
3
 70
0
 10
212.3698897241
 20
-55.8625040505
 10
212.3958542824
 20
-55.8560139383
 10
212.4320561123
 20
-55.8494860947
  0
LWPOLYLINE
  5
4D7
100
AcDbEntity
  8
RUNDUNGEN
100
AcDbPolyline
 62
7
  6
CONTINUOUS
 90
4
 70
0
 10
212.3879218312
 20
-55.8579148141
 10
212.4799809521
 20
-55.8403334583
 10
212.567038504
 20
-55.833116788
 10
212.5902214165
 20
-55.8327823637
  0
LINE
  5
4D8
100
AcDbEntity
  8
RUNDUNGEN
100
AcDbLine
 62
7
  6
CONTINUOUS
 10
101.4860399995
 20
-61.482634194
 11
101.8602947752
 21
-61.4291592135
  0
LINE
  5
4D9
100
AcDbEntity
  8
RUNDUNGEN
100
AcDbLine
 62
7
  6
CONTINUOUS
 10
212.5235938172
 20
-55.8367181526
 11
212.5788630105
 21
-55.832946214
  0
LINE
  5
4DA
100
AcDbEntity
  8
RUNDUNGEN
100
AcDbLine
 62
7
  6
CONTINUOUS
 10
101.1264559414
 20
-61.506760366
 11
101.503409995
 21
-61.4807973658
  0
LINE
  5
4DB
100
AcDbEntity
  8
RUNDUNGEN
100
AcDbLine
 62
7
  6
CONTINUOUS
 10
112.5023229364
 20
-55.8457959782
 11
112.5114223375
 21
-55.8453931463
  0
LINE
  5
4DC
100
AcDbEntity
  8
RUNDUNGEN
100
AcDbLine
 62
7
  6
CONTINUOUS
 10
100.9765357038
 20
-61.509042057
 11
101.143885293
 21
-61.5061992015
  0
LINE
  5
4DD
100
AcDbEntity
  8
RUNDUNGEN
100
AcDbLine
 62
7
  6
CONTINUOUS
 10
296.3756947546
 20
-60.0348228936
 11
283.8581706074
 21
-60.0348228936
  0
LINE
  5
4DE
100
AcDbEntity
  8
RUNDUNGEN
100
AcDbLine
 62
7
  6
CONTINUOUS
 10
177.1261197999
 20
-55.8327818647
 11
112.8581710341
 21
-55.8327818647
  0
LINE
  5
4DF
100
AcDbEntity
  8
RUNDUNGEN
100
AcDbLine
 62
7
  6
CONTINUOUS
 10
212.590221415
 20
-55.8327818647
 11
276.8581658012
 21
-55.8327818647
  0
LINE
  5
4E0
100
AcDbEntity
  8
RUNDUNGEN
100
AcDbLine
 62
7
  6
CONTINUOUS
 10
42.7293728946
 20
-51.963498143
 11
40.358182723
 21
-51.963498143
  0
LINE
  5
4E1
100
AcDbEntity
  8
RUNDUNGEN
100
AcDbLine
 62
7
  6
CONTINUOUS
 10
341.9869683203
 20
-51.963498143
 11
344.3581584919
 21
-51.963498143
  0
LINE
  5
4E2
100
AcDbEntity
  8
0
100
AcDbLine
 62
7
  6
CONTINUOUS
 10
337.3581706074
 20
-51.0348228936
 11
298.8581706074
 21
-51.0348228936
  0
LINE
  5
4E3
100
AcDbEntity
  8
0
100
AcDbLine
 62
7
  6
CONTINUOUS
 10
47.3581706074
 20
-51.0348228936
 11
66.8581706074
 21
-51.0348228936
  0
LINE
  5
4E4
100
AcDbEntity
  8
0
100
AcDbLine
 62
7
  6
CONTINUOUS
 10
71.8581706074
 20
-51.0348228936
 11
91.8581706074
 21
-51.0348228936
  0
LWPOLYLINE
  5
4E5
100
AcDbEntity
  8
RUNDUNGEN
100
AcDbPolyline
 62
7
  6
CONTINUOUS
 90
8
 70
0
 10
276.8581706069
 20
-55.8327719099
 10
276.9554985764
 20
-55.8337412332
 10
277.2495931652
 20
-55.8485239649
 10
277.5518774262
 20
-55.8820459477
 10
277.8584895894
 20
-55.9347341325
 10
278.1655649301
 20
-56.0058207818
 10
278.4721972638
 20
-56.0944590372
 10
278.7627471188
 20
-56.1945902751
  0
LWPOLYLINE
  5
4E6
100
AcDbEntity
  8
RUNDUNGEN
100
AcDbPolyline
 62
7
  6
CONTINUOUS
 90
5
 70
0
 10
177.1261198025
 20
-55.8327765143
 10
177.1469233688
 20
-55.8330418086
 10
177.2339669591
 20
-55.8400113986
 10
177.3265277583
 20
-55.8574568394
 10
177.3464587733
 20
-55.8625074803
  0
LWPOLYLINE
  5
4E7
100
AcDbEntity
  8
RUNDUNGEN
100
AcDbPolyline
 62
7
  6
CONTINUOUS
 90
26
 70
0
 10
276.8581657949
 20
-55.8327677755
 10
277.008259475
 20
-55.8350892485
 10
277.3359100019
 20
-55.8562039257
 10
277.6860929069
 20
-55.9028240073
 10
278.0454728463
 20
-55.9758778145
 10
278.4019092783
 20
-56.0726068544
 10
278.7505842722
 20
-56.1897750542
 10
279.0846768101
 20
-56.3220409147
 10
279.4007499362
 20
-56.464683075
 10
279.6947140139
 20
-56.6121785784
 10
279.967613434
 20
-56.7617528911
 10
280.2194191551
 20
-56.9105977793
 10
280.4519012666
 20
-57.0573714598
 10
280.6665371061
 20
-57.2011239287
 10
280.8641745381
 20
-57.3408687662
 10
281.045854343
 20
-57.4760276896
 10
281.2120676636
 20
-57.6058549108
 10
281.3634630128
 20
-57.7298932666
 10
281.5000435155
 20
-57.8472847149
 10
281.6222226487
 20
-57.9575933354
 10
281.7288808801
 20
-58.0589812254
 10
281.8197582056
 20
-58.150251122
 10
281.8936184391
 20
-58.2290158332
 10
281.9500822658
 20
-58.2933552786
 10
281.9888969546
 20
-58.3409772178
 10
282.0028404895
 20
-58.3592504687
  0
LINE
  5
4E8
100
AcDbEntity
  8
RUNDUNGEN
100
AcDbLine
 62
7
  6
CONTINUOUS
 10
177.1261262743
 20
-55.8327763326
 11
177.2197298623
 21
-55.8382320891
  0
LINE
  5
4E9
100
AcDbEntity
  8
RUNDUNGEN
100
AcDbLine
 62
7
  6
CONTINUOUS
 10
177.2197298623
 20
-55.8382320891
 11
177.2722965176
 21
-55.8472355804
  0
LINE
  5
4EA
100
AcDbEntity
  8
RUNDUNGEN
100
AcDbLine
 62
7
  6
CONTINUOUS
 10
179.4225846835
 20
-57.4225178935
 11
179.4229592033
 21
-57.4226164456
  0
LINE
  5
4EB
100
AcDbEntity
  8
RUNDUNGEN
100
AcDbLine
 62
7
  6
CONTINUOUS
 10
179.4226179261
 20
-57.4225414428
 11
179.6628049381
 21
-57.4900685782
  0
LWPOLYLINE
  5
4EC
100
AcDbEntity
  8
RUNDUNGEN
100
AcDbPolyline
 62
7
  6
CONTINUOUS
 90
23
 70
0
 10
177.3464469244
 20
-55.8624965575
 10
177.3540250871
 20
-55.864694734
 10
177.361871863
 20
-55.8672870448
 10
177.3694618856
 20
-55.8700387162
 10
177.3773235171
 20
-55.8731059578
 10
177.3852330289
 20
-55.8763904512
 10
177.3935541608
 20
-55.8800413251
 10
177.4020464749
 20
-55.8839570006
 10
177.4106464065
 20
-55.8881011129
 10
177.4192690723
 20
-55.8924237268
 10
177.4278492496
 20
-55.8968815137
 10
177.4363447686
 20
-55.9014412888
 10
177.4447200132
 20
-55.9060725539
 10
177.4529592005
 20
-55.9107555108
 10
177.4610512954
 20
-55.915473485
 10
177.4690022953
 20
-55.9202205047
 10
177.4768211208
 20
-55.9249935652
 10
177.4845324431
 20
-55.9298002875
 10
177.49216174
 20
-55.934650103
 10
177.4997517294
 20
-55.9395654631
 10
177.5073444314
 20
-55.944570753
 10
177.5149958094
 20
-55.9497019712
 10
177.5227822141
 20
-55.9550118254
  0
LINE
  5
4ED
100
AcDbEntity
  8
RUNDUNGEN
100
AcDbLine
 62
7
  6
CONTINUOUS
 10
179.6555755482
 20
-57.4880360787
 11
180.0228555839
 21
-57.6082894462
  0
LINE
  5
4EE
100
AcDbEntity
  8
0
100
AcDbLine
 62
7
  6
CONTINUOUS
 10
102.6866364205
 20
-25.3363597896
 11
109.2721370527
 21
-27.7332859975
  0
LINE
  5
4EF
100
AcDbEntity
  8
RUNDUNGEN
100
AcDbLine
 62
7
  6
CONTINUOUS
 10
199.8581706074
 20
-71.03473574
 11
199.8581706074
 21
-17.0349100472
  0
LINE
  5
4F0
100
AcDbEntity
  8
RUNDUNGEN
100
AcDbLine
 62
7
  6
CONTINUOUS
 10
206.8581706074
 20
-18.0349067875
 11
206.8581706074
 21
-70.0348228936
  0
LINE
  5
4F1
100
AcDbEntity
  8
RUNDUNGEN
100
AcDbLine
 62
7
  6
CONTINUOUS
 10
208.1433333366
 20
-58.3442359843
 11
208.374946118
 21
-58.2107094303
  0
LINE
  5
4F2
100
AcDbEntity
  8
RUNDUNGEN
100
AcDbLine
 62
7
  6
CONTINUOUS
 10
208.3687391621
 20
-58.2141774532
 11
208.6176394008
 21
-58.0798954856
  0
LINE
  5
4F3
100
AcDbEntity
  8
RUNDUNGEN
100
AcDbLine
 62
7
  6
CONTINUOUS
 10
208.6107107131
 20
-58.0835029346
 11
208.877071475
 21
-57.9500752582
  0
LINE
  5
4F4
100
AcDbEntity
  8
RUNDUNGEN
100
AcDbLine
 62
7
  6
CONTINUOUS
 10
208.8693502613
 20
-57.9537902561
 11
209.154202667
 21
-57.8227275094
  0
LINE
  5
4F5
100
AcDbEntity
  8
RUNDUNGEN
100
AcDbLine
 62
7
  6
CONTINUOUS
 10
209.1456110041
 20
-57.8265033814
 11
209.4492535753
 21
-57.6999194126
  0
LINE
  5
4F6
100
AcDbEntity
  8
RUNDUNGEN
100
AcDbLine
 62
7
  6
CONTINUOUS
 10
209.4397090223
 20
-57.7036856312
 11
209.7633996155
 21
-57.583749243
  0
LINE
  5
4F7
100
AcDbEntity
  8
RUNDUNGEN
100
AcDbLine
 62
7
  6
CONTINUOUS
 10
209.7528020213
 20
-57.587419859
 11
210.0932667025
 21
-57.4783873445
  0
LINE
  5
4F8
100
AcDbEntity
  8
RUNDUNGEN
100
AcDbLine
 62
7
  6
CONTINUOUS
 10
111.5037028425
 20
-56.0182949484
 11
111.5026507558
 21
-56.0185816323
  0
LINE
  5
4F9
100
AcDbEntity
  8
RUNDUNGEN
100
AcDbLine
 62
7
  6
CONTINUOUS
 10
111.5027052856
 20
-56.0185500183
 11
111.6219498445
 21
-55.9877269536
  0
LWPOLYLINE
  5
4FA
100
AcDbEntity
  8
RUNDUNGEN
100
AcDbPolyline
 62
7
  6
CONTINUOUS
 90
6
 70
0
 10
111.6045846484
 20
-55.9920579141
 10
111.926761228
 20
-55.9212831495
 10
112.2275017741
 20
-55.8735468626
 10
112.5202492996
 20
-55.84451786
 10
112.801480163
 20
-55.8331089699
 10
112.8581710347
 20
-55.8327784926
  0
LINE
  5
4FB
100
AcDbEntity
  8
RUNDUNGEN
100
AcDbLine
 62
7
  6
CONTINUOUS
 10
101.8431032352
 20
-61.432260827
 11
102.2127107134
 21
-61.3515178401
  0
LINE
  5
4FC
100
AcDbEntity
  8
RUNDUNGEN
100
AcDbLine
 62
7
  6
CONTINUOUS
 10
111.9091664611
 20
-55.9246352471
 11
111.9178474092
 21
-55.9232262135
  0
LINE
  5
4FD
100
AcDbEntity
  8
BEZUGSACHSEN
100
AcDbLine
 62
7
  6
CONTINUOUS
 10
377.6838762948
 20
-44.5348228936
 11
364.8581706074
 21
-44.5348228936
  0
LINE
  5
4FE
100
AcDbEntity
  8
RUNDUNGEN
100
AcDbLine
 62
7
  6
CONTINUOUS
 10
19.858161841
 20
-44.5348228936
 11
7.03246492
 21
-44.5348228936
  0
LINE
  5
4FF
100
AcDbEntity
  8
0
100
AcDbLine
 62
7
  6
CONTINUOUS
 10
42.9565448887
 20
-41.5348228936
 11
66.8581706074
 21
-41.5348228936
  0
LINE
  5
500
100
AcDbEntity
  8
0
100
AcDbLine
 62
7
  6
CONTINUOUS
 10
71.8581706074
 20
-41.5348228936
 11
91.8581706074
 21
-41.5348228936
  0
LINE
  5
501
100
AcDbEntity
  8
0
100
AcDbLine
 62
7
  6
CONTINUOUS
 10
47.4565448887
 20
-37.4964744783
 11
66.8581706074
 21
-37.4964744783
  0
LINE
  5
502
100
AcDbEntity
  8
0
100
AcDbLine
 62
7
  6
CONTINUOUS
 10
71.8581706074
 20
-37.4964744783
 11
91.8581706074
 21
-37.4964744783
  0
LINE
  5
503
100
AcDbEntity
  8
0
100
AcDbLine
 62
7
  6
CONTINUOUS
 10
337.3581706074
 20
-37.0348228936
 11
298.8581706074
 21
-37.0348228936
  0
LINE
  5
504
100
AcDbEntity
  8
0
100
AcDbLine
 62
7
  6
CONTINUOUS
 10
47.3581706074
 20
-37.0348228936
 11
66.8581706074
 21
-37.0348228936
  0
LINE
  5
505
100
AcDbEntity
  8
0
100
AcDbLine
 62
7
  6
CONTINUOUS
 10
71.8581706074
 20
-37.0348228936
 11
91.8581706074
 21
-37.0348228936
  0
LINE
  5
506
100
AcDbEntity
  8
RUNDUNGEN
100
AcDbLine
 62
7
  6
CONTINUOUS
 10
211.2132841694
 20
-56.8893496661
 11
211.4326836129
 21
-56.6677222178
  0
LINE
  5
507
100
AcDbEntity
  8
RUNDUNGEN
100
AcDbLine
 62
7
  6
CONTINUOUS
 10
211.4210428894
 20
-56.6793910968
 11
211.6055826402
 21
-56.4956279966
  0
LINE
  5
508
100
AcDbEntity
  8
RUNDUNGEN
100
AcDbLine
 62
7
  6
CONTINUOUS
 10
211.593827056
 20
-56.507255289
 11
211.7777039915
 21
-56.3266485744
  0
LINE
  5
509
100
AcDbEntity
  8
RUNDUNGEN
100
AcDbLine
 62
7
  6
CONTINUOUS
 10
211.7658667822
 20
-56.338192871
 11
211.9464405011
 21
-56.1633690162
  0
LWPOLYLINE
  5
50A
100
AcDbEntity
  8
RUNDUNGEN
100
AcDbPolyline
 62
7
  6
CONTINUOUS
 90
21
 70
0
 10
211.9362556917
 20
-56.1731448682
 10
211.9800207518
 20
-56.1311677233
 10
211.9884857331
 20
-56.1231542313
 10
211.9969237887
 20
-56.115246299
 10
212.0053372609
 20
-56.1074413737
 10
212.013724478
 20
-56.0997406797
 10
212.0220909452
 20
-56.0921389138
 10
212.0304404325
 20
-56.0846325598
 10
212.0387757883
 20
-56.0772190897
 10
212.047100108
 20
-56.0698959002
 10
212.0554156069
 20
-56.0626613034
 10
212.0637246953
 20
-56.0555135691
 10
212.0720289404
 20
-56.0484518163
 10
212.0803300537
 20
-56.0414751522
 10
212.0886289362
 20
-56.0345834721
 10
212.0969265835
 20
-56.0277766874
 10
212.105223208
 20
-56.0210554422
 10
212.1135191018
 20
-56.0144203949
 10
212.1218136637
 20
-56.0078729912
 10
212.130106457
 20
-56.001414607
 10
212.1383956435
 20
-55.9950477082
  0
LINE
  5
50B
100
AcDbEntity
  8
RUNDUNGEN
100
AcDbLine
 62
7
  6
CONTINUOUS
 10
206.8581706074
 20
-59.2824438142
 11
206.9066762761
 21
-59.2370813646
  0
LINE
  5
50C
100
AcDbEntity
  8
RUNDUNGEN
100
AcDbLine
 62
7
  6
CONTINUOUS
 10
206.9066762761
 20
-59.2370813646
 11
207.0084213589
 21
-59.1472324534
  0
LINE
  5
50D
100
AcDbEntity
  8
RUNDUNGEN
100
AcDbLine
 62
7
  6
CONTINUOUS
 10
207.0064297104
 20
-59.1489449886
 11
207.1246664958
 21
-59.0499680863
  0
LINE
  5
50E
100
AcDbEntity
  8
RUNDUNGEN
100
AcDbLine
 62
7
  6
CONTINUOUS
 10
207.1222534899
 20
-59.05193632
 11
207.2564426951
 21
-58.9452313411
  0
LWPOLYLINE
  5
50F
100
AcDbEntity
  8
RUNDUNGEN
100
AcDbPolyline
 62
7
  6
CONTINUOUS
 90
3
 70
0
 10
212.138724821
 20
-55.9947967123
 10
212.146956483
 20
-55.9885648875
 10
212.155177719
 20
-55.9824299895
  0
LINE
  5
510
100
AcDbEntity
  8
RUNDUNGEN
100
AcDbLine
 62
7
  6
CONTINUOUS
 10
207.2535869694
 20
-58.9474460209
 11
207.4038410104
 21
-58.8338291597
  0
LINE
  5
511
100
AcDbEntity
  8
RUNDUNGEN
100
AcDbLine
 62
7
  6
CONTINUOUS
 10
212.154952625
 20
-55.9825996957
 11
212.1632169135
 21
-55.9765227843
  0
LINE
  5
512
100
AcDbEntity
  8
RUNDUNGEN
100
AcDbLine
 62
7
  6
CONTINUOUS
 10
212.1633952704
 20
-55.976388047
 11
212.1715769405
 21
-55.9704634833
  0
LINE
  5
513
100
AcDbEntity
  8
RUNDUNGEN
100
AcDbLine
 62
7
  6
CONTINUOUS
 10
207.4005147059
 20
-58.8362833863
 11
207.566625208
 21
-58.7168321308
  0
LINE
  5
514
100
AcDbEntity
  8
RUNDUNGEN
100
AcDbLine
 62
7
  6
CONTINUOUS
 10
212.171461475
 20
-55.9705524646
 11
212.1796903768
 21
-55.9646865194
  0
LWPOLYLINE
  5
515
100
AcDbEntity
  8
RUNDUNGEN
100
AcDbPolyline
 62
7
  6
CONTINUOUS
 90
25
 70
0
 10
212.179696871
 20
-55.9646749141
 10
212.1877458444
 20
-55.9590283101
 10
212.1956873766
 20
-55.9535478476
 10
212.2035777694
 20
-55.9481934189
 10
212.2114481921
 20
-55.9429442057
 10
212.2193227996
 20
-55.9377855534
 10
212.227225681
 20
-55.9327042097
 10
212.235171039
 20
-55.9276945559
 10
212.2431730878
 20
-55.9227520538
 10
212.2512354071
 20
-55.9178797436
 10
212.259361415
 20
-55.9130815599
 10
212.2675414038
 20
-55.9083698529
 10
212.2757647057
 20
-55.9037574298
 10
212.284009313
 20
-55.8992624454
 10
212.2922506229
 20
-55.8949037265
 10
212.3004530724
 20
-55.8907049883
 10
212.3085724252
 20
-55.8866928653
 10
212.3165727106
 20
-55.8828883065
 10
212.3243182751
 20
-55.8793556509
 10
212.3320089387
 20
-55.876007368
 10
212.3396949586
 20
-55.8728338436
 10
212.3473341657
 20
-55.8698675567
 10
212.3544341351
 20
-55.8672987403
 10
212.3618902528
 20
-55.8648271121
 10
212.3698879857
 20
-55.8624974233
  0
LINE
  5
516
100
AcDbEntity
  8
RUNDUNGEN
100
AcDbLine
 62
7
  6
CONTINUOUS
 10
207.5628001747
 20
-58.7195153258
 11
207.7449914842
 21
-58.5950330532
  0
LINE
  5
517
100
AcDbEntity
  8
RUNDUNGEN
100
AcDbLine
 62
7
  6
CONTINUOUS
 10
207.740636402
 20
-58.5979324577
 11
207.9389499492
 21
-58.4694378225
  0
LINE
  5
518
100
AcDbEntity
  8
RUNDUNGEN
100
AcDbLine
 62
7
  6
CONTINUOUS
 10
207.9340204383
 20
-58.4725452284
 11
208.1488804366
 21
-58.3409350095
  0
LINE
  5
519
100
AcDbEntity
  8
RUNDUNGEN
100
AcDbLine
 62
7
  6
CONTINUOUS
 10
271.3581706074
 20
-31.0348228936
 11
231.3581706074
 21
-31.0348228936
  0
LINE
  5
51A
100
AcDbEntity
  8
RUNDUNGEN
100
AcDbLine
 62
7
  6
CONTINUOUS
 10
166.3581706074
 20
-31.0348228936
 11
118.3581706074
 21
-31.0348228936
  0
LINE
  5
51B
100
AcDbEntity
  8
0
100
AcDbLine
 62
7
  6
CONTINUOUS
 10
129.5581706074
 20
-30.0348228936
 11
135.1581706074
 21
-30.0348228936
  0
LINE
  5
51C
100
AcDbEntity
  8
0
100
AcDbLine
 62
7
  6
CONTINUOUS
 10
232.8581706074
 20
-30.0348228936
 11
237.7331706074
 21
-30.0348228936
  0
LINE
  5
51D
100
AcDbEntity
  8
0
100
AcDbLine
 62
7
  6
CONTINUOUS
 10
238.7331707266
 20
-30.0348228936
 11
243.233170369
 21
-30.0348228936
  0
LINE
  5
51E
100
AcDbEntity
  8
0
100
AcDbLine
 62
7
  6
CONTINUOUS
 10
244.2331708459
 20
-30.0348228936
 11
248.9831706074
 21
-30.0348228936
  0
LINE
  5
51F
100
AcDbEntity
  8
0
100
AcDbLine
 62
7
  6
CONTINUOUS
 10
249.9831710843
 20
-30.0348228936
 11
254.7331701306
 21
-30.0348228936
  0
LINE
  5
520
100
AcDbEntity
  8
0
100
AcDbLine
 62
7
  6
CONTINUOUS
 10
255.7331706074
 20
-30.0348228936
 11
260.2331706074
 21
-30.0348228936
  0
LINE
  5
521
100
AcDbEntity
  8
RUNDUNGEN
100
AcDbLine
 62
7
  6
CONTINUOUS
 10
296.3756947546
 20
-28.0348228936
 11
279.6157383491
 21
-28.0348228936
  0
LINE
  5
522
100
AcDbEntity
  8
0
100
AcDbLine
 62
7
  6
CONTINUOUS
 10
110.9822377693
 20
-28.0348228936
 11
116.8581706074
 21
-28.0348228936
  0
LINE
  5
523
100
AcDbEntity
  8
0
100
AcDbLine
 62
7
  6
CONTINUOUS
 10
167.8581706074
 20
-28.0348228936
 11
177.1261197999
 21
-28.0348228936
  0
LINE
  5
524
100
AcDbEntity
  8
0
100
AcDbLine
 62
7
  6
CONTINUOUS
 10
212.590221415
 20
-28.0348228936
 11
229.8581706074
 21
-28.0348228936
  0
LINE
  5
525
100
AcDbEntity
  8
0
100
AcDbLine
 62
7
  6
CONTINUOUS
 10
272.8581706074
 20
-28.0348228936
 11
296.3756947546
 21
-28.0348228936
  0
LINE
  5
526
100
AcDbEntity
  8
0
100
AcDbLine
 62
7
  6
CONTINUOUS
 10
209.7863738377
 20
-27.0348228936
 11
206.8581706074
 21
-27.0348228936
  0
LINE
  5
527
100
AcDbEntity
  8
0
100
AcDbLine
 62
7
  6
CONTINUOUS
 10
182.8581706074
 20
-27.0348228936
 11
179.9299673772
 21
-27.0348228936
  0
LINE
  5
528
100
AcDbEntity
  8
BEZUGSACHSEN
100
AcDbLine
 62
7
  6
CONTINUOUS
 10
373.8276005997
 20
-26.5348228936
 11
364.85817394
 21
-26.5348228936
  0
LINE
  5
529
100
AcDbEntity
  8
RUNDUNGEN
100
AcDbLine
 62
7
  6
CONTINUOUS
 10
10.8887406152
 20
-26.5348228936
 11
19.8581672748
 21
-26.5348228936
  0
LINE
  5
52A
100
AcDbEntity
  8
BEZUGSACHSEN
100
AcDbLine
 62
7
  6
CONTINUOUS
 10
71.3581706074
 20
-25.0348228936
 11
68.3581706074
 21
-25.0348228936
  0
LINE
  5
52B
100
AcDbEntity
  8
RUNDUNGEN
100
AcDbLine
 62
7
  6
CONTINUOUS
 10
71.3581706074
 20
-25.0348228936
 11
68.3581706074
 21
-25.0348228936
  0
LINE
  5
52C
100
AcDbEntity
  8
0
100
AcDbLine
 62
7
  6
CONTINUOUS
 10
92.8581706074
 20
-25.0348228936
 11
100.9765357039
 21
-25.0348228936
  0
LINE
  5
52D
100
AcDbEntity
  8
RUNDUNGEN
100
AcDbLine
 62
7
  6
CONTINUOUS
 10
278.887375455
 20
-56.2415976818
 11
279.0514853697
 21
-56.3089005601
  0
LINE
  5
52E
100
AcDbEntity
  8
0
100
AcDbLine
 62
7
  6
CONTINUOUS
 10
210.7863738377
 20
-27.302772086
 11
211.590221415
 21
-27.7668737011
  0
LINE
  5
52F
100
AcDbEntity
  8
RUNDUNGEN
100
AcDbLine
 62
7
  6
CONTINUOUS
 10
230.3581706074
 20
-30.0348122502
 11
230.3581706074
 21
-28.5348228937
  0
LINE
  5
530
100
AcDbEntity
  8
0
100
AcDbLine
 62
7
  6
CONTINUOUS
 10
232.8581706074
 20
-31.0348228936
 11
232.8581706074
 21
-30.0348228936
  0
LINE
  5
531
100
AcDbEntity
  8
0
100
AcDbLine
 62
7
  6
CONTINUOUS
 10
232.9831706112
 20
-31.0348228936
 11
232.9831706112
 21
-30.0348228936
  0
LINE
  5
532
100
AcDbEntity
  8
0
100
AcDbLine
 62
7
  6
CONTINUOUS
 10
233.2331706074
 20
-31.0348228936
 11
233.2331706074
 21
-30.0348228936
  0
LINE
  5
533
100
AcDbEntity
  8
0
100
AcDbLine
 62
7
  6
CONTINUOUS
 10
233.7331705776
 20
-31.0348228936
 11
233.7331705776
 21
-30.0348228936
  0
LINE
  5
534
100
AcDbEntity
  8
0
100
AcDbLine
 62
7
  6
CONTINUOUS
 10
234.2331706372
 20
-31.0348228936
 11
234.2331706372
 21
-30.0348228936
  0
LINE
  5
535
100
AcDbEntity
  8
0
100
AcDbLine
 62
7
  6
CONTINUOUS
 10
234.858170667
 20
-31.0348228936
 11
234.858170667
 21
-30.0348228936
  0
LINE
  5
536
100
AcDbEntity
  8
0
100
AcDbLine
 62
7
  6
CONTINUOUS
 10
235.9831704882
 20
-31.0348228936
 11
235.9831704882
 21
-30.0348228936
  0
LINE
  5
537
100
AcDbEntity
  8
0
100
AcDbLine
 62
7
  6
CONTINUOUS
 10
189.8581706074
 20
-18.0348228936
 11
199.8581706074
 21
-18.0348228936
  0
LINE
  5
538
100
AcDbEntity
  8
0
100
AcDbLine
 62
7
  6
CONTINUOUS
 10
183.8581706074
 20
-17.0348228936
 11
189.8581706074
 21
-17.0348228936
  0
LINE
  5
539
100
AcDbEntity
  8
0
100
AcDbLine
 62
7
  6
CONTINUOUS
 10
199.8581706074
 20
-17.0348228936
 11
205.8581706074
 21
-17.0348228936
  0
LINE
  5
53A
100
AcDbEntity
  8
0
100
AcDbLine
 62
7
  6
CONTINUOUS
 10
236.6081706074
 20
-31.0348228936
 11
236.6081706074
 21
-30.0348228936
  0
LINE
  5
53B
100
AcDbEntity
  8
0
100
AcDbLine
 62
7
  6
CONTINUOUS
 10
237.1081704882
 20
-31.0348228936
 11
237.1081704882
 21
-30.0348228936
  0
LINE
  5
53C
100
AcDbEntity
  8
0
100
AcDbLine
 62
7
  6
CONTINUOUS
 10
237.6081707266
 20
-31.0348228936
 11
237.6081707266
 21
-30.0348228936
  0
LINE
  5
53D
100
AcDbEntity
  8
0
100
AcDbLine
 62
7
  6
CONTINUOUS
 10
237.7331706074
 20
-31.0348228936
 11
237.7331706074
 21
-30.0348228936
  0
LINE
  5
53E
100
AcDbEntity
  8
0
100
AcDbLine
 62
7
  6
CONTINUOUS
 10
238.7331707266
 20
-31.0348228936
 11
238.7331707266
 21
-30.0348228936
  0
LINE
  5
53F
100
AcDbEntity
  8
0
100
AcDbLine
 62
7
  6
CONTINUOUS
 10
238.8581706074
 20
-31.0348228936
 11
238.8581706074
 21
-30.0348228936
  0
LINE
  5
540
100
AcDbEntity
  8
0
100
AcDbLine
 62
7
  6
CONTINUOUS
 10
239.108170369
 20
-31.0348228936
 11
239.108170369
 21
-30.0348228936
  0
LINE
  5
541
100
AcDbEntity
  8
0
100
AcDbLine
 62
7
  6
CONTINUOUS
 10
239.6081706074
 20
-31.0348228936
 11
239.6081706074
 21
-30.0348228936
  0
LINE
  5
542
100
AcDbEntity
  8
0
100
AcDbLine
 62
7
  6
CONTINUOUS
 10
240.1081708459
 20
-31.0348228936
 11
240.1081708459
 21
-30.0348228936
  0
LINE
  5
543
100
AcDbEntity
  8
0
100
AcDbLine
 62
7
  6
CONTINUOUS
 10
240.7331706074
 20
-31.0348228936
 11
240.7331706074
 21
-30.0348228936
  0
LINE
  5
544
100
AcDbEntity
  8
0
100
AcDbLine
 62
7
  6
CONTINUOUS
 10
241.2331708459
 20
-31.0348228936
 11
241.2331708459
 21
-30.0348228936
  0
LINE
  5
545
100
AcDbEntity
  8
0
100
AcDbLine
 62
7
  6
CONTINUOUS
 10
241.8581706074
 20
-31.0348228936
 11
241.8581706074
 21
-30.0348228936
  0
LINE
  5
546
100
AcDbEntity
  8
0
100
AcDbLine
 62
7
  6
CONTINUOUS
 10
242.3581708459
 20
-31.0348228936
 11
242.3581708459
 21
-30.0348228936
  0
LINE
  5
547
100
AcDbEntity
  8
0
100
AcDbLine
 62
7
  6
CONTINUOUS
 10
242.858170369
 20
-31.0348228936
 11
242.858170369
 21
-30.0348228936
  0
LINE
  5
548
100
AcDbEntity
  8
0
100
AcDbLine
 62
7
  6
CONTINUOUS
 10
243.1081708459
 20
-31.0348228936
 11
243.1081708459
 21
-30.0348228936
  0
LINE
  5
549
100
AcDbEntity
  8
0
100
AcDbLine
 62
7
  6
CONTINUOUS
 10
243.233170369
 20
-31.0348228936
 11
243.233170369
 21
-30.0348228936
  0
LINE
  5
54A
100
AcDbEntity
  8
0
100
AcDbLine
 62
7
  6
CONTINUOUS
 10
244.2331708459
 20
-31.0348228936
 11
244.2331708459
 21
-30.0348228936
  0
LINE
  5
54B
100
AcDbEntity
  8
0
100
AcDbLine
 62
7
  6
CONTINUOUS
 10
244.9831701306
 20
-31.0348228936
 11
244.9831701306
 21
-30.0348228936
  0
LINE
  5
54C
100
AcDbEntity
  8
0
100
AcDbLine
 62
7
  6
CONTINUOUS
 10
247.1081706074
 20
-31.0348228936
 11
247.1081706074
 21
-30.0348228936
  0
LINE
  5
54D
100
AcDbEntity
  8
0
100
AcDbLine
 62
7
  6
CONTINUOUS
 10
248.1081710843
 20
-31.0348228936
 11
248.1081710843
 21
-30.0348228936
  0
LINE
  5
54E
100
AcDbEntity
  8
0
100
AcDbLine
 62
7
  6
CONTINUOUS
 10
248.9831706074
 20
-31.0348228936
 11
248.9831706074
 21
-30.0348228936
  0
LINE
  5
54F
100
AcDbEntity
  8
0
100
AcDbLine
 62
7
  6
CONTINUOUS
 10
249.9831710843
 20
-31.0348228936
 11
249.9831710843
 21
-30.0348228936
  0
LINE
  5
550
100
AcDbEntity
  8
0
100
AcDbLine
 62
7
  6
CONTINUOUS
 10
251.9831706074
 20
-31.0348228936
 11
251.9831706074
 21
-30.0348228936
  0
LINE
  5
551
100
AcDbEntity
  8
0
100
AcDbLine
 62
7
  6
CONTINUOUS
 10
252.7331706074
 20
-31.0348228936
 11
252.7331706074
 21
-30.0348228936
  0
LINE
  5
552
100
AcDbEntity
  8
0
100
AcDbLine
 62
7
  6
CONTINUOUS
 10
254.7331701306
 20
-31.0348228936
 11
254.7331701306
 21
-30.0348228936
  0
LINE
  5
553
100
AcDbEntity
  8
0
100
AcDbLine
 62
7
  6
CONTINUOUS
 10
255.7331706074
 20
-31.0348228936
 11
255.7331706074
 21
-30.0348228936
  0
LINE
  5
554
100
AcDbEntity
  8
0
100
AcDbLine
 62
7
  6
CONTINUOUS
 10
255.8581701306
 20
-31.0348228936
 11
255.8581701306
 21
-30.0348228936
  0
LINE
  5
555
100
AcDbEntity
  8
0
100
AcDbLine
 62
7
  6
CONTINUOUS
 10
256.1081706074
 20
-31.0348228936
 11
256.1081706074
 21
-30.0348228936
  0
LINE
  5
556
100
AcDbEntity
  8
0
100
AcDbLine
 62
7
  6
CONTINUOUS
 10
256.4831706074
 20
-31.0348228936
 11
256.4831706074
 21
-30.0348228936
  0
LINE
  5
557
100
AcDbEntity
  8
0
100
AcDbLine
 62
7
  6
CONTINUOUS
 10
257.1081696538
 20
-31.0348228936
 11
257.1081696538
 21
-30.0348228936
  0
LINE
  5
558
100
AcDbEntity
  8
0
100
AcDbLine
 62
7
  6
CONTINUOUS
 10
257.7331715611
 20
-31.0348228936
 11
257.7331715611
 21
-30.0348228936
  0
LINE
  5
559
100
AcDbEntity
  8
0
100
AcDbLine
 62
7
  6
CONTINUOUS
 10
258.3581706074
 20
-31.0348228936
 11
258.3581706074
 21
-30.0348228936
  0
LINE
  5
55A
100
AcDbEntity
  8
0
100
AcDbLine
 62
7
  6
CONTINUOUS
 10
258.9831696538
 20
-31.0348228936
 11
258.9831696538
 21
-30.0348228936
  0
LINE
  5
55B
100
AcDbEntity
  8
0
100
AcDbLine
 62
7
  6
CONTINUOUS
 10
259.6081715611
 20
-31.0348228936
 11
259.6081715611
 21
-30.0348228936
  0
LINE
  5
55C
100
AcDbEntity
  8
0
100
AcDbLine
 62
7
  6
CONTINUOUS
 10
259.9831715611
 20
-31.0348228936
 11
259.9831715611
 21
-30.0348228936
  0
LINE
  5
55D
100
AcDbEntity
  8
0
100
AcDbLine
 62
7
  6
CONTINUOUS
 10
260.2331706074
 20
-31.0348228936
 11
260.2331706074
 21
-30.0348228936
  0
LINE
  5
55E
100
AcDbEntity
  8
RUNDUNGEN
100
AcDbLine
 62
7
  6
CONTINUOUS
 10
272.3581706074
 20
-28.5348228937
 11
272.3581706074
 21
-30.0348121165
  0
LINE
  5
55F
100
AcDbEntity
  8
0
100
AcDbLine
 62
7
  6
CONTINUOUS
 10
298.3647385453
 20
-29.825765967
 11
298.8581706074
 21
-34.5204584394
  0
LINE
  5
560
100
AcDbEntity
  8
0
100
AcDbLine
 62
7
  6
CONTINUOUS
 10
298.8581706074
 20
-34.5206247372
 11
298.8581706074
 21
-53.5490210499
  0
LINE
  5
561
100
AcDbEntity
  8
0
100
AcDbLine
 62
7
  6
CONTINUOUS
 10
298.3647385453
 20
-58.2438798201
 11
298.8581706074
 21
-53.5491873478
  0
LINE
  5
562
100
AcDbEntity
  8
BEZUGSACHSEN
100
AcDbLine
 62
7
  6
CONTINUOUS
 10
397.2327903146
 20
-66.0500132733
 11
400.7446059464
 21
-64.1033820816
  0
LINE
  5
563
100
AcDbEntity
  8
BEZUGSACHSEN
100
AcDbLine
 62
7
  6
CONTINUOUS
 10
387.3046920416
 20
-50.2019152095
 11
395.8733609872
 21
-65.6602031864
  0
LINE
  5
564
100
AcDbEntity
  8
RUNDUNGEN
100
AcDbLine
 62
7
  6
CONTINUOUS
 10
401.2446040792
 20
-63.0551141968
 11
401.0469365479
 21
-61.9340859202
  0
LINE
  5
565
100
AcDbEntity
  8
BEZUGSACHSEN
100
AcDbLine
 62
7
  6
CONTINUOUS
 10
401.2446040792
 20
-63.0551141968
 11
398.4477950551
 21
-47.1936220255
  0
ARC
  5
566
100
AcDbEntity
  8
BEZUGSACHSEN
100
AcDbCircle
 62
7
  6
CONTINUOUS
 10
168.8581706074
 20
147.8715614534
 40
20.0
100
AcDbArc
 50
0.0
 51
11.7682905465
  0
ARC
  5
567
100
AcDbEntity
  8
BEZUGSACHSEN
100
AcDbCircle
 62
7
  6
CONTINUOUS
 10
191.8581706074
 20
78.4327668304
 40
3.0
100
AcDbArc
 50
180.0
 51
270.0
  0
ARC
  5
568
100
AcDbEntity
  8
0
100
AcDbCircle
 62
7
  6
CONTINUOUS
 10
47.3581706074
 20
204.9327668304
 40
10.0
100
AcDbArc
 50
90.0
 51
121.9963298722
  0
ARC
  5
569
100
AcDbEntity
  8
RUNDUNGEN
100
AcDbCircle
 62
7
  6
CONTINUOUS
 10
44.6496755653
 20
203.6827668304
 40
10.0
100
AcDbArc
 50
107.6314886906
 51
125.0000079438
  0
ARC
  5
56A
100
AcDbEntity
  8
RUNDUNGEN
100
AcDbCircle
 62
7
  6
CONTINUOUS
 10
68.3581706074
 20
204.4327668304
 40
1.5
100
AcDbArc
 50
180.0
 51
270.0
  0
ARC
  5
56B
100
AcDbEntity
  8
RUNDUNGEN
100
AcDbCircle
 62
7
  6
CONTINUOUS
 10
71.3581706074
 20
203.4327668304
 40
0.5
100
AcDbArc
 50
270.0
 51
360.0
  0
ARC
  5
56C
100
AcDbEntity
  8
BEZUGSACHSEN
100
AcDbCircle
 62
7
  6
CONTINUOUS
 10
1.8581706074
 20
213.4327668304
 40
10.0
100
AcDbArc
 50
247.0000130283
 51
270.0000073512
  0
ARC
  5
56D
100
AcDbEntity
  8
BEZUGSACHSEN
100
AcDbCircle
 62
7
  6
CONTINUOUS
 10
-9.1418293926
 20
215.9292690539
 40
8.0
100
AcDbArc
 50
207.59056413
 51
247.0
  0
ARC
  5
56E
100
AcDbEntity
  8
BEZUGSACHSEN
100
AcDbCircle
 62
7
  6
CONTINUOUS
 10
1.6281114797
 20
212.9327668304
 40
5.0
100
AcDbArc
 50
33.6324266257
 51
90.0
  0
ARC
  5
56F
100
AcDbEntity
  8
BEZUGSACHSEN
100
AcDbCircle
 62
7
  6
CONTINUOUS
 10
-15.3395200443
 20
212.6892704654
 40
1.0065060989
100
AcDbArc
 50
188.7565123047
 51
207.5290470774
  0
ARC
  5
570
100
AcDbEntity
  8
RUNDUNGEN
100
AcDbCircle
 62
7
  6
CONTINUOUS
 10
-8.0521249057
 20
224.9327668304
 40
1.0
100
AcDbArc
 50
90.0
 51
179.9979837807
  0
ARC
  5
571
100
AcDbEntity
  8
BEZUGSACHSEN
100
AcDbCircle
 62
7
  6
CONTINUOUS
 10
-8.0521249057
 20
218.9327668304
 40
1.0
100
AcDbArc
 50
180.0020162193
 51
270.0
  0
ARC
  5
572
100
AcDbEntity
  8
BEZUGSACHSEN
100
AcDbCircle
 62
7
  6
CONTINUOUS
 10
23.7051827186
 20
213.4327668304
 40
10.0
100
AcDbArc
 50
269.999935343
 51
304.9995553527
  0
ARC
  5
573
100
AcDbEntity
  8
BEZUGSACHSEN
100
AcDbCircle
 62
7
  6
CONTINUOUS
 10
15.1581706074
 20
221.9327668304
 40
11.25
100
AcDbArc
 50
213.6307667032
 51
77.2669924903
  0
ARC
  5
574
100
AcDbEntity
  8
RUNDUNGEN
100
AcDbCircle
 62
7
  6
CONTINUOUS
 10
15.1581706074
 20
221.9327668304
 40
11.25
100
AcDbArc
 50
67.7282608307
 51
71.4608892852
  0
ARC
  5
575
100
AcDbEntity
  8
RUNDUNGEN
100
AcDbCircle
 62
7
  6
CONTINUOUS
 10
15.1581706074
 20
221.9327668304
 40
11.25
100
AcDbArc
 50
77.2669924903
 51
146.3692332968
  0
ARC
  5
576
100
AcDbEntity
  8
RUNDUNGEN
100
AcDbCircle
 62
7
  6
CONTINUOUS
 10
1.8581706074
 20
230.4327668304
 40
10.0
100
AcDbArc
 50
89.9999926488
 51
112.9999869717
  0
ARC
  5
577
100
AcDbEntity
  8
RUNDUNGEN
100
AcDbCircle
 62
7
  6
CONTINUOUS
 10
23.7051827186
 20
230.4327668304
 40
10.0
100
AcDbArc
 50
55.0
 51
90.000064657
  0
ARC
  5
578
100
AcDbEntity
  8
RUNDUNGEN
100
AcDbCircle
 62
7
  6
CONTINUOUS
 10
-9.1418293926
 20
227.9362646069
 40
8.0
100
AcDbArc
 50
113.0
 51
152.40943587
  0
ARC
  5
579
100
AcDbEntity
  8
RUNDUNGEN
100
AcDbCircle
 62
7
  6
CONTINUOUS
 10
1.6281114797
 20
230.9327668304
 40
5.0
100
AcDbArc
 50
270.0
 51
326.3675733743
  0
ARC
  5
57A
100
AcDbEntity
  8
RUNDUNGEN
100
AcDbCircle
 62
7
  6
CONTINUOUS
 10
-15.3395200443
 20
231.1762631955
 40
1.0065060989
100
AcDbArc
 50
152.4709529226
 51
171.2434876953
  0
ARC
  5
57B
100
AcDbEntity
  8
0
100
AcDbCircle
 62
7
  6
CONTINUOUS
 10
47.4565448887
 20
214.9327668304
 40
4.5
100
AcDbArc
 50
90.0
 51
180.0
  0
ARC
  5
57C
100
AcDbEntity
  8
0
100
AcDbCircle
 62
7
  6
CONTINUOUS
 10
47.3581706074
 20
238.9327668304
 40
10.0
100
AcDbArc
 50
238.002941551
 51
270.0
  0
ARC
  5
57D
100
AcDbEntity
  8
RUNDUNGEN
100
AcDbCircle
 62
7
  6
CONTINUOUS
 10
44.6496755653
 20
240.1827668304
 40
10.0
100
AcDbArc
 50
234.9999920562
 51
252.3685163835
  0
ARC
  5
57E
100
AcDbEntity
  8
RUNDUNGEN
100
AcDbCircle
 62
7
  6
CONTINUOUS
 10
68.3581706074
 20
239.4327668304
 40
1.5
100
AcDbArc
 50
90.0
 51
180.0
  0
ARC
  5
57F
100
AcDbEntity
  8
RUNDUNGEN
100
AcDbCircle
 62
7
  6
CONTINUOUS
 10
71.3581706074
 20
240.4327668304
 40
0.5
100
AcDbArc
 50
0.0
 51
90.0
  0
ARC
  5
580
100
AcDbEntity
  8
RUNDUNGEN
100
AcDbCircle
 62
7
  6
CONTINUOUS
 10
100.9765357039
 20
207.9327668304
 40
5.0
100
AcDbArc
 50
270.0
 51
290.0
  0
ARC
  5
581
100
AcDbEntity
  8
RUNDUNGEN
100
AcDbCircle
 62
7
  6
CONTINUOUS
 10
110.9822377693
 20
200.9327668304
 40
5.0
100
AcDbArc
 50
90.0
 51
110.0
  0
ARC
  5
582
100
AcDbEntity
  8
RUNDUNGEN
100
AcDbCircle
 62
7
  6
CONTINUOUS
 10
92.8581706074
 20
203.9327668304
 40
1.0
100
AcDbArc
 50
180.0
 51
270.0
  0
ARC
  5
583
100
AcDbEntity
  8
RUNDUNGEN
100
AcDbCircle
 62
7
  6
CONTINUOUS
 10
185.8581706074
 20
175.9939722075
 40
20.0
100
AcDbArc
 50
348.231711068
 51
0.0000167414
  0
ARC
  5
584
100
AcDbEntity
  8
RUNDUNGEN
100
AcDbCircle
 62
7
  6
CONTINUOUS
 10
180.8581706074
 20
193.2870155194
 40
3.0
100
AcDbArc
 50
0.0
 51
41.4096221093
  0
ARC
  5
585
100
AcDbEntity
  8
RUNDUNGEN
100
AcDbCircle
 62
7
  6
CONTINUOUS
 10
179.9299673772
 20
206.9327668304
 40
2.0
100
AcDbArc
 50
240.0
 51
270.0
  0
ARC
  5
586
100
AcDbEntity
  8
RUNDUNGEN
100
AcDbCircle
 62
7
  6
CONTINUOUS
 10
177.1261197999
 20
203.9327668304
 40
2.0
100
AcDbArc
 50
60.0
 51
90.0
  0
ARC
  5
587
100
AcDbEntity
  8
RUNDUNGEN
100
AcDbCircle
 62
7
  6
CONTINUOUS
 10
183.8581706074
 20
195.9327668304
 40
1.0
100
AcDbArc
 50
180.0
 51
221.4096221093
  0
ARC
  5
588
100
AcDbEntity
  8
RUNDUNGEN
100
AcDbCircle
 62
7
  6
CONTINUOUS
 10
190.8581706074
 20
196.4327668304
 40
1.0
100
AcDbArc
 50
180.0
 51
270.0
  0
ARC
  5
589
100
AcDbEntity
  8
RUNDUNGEN
100
AcDbCircle
 62
7
  6
CONTINUOUS
 10
112.8581706074
 20
224.9327668304
 40
5.0
100
AcDbArc
 50
89.9994800841
 51
179.9986236487
  0
ARC
  5
58A
100
AcDbEntity
  8
RUNDUNGEN
100
AcDbCircle
 62
7
  6
CONTINUOUS
 10
100.9765357039
 20
235.9327668304
 40
5.0
100
AcDbArc
 50
70.0
 51
90.0
  0
ARC
  5
58B
100
AcDbEntity
  8
RUNDUNGEN
100
AcDbCircle
 62
7
  6
CONTINUOUS
 10
110.9822377693
 20
242.9327668304
 40
5.0
100
AcDbArc
 50
250.0
 51
270.0
  0
ARC
  5
58C
100
AcDbEntity
  8
0
100
AcDbCircle
 62
7
  6
CONTINUOUS
 10
112.8581706074
 20
218.9327668304
 40
5.0
100
AcDbArc
 50
247.4915170683
 51
252.847331705
  0
ARC
  5
58D
100
AcDbEntity
  8
0
100
AcDbCircle
 62
7
  6
CONTINUOUS
 10
112.8581706074
 20
218.9327668304
 40
5.0
100
AcDbArc
 50
233.2236924833
 51
247.104124408
  0
ARC
  5
58E
100
AcDbEntity
  8
RUNDUNGEN
100
AcDbCircle
 62
7
  6
CONTINUOUS
 10
112.8581706074
 20
218.9327668304
 40
5.0
100
AcDbArc
 50
180.0014337711
 51
270.001842331
  0
ARC
  5
58F
100
AcDbEntity
  8
RUNDUNGEN
100
AcDbCircle
 62
7
  6
CONTINUOUS
 10
177.8581706074
 20
224.9327668304
 40
5.0
100
AcDbArc
 50
359.9971028033
 51
90.0
  0
ARC
  5
590
100
AcDbEntity
  8
RUNDUNGEN
100
AcDbCircle
 62
7
  6
CONTINUOUS
 10
177.8581706074
 20
218.9327668304
 40
5.0
100
AcDbArc
 50
270.0
 51
0.0029047463
  0
ARC
  5
591
100
AcDbEntity
  8
RUNDUNGEN
100
AcDbCircle
 62
7
  6
CONTINUOUS
 10
179.9299673772
 20
236.9327668304
 40
2.0
100
AcDbArc
 50
90.0
 51
120.0
  0
ARC
  5
592
100
AcDbEntity
  8
RUNDUNGEN
100
AcDbCircle
 62
7
  6
CONTINUOUS
 10
177.1261197999
 20
239.9327668304
 40
2.0
100
AcDbArc
 50
270.0
 51
300.0
  0
ARC
  5
593
100
AcDbEntity
  8
RUNDUNGEN
100
AcDbCircle
 62
7
  6
CONTINUOUS
 10
183.8581706074
 20
247.9327668304
 40
1.0
100
AcDbArc
 50
90.0
 51
180.0
  0
ARC
  5
594
100
AcDbEntity
  8
RUNDUNGEN
100
AcDbCircle
 62
7
  6
CONTINUOUS
 10
92.8581706074
 20
239.9327668304
 40
1.0
100
AcDbArc
 50
90.0
 51
180.0
  0
ARC
  5
595
100
AcDbEntity
  8
RUNDUNGEN
100
AcDbCircle
 62
7
  6
CONTINUOUS
 10
220.8581706074
 20
147.8715614534
 40
20.0
100
AcDbArc
 50
168.2317094535
 51
180.0
  0
ARC
  5
596
100
AcDbEntity
  8
RUNDUNGEN
100
AcDbCircle
 62
7
  6
CONTINUOUS
 10
197.8581706074
 20
78.4327668304
 40
3.0
100
AcDbArc
 50
270.0
 51
360.0
  0
ARC
  5
597
100
AcDbEntity
  8
BEZUGSACHSEN
100
AcDbCircle
 62
7
  6
CONTINUOUS
 10
203.8581706074
 20
175.9939722075
 40
20.0
100
AcDbArc
 50
179.9999832586
 51
191.768288932
  0
ARC
  5
598
100
AcDbEntity
  8
RUNDUNGEN
100
AcDbCircle
 62
7
  6
CONTINUOUS
 10
208.8581706074
 20
193.2870155194
 40
3.0
100
AcDbArc
 50
138.5903778907
 51
180.0
  0
ARC
  5
599
100
AcDbEntity
  8
RUNDUNGEN
100
AcDbCircle
 62
7
  6
CONTINUOUS
 10
209.7863738377
 20
206.9327668304
 40
2.0
100
AcDbArc
 50
270.0
 51
300.0
  0
ARC
  5
59A
100
AcDbEntity
  8
RUNDUNGEN
100
AcDbCircle
 62
7
  6
CONTINUOUS
 10
212.590221415
 20
203.9327668304
 40
2.0
100
AcDbArc
 50
90.0
 51
120.0
  0
ARC
  5
59B
100
AcDbEntity
  8
RUNDUNGEN
100
AcDbCircle
 62
7
  6
CONTINUOUS
 10
296.3756947546
 20
207.9327668304
 40
2.0
100
AcDbArc
 50
270.0
 51
354.0000000003
  0
ARC
  5
59C
100
AcDbEntity
  8
RUNDUNGEN
100
AcDbCircle
 62
7
  6
CONTINUOUS
 10
198.8581706074
 20
196.4327668304
 40
1.0
100
AcDbArc
 50
270.0
 51
360.0
  0
ARC
  5
59D
100
AcDbEntity
  8
RUNDUNGEN
100
AcDbCircle
 62
7
  6
CONTINUOUS
 10
205.8581706074
 20
195.9327668304
 40
1.0
100
AcDbArc
 50
318.5903778907
 51
360.0
  0
ARC
  5
59E
100
AcDbEntity
  8
RUNDUNGEN
100
AcDbCircle
 62
7
  6
CONTINUOUS
 10
276.8581706074
 20
224.9327668304
 40
5.0
100
AcDbArc
 50
359.9974019971
 51
90.000762999
  0
ARC
  5
59F
100
AcDbEntity
  8
RUNDUNGEN
100
AcDbCircle
 62
7
  6
CONTINUOUS
 10
276.8581706074
 20
218.9327668304
 40
5.0
100
AcDbArc
 50
269.9972094646
 51
0.0028787004
  0
ARC
  5
5A0
100
AcDbEntity
  8
0
100
AcDbCircle
 62
7
  6
CONTINUOUS
 10
276.8581706074
 20
218.9327668304
 40
5.0
100
AcDbArc
 50
287.2434290739
 51
293.19945822
  0
ARC
  5
5A1
100
AcDbEntity
  8
0
100
AcDbCircle
 62
7
  6
CONTINUOUS
 10
276.8581706074
 20
218.9327668304
 40
5.0
100
AcDbArc
 50
299.4409559351
 51
306.7763075167
  0
ARC
  5
5A2
100
AcDbEntity
  8
RUNDUNGEN
100
AcDbCircle
 62
7
  6
CONTINUOUS
 10
211.8581706074
 20
224.9327668304
 40
5.0
100
AcDbArc
 50
90.0
 51
180.0025238426
  0
ARC
  5
5A3
100
AcDbEntity
  8
RUNDUNGEN
100
AcDbCircle
 62
7
  6
CONTINUOUS
 10
211.8581706074
 20
218.9327668304
 40
5.0
100
AcDbArc
 50
179.997208655
 51
270.0021655439
  0
ARC
  5
5A4
100
AcDbEntity
  8
RUNDUNGEN
100
AcDbCircle
 62
7
  6
CONTINUOUS
 10
209.7863738377
 20
236.9327668304
 40
2.0
100
AcDbArc
 50
60.0
 51
90.0
  0
ARC
  5
5A5
100
AcDbEntity
  8
RUNDUNGEN
100
AcDbCircle
 62
7
  6
CONTINUOUS
 10
212.590221415
 20
239.9327668304
 40
2.0
100
AcDbArc
 50
240.0
 51
270.0
  0
ARC
  5
5A6
100
AcDbEntity
  8
RUNDUNGEN
100
AcDbCircle
 62
7
  6
CONTINUOUS
 10
296.3756947546
 20
235.9327668304
 40
2.0
100
AcDbArc
 50
5.9999999997
 51
90.0
  0
ARC
  5
5A7
100
AcDbEntity
  8
RUNDUNGEN
100
AcDbCircle
 62
7
  6
CONTINUOUS
 10
205.8581706074
 20
247.9327668304
 40
1.0
100
AcDbArc
 50
0.0
 51
90.0
  0
ARC
  5
5A8
100
AcDbEntity
  8
0
100
AcDbCircle
 62
7
  6
CONTINUOUS
 10
337.3581706074
 20
204.9327668304
 40
10.0
100
AcDbArc
 50
58.0030733231
 51
90.0
  0
ARC
  5
5A9
100
AcDbEntity
  8
RUNDUNGEN
100
AcDbCircle
 62
7
  6
CONTINUOUS
 10
340.0666656495
 20
203.6827668304
 40
10.0
100
AcDbArc
 50
54.9999920562
 51
72.3684964932
  0
ARC
  5
5AA
100
AcDbEntity
  8
RUNDUNGEN
100
AcDbCircle
 62
7
  6
CONTINUOUS
 10
361.0111584962
 20
213.4327668304
 40
10.0
100
AcDbArc
 50
235.0
 51
270.000064657
  0
ARC
  5
5AB
100
AcDbEntity
  8
0
100
AcDbCircle
 62
7
  6
CONTINUOUS
 10
337.3581706074
 20
238.9327668304
 40
10.0
100
AcDbArc
 50
270.0
 51
301.9962188096
  0
ARC
  5
5AC
100
AcDbEntity
  8
BEZUGSACHSEN
100
AcDbCircle
 62
7
  6
CONTINUOUS
 10
361.0111584962
 20
230.4327668304
 40
10.0
100
AcDbArc
 50
89.999935343
 51
124.9995553527
  0
ARC
  5
5AD
100
AcDbEntity
  8
RUNDUNGEN
100
AcDbCircle
 62
7
  6
CONTINUOUS
 10
340.0666656495
 20
240.1827668304
 40
10.0
100
AcDbArc
 50
287.6315048634
 51
305.0000079438
  0
ARC
  5
5AE
100
AcDbEntity
  8
RUNDUNGEN
100
AcDbCircle
 62
7
  6
CONTINUOUS
 10
382.8581706074
 20
213.4327668304
 40
10.0
100
AcDbArc
 50
269.9999926488
 51
292.9999869717
  0
ARC
  5
5AF
100
AcDbEntity
  8
RUNDUNGEN
100
AcDbCircle
 62
7
  6
CONTINUOUS
 10
383.0882297352
 20
212.9327668304
 40
5.0
100
AcDbArc
 50
90.0
 51
146.3675733743
  0
ARC
  5
5B0
100
AcDbEntity
  8
BEZUGSACHSEN
100
AcDbCircle
 62
7
  6
CONTINUOUS
 10
369.5581706074
 20
221.9327668304
 40
11.25
100
AcDbArc
 50
33.6307667032
 51
257.2669924903
  0
ARC
  5
5B1
100
AcDbEntity
  8
RUNDUNGEN
100
AcDbCircle
 62
7
  6
CONTINUOUS
 10
369.5581706074
 20
221.9327668304
 40
11.25
100
AcDbArc
 50
247.7282608307
 51
251.4608892852
  0
ARC
  5
5B2
100
AcDbEntity
  8
RUNDUNGEN
100
AcDbCircle
 62
7
  6
CONTINUOUS
 10
369.5581706074
 20
221.9327668304
 40
11.25
100
AcDbArc
 50
257.2669924903
 51
326.3692332968
  0
ARC
  5
5B3
100
AcDbEntity
  8
RUNDUNGEN
100
AcDbCircle
 62
7
  6
CONTINUOUS
 10
393.8581706074
 20
215.9292690539
 40
8.0
100
AcDbArc
 50
293.0
 51
332.40943587
  0
ARC
  5
5B4
100
AcDbEntity
  8
RUNDUNGEN
100
AcDbCircle
 62
7
  6
CONTINUOUS
 10
400.0558612591
 20
212.6892704654
 40
1.0065060989
100
AcDbArc
 50
332.4709529225
 51
351.2434876953
  0
ARC
  5
5B5
100
AcDbEntity
  8
RUNDUNGEN
100
AcDbCircle
 62
7
  6
CONTINUOUS
 10
392.7684661206
 20
218.9327668304
 40
1.0
100
AcDbArc
 50
270.0
 51
359.9979837807
  0
ARC
  5
5B6
100
AcDbEntity
  8
BEZUGSACHSEN
100
AcDbCircle
 62
7
  6
CONTINUOUS
 10
392.7684661206
 20
224.9327668304
 40
1.0
100
AcDbArc
 50
0.0020162193
 51
90.0
  0
ARC
  5
5B7
100
AcDbEntity
  8
BEZUGSACHSEN
100
AcDbCircle
 62
7
  6
CONTINUOUS
 10
382.8581706074
 20
230.4327668304
 40
10.0
100
AcDbArc
 50
67.0000130283
 51
90.0000073512
  0
ARC
  5
5B8
100
AcDbEntity
  8
BEZUGSACHSEN
100
AcDbCircle
 62
7
  6
CONTINUOUS
 10
393.8581706074
 20
227.9362646069
 40
8.0
100
AcDbArc
 50
27.59056413
 51
67.0
  0
ARC
  5
5B9
100
AcDbEntity
  8
BEZUGSACHSEN
100
AcDbCircle
 62
7
  6
CONTINUOUS
 10
383.0882297352
 20
230.9327668304
 40
5.0
100
AcDbArc
 50
213.6324266257
 51
270.0
  0
ARC
  5
5BA
100
AcDbEntity
  8
BEZUGSACHSEN
100
AcDbCircle
 62
7
  6
CONTINUOUS
 10
400.0558612591
 20
231.1762631955
 40
1.0065060989
100
AcDbArc
 50
8.7565123047
 51
27.5290470774
  0
ARC
  5
5BB
100
AcDbEntity
  8
BEZUGSACHSEN
100
AcDbCircle
 62
7
  6
CONTINUOUS
 10
43.3581706074
 20
329.2474718682
 40
17.5
100
AcDbArc
 50
109.6065568221
 51
132.9343153669
  0
ARC
  5
5BC
100
AcDbEntity
  8
RUNDUNGEN
100
AcDbCircle
 62
7
  6
CONTINUOUS
 10
43.3581706074
 20
329.2474718682
 40
17.5
100
AcDbArc
 50
94.2890716667
 51
132.9343153669
  0
ARC
  5
5BD
100
AcDbEntity
  8
0
100
AcDbCircle
 62
7
  6
CONTINUOUS
 10
47.3581706074
 20
338.0061337488
 40
10.0
100
AcDbArc
 50
90.0
 51
117.0562284614
  0
ARC
  5
5BE
100
AcDbEntity
  8
RUNDUNGEN
100
AcDbCircle
 62
7
  6
CONTINUOUS
 10
47.3581706074
 20
338.0061337488
 40
10.0
100
AcDbArc
 50
90.0
 51
117.0562284614
  0
ARC
  5
5BF
100
AcDbEntity
  8
RUNDUNGEN
100
AcDbCircle
 62
7
  6
CONTINUOUS
 10
100.9765357039
 20
341.0061337488
 40
5.0
100
AcDbArc
 50
270.0
 51
290.0
  0
ARC
  5
5C0
100
AcDbEntity
  8
RUNDUNGEN
100
AcDbCircle
 62
7
  6
CONTINUOUS
 10
68.3581706074
 20
337.5061337488
 40
1.5
100
AcDbArc
 50
180.0
 51
270.0
  0
ARC
  5
5C1
100
AcDbEntity
  8
RUNDUNGEN
100
AcDbCircle
 62
7
  6
CONTINUOUS
 10
92.8581706074
 20
337.0061337488
 40
1.0
100
AcDbArc
 50
180.0
 51
270.0
  0
ARC
  5
5C2
100
AcDbEntity
  8
RUNDUNGEN
100
AcDbCircle
 62
7
  6
CONTINUOUS
 10
71.3581706074
 20
336.5061337488
 40
0.5
100
AcDbArc
 50
270.0
 51
360.0
  0
ARC
  5
5C3
100
AcDbEntity
  8
BEZUGSACHSEN
100
AcDbCircle
 62
7
  6
CONTINUOUS
 10
19.8581706074
 20
354.5061337488
 40
17.0
100
AcDbArc
 50
269.999988768
 51
312.9343061049
  0
ARC
  5
5C4
100
AcDbEntity
  8
RUNDUNGEN
100
AcDbCircle
 62
7
  6
CONTINUOUS
 10
19.8581706074
 20
354.5061337488
 40
17.0
100
AcDbArc
 50
283.9134330459
 51
284.9441207065
  0
ARC
  5
5C5
100
AcDbEntity
  8
RUNDUNGEN
100
AcDbCircle
 62
7
  6
CONTINUOUS
 10
19.8581706074
 20
354.5061337488
 40
17.0
100
AcDbArc
 50
269.999988768
 51
272.336978699
  0
ARC
  5
5C6
100
AcDbEntity
  8
BEZUGSACHSEN
100
AcDbCircle
 62
7
  6
CONTINUOUS
 10
40.3581706074
 20
346.9348089982
 40
16.0
100
AcDbArc
 50
89.9999566142
 51
129.8384155954
  0
ARC
  5
5C7
100
AcDbEntity
  8
RUNDUNGEN
100
AcDbCircle
 62
7
  6
CONTINUOUS
 10
40.3581706074
 20
346.9348089982
 40
16.0
100
AcDbArc
 50
89.9999566142
 51
124.3358660532
  0
ARC
  5
5C8
100
AcDbEntity
  8
0
100
AcDbCircle
 62
7
  6
CONTINUOUS
 10
47.4565279658
 20
349.7836038161
 40
11.760878348
100
AcDbArc
 50
89.999917556
 51
90.4791757081
  0
ARC
  5
5C9
100
AcDbEntity
  8
RUNDUNGEN
100
AcDbCircle
 62
7
  6
CONTINUOUS
 10
41.8997357319
 20
348.692860858
 40
2.0000004872
100
AcDbArc
 50
274.2907449336
 51
297.0577185945
  0
ARC
  5
5CA
100
AcDbEntity
  8
RUNDUNGEN
100
AcDbCircle
 62
7
  6
CONTINUOUS
 10
110.9822377693
 20
334.0061337488
 40
5.0
100
AcDbArc
 50
90.0
 51
110.0
  0
ARC
  5
5CB
100
AcDbEntity
  8
RUNDUNGEN
100
AcDbCircle
 62
7
  6
CONTINUOUS
 10
179.9299673772
 20
340.0061337488
 40
2.0
100
AcDbArc
 50
240.0
 51
270.0
  0
ARC
  5
5CC
100
AcDbEntity
  8
RUNDUNGEN
100
AcDbCircle
 62
7
  6
CONTINUOUS
 10
177.1261197999
 20
337.0061337488
 40
2.0
100
AcDbArc
 50
60.0
 51
90.0
  0
ARC
  5
5CD
100
AcDbEntity
  8
RUNDUNGEN
100
AcDbCircle
 62
7
  6
CONTINUOUS
 10
183.8581706074
 20
329.0061337488
 40
1.0
100
AcDbArc
 50
180.0
 51
270.0
  0
ARC
  5
5CE
100
AcDbEntity
  8
RUNDUNGEN
100
AcDbCircle
 62
7
  6
CONTINUOUS
 10
118.3581706074
 20
341.0061337488
 40
1.0
100
AcDbArc
 50
90.0
 51
180.0007113631
  0
ARC
  5
5CF
100
AcDbEntity
  8
RUNDUNGEN
100
AcDbCircle
 62
7
  6
CONTINUOUS
 10
166.3581706074
 20
341.0061337488
 40
1.0
100
AcDbArc
 50
359.9993195728
 51
90.0
  0
ARC
  5
5D0
100
AcDbEntity
  8
RUNDUNGEN
100
AcDbCircle
 62
7
  6
CONTINUOUS
 10
167.8581706074
 20
339.5061337488
 40
0.5
100
AcDbArc
 50
180.0
 51
270.0
  0
ARC
  5
5D1
100
AcDbEntity
  8
RUNDUNGEN
100
AcDbCircle
 62
7
  6
CONTINUOUS
 10
116.8581706074
 20
339.5061337488
 40
0.5
100
AcDbArc
 50
270.0
 51
360.0
  0
ARC
  5
5D2
100
AcDbEntity
  8
BEZUGSACHSEN
100
AcDbCircle
 62
7
  6
CONTINUOUS
 10
190.8581706074
 20
349.5061337488
 40
7.0
100
AcDbArc
 50
180.0
 51
270.0
  0
ARC
  5
5D3
100
AcDbEntity
  8
BEZUGSACHSEN
100
AcDbCircle
 62
7
  6
CONTINUOUS
 10
191.8581670197
 20
347.0061301611
 40
2.9999964123
100
AcDbArc
 50
180.0
 51
270.0
  0
ARC
  5
5D4
100
AcDbEntity
  8
RUNDUNGEN
100
AcDbCircle
 62
7
  6
CONTINUOUS
 10
10.8887406152
 20
362.5061337488
 40
25.0
100
AcDbArc
 50
236.6282270457
 51
238.479902665
  0
ARC
  5
5D5
100
AcDbEntity
  8
RUNDUNGEN
100
AcDbCircle
 62
7
  6
CONTINUOUS
 10
10.8887406152
 20
362.5061337488
 40
25.0
100
AcDbArc
 50
266.3795765588
 51
270.0002891983
  0
ARC
  5
5D6
100
AcDbEntity
  8
RUNDUNGEN
100
AcDbCircle
 62
7
  6
CONTINUOUS
 10
10.8887406152
 20
362.5061337488
 40
25.0
100
AcDbArc
 50
258.9407390035
 51
266.2597228919
  0
ARC
  5
5D7
100
AcDbEntity
  8
RUNDUNGEN
100
AcDbCircle
 62
7
  6
CONTINUOUS
 10
10.8887406152
 20
362.5061337488
 40
25.0
100
AcDbArc
 50
247.3488624832
 51
255.2646264796
  0
ARC
  5
5D8
100
AcDbEntity
  8
BEZUGSACHSEN
100
AcDbCircle
 62
7
  6
CONTINUOUS
 10
10.8887406152
 20
362.5061337488
 40
25.0
100
AcDbArc
 50
189.9999916836
 51
270.0002891983
  0
ARC
  5
5D9
100
AcDbEntity
  8
BEZUGSACHSEN
100
AcDbCircle
 62
7
  6
CONTINUOUS
 10
7.03246492
 20
366.5061337488
 40
11.0
100
AcDbArc
 50
209.0000110851
 51
270.0
  0
ARC
  5
5DA
100
AcDbEntity
  8
RUNDUNGEN
100
AcDbCircle
 62
7
  6
CONTINUOUS
 10
42.7293121832
 20
360.9348089982
 40
2.0
100
AcDbArc
 50
67.3091332603
 51
89.998260748
  0
ARC
  5
5DB
100
AcDbEntity
  8
BEZUGSACHSEN
100
AcDbCircle
 62
7
  6
CONTINUOUS
 10
19.8581706074
 20
371.5061337488
 40
16.0
100
AcDbArc
 50
269.9999686076
 51
309.8384530022
  0
ARC
  5
5DC
100
AcDbEntity
  8
0
100
AcDbCircle
 62
7
  6
CONTINUOUS
 10
47.3581706074
 20
372.0061337488
 40
10.0
100
AcDbArc
 50
247.3107377988
 51
270.0
  0
ARC
  5
5DD
100
AcDbEntity
  8
RUNDUNGEN
100
AcDbCircle
 62
7
  6
CONTINUOUS
 10
47.3581706074
 20
372.0061337488
 40
10.0
100
AcDbArc
 50
247.3107377988
 51
270.0
  0
ARC
  5
5DE
100
AcDbEntity
  8
RUNDUNGEN
100
AcDbCircle
 62
7
  6
CONTINUOUS
 10
68.3581706074
 20
372.5061337488
 40
1.5
100
AcDbArc
 50
90.0
 51
180.0
  0
ARC
  5
5DF
100
AcDbEntity
  8
RUNDUNGEN
100
AcDbCircle
 62
7
  6
CONTINUOUS
 10
-15.543455054
 20
374.200072905
 40
1.0
100
AcDbArc
 50
118.9999938503
 51
189.9999811109
  0
ARC
  5
5E0
100
AcDbEntity
  8
BEZUGSACHSEN
100
AcDbCircle
 62
7
  6
CONTINUOUS
 10
-15.543455054
 20
374.200072905
 40
1.0
100
AcDbArc
 50
118.9999938503
 51
189.9999811109
  0
ARC
  5
5E1
100
AcDbEntity
  8
BEZUGSACHSEN
100
AcDbCircle
 62
7
  6
CONTINUOUS
 10
-12.0316394795
 20
376.1467044214
 40
1.0
100
AcDbArc
 50
29.0
 51
119.0
  0
ARC
  5
5E2
100
AcDbEntity
  8
RUNDUNGEN
100
AcDbCircle
 62
7
  6
CONTINUOUS
 10
71.3581706074
 20
373.5061337488
 40
0.5
100
AcDbArc
 50
0.0
 51
90.0
  0
ARC
  5
5E3
100
AcDbEntity
  8
BEZUGSACHSEN
100
AcDbCircle
 62
7
  6
CONTINUOUS
 10
190.8581714092
 20
360.506132983
 40
7.0000007658
100
AcDbArc
 50
90.0000065623
 51
179.999993732
  0
ARC
  5
5E4
100
AcDbEntity
  8
RUNDUNGEN
100
AcDbCircle
 62
7
  6
CONTINUOUS
 10
190.8581706074
 20
360.5061337488
 40
7.0
100
AcDbArc
 50
97.9642414035
 51
180.0001848971
  0
ARC
  5
5E5
100
AcDbEntity
  8
BEZUGSACHSEN
100
AcDbCircle
 62
7
  6
CONTINUOUS
 10
191.8581706074
 20
363.0061337488
 40
3.0
100
AcDbArc
 50
90.0
 51
180.0
  0
ARC
  5
5E6
100
AcDbEntity
  8
RUNDUNGEN
100
AcDbCircle
 62
7
  6
CONTINUOUS
 10
106.9257215703
 20
368.4449352857
 40
2.0032546659
100
AcDbArc
 50
67.8127775718
 51
69.3438873693
  0
ARC
  5
5E7
100
AcDbEntity
  8
RUNDUNGEN
100
AcDbCircle
 62
7
  6
CONTINUOUS
 10
179.9298572667
 20
366.4595936097
 40
1.9996464679
100
AcDbArc
 50
104.6837912825
 51
135.5073091714
  0
ARC
  5
5E8
100
AcDbEntity
  8
RUNDUNGEN
100
AcDbCircle
 62
7
  6
CONTINUOUS
 10
106.9269650329
 20
368.4484313689
 40
1.999565902
100
AcDbArc
 50
39.7040990631
 51
69.3429101521
  0
ARC
  5
5E9
100
AcDbEntity
  8
RUNDUNGEN
100
AcDbCircle
 62
7
  6
CONTINUOUS
 10
183.8581706074
 20
381.0061337488
 40
1.0
100
AcDbArc
 50
90.0
 51
180.0
  0
ARC
  5
5EA
100
AcDbEntity
  8
RUNDUNGEN
100
AcDbCircle
 62
7
  6
CONTINUOUS
 10
92.8581706074
 20
373.0061337488
 40
1.0
100
AcDbArc
 50
90.0
 51
180.0
  0
ARC
  5
5EB
100
AcDbEntity
  8
RUNDUNGEN
100
AcDbCircle
 62
7
  6
CONTINUOUS
 10
209.7863738377
 20
340.0061337488
 40
2.0
100
AcDbArc
 50
270.0
 51
300.0
  0
ARC
  5
5EC
100
AcDbEntity
  8
RUNDUNGEN
100
AcDbCircle
 62
7
  6
CONTINUOUS
 10
212.590221415
 20
337.0061337488
 40
2.0
100
AcDbArc
 50
90.0
 51
120.0
  0
ARC
  5
5ED
100
AcDbEntity
  8
RUNDUNGEN
100
AcDbCircle
 62
7
  6
CONTINUOUS
 10
205.8581706074
 20
329.0061337488
 40
1.0
100
AcDbArc
 50
270.0
 51
360.0
  0
ARC
  5
5EE
100
AcDbEntity
  8
RUNDUNGEN
100
AcDbCircle
 62
7
  6
CONTINUOUS
 10
231.3581706074
 20
341.0061337488
 40
1.0
100
AcDbArc
 50
90.0
 51
180.0006098202
  0
ARC
  5
5EF
100
AcDbEntity
  8
RUNDUNGEN
100
AcDbCircle
 62
7
  6
CONTINUOUS
 10
271.3581706074
 20
341.0061337488
 40
1.0
100
AcDbArc
 50
359.999382517
 51
90.0
  0
ARC
  5
5F0
100
AcDbEntity
  8
RUNDUNGEN
100
AcDbCircle
 62
7
  6
CONTINUOUS
 10
272.8581706074
 20
339.5061337488
 40
0.5
100
AcDbArc
 50
180.0
 51
270.0
  0
ARC
  5
5F1
100
AcDbEntity
  8
RUNDUNGEN
100
AcDbCircle
 62
7
  6
CONTINUOUS
 10
229.8581706074
 20
339.5061337488
 40
0.5
100
AcDbArc
 50
270.0
 51
360.0
  0
ARC
  5
5F2
100
AcDbEntity
  8
RUNDUNGEN
100
AcDbCircle
 62
7
  6
CONTINUOUS
 10
198.8581706074
 20
349.5061337488
 40
7.0
100
AcDbArc
 50
270.0
 51
360.0
  0
ARC
  5
5F3
100
AcDbEntity
  8
RUNDUNGEN
100
AcDbCircle
 62
7
  6
CONTINUOUS
 10
197.8581741951
 20
347.0061301611
 40
2.9999964123
100
AcDbArc
 50
270.0
 51
360.0
  0
ARC
  5
5F4
100
AcDbEntity
  8
RUNDUNGEN
100
AcDbCircle
 62
7
  6
CONTINUOUS
 10
341.3581706074
 20
329.2474718682
 40
17.5
100
AcDbArc
 50
47.0656846331
 51
85.7109283333
  0
ARC
  5
5F5
100
AcDbEntity
  8
BEZUGSACHSEN
100
AcDbCircle
 62
7
  6
CONTINUOUS
 10
341.3581706074
 20
329.2474718682
 40
17.5
100
AcDbArc
 50
47.0656846331
 51
70.3934431779
  0
ARC
  5
5F6
100
AcDbEntity
  8
0
100
AcDbCircle
 62
7
  6
CONTINUOUS
 10
337.3581706074
 20
338.0061337488
 40
10.0
100
AcDbArc
 50
62.9437715386
 51
90.0
  0
ARC
  5
5F7
100
AcDbEntity
  8
RUNDUNGEN
100
AcDbCircle
 62
7
  6
CONTINUOUS
 10
337.3581706074
 20
338.0061337488
 40
10.0
100
AcDbArc
 50
62.9437715386
 51
90.0
  0
ARC
  5
5F8
100
AcDbEntity
  8
RUNDUNGEN
100
AcDbCircle
 62
7
  6
CONTINUOUS
 10
296.3756947546
 20
341.0061337488
 40
2.0
100
AcDbArc
 50
270.0
 51
354.0
  0
ARC
  5
5F9
100
AcDbEntity
  8
BEZUGSACHSEN
100
AcDbCircle
 62
7
  6
CONTINUOUS
 10
364.8581706074
 20
354.5061337488
 40
17.0
100
AcDbArc
 50
267.663021301
 51
270.000011232
  0
ARC
  5
5FA
100
AcDbEntity
  8
BEZUGSACHSEN
100
AcDbCircle
 62
7
  6
CONTINUOUS
 10
364.8581706074
 20
354.5061337488
 40
17.0
100
AcDbArc
 50
255.0558792935
 51
256.0865669541
  0
ARC
  5
5FB
100
AcDbEntity
  8
RUNDUNGEN
100
AcDbCircle
 62
7
  6
CONTINUOUS
 10
364.8581706074
 20
354.5061337488
 40
17.0
100
AcDbArc
 50
227.0656938951
 51
270.000011232
  0
ARC
  5
5FC
100
AcDbEntity
  8
BEZUGSACHSEN
100
AcDbCircle
 62
7
  6
CONTINUOUS
 10
344.3581706074
 20
346.9348089982
 40
16.0
100
AcDbArc
 50
66.2386336216
 51
90.0000433858
  0
ARC
  5
5FD
100
AcDbEntity
  8
BEZUGSACHSEN
100
AcDbCircle
 62
7
  6
CONTINUOUS
 10
344.3581706074
 20
346.9348089982
 40
16.0
100
AcDbArc
 50
52.4745248117
 51
53.0054389207
  0
ARC
  5
5FE
100
AcDbEntity
  8
RUNDUNGEN
100
AcDbCircle
 62
7
  6
CONTINUOUS
 10
344.3581706074
 20
346.9348089982
 40
16.0
100
AcDbArc
 50
50.1615730482
 51
90.0000433858
  0
ARC
  5
5FF
100
AcDbEntity
  8
RUNDUNGEN
100
AcDbCircle
 62
7
  6
CONTINUOUS
 10
342.8166058888
 20
348.6928608593
 40
2.0000004904
100
AcDbArc
 50
242.9422710719
 51
265.7092434769
  0
ARC
  5
600
100
AcDbEntity
  8
RUNDUNGEN
100
AcDbCircle
 62
7
  6
CONTINUOUS
 10
198.8581706074
 20
360.5061337488
 40
7.0
100
AcDbArc
 50
359.9992796733
 51
89.9999934377
  0
ARC
  5
601
100
AcDbEntity
  8
RUNDUNGEN
100
AcDbCircle
 62
7
  6
CONTINUOUS
 10
197.8581706074
 20
363.0061337488
 40
3.0
100
AcDbArc
 50
0.0
 51
90.0
  0
ARC
  5
602
100
AcDbEntity
  8
RUNDUNGEN
100
AcDbCircle
 62
7
  6
CONTINUOUS
 10
283.8581706074
 20
369.0061337488
 40
2.0
100
AcDbArc
 50
90.0
 51
175.2245540773
  0
ARC
  5
603
100
AcDbEntity
  8
RUNDUNGEN
100
AcDbCircle
 62
7
  6
CONTINUOUS
 10
296.3756947546
 20
369.0061337488
 40
2.0
100
AcDbArc
 50
5.9999999999
 51
90.0
  0
ARC
  5
604
100
AcDbEntity
  8
RUNDUNGEN
100
AcDbCircle
 62
7
  6
CONTINUOUS
 10
209.7865127651
 20
366.4596462351
 40
1.9995868096
100
AcDbArc
 50
44.4925915529
 51
75.3161711406
  0
ARC
  5
605
100
AcDbEntity
  8
RUNDUNGEN
100
AcDbCircle
 62
7
  6
CONTINUOUS
 10
205.8581706074
 20
381.0061337488
 40
1.0
100
AcDbArc
 50
0.0
 51
90.0
  0
ARC
  5
606
100
AcDbEntity
  8
RUNDUNGEN
100
AcDbCircle
 62
7
  6
CONTINUOUS
 10
373.8276005997
 20
362.5061337488
 40
25.0
100
AcDbArc
 50
270.0
 51
350.0000083164
  0
ARC
  5
607
100
AcDbEntity
  8
BEZUGSACHSEN
100
AcDbCircle
 62
7
  6
CONTINUOUS
 10
373.8276005997
 20
362.5061337488
 40
25.0
100
AcDbArc
 50
277.3676867603
 51
277.41715734
  0
ARC
  5
608
100
AcDbEntity
  8
BEZUGSACHSEN
100
AcDbCircle
 62
7
  6
CONTINUOUS
 10
373.8276005997
 20
362.5061337488
 40
25.0
100
AcDbArc
 50
269.9997108017
 51
273.6838433801
  0
ARC
  5
609
100
AcDbEntity
  8
BEZUGSACHSEN
100
AcDbCircle
 62
7
  6
CONTINUOUS
 10
373.8276005997
 20
362.5061337488
 40
25.0
100
AcDbArc
 50
288.4297772792
 51
292.6511375168
  0
ARC
  5
60A
100
AcDbEntity
  8
RUNDUNGEN
100
AcDbCircle
 62
7
  6
CONTINUOUS
 10
377.6838762948
 20
366.5061337488
 40
11.0
100
AcDbArc
 50
270.0
 51
330.9999889149
  0
ARC
  5
60B
100
AcDbEntity
  8
RUNDUNGEN
100
AcDbCircle
 62
7
  6
CONTINUOUS
 10
341.9870293084
 20
360.9348089982
 40
2.0
100
AcDbArc
 50
90.0017471813
 51
112.6908740544
  0
ARC
  5
60C
100
AcDbEntity
  8
RUNDUNGEN
100
AcDbCircle
 62
7
  6
CONTINUOUS
 10
364.8581706074
 20
371.5061337488
 40
16.0
100
AcDbArc
 50
230.1615469978
 51
270.0000313924
  0
ARC
  5
60D
100
AcDbEntity
  8
0
100
AcDbCircle
 62
7
  6
CONTINUOUS
 10
337.3581706074
 20
372.0061337488
 40
10.0
100
AcDbArc
 50
270.0
 51
292.6892622012
  0
ARC
  5
60E
100
AcDbEntity
  8
RUNDUNGEN
100
AcDbCircle
 62
7
  6
CONTINUOUS
 10
337.3581706074
 20
372.0061337488
 40
10.0
100
AcDbArc
 50
270.0
 51
292.6892622012
  0
ARC
  5
60F
100
AcDbEntity
  8
BEZUGSACHSEN
100
AcDbCircle
 62
7
  6
CONTINUOUS
 10
400.2597962689
 20
374.200072905
 40
1.0
100
AcDbArc
 50
350.0000188891
 51
61.0000061497
  0
ARC
  5
610
100
AcDbEntity
  8
RUNDUNGEN
100
AcDbCircle
 62
7
  6
CONTINUOUS
 10
400.2597962689
 20
374.200072905
 40
1.0
100
AcDbArc
 50
350.0000188891
 51
61.0000061497
  0
ARC
  5
611
100
AcDbEntity
  8
RUNDUNGEN
100
AcDbCircle
 62
7
  6
CONTINUOUS
 10
396.7479806943
 20
376.1467044214
 40
1.0
100
AcDbArc
 50
61.0
 51
151.0
  0
ARC
  5
612
100
AcDbEntity
  8
BEZUGSACHSEN
100
AcDbCircle
 62
7
  6
CONTINUOUS
 10
454.0635132664
 20
149.3083759928
 40
20.0
100
AcDbArc
 50
359.9999531378
 51
3.5762872094
  0
ARC
  5
613
100
AcDbEntity
  8
BEZUGSACHSEN
100
AcDbCircle
 62
7
  6
CONTINUOUS
 10
484.0635132664
 20
85.4327668304
 40
10.0
100
AcDbArc
 50
180.0
 51
270.0
  0
ARC
  5
614
100
AcDbEntity
  8
RUNDUNGEN
100
AcDbCircle
 62
7
  6
CONTINUOUS
 10
484.0635132664
 20
85.4327668304
 40
10.0
100
AcDbArc
 50
180.0
 51
266.2499999961
  0
ARC
  5
615
100
AcDbEntity
  8
BEZUGSACHSEN
100
AcDbCircle
 62
7
  6
CONTINUOUS
 10
477.5635132664
 20
174.5571576681
 40
20.0
100
AcDbArc
 50
356.423665625
 51
360.0
  0
ARC
  5
616
100
AcDbEntity
  8
RUNDUNGEN
100
AcDbCircle
 62
7
  6
CONTINUOUS
 10
465.5421436645
 20
196.4407004929
 40
7.0933462734
100
AcDbArc
 50
351.830869215
 51
357.9681815981
  0
ARC
  5
617
100
AcDbEntity
  8
RUNDUNGEN
100
AcDbCircle
 62
7
  6
CONTINUOUS
 10
469.5910979424
 20
196.1798373099
 40
3.0434519837
100
AcDbArc
 50
4.7977158873
 51
58.9992089389
  0
ARC
  5
618
100
AcDbEntity
  8
RUNDUNGEN
100
AcDbCircle
 62
7
  6
CONTINUOUS
 10
470.5451409813
 20
196.2604420986
 40
2.0871052453
100
AcDbArc
 50
358.0441242586
 51
4.736096887
  0
ARC
  5
619
100
AcDbEntity
  8
RUNDUNGEN
100
AcDbCircle
 62
7
  6
CONTINUOUS
 10
468.5635132664
 20
239.4327668304
 40
1.0
100
AcDbArc
 50
90.0
 51
180.0
  0
ARC
  5
61A
100
AcDbEntity
  8
BEZUGSACHSEN
100
AcDbCircle
 62
7
  6
CONTINUOUS
 10
468.5635132664
 20
204.4327668304
 40
1.0
100
AcDbArc
 50
180.0
 51
270.0
  0
ARC
  5
61B
100
AcDbEntity
  8
BEZUGSACHSEN
100
AcDbCircle
 62
7
  6
CONTINUOUS
 10
516.0635132664
 20
149.3083759928
 40
20.0
100
AcDbArc
 50
176.423665625
 51
180.0
  0
ARC
  5
61C
100
AcDbEntity
  8
BEZUGSACHSEN
100
AcDbCircle
 62
7
  6
CONTINUOUS
 10
486.0635132664
 20
85.4327668304
 40
10.0
100
AcDbArc
 50
270.0
 51
360.0
  0
ARC
  5
61D
100
AcDbEntity
  8
BEZUGSACHSEN
100
AcDbCircle
 62
7
  6
CONTINUOUS
 10
492.5635132664
 20
174.5571576681
 40
20.0
100
AcDbArc
 50
180.0
 51
183.5763276826
  0
ARC
  5
61E
100
AcDbEntity
  8
RUNDUNGEN
100
AcDbCircle
 62
7
  6
CONTINUOUS
 10
485.0635132664
 20
221.9327668304
 40
27.0
100
AcDbArc
 50
294.9218141801
 51
245.0781858844
  0
ARC
  5
61F
100
AcDbEntity
  8
RUNDUNGEN
100
AcDbCircle
 62
7
  6
CONTINUOUS
 10
485.0635132664
 20
221.9327668304
 40
19.0
100
AcDbArc
 50
57.2213937501
 51
102.9136436821
  0
ARC
  5
620
100
AcDbEntity
  8
RUNDUNGEN
100
AcDbCircle
 62
7
  6
CONTINUOUS
 10
485.0635132664
 20
221.9327668304
 40
19.0
100
AcDbArc
 50
256.9538734445
 51
302.7959300306
  0
ARC
  5
621
100
AcDbEntity
  8
RUNDUNGEN
100
AcDbCircle
 62
7
  6
CONTINUOUS
 10
485.0635132664
 20
221.9327668304
 40
19.0
100
AcDbArc
 50
153.8855480183
 51
206.1144519941
  0
ARC
  5
622
100
AcDbEntity
  8
BEZUGSACHSEN
100
AcDbCircle
 62
7
  6
CONTINUOUS
 10
485.0635132664
 20
221.9327668304
 40
8.0
100
AcDbArc
 50
352.8661321603
 51
6.9643847676
  0
ARC
  5
623
100
AcDbEntity
  8
RUNDUNGEN
100
AcDbCircle
 62
7
  6
CONTINUOUS
 10
504.6574584589
 20
196.4471783384
 40
7.1661069697
100
AcDbArc
 50
182.0630441453
 51
188.1379442949
  0
ARC
  5
624
100
AcDbEntity
  8
RUNDUNGEN
100
AcDbCircle
 62
7
  6
CONTINUOUS
 10
500.5359143867
 20
196.1798678341
 40
3.0434192107
100
AcDbArc
 50
121.0007021492
 51
175.2022406407
  0
ARC
  5
625
100
AcDbEntity
  8
RUNDUNGEN
100
AcDbCircle
 62
7
  6
CONTINUOUS
 10
499.558759337
 20
196.2610066832
 40
2.0640122154
100
AcDbArc
 50
175.2265178903
 51
181.9935835404
  0
ARC
  5
626
100
AcDbEntity
  8
BEZUGSACHSEN
100
AcDbCircle
 62
7
  6
CONTINUOUS
 10
502.376682636
 20
208.651183455
 40
1.0003274551
100
AcDbArc
 50
283.2427599157
 51
310.7500118845
  0
ARC
  5
627
100
AcDbEntity
  8
RUNDUNGEN
100
AcDbCircle
 62
7
  6
CONTINUOUS
 10
502.376682636
 20
235.2143502059
 40
1.0003274551
100
AcDbArc
 50
49.2499881156
 51
76.7572400843
  0
ARC
  5
628
100
AcDbEntity
  8
RUNDUNGEN
100
AcDbCircle
 62
7
  6
CONTINUOUS
 10
495.5635132664
 20
224.9327668304
 40
1.0
100
AcDbArc
 50
0.0044263732
 51
90.0
  0
ARC
  5
629
100
AcDbEntity
  8
BEZUGSACHSEN
100
AcDbCircle
 62
7
  6
CONTINUOUS
 10
495.5635132664
 20
218.9327668304
 40
1.0
100
AcDbArc
 50
270.0061547425
 51
359.9955736268
  0
ARC
  5
62A
100
AcDbEntity
  8
RUNDUNGEN
100
AcDbCircle
 62
7
  6
CONTINUOUS
 10
753.9101438178
 20
147.8715614534
 40
20.0
100
AcDbArc
 50
0.0000001436
 51
11.7682908656
  0
ARC
  5
62B
100
AcDbEntity
  8
RUNDUNGEN
100
AcDbCircle
 62
7
  6
CONTINUOUS
 10
776.9101438178
 20
78.4327668304
 40
3.0
100
AcDbArc
 50
180.0
 51
270.0
  0
ARC
  5
62C
100
AcDbEntity
  8
0
100
AcDbCircle
 62
7
  6
CONTINUOUS
 10
637.4101438178
 20
204.9327668304
 40
10.0
100
AcDbArc
 50
90.0
 51
121.9969266769
  0
ARC
  5
62D
100
AcDbEntity
  8
RUNDUNGEN
100
AcDbCircle
 62
7
  6
CONTINUOUS
 10
634.7016487757
 20
203.6827668304
 40
10.0
100
AcDbArc
 50
107.6315035068
 51
125.0000366771
  0
ARC
  5
62E
100
AcDbEntity
  8
BEZUGSACHSEN
100
AcDbCircle
 62
7
  6
CONTINUOUS
 10
605.2101438178
 20
221.9327668304
 40
11.25
100
AcDbArc
 50
292.5614122803
 51
146.3688395292
  0
ARC
  5
62F
100
AcDbEntity
  8
RUNDUNGEN
100
AcDbCircle
 62
7
  6
CONTINUOUS
 10
605.2101438178
 20
221.9327668304
 40
11.25
100
AcDbArc
 50
213.6311604708
 51
292.5614122803
  0
ARC
  5
630
100
AcDbEntity
  8
0
100
AcDbCircle
 62
7
  6
CONTINUOUS
 10
637.4101438178
 20
238.9327668304
 40
10.0
100
AcDbArc
 50
238.0037811904
 51
270.0
  0
ARC
  5
631
100
AcDbEntity
  8
RUNDUNGEN
100
AcDbCircle
 62
7
  6
CONTINUOUS
 10
591.9101438178
 20
213.4327668304
 40
10.0
100
AcDbArc
 50
247.0000156006
 51
270.0
  0
ARC
  5
632
100
AcDbEntity
  8
BEZUGSACHSEN
100
AcDbCircle
 62
7
  6
CONTINUOUS
 10
613.757155929
 20
230.4327668304
 40
10.0
100
AcDbArc
 50
55.0
 51
89.9999738589
  0
ARC
  5
633
100
AcDbEntity
  8
RUNDUNGEN
100
AcDbCircle
 62
7
  6
CONTINUOUS
 10
634.7016487757
 20
240.1827668304
 40
10.0
100
AcDbArc
 50
234.9999633229
 51
252.3684951366
  0
ARC
  5
634
100
AcDbEntity
  8
RUNDUNGEN
100
AcDbCircle
 62
7
  6
CONTINUOUS
 10
613.757155929
 20
213.4327668304
 40
10.0
100
AcDbArc
 50
270.0000261411
 51
305.0
  0
ARC
  5
635
100
AcDbEntity
  8
BEZUGSACHSEN
100
AcDbCircle
 62
7
  6
CONTINUOUS
 10
591.9101438178
 20
230.4327668304
 40
10.0
100
AcDbArc
 50
90.0
 51
112.9999843994
  0
ARC
  5
636
100
AcDbEntity
  8
RUNDUNGEN
100
AcDbCircle
 62
7
  6
CONTINUOUS
 10
580.9101438178
 20
215.9292690539
 40
8.0
100
AcDbArc
 50
207.59056413
 51
247.0000023869
  0
ARC
  5
637
100
AcDbEntity
  8
BEZUGSACHSEN
100
AcDbCircle
 62
7
  6
CONTINUOUS
 10
580.9101438178
 20
227.9362646069
 40
8.0
100
AcDbArc
 50
112.9999976131
 51
152.40943587
  0
ARC
  5
638
100
AcDbEntity
  8
RUNDUNGEN
100
AcDbCircle
 62
7
  6
CONTINUOUS
 10
591.6800846901
 20
212.9327668304
 40
5.0
100
AcDbArc
 50
33.6324266257
 51
90.0
  0
ARC
  5
639
100
AcDbEntity
  8
BEZUGSACHSEN
100
AcDbCircle
 62
7
  6
CONTINUOUS
 10
591.6800846901
 20
230.9327668304
 40
5.0
100
AcDbArc
 50
270.0
 51
326.3684593536
  0
ARC
  5
63A
100
AcDbEntity
  8
BEZUGSACHSEN
100
AcDbCircle
 62
7
  6
CONTINUOUS
 10
574.7124531661
 20
231.1762631955
 40
1.0065060989
100
AcDbArc
 50
152.4709529225
 51
171.2434876953
  0
ARC
  5
63B
100
AcDbEntity
  8
RUNDUNGEN
100
AcDbCircle
 62
7
  6
CONTINUOUS
 10
574.7124531661
 20
212.6892704654
 40
1.0065060989
100
AcDbArc
 50
188.7565123047
 51
207.5290470775
  0
ARC
  5
63C
100
AcDbEntity
  8
BEZUGSACHSEN
100
AcDbCircle
 62
7
  6
CONTINUOUS
 10
581.9998483047
 20
224.9327668304
 40
1.0
100
AcDbArc
 50
90.0
 51
180.0
  0
ARC
  5
63D
100
AcDbEntity
  8
RUNDUNGEN
100
AcDbCircle
 62
7
  6
CONTINUOUS
 10
581.9998483047
 20
218.9327668304
 40
1.0
100
AcDbArc
 50
180.0
 51
270.0
  0
ARC
  5
63E
100
AcDbEntity
  8
BEZUGSACHSEN
100
AcDbCircle
 62
7
  6
CONTINUOUS
 10
770.9101438178
 20
175.9939722075
 40
20.0
100
AcDbArc
 50
348.231711068
 51
360.0
  0
ARC
  5
63F
100
AcDbEntity
  8
RUNDUNGEN
100
AcDbCircle
 62
7
  6
CONTINUOUS
 10
765.9101438178
 20
193.2870155194
 40
3.0
100
AcDbArc
 50
0.0
 51
41.4096221093
  0
ARC
  5
640
100
AcDbEntity
  8
RUNDUNGEN
100
AcDbCircle
 62
7
  6
CONTINUOUS
 10
764.9819405876
 20
206.9327668304
 40
2.0
100
AcDbArc
 50
240.0
 51
270.0
  0
ARC
  5
641
100
AcDbEntity
  8
RUNDUNGEN
100
AcDbCircle
 62
7
  6
CONTINUOUS
 10
762.1780930103
 20
203.9327668304
 40
2.0
100
AcDbArc
 50
60.0
 51
90.0
  0
ARC
  5
642
100
AcDbEntity
  8
RUNDUNGEN
100
AcDbCircle
 62
7
  6
CONTINUOUS
 10
678.3926196707
 20
207.9327668304
 40
2.0
100
AcDbArc
 50
185.9999999997
 51
270.0
  0
ARC
  5
643
100
AcDbEntity
  8
RUNDUNGEN
100
AcDbCircle
 62
7
  6
CONTINUOUS
 10
775.9101438178
 20
196.4327668304
 40
1.0
100
AcDbArc
 50
180.0
 51
270.0
  0
ARC
  5
644
100
AcDbEntity
  8
RUNDUNGEN
100
AcDbCircle
 62
7
  6
CONTINUOUS
 10
768.9101438178
 20
195.9327668304
 40
1.0
100
AcDbArc
 50
180.0
 51
221.4096221093
  0
ARC
  5
645
100
AcDbEntity
  8
RUNDUNGEN
100
AcDbCircle
 62
7
  6
CONTINUOUS
 10
764.9819405876
 20
236.9327668304
 40
2.0
100
AcDbArc
 50
90.0
 51
120.0
  0
ARC
  5
646
100
AcDbEntity
  8
RUNDUNGEN
100
AcDbCircle
 62
7
  6
CONTINUOUS
 10
762.1780930103
 20
239.9327668304
 40
2.0
100
AcDbArc
 50
270.0
 51
300.0
  0
ARC
  5
647
100
AcDbEntity
  8
RUNDUNGEN
100
AcDbCircle
 62
7
  6
CONTINUOUS
 10
678.3926196707
 20
235.9327668304
 40
2.0
100
AcDbArc
 50
90.0
 51
174.0000000003
  0
ARC
  5
648
100
AcDbEntity
  8
RUNDUNGEN
100
AcDbCircle
 62
7
  6
CONTINUOUS
 10
768.9101438178
 20
247.9327668304
 40
1.0
100
AcDbArc
 50
90.0
 51
180.0
  0
ARC
  5
649
100
AcDbEntity
  8
BEZUGSACHSEN
100
AcDbCircle
 62
7
  6
CONTINUOUS
 10
805.9101438178
 20
147.8715614534
 40
20.0
100
AcDbArc
 50
168.2317091344
 51
179.9999998564
  0
ARC
  5
64A
100
AcDbEntity
  8
BEZUGSACHSEN
100
AcDbCircle
 62
7
  6
CONTINUOUS
 10
782.9101438178
 20
78.4327668304
 40
3.0
100
AcDbArc
 50
270.0
 51
360.0
  0
ARC
  5
64B
100
AcDbEntity
  8
RUNDUNGEN
100
AcDbCircle
 62
7
  6
CONTINUOUS
 10
788.9101438178
 20
175.9939722075
 40
20.0
100
AcDbArc
 50
179.9999832586
 51
191.768288932
  0
ARC
  5
64C
100
AcDbEntity
  8
RUNDUNGEN
100
AcDbCircle
 62
7
  6
CONTINUOUS
 10
793.9101438178
 20
193.2870155194
 40
3.0
100
AcDbArc
 50
138.5903778907
 51
180.0
  0
ARC
  5
64D
100
AcDbEntity
  8
RUNDUNGEN
100
AcDbCircle
 62
7
  6
CONTINUOUS
 10
794.8383470481
 20
206.9327668304
 40
2.0
100
AcDbArc
 50
270.0
 51
300.0
  0
ARC
  5
64E
100
AcDbEntity
  8
RUNDUNGEN
100
AcDbCircle
 62
7
  6
CONTINUOUS
 10
797.6421946254
 20
203.9327668304
 40
2.0
100
AcDbArc
 50
90.0
 51
120.0
  0
ARC
  5
64F
100
AcDbEntity
  8
RUNDUNGEN
100
AcDbCircle
 62
7
  6
CONTINUOUS
 10
790.9101438178
 20
195.9327668304
 40
1.0
100
AcDbArc
 50
318.5903778907
 51
360.0
  0
ARC
  5
650
100
AcDbEntity
  8
RUNDUNGEN
100
AcDbCircle
 62
7
  6
CONTINUOUS
 10
783.9101438178
 20
196.4327668304
 40
1.0
100
AcDbArc
 50
270.0
 51
360.0
  0
ARC
  5
651
100
AcDbEntity
  8
RUNDUNGEN
100
AcDbCircle
 62
7
  6
CONTINUOUS
 10
873.7917787214
 20
207.9327668304
 40
5.0
100
AcDbArc
 50
250.0
 51
270.0
  0
ARC
  5
652
100
AcDbEntity
  8
RUNDUNGEN
100
AcDbCircle
 62
7
  6
CONTINUOUS
 10
863.7860766559
 20
200.9327668304
 40
5.0
100
AcDbArc
 50
70.0
 51
90.0
  0
ARC
  5
653
100
AcDbEntity
  8
RUNDUNGEN
100
AcDbCircle
 62
7
  6
CONTINUOUS
 10
881.9101438178
 20
203.9327668304
 40
1.0
100
AcDbArc
 50
270.0
 51
360.0
  0
ARC
  5
654
100
AcDbEntity
  8
RUNDUNGEN
100
AcDbCircle
 62
7
  6
CONTINUOUS
 10
873.7917787214
 20
235.9327668304
 40
5.0
100
AcDbArc
 50
90.0
 51
110.0
  0
ARC
  5
655
100
AcDbEntity
  8
RUNDUNGEN
100
AcDbCircle
 62
7
  6
CONTINUOUS
 10
863.7860766559
 20
242.9327668304
 40
5.0
100
AcDbArc
 50
270.0
 51
290.0
  0
ARC
  5
656
100
AcDbEntity
  8
RUNDUNGEN
100
AcDbCircle
 62
7
  6
CONTINUOUS
 10
794.8383470481
 20
236.9327668304
 40
2.0
100
AcDbArc
 50
60.0
 51
90.0
  0
ARC
  5
657
100
AcDbEntity
  8
RUNDUNGEN
100
AcDbCircle
 62
7
  6
CONTINUOUS
 10
797.6421946254
 20
239.9327668304
 40
2.0
100
AcDbArc
 50
240.0
 51
270.0
  0
ARC
  5
658
100
AcDbEntity
  8
RUNDUNGEN
100
AcDbCircle
 62
7
  6
CONTINUOUS
 10
790.9101438178
 20
247.9327668304
 40
1.0
100
AcDbArc
 50
0.0
 51
90.0
  0
ARC
  5
659
100
AcDbEntity
  8
RUNDUNGEN
100
AcDbCircle
 62
7
  6
CONTINUOUS
 10
881.9101438178
 20
239.9327668304
 40
1.0
100
AcDbArc
 50
0.0
 51
90.0
  0
ARC
  5
65A
100
AcDbEntity
  8
0
100
AcDbCircle
 62
7
  6
CONTINUOUS
 10
927.4101438178
 20
204.9327668304
 40
10.0
100
AcDbArc
 50
58.0036701278
 51
90.0
  0
ARC
  5
65B
100
AcDbEntity
  8
RUNDUNGEN
100
AcDbCircle
 62
7
  6
CONTINUOUS
 10
930.1186388599
 20
203.6827668304
 40
10.0
100
AcDbArc
 50
54.9999633229
 51
72.3685113094
  0
ARC
  5
65C
100
AcDbEntity
  8
RUNDUNGEN
100
AcDbCircle
 62
7
  6
CONTINUOUS
 10
906.4101438178
 20
204.4327668304
 40
1.5
100
AcDbArc
 50
270.0
 51
360.0
  0
ARC
  5
65D
100
AcDbEntity
  8
RUNDUNGEN
100
AcDbCircle
 62
7
  6
CONTINUOUS
 10
903.4101438178
 20
203.4327668304
 40
0.5
100
AcDbArc
 50
180.0
 51
270.0
  0
ARC
  5
65E
100
AcDbEntity
  8
0
100
AcDbCircle
 62
7
  6
CONTINUOUS
 10
927.4101438178
 20
238.9327668304
 40
10.0
100
AcDbArc
 50
270.0
 51
301.997058449
  0
ARC
  5
65F
100
AcDbEntity
  8
RUNDUNGEN
100
AcDbCircle
 62
7
  6
CONTINUOUS
 10
930.1186388599
 20
240.1827668304
 40
10.0
100
AcDbArc
 50
287.6314836165
 51
305.0000366771
  0
ARC
  5
660
100
AcDbEntity
  8
0
100
AcDbCircle
 62
7
  6
CONTINUOUS
 10
927.3117695366
 20
228.9327668304
 40
4.5
100
AcDbArc
 50
270.0
 51
360.0
  0
ARC
  5
661
100
AcDbEntity
  8
RUNDUNGEN
100
AcDbCircle
 62
7
  6
CONTINUOUS
 10
906.4101438178
 20
239.4327668304
 40
1.5
100
AcDbArc
 50
0.0
 51
90.0
  0
ARC
  5
662
100
AcDbEntity
  8
RUNDUNGEN
100
AcDbCircle
 62
7
  6
CONTINUOUS
 10
903.4101438178
 20
240.4327668304
 40
0.5
100
AcDbArc
 50
90.0
 51
180.0
  0
ARC
  5
663
100
AcDbEntity
  8
BEZUGSACHSEN
100
AcDbCircle
 62
7
  6
CONTINUOUS
 10
959.6101438178
 20
221.9327668304
 40
11.25
100
AcDbArc
 50
112.5614122803
 51
326.3688395292
  0
ARC
  5
664
100
AcDbEntity
  8
RUNDUNGEN
100
AcDbCircle
 62
7
  6
CONTINUOUS
 10
959.6101438178
 20
221.9327668304
 40
11.25
100
AcDbArc
 50
33.6311604708
 51
112.5614122803
  0
ARC
  5
665
100
AcDbEntity
  8
BEZUGSACHSEN
100
AcDbCircle
 62
7
  6
CONTINUOUS
 10
951.0631317066
 20
213.4327668304
 40
10.0
100
AcDbArc
 50
235.0
 51
269.9999738589
  0
ARC
  5
666
100
AcDbEntity
  8
BEZUGSACHSEN
100
AcDbCircle
 62
7
  6
CONTINUOUS
 10
972.9101438178
 20
213.4327668304
 40
10.0
100
AcDbArc
 50
270.0
 51
292.9999843994
  0
ARC
  5
667
100
AcDbEntity
  8
BEZUGSACHSEN
100
AcDbCircle
 62
7
  6
CONTINUOUS
 10
983.9101438178
 20
215.9292690539
 40
8.0
100
AcDbArc
 50
292.9999976131
 51
332.40943587
  0
ARC
  5
668
100
AcDbEntity
  8
BEZUGSACHSEN
100
AcDbCircle
 62
7
  6
CONTINUOUS
 10
973.1402029456
 20
212.9327668304
 40
5.0
100
AcDbArc
 50
90.0
 51
146.3684593536
  0
ARC
  5
669
100
AcDbEntity
  8
BEZUGSACHSEN
100
AcDbCircle
 62
7
  6
CONTINUOUS
 10
990.1078344695
 20
212.6892704654
 40
1.0065060989
100
AcDbArc
 50
332.4709529226
 51
351.2434876952
  0
ARC
  5
66A
100
AcDbEntity
  8
RUNDUNGEN
100
AcDbCircle
 62
7
  6
CONTINUOUS
 10
982.820439331
 20
224.9327668304
 40
1.0
100
AcDbArc
 50
0.0
 51
90.0
  0
ARC
  5
66B
100
AcDbEntity
  8
BEZUGSACHSEN
100
AcDbCircle
 62
7
  6
CONTINUOUS
 10
982.820439331
 20
218.9327668304
 40
1.0
100
AcDbArc
 50
270.0
 51
360.0
  0
ARC
  5
66C
100
AcDbEntity
  8
RUNDUNGEN
100
AcDbCircle
 62
7
  6
CONTINUOUS
 10
972.9101438178
 20
230.4327668304
 40
10.0
100
AcDbArc
 50
67.0000156006
 51
90.0
  0
ARC
  5
66D
100
AcDbEntity
  8
RUNDUNGEN
100
AcDbCircle
 62
7
  6
CONTINUOUS
 10
951.0631317066
 20
230.4327668304
 40
10.0
100
AcDbArc
 50
90.0000261411
 51
125.0
  0
ARC
  5
66E
100
AcDbEntity
  8
RUNDUNGEN
100
AcDbCircle
 62
7
  6
CONTINUOUS
 10
983.9101438178
 20
227.9362646069
 40
8.0
100
AcDbArc
 50
27.59056413
 51
67.0000023869
  0
ARC
  5
66F
100
AcDbEntity
  8
RUNDUNGEN
100
AcDbCircle
 62
7
  6
CONTINUOUS
 10
973.1402029456
 20
230.9327668304
 40
5.0
100
AcDbArc
 50
213.6324266257
 51
270.0
  0
ARC
  5
670
100
AcDbEntity
  8
RUNDUNGEN
100
AcDbCircle
 62
7
  6
CONTINUOUS
 10
990.1078344695
 20
231.1762631955
 40
1.0065060989
100
AcDbArc
 50
8.7565123048
 51
27.5290470774
  0
ARC
  5
671
100
AcDbEntity
  8
RUNDUNGEN
100
AcDbCircle
 62
7
  6
CONTINUOUS
 10
19.8581706074
 20
-60.5348228936
 40
16.0
100
AcDbArc
 50
50.1615469978
 51
90.0000313924
  0
ARC
  5
672
100
AcDbEntity
  8
0
100
AcDbCircle
 62
7
  6
CONTINUOUS
 10
47.3581706074
 20
-61.0348228936
 40
10.0
100
AcDbArc
 50
90.0
 51
112.6892622012
  0
ARC
  5
673
100
AcDbEntity
  8
RUNDUNGEN
100
AcDbCircle
 62
7
  6
CONTINUOUS
 10
47.3581706074
 20
-61.0348228936
 40
10.0
100
AcDbArc
 50
90.0
 51
112.6892622012
  0
ARC
  5
674
100
AcDbEntity
  8
RUNDUNGEN
100
AcDbCircle
 62
7
  6
CONTINUOUS
 10
68.3581706074
 20
-61.5348228936
 40
1.5
100
AcDbArc
 50
180.0
 51
270.0
  0
ARC
  5
675
100
AcDbEntity
  8
BEZUGSACHSEN
100
AcDbCircle
 62
7
  6
CONTINUOUS
 10
-15.543455054
 20
-63.2287620498
 40
1.0
100
AcDbArc
 50
170.0000188891
 51
241.0000061497
  0
ARC
  5
676
100
AcDbEntity
  8
RUNDUNGEN
100
AcDbCircle
 62
7
  6
CONTINUOUS
 10
-15.543455054
 20
-63.2287620498
 40
1.0
100
AcDbArc
 50
170.0000188891
 51
241.0000061497
  0
ARC
  5
677
100
AcDbEntity
  8
RUNDUNGEN
100
AcDbCircle
 62
7
  6
CONTINUOUS
 10
-12.0316394795
 20
-65.1753935662
 40
1.0
100
AcDbArc
 50
241.0
 51
331.0
  0
ARC
  5
678
100
AcDbEntity
  8
RUNDUNGEN
100
AcDbCircle
 62
7
  6
CONTINUOUS
 10
71.3581706074
 20
-62.5348228936
 40
0.5
100
AcDbArc
 50
270.0
 51
360.0
  0
ARC
  5
679
100
AcDbEntity
  8
RUNDUNGEN
100
AcDbCircle
 62
7
  6
CONTINUOUS
 10
10.8887406152
 20
-51.5348228936
 40
25.0
100
AcDbArc
 50
90.0
 51
170.0000083164
  0
ARC
  5
67A
100
AcDbEntity
  8
BEZUGSACHSEN
100
AcDbCircle
 62
7
  6
CONTINUOUS
 10
10.8887406152
 20
-51.5348228936
 40
25.0
100
AcDbArc
 50
112.1030602806
 51
112.6511375168
  0
ARC
  5
67B
100
AcDbEntity
  8
0
100
AcDbCircle
 62
7
  6
CONTINUOUS
 10
47.4565279658
 20
-49.2573528279
 40
11.7608783496
100
AcDbArc
 50
89.999917556
 51
90.479175708
  0
ARC
  5
67C
100
AcDbEntity
  8
RUNDUNGEN
100
AcDbCircle
 62
7
  6
CONTINUOUS
 10
7.03246492
 20
-55.5348228936
 40
11.0
100
AcDbArc
 50
90.0
 51
150.9999889149
  0
ARC
  5
67D
100
AcDbEntity
  8
RUNDUNGEN
100
AcDbCircle
 62
7
  6
CONTINUOUS
 10
42.7293121832
 20
-49.963498143
 40
2.0
100
AcDbArc
 50
270.001739252
 51
292.6908667397
  0
ARC
  5
67E
100
AcDbEntity
  8
RUNDUNGEN
100
AcDbCircle
 62
7
  6
CONTINUOUS
 10
183.8581706074
 20
-70.0348228936
 40
1.0
100
AcDbArc
 50
180.0
 51
270.0
  0
ARC
  5
67F
100
AcDbEntity
  8
RUNDUNGEN
100
AcDbCircle
 62
7
  6
CONTINUOUS
 10
92.8581706074
 20
-62.0348228936
 40
1.0
100
AcDbArc
 50
180.0
 51
270.0
  0
ARC
  5
680
100
AcDbEntity
  8
RUNDUNGEN
100
AcDbCircle
 62
7
  6
CONTINUOUS
 10
106.9257214399
 20
-57.4736407756
 40
2.003260631
100
AcDbArc
 50
290.6552616225
 51
292.1855816554
  0
ARC
  5
681
100
AcDbEntity
  8
RUNDUNGEN
100
AcDbCircle
 62
7
  6
CONTINUOUS
 10
106.9269010261
 20
-57.4770437416
 40
1.9996641898
100
AcDbArc
 50
292.1911038964
 51
320.2953801507
  0
ARC
  5
682
100
AcDbEntity
  8
RUNDUNGEN
100
AcDbCircle
 62
7
  6
CONTINUOUS
 10
179.9298572478
 20
-55.4882827807
 40
1.999646436
100
AcDbArc
 50
224.4926911467
 51
255.3156573568
  0
ARC
  5
683
100
AcDbEntity
  8
BEZUGSACHSEN
100
AcDbCircle
 62
7
  6
CONTINUOUS
 10
19.8581706074
 20
-43.5348228936
 40
17.0
100
AcDbArc
 50
87.663021301
 51
90.000011232
  0
ARC
  5
684
100
AcDbEntity
  8
BEZUGSACHSEN
100
AcDbCircle
 62
7
  6
CONTINUOUS
 10
19.8581706074
 20
-43.5348228936
 40
17.0
100
AcDbArc
 50
75.0558792935
 51
76.0865669541
  0
ARC
  5
685
100
AcDbEntity
  8
RUNDUNGEN
100
AcDbCircle
 62
7
  6
CONTINUOUS
 10
19.8581706074
 20
-43.5348228936
 40
17.0
100
AcDbArc
 50
47.0656938951
 51
90.000011232
  0
ARC
  5
686
100
AcDbEntity
  8
BEZUGSACHSEN
100
AcDbCircle
 62
7
  6
CONTINUOUS
 10
40.3581706074
 20
-35.963498143
 40
16.0
100
AcDbArc
 50
246.2386336216
 51
270.0000433858
  0
ARC
  5
687
100
AcDbEntity
  8
BEZUGSACHSEN
100
AcDbCircle
 62
7
  6
CONTINUOUS
 10
40.3581706074
 20
-35.963498143
 40
16.0
100
AcDbArc
 50
232.4745248117
 51
233.0054389208
  0
ARC
  5
688
100
AcDbEntity
  8
RUNDUNGEN
100
AcDbCircle
 62
7
  6
CONTINUOUS
 10
40.3581706074
 20
-35.963498143
 40
16.0
100
AcDbArc
 50
230.1615730482
 51
270.0000433858
  0
ARC
  5
689
100
AcDbEntity
  8
RUNDUNGEN
100
AcDbCircle
 62
7
  6
CONTINUOUS
 10
41.8997357319
 20
-37.7215500028
 40
2.0000004872
100
AcDbArc
 50
62.9422814055
 51
85.7092550664
  0
ARC
  5
68A
100
AcDbEntity
  8
RUNDUNGEN
100
AcDbCircle
 62
7
  6
CONTINUOUS
 10
43.3581706074
 20
-18.2761610129
 40
17.5
100
AcDbArc
 50
227.0656846331
 51
265.7109283333
  0
ARC
  5
68B
100
AcDbEntity
  8
BEZUGSACHSEN
100
AcDbCircle
 62
7
  6
CONTINUOUS
 10
43.3581706074
 20
-18.2761610129
 40
17.5
100
AcDbArc
 50
227.0656846331
 51
250.3934431779
  0
ARC
  5
68C
100
AcDbEntity
  8
0
100
AcDbCircle
 62
7
  6
CONTINUOUS
 10
47.3581706074
 20
-27.0348228936
 40
10.0
100
AcDbArc
 50
242.9437715386
 51
270.0
  0
ARC
  5
68D
100
AcDbEntity
  8
RUNDUNGEN
100
AcDbCircle
 62
7
  6
CONTINUOUS
 10
47.3581706074
 20
-27.0348228936
 40
10.0
100
AcDbArc
 50
242.9437715386
 51
270.0
  0
ARC
  5
68E
100
AcDbEntity
  8
RUNDUNGEN
100
AcDbCircle
 62
7
  6
CONTINUOUS
 10
100.9765357039
 20
-30.0348228936
 40
5.0
100
AcDbArc
 50
70.0
 51
90.0
  0
ARC
  5
68F
100
AcDbEntity
  8
RUNDUNGEN
100
AcDbCircle
 62
7
  6
CONTINUOUS
 10
68.3581706074
 20
-26.5348228936
 40
1.5
100
AcDbArc
 50
90.0
 51
180.0
  0
ARC
  5
690
100
AcDbEntity
  8
RUNDUNGEN
100
AcDbCircle
 62
7
  6
CONTINUOUS
 10
92.8581706074
 20
-26.0348228936
 40
1.0
100
AcDbArc
 50
90.0
 51
180.0
  0
ARC
  5
691
100
AcDbEntity
  8
RUNDUNGEN
100
AcDbCircle
 62
7
  6
CONTINUOUS
 10
71.3581706074
 20
-25.5348228936
 40
0.5
100
AcDbArc
 50
0.0
 51
90.0
  0
ARC
  5
692
100
AcDbEntity
  8
RUNDUNGEN
100
AcDbCircle
 62
7
  6
CONTINUOUS
 10
110.9822377693
 20
-23.0348228936
 40
5.0
100
AcDbArc
 50
250.0
 51
270.0
  0
ARC
  5
693
100
AcDbEntity
  8
RUNDUNGEN
100
AcDbCircle
 62
7
  6
CONTINUOUS
 10
179.9299673772
 20
-29.0348228936
 40
2.0
100
AcDbArc
 50
90.0
 51
120.0
  0
ARC
  5
694
100
AcDbEntity
  8
RUNDUNGEN
100
AcDbCircle
 62
7
  6
CONTINUOUS
 10
177.1261197999
 20
-26.0348228936
 40
2.0
100
AcDbArc
 50
270.0
 51
300.0
  0
ARC
  5
695
100
AcDbEntity
  8
RUNDUNGEN
100
AcDbCircle
 62
7
  6
CONTINUOUS
 10
183.8581706074
 20
-18.0348228936
 40
1.0
100
AcDbArc
 50
90.0
 51
180.0
  0
ARC
  5
696
100
AcDbEntity
  8
RUNDUNGEN
100
AcDbCircle
 62
7
  6
CONTINUOUS
 10
118.3581706074
 20
-30.0348228936
 40
1.0
100
AcDbArc
 50
179.9992886369
 51
270.0
  0
ARC
  5
697
100
AcDbEntity
  8
RUNDUNGEN
100
AcDbCircle
 62
7
  6
CONTINUOUS
 10
166.3581706074
 20
-30.0348228936
 40
1.0
100
AcDbArc
 50
270.0
 51
0.0006804272
  0
ARC
  5
698
100
AcDbEntity
  8
RUNDUNGEN
100
AcDbCircle
 62
7
  6
CONTINUOUS
 10
167.8581706074
 20
-28.5348228936
 40
0.5
100
AcDbArc
 50
90.0
 51
180.0
  0
ARC
  5
699
100
AcDbEntity
  8
RUNDUNGEN
100
AcDbCircle
 62
7
  6
CONTINUOUS
 10
116.8581706074
 20
-28.5348228936
 40
0.5
100
AcDbArc
 50
0.0
 51
90.0
  0
ARC
  5
69A
100
AcDbEntity
  8
RUNDUNGEN
100
AcDbCircle
 62
7
  6
CONTINUOUS
 10
205.8581706074
 20
-70.0348228936
 40
1.0
100
AcDbArc
 50
270.0
 51
360.0
  0
ARC
  5
69B
100
AcDbEntity
  8
RUNDUNGEN
100
AcDbCircle
 62
7
  6
CONTINUOUS
 10
283.8581706074
 20
-58.0348228936
 40
2.0
100
AcDbArc
 50
184.7757011658
 51
270.0
  0
ARC
  5
69C
100
AcDbEntity
  8
RUNDUNGEN
100
AcDbCircle
 62
7
  6
CONTINUOUS
 10
296.3756947546
 20
-58.0348228936
 40
2.0
100
AcDbArc
 50
270.0
 51
354.0000000001
  0
ARC
  5
69D
100
AcDbEntity
  8
RUNDUNGEN
100
AcDbCircle
 62
7
  6
CONTINUOUS
 10
209.7865127754
 20
-55.4883353944
 40
1.999586792
100
AcDbArc
 50
284.6840918184
 51
315.5074083953
  0
ARC
  5
69E
100
AcDbEntity
  8
BEZUGSACHSEN
100
AcDbCircle
 62
7
  6
CONTINUOUS
 10
364.8581706074
 20
-60.5348228936
 40
16.0
100
AcDbArc
 50
89.9999686076
 51
129.8384530022
  0
ARC
  5
69F
100
AcDbEntity
  8
0
100
AcDbCircle
 62
7
  6
CONTINUOUS
 10
337.3581706074
 20
-61.0348228936
 40
10.0
100
AcDbArc
 50
67.3107377988
 51
90.0
  0
ARC
  5
6A0
100
AcDbEntity
  8
RUNDUNGEN
100
AcDbCircle
 62
7
  6
CONTINUOUS
 10
337.3581706074
 20
-61.0348228936
 40
10.0
100
AcDbArc
 50
67.3107377988
 51
90.0
  0
ARC
  5
6A1
100
AcDbEntity
  8
BEZUGSACHSEN
100
AcDbCircle
 62
7
  6
CONTINUOUS
 10
400.2597962689
 20
-63.2287620498
 40
1.0
100
AcDbArc
 50
298.9999938503
 51
9.9999811109
  0
ARC
  5
6A2
100
AcDbEntity
  8
RUNDUNGEN
100
AcDbCircle
 62
7
  6
CONTINUOUS
 10
400.2597962689
 20
-63.2287620498
 40
1.0
100
AcDbArc
 50
298.9999938503
 51
9.9999811109
  0
ARC
  5
6A3
100
AcDbEntity
  8
BEZUGSACHSEN
100
AcDbCircle
 62
7
  6
CONTINUOUS
 10
396.7479806943
 20
-65.1753935662
 40
1.0
100
AcDbArc
 50
209.0
 51
299.0
  0
ARC
  5
6A4
100
AcDbEntity
  8
RUNDUNGEN
100
AcDbCircle
 62
7
  6
CONTINUOUS
 10
373.8276005997
 20
-51.5348228936
 40
25.0
100
AcDbArc
 50
67.3488624832
 51
67.8969397194
  0
ARC
  5
6A5
100
AcDbEntity
  8
BEZUGSACHSEN
100
AcDbCircle
 62
7
  6
CONTINUOUS
 10
373.8276005997
 20
-51.5348228936
 40
25.0
100
AcDbArc
 50
9.9999916836
 51
90.0
  0
ARC
  5
6A6
100
AcDbEntity
  8
BEZUGSACHSEN
100
AcDbCircle
 62
7
  6
CONTINUOUS
 10
377.6838762948
 20
-55.5348228936
 40
11.0
100
AcDbArc
 50
29.0000110851
 51
90.0
  0
ARC
  5
6A7
100
AcDbEntity
  8
RUNDUNGEN
100
AcDbCircle
 62
7
  6
CONTINUOUS
 10
341.9870293084
 20
-49.963498143
 40
2.0
100
AcDbArc
 50
247.3091259456
 51
269.9982528187
  0
ARC
  5
6A8
100
AcDbEntity
  8
RUNDUNGEN
100
AcDbCircle
 62
7
  6
CONTINUOUS
 10
209.7863738377
 20
-29.0348228936
 40
2.0
100
AcDbArc
 50
60.0
 51
90.0
  0
ARC
  5
6A9
100
AcDbEntity
  8
RUNDUNGEN
100
AcDbCircle
 62
7
  6
CONTINUOUS
 10
212.590221415
 20
-26.0348228936
 40
2.0
100
AcDbArc
 50
240.0
 51
270.0
  0
ARC
  5
6AA
100
AcDbEntity
  8
RUNDUNGEN
100
AcDbCircle
 62
7
  6
CONTINUOUS
 10
205.8581706074
 20
-18.0348228936
 40
1.0
100
AcDbArc
 50
0.0
 51
90.0
  0
ARC
  5
6AB
100
AcDbEntity
  8
RUNDUNGEN
100
AcDbCircle
 62
7
  6
CONTINUOUS
 10
231.3581706074
 20
-30.0348228936
 40
1.0
100
AcDbArc
 50
179.9993901798
 51
270.0
  0
ARC
  5
6AC
100
AcDbEntity
  8
RUNDUNGEN
100
AcDbCircle
 62
7
  6
CONTINUOUS
 10
271.3581706074
 20
-30.0348228936
 40
1.0
100
AcDbArc
 50
270.0
 51
0.000617483
  0
ARC
  5
6AD
100
AcDbEntity
  8
RUNDUNGEN
100
AcDbCircle
 62
7
  6
CONTINUOUS
 10
272.8581706074
 20
-28.5348228936
 40
0.5
100
AcDbArc
 50
90.0
 51
180.0
  0
ARC
  5
6AE
100
AcDbEntity
  8
RUNDUNGEN
100
AcDbCircle
 62
7
  6
CONTINUOUS
 10
229.8581706074
 20
-28.5348228936
 40
0.5
100
AcDbArc
 50
0.0
 51
90.0
  0
ARC
  5
6AF
100
AcDbEntity
  8
BEZUGSACHSEN
100
AcDbCircle
 62
7
  6
CONTINUOUS
 10
364.8581706074
 20
-43.5348228936
 40
17.0
100
AcDbArc
 50
89.999988768
 51
132.9343061049
  0
ARC
  5
6B0
100
AcDbEntity
  8
RUNDUNGEN
100
AcDbCircle
 62
7
  6
CONTINUOUS
 10
364.8581706074
 20
-43.5348228936
 40
17.0
100
AcDbArc
 50
103.9134330459
 51
104.9441207065
  0
ARC
  5
6B1
100
AcDbEntity
  8
RUNDUNGEN
100
AcDbCircle
 62
7
  6
CONTINUOUS
 10
364.8581706074
 20
-43.5348228936
 40
17.0
100
AcDbArc
 50
89.999988768
 51
92.336978699
  0
ARC
  5
6B2
100
AcDbEntity
  8
BEZUGSACHSEN
100
AcDbCircle
 62
7
  6
CONTINUOUS
 10
344.3581706074
 20
-35.963498143
 40
16.0
100
AcDbArc
 50
269.9999566142
 51
309.8384155954
  0
ARC
  5
6B3
100
AcDbEntity
  8
RUNDUNGEN
100
AcDbCircle
 62
7
  6
CONTINUOUS
 10
344.3581706074
 20
-35.963498143
 40
16.0
100
AcDbArc
 50
269.9999566142
 51
304.3358660532
  0
ARC
  5
6B4
100
AcDbEntity
  8
RUNDUNGEN
100
AcDbCircle
 62
7
  6
CONTINUOUS
 10
342.8166058888
 20
-37.7215500041
 40
2.0000004904
100
AcDbArc
 50
94.2907565231
 51
117.0577289281
  0
ARC
  5
6B5
100
AcDbEntity
  8
BEZUGSACHSEN
100
AcDbCircle
 62
7
  6
CONTINUOUS
 10
341.3581706074
 20
-18.2761610129
 40
17.5
100
AcDbArc
 50
289.6065568221
 51
312.9343153669
  0
ARC
  5
6B6
100
AcDbEntity
  8
RUNDUNGEN
100
AcDbCircle
 62
7
  6
CONTINUOUS
 10
341.3581706074
 20
-18.2761610129
 40
17.5
100
AcDbArc
 50
274.2890716667
 51
312.9343153669
  0
ARC
  5
6B7
100
AcDbEntity
  8
0
100
AcDbCircle
 62
7
  6
CONTINUOUS
 10
337.3581706074
 20
-27.0348228936
 40
10.0
100
AcDbArc
 50
270.0
 51
297.0562284614
  0
ARC
  5
6B8
100
AcDbEntity
  8
RUNDUNGEN
100
AcDbCircle
 62
7
  6
CONTINUOUS
 10
337.3581706074
 20
-27.0348228936
 40
10.0
100
AcDbArc
 50
270.0
 51
297.0562284614
  0
ARC
  5
6B9
100
AcDbEntity
  8
RUNDUNGEN
100
AcDbCircle
 62
7
  6
CONTINUOUS
 10
296.3756947546
 20
-30.0348228936
 40
2.0
100
AcDbArc
 50
6.0
 51
90.0
  0
SPLINE
  5
6BA
100
AcDbEntity
  8
BEZUGSACHSEN
100
AcDbSpline
 62
7
  6
CONTINUOUS
 70
0
 71
3
 72
9
 73
5
 74
0
 42
0.0000001
 43
0.0000001
 44
0.0000000001
 40
0.0
 40
0.0
 40
0.0
 40
0.0
 40
0.2599900138
 40
1.0
 40
1.0
 40
1.0
 40
1.0
 10
401.0506280608
 20
231.3295342662
 30
0.0
 10
401.0496548475
 20
231.3359102083
 30
0.0
 10
401.0452641736
 20
231.3603267261
 30
0.0
 10
401.0381138558
 20
231.384278305
 30
0.0
 10
401.0311375646
 20
231.4012591527
 30
0.0
  0
SPLINE
  5
6BB
100
AcDbEntity
  8
BEZUGSACHSEN
100
AcDbSpline
 62
7
  6
CONTINUOUS
 70
0
 71
3
 72
9
 73
5
 74
0
 42
0.0000001
 43
0.0000001
 44
0.0000000001
 40
0.0
 40
0.0
 40
0.0
 40
0.0
 40
0.4869352188
 40
1.0
 40
1.0
 40
1.0
 40
1.0
 10
401.0311375646
 20
231.4012591527
 30
0.0
 10
401.0180993565
 20
231.4329951883
 30
0.0
 10
400.9780726615
 20
231.4934976807
 30
0.0
 10
400.9186916087
 20
231.5342109816
 30
0.0
 10
400.8863484534
 20
231.5503608361
 30
0.0
  0
SPLINE
  5
6BC
100
AcDbEntity
  8
BEZUGSACHSEN
100
AcDbSpline
 62
7
  6
CONTINUOUS
 70
0
 71
3
 72
9
 73
5
 74
0
 42
0.0000001
 43
0.0000001
 44
0.0000000001
 40
0.0
 40
0.0
 40
0.0
 40
0.0
 40
0.2410182408
 40
1.0
 40
1.0
 40
1.0
 40
1.0
 10
400.8863484534
 20
231.5503608361
 30
0.0
 10
400.8803517657
 20
231.5533551523
 30
0.0
 10
400.8551498383
 20
231.5651340829
 30
0.0
 10
400.8288294793
 20
231.5744391856
 30
0.0
 10
400.808576851
 20
231.5803844521
 30
0.0
  0
SPLINE
  5
6BD
100
AcDbEntity
  8
BEZUGSACHSEN
100
AcDbSpline
 62
7
  6
CONTINUOUS
 70
0
 71
3
 72
9
 73
5
 74
0
 42
0.0000001
 43
0.0000001
 44
0.0000000001
 40
0.0
 40
0.0
 40
0.0
 40
0.0
 40
0.466646968
 40
1.0
 40
1.0
 40
1.0
 40
1.0
 10
400.808576851
 20
231.5803844521
 30
0.0
 10
400.7620773058
 20
231.5940346404
 30
0.0
 10
400.6590238916
 20
231.6115639571
 30
0.0
 10
400.5547735309
 20
231.6132263692
 30
0.0
 10
400.4994937399
 20
231.609747141
 30
0.0
  0
SPLINE
  5
6BE
100
AcDbEntity
  8
RUNDUNGEN
100
AcDbSpline
 62
7
  6
CONTINUOUS
 70
0
 71
3
 72
9
 73
5
 74
0
 42
0.0000001
 43
0.0000001
 44
0.0000000001
 40
0.0
 40
0.0
 40
0.0
 40
0.0
 40
0.2599900138
 40
1.0
 40
1.0
 40
1.0
 40
1.0
 10
401.0506280608
 20
212.5359993947
 30
0.0
 10
401.0496548475
 20
212.5296234526
 30
0.0
 10
401.0452641736
 20
212.5052069348
 30
0.0
 10
401.0381138558
 20
212.4812553559
 30
0.0
 10
401.0311375646
 20
212.4642745082
 30
0.0
  0
SPLINE
  5
6BF
100
AcDbEntity
  8
RUNDUNGEN
100
AcDbSpline
 62
7
  6
CONTINUOUS
 70
0
 71
3
 72
9
 73
5
 74
0
 42
0.0000001
 43
0.0000001
 44
0.0000000001
 40
0.0
 40
0.0
 40
0.0
 40
0.0
 40
0.4869352188
 40
1.0
 40
1.0
 40
1.0
 40
1.0
 10
401.0311375646
 20
212.4642745082
 30
0.0
 10
401.0180993565
 20
212.4325384725
 30
0.0
 10
400.9780726615
 20
212.3720359801
 30
0.0
 10
400.9186916087
 20
212.3313226793
 30
0.0
 10
400.8863484534
 20
212.3151728248
 30
0.0
  0
SPLINE
  5
6C0
100
AcDbEntity
  8
RUNDUNGEN
100
AcDbSpline
 62
7
  6
CONTINUOUS
 70
0
 71
3
 72
9
 73
5
 74
0
 42
0.0000001
 43
0.0000001
 44
0.0000000001
 40
0.0
 40
0.0
 40
0.0
 40
0.0
 40
0.2410182408
 40
1.0
 40
1.0
 40
1.0
 40
1.0
 10
400.8863484534
 20
212.3151728248
 30
0.0
 10
400.8803517657
 20
212.3121785085
 30
0.0
 10
400.8551498383
 20
212.3003995779
 30
0.0
 10
400.8288294793
 20
212.2910944753
 30
0.0
 10
400.808576851
 20
212.2851492087
 30
0.0
  0
SPLINE
  5
6C1
100
AcDbEntity
  8
RUNDUNGEN
100
AcDbSpline
 62
7
  6
CONTINUOUS
 70
0
 71
3
 72
9
 73
5
 74
0
 42
0.0000001
 43
0.0000001
 44
0.0000000001
 40
0.0
 40
0.0
 40
0.0
 40
0.0
 40
0.466646968
 40
1.0
 40
1.0
 40
1.0
 40
1.0
 10
400.808576851
 20
212.2851492087
 30
0.0
 10
400.7620773058
 20
212.2714990204
 30
0.0
 10
400.6590238916
 20
212.2539697037
 30
0.0
 10
400.5547735309
 20
212.2523072916
 30
0.0
 10
400.4994937399
 20
212.2557865198
 30
0.0
  0
SPLINE
  5
6C2
100
AcDbEntity
  8
RUNDUNGEN
100
AcDbSpline
 62
7
  6
CONTINUOUS
 70
0
 71
3
 72
9
 73
5
 74
0
 42
0.0000001
 43
0.0000001
 44
0.0000000001
 40
0.0
 40
0.0
 40
0.0
 40
0.0
 40
0.2599900138
 40
1.0
 40
1.0
 40
1.0
 40
1.0
 10
-16.334286846
 20
231.3295342662
 30
0.0
 10
-16.3333136326
 20
231.3359102083
 30
0.0
 10
-16.3289229587
 20
231.3603267261
 30
0.0
 10
-16.3217726409
 20
231.384278305
 30
0.0
 10
-16.3147963497
 20
231.4012591527
 30
0.0
  0
SPLINE
  5
6C3
100
AcDbEntity
  8
RUNDUNGEN
100
AcDbSpline
 62
7
  6
CONTINUOUS
 70
0
 71
3
 72
9
 73
5
 74
0
 42
0.0000001
 43
0.0000001
 44
0.0000000001
 40
0.0
 40
0.0
 40
0.0
 40
0.0
 40
0.4869352188
 40
1.0
 40
1.0
 40
1.0
 40
1.0
 10
-16.3147963497
 20
231.4012591527
 30
0.0
 10
-16.3017581417
 20
231.4329951883
 30
0.0
 10
-16.2617314466
 20
231.4934976807
 30
0.0
 10
-16.2023503938
 20
231.5342109816
 30
0.0
 10
-16.1700072385
 20
231.5503608361
 30
0.0
  0
SPLINE
  5
6C4
100
AcDbEntity
  8
RUNDUNGEN
100
AcDbSpline
 62
7
  6
CONTINUOUS
 70
0
 71
3
 72
9
 73
5
 74
0
 42
0.0000001
 43
0.0000001
 44
0.0000000001
 40
0.0
 40
0.0
 40
0.0
 40
0.0
 40
0.2410182408
 40
1.0
 40
1.0
 40
1.0
 40
1.0
 10
-16.1700072385
 20
231.5503608361
 30
0.0
 10
-16.1640105508
 20
231.5533551523
 30
0.0
 10
-16.1388086234
 20
231.5651340829
 30
0.0
 10
-16.1124882644
 20
231.5744391856
 30
0.0
 10
-16.0922356361
 20
231.5803844521
 30
0.0
  0
SPLINE
  5
6C5
100
AcDbEntity
  8
RUNDUNGEN
100
AcDbSpline
 62
7
  6
CONTINUOUS
 70
0
 71
3
 72
9
 73
5
 74
0
 42
0.0000001
 43
0.0000001
 44
0.0000000001
 40
0.0
 40
0.0
 40
0.0
 40
0.0
 40
0.466646968
 40
1.0
 40
1.0
 40
1.0
 40
1.0
 10
-16.0922356361
 20
231.5803844521
 30
0.0
 10
-16.0457360909
 20
231.5940346404
 30
0.0
 10
-15.9426826767
 20
231.6115639571
 30
0.0
 10
-15.838432316
 20
231.6132263692
 30
0.0
 10
-15.783152525
 20
231.609747141
 30
0.0
  0
SPLINE
  5
6C6
100
AcDbEntity
  8
0
100
AcDbSpline
 62
7
  6
CONTINUOUS
 70
0
 71
3
 72
9
 73
5
 74
0
 42
0.0000001
 43
0.0000001
 44
0.0000000001
 40
0.0
 40
0.0
 40
0.0
 40
0.0
 40
0.4999569938
 40
1.0
 40
1.0
 40
1.0
 40
1.0
 10
47.3581706074
 20
215.3944184151
 30
0.0
 10
46.5973496911
 20
215.3944184151
 30
0.0
 10
45.069982019
 20
215.2060844992
 30
0.0
 10
43.6328045014
 20
214.6603959537
 30
0.0
 10
42.9565448887
 20
214.3115111736
 30
0.0
  0
SPLINE
  5
6C7
100
AcDbEntity
  8
0
100
AcDbSpline
 62
7
  6
CONTINUOUS
 70
0
 71
3
 72
9
 73
5
 74
0
 42
0.0000001
 43
0.0000001
 44
0.0000000001
 40
0.0
 40
0.0
 40
0.0
 40
0.0
 40
0.4999832232
 40
1.0
 40
1.0
 40
1.0
 40
1.0
 10
140.2065448887
 20
218.4958350592
 30
0.0
 10
139.7720966056
 20
217.9586101953
 30
0.0
 10
138.8641591846
 20
216.9159180869
 30
0.0
 10
137.9281899584
 20
215.8993648141
 30
0.0
 10
137.4565448887
 20
215.3944184151
 30
0.0
  0
SPLINE
  5
6C8
100
AcDbEntity
  8
BEZUGSACHSEN
100
AcDbSpline
 62
7
  6
CONTINUOUS
 70
0
 71
3
 72
9
 73
5
 74
0
 42
0.0000001
 43
0.0000001
 44
0.0000000001
 40
0.0
 40
0.0
 40
0.0
 40
0.0
 40
0.2599900138
 40
1.0
 40
1.0
 40
1.0
 40
1.0
 10
-16.334286846
 20
212.5359993947
 30
0.0
 10
-16.3333136326
 20
212.5296234526
 30
0.0
 10
-16.3289229587
 20
212.5052069348
 30
0.0
 10
-16.3217726409
 20
212.4812553559
 30
0.0
 10
-16.3147963497
 20
212.4642745082
 30
0.0
  0
SPLINE
  5
6C9
100
AcDbEntity
  8
BEZUGSACHSEN
100
AcDbSpline
 62
7
  6
CONTINUOUS
 70
0
 71
3
 72
9
 73
5
 74
0
 42
0.0000001
 43
0.0000001
 44
0.0000000001
 40
0.0
 40
0.0
 40
0.0
 40
0.0
 40
0.4869352188
 40
1.0
 40
1.0
 40
1.0
 40
1.0
 10
-16.3147963497
 20
212.4642745082
 30
0.0
 10
-16.3017581417
 20
212.4325384725
 30
0.0
 10
-16.2617314466
 20
212.3720359801
 30
0.0
 10
-16.2023503938
 20
212.3313226793
 30
0.0
 10
-16.1700072385
 20
212.3151728248
 30
0.0
  0
SPLINE
  5
6CA
100
AcDbEntity
  8
BEZUGSACHSEN
100
AcDbSpline
 62
7
  6
CONTINUOUS
 70
0
 71
3
 72
9
 73
5
 74
0
 42
0.0000001
 43
0.0000001
 44
0.0000000001
 40
0.0
 40
0.0
 40
0.0
 40
0.0
 40
0.2410182408
 40
1.0
 40
1.0
 40
1.0
 40
1.0
 10
-16.1700072385
 20
212.3151728248
 30
0.0
 10
-16.1640105508
 20
212.3121785085
 30
0.0
 10
-16.1388086234
 20
212.3003995779
 30
0.0
 10
-16.1124882644
 20
212.2910944753
 30
0.0
 10
-16.0922356361
 20
212.2851492087
 30
0.0
  0
SPLINE
  5
6CB
100
AcDbEntity
  8
BEZUGSACHSEN
100
AcDbSpline
 62
7
  6
CONTINUOUS
 70
0
 71
3
 72
9
 73
5
 74
0
 42
0.0000001
 43
0.0000001
 44
0.0000000001
 40
0.0
 40
0.0
 40
0.0
 40
0.0
 40
0.466646968
 40
1.0
 40
1.0
 40
1.0
 40
1.0
 10
-16.0922356361
 20
212.2851492087
 30
0.0
 10
-16.0457360909
 20
212.2714990204
 30
0.0
 10
-15.9426826767
 20
212.2539697037
 30
0.0
 10
-15.838432316
 20
212.2523072916
 30
0.0
 10
-15.783152525
 20
212.2557865198
 30
0.0
  0
SPLINE
  5
6CC
100
AcDbEntity
  8
RUNDUNGEN
100
AcDbSpline
 62
7
  6
CONTINUOUS
 70
0
 71
3
 72
18
 73
14
 74
0
 42
0.0000001
 43
0.0000001
 44
0.0000000001
 40
0.0
 40
0.0
 40
0.0
 40
0.0
 40
0.0218475504
 40
0.049156136
 40
0.0846142943
 40
0.128993019
 40
0.1821207524
 40
0.2433000163
 40
0.3854335054
 40
0.5448424874
 40
0.7089696738
 40
0.8647367864
 40
1.0
 40
1.0
 40
1.0
 40
1.0
 10
177.8581706106
 20
213.9327559088
 30
0.0
 10
177.8322756742
 20
213.9327553105
 30
0.0
 10
177.7739181418
 20
213.9134713248
 30
0.0
 10
177.7005413902
 20
213.8426545664
 30
0.0
 10
177.6321606293
 20
213.7348982482
 30
0.0
 10
177.5686530239
 20
213.5902086759
 30
0.0
 10
177.5108301046
 20
213.4110056034
 30
0.0
 10
177.4396048639
 20
213.1152968962
 30
0.0
 10
177.3770480652
 20
212.6891267062
 30
0.0
 10
177.3421005749
 20
212.1378436552
 30
0.0
 10
177.3478662659
 20
211.5692086434
 30
0.0
 10
177.3937018496
 20
211.0312437788
 30
0.0
 10
177.4532627778
 20
210.6906009788
 30
0.0
 10
177.4921446679
 20
210.5350658192
 30
0.0
  0
SPLINE
  5
6CD
100
AcDbEntity
  8
RUNDUNGEN
100
AcDbSpline
 62
7
  6
CONTINUOUS
 70
0
 71
3
 72
18
 73
14
 74
0
 42
0.0000001
 43
0.0000001
 44
0.0000000001
 40
0.0
 40
0.0
 40
0.0
 40
0.0
 40
0.135263765
 40
0.2910310467
 40
0.4551586866
 40
0.6145685663
 40
0.7567029396
 40
0.8178824072
 40
0.8710100742
 40
0.9153884159
 40
0.9508458696
 40
0.9781534841
 40
1.0
 40
1.0
 40
1.0
 40
1.0
 10
212.2241957664
 20
210.5350688012
 30
0.0
 10
212.2630768795
 20
210.6906053867
 30
0.0
 10
212.3226365198
 20
211.0312504266
 30
0.0
 10
212.3684704727
 20
211.569218651
 30
0.0
 10
212.3742348032
 20
212.1378573816
 30
0.0
 10
212.3392863217
 20
212.6891448811
 30
0.0
 10
212.2767290711
 20
213.1153188271
 30
0.0
 10
212.2055038413
 20
213.4110298354
 30
0.0
 10
212.1476813266
 20
213.5902333879
 30
0.0
 10
212.0841746017
 20
213.7349224452
 30
0.0
 10
212.0157952886
 20
213.842677253
 30
0.0
 10
211.9424205324
 20
213.9134920961
 30
0.0
 10
211.8840644055
 20
213.9327740382
 30
0.0
 10
211.8581706079
 20
213.9327735797
 30
0.0
  0
SPLINE
  5
6CE
100
AcDbEntity
  8
RUNDUNGEN
100
AcDbSpline
 62
7
  6
CONTINUOUS
 70
0
 71
3
 72
11
 73
7
 74
0
 42
0.0000001
 43
0.0000001
 44
0.0000000001
 40
0.0
 40
0.0
 40
0.0
 40
0.0
 40
0.1372994809
 40
0.3213791372
 40
0.6044731488
 40
1.0
 40
1.0
 40
1.0
 40
1.0
 10
189.8581706074
 20
342.5677404279
 30
0.0
 10
189.8581706074
 20
342.5692673111
 30
0.0
 10
189.8599816438
 20
342.572938374
 30
0.0
 10
189.8668757893
 20
342.5748023068
 30
0.0
 10
189.8763632552
 20
342.5750860473
 30
0.0
 10
189.8839279404
 20
342.5742602233
 30
0.0
 10
189.8882840988
 20
342.5736507766
 30
0.0
  0
SPLINE
  5
6CF
100
AcDbEntity
  8
RUNDUNGEN
100
AcDbSpline
 62
7
  6
CONTINUOUS
 70
0
 71
3
 72
11
 73
7
 74
0
 42
0.0000001
 43
0.0000001
 44
0.0000000001
 40
0.0
 40
0.0
 40
0.0
 40
0.0
 40
0.3955300144
 40
0.6786207264
 40
0.8627011476
 40
1.0
 40
1.0
 40
1.0
 40
1.0
 10
189.8882853106
 20
367.4386168906
 30
0.0
 10
189.8839289684
 20
367.4380074189
 30
0.0
 10
189.8763640956
 20
367.4371813006
 30
0.0
 10
189.8668761965
 20
367.4374646358
 30
0.0
 10
189.8599819758
 20
367.4393286757
 30
0.0
 10
189.8581706074
 20
367.4429997419
 30
0.0
 10
189.8581706074
 20
367.4445266703
 30
0.0
  0
SPLINE
  5
6D0
100
AcDbEntity
  8
RUNDUNGEN
100
AcDbSpline
 62
7
  6
CONTINUOUS
 70
0
 71
3
 72
11
 73
7
 74
0
 42
0.0000001
 43
0.0000001
 44
0.0000000001
 40
0.0
 40
0.0
 40
0.0
 40
0.0
 40
0.137299095
 40
0.3213786825
 40
0.6044728926
 40
1.0
 40
1.0
 40
1.0
 40
1.0
 10
199.8581706074
 20
367.4445270712
 30
0.0
 10
199.8581706074
 20
367.4430001848
 30
0.0
 10
199.8563595576
 20
367.4393291102
 30
0.0
 10
199.8494653741
 20
367.4374651901
 30
0.0
 10
199.8399778586
 20
367.4371814631
 30
0.0
 10
199.8324131311
 20
367.4380072944
 30
0.0
 10
199.8280569484
 20
367.4386167445
 30
0.0
  0
SPLINE
  5
6D1
100
AcDbEntity
  8
RUNDUNGEN
100
AcDbSpline
 62
7
  6
CONTINUOUS
 70
0
 71
3
 72
11
 73
7
 74
0
 42
0.0000001
 43
0.0000001
 44
0.0000000001
 40
0.0
 40
0.0
 40
0.0
 40
0.0
 40
0.3955301089
 40
0.6786207666
 40
0.8627009035
 40
1.0
 40
1.0
 40
1.0
 40
1.0
 10
199.828055788
 20
342.5736505908
 30
0.0
 10
199.832412149
 20
342.574260065
 30
0.0
 10
199.8399770451
 20
342.575086216
 30
0.0
 10
199.8494649826
 20
342.574803018
 30
0.0
 10
199.8563592498
 20
342.5729389837
 30
0.0
 10
199.8581706074
 20
342.5692678935
 30
0.0
 10
199.8581706074
 20
342.5677409562
 30
0.0
  0
SPLINE
  5
6D2
100
AcDbEntity
  8
RUNDUNGEN
100
AcDbSpline
 62
7
  6
CONTINUOUS
 70
0
 71
3
 72
11
 73
7
 74
0
 42
0.0000001
 43
0.0000001
 44
0.0000000001
 40
0.0
 40
0.0
 40
0.0
 40
0.0
 40
0.212042077
 40
0.4591912553
 40
0.7258786391
 40
1.0
 40
1.0
 40
1.0
 40
1.0
 10
401.0469363158
 20
372.905395459
 30
0.0
 10
401.0612471895
 20
372.9865567991
 30
0.0
 10
401.0491791767
 20
373.1697324122
 30
0.0
 10
400.9453589546
 20
373.4353433527
 30
0.0
 10
400.7601919285
 20
373.6841006035
 30
0.0
 10
400.5913061469
 20
373.814029738
 30
0.0
 10
400.4994937399
 20
373.86808118
 30
0.0
  0
SPLINE
  5
6D3
100
AcDbEntity
  8
0
100
AcDbSpline
 62
7
  6
CONTINUOUS
 70
0
 71
3
 72
20
 73
16
 74
0
 42
0.0000001
 43
0.0000001
 44
0.0000000001
 40
0.0
 40
0.0
 40
0.0
 40
0.0
 40
0.1324237401
 40
0.1927994986
 40
0.2486923834
 40
0.3002653345
 40
0.3487069094
 40
0.3963872413
 40
0.446148905
 40
0.5001610369
 40
0.5593980446
 40
0.6238720185
 40
0.6930522329
 40
0.8423085997
 40
1.0
 40
1.0
 40
1.0
 40
1.0
 10
42.9565448887
 20
358.9219398966
 30
0.0
 10
42.9565448887
 20
359.1972436065
 30
0.0
 10
42.9665303997
 20
359.5988659733
 30
0.0
 10
43.0344060181
 20
360.1120197934
 30
0.0
 10
43.1166740809
 20
360.4520701159
 30
0.0
 10
43.2407200881
 20
360.753419635
 30
0.0
 10
43.4160828741
 20
361.0089588805
 30
0.0
 10
43.647283095
 20
361.2102824203
 30
0.0
 10
43.9296857791
 20
361.3551270776
 30
0.0
 10
44.2562851793
 20
361.4506253798
 30
0.0
 10
44.6219433307
 20
361.5078578416
 30
0.0
 10
45.0221325449
 20
361.5372697724
 30
0.0
 10
45.6102237164
 20
361.5519074392
 30
0.0
 10
46.3922096357
 20
361.5434597388
 30
0.0
 10
47.0303479016
 20
361.5413286784
 30
0.0
 10
47.3581706074
 20
361.5440708709
 30
0.0
  0
SPLINE
  5
6D4
100
AcDbEntity
  8
BEZUGSACHSEN
100
AcDbSpline
 62
7
  6
CONTINUOUS
 70
0
 71
3
 72
11
 73
7
 74
0
 42
0.0000001
 43
0.0000001
 44
0.0000000001
 40
0.0
 40
0.0
 40
0.0
 40
0.0
 40
0.212042077
 40
0.4591912553
 40
0.7258786391
 40
1.0
 40
1.0
 40
1.0
 40
1.0
 10
-16.3305951009
 20
372.905395459
 30
0.0
 10
-16.3449059746
 20
372.9865567991
 30
0.0
 10
-16.3328379618
 20
373.1697324122
 30
0.0
 10
-16.2290177397
 20
373.4353433527
 30
0.0
 10
-16.0438507136
 20
373.6841006035
 30
0.0
 10
-15.874964932
 20
373.814029738
 30
0.0
 10
-15.783152525
 20
373.86808118
 30
0.0
  0
SPLINE
  5
6D5
100
AcDbEntity
  8
BEZUGSACHSEN
100
AcDbSpline
 62
7
  6
CONTINUOUS
 70
0
 71
3
 72
12
 73
8
 74
0
 42
0.0000001
 43
0.0000001
 44
0.0000000001
 40
0.0
 40
0.0
 40
0.0
 40
0.0
 40
0.2423791483
 40
0.3660273537
 40
0.4910766541
 40
0.7442015068
 40
1.0
 40
1.0
 40
1.0
 40
1.0
 10
503.0299264327
 20
207.8936139569
 30
0.0
 10
503.685710858
 20
208.4591792943
 30
0.0
 10
504.577095913
 20
209.4366264761
 30
0.0
 10
505.5293160377
 20
210.9129904567
 30
0.0
 10
506.3341965435
 20
212.5188271512
 30
0.0
 10
507.0199615605
 20
214.6954431385
 30
0.0
 10
507.204083939
 20
216.5188441998
 30
0.0
 10
507.204083939
 20
217.4327668304
 30
0.0
  0
SPLINE
  5
6D6
100
AcDbEntity
  8
BEZUGSACHSEN
100
AcDbSpline
 62
7
  6
CONTINUOUS
 70
0
 71
3
 72
9
 73
5
 74
0
 42
0.0000001
 43
0.0000001
 44
0.0000000001
 40
0.0
 40
0.0
 40
0.0
 40
0.0
 40
0.2743298756
 40
1.0
 40
1.0
 40
1.0
 40
1.0
 10
467.621637975
 20
232.6003927082
 30
0.0
 10
467.6126167495
 20
232.658219806
 30
0.0
 10
467.5825023181
 20
232.869370377
 30
0.0
 10
467.5640045671
 20
233.0826600047
 30
0.0
 10
467.5635257795
 20
233.2374763823
 30
0.0
  0
SPLINE
  5
6D7
100
AcDbEntity
  8
BEZUGSACHSEN
100
AcDbSpline
 62
7
  6
CONTINUOUS
 70
0
 71
3
 72
9
 73
5
 74
0
 42
0.0000001
 43
0.0000001
 44
0.0000000001
 40
0.0
 40
0.0
 40
0.0
 40
0.0
 40
0.274347011
 40
1.0
 40
1.0
 40
1.0
 40
1.0
 10
467.621637975
 20
211.2651409527
 30
0.0
 10
467.6126113131
 20
211.2072790065
 30
0.0
 10
467.5824824156
 20
210.996014281
 30
0.0
 10
467.5639833497
 20
210.7826072989
 30
0.0
 10
467.5635247311
 20
210.6277108954
 30
0.0
  0
SPLINE
  5
6D8
100
AcDbEntity
  8
BEZUGSACHSEN
100
AcDbSpline
 62
7
  6
CONTINUOUS
 70
0
 71
3
 72
12
 73
8
 74
0
 42
0.0000001
 43
0.0000001
 44
0.0000000001
 40
0.0
 40
0.0
 40
0.0
 40
0.0
 40
0.0777297324
 40
0.1702090116
 40
0.3975667479
 40
0.676536077
 40
1.0
 40
1.0
 40
1.0
 40
1.0
 10
467.5635351549
 20
210.4626274595
 30
0.0
 10
467.563988058
 20
210.5857765999
 30
0.0
 10
467.5794604412
 20
210.8553576444
 30
0.0
 10
467.6533968052
 20
211.4810421242
 30
0.0
 10
467.8182538466
 20
212.4158139026
 30
0.0
 10
468.071641511
 20
213.7056652424
 30
0.0
 10
468.249528971
 20
214.6434932644
 30
0.0
 10
468.3386980561
 20
215.1481514458
 30
0.0
  0
SPLINE
  5
6D9
100
AcDbEntity
  8
RUNDUNGEN
100
AcDbSpline
 62
7
  6
CONTINUOUS
 70
0
 71
3
 72
12
 73
8
 74
0
 42
0.0000001
 43
0.0000001
 44
0.0000000001
 40
0.0
 40
0.0
 40
0.0
 40
0.0
 40
0.2423791483
 40
0.3660273537
 40
0.4910766541
 40
0.7442015068
 40
1.0
 40
1.0
 40
1.0
 40
1.0
 10
503.0299264327
 20
235.971919704
 30
0.0
 10
503.685710858
 20
235.4063543666
 30
0.0
 10
504.577095913
 20
234.4289071847
 30
0.0
 10
505.5293160377
 20
232.9525432042
 30
0.0
 10
506.3341965435
 20
231.3467065097
 30
0.0
 10
507.0199615605
 20
229.1700905223
 30
0.0
 10
507.204083939
 20
227.346689461
 30
0.0
 10
507.204083939
 20
226.4327668304
 30
0.0
  0
SPLINE
  5
6DA
100
AcDbEntity
  8
RUNDUNGEN
100
AcDbSpline
 62
7
  6
CONTINUOUS
 70
0
 71
3
 72
12
 73
8
 74
0
 42
0.0000001
 43
0.0000001
 44
0.0000000001
 40
0.0
 40
0.0
 40
0.0
 40
0.0
 40
0.0777297324
 40
0.1702090116
 40
0.3975667479
 40
0.676536077
 40
1.0
 40
1.0
 40
1.0
 40
1.0
 10
467.5635351549
 20
233.4029062013
 30
0.0
 10
467.563988058
 20
233.2797570609
 30
0.0
 10
467.5794604412
 20
233.0101760164
 30
0.0
 10
467.6533968052
 20
232.3844915366
 30
0.0
 10
467.8182538466
 20
231.4497197583
 30
0.0
 10
468.071641511
 20
230.1598684185
 30
0.0
 10
468.249528971
 20
229.2220403965
 30
0.0
 10
468.3386980561
 20
228.717382215
 30
0.0
  0
SPLINE
  5
6DB
100
AcDbEntity
  8
RUNDUNGEN
100
AcDbSpline
 62
7
  6
CONTINUOUS
 70
0
 71
3
 72
15
 73
11
 74
0
 42
0.0000001
 43
0.0000001
 44
0.0000000001
 40
0.0
 40
0.0
 40
0.0
 40
0.0
 40
0.1481188552
 40
0.2956522129
 40
0.4395375696
 40
0.5763916473
 40
0.7032350749
 40
0.8175424483
 40
0.916874025
 40
1.0
 40
1.0
 40
1.0
 40
1.0
 10
502.9627749766
 20
231.1783176701
 30
0.0
 10
503.0012065334
 20
231.2154023486
 30
0.0
 10
503.0793999342
 20
231.2880292361
 30
0.0
 10
503.2070139969
 20
231.382729653
 30
0.0
 10
503.3417001422
 20
231.4588432411
 30
0.0
 10
503.475430267
 20
231.5201670532
 30
0.0
 10
503.6041872223
 20
231.565525497
 30
0.0
 10
503.723602463
 20
231.5948298686
 30
0.0
 10
503.8294125883
 20
231.6112937182
 30
0.0
 10
503.8956581747
 20
231.6129332721
 30
0.0
 10
503.9254606976
 20
231.609747141
 30
0.0
  0
SPLINE
  5
6DC
100
AcDbEntity
  8
BEZUGSACHSEN
100
AcDbSpline
 62
7
  6
CONTINUOUS
 70
0
 71
3
 72
15
 73
11
 74
0
 42
0.0000001
 43
0.0000001
 44
0.0000000001
 40
0.0
 40
0.0
 40
0.0
 40
0.0
 40
0.1481188552
 40
0.2956522129
 40
0.4395375696
 40
0.5763916473
 40
0.7032350749
 40
0.8175424483
 40
0.916874025
 40
1.0
 40
1.0
 40
1.0
 40
1.0
 10
502.9627749766
 20
212.6872159908
 30
0.0
 10
503.0012065334
 20
212.6501313122
 30
0.0
 10
503.0793999342
 20
212.5775044248
 30
0.0
 10
503.2070139969
 20
212.4828040079
 30
0.0
 10
503.3417001422
 20
212.4066904198
 30
0.0
 10
503.475430267
 20
212.3453666077
 30
0.0
 10
503.6041872223
 20
212.3000081639
 30
0.0
 10
503.723602463
 20
212.2707037922
 30
0.0
 10
503.8294125883
 20
212.2542399426
 30
0.0
 10
503.8956581747
 20
212.2526003887
 30
0.0
 10
503.9254606976
 20
212.2557865198
 30
0.0
  0
SPLINE
  5
6DD
100
AcDbEntity
  8
BEZUGSACHSEN
100
AcDbSpline
 62
7
  6
CONTINUOUS
 70
0
 71
3
 72
9
 73
5
 74
0
 42
0.0000001
 43
0.0000001
 44
0.0000000001
 40
0.0
 40
0.0
 40
0.0
 40
0.0
 40
0.2605838025
 40
1.0
 40
1.0
 40
1.0
 40
1.0
 10
573.7213781095
 20
231.1783176701
 30
0.0
 10
573.7192833587
 20
231.1897812948
 30
0.0
 10
573.7127375603
 20
231.2340199589
 30
0.0
 10
573.7119749477
 20
231.279215117
 30
0.0
 10
573.7154431042
 20
231.3120998087
 30
0.0
  0
SPLINE
  5
6DE
100
AcDbEntity
  8
RUNDUNGEN
100
AcDbSpline
 62
7
  6
CONTINUOUS
 70
0
 71
3
 72
9
 73
5
 74
0
 42
0.0000001
 43
0.0000001
 44
0.0000000001
 40
0.0
 40
0.0
 40
0.0
 40
0.0
 40
0.2605838025
 40
1.0
 40
1.0
 40
1.0
 40
1.0
 10
573.7213781095
 20
212.6872159908
 30
0.0
 10
573.7192833587
 20
212.6757523661
 30
0.0
 10
573.7127375603
 20
212.6315137019
 30
0.0
 10
573.7119749477
 20
212.5863185438
 30
0.0
 10
573.7154431042
 20
212.5534338522
 30
0.0
  0
SPLINE
  5
6DF
100
AcDbEntity
  8
BEZUGSACHSEN
100
AcDbSpline
 62
7
  6
CONTINUOUS
 70
0
 71
3
 72
9
 73
5
 74
0
 42
0.0000001
 43
0.0000001
 44
0.0000000001
 40
0.0
 40
0.0
 40
0.0
 40
0.0
 40
0.2605838025
 40
1.0
 40
1.0
 40
1.0
 40
1.0
 10
991.0989095262
 20
212.6872159908
 30
0.0
 10
991.1010042769
 20
212.6757523661
 30
0.0
 10
991.1075500754
 20
212.6315137019
 30
0.0
 10
991.108312688
 20
212.5863185438
 30
0.0
 10
991.1048445314
 20
212.5534338522
 30
0.0
  0
SPLINE
  5
6E0
100
AcDbEntity
  8
0
100
AcDbSpline
 62
7
  6
CONTINUOUS
 70
0
 71
3
 72
9
 73
5
 74
0
 42
0.0000001
 43
0.0000001
 44
0.0000000001
 40
0.0
 40
0.0
 40
0.0
 40
0.0
 40
0.4999569951
 40
1.0
 40
1.0
 40
1.0
 40
1.0
 10
927.4101438178
 20
228.4711152457
 30
0.0
 10
928.1709647361
 20
228.4711152457
 30
0.0
 10
929.6983324083
 20
228.6594491622
 30
0.0
 10
931.1355099256
 20
229.2051377081
 30
0.0
 10
931.8117695366
 20
229.5540224873
 30
0.0
  0
SPLINE
  5
6E1
100
AcDbEntity
  8
RUNDUNGEN
100
AcDbSpline
 62
7
  6
CONTINUOUS
 70
0
 71
3
 72
9
 73
5
 74
0
 42
0.0000001
 43
0.0000001
 44
0.0000000001
 40
0.0
 40
0.0
 40
0.0
 40
0.0
 40
0.2605838025
 40
1.0
 40
1.0
 40
1.0
 40
1.0
 10
991.0989095262
 20
231.1783176701
 30
0.0
 10
991.1010042769
 20
231.1897812948
 30
0.0
 10
991.1075500754
 20
231.2340199589
 30
0.0
 10
991.108312688
 20
231.279215117
 30
0.0
 10
991.1048445314
 20
231.3120998087
 30
0.0
  0
SPLINE
  5
6E2
100
AcDbEntity
  8
BEZUGSACHSEN
100
AcDbSpline
 62
7
  6
CONTINUOUS
 70
0
 71
3
 72
11
 73
7
 74
0
 42
0.0000001
 43
0.0000001
 44
0.0000000001
 40
0.0
 40
0.0
 40
0.0
 40
0.0
 40
0.212042077
 40
0.4591912553
 40
0.7258786391
 40
1.0
 40
1.0
 40
1.0
 40
1.0
 10
401.0469363158
 20
-61.9340846038
 30
0.0
 10
401.0612471895
 20
-62.0152459439
 30
0.0
 10
401.0491791767
 20
-62.198421557
 30
0.0
 10
400.9453589546
 20
-62.4640324975
 30
0.0
 10
400.7601919285
 20
-62.7127897483
 30
0.0
 10
400.5913061469
 20
-62.8427188828
 30
0.0
 10
400.4994937399
 20
-62.8967703248
 30
0.0
  0
SPLINE
  5
6E3
100
AcDbEntity
  8
0
100
AcDbSpline
 62
7
  6
CONTINUOUS
 70
0
 71
3
 72
20
 73
16
 74
0
 42
0.0000001
 43
0.0000001
 44
0.0000000001
 40
0.0
 40
0.0
 40
0.0
 40
0.0
 40
0.1324238869
 40
0.1927997126
 40
0.2486926983
 40
0.3002656992
 40
0.3487072456
 40
0.3963875356
 40
0.4461491776
 40
0.5001612761
 40
0.5593982585
 40
0.6238722078
 40
0.6930523965
 40
0.8423086931
 40
1.0
 40
1.0
 40
1.0
 40
1.0
 10
42.9565448887
 20
-40.1190167458
 30
0.0
 10
42.9565448887
 20
-39.8437127315
 30
0.0
 10
42.9665302426
 20
-39.4420898975
 30
0.0
 10
43.0344063758
 20
-38.9289354856
 30
0.0
 10
43.1166744531
 20
-38.5888847195
 30
0.0
 10
43.2407210031
 20
-38.2875350347
 30
0.0
 10
43.4160849189
 20
-38.0319967291
 30
0.0
 10
43.6472844444
 20
-37.8306727785
 30
0.0
 10
43.9296873222
 20
-37.685828704
 30
0.0
 10
44.2562867021
 20
-37.5903311193
 30
0.0
 10
44.6219446643
 20
-37.5330986344
 30
0.0
 10
45.0221337307
 20
-37.5036867892
 30
0.0
 10
45.6102246495
 20
-37.4890491989
 30
0.0
 10
46.3922101729
 20
-37.4974969678
 30
0.0
 10
47.0303480969
 20
-37.4996279623
 30
0.0
 10
47.3581706074
 20
-37.4968857715
 30
0.0
  0
SPLINE
  5
6E4
100
AcDbEntity
  8
RUNDUNGEN
100
AcDbSpline
 62
7
  6
CONTINUOUS
 70
0
 71
3
 72
11
 73
7
 74
0
 42
0.0000001
 43
0.0000001
 44
0.0000000001
 40
0.0
 40
0.0
 40
0.0
 40
0.0
 40
0.212042077
 40
0.4591912553
 40
0.7258786391
 40
1.0
 40
1.0
 40
1.0
 40
1.0
 10
-16.3305951009
 20
-61.9340846038
 30
0.0
 10
-16.3449059746
 20
-62.0152459439
 30
0.0
 10
-16.3328379618
 20
-62.198421557
 30
0.0
 10
-16.2290177397
 20
-62.4640324975
 30
0.0
 10
-16.0438507136
 20
-62.7127897483
 30
0.0
 10
-15.874964932
 20
-62.8427188828
 30
0.0
 10
-15.783152525
 20
-62.8967703248
 30
0.0
  0
ENDSEC
  0
SECTION
  2
OBJECTS
  0
DICTIONARY
  5
C
100
AcDbDictionary
280
0
281
1
  3
ACAD_GROUP
350
D
  3
ACAD_MLINESTYLE
350
17
  3
ACAD_LAYOUT
350
1A
  3
ACAD_PLOTSETTINGS
350
19
  3
ACAD_PLOTSTYLENAME
350
E
  0
DICTIONARY
  5
D
102
{ACAD_REACTORS
330
C
102
}
100
AcDbDictionary
280
0
281
1
  0
ACDBDICTIONARYWDFLT
  5
E
102
{ACAD_REACTORS
330
C
102
}
100
AcDbDictionary
281
1
  3
Normal
350
F
100
AcDbDictionaryWithDefault
340
F
  0
DICTIONARY
  5
17
102
{ACAD_REACTORS
330
C
102
}
100
AcDbDictionary
280
0
281
1
  3
Standard
350
18
  0
DICTIONARY
  5
19
102
{ACAD_REACTORS
330
C
102
}
100
AcDbDictionary
281
1
  0
DICTIONARY
  5
1A
102
{ACAD_REACTORS
330
C
102
}
100
AcDbDictionary
281
1
  3
Model
350
6E5
  3
Layout1
350
6E6
  0
ACDBPLACEHOLDER
  5
F
102
{ACAD_REACTORS
330
E
102
}
  0
MLINESTYLE
  5
18
102
{ACAD_REACTORS
330
17
102
}
100
AcDbMlineStyle
  2
STANDARD
 70
0
  3

 62
256
 51
90.0
 52
90.0
 71
2
 49
0.5
 62
256
  6
BYLAYER
 49
-0.5
 62
256
  6
BYLAYER
  0
LAYOUT
  5
6E5
102
{ACAD_REACTORS
330
1A
102
}
100
AcDbPlotSettings
  1

  2
none_device
  4
ISO_A3_(420.00_x_297.00_MM)
  6

 40
0.0
 41
0.0
 42
0.0
 43
0.0
 44
420.0
 45
297.0
 46
0.0
 47
0.0
 48
0.0
 49
0.0
140
0.0
141
0.0
142
1.0
143
1.0
 70
1024
 72
1
 73
0
 74
0
  7

 75
0
147
1.0
148
0.0
149
0.0
100
AcDbLayout
  1
Model
 70
0
 71
0
 10
0.0
 20
0.0
 11
420.0
 21
297.0
 12
0.0
 22
0.0
 32
0.0
 14
0.0
 24
0.0
 34
0.0
 15
0.0
 25
0.0
 35
0.0
146
0.0
 13
0.0
 23
0.0
 33
0.0
 16
1.0
 26
0.0
 36
0.0
 17
0.0
 27
1.0
 37
0.0
 76
0
330
20E
345
0
346
0
  0
LAYOUT
  5
6E6
102
{ACAD_REACTORS
330
1A
102
}
100
AcDbPlotSettings
  1

  2
none_device
  4
ISO_A3_(420.00_x_297.00_MM)
  6

 40
0.0
 41
0.0
 42
0.0
 43
0.0
 44
420.0
 45
297.0
 46
0.0
 47
0.0
 48
0.0
 49
0.0
140
0.0
141
0.0
142
1.0
143
1.0
 70
0
 72
1
 73
0
 74
0
  7

 75
0
147
1.0
148
0.0
149
0.0
100
AcDbLayout
  1
Layout1
 70
0
 71
1
 10
0.0
 20
0.0
 11
420.0
 21
297.0
 12
0.0
 22
0.0
 32
0.0
 14
0.0
 24
0.0
 34
0.0
 15
0.0
 25
0.0
 35
0.0
146
0.0
 13
0.0
 23
0.0
 33
0.0
 16
1.0
 26
0.0
 36
0.0
 17
0.0
 27
1.0
 37
0.0
 76
0
330
20F
345
0
346
0
  0
ENDSEC
  0
EOF
