999
DXF file: ICE-CURT-10-SL-KPL_7999436_M33787-P-2.dxf
999
Pro/ENGINEER 2010140 by Parametric Technology Corporation
  0
SECTION
  2
HEADER
  9
$ACADVER
  1
AC1015
  9
$DWGCODEPAGE
  3
ANSI_1252
  9
$EXTMAX
 10
420.0
 20
297.0
 30
0.0
  9
$EXTMIN
 10
0.0
 20
0.0
 30
0.0
  9
$LIMMIN
 10
0.0
 20
0.0
  9
$LIMMAX
 10
420.0
 20
297.0
  9
$VIEWCTR
 10
210.0
 20
148.5
  9
$VIEWSIZE
 40
297.0
  9
$CLAYER
  8
0
  9
$LTSCALE
 40
23.1
  9
$CELTYPE
  6
BYLAYER
  9
$DIMSCALE
 40
1.0
  9
$DIMASZ
 40
3.5
  9
$DIMEXO
 40
2.625
  9
$DIMDLI
 40
15.96
  9
$DIMEXE
 40
7.56
  9
$DIMCEN
 40
3.78
  9
$DIMLFAC
 40
1.0
  9
$DIMBLK
  1
_FILLED
  9
$DIMTXT
 40
3.5
  9
$DIMTOL
 70
1
  9
$DIMLIM
 70
0
  9
$DIMTFAC
 40
1.0
  9
$DIMTP
 40
0.005
  9
$DIMTM
 40
0.005
  9
$PDMODE
 70
3
  9
$PDSIZE
 40
0.3125
  9
$HANDSEED
  5
628
  9
$TILEMODE
 70
1
  9
$MEASUREMENT
 70
1
  9
$INSUNITS
 70
4
  0
ENDSEC
  0
SECTION
  2
CLASSES
  0
CLASS
  1
ACDBDICTIONARYWDFLT
  2
AcDbDictionaryWithDefault
  3
AutoCAD 2000
 90
0
280
0
281
0
  0
CLASS
  1
ACDBPLACEHOLDER
  2
AcDbPlaceHolder
  3
AutoCAD 2000
 90
0
280
0
281
0
  0
CLASS
  1
LAYOUT
  2
AcDbLayout
  3
AutoCAD 2000
 90
0
280
0
281
0
  0
ENDSEC
  0
SECTION
  2
TABLES
  0
TABLE
  2
VPORT
  5
8
100
AcDbSymbolTable
 70
2
  0
VPORT
  5
1F4
100
AcDbSymbolTableRecord
100
AcDbViewportTableRecord
  2
*ACTIVE
 70
0
 10
0.0
 20
0.0
 11
1.0
 21
1.0
 12
210.0
 22
148.5
 13
0.0
 23
0.0
 14
1.0
 24
1.0
 15
0.0
 25
0.0
 16
0.0
 26
0.0
 36
1.0
 17
0.0
 27
0.0
 37
0.0
 40
297.0
 41
1.4141414141
 42
50.0
 43
0.0
 44
0.0
 50
0.0
 51
0.0
 71
0
 72
100
 73
1
 74
1
 75
0
 76
0
 77
0
 78
0
  0
ENDTAB
  0
TABLE
  2
LTYPE
  5
5
100
AcDbSymbolTable
 70
6
  0
LTYPE
  5
14
100
AcDbSymbolTableRecord
100
AcDbLinetypeTableRecord
  2
BYBLOCK
 70
0
  3

 72
65
 73
0
 40
0.0
  0
LTYPE
  5
15
100
AcDbSymbolTableRecord
100
AcDbLinetypeTableRecord
  2
BYLAYER
 70
0
  3

 72
65
 73
0
 40
0.0
  0
LTYPE
  5
16
100
AcDbSymbolTableRecord
100
AcDbLinetypeTableRecord
  2
CONTINUOUS
 70
64
  3
Solid line
 72
65
 73
0
 40
0.0
  0
LTYPE
  5
1F5
100
AcDbSymbolTableRecord
100
AcDbLinetypeTableRecord
  2
CENTER
 70
64
  3
____ _ ____ _ ____ _ ____ _ ____ _ ____ _ ____
 72
65
 73
4
 40
0.6
 49
0.375
 74
0
 49
-0.075
 74
0
 49
0.075
 74
0
 49
-0.075
 74
0
  0
LTYPE
  5
1F6
100
AcDbSymbolTableRecord
100
AcDbLinetypeTableRecord
  2
HIDDEN
 70
64
  3
- - - - - - - - - - - - - - - - - - - -
 72
65
 73
2
 40
0.2
 49
0.1
 74
0
 49
-0.1
 74
0
  0
LTYPE
  5
1F7
100
AcDbSymbolTableRecord
100
AcDbLinetypeTableRecord
  2
PHANTOM
 70
64
  3
_____ _ _ _____ _ _ _____ _ _ _____
 72
65
 73
6
 40
0.8
 49
0.45
 74
0
 49
-0.05
 74
0
 49
0.1
 74
0
 49
-0.05
 74
0
 49
0.1
 74
0
 49
-0.05
 74
0
  0
LTYPE
  5
1F8
100
AcDbSymbolTableRecord
100
AcDbLinetypeTableRecord
  2
DOT
 70
64
  3
. . . . . . . . . . . . . . . . . . . .
 72
65
 73
2
 40
0.2
 49
0.1
 74
0
 49
-0.1
 74
0
  0
LTYPE
  5
1F9
100
AcDbSymbolTableRecord
100
AcDbLinetypeTableRecord
  2
DASHED
 70
64
  3
- - - - - - - - - - - - - - - - - - - -
 72
65
 73
2
 40
0.2
 49
0.1
 74
0
 49
-0.1
 74
0
  0
ENDTAB
  0
TABLE
  2
LAYER
  5
2
100
AcDbSymbolTable
 70
36
  0
LAYER
  5
10
100
AcDbSymbolTableRecord
100
AcDbLayerTableRecord
  2
0
 70
0
 62
7
  6
CONTINUOUS
370
-3
390
F
  0
LAYER
  5
1FA
100
AcDbSymbolTableRecord
100
AcDbLayerTableRecord
  2
DEFAULT_1
 70
0
 62
7
  6
CENTER
370
-3
390
F
  0
LAYER
  5
1FB
100
AcDbSymbolTableRecord
100
AcDbLayerTableRecord
  2
DEFAULT_2
 70
0
 62
8
  6
HIDDEN
370
-3
390
F
  0
LAYER
  5
1FC
100
AcDbSymbolTableRecord
100
AcDbLayerTableRecord
  2
DEFAULT_3
 70
0
 62
7
  6
PHANTOM
370
-3
390
F
  0
LAYER
  5
1FD
100
AcDbSymbolTableRecord
100
AcDbLayerTableRecord
  2
AUSFORMSCHRAEGEN
 70
0
 62
7
  6
CONTINUOUS
370
-3
390
F
  0
LAYER
  5
1FE
100
AcDbSymbolTableRecord
100
AcDbLayerTableRecord
  2
BEZUGSACHSEN
 70
0
 62
7
  6
CONTINUOUS
370
-3
390
F
  0
LAYER
  5
1FF
100
AcDbSymbolTableRecord
100
AcDbLayerTableRecord
  2
BEZUGSEBENEN
 70
0
 62
7
  6
CONTINUOUS
370
-3
390
F
  0
LAYER
  5
200
100
AcDbSymbolTableRecord
100
AcDbLayerTableRecord
  2
BG_STARTBEZUEGE
 70
0
 62
7
  6
CONTINUOUS
370
-3
390
F
  0
LAYER
  5
201
100
AcDbSymbolTableRecord
100
AcDbLayerTableRecord
  2
FASEN
 70
0
 62
7
  6
CONTINUOUS
370
-3
390
F
  0
LAYER
  5
202
100
AcDbSymbolTableRecord
100
AcDbLayerTableRecord
  2
FLAECHEN
 70
0
 62
7
  6
CONTINUOUS
370
-3
390
F
  0
LAYER
  5
203
100
AcDbSymbolTableRecord
100
AcDbLayerTableRecord
  2
FLAECHENVERBUND
 70
0
 62
7
  6
CONTINUOUS
370
-3
390
F
  0
LAYER
  5
204
100
AcDbSymbolTableRecord
100
AcDbLayerTableRecord
  2
HILFEN
 70
0
 62
7
  6
CONTINUOUS
370
-3
390
F
  0
LAYER
  5
205
100
AcDbSymbolTableRecord
100
AcDbLayerTableRecord
  2
KONSTRUKTIONSELEMENTE
 70
0
 62
7
  6
CONTINUOUS
370
-3
390
F
  0
LAYER
  5
206
100
AcDbSymbolTableRecord
100
AcDbLayerTableRecord
  2
KURVEN
 70
0
 62
7
  6
CONTINUOUS
370
-3
390
F
  0
LAYER
  5
207
100
AcDbSymbolTableRecord
100
AcDbLayerTableRecord
  2
NORM
 70
0
 62
7
  6
CONTINUOUS
370
-3
390
F
  0
LAYER
  5
208
100
AcDbSymbolTableRecord
100
AcDbLayerTableRecord
  2
PLATZIERUNG
 70
0
 62
7
  6
CONTINUOUS
370
-3
390
F
  0
LAYER
  5
209
100
AcDbSymbolTableRecord
100
AcDbLayerTableRecord
  2
RUNDUNGEN
 70
0
 62
7
  6
CONTINUOUS
370
-3
390
F
  0
LAYER
  5
20A
100
AcDbSymbolTableRecord
100
AcDbLayerTableRecord
  2
TEIL_STARTBEZUEGE
 70
0
 62
7
  6
CONTINUOUS
370
-3
390
F
  0
LAYER
  5
20B
100
AcDbSymbolTableRecord
100
AcDbLayerTableRecord
  2
T_STARTBEZUEGE
 70
0
 62
7
  6
CONTINUOUS
370
-3
390
F
  0
LAYER
  5
20C
100
AcDbSymbolTableRecord
100
AcDbLayerTableRecord
  2
ZEICHNUNGSBEMASSUNGEN
 70
0
 62
7
  6
CONTINUOUS
370
-3
390
F
  0
ENDTAB
  0
TABLE
  2
STYLE
  5
3
100
AcDbSymbolTable
 70
1
  0
STYLE
  5
11
100
AcDbSymbolTableRecord
100
AcDbTextStyleTableRecord
  2
STANDARD
 70
0
 40
0.0
 41
0.7
 50
0.0
 71
0
 42
0.2
  3
txt
  4

  0
STYLE
  5
20D
100
AcDbSymbolTableRecord
100
AcDbTextStyleTableRecord
  2
TEXTSTYLE_1
 70
0
 40
0.0
 41
0.8
 50
0.0
 71
0
 42
0.2
  3
gdt
  4

  0
ENDTAB
  0
TABLE
  2
VIEW
  5
6
100
AcDbSymbolTable
 70
0
  0
ENDTAB
  0
TABLE
  2
UCS
  5
7
100
AcDbSymbolTable
 70
0
  0
ENDTAB
  0
TABLE
  2
APPID
  5
9
100
AcDbSymbolTable
 70
1
  0
APPID
  5
20E
100
AcDbSymbolTableRecord
100
AcDbRegAppTableRecord
  2
ACAD
 70
0
  0
ENDTAB
  0
TABLE
  2
BLOCK_RECORD
  5
1
100
AcDbSymbolTable
 70
0
  0
BLOCK_RECORD
  5
20F
100
AcDbSymbolTableRecord
100
AcDbBlockTableRecord
  2
*Model_Space
  0
BLOCK_RECORD
  5
210
100
AcDbSymbolTableRecord
100
AcDbBlockTableRecord
  2
*Paper_Space
  0
ENDTAB
  0
TABLE
  2
DIMSTYLE
  5
A
100
AcDbSymbolTable
 70
1
100
AcDbDimStyleTable
 71
0
  0
DIMSTYLE
105
211
100
AcDbSymbolTableRecord
100
AcDbDimStyleTableRecord
  2
STANDARD
 70
0
  3

  4

 40
1.0
 41
3.5
 42
0.0625
 43
0.38
 44
0.18
 45
0.0
 46
0.0
 47
0.005
 48
0.005
140
3.5
141
0.09
142
0.0
143
25.4
144
1.0
145
0.0
146
1.0
147
0.09
 71
1.0
 72
0.0
 73
0
 74
0
 75
0
 76
0
 77
1
 78
8
170
0
171
2
172
0
173
0
174
0
175
0
176
0
177
0
178
5
270
2
271
3
272
3
273
2
274
2
275
0
280
0
281
0
282
0
283
1
284
8
285
0
286
0
287
3
288
0
340
11
  0
ENDTAB
  0
ENDSEC
  0
SECTION
  2
BLOCKS
  0
BLOCK
  5
20
100
AcDbEntity
  8
0
100
AcDbBlockBegin
  2
*Model_Space
 70
0
 10
0.0
 20
0.0
 30
0.0
  3
*Model_Space
  1

  0
ENDBLK
  5
21
100
AcDbEntity
  8
0
100
AcDbBlockEnd
  0
BLOCK
  5
1C
100
AcDbEntity
  8
0
100
AcDbBlockBegin
  2
*Paper_Space
 70
0
 10
0.0
 20
0.0
 30
0.0
  3
*Paper_Space
  1

  0
ENDBLK
  5
1D
100
AcDbEntity
  8
0
100
AcDbBlockEnd
  0
ENDSEC
  0
SECTION
  2
ENTITIES
  0
MTEXT
  5
212
100
AcDbEntity
  8
0
100
AcDbMText
 62
5
  6
CONTINUOUS
  7
STANDARD
 71
1
 72
1
 10
258.2696823776
 20
143.5724157887
 30
0.0
 11
0.0
 21
1.0
 31
0.0
 44
0.9
  1
ICE-CURT 10 RUD
 40
9.0
 41
105.8571428571
  0
MTEXT
  5
213
100
AcDbEntity
  8
0
100
AcDbMText
 62
5
  6
CONTINUOUS
  7
STANDARD
 71
1
 72
1
 10
702.4957376977
 20
157.0633102439
 30
0.0
 11
0.0
 21
1.0
 31
0.0
 44
0.9
  1
ICE-CURT 10 RUD
 40
9.0
 41
105.8571428571
  0
MTEXT
  5
214
100
AcDbEntity
  8
0
100
AcDbMText
 62
5
  6
CONTINUOUS
  7
STANDARD
 71
1
 72
1
 10
1152.0005833473
 20
150.7754251476
 30
0.0
 11
0.0
 21
1.0
 31
0.0
 44
0.9
  1
ICE-CURT 10 RUD
 40
9.0
 41
105.8571428571
  0
MTEXT
  5
215
100
AcDbEntity
  8
0
100
AcDbMText
 62
5
  6
CONTINUOUS
  7
STANDARD
 71
2
 72
1
 10
337.0950435952
 20
553.1042194299
 30
0.0
 11
1.0
 21
0.0
 31
0.0
 44
0.9
  1
ICE-CURT 10\PRUD
 40
9.0
 41
76.5
  0
MTEXT
  5
216
100
AcDbEntity
  8
0
100
AcDbMText
 62
5
  6
CONTINUOUS
  7
STANDARD
 71
2
 72
1
 10
332.4319939019
 20
-63.1031429375
 30
0.0
 11
1.0
 21
0.0
 31
0.0
 44
0.9
  1
ICE-CURT 10\PRUD
 40
9.0
 41
76.5
  0
LINE
  5
217
100
AcDbEntity
  8
0
100
AcDbLine
 62
7
  6
CONTINUOUS
 10
0.0
 20
0.0
 11
0.0
 21
297.0
  0
LINE
  5
218
100
AcDbEntity
  8
0
100
AcDbLine
 62
7
  6
CONTINUOUS
 10
0.0
 20
0.0
 11
420.0
 21
0.0
  0
LINE
  5
219
100
AcDbEntity
  8
0
100
AcDbLine
 62
7
  6
CONTINUOUS
 10
0.0
 20
297.0
 11
420.0
 21
297.0
  0
LINE
  5
21A
100
AcDbEntity
  8
0
100
AcDbLine
 62
7
  6
CONTINUOUS
 10
420.0
 20
0.0
 11
420.0
 21
297.0
  0
LINE
  5
21B
100
AcDbEntity
  8
RUNDUNGEN
100
AcDbLine
 62
7
  6
CONTINUOUS
 10
-49.8841722006
 20
403.8717016244
 11
-49.9110178208
 21
403.7053739626
  0
LWPOLYLINE
  5
21C
100
AcDbEntity
  8
RUNDUNGEN
100
AcDbPolyline
 62
7
  6
CONTINUOUS
 90
3
 70
0
 10
-49.7910234977
 20
404.1755294115
 10
-49.8415587344
 20
404.0349646208
 10
-49.8841722006
 20
403.8717016244
  0
LINE
  5
21D
100
AcDbEntity
  8
RUNDUNGEN
100
AcDbLine
 62
7
  6
CONTINUOUS
 10
-49.7910234977
 20
404.1755294115
 11
-49.7908282588
 21
404.1760079095
  0
LWPOLYLINE
  5
21E
100
AcDbEntity
  8
BEZUGSACHSEN
100
AcDbPolyline
 62
7
  6
CONTINUOUS
 90
8
 70
0
 10
-50.0786328068
 20
382.3484108157
 10
-50.0764049169
 20
381.7183619755
 10
-50.0673966168
 20
380.934519618
 10
-50.0514405196
 20
380.151745864
 10
-50.0285224069
 20
379.3720184975
 10
-49.9986489814
 20
378.5972870713
 10
-49.9618480395
 20
377.829500317
 10
-49.918726141
 20
377.0795316081
  0
LWPOLYLINE
  5
21F
100
AcDbEntity
  8
RUNDUNGEN
100
AcDbPolyline
 62
7
  6
CONTINUOUS
 90
8
 70
0
 10
-49.918726141
 20
403.6172900233
 10
-49.9618480395
 20
402.8673213144
 10
-49.9986489814
 20
402.0995345601
 10
-50.0285224069
 20
401.3248031339
 10
-50.0514405196
 20
400.5450757674
 10
-50.0673966168
 20
399.7623020135
 10
-50.0764049169
 20
398.978459656
 10
-50.0786328383
 20
382.3484108157
  0
LINE
  5
220
100
AcDbEntity
  8
RUNDUNGEN
100
AcDbLine
 62
7
  6
CONTINUOUS
 10
-49.9110178208
 20
403.7053739626
 11
-49.9187205022
 21
403.6173628752
  0
LINE
  5
221
100
AcDbEntity
  8
BEZUGSACHSEN
100
AcDbLine
 62
7
  6
CONTINUOUS
 10
-49.9187204786
 20
377.0794583765
 11
-49.910992915
 21
376.9912270015
  0
LINE
  5
222
100
AcDbEntity
  8
BEZUGSACHSEN
100
AcDbLine
 62
7
  6
CONTINUOUS
 10
-37.2959724271
 20
394.598347827
 11
-37.2959724271
 21
386.0984738044
  0
LINE
  5
223
100
AcDbEntity
  8
BEZUGSACHSEN
100
AcDbLine
 62
7
  6
CONTINUOUS
 10
-49.910992915
 20
376.9912270015
 11
-49.8841372491
 21
376.8249541653
  0
LINE
  5
224
100
AcDbEntity
  8
RUNDUNGEN
100
AcDbLine
 62
7
  6
CONTINUOUS
 10
-24.5305028954
 20
420.2585076433
 11
-40.6952176366
 21
413.3969933244
  0
LWPOLYLINE
  5
225
100
AcDbEntity
  8
BEZUGSACHSEN
100
AcDbPolyline
 62
7
  6
CONTINUOUS
 90
3
 70
0
 10
-49.8841372491
 20
376.8249541653
 10
-49.8415279613
 20
376.6617585699
 10
-49.7910234032
 20
376.5212919881
  0
LINE
  5
226
100
AcDbEntity
  8
BEZUGSACHSEN
100
AcDbLine
 62
7
  6
CONTINUOUS
 10
-49.7910234032
 20
376.5212919881
 11
-49.7908282588
 21
376.520813722
  0
LINE
  5
227
100
AcDbEntity
  8
0
100
AcDbLine
 62
7
  6
CONTINUOUS
 10
62.1403572982
 20
378.0052650652
 11
61.1121827052
 21
376.9770904722
  0
LINE
  5
228
100
AcDbEntity
  8
RUNDUNGEN
100
AcDbLine
 62
7
  6
CONTINUOUS
 10
62.1403572982
 20
378.0052650652
 11
61.1121827052
 21
376.9770904722
  0
LINE
  5
229
100
AcDbEntity
  8
BEZUGSACHSEN
100
AcDbLine
 62
7
  6
CONTINUOUS
 10
47.6840704828
 20
373.4189181154
 11
24.7677187219
 21
360.1881562574
  0
LINE
  5
22A
100
AcDbEntity
  8
0
100
AcDbLine
 62
7
  6
CONTINUOUS
 10
138.8753595545
 20
366.3484108157
 11
144.7247113508
 21
370.4441710372
  0
LINE
  5
22B
100
AcDbEntity
  8
BEZUGSACHSEN
100
AcDbLine
 62
7
  6
CONTINUOUS
 10
261.4472115477
 20
70.3484108157
 11
263.4472115477
 21
70.3484108157
  0
LINE
  5
22C
100
AcDbEntity
  8
RUNDUNGEN
100
AcDbLine
 62
7
  6
CONTINUOUS
 10
102.9472115477
 20
414.348410763
 11
102.9472115477
 21
366.3484108685
  0
LINE
  5
22D
100
AcDbEntity
  8
RUNDUNGEN
100
AcDbLine
 62
7
  6
CONTINUOUS
 10
109.9472115477
 20
364.8484108157
 11
109.9472115477
 21
415.8484108157
  0
LINE
  5
22E
100
AcDbEntity
  8
0
100
AcDbLine
 62
7
  6
CONTINUOUS
 10
198.7972115477
 20
382.8484108157
 11
196.2972115477
 21
380.3484108157
  0
LINE
  5
22F
100
AcDbEntity
  8
0
100
AcDbLine
 62
7
  6
CONTINUOUS
 10
238.283643034
 20
409.4690255742
 11
238.9946090933
 21
409.7277960573
  0
LINE
  5
230
100
AcDbEntity
  8
RUNDUNGEN
100
AcDbLine
 62
7
  6
CONTINUOUS
 10
124.9472115477
 20
413.3484108157
 11
124.9472115477
 21
367.3484108157
  0
LINE
  5
231
100
AcDbEntity
  8
RUNDUNGEN
100
AcDbLine
 62
7
  6
CONTINUOUS
 10
129.4472115477
 20
383.202632205
 11
129.4472115477
 21
397.4941894264
  0
LINE
  5
232
100
AcDbEntity
  8
RUNDUNGEN
100
AcDbLine
 62
7
  6
CONTINUOUS
 10
138.8753595545
 20
414.3484108157
 11
138.8753595545
 21
397.4941894264
  0
LINE
  5
233
100
AcDbEntity
  8
RUNDUNGEN
100
AcDbLine
 62
7
  6
CONTINUOUS
 10
138.8753595545
 20
383.202632205
 11
138.8753595545
 21
366.3484108157
  0
LINE
  5
234
100
AcDbEntity
  8
RUNDUNGEN
100
AcDbLine
 62
7
  6
CONTINUOUS
 10
151.4472115477
 20
395.3486361988
 11
151.4472115477
 21
385.3483567309
  0
LINE
  5
235
100
AcDbEntity
  8
0
100
AcDbLine
 62
7
  6
CONTINUOUS
 10
285.8998140021
 20
370.9690255742
 11
286.6107800614
 21
371.2277960573
  0
LINE
  5
236
100
AcDbEntity
  8
0
100
AcDbLine
 62
7
  6
CONTINUOUS
 10
196.2972115477
 20
400.3484108157
 11
196.2972115477
 21
385.3484108157
  0
LINE
  5
237
100
AcDbEntity
  8
0
100
AcDbLine
 62
7
  6
CONTINUOUS
 10
196.2972115477
 20
381.6881567779
 11
196.2972115477
 21
380.3484108157
  0
LINE
  5
238
100
AcDbEntity
  8
0
100
AcDbLine
 62
7
  6
CONTINUOUS
 10
198.7972115477
 20
397.8484108157
 11
198.7972115477
 21
385.3484108157
  0
LINE
  5
239
100
AcDbEntity
  8
0
100
AcDbLine
 62
7
  6
CONTINUOUS
 10
198.7972115477
 20
384.758240872
 11
198.7972115477
 21
382.8484108157
  0
LINE
  5
23A
100
AcDbEntity
  8
0
100
AcDbLine
 62
7
  6
CONTINUOUS
 10
209.7972115477
 20
382.8484439839
 11
209.7972115477
 21
397.8483787084
  0
LINE
  5
23B
100
AcDbEntity
  8
0
100
AcDbLine
 62
7
  6
CONTINUOUS
 10
336.0972115477
 20
397.8484108157
 11
338.5972115477
 21
400.3484108157
  0
LINE
  5
23C
100
AcDbEntity
  8
BEZUGSACHSEN
100
AcDbLine
 62
7
  6
CONTINUOUS
 10
477.2103526126
 20
407.2779035161
 11
500.1267043736
 21
420.5086653741
  0
LINE
  5
23D
100
AcDbEntity
  8
0
100
AcDbLine
 62
7
  6
CONTINUOUS
 10
62.1403572982
 20
402.6915565662
 11
61.1121827052
 21
403.7197311593
  0
LINE
  5
23E
100
AcDbEntity
  8
RUNDUNGEN
100
AcDbLine
 62
7
  6
CONTINUOUS
 10
62.1403572982
 20
402.6915565662
 11
61.1121827052
 21
403.7197311593
  0
LINE
  5
23F
100
AcDbEntity
  8
BEZUGSACHSEN
100
AcDbLine
 62
7
  6
CONTINUOUS
 10
244.4472115477
 20
326.9374918774
 11
244.4472115477
 21
416.3483317465
  0
LINE
  5
240
100
AcDbEntity
  8
BEZUGSACHSEN
100
AcDbLine
 62
7
  6
CONTINUOUS
 10
253.4472115477
 20
78.3484108157
 11
253.4472115477
 21
293.259329754
  0
LINE
  5
241
100
AcDbEntity
  8
0
100
AcDbLine
 62
7
  6
CONTINUOUS
 10
255.4472115477
 20
362.3484108157
 11
255.4472115477
 21
421.3484108157
  0
LINE
  5
242
100
AcDbEntity
  8
RUNDUNGEN
100
AcDbLine
 62
7
  6
CONTINUOUS
 10
271.8943464348
 20
296.3636875435
 11
279.9974738483
 21
323.8242997232
  0
LINE
  5
243
100
AcDbEntity
  8
BEZUGSACHSEN
100
AcDbLine
 62
7
  6
CONTINUOUS
 10
-24.5305028954
 20
360.4383139882
 11
-40.6952176366
 21
367.299828307
  0
LINE
  5
244
100
AcDbEntity
  8
0
100
AcDbLine
 62
7
  6
CONTINUOUS
 10
269.4472115477
 20
421.3484108157
 11
269.4472115477
 21
362.3484108157
  0
LINE
  5
245
100
AcDbEntity
  8
RUNDUNGEN
100
AcDbLine
 62
7
  6
CONTINUOUS
 10
271.4472115477
 20
78.3484108157
 11
271.4472115477
 21
293.259329754
  0
LINE
  5
246
100
AcDbEntity
  8
RUNDUNGEN
100
AcDbLine
 62
7
  6
CONTINUOUS
 10
280.4472115477
 20
326.9374918774
 11
280.4472115477
 21
416.3483317465
  0
LINE
  5
247
100
AcDbEntity
  8
RUNDUNGEN
100
AcDbLine
 62
7
  6
CONTINUOUS
 10
549.4249259908
 20
360.4383139882
 11
565.589640732
 21
367.299828307
  0
LINE
  5
248
100
AcDbEntity
  8
BEZUGSACHSEN
100
AcDbLine
 62
7
  6
CONTINUOUS
 10
244.8969492472
 20
323.8242997232
 11
253.0007497398
 21
296.3614202758
  0
LINE
  5
249
100
AcDbEntity
  8
0
100
AcDbLine
 62
7
  6
CONTINUOUS
 10
462.7540657972
 20
402.6915565662
 11
463.7822403903
 21
403.7197311593
  0
LINE
  5
24A
100
AcDbEntity
  8
RUNDUNGEN
100
AcDbLine
 62
7
  6
CONTINUOUS
 10
462.7540657972
 20
402.6915565662
 11
463.7822403903
 21
403.7197311593
  0
LINE
  5
24B
100
AcDbEntity
  8
RUNDUNGEN
100
AcDbLine
 62
7
  6
CONTINUOUS
 10
47.6840704828
 20
407.2779035161
 11
24.7677187219
 21
420.5086653741
  0
LINE
  5
24C
100
AcDbEntity
  8
0
100
AcDbLine
 62
7
  6
CONTINUOUS
 10
325.0972115477
 20
382.8484108157
 11
325.0972115477
 21
397.8484108157
  0
LINE
  5
24D
100
AcDbEntity
  8
0
100
AcDbLine
 62
7
  6
CONTINUOUS
 10
336.0972115477
 20
382.8484108157
 11
336.0972115477
 21
397.8484108157
  0
LINE
  5
24E
100
AcDbEntity
  8
0
100
AcDbLine
 62
7
  6
CONTINUOUS
 10
138.8753595545
 20
414.3484108157
 11
144.7247113508
 21
410.2526505943
  0
LINE
  5
24F
100
AcDbEntity
  8
0
100
AcDbLine
 62
7
  6
CONTINUOUS
 10
198.7972115477
 20
397.8484108157
 11
196.2972115477
 21
400.3484108157
  0
LINE
  5
250
100
AcDbEntity
  8
0
100
AcDbLine
 62
7
  6
CONTINUOUS
 10
338.5972115477
 20
380.3484108157
 11
338.5972115477
 21
400.3484108157
  0
LINE
  5
251
100
AcDbEntity
  8
RUNDUNGEN
100
AcDbLine
 62
7
  6
CONTINUOUS
 10
373.4472115477
 20
395.3482289099
 11
373.4472115477
 21
385.348597177
  0
LINE
  5
252
100
AcDbEntity
  8
0
100
AcDbLine
 62
7
  6
CONTINUOUS
 10
379.4812790346
 20
409.8484108157
 11
379.4812790346
 21
370.8484108157
  0
LINE
  5
253
100
AcDbEntity
  8
BEZUGSACHSEN
100
AcDbLine
 62
7
  6
CONTINUOUS
 10
19.7677196234
 20
358.8484108157
 11
-16.7158797567
 21
358.8484108157
  0
LINE
  5
254
100
AcDbEntity
  8
RUNDUNGEN
100
AcDbLine
 62
7
  6
CONTINUOUS
 10
505.126703472
 20
358.8484108157
 11
541.6103028521
 21
358.8484108157
  0
LINE
  5
255
100
AcDbEntity
  8
0
100
AcDbLine
 62
7
  6
CONTINUOUS
 10
267.4472115477
 20
360.3484108157
 11
257.4472115477
 21
360.3484108157
  0
LINE
  5
256
100
AcDbEntity
  8
0
100
AcDbLine
 62
7
  6
CONTINUOUS
 10
256.1243358922
 20
360.8484108157
 11
268.7700872033
 21
360.8484108157
  0
LINE
  5
257
100
AcDbEntity
  8
BEZUGSACHSEN
100
AcDbLine
 62
7
  6
CONTINUOUS
 10
104.9472115477
 20
364.3484108157
 11
109.4472115477
 21
364.3484108157
  0
LINE
  5
258
100
AcDbEntity
  8
RUNDUNGEN
100
AcDbLine
 62
7
  6
CONTINUOUS
 10
138.8753595545
 20
366.3484108157
 11
125.9472115477
 21
366.3484108157
  0
LINE
  5
259
100
AcDbEntity
  8
0
100
AcDbLine
 62
7
  6
CONTINUOUS
 10
125.9472115477
 20
366.3484108157
 11
138.8753595545
 21
366.3484108157
  0
LINE
  5
25A
100
AcDbEntity
  8
0
100
AcDbLine
 62
7
  6
CONTINUOUS
 10
238.283643034
 20
371.2277960573
 11
238.9946090933
 21
370.9690255742
  0
LINE
  5
25B
100
AcDbEntity
  8
RUNDUNGEN
100
AcDbLine
 62
7
  6
CONTINUOUS
 10
400.9472115477
 20
371.8484108157
 11
400.9472115477
 21
408.8484108157
  0
LINE
  5
25C
100
AcDbEntity
  8
RUNDUNGEN
100
AcDbLine
 62
7
  6
CONTINUOUS
 10
399.9472115477
 20
370.8484108157
 11
379.4812790346
 21
370.8484108157
  0
LINE
  5
25D
100
AcDbEntity
  8
RUNDUNGEN
100
AcDbLine
 62
7
  6
CONTINUOUS
 10
285.2157737155
 20
370.8484108157
 11
280.4472115477
 21
370.8484108157
  0
LINE
  5
25E
100
AcDbEntity
  8
RUNDUNGEN
100
AcDbLine
 62
7
  6
CONTINUOUS
 10
244.4472115477
 20
370.8484108157
 11
239.67864938
 21
370.8484108157
  0
LINE
  5
25F
100
AcDbEntity
  8
0
100
AcDbLine
 62
7
  6
CONTINUOUS
 10
239.67864938
 20
370.8484108157
 11
244.4472115477
 21
370.8484108157
  0
LINE
  5
260
100
AcDbEntity
  8
0
100
AcDbLine
 62
7
  6
CONTINUOUS
 10
280.4472115477
 20
370.8484108157
 11
285.2157737155
 21
370.8484108157
  0
LINE
  5
261
100
AcDbEntity
  8
0
100
AcDbLine
 62
7
  6
CONTINUOUS
 10
379.4812790346
 20
370.8484108157
 11
399.9472115477
 21
370.8484108157
  0
LINE
  5
262
100
AcDbEntity
  8
0
100
AcDbLine
 62
7
  6
CONTINUOUS
 10
147.5925935326
 20
371.3484108157
 11
237.5996027474
 21
371.3484108157
  0
LINE
  5
263
100
AcDbEntity
  8
0
100
AcDbLine
 62
7
  6
CONTINUOUS
 10
287.294820348
 20
371.3484108157
 11
377.3018295629
 21
371.3484108157
  0
LINE
  5
264
100
AcDbEntity
  8
RUNDUNGEN
100
AcDbLine
 62
7
  6
CONTINUOUS
 10
58.9908623616
 20
376.0984108157
 11
57.6840731346
 21
376.0984108157
  0
LINE
  5
265
100
AcDbEntity
  8
RUNDUNGEN
100
AcDbLine
 62
7
  6
CONTINUOUS
 10
465.9035607338
 20
376.0984108157
 11
467.2103499608
 21
376.0984108157
  0
LINE
  5
266
100
AcDbEntity
  8
RUNDUNGEN
100
AcDbLine
 62
7
  6
CONTINUOUS
 10
367.4472115477
 20
379.3484108157
 11
284.4472792656
 21
379.3484108157
  0
LINE
  5
267
100
AcDbEntity
  8
RUNDUNGEN
100
AcDbLine
 62
7
  6
CONTINUOUS
 10
240.4472115477
 20
379.3484108157
 11
157.4474713633
 21
379.3484108157
  0
LINE
  5
268
100
AcDbEntity
  8
0
100
AcDbLine
 62
7
  6
CONTINUOUS
 10
196.2972115477
 20
380.3484108157
 11
154.1336953952
 21
380.3484108157
  0
LINE
  5
269
100
AcDbEntity
  8
0
100
AcDbLine
 62
7
  6
CONTINUOUS
 10
124.9472115477
 20
380.3484108157
 11
109.9472115477
 21
380.3484108157
  0
LINE
  5
26A
100
AcDbEntity
  8
0
100
AcDbLine
 62
7
  6
CONTINUOUS
 10
102.9472115477
 20
380.3484108157
 11
67.7972115477
 21
380.3484108157
  0
LINE
  5
26B
100
AcDbEntity
  8
0
100
AcDbLine
 62
7
  6
CONTINUOUS
 10
338.5972115477
 20
380.3484108157
 11
370.7580834734
 21
380.3484108157
  0
LINE
  5
26C
100
AcDbEntity
  8
0
100
AcDbLine
 62
7
  6
CONTINUOUS
 10
400.9472115477
 20
380.3484108157
 11
457.0972115477
 21
380.3484108157
  0
LINE
  5
26D
100
AcDbEntity
  8
0
100
AcDbLine
 62
7
  6
CONTINUOUS
 10
196.2972115477
 20
381.6881567779
 11
152.695936512
 21
381.6881567779
  0
LINE
  5
26E
100
AcDbEntity
  8
0
100
AcDbLine
 62
7
  6
CONTINUOUS
 10
124.9472115477
 20
381.6881567779
 11
109.9472115477
 21
381.6881567779
  0
LINE
  5
26F
100
AcDbEntity
  8
0
100
AcDbLine
 62
7
  6
CONTINUOUS
 10
102.9472115477
 20
381.6881567779
 11
67.7972115477
 21
381.6881567779
  0
LINE
  5
270
100
AcDbEntity
  8
0
100
AcDbLine
 62
7
  6
CONTINUOUS
 10
209.7972115477
 20
382.8484108157
 11
198.7972115477
 21
382.8484108157
  0
LINE
  5
271
100
AcDbEntity
  8
0
100
AcDbLine
 62
7
  6
CONTINUOUS
 10
325.0972115477
 20
382.8484108157
 11
336.0972115477
 21
382.8484108157
  0
LINE
  5
272
100
AcDbEntity
  8
BEZUGSACHSEN
100
AcDbLine
 62
7
  6
CONTINUOUS
 10
-15.9500803857
 20
384.0984108157
 11
-35.3233876559
 21
384.0984108157
  0
LINE
  5
273
100
AcDbEntity
  8
RUNDUNGEN
100
AcDbLine
 62
7
  6
CONTINUOUS
 10
540.8445034811
 20
384.0984108157
 11
560.2178107514
 21
384.0984108157
  0
LINE
  5
274
100
AcDbEntity
  8
0
100
AcDbLine
 62
7
  6
CONTINUOUS
 10
209.7972115477
 20
384.758240872
 11
198.7972115477
 21
384.758240872
  0
LINE
  5
275
100
AcDbEntity
  8
0
100
AcDbLine
 62
7
  6
CONTINUOUS
 10
209.7972115477
 20
385.3484108157
 11
151.447211548
 21
385.3484108157
  0
LINE
  5
276
100
AcDbEntity
  8
0
100
AcDbLine
 62
7
  6
CONTINUOUS
 10
124.9472115477
 20
385.3484108157
 11
109.9472115477
 21
385.3484108157
  0
LINE
  5
277
100
AcDbEntity
  8
0
100
AcDbLine
 62
7
  6
CONTINUOUS
 10
102.9472115477
 20
385.3484108157
 11
71.7972115477
 21
385.3484108157
  0
LINE
  5
278
100
AcDbEntity
  8
RUNDUNGEN
100
AcDbLine
 62
7
  6
CONTINUOUS
 10
-15.9500803857
 20
396.5984108157
 11
-35.3233876559
 21
396.5984108157
  0
LINE
  5
279
100
AcDbEntity
  8
BEZUGSACHSEN
100
AcDbLine
 62
7
  6
CONTINUOUS
 10
540.8445034811
 20
396.5984108157
 11
560.2178107514
 21
396.5984108157
  0
LINE
  5
27A
100
AcDbEntity
  8
0
100
AcDbLine
 62
7
  6
CONTINUOUS
 10
209.7972115477
 20
397.8484108157
 11
198.7972115477
 21
397.8484108157
  0
LINE
  5
27B
100
AcDbEntity
  8
0
100
AcDbLine
 62
7
  6
CONTINUOUS
 10
325.0972115477
 20
397.8484108157
 11
336.0972115477
 21
397.8484108157
  0
LINE
  5
27C
100
AcDbEntity
  8
0
100
AcDbLine
 62
7
  6
CONTINUOUS
 10
196.2972115477
 20
400.3484108157
 11
154.1336782587
 21
400.3484108157
  0
LINE
  5
27D
100
AcDbEntity
  8
0
100
AcDbLine
 62
7
  6
CONTINUOUS
 10
124.9472115477
 20
400.3484108157
 11
109.9472115477
 21
400.3484108157
  0
LINE
  5
27E
100
AcDbEntity
  8
0
100
AcDbLine
 62
7
  6
CONTINUOUS
 10
102.9472115477
 20
400.3484108157
 11
67.7972115477
 21
400.3484108157
  0
LINE
  5
27F
100
AcDbEntity
  8
0
100
AcDbLine
 62
7
  6
CONTINUOUS
 10
338.5972115477
 20
400.3484108157
 11
370.7577810134
 21
400.3484108157
  0
LINE
  5
280
100
AcDbEntity
  8
0
100
AcDbLine
 62
7
  6
CONTINUOUS
 10
400.9472115477
 20
400.3484108157
 11
457.0972115477
 21
400.3484108157
  0
LINE
  5
281
100
AcDbEntity
  8
RUNDUNGEN
100
AcDbLine
 62
7
  6
CONTINUOUS
 10
157.4472115477
 20
401.3484108157
 11
240.4472115473
 21
401.3484108157
  0
LINE
  5
282
100
AcDbEntity
  8
RUNDUNGEN
100
AcDbLine
 62
7
  6
CONTINUOUS
 10
284.4473767652
 20
401.3484108157
 11
367.4470373726
 21
401.3484108157
  0
LINE
  5
283
100
AcDbEntity
  8
RUNDUNGEN
100
AcDbLine
 62
7
  6
CONTINUOUS
 10
58.9908623616
 20
404.5984108157
 11
57.6840731346
 21
404.5984108157
  0
LINE
  5
284
100
AcDbEntity
  8
RUNDUNGEN
100
AcDbLine
 62
7
  6
CONTINUOUS
 10
465.9035607338
 20
404.5984108157
 11
467.2103499608
 21
404.5984108157
  0
LINE
  5
285
100
AcDbEntity
  8
0
100
AcDbLine
 62
7
  6
CONTINUOUS
 10
147.5925935326
 20
409.3484108157
 11
237.5996027474
 21
409.3484108157
  0
LINE
  5
286
100
AcDbEntity
  8
RUNDUNGEN
100
AcDbLine
 62
7
  6
CONTINUOUS
 10
287.294820348
 20
409.3484108157
 11
377.3018295629
 21
409.3484108157
  0
LINE
  5
287
100
AcDbEntity
  8
0
100
AcDbLine
 62
7
  6
CONTINUOUS
 10
287.294820348
 20
409.3484108157
 11
377.3018295629
 21
409.3484108157
  0
LINE
  5
288
100
AcDbEntity
  8
RUNDUNGEN
100
AcDbLine
 62
7
  6
CONTINUOUS
 10
399.9472115477
 20
409.8484108157
 11
379.4812790346
 21
409.8484108157
  0
LINE
  5
289
100
AcDbEntity
  8
RUNDUNGEN
100
AcDbLine
 62
7
  6
CONTINUOUS
 10
285.2157737155
 20
409.8484108157
 11
280.4472115477
 21
409.8484108157
  0
LINE
  5
28A
100
AcDbEntity
  8
RUNDUNGEN
100
AcDbLine
 62
7
  6
CONTINUOUS
 10
244.4472115477
 20
409.8484108157
 11
239.67864938
 21
409.8484108157
  0
LINE
  5
28B
100
AcDbEntity
  8
0
100
AcDbLine
 62
7
  6
CONTINUOUS
 10
239.67864938
 20
409.8484108157
 11
244.4472115477
 21
409.8484108157
  0
LINE
  5
28C
100
AcDbEntity
  8
0
100
AcDbLine
 62
7
  6
CONTINUOUS
 10
280.4472115477
 20
409.8484108157
 11
285.2157737155
 21
409.8484108157
  0
LINE
  5
28D
100
AcDbEntity
  8
0
100
AcDbLine
 62
7
  6
CONTINUOUS
 10
379.4812790346
 20
409.8484108157
 11
399.9472115477
 21
409.8484108157
  0
LINE
  5
28E
100
AcDbEntity
  8
RUNDUNGEN
100
AcDbLine
 62
7
  6
CONTINUOUS
 10
138.8753595545
 20
414.3484108157
 11
125.9472115477
 21
414.3484108157
  0
LINE
  5
28F
100
AcDbEntity
  8
0
100
AcDbLine
 62
7
  6
CONTINUOUS
 10
125.9472115477
 20
414.3484108157
 11
138.8753595545
 21
414.3484108157
  0
LINE
  5
290
100
AcDbEntity
  8
BEZUGSACHSEN
100
AcDbLine
 62
7
  6
CONTINUOUS
 10
104.9472115477
 20
416.3484108157
 11
109.4472115477
 21
416.3484108157
  0
LINE
  5
291
100
AcDbEntity
  8
0
100
AcDbLine
 62
7
  6
CONTINUOUS
 10
285.8998140021
 20
409.7277960573
 11
286.6107800614
 21
409.4690255742
  0
LINE
  5
292
100
AcDbEntity
  8
0
100
AcDbLine
 62
7
  6
CONTINUOUS
 10
336.0972115477
 20
382.8484108157
 11
338.5972115477
 21
380.3484108157
  0
LINE
  5
293
100
AcDbEntity
  8
0
100
AcDbLine
 62
7
  6
CONTINUOUS
 10
255.4472115477
 20
419.8484108157
 11
269.4472115477
 21
419.8484108157
  0
LINE
  5
294
100
AcDbEntity
  8
0
100
AcDbLine
 62
7
  6
CONTINUOUS
 10
249.4472115477
 20
421.3484108157
 11
255.4472115477
 21
421.3484108157
  0
LINE
  5
295
100
AcDbEntity
  8
0
100
AcDbLine
 62
7
  6
CONTINUOUS
 10
269.4472115477
 20
421.3484108157
 11
275.4472115477
 21
421.3484108157
  0
LINE
  5
296
100
AcDbEntity
  8
RUNDUNGEN
100
AcDbLine
 62
7
  6
CONTINUOUS
 10
19.7677196234
 20
421.8484108157
 11
-16.7158797567
 21
421.8484108157
  0
LINE
  5
297
100
AcDbEntity
  8
BEZUGSACHSEN
100
AcDbLine
 62
7
  6
CONTINUOUS
 10
505.126703472
 20
421.8484108157
 11
541.6103028521
 21
421.8484108157
  0
LINE
  5
298
100
AcDbEntity
  8
RUNDUNGEN
100
AcDbLine
 62
7
  6
CONTINUOUS
 10
477.2103526126
 20
373.4189181154
 11
500.1267043736
 21
360.1881562574
  0
LINE
  5
299
100
AcDbEntity
  8
RUNDUNGEN
100
AcDbLine
 62
7
  6
CONTINUOUS
 10
574.6854465931
 20
376.5212922199
 11
574.6852513543
 21
376.520813722
  0
LINE
  5
29A
100
AcDbEntity
  8
0
100
AcDbLine
 62
7
  6
CONTINUOUS
 10
462.7540657972
 20
378.0052650652
 11
463.7822403903
 21
376.9770904722
  0
LINE
  5
29B
100
AcDbEntity
  8
RUNDUNGEN
100
AcDbLine
 62
7
  6
CONTINUOUS
 10
462.7540657972
 20
378.0052650652
 11
463.7822403903
 21
376.9770904722
  0
LWPOLYLINE
  5
29C
100
AcDbEntity
  8
RUNDUNGEN
100
AcDbPolyline
 62
7
  6
CONTINUOUS
 90
3
 70
0
 10
574.6854465931
 20
376.5212922199
 10
574.7359818298
 20
376.6618570107
 10
574.778595296
 20
376.8251200071
  0
LINE
  5
29D
100
AcDbEntity
  8
RUNDUNGEN
100
AcDbLine
 62
7
  6
CONTINUOUS
 10
574.778595296
 20
376.8251200071
 11
574.8054409163
 21
376.9914476689
  0
LINE
  5
29E
100
AcDbEntity
  8
BEZUGSACHSEN
100
AcDbLine
 62
7
  6
CONTINUOUS
 10
549.4249259908
 20
420.2585076433
 11
565.589640732
 21
413.3969933244
  0
LWPOLYLINE
  5
29F
100
AcDbEntity
  8
BEZUGSACHSEN
100
AcDbPolyline
 62
7
  6
CONTINUOUS
 90
8
 70
0
 10
574.9730559022
 20
398.3484108157
 10
574.9708280123
 20
398.978459656
 10
574.9618197123
 20
399.7623020135
 10
574.945863615
 20
400.5450757674
 10
574.9229455023
 20
401.3248031339
 10
574.8930720768
 20
402.0995345601
 10
574.856271135
 20
402.8673213144
 10
574.8131492365
 20
403.6172900233
  0
LINE
  5
2A0
100
AcDbEntity
  8
BEZUGSACHSEN
100
AcDbLine
 62
7
  6
CONTINUOUS
 10
562.1903955226
 20
386.0984738044
 11
562.1903955226
 21
394.598347827
  0
LWPOLYLINE
  5
2A1
100
AcDbEntity
  8
RUNDUNGEN
100
AcDbPolyline
 62
7
  6
CONTINUOUS
 90
8
 70
0
 10
574.8131492365
 20
377.0795316081
 10
574.856271135
 20
377.829500317
 10
574.8930720768
 20
378.5972870713
 10
574.9229455023
 20
379.3720184975
 10
574.945863615
 20
380.151745864
 10
574.9618197123
 20
380.934519618
 10
574.9708280123
 20
381.7183619755
 10
574.9730559338
 20
398.3484108157
  0
LINE
  5
2A2
100
AcDbEntity
  8
RUNDUNGEN
100
AcDbLine
 62
7
  6
CONTINUOUS
 10
574.8054409163
 20
376.9914476689
 11
574.8131435977
 21
377.0794587563
  0
LINE
  5
2A3
100
AcDbEntity
  8
BEZUGSACHSEN
100
AcDbLine
 62
7
  6
CONTINUOUS
 10
574.8131435741
 20
403.6173632549
 11
574.8054160104
 21
403.7055946299
  0
LINE
  5
2A4
100
AcDbEntity
  8
BEZUGSACHSEN
100
AcDbLine
 62
7
  6
CONTINUOUS
 10
574.6854464987
 20
404.1755296433
 11
574.6852513543
 21
404.1760079095
  0
LWPOLYLINE
  5
2A5
100
AcDbEntity
  8
BEZUGSACHSEN
100
AcDbPolyline
 62
7
  6
CONTINUOUS
 90
3
 70
0
 10
574.7785603445
 20
403.8718674661
 10
574.7359510567
 20
404.0350630616
 10
574.6854464987
 20
404.1755296433
  0
LINE
  5
2A6
100
AcDbEntity
  8
BEZUGSACHSEN
100
AcDbLine
 62
7
  6
CONTINUOUS
 10
574.8054160104
 20
403.7055946299
 11
574.7785603445
 21
403.8718674661
  0
LINE
  5
2A7
100
AcDbEntity
  8
BEZUGSACHSEN
100
AcDbLine
 62
7
  6
CONTINUOUS
 10
711.2969624556
 20
360.4942886998
 11
711.2968959599
 21
360.4942550952
  0
LWPOLYLINE
  5
2A8
100
AcDbEntity
  8
BEZUGSACHSEN
100
AcDbPolyline
 62
7
  6
CONTINUOUS
 90
9
 70
0
 10
711.2968959599
 20
360.4942550952
 10
711.8230771392
 20
360.7494603143
 10
712.4834392393
 20
361.0426534567
 10
713.1819087514
 20
361.324549751
 10
713.9160796632
 20
361.5937933007
 10
714.6835443111
 20
361.8492265627
 10
715.4818890694
 20
362.0898538464
 10
716.3084078015
 20
362.3147417538
 10
717.0313971026
 20
362.4930069562
  0
LWPOLYLINE
  5
2A9
100
AcDbEntity
  8
RUNDUNGEN
100
AcDbPolyline
 62
7
  6
CONTINUOUS
 90
7
 70
0
 10
677.6194726319
 20
376.5138526206
 10
677.51891493
 20
375.7413164474
 10
677.4280074194
 20
374.9928581596
 10
677.3503915863
 20
374.2719617856
 10
677.2898356477
 20
373.5790359834
 10
677.2509029844
 20
372.9128564724
 10
677.2391596093
 20
372.3646106818
  0
LINE
  5
2AA
100
AcDbEntity
  8
RUNDUNGEN
100
AcDbLine
 62
7
  6
CONTINUOUS
 10
678.0410375046
 20
379.645042906
 11
677.9489270086
 21
378.9471849413
  0
LINE
  5
2AB
100
AcDbEntity
  8
RUNDUNGEN
100
AcDbLine
 62
7
  6
CONTINUOUS
 10
677.9489270086
 20
378.9471849413
 11
677.6194726319
 21
376.5138526206
  0
LWPOLYLINE
  5
2AC
100
AcDbEntity
  8
RUNDUNGEN
100
AcDbPolyline
 62
7
  6
CONTINUOUS
 90
4
 70
0
 10
677.2895043907
 20
382.3702443859
 10
677.2632025006
 20
381.2702946175
 10
677.2449200977
 20
380.1849507145
 10
677.2391570785
 20
379.2753615881
  0
LINE
  5
2AD
100
AcDbEntity
  8
RUNDUNGEN
100
AcDbLine
 62
7
  6
CONTINUOUS
 10
677.3802185004
 20
385.7439545317
 11
677.2895043907
 21
382.3702443859
  0
LWPOLYLINE
  5
2AE
100
AcDbEntity
  8
RUNDUNGEN
100
AcDbPolyline
 62
7
  6
CONTINUOUS
 90
10
 70
0
 10
677.2898425799
 20
398.3136527514
 10
677.3805399153
 20
394.9394923811
 10
677.4054474899
 20
393.796738922
 10
677.4244297607
 20
392.648235746
 10
677.4362815151
 20
391.4958779755
 10
677.4402806219
 20
390.3416135641
 10
677.4361868167
 20
389.1873630327
 10
677.4242460144
 20
388.035046648
 10
677.4051862043
 20
386.8866122637
 10
677.3802185004
 20
385.7439545317
  0
LWPOLYLINE
  5
2AF
100
AcDbEntity
  8
RUNDUNGEN
100
AcDbPolyline
 62
7
  6
CONTINUOUS
 90
8
 70
0
 10
677.2391598712
 20
408.3316550095
 10
677.2505970936
 20
407.7915927662
 10
677.289242876
 20
407.1257611524
 10
677.3495658381
 20
406.4332362082
 10
677.4269915037
 20
405.7127688478
 10
677.5177452352
 20
404.9647519918
 10
677.6181813882
 20
404.1926714361
 10
677.947440535
 20
401.7607580801
  0
LWPOLYLINE
  5
2B0
100
AcDbEntity
  8
RUNDUNGEN
100
AcDbPolyline
 62
7
  6
CONTINUOUS
 90
4
 70
0
 10
677.2391570141
 20
401.4219804629
 10
677.2450691384
 20
400.499378435
 10
677.2634708206
 20
399.4138060441
 10
677.2898425799
 20
398.3136527514
  0
LINE
  5
2B1
100
AcDbEntity
  8
RUNDUNGEN
100
AcDbLine
 62
7
  6
CONTINUOUS
 10
677.2391570423
 20
401.4219850395
 11
677.2391566399
 21
419.8484108157
  0
LINE
  5
2B2
100
AcDbEntity
  8
0
100
AcDbLine
 62
7
  6
CONTINUOUS
 10
687.2391566399
 20
326.0666470997
 11
687.2391566399
 21
358.8484108157
  0
LINE
  5
2B3
100
AcDbEntity
  8
RUNDUNGEN
100
AcDbLine
 62
7
  6
CONTINUOUS
 10
677.2391566399
 20
379.2679099245
 11
677.2391566399
 21
360.8484108157
  0
LINE
  5
2B4
100
AcDbEntity
  8
RUNDUNGEN
100
AcDbLine
 62
7
  6
CONTINUOUS
 10
677.2391566399
 20
379.2679099245
 11
677.2391571054
 21
379.2753570151
  0
LINE
  5
2B5
100
AcDbEntity
  8
BEZUGSACHSEN
100
AcDbLine
 62
7
  6
CONTINUOUS
 10
691.2391566399
 20
294.1301745317
 11
691.2391566399
 21
86.3484108157
  0
LINE
  5
2B6
100
AcDbEntity
  8
RUNDUNGEN
100
AcDbLine
 62
7
  6
CONTINUOUS
 10
677.947440535
 20
401.7607580801
 11
678.0410364682
 21
401.0517884055
  0
LINE
  5
2B7
100
AcDbEntity
  8
BEZUGSACHSEN
100
AcDbLine
 62
7
  6
CONTINUOUS
 10
691.1490645871
 20
295.535362718
 11
687.3325518033
 21
324.6362726949
  0
LINE
  5
2B8
100
AcDbEntity
  8
RUNDUNGEN
100
AcDbLine
 62
7
  6
CONTINUOUS
 10
687.3549569247
 20
324.4654336443
 11
687.3325518033
 21
324.6362726949
  0
LWPOLYLINE
  5
2B9
100
AcDbEntity
  8
RUNDUNGEN
100
AcDbPolyline
 62
7
  6
CONTINUOUS
 90
3
 70
0
 10
721.2017122901
 20
384.0984108157
 10
721.2528898081
 20
384.4779326617
 10
721.288129098
 20
384.9574503962
  0
LWPOLYLINE
  5
2BA
100
AcDbEntity
  8
RUNDUNGEN
100
AcDbPolyline
 62
7
  6
CONTINUOUS
 90
19
 70
0
 10
678.0409991623
 20
401.0520868732
 10
678.0977998531
 20
400.654112774
 10
678.1812380479
 20
400.1761914172
 10
678.2763403466
 20
399.7365479495
 10
678.3836453239
 20
399.3323441266
 10
678.5040713108
 20
398.9602399185
 10
678.6388041032
 20
398.6172751644
 10
678.789563084
 20
398.300301705
 10
678.9576820137
 20
398.0080525461
 10
679.1444272025
 20
397.7398600855
 10
679.3507937336
 20
397.4957456747
 10
679.5774522228
 20
397.276494973
 10
679.8226588187
 20
397.0849275582
 10
680.083505869
 20
396.9235605425
 10
680.3570762331
 20
396.7938954284
 10
680.6391647429
 20
396.6971632998
 10
680.9264325633
 20
396.6333910981
 10
681.2149502562
 20
396.6021596274
 10
681.353930179
 20
396.5984191018
  0
LINE
  5
2BB
100
AcDbEntity
  8
BEZUGSACHSEN
100
AcDbLine
 62
7
  6
CONTINUOUS
 10
723.2391566399
 20
294.1301745317
 11
723.2391566399
 21
86.3484108157
  0
LWPOLYLINE
  5
2BC
100
AcDbEntity
  8
RUNDUNGEN
100
AcDbPolyline
 62
7
  6
CONTINUOUS
 90
12
 70
0
 10
721.2881358721
 20
384.9574999686
 10
721.3200776397
 20
385.7075870199
 10
721.3503515374
 20
386.6125187126
 10
721.3729105098
 20
387.5311864599
 10
721.3884134675
 20
388.4611543939
 10
721.3974585116
 20
389.4002254939
 10
721.400443122
 20
390.3438242155
 10
721.3975166443
 20
391.2873557097
 10
721.3885361704
 20
392.2262236381
 10
721.373110287
 20
393.155850927
 10
721.3506472223
 20
394.0740322509
 10
721.3204945008
 20
394.9783252708
  0
LINE
  5
2BD
100
AcDbEntity
  8
RUNDUNGEN
100
AcDbLine
 62
7
  6
CONTINUOUS
 10
721.2881358721
 20
384.9574999686
 11
721.2881335351
 21
384.9574502006
  0
LINE
  5
2BE
100
AcDbEntity
  8
RUNDUNGEN
100
AcDbLine
 62
7
  6
CONTINUOUS
 10
727.1457614765
 20
324.6362726949
 11
727.123352205
 21
324.4654019999
  0
LINE
  5
2BF
100
AcDbEntity
  8
BEZUGSACHSEN
100
AcDbLine
 62
7
  6
CONTINUOUS
 10
727.1457614765
 20
324.6362726949
 11
723.329248553
 21
295.5353616531
  0
LWPOLYLINE
  5
2C0
100
AcDbEntity
  8
RUNDUNGEN
100
AcDbPolyline
 62
7
  6
CONTINUOUS
 90
3
 70
0
 10
721.2881285228
 20
395.7393703955
 10
721.2542565429
 20
396.2051037593
 10
721.2018239633
 20
396.5984108157
  0
LINE
  5
2C1
100
AcDbEntity
  8
RUNDUNGEN
100
AcDbLine
 62
7
  6
CONTINUOUS
 10
721.2881306353
 20
395.7393254112
 11
721.2881285228
 21
395.7393703955
  0
LINE
  5
2C2
100
AcDbEntity
  8
RUNDUNGEN
100
AcDbLine
 62
7
  6
CONTINUOUS
 10
721.3204945008
 20
394.9783252708
 11
721.288135685
 21
395.7393256362
  0
LINE
  5
2C3
100
AcDbEntity
  8
RUNDUNGEN
100
AcDbLine
 62
7
  6
CONTINUOUS
 10
726.7391566399
 20
394.5983889994
 11
726.7391566399
 21
386.0984329197
  0
LINE
  5
2C4
100
AcDbEntity
  8
0
100
AcDbLine
 62
7
  6
CONTINUOUS
 10
727.2391566399
 20
326.0666470997
 11
727.2391566399
 21
360.6163600082
  0
LINE
  5
2C5
100
AcDbEntity
  8
RUNDUNGEN
100
AcDbLine
 62
7
  6
CONTINUOUS
 10
744.7202979851
 20
398.3484108157
 11
744.7202979851
 21
382.3484108157
  0
LINE
  5
2C6
100
AcDbEntity
  8
RUNDUNGEN
100
AcDbLine
 62
7
  6
CONTINUOUS
 10
737.2314196122
 20
367.2464856484
 11
737.4577464567
 21
367.3016448915
  0
LINE
  5
2C7
100
AcDbEntity
  8
BEZUGSACHSEN
100
AcDbLine
 62
7
  6
CONTINUOUS
 10
737.2314196122
 20
367.2464856484
 11
737.394546166
 21
367.2861459979
  0
LINE
  5
2C8
100
AcDbEntity
  8
RUNDUNGEN
100
AcDbLine
 62
7
  6
CONTINUOUS
 10
737.0109557974
 20
367.1940019829
 11
737.2314196122
 21
367.2464856484
  0
LINE
  5
2C9
100
AcDbEntity
  8
BEZUGSACHSEN
100
AcDbLine
 62
7
  6
CONTINUOUS
 10
737.2314196122
 20
367.2464856484
 11
717.0314164954
 21
362.4930115449
  0
LINE
  5
2CA
100
AcDbEntity
  8
BEZUGSACHSEN
100
AcDbLine
 62
7
  6
CONTINUOUS
 10
737.3933767435
 20
367.290914586
 11
737.4577634327
 21
367.3016577158
  0
LWPOLYLINE
  5
2CB
100
AcDbEntity
  8
BEZUGSACHSEN
100
AcDbPolyline
 62
7
  6
CONTINUOUS
 90
9
 70
0
 10
706.4239456436
 20
358.8484114498
 10
706.8324873121
 20
358.8678855105
 10
707.3527412249
 20
358.9426350342
 10
707.8810508364
 20
359.0657688789
 10
708.4409478436
 20
359.2375288227
 10
709.0526170449
 20
359.4627623186
 10
709.7343403944
 20
359.7486207835
 10
710.5123742863
 20
360.1075147332
 10
711.2969624674
 20
360.4942886764
  0
LINE
  5
2CC
100
AcDbEntity
  8
BEZUGSACHSEN
100
AcDbLine
 62
7
  6
CONTINUOUS
 10
706.4239445221
 20
358.8484112361
 11
679.2391566399
 21
358.8484108157
  0
LWPOLYLINE
  5
2CD
100
AcDbEntity
  8
RUNDUNGEN
100
AcDbPolyline
 62
7
  6
CONTINUOUS
 90
19
 70
0
 10
681.3538499172
 20
384.0984024181
 10
681.2276568964
 20
384.0953060388
 10
680.9387197923
 20
384.0654180865
 10
680.6509733228
 20
384.0029496942
 10
680.3683095757
 20
383.9074663629
 10
680.0940579338
 20
383.7789745194
 10
679.8324190601
 20
383.6186698231
 10
679.5863107284
 20
383.4280125181
 10
679.3586960611
 20
383.209511124
 10
679.1513581417
 20
382.9659721643
 10
678.9636782898
 20
382.6982166268
 10
678.7946928068
 20
382.4062991197
 10
678.643148646
 20
382.0895674412
 10
678.5077075295
 20
381.7467488767
 10
678.3866579903
 20
381.3747217142
 10
678.2788108349
 20
380.9705475983
 10
678.1832362187
 20
380.5308719064
 10
678.0993882604
 20
380.0528609334
 10
678.0410007263
 20
379.644746787
  0
LINE
  5
2CE
100
AcDbEntity
  8
RUNDUNGEN
100
AcDbLine
 62
7
  6
CONTINUOUS
 10
724.739198971
 20
384.0984108157
 11
681.3560834688
 21
384.0984108157
  0
LINE
  5
2CF
100
AcDbEntity
  8
RUNDUNGEN
100
AcDbLine
 62
7
  6
CONTINUOUS
 10
681.3560200323
 20
396.5984108157
 11
724.7391566402
 21
396.5984108157
  0
LWPOLYLINE
  5
2D0
100
AcDbEntity
  8
RUNDUNGEN
100
AcDbPolyline
 62
7
  6
CONTINUOUS
 90
9
 70
0
 10
711.2969619456
 20
420.2025332188
 10
710.5176672177
 20
420.58677096
 10
709.7436086197
 20
420.9441085485
 10
709.0650302953
 20
421.2291508534
 10
708.4550560574
 20
421.4545012307
 10
707.8953640401
 20
421.6271483178
 10
707.3650996219
 20
421.7518098168
 10
706.8397849265
 20
421.8282534778
 10
706.4242008214
 20
421.8484099947
  0
LINE
  5
2D1
100
AcDbEntity
  8
RUNDUNGEN
100
AcDbLine
 62
7
  6
CONTINUOUS
 10
711.2969619338
 20
420.2025331954
 11
711.2968958593
 21
420.2025665871
  0
LINE
  5
2D2
100
AcDbEntity
  8
RUNDUNGEN
100
AcDbLine
 62
7
  6
CONTINUOUS
 10
679.2391566399
 20
421.8484108157
 11
706.4226830893
 21
421.8484108157
  0
LINE
  5
2D3
100
AcDbEntity
  8
0
100
AcDbLine
 62
7
  6
CONTINUOUS
 10
681.6206309313
 20
421.8484108157
 11
706.4226830893
 21
421.8484108157
  0
LINE
  5
2D4
100
AcDbEntity
  8
RUNDUNGEN
100
AcDbLine
 62
7
  6
CONTINUOUS
 10
737.3933767435
 20
413.4059070454
 11
737.4577634327
 21
413.3951639157
  0
LINE
  5
2D5
100
AcDbEntity
  8
BEZUGSACHSEN
100
AcDbLine
 62
7
  6
CONTINUOUS
 10
737.2314196122
 20
413.4503359831
 11
737.0109557974
 21
413.5028196485
  0
LINE
  5
2D6
100
AcDbEntity
  8
RUNDUNGEN
100
AcDbLine
 62
7
  6
CONTINUOUS
 10
737.2314196122
 20
413.4503359831
 11
717.0314164954
 21
418.2038100865
  0
LINE
  5
2D7
100
AcDbEntity
  8
BEZUGSACHSEN
100
AcDbLine
 62
7
  6
CONTINUOUS
 10
737.4577464567
 20
413.39517674
 11
737.2314196122
 21
413.4503359831
  0
LINE
  5
2D8
100
AcDbEntity
  8
RUNDUNGEN
100
AcDbLine
 62
7
  6
CONTINUOUS
 10
737.4577464567
 20
413.39517674
 11
737.2314196122
 21
413.4503359831
  0
LWPOLYLINE
  5
2D9
100
AcDbEntity
  8
RUNDUNGEN
100
AcDbPolyline
 62
7
  6
CONTINUOUS
 90
9
 70
0
 10
717.0313970611
 20
418.203814685
 10
716.3084452963
 20
418.3820701995
 10
715.4819321313
 20
418.6069554474
 10
714.6835561994
 20
418.847591302
 10
713.916051176
 20
419.1030382857
 10
713.1818472888
 20
419.37229553
 10
712.4833653589
 20
419.654199451
 10
711.8230278903
 20
419.9473842562
 10
711.2968958593
 20
420.2025665871
  0
LWPOLYLINE
  5
2DA
100
AcDbEntity
  8
BEZUGSACHSEN
100
AcDbPolyline
 62
7
  6
CONTINUOUS
 90
6
 70
0
 10
708.8615015846
 20
421.3044333045
 10
708.4409478436
 20
421.4592928087
 10
707.8810508364
 20
421.6310527525
 10
707.3527412249
 20
421.7541865973
 10
706.8324873121
 20
421.8289361209
 10
706.4385544426
 20
421.8477138203
  0
LWPOLYLINE
  5
2DB
100
AcDbEntity
  8
BEZUGSACHSEN
100
AcDbPolyline
 62
7
  6
CONTINUOUS
 90
5
 70
0
 10
844.1677915941
 20
404.1755296433
 10
844.1172870361
 20
404.0350630616
 10
844.0746777483
 20
403.8718674661
 10
844.0478220824
 20
403.7055946299
 10
844.0400945187
 20
403.6173632549
  0
LINE
  5
2DC
100
AcDbEntity
  8
BEZUGSACHSEN
100
AcDbLine
 62
7
  6
CONTINUOUS
 10
844.1677915941
 20
404.1755296433
 11
844.1679867385
 21
404.1760079095
  0
LWPOLYLINE
  5
2DD
100
AcDbEntity
  8
RUNDUNGEN
100
AcDbPolyline
 62
7
  6
CONTINUOUS
 90
6
 70
0
 10
843.8824100804
 20
381.7183619755
 10
843.8914183805
 20
380.934519618
 10
843.9073744778
 20
380.151745864
 10
843.9302925904
 20
379.3720184975
 10
843.960166016
 20
378.5972870713
 10
843.9969669578
 20
377.829500317
  0
LINE
  5
2DE
100
AcDbEntity
  8
RUNDUNGEN
100
AcDbLine
 62
7
  6
CONTINUOUS
 10
843.880182159
 20
398.3484108157
 11
843.8824100804
 21
381.7183619755
  0
LWPOLYLINE
  5
2DF
100
AcDbEntity
  8
BEZUGSACHSEN
100
AcDbPolyline
 62
7
  6
CONTINUOUS
 90
8
 70
0
 10
844.0400888563
 20
403.6172900233
 10
843.9969669578
 20
402.8673213144
 10
843.960166016
 20
402.0995345601
 10
843.9302925904
 20
401.3248031339
 10
843.9073744778
 20
400.5450757674
 10
843.8914183805
 20
399.7623020135
 10
843.8824100804
 20
398.978459656
 10
843.8801821905
 20
398.3484108157
  0
LWPOLYLINE
  5
2E0
100
AcDbEntity
  8
RUNDUNGEN
100
AcDbPolyline
 62
7
  6
CONTINUOUS
 90
5
 70
0
 10
844.0400944951
 20
377.0794587563
 10
844.0477971765
 20
376.9914476689
 10
844.0746427967
 20
376.8251200071
 10
844.1172562629
 20
376.6618570107
 10
844.1677914996
 20
376.5212922199
  0
LINE
  5
2E1
100
AcDbEntity
  8
RUNDUNGEN
100
AcDbLine
 62
7
  6
CONTINUOUS
 10
843.9969669578
 20
377.829500317
 11
844.0400888563
 21
377.0795316081
  0
LINE
  5
2E2
100
AcDbEntity
  8
BEZUGSACHSEN
100
AcDbLine
 62
7
  6
CONTINUOUS
 10
856.6628425702
 20
394.5984108157
 11
856.6628425702
 21
386.0984108157
  0
LINE
  5
2E3
100
AcDbEntity
  8
BEZUGSACHSEN
100
AcDbLine
 62
7
  6
CONTINUOUS
 10
853.2635973607
 20
413.3969933244
 11
869.4283121019
 21
420.2585076433
  0
LINE
  5
2E4
100
AcDbEntity
  8
RUNDUNGEN
100
AcDbLine
 62
7
  6
CONTINUOUS
 10
844.1677914996
 20
376.5212922199
 11
844.1679867385
 21
376.520813722
  0
LINE
  5
2E5
100
AcDbEntity
  8
0
100
AcDbLine
 62
7
  6
CONTINUOUS
 10
956.0991722956
 20
378.0052650652
 11
955.0709977025
 21
376.9770904722
  0
LINE
  5
2E6
100
AcDbEntity
  8
RUNDUNGEN
100
AcDbLine
 62
7
  6
CONTINUOUS
 10
956.0991722956
 20
378.0052650652
 11
955.0709977025
 21
376.9770904722
  0
LINE
  5
2E7
100
AcDbEntity
  8
RUNDUNGEN
100
AcDbLine
 62
7
  6
CONTINUOUS
 10
918.7265346207
 20
360.1881567779
 11
941.6428909514
 21
373.4189212743
  0
LINE
  5
2E8
100
AcDbEntity
  8
BEZUGSACHSEN
100
AcDbLine
 62
7
  6
CONTINUOUS
 10
1157.406026545
 20
70.3484108157
 11
1155.406026545
 21
70.3484108157
  0
LINE
  5
2E9
100
AcDbEntity
  8
0
100
AcDbLine
 62
7
  6
CONTINUOUS
 10
1132.9534240906
 20
409.7277960573
 11
1132.2424580314
 21
409.4690255742
  0
LINE
  5
2EA
100
AcDbEntity
  8
RUNDUNGEN
100
AcDbLine
 62
7
  6
CONTINUOUS
 10
1017.906026545
 20
408.8484108157
 11
1017.906026545
 21
371.8484108157
  0
LINE
  5
2EB
100
AcDbEntity
  8
0
100
AcDbLine
 62
7
  6
CONTINUOUS
 10
1039.3719590581
 20
370.8484108157
 11
1039.3719590581
 21
409.8484108157
  0
LINE
  5
2EC
100
AcDbEntity
  8
0
100
AcDbLine
 62
7
  6
CONTINUOUS
 10
1180.5695950587
 20
371.2277960573
 11
1179.8586289995
 21
370.9690255742
  0
LINE
  5
2ED
100
AcDbEntity
  8
0
100
AcDbLine
 62
7
  6
CONTINUOUS
 10
1100.556026545
 20
391.5484108157
 11
1100.556026545
 21
389.1484108157
  0
LINE
  5
2EE
100
AcDbEntity
  8
0
100
AcDbLine
 62
7
  6
CONTINUOUS
 10
1102.356026545
 20
389.2234108157
 11
1102.356026545
 21
391.4734108157
  0
LINE
  5
2EF
100
AcDbEntity
  8
0
100
AcDbLine
 62
7
  6
CONTINUOUS
 10
1106.106026545
 20
393.3484108157
 11
1106.106026545
 21
388.2484108157
  0
LINE
  5
2F0
100
AcDbEntity
  8
0
100
AcDbLine
 62
7
  6
CONTINUOUS
 10
1107.906026545
 20
385.8484108157
 11
1107.906026545
 21
387.3484108157
  0
LINE
  5
2F1
100
AcDbEntity
  8
0
100
AcDbLine
 62
7
  6
CONTINUOUS
 10
1107.906026545
 20
388.2484108157
 11
1107.906026545
 21
394.8484108157
  0
LINE
  5
2F2
100
AcDbEntity
  8
0
100
AcDbLine
 62
7
  6
CONTINUOUS
 10
1109.706026545
 20
391.2484108157
 11
1109.706026545
 21
385.8484108157
  0
LINE
  5
2F3
100
AcDbEntity
  8
0
100
AcDbLine
 62
7
  6
CONTINUOUS
 10
1111.506026545
 20
385.8484108157
 11
1111.506026545
 21
391.2484108157
  0
LINE
  5
2F4
100
AcDbEntity
  8
0
100
AcDbLine
 62
7
  6
CONTINUOUS
 10
1242.406026545
 20
397.3484108157
 11
1234.406026545
 21
389.3484108157
  0
LINE
  5
2F5
100
AcDbEntity
  8
0
100
AcDbLine
 62
7
  6
CONTINUOUS
 10
1279.9778785383
 20
414.3484108157
 11
1274.128526742
 21
410.2526505943
  0
LINE
  5
2F6
100
AcDbEntity
  8
0
100
AcDbLine
 62
7
  6
CONTINUOUS
 10
1115.106026545
 20
391.2484108157
 11
1115.106026545
 21
385.8484108157
  0
LINE
  5
2F7
100
AcDbEntity
  8
0
100
AcDbLine
 62
7
  6
CONTINUOUS
 10
1116.906026545
 20
385.8484108157
 11
1116.906026545
 21
391.2484108157
  0
LINE
  5
2F8
100
AcDbEntity
  8
0
100
AcDbLine
 62
7
  6
CONTINUOUS
 10
1124.406026545
 20
394.8484108157
 11
1124.406026545
 21
391.0984108157
  0
LINE
  5
2F9
100
AcDbEntity
  8
0
100
AcDbLine
 62
7
  6
CONTINUOUS
 10
1124.406026545
 20
389.5984108157
 11
1124.406026545
 21
388.2484108157
  0
LINE
  5
2FA
100
AcDbEntity
  8
0
100
AcDbLine
 62
7
  6
CONTINUOUS
 10
1125.906026545
 20
385.8484108157
 11
1125.906026545
 21
387.3484108157
  0
LINE
  5
2FB
100
AcDbEntity
  8
0
100
AcDbLine
 62
7
  6
CONTINUOUS
 10
1125.906026545
 20
388.2484108157
 11
1125.906026545
 21
394.8484108157
  0
LINE
  5
2FC
100
AcDbEntity
  8
RUNDUNGEN
100
AcDbLine
 62
7
  6
CONTINUOUS
 10
1394.0855184694
 20
420.5086648536
 11
1371.1691621387
 21
407.2779003572
  0
LINE
  5
2FD
100
AcDbEntity
  8
0
100
AcDbLine
 62
7
  6
CONTINUOUS
 10
956.0991722956
 20
402.6915565662
 11
955.0709977025
 21
403.7197311593
  0
LINE
  5
2FE
100
AcDbEntity
  8
RUNDUNGEN
100
AcDbLine
 62
7
  6
CONTINUOUS
 10
956.0991722956
 20
402.6915565662
 11
955.0709977025
 21
403.7197311593
  0
LINE
  5
2FF
100
AcDbEntity
  8
RUNDUNGEN
100
AcDbLine
 62
7
  6
CONTINUOUS
 10
1138.406026545
 20
326.9374918774
 11
1138.406026545
 21
416.3483317465
  0
LINE
  5
300
100
AcDbEntity
  8
RUNDUNGEN
100
AcDbLine
 62
7
  6
CONTINUOUS
 10
1147.406026545
 20
293.259329754
 11
1147.406026545
 21
78.3484108157
  0
LINE
  5
301
100
AcDbEntity
  8
0
100
AcDbLine
 62
7
  6
CONTINUOUS
 10
1149.406026545
 20
362.3484108157
 11
1149.406026545
 21
421.3484108157
  0
LINE
  5
302
100
AcDbEntity
  8
BEZUGSACHSEN
100
AcDbLine
 62
7
  6
CONTINUOUS
 10
1173.9562888456
 20
323.8242997232
 11
1165.8524883529
 21
296.3614202758
  0
LINE
  5
303
100
AcDbEntity
  8
RUNDUNGEN
100
AcDbLine
 62
7
  6
CONTINUOUS
 10
869.4283121019
 20
360.4383139882
 11
853.2635973607
 21
367.299828307
  0
LINE
  5
304
100
AcDbEntity
  8
0
100
AcDbLine
 62
7
  6
CONTINUOUS
 10
1163.406026545
 20
362.3484108157
 11
1163.406026545
 21
421.3484108157
  0
LINE
  5
305
100
AcDbEntity
  8
BEZUGSACHSEN
100
AcDbLine
 62
7
  6
CONTINUOUS
 10
1165.406026545
 20
293.259329754
 11
1165.406026545
 21
78.3484108157
  0
LINE
  5
306
100
AcDbEntity
  8
BEZUGSACHSEN
100
AcDbLine
 62
7
  6
CONTINUOUS
 10
1174.406026545
 20
326.9374918774
 11
1174.406026545
 21
416.3484108157
  0
LINE
  5
307
100
AcDbEntity
  8
BEZUGSACHSEN
100
AcDbLine
 62
7
  6
CONTINUOUS
 10
1459.5484557294
 20
367.299828307
 11
1443.383740816
 21
360.4383139151
  0
LINE
  5
308
100
AcDbEntity
  8
RUNDUNGEN
100
AcDbLine
 62
7
  6
CONTINUOUS
 10
1138.8557642445
 20
323.8242997232
 11
1146.9595628089
 21
296.3614268105
  0
LINE
  5
309
100
AcDbEntity
  8
0
100
AcDbLine
 62
7
  6
CONTINUOUS
 10
1356.7128807945
 20
402.6915565662
 11
1357.7410553876
 21
403.7197311593
  0
LINE
  5
30A
100
AcDbEntity
  8
RUNDUNGEN
100
AcDbLine
 62
7
  6
CONTINUOUS
 10
1356.7128807945
 20
402.6915565662
 11
1357.7410553876
 21
403.7197311593
  0
LINE
  5
30B
100
AcDbEntity
  8
BEZUGSACHSEN
100
AcDbLine
 62
7
  6
CONTINUOUS
 10
918.7265346207
 20
420.5086648536
 11
941.6428909514
 21
407.2779003572
  0
LINE
  5
30C
100
AcDbEntity
  8
0
100
AcDbLine
 62
7
  6
CONTINUOUS
 10
1118.106026545
 20
394.8484108157
 11
1120.3751442725
 21
390.9181836234
  0
LINE
  5
30D
100
AcDbEntity
  8
0
100
AcDbLine
 62
7
  6
CONTINUOUS
 10
1121.5701281602
 20
391.8484108157
 11
1119.8380773526
 21
394.8484108157
  0
LINE
  5
30E
100
AcDbEntity
  8
0
100
AcDbLine
 62
7
  6
CONTINUOUS
 10
1238.406026545
 20
389.3484108157
 11
1238.406026545
 21
379.3484108157
  0
LINE
  5
30F
100
AcDbEntity
  8
0
100
AcDbLine
 62
7
  6
CONTINUOUS
 10
1246.406026545
 20
379.3484108157
 11
1246.406026545
 21
389.3484108157
  0
LINE
  5
310
100
AcDbEntity
  8
BEZUGSACHSEN
100
AcDbLine
 62
7
  6
CONTINUOUS
 10
1435.5691178494
 20
358.8484108157
 11
1399.0855184694
 21
358.8484108157
  0
LINE
  5
311
100
AcDbEntity
  8
RUNDUNGEN
100
AcDbLine
 62
7
  6
CONTINUOUS
 10
877.2429352407
 20
358.8484108157
 11
913.7265346207
 21
358.8484108157
  0
LINE
  5
312
100
AcDbEntity
  8
0
100
AcDbLine
 62
7
  6
CONTINUOUS
 10
1151.406026545
 20
360.3484108157
 11
1161.406026545
 21
360.3484108157
  0
LINE
  5
313
100
AcDbEntity
  8
0
100
AcDbLine
 62
7
  6
CONTINUOUS
 10
1162.7289022006
 20
360.8484108157
 11
1150.0831508895
 21
360.8484108157
  0
LINE
  5
314
100
AcDbEntity
  8
BEZUGSACHSEN
100
AcDbLine
 62
7
  6
CONTINUOUS
 10
1313.906026545
 20
364.3484108157
 11
1309.406026545
 21
364.3484108157
  0
LINE
  5
315
100
AcDbEntity
  8
0
100
AcDbLine
 62
7
  6
CONTINUOUS
 10
1292.906026545
 20
366.3484108157
 11
1279.9778785383
 21
366.3484108157
  0
LINE
  5
316
100
AcDbEntity
  8
RUNDUNGEN
100
AcDbLine
 62
7
  6
CONTINUOUS
 10
1279.9778785383
 20
366.3484108157
 11
1292.906026545
 21
366.3484108157
  0
LINE
  5
317
100
AcDbEntity
  8
0
100
AcDbLine
 62
7
  6
CONTINUOUS
 10
1132.9534240906
 20
370.9690255742
 11
1132.2424580314
 21
371.2277960573
  0
LINE
  5
318
100
AcDbEntity
  8
0
100
AcDbLine
 62
7
  6
CONTINUOUS
 10
1279.9778785383
 20
366.3484108157
 11
1279.9778785383
 21
414.3484108157
  0
LINE
  5
319
100
AcDbEntity
  8
RUNDUNGEN
100
AcDbLine
 62
7
  6
CONTINUOUS
 10
1293.906026545
 20
367.3484108157
 11
1293.906026545
 21
413.3484108157
  0
LINE
  5
31A
100
AcDbEntity
  8
0
100
AcDbLine
 62
7
  6
CONTINUOUS
 10
1179.1745887128
 20
370.8484108157
 11
1174.406026545
 21
370.8484108157
  0
LINE
  5
31B
100
AcDbEntity
  8
0
100
AcDbLine
 62
7
  6
CONTINUOUS
 10
1138.406026545
 20
370.8484108157
 11
1133.6374643773
 21
370.8484108157
  0
LINE
  5
31C
100
AcDbEntity
  8
0
100
AcDbLine
 62
7
  6
CONTINUOUS
 10
1039.3719590581
 20
370.8484108157
 11
1018.906026545
 21
370.8484108157
  0
LINE
  5
31D
100
AcDbEntity
  8
RUNDUNGEN
100
AcDbLine
 62
7
  6
CONTINUOUS
 10
1018.906026545
 20
370.8484108157
 11
1039.3719590581
 21
370.8484108157
  0
LINE
  5
31E
100
AcDbEntity
  8
RUNDUNGEN
100
AcDbLine
 62
7
  6
CONTINUOUS
 10
1133.6374643773
 20
370.8484108157
 11
1138.406026545
 21
370.8484108157
  0
LINE
  5
31F
100
AcDbEntity
  8
RUNDUNGEN
100
AcDbLine
 62
7
  6
CONTINUOUS
 10
1174.406026545
 20
370.8484108157
 11
1179.1745887128
 21
370.8484108157
  0
LINE
  5
320
100
AcDbEntity
  8
0
100
AcDbLine
 62
7
  6
CONTINUOUS
 10
1271.2606445602
 20
371.3484108157
 11
1181.2536353454
 21
371.3484108157
  0
LINE
  5
321
100
AcDbEntity
  8
0
100
AcDbLine
 62
7
  6
CONTINUOUS
 10
1131.5584177447
 20
371.3484108157
 11
1041.5514085299
 21
371.3484108157
  0
LINE
  5
322
100
AcDbEntity
  8
RUNDUNGEN
100
AcDbLine
 62
7
  6
CONTINUOUS
 10
1361.1691662659
 20
376.0984108157
 11
1359.8623757311
 21
376.0984108157
  0
LINE
  5
323
100
AcDbEntity
  8
RUNDUNGEN
100
AcDbLine
 62
7
  6
CONTINUOUS
 10
952.9496773589
 20
376.0984108157
 11
951.6428868242
 21
376.0984108157
  0
LINE
  5
324
100
AcDbEntity
  8
0
100
AcDbLine
 62
7
  6
CONTINUOUS
 10
1238.406026545
 20
379.3484108157
 11
1246.406026545
 21
379.3484108157
  0
LINE
  5
325
100
AcDbEntity
  8
0
100
AcDbLine
 62
7
  6
CONTINUOUS
 10
1017.906026545
 20
380.3484108157
 11
961.756026545
 21
380.3484108157
  0
LINE
  5
326
100
AcDbEntity
  8
0
100
AcDbLine
 62
7
  6
CONTINUOUS
 10
1293.906026545
 20
380.3484108157
 11
1308.906026545
 21
380.3484108157
  0
LINE
  5
327
100
AcDbEntity
  8
0
100
AcDbLine
 62
7
  6
CONTINUOUS
 10
1315.906026545
 20
380.3484108157
 11
1351.056026545
 21
380.3484108157
  0
LINE
  5
328
100
AcDbEntity
  8
RUNDUNGEN
100
AcDbLine
 62
7
  6
CONTINUOUS
 10
1464.2252122847
 20
384.0984108157
 11
1434.8033156395
 21
384.0984108157
  0
LINE
  5
329
100
AcDbEntity
  8
RUNDUNGEN
100
AcDbLine
 62
7
  6
CONTINUOUS
 10
878.0089002981
 20
384.0984108157
 11
848.5868482694
 21
384.0984108157
  0
LINE
  5
32A
100
AcDbEntity
  8
0
100
AcDbLine
 62
7
  6
CONTINUOUS
 10
1103.856026545
 20
385.8484108157
 11
1107.906026545
 21
385.8484108157
  0
LINE
  5
32B
100
AcDbEntity
  8
0
100
AcDbLine
 62
7
  6
CONTINUOUS
 10
1109.706026545
 20
385.8484108157
 11
1111.506026545
 21
385.8484108157
  0
LINE
  5
32C
100
AcDbEntity
  8
0
100
AcDbLine
 62
7
  6
CONTINUOUS
 10
1115.106026545
 20
385.8484108157
 11
1116.906026545
 21
385.8484108157
  0
LINE
  5
32D
100
AcDbEntity
  8
0
100
AcDbLine
 62
7
  6
CONTINUOUS
 10
1121.331026545
 20
385.8484108157
 11
1125.906026545
 21
385.8484108157
  0
LINE
  5
32E
100
AcDbEntity
  8
0
100
AcDbLine
 62
7
  6
CONTINUOUS
 10
1125.906026545
 20
387.3484108157
 11
1121.931026545
 21
387.3484108157
  0
LINE
  5
32F
100
AcDbEntity
  8
0
100
AcDbLine
 62
7
  6
CONTINUOUS
 10
1107.906026545
 20
387.3484108157
 11
1104.231026545
 21
387.3484108157
  0
LINE
  5
330
100
AcDbEntity
  8
0
100
AcDbLine
 62
7
  6
CONTINUOUS
 10
1106.106026545
 20
388.2484108157
 11
1107.906026545
 21
388.2484108157
  0
LINE
  5
331
100
AcDbEntity
  8
0
100
AcDbLine
 62
7
  6
CONTINUOUS
 10
1124.406026545
 20
388.2484108157
 11
1125.906026545
 21
388.2484108157
  0
LINE
  5
332
100
AcDbEntity
  8
0
100
AcDbLine
 62
7
  6
CONTINUOUS
 10
1234.406026545
 20
389.3484108157
 11
1238.406026545
 21
389.3484108157
  0
LINE
  5
333
100
AcDbEntity
  8
0
100
AcDbLine
 62
7
  6
CONTINUOUS
 10
1246.406026545
 20
389.3484108157
 11
1250.406026545
 21
389.3484108157
  0
LINE
  5
334
100
AcDbEntity
  8
0
100
AcDbLine
 62
7
  6
CONTINUOUS
 10
1121.931026545
 20
389.5984108157
 11
1124.406026545
 21
389.5984108157
  0
LINE
  5
335
100
AcDbEntity
  8
0
100
AcDbLine
 62
7
  6
CONTINUOUS
 10
1124.406026545
 20
391.0984108157
 11
1122.8691662659
 21
391.0984108157
  0
LINE
  5
336
100
AcDbEntity
  8
RUNDUNGEN
100
AcDbLine
 62
7
  6
CONTINUOUS
 10
1308.906026545
 20
415.8484108157
 11
1308.906026545
 21
364.8484108157
  0
LINE
  5
337
100
AcDbEntity
  8
RUNDUNGEN
100
AcDbLine
 62
7
  6
CONTINUOUS
 10
1315.906026545
 20
414.3484107557
 11
1315.906026545
 21
366.3484108757
  0
LINE
  5
338
100
AcDbEntity
  8
0
100
AcDbLine
 62
7
  6
CONTINUOUS
 10
1104.231026545
 20
393.3484108157
 11
1106.106026545
 21
393.3484108157
  0
LINE
  5
339
100
AcDbEntity
  8
0
100
AcDbLine
 62
7
  6
CONTINUOUS
 10
1125.906026545
 20
394.8484108157
 11
1124.406026545
 21
394.8484108157
  0
LINE
  5
33A
100
AcDbEntity
  8
0
100
AcDbLine
 62
7
  6
CONTINUOUS
 10
1119.8380773526
 20
394.8484108157
 11
1118.106026545
 21
394.8484108157
  0
LINE
  5
33B
100
AcDbEntity
  8
0
100
AcDbLine
 62
7
  6
CONTINUOUS
 10
1107.906026545
 20
394.8484108157
 11
1103.856026545
 21
394.8484108157
  0
LINE
  5
33C
100
AcDbEntity
  8
0
100
AcDbLine
 62
7
  6
CONTINUOUS
 10
1293.906026545
 20
395.3484108157
 11
1308.906026545
 21
395.3484108157
  0
LINE
  5
33D
100
AcDbEntity
  8
0
100
AcDbLine
 62
7
  6
CONTINUOUS
 10
1315.906026545
 20
395.3484108157
 11
1347.056026545
 21
395.3484108157
  0
LINE
  5
33E
100
AcDbEntity
  8
RUNDUNGEN
100
AcDbLine
 62
7
  6
CONTINUOUS
 10
848.5868408054
 20
396.5984108157
 11
878.0087374506
 21
396.5984108157
  0
LINE
  5
33F
100
AcDbEntity
  8
RUNDUNGEN
100
AcDbLine
 62
7
  6
CONTINUOUS
 10
1434.803152792
 20
396.5984108157
 11
1464.2252048207
 21
396.5984108157
  0
LINE
  5
340
100
AcDbEntity
  8
0
100
AcDbLine
 62
7
  6
CONTINUOUS
 10
1293.906026545
 20
399.0086648536
 11
1308.906026545
 21
399.0086648536
  0
LINE
  5
341
100
AcDbEntity
  8
0
100
AcDbLine
 62
7
  6
CONTINUOUS
 10
1315.906026545
 20
399.0086648536
 11
1351.056026545
 21
399.0086648536
  0
LINE
  5
342
100
AcDbEntity
  8
0
100
AcDbLine
 62
7
  6
CONTINUOUS
 10
1017.906026545
 20
400.3484108157
 11
961.756026545
 21
400.3484108157
  0
LINE
  5
343
100
AcDbEntity
  8
0
100
AcDbLine
 62
7
  6
CONTINUOUS
 10
1293.906026545
 20
400.3484108157
 11
1308.906026545
 21
400.3484108157
  0
LINE
  5
344
100
AcDbEntity
  8
0
100
AcDbLine
 62
7
  6
CONTINUOUS
 10
1315.906026545
 20
400.3484108157
 11
1351.056026545
 21
400.3484108157
  0
LINE
  5
345
100
AcDbEntity
  8
RUNDUNGEN
100
AcDbLine
 62
7
  6
CONTINUOUS
 10
952.9496773589
 20
404.5984108157
 11
951.6428881319
 21
404.5984108157
  0
LINE
  5
346
100
AcDbEntity
  8
RUNDUNGEN
100
AcDbLine
 62
7
  6
CONTINUOUS
 10
1359.8623757311
 20
404.5984108157
 11
1361.1691662659
 21
404.5984108157
  0
LINE
  5
347
100
AcDbEntity
  8
0
100
AcDbLine
 62
7
  6
CONTINUOUS
 10
1271.2606445602
 20
409.3484108157
 11
1181.2536353454
 21
409.3484108157
  0
LINE
  5
348
100
AcDbEntity
  8
0
100
AcDbLine
 62
7
  6
CONTINUOUS
 10
1131.5584177447
 20
409.3484108157
 11
1041.5514085299
 21
409.3484108157
  0
LINE
  5
349
100
AcDbEntity
  8
RUNDUNGEN
100
AcDbLine
 62
7
  6
CONTINUOUS
 10
1131.5584177447
 20
409.3484108157
 11
1041.5514085299
 21
409.3484108157
  0
LINE
  5
34A
100
AcDbEntity
  8
0
100
AcDbLine
 62
7
  6
CONTINUOUS
 10
1179.1745887128
 20
409.8484108157
 11
1174.406026545
 21
409.8484108157
  0
LINE
  5
34B
100
AcDbEntity
  8
0
100
AcDbLine
 62
7
  6
CONTINUOUS
 10
1138.406026545
 20
409.8484108157
 11
1133.6374643773
 21
409.8484108157
  0
LINE
  5
34C
100
AcDbEntity
  8
0
100
AcDbLine
 62
7
  6
CONTINUOUS
 10
1039.3719590581
 20
409.8484108157
 11
1018.906026545
 21
409.8484108157
  0
LINE
  5
34D
100
AcDbEntity
  8
RUNDUNGEN
100
AcDbLine
 62
7
  6
CONTINUOUS
 10
1018.906026545
 20
409.8484108157
 11
1039.3719590581
 21
409.8484108157
  0
LINE
  5
34E
100
AcDbEntity
  8
RUNDUNGEN
100
AcDbLine
 62
7
  6
CONTINUOUS
 10
1133.6374643773
 20
409.8484108157
 11
1138.406026545
 21
409.8484108157
  0
LINE
  5
34F
100
AcDbEntity
  8
RUNDUNGEN
100
AcDbLine
 62
7
  6
CONTINUOUS
 10
1174.406026545
 20
409.8484108157
 11
1179.1745887128
 21
409.8484108157
  0
LINE
  5
350
100
AcDbEntity
  8
0
100
AcDbLine
 62
7
  6
CONTINUOUS
 10
1292.906026545
 20
414.3484108157
 11
1279.9778785383
 21
414.3484108157
  0
LINE
  5
351
100
AcDbEntity
  8
RUNDUNGEN
100
AcDbLine
 62
7
  6
CONTINUOUS
 10
1279.9778785383
 20
414.3484108157
 11
1292.906026545
 21
414.3484108157
  0
LINE
  5
352
100
AcDbEntity
  8
BEZUGSACHSEN
100
AcDbLine
 62
7
  6
CONTINUOUS
 10
1313.906026545
 20
416.3484108157
 11
1309.406026545
 21
416.3484108157
  0
LINE
  5
353
100
AcDbEntity
  8
0
100
AcDbLine
 62
7
  6
CONTINUOUS
 10
1180.5695950587
 20
409.4690255742
 11
1179.8586289995
 21
409.7277960573
  0
LINE
  5
354
100
AcDbEntity
  8
0
100
AcDbLine
 62
7
  6
CONTINUOUS
 10
1279.9778785383
 20
366.3484108157
 11
1274.128526742
 21
370.4441710372
  0
LINE
  5
355
100
AcDbEntity
  8
0
100
AcDbLine
 62
7
  6
CONTINUOUS
 10
1250.406026545
 20
389.3484108157
 11
1242.406026545
 21
397.3484108157
  0
LINE
  5
356
100
AcDbEntity
  8
0
100
AcDbLine
 62
7
  6
CONTINUOUS
 10
1163.406026545
 20
419.8484108157
 11
1149.406026545
 21
419.8484108157
  0
LINE
  5
357
100
AcDbEntity
  8
0
100
AcDbLine
 62
7
  6
CONTINUOUS
 10
1169.406026545
 20
421.3484108157
 11
1163.406026545
 21
421.3484108157
  0
LINE
  5
358
100
AcDbEntity
  8
0
100
AcDbLine
 62
7
  6
CONTINUOUS
 10
1149.406026545
 20
421.3484108157
 11
1143.406026545
 21
421.3484108157
  0
LINE
  5
359
100
AcDbEntity
  8
RUNDUNGEN
100
AcDbLine
 62
7
  6
CONTINUOUS
 10
1435.5691178494
 20
421.8484108157
 11
1399.0855184694
 21
421.8484108157
  0
LINE
  5
35A
100
AcDbEntity
  8
BEZUGSACHSEN
100
AcDbLine
 62
7
  6
CONTINUOUS
 10
877.2429352407
 20
421.8484108157
 11
913.7265346207
 21
421.8484108157
  0
LINE
  5
35B
100
AcDbEntity
  8
BEZUGSACHSEN
100
AcDbLine
 62
7
  6
CONTINUOUS
 10
1394.0855184694
 20
360.1881567779
 11
1371.1691621387
 21
373.4189212743
  0
LINE
  5
35C
100
AcDbEntity
  8
BEZUGSACHSEN
100
AcDbLine
 62
7
  6
CONTINUOUS
 10
1468.644261496
 20
376.5212919881
 11
1468.6440663516
 21
376.520813722
  0
LINE
  5
35D
100
AcDbEntity
  8
0
100
AcDbLine
 62
7
  6
CONTINUOUS
 10
1356.7128807945
 20
378.0052650652
 11
1357.7410553876
 21
376.9770904722
  0
LINE
  5
35E
100
AcDbEntity
  8
RUNDUNGEN
100
AcDbLine
 62
7
  6
CONTINUOUS
 10
1356.7128807945
 20
378.0052650652
 11
1357.7410553876
 21
376.9770904722
  0
LWPOLYLINE
  5
35F
100
AcDbEntity
  8
BEZUGSACHSEN
100
AcDbPolyline
 62
7
  6
CONTINUOUS
 90
5
 70
0
 10
1468.644261496
 20
376.5212919881
 10
1468.694766054
 20
376.6617585699
 10
1468.7373753418
 20
376.8249541653
 10
1468.7642310077
 20
376.9912270015
 10
1468.7719585714
 20
377.0794583765
  0
LINE
  5
360
100
AcDbEntity
  8
RUNDUNGEN
100
AcDbLine
 62
7
  6
CONTINUOUS
 10
1459.5484557294
 20
413.3969933244
 11
1443.383740816
 21
420.2585077164
  0
LINE
  5
361
100
AcDbEntity
  8
BEZUGSACHSEN
100
AcDbLine
 62
7
  6
CONTINUOUS
 10
1456.1492105199
 20
386.0984108157
 11
1456.1492105199
 21
394.5984108157
  0
LINE
  5
362
100
AcDbEntity
  8
RUNDUNGEN
100
AcDbLine
 62
7
  6
CONTINUOUS
 10
1468.9318709311
 20
382.3484108157
 11
1468.9296430096
 21
398.978459656
  0
LWPOLYLINE
  5
363
100
AcDbEntity
  8
BEZUGSACHSEN
100
AcDbPolyline
 62
7
  6
CONTINUOUS
 90
8
 70
0
 10
1468.7719642338
 20
377.0795316081
 10
1468.8150861323
 20
377.829500317
 10
1468.8518870741
 20
378.5972870713
 10
1468.8817604997
 20
379.3720184975
 10
1468.9046786123
 20
380.151745864
 10
1468.9206347096
 20
380.934519618
 10
1468.9296430096
 20
381.7183619755
 10
1468.9318708996
 20
382.3484108157
  0
LWPOLYLINE
  5
364
100
AcDbEntity
  8
RUNDUNGEN
100
AcDbPolyline
 62
7
  6
CONTINUOUS
 90
5
 70
0
 10
1468.771958595
 20
403.6173628752
 10
1468.7642559136
 20
403.7053739626
 10
1468.7374102934
 20
403.8717016244
 10
1468.6947968271
 20
404.0349646208
 10
1468.6442615905
 20
404.1755294115
  0
LINE
  5
365
100
AcDbEntity
  8
RUNDUNGEN
100
AcDbLine
 62
7
  6
CONTINUOUS
 10
1468.8150861323
 20
402.8673213144
 11
1468.7719642338
 21
403.6172900233
  0
LWPOLYLINE
  5
366
100
AcDbEntity
  8
RUNDUNGEN
100
AcDbPolyline
 62
7
  6
CONTINUOUS
 90
6
 70
0
 10
1468.9296430096
 20
398.978459656
 10
1468.9206347096
 20
399.7623020135
 10
1468.9046786123
 20
400.5450757674
 10
1468.8817604997
 20
401.3248031339
 10
1468.8518870741
 20
402.0995345601
 10
1468.8150861323
 20
402.8673213144
  0
LINE
  5
367
100
AcDbEntity
  8
RUNDUNGEN
100
AcDbLine
 62
7
  6
CONTINUOUS
 10
1468.6442615905
 20
404.1755294115
 11
1468.6440663516
 21
404.1760079095
  0
LINE
  5
368
100
AcDbEntity
  8
BEZUGSACHSEN
100
AcDbLine
 62
7
  6
CONTINUOUS
 10
-50.0482483443
 20
577.3759781385
 11
-45.2927376069
 21
550.40613655
  0
LINE
  5
369
100
AcDbEntity
  8
RUNDUNGEN
100
AcDbLine
 62
7
  6
CONTINUOUS
 10
-50.0482483443
 20
577.3759781385
 11
-45.2927376069
 21
550.40613655
  0
LINE
  5
36A
100
AcDbEntity
  8
RUNDUNGEN
100
AcDbLine
 62
7
  6
CONTINUOUS
 10
-38.1645159653
 20
575.1563550601
 11
-38.2218702413
 21
575.2598249129
  0
LINE
  5
36B
100
AcDbEntity
  8
BEZUGSACHSEN
100
AcDbLine
 62
7
  6
CONTINUOUS
 10
-27.0896759903
 20
555.1768148631
 11
-41.5831692118
 21
581.3237687754
  0
LINE
  5
36C
100
AcDbEntity
  8
BEZUGSACHSEN
100
AcDbLine
 62
7
  6
CONTINUOUS
 10
-44.3020278666
 20
582.1033889492
 11
-49.0482520788
 21
579.4725139082
  0
LINE
  5
36D
100
AcDbEntity
  8
RUNDUNGEN
100
AcDbLine
 62
7
  6
CONTINUOUS
 10
102.9472115477
 20
568.8730081897
 11
102.9472115477
 21
520.8730081897
  0
LINE
  5
36E
100
AcDbEntity
  8
RUNDUNGEN
100
AcDbLine
 62
7
  6
CONTINUOUS
 10
109.9472115477
 20
519.3730081897
 11
109.9472115477
 21
570.3730081897
  0
LINE
  5
36F
100
AcDbEntity
  8
RUNDUNGEN
100
AcDbLine
 62
7
  6
CONTINUOUS
 10
124.9472115477
 20
567.8729094194
 11
124.9472115477
 21
521.8730081897
  0
LINE
  5
370
100
AcDbEntity
  8
RUNDUNGEN
100
AcDbLine
 62
7
  6
CONTINUOUS
 10
129.4472115477
 20
567.7845303576
 11
129.4472115477
 21
568.8730081897
  0
LINE
  5
371
100
AcDbEntity
  8
RUNDUNGEN
100
AcDbLine
 62
7
  6
CONTINUOUS
 10
138.8753595545
 20
567.7845303576
 11
138.8753595545
 21
544.8730081897
  0
LINE
  5
372
100
AcDbEntity
  8
0
100
AcDbLine
 62
7
  6
CONTINUOUS
 10
138.8753595545
 20
544.8730081897
 11
138.8753595545
 21
520.8730081897
  0
LINE
  5
373
100
AcDbEntity
  8
0
100
AcDbLine
 62
7
  6
CONTINUOUS
 10
62.1403572982
 20
532.5298624392
 11
60.8285945588
 21
531.2180996998
  0
LINE
  5
374
100
AcDbEntity
  8
RUNDUNGEN
100
AcDbLine
 62
7
  6
CONTINUOUS
 10
60.6537314869
 20
531.0578674642
 11
60.8370659085
 21
531.2265712609
  0
LWPOLYLINE
  5
375
100
AcDbEntity
  8
RUNDUNGEN
100
AcDbPolyline
 62
7
  6
CONTINUOUS
 90
11
 70
0
 10
61.2008960177
 20
558.1556151019
 10
61.0086562764
 20
558.3318256133
 10
60.8026773011
 20
558.4900880682
 10
60.5837800425
 20
558.6299390351
 10
60.3536056169
 20
558.7503300473
 10
60.1138796866
 20
558.8503585333
 10
59.8663995111
 20
558.9292745871
 10
59.6130204754
 20
558.9864865852
 10
59.355642218
 20
559.0215656159
 10
59.0961943558
 20
559.0342487081
 10
58.8366219928
 20
559.0244408004
  0
LINE
  5
376
100
AcDbEntity
  8
0
100
AcDbLine
 62
7
  6
CONTINUOUS
 10
62.1403572982
 20
557.2161539402
 11
61.2003817239
 21
558.1561295146
  0
LINE
  5
377
100
AcDbEntity
  8
0
100
AcDbLine
 62
7
  6
CONTINUOUS
 10
168.4472115477
 20
525.8993422287
 11
168.4472115477
 21
525.2985350167
  0
LINE
  5
378
100
AcDbEntity
  8
0
100
AcDbLine
 62
7
  6
CONTINUOUS
 10
172.4472115477
 20
529.3810748049
 11
172.4472115477
 21
525.2985350167
  0
LINE
  5
379
100
AcDbEntity
  8
0
100
AcDbLine
 62
7
  6
CONTINUOUS
 10
180.4472115477
 20
525.2985350167
 11
180.4472115477
 21
529.3810748049
  0
LINE
  5
37A
100
AcDbEntity
  8
RUNDUNGEN
100
AcDbLine
 62
7
  6
CONTINUOUS
 10
151.5866094632
 20
561.1324320384
 11
151.5151764726
 21
561.2337902292
  0
LINE
  5
37B
100
AcDbEntity
  8
RUNDUNGEN
100
AcDbLine
 62
7
  6
CONTINUOUS
 10
151.5184594147
 20
561.2289307981
 11
151.4648355185
 21
561.3116539764
  0
LWPOLYLINE
  5
37C
100
AcDbEntity
  8
RUNDUNGEN
100
AcDbPolyline
 62
7
  6
CONTINUOUS
 90
4
 70
0
 10
151.4671881598
 20
561.307844055
 10
151.4315102489
 20
561.36822833
 10
151.4104873547
 20
561.4079435338
 10
151.4075794547
 20
561.4139229671
  0
LINE
  5
37D
100
AcDbEntity
  8
0
100
AcDbLine
 62
7
  6
CONTINUOUS
 10
184.4472115477
 20
525.8993422287
 11
184.4472115477
 21
525.2985350167
  0
LINE
  5
37E
100
AcDbEntity
  8
RUNDUNGEN
100
AcDbLine
 62
7
  6
CONTINUOUS
 10
151.6724886101
 20
561.0195588544
 11
151.5823070421
 21
561.1383113052
  0
LINE
  5
37F
100
AcDbEntity
  8
0
100
AcDbLine
 62
7
  6
CONTINUOUS
 10
138.8753595545
 20
520.8730081897
 11
144.7247113508
 21
524.9687684112
  0
LINE
  5
380
100
AcDbEntity
  8
RUNDUNGEN
100
AcDbLine
 62
7
  6
CONTINUOUS
 10
145.1467441722
 20
563.5123821454
 11
144.9483059417
 21
563.6295702518
  0
LINE
  5
381
100
AcDbEntity
  8
RUNDUNGEN
100
AcDbLine
 62
7
  6
CONTINUOUS
 10
144.9483044804
 20
563.6295564656
 11
144.9081423116
 21
563.6549676681
  0
LINE
  5
382
100
AcDbEntity
  8
RUNDUNGEN
100
AcDbLine
 62
7
  6
CONTINUOUS
 10
144.9183423379
 20
563.6484634346
 11
144.8319641626
 21
563.7046516684
  0
LINE
  5
383
100
AcDbEntity
  8
RUNDUNGEN
100
AcDbLine
 62
7
  6
CONTINUOUS
 10
144.8420444928
 20
563.6979637639
 11
144.7566428178
 21
563.7557463427
  0
LINE
  5
384
100
AcDbEntity
  8
RUNDUNGEN
100
AcDbLine
 62
7
  6
CONTINUOUS
 10
144.7665995137
 20
563.7488772037
 11
144.7270528224
 21
563.7763703035
  0
LINE
  5
385
100
AcDbEntity
  8
RUNDUNGEN
100
AcDbLine
 62
7
  6
CONTINUOUS
 10
144.727052907
 20
563.7763701906
 11
138.8755015789
 21
567.8744251274
  0
LWPOLYLINE
  5
386
100
AcDbEntity
  8
RUNDUNGEN
100
AcDbPolyline
 62
7
  6
CONTINUOUS
 90
14
 70
0
 10
244.4472115477
 20
560.0220626511
 10
244.2685501206
 20
559.8999059618
 10
243.9807804333
 20
559.7164360119
 10
243.6807967428
 20
559.5393163923
 10
243.3698169055
 20
559.3708117225
 10
243.0483444355
 20
559.2128560012
 10
242.7172131631
 20
559.0676578963
 10
242.3779823403
 20
558.937740249
 10
242.0316826219
 20
558.8253268692
 10
241.6824961062
 20
558.7332950041
 10
241.3339726288
 20
558.6634332206
 10
240.9897176034
 20
558.6165656922
 10
240.6538637371
 20
558.5924792536
 10
240.4472115481
 20
558.5883797265
  0
LWPOLYLINE
  5
387
100
AcDbEntity
  8
RUNDUNGEN
100
AcDbPolyline
 62
7
  6
CONTINUOUS
 90
9
 70
0
 10
238.3550524341
 20
558.1443030805
 10
237.9878380388
 20
557.941842596
 10
237.9309661877
 20
557.91277768
 10
237.8750597966
 20
557.8878545287
 10
237.8196936863
 20
557.8669463078
 10
237.7643370765
 20
557.850082063
 10
237.7101519026
 20
557.8378452596
 10
237.6562173398
 20
557.8302127426
 10
237.5996027486
 20
557.8274594491
  0
LINE
  5
388
100
AcDbEntity
  8
RUNDUNGEN
100
AcDbLine
 62
7
  6
CONTINUOUS
 10
238.7233416569
 20
558.3454789412
 11
238.3491936013
 21
558.1410804962
  0
LINE
  5
389
100
AcDbEntity
  8
RUNDUNGEN
100
AcDbLine
 62
7
  6
CONTINUOUS
 10
368.9937514056
 20
558.0743027668
 11
368.6497288522
 21
557.9779077573
  0
LINE
  5
38A
100
AcDbEntity
  8
0
100
AcDbLine
 62
7
  6
CONTINUOUS
 10
183.4413881548
 20
525.2737999096
 11
184.4472115477
 21
525.2985350167
  0
LWPOLYLINE
  5
38B
100
AcDbEntity
  8
RUNDUNGEN
100
AcDbPolyline
 62
7
  6
CONTINUOUS
 90
11
 70
0
 10
289.3247109836
 20
525.8730075483
 10
289.3583535367
 20
525.8732905235
 10
289.5532059529
 20
525.8861029038
 10
289.7458697799
 20
525.9178540175
 10
289.9345090498
 20
525.9682381523
 10
290.1173266429
 20
526.0367720904
 10
290.2925814716
 20
526.1227998172
 10
290.458605047
 20
526.2254988786
 10
290.6138169296
 20
526.3438879821
 10
290.7567401807
 20
526.4768365667
 10
290.8859614234
 20
526.6230082104
  0
LINE
  5
38C
100
AcDbEntity
  8
0
100
AcDbLine
 62
7
  6
CONTINUOUS
 10
249.4472115477
 20
513.8730081897
 11
255.4472115477
 21
513.8730081897
  0
LINE
  5
38D
100
AcDbEntity
  8
0
100
AcDbLine
 62
7
  6
CONTINUOUS
 10
269.4472115477
 20
513.8730081897
 11
275.4472115477
 21
513.8730081897
  0
LINE
  5
38E
100
AcDbEntity
  8
RUNDUNGEN
100
AcDbLine
 62
7
  6
CONTINUOUS
 10
527.8404273228
 20
514.8730081897
 11
502.4472115477
 21
514.8730081897
  0
LINE
  5
38F
100
AcDbEntity
  8
BEZUGSACHSEN
100
AcDbLine
 62
7
  6
CONTINUOUS
 10
-2.9460042273
 20
514.8730081897
 11
22.4472115477
 21
514.8730081897
  0
LINE
  5
390
100
AcDbEntity
  8
0
100
AcDbLine
 62
7
  6
CONTINUOUS
 10
255.4472115477
 20
515.3730081897
 11
269.4472115477
 21
515.3730081897
  0
LINE
  5
391
100
AcDbEntity
  8
RUNDUNGEN
100
AcDbLine
 62
7
  6
CONTINUOUS
 10
104.9472115477
 20
518.8730081897
 11
109.4472115477
 21
518.8730081897
  0
LINE
  5
392
100
AcDbEntity
  8
BEZUGSACHSEN
100
AcDbLine
 62
7
  6
CONTINUOUS
 10
104.9472115477
 20
518.8730081897
 11
109.4472115477
 21
518.8730081897
  0
LINE
  5
393
100
AcDbEntity
  8
0
100
AcDbLine
 62
7
  6
CONTINUOUS
 10
125.9472115477
 20
520.8730081897
 11
138.8753595545
 21
520.8730081897
  0
LINE
  5
394
100
AcDbEntity
  8
BEZUGSACHSEN
100
AcDbLine
 62
7
  6
CONTINUOUS
 10
268.4472115477
 20
524.8730081897
 11
256.4472115477
 21
524.8730081897
  0
LINE
  5
395
100
AcDbEntity
  8
0
100
AcDbLine
 62
7
  6
CONTINUOUS
 10
169.4466415082
 20
525.2730081897
 11
183.4477816632
 21
525.2730081897
  0
LINE
  5
396
100
AcDbEntity
  8
0
100
AcDbLine
 62
7
  6
CONTINUOUS
 10
184.4472115477
 20
525.2985350167
 11
180.4472115477
 21
525.2985350167
  0
LINE
  5
397
100
AcDbEntity
  8
0
100
AcDbLine
 62
7
  6
CONTINUOUS
 10
172.4472115477
 20
525.2985350167
 11
168.4472115477
 21
525.2985350167
  0
LINE
  5
398
100
AcDbEntity
  8
0
100
AcDbLine
 62
7
  6
CONTINUOUS
 10
239.67864938
 20
525.3730081897
 11
244.4472115477
 21
525.3730081897
  0
LINE
  5
399
100
AcDbEntity
  8
0
100
AcDbLine
 62
7
  6
CONTINUOUS
 10
280.4472115477
 20
525.3730081897
 11
285.2157737155
 21
525.3730081897
  0
LINE
  5
39A
100
AcDbEntity
  8
0
100
AcDbLine
 62
7
  6
CONTINUOUS
 10
379.4812790346
 20
525.3730081897
 11
399.9472115477
 21
525.3730081897
  0
LINE
  5
39B
100
AcDbEntity
  8
0
100
AcDbLine
 62
7
  6
CONTINUOUS
 10
147.5925935326
 20
525.8730081897
 11
168.4472115477
 21
525.8730081897
  0
LINE
  5
39C
100
AcDbEntity
  8
0
100
AcDbLine
 62
7
  6
CONTINUOUS
 10
184.4472115477
 20
525.8730081897
 11
237.5996027474
 21
525.8730081897
  0
LINE
  5
39D
100
AcDbEntity
  8
0
100
AcDbLine
 62
7
  6
CONTINUOUS
 10
287.294820348
 20
525.8730081897
 11
289.3290337364
 21
525.8730081897
  0
LINE
  5
39E
100
AcDbEntity
  8
0
100
AcDbLine
 62
7
  6
CONTINUOUS
 10
321.5652466618
 20
525.8730081897
 11
377.3018295629
 21
525.8730081897
  0
LINE
  5
39F
100
AcDbEntity
  8
0
100
AcDbLine
 62
7
  6
CONTINUOUS
 10
168.4472115477
 20
525.8993422287
 11
172.4472115477
 21
525.8993422287
  0
LINE
  5
3A0
100
AcDbEntity
  8
0
100
AcDbLine
 62
7
  6
CONTINUOUS
 10
180.4472115477
 20
525.8993422287
 11
184.4472115477
 21
525.8993422287
  0
LINE
  5
3A1
100
AcDbEntity
  8
0
100
AcDbLine
 62
7
  6
CONTINUOUS
 10
318.2972115477
 20
526.6730081897
 11
310.9472115477
 21
526.6730081897
  0
LINE
  5
3A2
100
AcDbEntity
  8
0
100
AcDbLine
 62
7
  6
CONTINUOUS
 10
309.1472115477
 20
526.6730081897
 11
301.9472115477
 21
526.6730081897
  0
LINE
  5
3A3
100
AcDbEntity
  8
0
100
AcDbLine
 62
7
  6
CONTINUOUS
 10
300.7472115477
 20
526.6730081897
 11
292.9472115477
 21
526.6730081897
  0
LINE
  5
3A4
100
AcDbEntity
  8
RUNDUNGEN
100
AcDbLine
 62
7
  6
CONTINUOUS
 10
292.4471813142
 20
527.3730081897
 11
318.4471545163
 21
527.3730081897
  0
LINE
  5
3A5
100
AcDbEntity
  8
0
100
AcDbLine
 62
7
  6
CONTINUOUS
 10
180.4472115477
 20
528.6508011882
 11
172.4472115477
 21
528.6508011882
  0
LINE
  5
3A6
100
AcDbEntity
  8
BEZUGSACHSEN
100
AcDbLine
 62
7
  6
CONTINUOUS
 10
263.4472115477
 20
528.8730081897
 11
261.4472115477
 21
528.8730081897
  0
LINE
  5
3A7
100
AcDbEntity
  8
0
100
AcDbLine
 62
7
  6
CONTINUOUS
 10
172.4472115477
 20
529.3810748049
 11
180.4472115477
 21
529.3810748049
  0
LINE
  5
3A8
100
AcDbEntity
  8
0
100
AcDbLine
 62
7
  6
CONTINUOUS
 10
168.4472115477
 20
525.2985350167
 11
169.4530288425
 21
525.2737985033
  0
LINE
  5
3A9
100
AcDbEntity
  8
0
100
AcDbLine
 62
7
  6
CONTINUOUS
 10
238.283643034
 20
525.7523934313
 11
238.9946090933
 21
525.4936229482
  0
LINE
  5
3AA
100
AcDbEntity
  8
BEZUGSACHSEN
100
AcDbLine
 62
7
  6
CONTINUOUS
 10
244.4472115477
 20
570.8729725393
 11
244.4472115477
 21
518.8730441804
  0
LINE
  5
3AB
100
AcDbEntity
  8
BEZUGSACHSEN
100
AcDbLine
 62
7
  6
CONTINUOUS
 10
253.4472115477
 20
536.8730081897
 11
253.4472115477
 21
552.8730081897
  0
LINE
  5
3AC
100
AcDbEntity
  8
0
100
AcDbLine
 62
7
  6
CONTINUOUS
 10
255.4472115477
 20
513.8730813104
 11
255.4472115477
 21
524.9147096607
  0
LINE
  5
3AD
100
AcDbEntity
  8
0
100
AcDbLine
 62
7
  6
CONTINUOUS
 10
255.4472115477
 20
564.8313066744
 11
255.4472115477
 21
575.8729350691
  0
LINE
  5
3AE
100
AcDbEntity
  8
RUNDUNGEN
100
AcDbLine
 62
7
  6
CONTINUOUS
 10
368.6603883394
 20
557.9805542326
 11
368.3145137923
 21
557.9062021547
  0
LINE
  5
3AF
100
AcDbEntity
  8
RUNDUNGEN
100
AcDbLine
 62
7
  6
CONTINUOUS
 10
368.3252745228
 20
557.9081506402
 11
367.9799037145
 21
557.8572923325
  0
LINE
  5
3B0
100
AcDbEntity
  8
RUNDUNGEN
100
AcDbLine
 62
7
  6
CONTINUOUS
 10
367.9906587612
 20
557.8585104021
 11
367.6522955582
 21
557.8320266109
  0
LINE
  5
3B1
100
AcDbEntity
  8
0
100
AcDbLine
 62
7
  6
CONTINUOUS
 10
124.9472115477
 20
534.8730081897
 11
109.9472115477
 21
534.8730081897
  0
LINE
  5
3B2
100
AcDbEntity
  8
0
100
AcDbLine
 62
7
  6
CONTINUOUS
 10
102.9472115477
 20
534.8730081897
 11
67.7972115477
 21
534.8730081897
  0
LINE
  5
3B3
100
AcDbEntity
  8
0
100
AcDbLine
 62
7
  6
CONTINUOUS
 10
400.9472115477
 20
534.8730081897
 11
457.0972115477
 21
534.8730081897
  0
LINE
  5
3B4
100
AcDbEntity
  8
BEZUGSACHSEN
100
AcDbLine
 62
7
  6
CONTINUOUS
 10
-9.5972823584
 20
544.8730081897
 11
22.4472146769
 21
544.8730081897
  0
LINE
  5
3B5
100
AcDbEntity
  8
RUNDUNGEN
100
AcDbLine
 62
7
  6
CONTINUOUS
 10
502.4472084185
 20
544.8730081897
 11
534.4917054538
 21
544.8730081897
  0
LINE
  5
3B6
100
AcDbEntity
  8
0
100
AcDbLine
 62
7
  6
CONTINUOUS
 10
124.9472115477
 20
549.8730081897
 11
109.9472115477
 21
549.8730081897
  0
LINE
  5
3B7
100
AcDbEntity
  8
0
100
AcDbLine
 62
7
  6
CONTINUOUS
 10
102.9472115477
 20
549.8730081897
 11
66.9664436075
 21
549.8730081897
  0
LINE
  5
3B8
100
AcDbEntity
  8
0
100
AcDbLine
 62
7
  6
CONTINUOUS
 10
269.4472115477
 20
575.8729350691
 11
269.4472115477
 21
564.8313066744
  0
LINE
  5
3B9
100
AcDbEntity
  8
0
100
AcDbLine
 62
7
  6
CONTINUOUS
 10
269.4472115477
 20
524.9147096607
 11
269.4472115477
 21
513.8730813104
  0
LINE
  5
3BA
100
AcDbEntity
  8
RUNDUNGEN
100
AcDbLine
 62
7
  6
CONTINUOUS
 10
271.4472115477
 20
536.8730081897
 11
271.4472115477
 21
552.8730081897
  0
LINE
  5
3BB
100
AcDbEntity
  8
RUNDUNGEN
100
AcDbLine
 62
7
  6
CONTINUOUS
 10
280.4472115477
 20
570.8729725393
 11
280.4472115477
 21
518.8730441804
  0
LWPOLYLINE
  5
3BC
100
AcDbEntity
  8
RUNDUNGEN
100
AcDbPolyline
 62
7
  6
CONTINUOUS
 90
7
 70
0
 10
59.1023178787
 20
530.3729022654
 10
59.3842559135
 20
530.4233243342
 10
59.6601391223
 20
530.5004154095
 10
59.927412661
 20
530.6034676628
 10
60.1836396771
 20
530.7315416974
 10
60.4264840089
 20
530.8834699764
 10
60.6537314869
 20
531.0578674642
  0
LINE
  5
3BD
100
AcDbEntity
  8
RUNDUNGEN
100
AcDbLine
 62
7
  6
CONTINUOUS
 10
367.6588848816
 20
557.8321734776
 11
367.4472115469
 21
557.8274555786
  0
LINE
  5
3BE
100
AcDbEntity
  8
0
100
AcDbLine
 62
7
  6
CONTINUOUS
 10
124.9472115477
 20
553.5332622276
 11
109.9472115477
 21
553.5332622276
  0
LINE
  5
3BF
100
AcDbEntity
  8
0
100
AcDbLine
 62
7
  6
CONTINUOUS
 10
102.9472115477
 20
553.5332622276
 11
71.7972115477
 21
553.5332622276
  0
LINE
  5
3C0
100
AcDbEntity
  8
0
100
AcDbLine
 62
7
  6
CONTINUOUS
 10
124.9472115477
 20
554.8730081897
 11
109.9472115477
 21
554.8730081897
  0
LINE
  5
3C1
100
AcDbEntity
  8
0
100
AcDbLine
 62
7
  6
CONTINUOUS
 10
102.9472115477
 20
554.8730081897
 11
67.7972115477
 21
554.8730081897
  0
LINE
  5
3C2
100
AcDbEntity
  8
0
100
AcDbLine
 62
7
  6
CONTINUOUS
 10
400.9472115477
 20
554.8730081897
 11
457.0972115477
 21
554.8730081897
  0
LINE
  5
3C3
100
AcDbEntity
  8
RUNDUNGEN
100
AcDbLine
 62
7
  6
CONTINUOUS
 10
367.4472115477
 20
557.8274593398
 11
287.2948226979
 21
557.8274593398
  0
LINE
  5
3C4
100
AcDbEntity
  8
RUNDUNGEN
100
AcDbLine
 62
7
  6
CONTINUOUS
 10
237.5996027474
 20
557.8274593398
 11
157.447209893
 21
557.8274593398
  0
LINE
  5
3C5
100
AcDbEntity
  8
RUNDUNGEN
100
AcDbLine
 62
7
  6
CONTINUOUS
 10
285.2157737155
 20
558.5883827036
 11
284.4472123063
 21
558.5883827036
  0
LINE
  5
3C6
100
AcDbEntity
  8
RUNDUNGEN
100
AcDbLine
 62
7
  6
CONTINUOUS
 10
240.4472115477
 20
558.5883827036
 11
239.67864938
 21
558.5883827036
  0
LINE
  5
3C7
100
AcDbEntity
  8
BEZUGSACHSEN
100
AcDbLine
 62
7
  6
CONTINUOUS
 10
261.4472115477
 20
560.8730081897
 11
263.4472115477
 21
560.8730081897
  0
LINE
  5
3C8
100
AcDbEntity
  8
RUNDUNGEN
100
AcDbLine
 62
7
  6
CONTINUOUS
 10
149.4750320259
 20
562.9007859675
 11
147.5925935663
 21
562.9007859675
  0
LINE
  5
3C9
100
AcDbEntity
  8
0
100
AcDbLine
 62
7
  6
CONTINUOUS
 10
375.4472115477
 20
563.8730081897
 11
377.3018295629
 21
563.8730081897
  0
LINE
  5
3CA
100
AcDbEntity
  8
0
100
AcDbLine
 62
7
  6
CONTINUOUS
 10
379.4812790346
 20
564.3730081897
 11
399.9472115477
 21
564.3730081897
  0
LINE
  5
3CB
100
AcDbEntity
  8
BEZUGSACHSEN
100
AcDbLine
 62
7
  6
CONTINUOUS
 10
256.4472115477
 20
564.8730081897
 11
268.4472115477
 21
564.8730081897
  0
LINE
  5
3CC
100
AcDbEntity
  8
RUNDUNGEN
100
AcDbLine
 62
7
  6
CONTINUOUS
 10
129.4472115477
 20
567.8752368436
 11
138.8706314431
 21
567.8752368436
  0
LINE
  5
3CD
100
AcDbEntity
  8
0
100
AcDbLine
 62
7
  6
CONTINUOUS
 10
125.9472115477
 20
568.8730081897
 11
129.4472115477
 21
568.8730081897
  0
LINE
  5
3CE
100
AcDbEntity
  8
RUNDUNGEN
100
AcDbLine
 62
7
  6
CONTINUOUS
 10
104.9472115477
 20
570.8730081897
 11
109.4472115477
 21
570.8730081897
  0
LINE
  5
3CF
100
AcDbEntity
  8
BEZUGSACHSEN
100
AcDbLine
 62
7
  6
CONTINUOUS
 10
104.9472115477
 20
570.8730081897
 11
109.4472115477
 21
570.8730081897
  0
LINE
  5
3D0
100
AcDbEntity
  8
RUNDUNGEN
100
AcDbLine
 62
7
  6
CONTINUOUS
 10
284.4472123106
 20
558.5883796974
 11
284.2514508882
 21
558.5920584945
  0
LWPOLYLINE
  5
3D1
100
AcDbEntity
  8
RUNDUNGEN
100
AcDbPolyline
 62
7
  6
CONTINUOUS
 90
24
 70
0
 10
157.4472098884
 20
557.8274555577
 10
157.2665460657
 20
557.8308911872
 10
156.9554483446
 20
557.8528999971
 10
156.6428688394
 20
557.8952455963
 10
156.330207061
 20
557.9574991768
 10
156.0193889846
 20
558.0384792994
 10
155.7104338867
 20
558.1372390624
 10
155.4042049253
 20
558.2524799768
 10
155.1001154954
 20
558.3833822949
 10
154.7976667781
 20
558.5294328154
 10
154.4974670489
 20
558.6895789377
 10
154.1987883533
 20
558.8636772406
 10
153.9055392464
 20
559.0488515096
 10
153.6197361866
 20
559.2429569578
 10
153.3448064012
 20
559.4426514858
 10
153.0833823526
 20
559.6448371021
 10
152.8377282898
 20
559.8464642556
 10
152.6096866029
 20
560.0446257927
 10
152.4010061237
 20
560.2363682668
 10
152.2131061726
 20
560.4188547739
 10
152.0463768071
 20
560.5900632531
 10
151.9014591421
 20
560.7476018986
 10
151.7771236925
 20
560.8910296663
 10
151.6724886101
 20
561.0195588544
  0
LINE
  5
3D2
100
AcDbEntity
  8
RUNDUNGEN
100
AcDbLine
 62
7
  6
CONTINUOUS
 10
284.2473559954
 20
558.5923436452
 11
284.2404865186
 21
558.5924798592
  0
LWPOLYLINE
  5
3D3
100
AcDbEntity
  8
RUNDUNGEN
100
AcDbPolyline
 62
7
  6
CONTINUOUS
 90
8
 70
0
 10
147.5925935669
 20
562.9007848055
 10
147.3383152901
 20
562.9067626642
 10
146.9418732465
 20
562.9401617428
 10
146.5553870585
 20
563.0018542458
 10
146.1808397433
 20
563.0908292781
 10
145.8197537288
 20
563.2062661117
 10
145.474503378
 20
563.3471115747
 10
145.1467441722
 20
563.5123821454
  0
LWPOLYLINE
  5
3D4
100
AcDbEntity
  8
RUNDUNGEN
100
AcDbPolyline
 62
7
  6
CONTINUOUS
 90
11
 70
0
 10
466.0578011622
 20
559.024440796
 10
465.7982288097
 20
559.0342487088
 10
465.5387809544
 20
559.021565623
 10
465.2814027001
 20
558.9864865994
 10
465.0280236642
 20
558.9292746081
 10
464.7805434858
 20
558.8503585605
 10
464.54081755
 20
558.7503300793
 10
464.3106431162
 20
558.6299390697
 10
464.0917458475
 20
558.4900881028
 10
463.8857668606
 20
558.3318256448
 10
463.693527083
 20
558.1556151029
  0
LWPOLYLINE
  5
3D5
100
AcDbEntity
  8
RUNDUNGEN
100
AcDbPolyline
 62
7
  6
CONTINUOUS
 90
9
 70
0
 10
287.2948227034
 20
557.8274592907
 10
287.2482153564
 20
557.8293260304
 10
287.1948575205
 20
557.8359784367
 10
287.141200633
 20
557.8472156431
 10
287.0863177842
 20
557.8630696824
 10
287.0314197998
 20
557.8829736776
 10
286.9759366256
 20
557.9068939664
 10
286.9195126428
 20
557.9349170569
 10
286.8960835337
 20
557.9476019622
  0
LINE
  5
3D6
100
AcDbEntity
  8
RUNDUNGEN
100
AcDbLine
 62
7
  6
CONTINUOUS
 10
284.2514508882
 20
558.5920584945
 11
283.9047164826
 21
558.6165657966
  0
LINE
  5
3D7
100
AcDbEntity
  8
RUNDUNGEN
100
AcDbLine
 62
7
  6
CONTINUOUS
 10
283.9156478726
 20
558.6154423666
 11
283.5607915331
 21
558.663375311
  0
LINE
  5
3D8
100
AcDbEntity
  8
RUNDUNGEN
100
AcDbLine
 62
7
  6
CONTINUOUS
 10
283.5714943959
 20
558.6615854342
 11
283.2127330825
 21
558.7331074236
  0
LINE
  5
3D9
100
AcDbEntity
  8
RUNDUNGEN
100
AcDbLine
 62
7
  6
CONTINUOUS
 10
283.2230906509
 20
558.7307129388
 11
282.8641027299
 21
558.8249278065
  0
LINE
  5
3DA
100
AcDbEntity
  8
RUNDUNGEN
100
AcDbLine
 62
7
  6
CONTINUOUS
 10
282.8740220441
 20
558.8220155542
 11
282.5183944511
 21
558.9370486487
  0
LINE
  5
3DB
100
AcDbEntity
  8
RUNDUNGEN
100
AcDbLine
 62
7
  6
CONTINUOUS
 10
282.5278275738
 20
558.9337162597
 11
282.1797096643
 21
559.0666287412
  0
LINE
  5
3DC
100
AcDbEntity
  8
RUNDUNGEN
100
AcDbLine
 62
7
  6
CONTINUOUS
 10
282.1886826942
 20
559.0629498914
 11
281.84908124
 21
559.2114588526
  0
LINE
  5
3DD
100
AcDbEntity
  8
RUNDUNGEN
100
AcDbLine
 62
7
  6
CONTINUOUS
 10
281.8576033372
 20
559.2075020192
 11
281.5280604406
 21
559.3690274558
  0
LINE
  5
3DE
100
AcDbEntity
  8
RUNDUNGEN
100
AcDbLine
 62
7
  6
CONTINUOUS
 10
281.536146024
 20
559.3648551261
 11
281.2174499447
 21
559.5371514411
  0
LINE
  5
3DF
100
AcDbEntity
  8
RUNDUNGEN
100
AcDbLine
 62
7
  6
CONTINUOUS
 10
286.5510780692
 20
558.1378765301
 11
286.1710814385
 21
558.3454789411
  0
LINE
  5
3E0
100
AcDbEntity
  8
RUNDUNGEN
100
AcDbLine
 62
7
  6
CONTINUOUS
 10
286.8960755283
 20
557.9475976714
 11
286.5452331434
 21
558.1410784932
  0
LINE
  5
3E1
100
AcDbEntity
  8
RUNDUNGEN
100
AcDbLine
 62
7
  6
CONTINUOUS
 10
281.2251186436
 20
559.5328158534
 11
280.9177308838
 21
559.7139254478
  0
LINE
  5
3E2
100
AcDbEntity
  8
RUNDUNGEN
100
AcDbLine
 62
7
  6
CONTINUOUS
 10
280.9250034134
 20
559.7094666951
 11
280.6301147955
 21
559.8971038869
  0
LINE
  5
3E3
100
AcDbEntity
  8
RUNDUNGEN
100
AcDbLine
 62
7
  6
CONTINUOUS
 10
280.6370083516
 20
559.8925563656
 11
280.4472115477
 21
560.0219791764
  0
LINE
  5
3E4
100
AcDbEntity
  8
0
100
AcDbLine
 62
7
  6
CONTINUOUS
 10
292.9472115477
 20
527.3730081897
 11
292.9472115477
 21
526.6730081897
  0
LINE
  5
3E5
100
AcDbEntity
  8
0
100
AcDbLine
 62
7
  6
CONTINUOUS
 10
300.1472115477
 20
527.3730081897
 11
300.1472115477
 21
526.6730081897
  0
LINE
  5
3E6
100
AcDbEntity
  8
0
100
AcDbLine
 62
7
  6
CONTINUOUS
 10
300.7472115477
 20
527.3730081897
 11
300.7472115477
 21
526.6730081897
  0
LINE
  5
3E7
100
AcDbEntity
  8
0
100
AcDbLine
 62
7
  6
CONTINUOUS
 10
301.9472115477
 20
527.3730081897
 11
301.9472115477
 21
526.6730081897
  0
LINE
  5
3E8
100
AcDbEntity
  8
0
100
AcDbLine
 62
7
  6
CONTINUOUS
 10
303.7472115477
 20
527.3730081897
 11
303.7472115477
 21
526.6730081897
  0
LINE
  5
3E9
100
AcDbEntity
  8
RUNDUNGEN
100
AcDbLine
 62
7
  6
CONTINUOUS
 10
370.561812749
 20
558.7838585345
 11
370.2546022179
 21
558.6117723716
  0
LINE
  5
3EA
100
AcDbEntity
  8
RUNDUNGEN
100
AcDbLine
 62
7
  6
CONTINUOUS
 10
370.2644775925
 20
558.6170627687
 11
369.9486703914
 21
558.4559852024
  0
LINE
  5
3EB
100
AcDbEntity
  8
RUNDUNGEN
100
AcDbLine
 62
7
  6
CONTINUOUS
 10
369.9587061268
 20
558.4608394383
 11
369.6343746992
 21
558.3125101952
  0
LINE
  5
3EC
100
AcDbEntity
  8
RUNDUNGEN
100
AcDbLine
 62
7
  6
CONTINUOUS
 10
369.6445620739
 20
558.3168976093
 11
369.3124376198
 21
558.1835201591
  0
LINE
  5
3ED
100
AcDbEntity
  8
0
100
AcDbLine
 62
7
  6
CONTINUOUS
 10
285.8998140021
 20
525.4936229482
 11
286.6107800614
 21
525.7523934313
  0
LINE
  5
3EE
100
AcDbEntity
  8
RUNDUNGEN
100
AcDbLine
 62
7
  6
CONTINUOUS
 10
369.322788877
 20
558.1873746477
 11
368.9832198552
 21
558.0710145693
  0
LINE
  5
3EF
100
AcDbEntity
  8
0
100
AcDbLine
 62
7
  6
CONTINUOUS
 10
255.4472115477
 20
574.3730081897
 11
269.4472115477
 21
574.3730081897
  0
LINE
  5
3F0
100
AcDbEntity
  8
0
100
AcDbLine
 62
7
  6
CONTINUOUS
 10
249.4472115477
 20
575.8730081897
 11
255.4472115477
 21
575.8730081897
  0
LINE
  5
3F1
100
AcDbEntity
  8
0
100
AcDbLine
 62
7
  6
CONTINUOUS
 10
269.4472115477
 20
575.8730081897
 11
275.4472115477
 21
575.8730081897
  0
LINE
  5
3F2
100
AcDbEntity
  8
0
100
AcDbLine
 62
7
  6
CONTINUOUS
 10
307.3472115477
 20
527.3730081897
 11
307.3472115477
 21
526.6730081897
  0
LINE
  5
3F3
100
AcDbEntity
  8
0
100
AcDbLine
 62
7
  6
CONTINUOUS
 10
309.1472115477
 20
527.3730081897
 11
309.1472115477
 21
526.6730081897
  0
LINE
  5
3F4
100
AcDbEntity
  8
0
100
AcDbLine
 62
7
  6
CONTINUOUS
 10
310.9472115477
 20
527.3730081897
 11
310.9472115477
 21
526.6730081897
  0
LINE
  5
3F5
100
AcDbEntity
  8
0
100
AcDbLine
 62
7
  6
CONTINUOUS
 10
318.2972115477
 20
527.3730081897
 11
318.2972115477
 21
526.6730081897
  0
LINE
  5
3F6
100
AcDbEntity
  8
RUNDUNGEN
100
AcDbLine
 62
7
  6
CONTINUOUS
 10
372.3711440948
 20
560.1227321513
 11
372.1402921977
 21
559.9178185084
  0
LINE
  5
3F7
100
AcDbEntity
  8
RUNDUNGEN
100
AcDbLine
 62
7
  6
CONTINUOUS
 10
372.148224481
 20
559.9246664637
 11
371.9028733336
 21
559.718848133
  0
LINE
  5
3F8
100
AcDbEntity
  8
RUNDUNGEN
100
AcDbLine
 62
7
  6
CONTINUOUS
 10
371.91123414
 20
559.7256636293
 11
371.6526367407
 21
559.5208591944
  0
LINE
  5
3F9
100
AcDbEntity
  8
RUNDUNGEN
100
AcDbLine
 62
7
  6
CONTINUOUS
 10
371.6613611757
 20
559.5275690005
 11
371.3921717409
 21
559.3267078613
  0
LINE
  5
3FA
100
AcDbEntity
  8
RUNDUNGEN
100
AcDbLine
 62
7
  6
CONTINUOUS
 10
371.4011983065
 20
559.3332415511
 11
371.1215069374
 21
559.1372381543
  0
LINE
  5
3FB
100
AcDbEntity
  8
RUNDUNGEN
100
AcDbLine
 62
7
  6
CONTINUOUS
 10
371.1307912882
 20
559.143534488
 11
370.8413266899
 21
558.9539159575
  0
LINE
  5
3FC
100
AcDbEntity
  8
RUNDUNGEN
100
AcDbLine
 62
7
  6
CONTINUOUS
 10
370.8508468918
 20
558.9599315132
 11
370.5520953169
 21
558.7781757498
  0
LINE
  5
3FD
100
AcDbEntity
  8
RUNDUNGEN
100
AcDbLine
 62
7
  6
CONTINUOUS
 10
373.415009547
 20
561.2883610658
 11
373.3550388718
 21
561.1984708925
  0
LINE
  5
3FE
100
AcDbEntity
  8
RUNDUNGEN
100
AcDbLine
 62
7
  6
CONTINUOUS
 10
373.3578296152
 20
561.202485323
 11
373.2822511141
 21
561.097977325
  0
LINE
  5
3FF
100
AcDbEntity
  8
RUNDUNGEN
100
AcDbLine
 62
7
  6
CONTINUOUS
 10
373.2822511141
 20
561.097977325
 11
373.1822743023
 21
560.9698479342
  0
LINE
  5
400
100
AcDbEntity
  8
RUNDUNGEN
100
AcDbLine
 62
7
  6
CONTINUOUS
 10
373.1864029087
 20
560.9749614703
 11
373.0630349752
 21
560.8273543423
  0
LINE
  5
401
100
AcDbEntity
  8
RUNDUNGEN
100
AcDbLine
 62
7
  6
CONTINUOUS
 10
373.0678995706
 20
560.8329890662
 11
372.9210917154
 21
560.6683271908
  0
LINE
  5
402
100
AcDbEntity
  8
RUNDUNGEN
100
AcDbLine
 62
7
  6
CONTINUOUS
 10
372.9266880831
 20
560.6744171014
 11
372.7561304269
 21
560.4944918152
  0
LINE
  5
403
100
AcDbEntity
  8
RUNDUNGEN
100
AcDbLine
 62
7
  6
CONTINUOUS
 10
372.7624015351
 20
560.5009171253
 11
372.5696788847
 21
560.309221237
  0
LINE
  5
404
100
AcDbEntity
  8
RUNDUNGEN
100
AcDbLine
 62
7
  6
CONTINUOUS
 10
372.5765733833
 20
560.3158843496
 11
372.3636987981
 21
560.1159313614
  0
LWPOLYLINE
  5
405
100
AcDbEntity
  8
RUNDUNGEN
100
AcDbPolyline
 62
7
  6
CONTINUOUS
 90
4
 70
0
 10
373.4919962759
 20
561.425194016
 10
373.4910045881
 20
561.4229124256
 10
373.4798658099
 20
561.3998426963
 10
373.4550982847
 20
561.3544375709
  0
LINE
  5
406
100
AcDbEntity
  8
RUNDUNGEN
100
AcDbLine
 62
7
  6
CONTINUOUS
 10
373.4550982847
 20
561.3544375709
 11
373.4128713845
 21
561.2850046348
  0
LINE
  5
407
100
AcDbEntity
  8
RUNDUNGEN
100
AcDbLine
 62
7
  6
CONTINUOUS
 10
373.4472115477
 20
561.8729262978
 11
373.4472115477
 21
561.3414382088
  0
LINE
  5
408
100
AcDbEntity
  8
0
100
AcDbLine
 62
7
  6
CONTINUOUS
 10
379.4812790346
 20
564.3730081897
 11
379.4812790346
 21
525.3730081897
  0
LWPOLYLINE
  5
409
100
AcDbEntity
  8
RUNDUNGEN
100
AcDbPolyline
 62
7
  6
CONTINUOUS
 90
8
 70
0
 10
464.0573571747
 20
531.2265712636
 10
464.2406914955
 20
531.0578675521
 10
464.4679389402
 20
530.883470072
 10
464.7107832573
 20
530.7315417832
 10
464.9670102814
 20
530.603467727
 10
465.2342838535
 20
530.5004154468
 10
465.5101671228
 20
530.423324346
 10
465.7921052117
 20
530.372902265
  0
LINE
  5
40A
100
AcDbEntity
  8
RUNDUNGEN
100
AcDbLine
 62
7
  6
CONTINUOUS
 10
400.9472115477
 20
526.3730081897
 11
400.9472115477
 21
563.3730081897
  0
LINE
  5
40B
100
AcDbEntity
  8
0
100
AcDbLine
 62
7
  6
CONTINUOUS
 10
462.7540657972
 20
557.2161539402
 11
463.6940512344
 21
558.1561393775
  0
LINE
  5
40C
100
AcDbEntity
  8
0
100
AcDbLine
 62
7
  6
CONTINUOUS
 10
462.7540657972
 20
532.5298624392
 11
464.0658275839
 21
531.2181006526
  0
LINE
  5
40D
100
AcDbEntity
  8
RUNDUNGEN
100
AcDbLine
 62
7
  6
CONTINUOUS
 10
569.196450962
 20
582.1033889492
 11
573.9426751743
 21
579.4725139082
  0
LINE
  5
40E
100
AcDbEntity
  8
BEZUGSACHSEN
100
AcDbLine
 62
7
  6
CONTINUOUS
 10
563.0589390608
 20
575.1563550601
 11
563.1162933367
 21
575.2598249129
  0
LINE
  5
40F
100
AcDbEntity
  8
RUNDUNGEN
100
AcDbLine
 62
7
  6
CONTINUOUS
 10
551.9840990857
 20
555.1768148631
 11
566.4775923072
 21
581.3237687754
  0
LINE
  5
410
100
AcDbEntity
  8
RUNDUNGEN
100
AcDbLine
 62
7
  6
CONTINUOUS
 10
574.9426714398
 20
577.3759781385
 11
570.1871607023
 21
550.40613655
  0
LINE
  5
411
100
AcDbEntity
  8
BEZUGSACHSEN
100
AcDbLine
 62
7
  6
CONTINUOUS
 10
574.9426714398
 20
577.3759781385
 11
572.2360053293
 21
562.0257118344
  0
LINE
  5
412
100
AcDbEntity
  8
BEZUGSACHSEN
100
AcDbLine
 62
7
  6
CONTINUOUS
 10
-50.0482483443
 20
-108.7647845492
 11
-47.3415822339
 21
-93.4145182451
  0
LINE
  5
413
100
AcDbEntity
  8
RUNDUNGEN
100
AcDbLine
 62
7
  6
CONTINUOUS
 10
-50.0482483443
 20
-108.7647845492
 11
-45.2927376069
 21
-81.7949429607
  0
LINE
  5
414
100
AcDbEntity
  8
BEZUGSACHSEN
100
AcDbLine
 62
7
  6
CONTINUOUS
 10
-38.1645159653
 20
-106.5451614708
 11
-38.2218702413
 21
-106.6486313236
  0
LINE
  5
415
100
AcDbEntity
  8
RUNDUNGEN
100
AcDbLine
 62
7
  6
CONTINUOUS
 10
-27.0896759903
 20
-86.5656212738
 11
-41.5831692118
 21
-112.7125751861
  0
LINE
  5
416
100
AcDbEntity
  8
RUNDUNGEN
100
AcDbLine
 62
7
  6
CONTINUOUS
 10
-44.3020278666
 20
-113.4921953599
 11
-49.0482520788
 21
-110.8613203188
  0
LINE
  5
417
100
AcDbEntity
  8
RUNDUNGEN
100
AcDbLine
 62
7
  6
CONTINUOUS
 10
102.9472115477
 20
-100.2618146004
 11
102.9472115477
 21
-52.2618146004
  0
LINE
  5
418
100
AcDbEntity
  8
RUNDUNGEN
100
AcDbLine
 62
7
  6
CONTINUOUS
 10
109.9472115477
 20
-101.7618146004
 11
109.9472115477
 21
-50.7618146004
  0
LINE
  5
419
100
AcDbEntity
  8
RUNDUNGEN
100
AcDbLine
 62
7
  6
CONTINUOUS
 10
124.9472115477
 20
-53.2619133707
 11
124.9472115477
 21
-99.2618146004
  0
LINE
  5
41A
100
AcDbEntity
  8
RUNDUNGEN
100
AcDbLine
 62
7
  6
CONTINUOUS
 10
129.4472115477
 20
-100.2618146004
 11
129.4472115477
 21
-99.1733367682
  0
LINE
  5
41B
100
AcDbEntity
  8
0
100
AcDbLine
 62
7
  6
CONTINUOUS
 10
138.8753595545
 20
-52.2618146004
 11
138.8753595545
 21
-76.2618146004
  0
LINE
  5
41C
100
AcDbEntity
  8
RUNDUNGEN
100
AcDbLine
 62
7
  6
CONTINUOUS
 10
138.8753595545
 20
-76.2618146004
 11
138.8753595545
 21
-99.1733367682
  0
LINE
  5
41D
100
AcDbEntity
  8
0
100
AcDbLine
 62
7
  6
CONTINUOUS
 10
62.1403572982
 20
-88.6049603509
 11
61.2003817239
 21
-89.5449359252
  0
LWPOLYLINE
  5
41E
100
AcDbEntity
  8
RUNDUNGEN
100
AcDbPolyline
 62
7
  6
CONTINUOUS
 90
8
 70
0
 10
60.8370659085
 20
-62.6153776716
 10
60.6537314869
 20
-62.4466738748
 10
60.4264840089
 20
-62.272276387
 10
60.1836396771
 20
-62.1203481081
 10
59.927412661
 20
-61.9922740734
 10
59.6601391223
 20
-61.8892218202
 10
59.3842559135
 20
-61.8121307448
 10
59.1023178787
 20
-61.7617086761
  0
LINE
  5
41F
100
AcDbEntity
  8
0
100
AcDbLine
 62
7
  6
CONTINUOUS
 10
62.1403572982
 20
-63.9186688499
 11
60.8285945588
 21
-62.6069061105
  0
LINE
  5
420
100
AcDbEntity
  8
0
100
AcDbLine
 62
7
  6
CONTINUOUS
 10
168.4472115477
 20
-57.2618146004
 11
168.4472115477
 21
-56.6873414274
  0
LINE
  5
421
100
AcDbEntity
  8
0
100
AcDbLine
 62
7
  6
CONTINUOUS
 10
176.4472115477
 20
-58.5982928677
 11
176.4472115477
 21
-57.9544390375
  0
LWPOLYLINE
  5
422
100
AcDbEntity
  8
RUNDUNGEN
100
AcDbPolyline
 62
7
  6
CONTINUOUS
 90
5
 70
0
 10
151.4065639282
 20
-92.8025112239
 10
151.4056033975
 20
-92.8053178032
 10
151.4024267313
 20
-92.8140028006
 10
151.4097569073
 20
-92.7982316658
 10
151.4300161059
 20
-92.7597148926
  0
LINE
  5
423
100
AcDbEntity
  8
RUNDUNGEN
100
AcDbLine
 62
7
  6
CONTINUOUS
 10
151.4300161059
 20
-92.7597148926
 11
151.4671881598
 21
-92.6966504657
  0
LWPOLYLINE
  5
424
100
AcDbEntity
  8
RUNDUNGEN
100
AcDbPolyline
 62
7
  6
CONTINUOUS
 90
27
 70
0
 10
151.4648355185
 20
-92.7004603871
 10
151.5151764726
 20
-92.6225966399
 10
151.5823070421
 20
-92.5271177159
 10
151.6670466656
 20
-92.4152913394
 10
151.7704539154
 20
-92.287793327
 10
151.8934581652
 20
-92.1453850647
 10
152.0370403304
 20
-91.9887509096
 10
152.2025680013
 20
-91.8182076106
 10
152.3894073813
 20
-91.6361542446
 10
152.5972445984
 20
-91.4445692318
 10
152.824679199
 20
-91.2463148829
 10
153.0699683315
 20
-91.0443569367
 10
153.3312273507
 20
-90.8416575768
 10
153.6061508007
 20
-90.6413271252
 10
153.8920954054
 20
-90.4464871558
 10
154.1855972663
 20
-90.2605125414
 10
154.4845396884
 20
-90.0856114555
 10
154.7849609573
 20
-89.9247165736
 10
155.0875732768
 20
-89.7779372257
 10
155.3917237919
 20
-89.6463338807
 10
155.698005164
 20
-89.5303988239
 10
156.0070125416
 20
-89.4308898629
 10
156.3179255073
 20
-89.3491504046
 10
156.6308115429
 20
-89.2860888728
 10
156.9436858217
 20
-89.2429301776
 10
157.2552734118
 20
-89.2201426279
 10
157.4472115478
 20
-89.2162588508
  0
LINE
  5
425
100
AcDbEntity
  8
0
100
AcDbLine
 62
7
  6
CONTINUOUS
 10
184.4472115477
 20
-57.2618146004
 11
184.4472115477
 21
-56.6873414274
  0
LINE
  5
426
100
AcDbEntity
  8
RUNDUNGEN
100
AcDbLine
 62
7
  6
CONTINUOUS
 10
138.8755015789
 20
-99.263231538
 11
144.727052909
 21
-95.1651766023
  0
LINE
  5
427
100
AcDbEntity
  8
RUNDUNGEN
100
AcDbLine
 62
7
  6
CONTINUOUS
 10
144.7270529081
 20
-95.1651767522
 11
144.7566428178
 21
-95.1445527533
  0
LINE
  5
428
100
AcDbEntity
  8
RUNDUNGEN
100
AcDbLine
 62
7
  6
CONTINUOUS
 10
144.7566428178
 20
-95.1445527533
 11
144.8420444928
 21
-95.0867701746
  0
LINE
  5
429
100
AcDbEntity
  8
RUNDUNGEN
100
AcDbLine
 62
7
  6
CONTINUOUS
 10
144.8319641626
 20
-95.0934580791
 11
144.9183423379
 21
-95.0372698452
  0
LINE
  5
42A
100
AcDbEntity
  8
RUNDUNGEN
100
AcDbLine
 62
7
  6
CONTINUOUS
 10
144.9081423116
 20
-95.0437740788
 11
144.9483077545
 21
-95.0183607747
  0
LWPOLYLINE
  5
42B
100
AcDbEntity
  8
RUNDUNGEN
100
AcDbPolyline
 62
7
  6
CONTINUOUS
 90
3
 70
0
 10
144.9483139867
 20
-95.0183836705
 10
145.1467441722
 20
-94.9011885561
 10
145.474503378
 20
-94.7359179853
  0
LINE
  5
42C
100
AcDbEntity
  8
RUNDUNGEN
100
AcDbLine
 62
7
  6
CONTINUOUS
 10
145.1359697294
 20
-94.9072280346
 11
145.4630474568
 21
-94.7411406879
  0
LINE
  5
42D
100
AcDbEntity
  8
0
100
AcDbLine
 62
7
  6
CONTINUOUS
 10
138.8753595545
 20
-52.2618146004
 11
144.7247113508
 21
-56.3575748218
  0
LINE
  5
42E
100
AcDbEntity
  8
RUNDUNGEN
100
AcDbLine
 62
7
  6
CONTINUOUS
 10
145.4630474568
 20
-94.7411406879
 11
145.8197537288
 21
-94.5950725224
  0
LINE
  5
42F
100
AcDbEntity
  8
0
100
AcDbLine
 62
7
  6
CONTINUOUS
 10
238.283643034
 20
-57.141199842
 11
238.9946090933
 21
-56.8824293588
  0
LINE
  5
430
100
AcDbEntity
  8
RUNDUNGEN
100
AcDbLine
 62
7
  6
CONTINUOUS
 10
145.8076681248
 20
-94.5994690721
 11
146.1808397433
 21
-94.4796356887
  0
LWPOLYLINE
  5
431
100
AcDbEntity
  8
RUNDUNGEN
100
AcDbPolyline
 62
7
  6
CONTINUOUS
 90
7
 70
0
 10
465.7921052117
 20
-61.7617086757
 10
465.5101671228
 20
-61.8121307567
 10
465.2342838535
 20
-61.8892218575
 10
464.9670102814
 20
-61.9922741377
 10
464.7107832573
 20
-62.1203481939
 10
464.4679389402
 20
-62.2722764827
 10
464.2406914955
 20
-62.4466739628
  0
LINE
  5
432
100
AcDbEntity
  8
0
100
AcDbLine
 62
7
  6
CONTINUOUS
 10
249.4472115477
 20
-107.2618146004
 11
255.4472115477
 21
-107.2618146004
  0
LINE
  5
433
100
AcDbEntity
  8
0
100
AcDbLine
 62
7
  6
CONTINUOUS
 10
269.4472115477
 20
-107.2618146004
 11
275.4472115477
 21
-107.2618146004
  0
LINE
  5
434
100
AcDbEntity
  8
0
100
AcDbLine
 62
7
  6
CONTINUOUS
 10
255.4472115477
 20
-105.7618146004
 11
269.4472115477
 21
-105.7618146004
  0
LINE
  5
435
100
AcDbEntity
  8
RUNDUNGEN
100
AcDbLine
 62
7
  6
CONTINUOUS
 10
104.9472115477
 20
-102.2618146004
 11
109.4472115477
 21
-102.2618146004
  0
LINE
  5
436
100
AcDbEntity
  8
BEZUGSACHSEN
100
AcDbLine
 62
7
  6
CONTINUOUS
 10
104.9472115477
 20
-102.2618146004
 11
109.4472115477
 21
-102.2618146004
  0
LINE
  5
437
100
AcDbEntity
  8
0
100
AcDbLine
 62
7
  6
CONTINUOUS
 10
125.9472115477
 20
-100.2618146004
 11
129.4472115477
 21
-100.2618146004
  0
LINE
  5
438
100
AcDbEntity
  8
RUNDUNGEN
100
AcDbLine
 62
7
  6
CONTINUOUS
 10
138.870631296
 20
-99.2640432542
 11
129.4472115477
 21
-99.2640432542
  0
LWPOLYLINE
  5
439
100
AcDbEntity
  8
RUNDUNGEN
100
AcDbPolyline
 62
7
  6
CONTINUOUS
 90
11
 70
0
 10
58.8366219928
 20
-90.413247211
 10
59.0961943558
 20
-90.4230551188
 10
59.355642218
 20
-90.4103720265
 10
59.6130204754
 20
-90.3752929959
 10
59.8663995111
 20
-90.3180809977
 10
60.1138796866
 20
-90.239164944
 10
60.3536056169
 20
-90.139136458
 10
60.5837800425
 20
-90.0187454458
 10
60.8026773011
 20
-89.8788944789
 10
61.0086562764
 20
-89.720632024
 10
61.2008960177
 20
-89.5444215126
  0
LINE
  5
43A
100
AcDbEntity
  8
RUNDUNGEN
100
AcDbLine
 62
7
  6
CONTINUOUS
 10
238.3433486991
 20
-89.5266849571
 11
238.7233416569
 21
-89.7342853519
  0
LINE
  5
43B
100
AcDbEntity
  8
RUNDUNGEN
100
AcDbLine
 62
7
  6
CONTINUOUS
 10
237.9983483464
 20
-89.3364045135
 11
238.3491936013
 21
-89.5298869069
  0
LINE
  5
43C
100
AcDbEntity
  8
BEZUGSACHSEN
100
AcDbLine
 62
7
  6
CONTINUOUS
 10
244.4472115477
 20
-50.2618505911
 11
244.4472115477
 21
-102.2617789499
  0
LINE
  5
43D
100
AcDbEntity
  8
0
100
AcDbLine
 62
7
  6
CONTINUOUS
 10
255.4472115477
 20
-45.2618877211
 11
255.4472115477
 21
-107.2617414798
  0
LINE
  5
43E
100
AcDbEntity
  8
RUNDUNGEN
100
AcDbLine
 62
7
  6
CONTINUOUS
 10
282.8641027299
 20
-90.2137342172
 11
283.2230906509
 21
-90.1195193495
  0
LINE
  5
43F
100
AcDbEntity
  8
RUNDUNGEN
100
AcDbLine
 62
7
  6
CONTINUOUS
 10
283.2127330825
 20
-90.1219138343
 11
283.5714943959
 21
-90.0503918449
  0
LINE
  5
440
100
AcDbEntity
  8
RUNDUNGEN
100
AcDbLine
 62
7
  6
CONTINUOUS
 10
283.5607915331
 20
-90.0521817217
 11
283.9156478726
 21
-90.0042487773
  0
LINE
  5
441
100
AcDbEntity
  8
RUNDUNGEN
100
AcDbLine
 62
7
  6
CONTINUOUS
 10
146.9290272886
 20
-94.3305522561
 11
147.3383152901
 21
-94.2955690748
  0
LINE
  5
442
100
AcDbEntity
  8
RUNDUNGEN
100
AcDbLine
 62
7
  6
CONTINUOUS
 10
283.9047164826
 20
-90.0053722073
 11
284.2514508882
 21
-89.9808649052
  0
LINE
  5
443
100
AcDbEntity
  8
RUNDUNGEN
100
AcDbLine
 62
7
  6
CONTINUOUS
 10
147.3256647414
 20
-94.2961758528
 11
147.5925935327
 21
-94.2895918614
  0
LINE
  5
444
100
AcDbEntity
  8
RUNDUNGEN
100
AcDbLine
 62
7
  6
CONTINUOUS
 10
284.2404865186
 20
-89.9812862698
 11
284.447211548
 21
-89.9771871453
  0
LINE
  5
445
100
AcDbEntity
  8
0
100
AcDbLine
 62
7
  6
CONTINUOUS
 10
379.4812790346
 20
-95.7618146004
 11
399.9472115477
 21
-95.7618146004
  0
LINE
  5
446
100
AcDbEntity
  8
0
100
AcDbLine
 62
7
  6
CONTINUOUS
 10
375.4472115477
 20
-95.2618146004
 11
377.3018295629
 21
-95.2618146004
  0
LINE
  5
447
100
AcDbEntity
  8
RUNDUNGEN
100
AcDbLine
 62
7
  6
CONTINUOUS
 10
147.5925935327
 20
-94.2895923782
 11
149.4750320259
 21
-94.2895923782
  0
LINE
  5
448
100
AcDbEntity
  8
RUNDUNGEN
100
AcDbLine
 62
7
  6
CONTINUOUS
 10
239.67864938
 20
-89.9771891143
 11
240.4472121293
 21
-89.9771891143
  0
LINE
  5
449
100
AcDbEntity
  8
RUNDUNGEN
100
AcDbLine
 62
7
  6
CONTINUOUS
 10
284.4472115477
 20
-89.9771891143
 11
285.2157737155
 21
-89.9771891143
  0
LINE
  5
44A
100
AcDbEntity
  8
RUNDUNGEN
100
AcDbLine
 62
7
  6
CONTINUOUS
 10
157.4472115477
 20
-89.2162657505
 11
237.599600906
 21
-89.2162657505
  0
LINE
  5
44B
100
AcDbEntity
  8
RUNDUNGEN
100
AcDbLine
 62
7
  6
CONTINUOUS
 10
287.294820348
 20
-89.2162657505
 11
367.4472106745
 21
-89.2162657505
  0
LINE
  5
44C
100
AcDbEntity
  8
0
100
AcDbLine
 62
7
  6
CONTINUOUS
 10
124.9472115477
 20
-86.2618146004
 11
109.9472115477
 21
-86.2618146004
  0
LINE
  5
44D
100
AcDbEntity
  8
0
100
AcDbLine
 62
7
  6
CONTINUOUS
 10
102.9472115477
 20
-86.2618146004
 11
67.7972115477
 21
-86.2618146004
  0
LINE
  5
44E
100
AcDbEntity
  8
0
100
AcDbLine
 62
7
  6
CONTINUOUS
 10
400.9472115477
 20
-86.2618146004
 11
457.0972115477
 21
-86.2618146004
  0
LWPOLYLINE
  5
44F
100
AcDbEntity
  8
RUNDUNGEN
100
AcDbPolyline
 62
7
  6
CONTINUOUS
 90
14
 70
0
 10
240.4472121326
 20
-89.9771872089
 10
240.643040955
 20
-89.9808653779
 10
240.9787494786
 20
-90.00424764
 10
241.3225651063
 20
-90.0503305999
 10
241.6704919936
 20
-90.1193258266
 10
242.0189912616
 20
-90.2104115927
 10
242.3645818961
 20
-90.3218133512
 10
242.7031693168
 20
-90.4507026651
 10
243.033734387
 20
-90.5948789134
 10
243.3547294459
 20
-90.7518355872
 10
243.6653784832
 20
-90.9194064323
 10
243.9652208035
 20
-91.0957022708
 10
244.253055507
 20
-91.2784911503
 10
244.4472115477
 20
-91.4107447162
  0
LWPOLYLINE
  5
450
100
AcDbEntity
  8
RUNDUNGEN
100
AcDbPolyline
 62
7
  6
CONTINUOUS
 90
24
 70
0
 10
367.4472106719
 20
-89.2162587504
 10
367.6482157508
 20
-89.2205183796
 10
367.9799037145
 20
-89.2460987431
 10
368.3145137923
 20
-89.2950085653
 10
368.6497288522
 20
-89.366714168
 10
368.9832198552
 20
-89.4598209799
 10
369.3124376198
 20
-89.5723265698
 10
369.6343746992
 20
-89.7013166059
 10
369.9486703914
 20
-89.844791613
 10
370.2546022179
 20
-90.0005787823
 10
370.5520953169
 20
-90.1669821604
 10
370.8413266899
 20
-90.3427223682
 10
371.1215069374
 20
-90.526044565
 10
371.3921717409
 20
-90.715514272
 10
371.6526367407
 20
-90.9096656051
 10
371.9028733336
 20
-91.1076545437
 10
372.1402921977
 20
-91.3066249191
 10
372.3636987981
 20
-91.5047377721
 10
372.5696788847
 20
-91.6980276477
 10
372.7561304269
 20
-91.8832982258
 10
372.9210917154
 20
-92.0571336014
 10
373.0630349752
 20
-92.2161607529
 10
373.1822743023
 20
-92.3586543449
 10
373.2788040697
 20
-92.4821960631
  0
LWPOLYLINE
  5
451
100
AcDbEntity
  8
RUNDUNGEN
100
AcDbPolyline
 62
7
  6
CONTINUOUS
 90
9
 70
0
 10
237.5996009017
 20
-89.2162658644
 10
237.6462074972
 20
-89.2181321669
 10
237.6995653337
 20
-89.2247849072
 10
237.7532199465
 20
-89.2360211691
 10
237.8081026118
 20
-89.2518756255
 10
237.8629992282
 20
-89.27177812
 10
237.9184798276
 20
-89.2956970679
 10
237.9749046323
 20
-89.3237212114
 10
237.9983393206
 20
-89.3364088083
  0
LINE
  5
452
100
AcDbEntity
  8
0
100
AcDbLine
 62
7
  6
CONTINUOUS
 10
269.4472115477
 20
-45.2618877211
 11
269.4472115477
 21
-107.2617414798
  0
LINE
  5
453
100
AcDbEntity
  8
RUNDUNGEN
100
AcDbLine
 62
7
  6
CONTINUOUS
 10
280.4472115477
 20
-50.2618505911
 11
280.4472115477
 21
-102.2617789499
  0
LINE
  5
454
100
AcDbEntity
  8
RUNDUNGEN
100
AcDbLine
 62
7
  6
CONTINUOUS
 10
280.4472115477
 20
-91.410837134
 11
280.6370083516
 21
-91.2813627762
  0
LINE
  5
455
100
AcDbEntity
  8
RUNDUNGEN
100
AcDbLine
 62
7
  6
CONTINUOUS
 10
280.6301147955
 20
-91.2859102976
 11
280.9250034134
 21
-91.0982731058
  0
LINE
  5
456
100
AcDbEntity
  8
RUNDUNGEN
100
AcDbLine
 62
7
  6
CONTINUOUS
 10
280.9177308838
 20
-91.1027318584
 11
281.2251186436
 21
-90.9216222641
  0
LWPOLYLINE
  5
457
100
AcDbEntity
  8
RUNDUNGEN
100
AcDbPolyline
 62
7
  6
CONTINUOUS
 90
9
 70
0
 10
286.5393743334
 20
-89.5331074758
 10
286.9065786319
 20
-89.3306517522
 10
286.9634492354
 20
-89.3015877046
 10
287.0193573224
 20
-89.2766638901
 10
287.0747257314
 20
-89.2557536762
 10
287.1300822433
 20
-89.2388895282
 10
287.184271314
 20
-89.2266518582
 10
287.2382053319
 20
-89.2190190906
 10
287.2948203465
 20
-89.2162657051
  0
LINE
  5
458
100
AcDbEntity
  8
RUNDUNGEN
100
AcDbLine
 62
7
  6
CONTINUOUS
 10
286.1710814366
 20
-89.7342853529
 11
286.5452331434
 21
-89.5298849039
  0
LINE
  5
459
100
AcDbEntity
  8
RUNDUNGEN
100
AcDbLine
 62
7
  6
CONTINUOUS
 10
281.2174499447
 20
-90.9259578517
 11
281.536146024
 21
-90.7536615368
  0
LINE
  5
45A
100
AcDbEntity
  8
RUNDUNGEN
100
AcDbLine
 62
7
  6
CONTINUOUS
 10
281.5280604406
 20
-90.7578338665
 11
281.8576033372
 21
-90.5963084299
  0
LINE
  5
45B
100
AcDbEntity
  8
RUNDUNGEN
100
AcDbLine
 62
7
  6
CONTINUOUS
 10
281.84908124
 20
-90.6002652633
 11
282.1886826942
 21
-90.4517563021
  0
LINE
  5
45C
100
AcDbEntity
  8
RUNDUNGEN
100
AcDbLine
 62
7
  6
CONTINUOUS
 10
282.1797096643
 20
-90.4554351518
 11
282.5278275738
 21
-90.3225226703
  0
LINE
  5
45D
100
AcDbEntity
  8
RUNDUNGEN
100
AcDbLine
 62
7
  6
CONTINUOUS
 10
282.5183944511
 20
-90.3258550594
 11
282.8740220441
 21
-90.2108219648
  0
LINE
  5
45E
100
AcDbEntity
  8
RUNDUNGEN
100
AcDbLine
 62
7
  6
CONTINUOUS
 10
146.1682623245
 20
-94.4831458675
 11
146.5553870585
 21
-94.3906606565
  0
LINE
  5
45F
100
AcDbEntity
  8
RUNDUNGEN
100
AcDbLine
 62
7
  6
CONTINUOUS
 10
146.5425404891
 20
-94.3932165314
 11
146.9418732465
 21
-94.3289681535
  0
LINE
  5
460
100
AcDbEntity
  8
RUNDUNGEN
100
AcDbLine
 62
7
  6
CONTINUOUS
 10
22.4472146769
 20
-76.2618146004
 11
-9.5972823584
 21
-76.2618146004
  0
LINE
  5
461
100
AcDbEntity
  8
BEZUGSACHSEN
100
AcDbLine
 62
7
  6
CONTINUOUS
 10
502.4472084185
 20
-76.2618146004
 11
534.4917054538
 21
-76.2618146004
  0
LINE
  5
462
100
AcDbEntity
  8
0
100
AcDbLine
 62
7
  6
CONTINUOUS
 10
124.9472115477
 20
-71.2618146004
 11
109.9472115477
 21
-71.2618146004
  0
LINE
  5
463
100
AcDbEntity
  8
0
100
AcDbLine
 62
7
  6
CONTINUOUS
 10
102.9472115477
 20
-71.2618146004
 11
66.9664436075
 21
-71.2618146004
  0
LINE
  5
464
100
AcDbEntity
  8
0
100
AcDbLine
 62
7
  6
CONTINUOUS
 10
124.9472115477
 20
-67.6015605626
 11
109.9472115477
 21
-67.6015605626
  0
LINE
  5
465
100
AcDbEntity
  8
0
100
AcDbLine
 62
7
  6
CONTINUOUS
 10
102.9472115477
 20
-67.6015605626
 11
71.7972115477
 21
-67.6015605626
  0
LINE
  5
466
100
AcDbEntity
  8
0
100
AcDbLine
 62
7
  6
CONTINUOUS
 10
124.9472115477
 20
-66.2618146004
 11
109.9472115477
 21
-66.2618146004
  0
LINE
  5
467
100
AcDbEntity
  8
0
100
AcDbLine
 62
7
  6
CONTINUOUS
 10
102.9472115477
 20
-66.2618146004
 11
67.7972115477
 21
-66.2618146004
  0
LINE
  5
468
100
AcDbEntity
  8
0
100
AcDbLine
 62
7
  6
CONTINUOUS
 10
400.9472115477
 20
-66.2618146004
 11
457.0972115477
 21
-66.2618146004
  0
LINE
  5
469
100
AcDbEntity
  8
RUNDUNGEN
100
AcDbLine
 62
7
  6
CONTINUOUS
 10
318.4471404202
 20
-58.7618146004
 11
292.4471960816
 21
-58.7618146004
  0
LINE
  5
46A
100
AcDbEntity
  8
0
100
AcDbLine
 62
7
  6
CONTINUOUS
 10
292.9472115477
 20
-58.0618146004
 11
300.7472115477
 21
-58.0618146004
  0
LINE
  5
46B
100
AcDbEntity
  8
0
100
AcDbLine
 62
7
  6
CONTINUOUS
 10
301.9472115477
 20
-58.0618146004
 11
309.1472115477
 21
-58.0618146004
  0
LINE
  5
46C
100
AcDbEntity
  8
0
100
AcDbLine
 62
7
  6
CONTINUOUS
 10
310.9472115477
 20
-58.0618146004
 11
318.2972115477
 21
-58.0618146004
  0
LINE
  5
46D
100
AcDbEntity
  8
0
100
AcDbLine
 62
7
  6
CONTINUOUS
 10
147.5925935326
 20
-57.2618146004
 11
169.4471800098
 21
-57.2618146004
  0
LINE
  5
46E
100
AcDbEntity
  8
0
100
AcDbLine
 62
7
  6
CONTINUOUS
 10
183.4472430857
 20
-57.2618146004
 11
237.5996027474
 21
-57.2618146004
  0
LINE
  5
46F
100
AcDbEntity
  8
0
100
AcDbLine
 62
7
  6
CONTINUOUS
 10
287.294820348
 20
-57.2618146004
 11
289.3290337364
 21
-57.2618146004
  0
LINE
  5
470
100
AcDbEntity
  8
0
100
AcDbLine
 62
7
  6
CONTINUOUS
 10
321.5652466618
 20
-57.2618146004
 11
377.3018295629
 21
-57.2618146004
  0
LINE
  5
471
100
AcDbEntity
  8
0
100
AcDbLine
 62
7
  6
CONTINUOUS
 10
239.67864938
 20
-56.7618146004
 11
244.4472115477
 21
-56.7618146004
  0
LINE
  5
472
100
AcDbEntity
  8
0
100
AcDbLine
 62
7
  6
CONTINUOUS
 10
280.4472115477
 20
-56.7618146004
 11
285.2157737155
 21
-56.7618146004
  0
LINE
  5
473
100
AcDbEntity
  8
0
100
AcDbLine
 62
7
  6
CONTINUOUS
 10
379.4812790346
 20
-56.7618146004
 11
399.9472115477
 21
-56.7618146004
  0
LINE
  5
474
100
AcDbEntity
  8
0
100
AcDbLine
 62
7
  6
CONTINUOUS
 10
169.4466415082
 20
-56.6618146004
 11
183.4477816632
 21
-56.6618146004
  0
LINE
  5
475
100
AcDbEntity
  8
0
100
AcDbLine
 62
7
  6
CONTINUOUS
 10
183.4413881548
 20
-56.6626063202
 11
184.4472115477
 21
-56.6873414274
  0
LINE
  5
476
100
AcDbEntity
  8
0
100
AcDbLine
 62
7
  6
CONTINUOUS
 10
292.9472115477
 20
-58.7618146004
 11
292.9472115477
 21
-58.0618146004
  0
LINE
  5
477
100
AcDbEntity
  8
0
100
AcDbLine
 62
7
  6
CONTINUOUS
 10
294.4472115477
 20
-58.7618146004
 11
294.4472115477
 21
-58.0618146004
  0
LINE
  5
478
100
AcDbEntity
  8
0
100
AcDbLine
 62
7
  6
CONTINUOUS
 10
299.0151607402
 20
-58.7618146004
 11
299.0151607402
 21
-58.0618146004
  0
LINE
  5
479
100
AcDbEntity
  8
0
100
AcDbLine
 62
7
  6
CONTINUOUS
 10
300.7472115477
 20
-58.7618146004
 11
300.7472115477
 21
-58.0618146004
  0
LINE
  5
47A
100
AcDbEntity
  8
0
100
AcDbLine
 62
7
  6
CONTINUOUS
 10
301.9472115477
 20
-58.7618146004
 11
301.9472115477
 21
-58.0618146004
  0
LINE
  5
47B
100
AcDbEntity
  8
0
100
AcDbLine
 62
7
  6
CONTINUOUS
 10
168.4472115477
 20
-56.6873414274
 11
169.4530288425
 21
-56.6626049139
  0
LINE
  5
47C
100
AcDbEntity
  8
0
100
AcDbLine
 62
7
  6
CONTINUOUS
 10
125.9472115477
 20
-52.2618146004
 11
138.8753595545
 21
-52.2618146004
  0
LINE
  5
47D
100
AcDbEntity
  8
RUNDUNGEN
100
AcDbLine
 62
7
  6
CONTINUOUS
 10
104.9472115477
 20
-50.2618146004
 11
109.4472115477
 21
-50.2618146004
  0
LINE
  5
47E
100
AcDbEntity
  8
BEZUGSACHSEN
100
AcDbLine
 62
7
  6
CONTINUOUS
 10
104.9472115477
 20
-50.2618146004
 11
109.4472115477
 21
-50.2618146004
  0
LINE
  5
47F
100
AcDbEntity
  8
0
100
AcDbLine
 62
7
  6
CONTINUOUS
 10
255.4472115477
 20
-46.7618146004
 11
269.4472115477
 21
-46.7618146004
  0
LINE
  5
480
100
AcDbEntity
  8
BEZUGSACHSEN
100
AcDbLine
 62
7
  6
CONTINUOUS
 10
527.8404273228
 20
-46.2618146004
 11
502.4472115477
 21
-46.2618146004
  0
LINE
  5
481
100
AcDbEntity
  8
RUNDUNGEN
100
AcDbLine
 62
7
  6
CONTINUOUS
 10
-2.9460042273
 20
-46.2618146004
 11
22.4472115477
 21
-46.2618146004
  0
LINE
  5
482
100
AcDbEntity
  8
0
100
AcDbLine
 62
7
  6
CONTINUOUS
 10
249.4472115477
 20
-45.2618146004
 11
255.4472115477
 21
-45.2618146004
  0
LINE
  5
483
100
AcDbEntity
  8
0
100
AcDbLine
 62
7
  6
CONTINUOUS
 10
269.4472115477
 20
-45.2618146004
 11
275.4472115477
 21
-45.2618146004
  0
LINE
  5
484
100
AcDbEntity
  8
0
100
AcDbLine
 62
7
  6
CONTINUOUS
 10
285.8998140021
 20
-56.8824293588
 11
286.6107800614
 21
-57.141199842
  0
LWPOLYLINE
  5
485
100
AcDbEntity
  8
RUNDUNGEN
100
AcDbPolyline
 62
7
  6
CONTINUOUS
 90
11
 70
0
 10
290.8859614234
 20
-58.0118146211
 10
290.7567401807
 20
-57.8656429774
 10
290.6138169296
 20
-57.7326943927
 10
290.458605047
 20
-57.6143052892
 10
290.2925814716
 20
-57.5116062279
 10
290.1173266429
 20
-57.425578501
 10
289.9345090498
 20
-57.3570445629
 10
289.7458697799
 20
-57.3066604282
 10
289.5532059529
 20
-57.2749093144
 10
289.3583535367
 20
-57.2620969342
 10
289.3247109836
 20
-57.2618139589
  0
LINE
  5
486
100
AcDbEntity
  8
0
100
AcDbLine
 62
7
  6
CONTINUOUS
 10
309.1472115477
 20
-58.7618146004
 11
309.1472115477
 21
-58.0618146004
  0
LINE
  5
487
100
AcDbEntity
  8
0
100
AcDbLine
 62
7
  6
CONTINUOUS
 10
310.9472115477
 20
-58.7618146004
 11
310.9472115477
 21
-58.0618146004
  0
LINE
  5
488
100
AcDbEntity
  8
0
100
AcDbLine
 62
7
  6
CONTINUOUS
 10
318.2972115477
 20
-58.7618146004
 11
318.2972115477
 21
-58.0618146004
  0
LINE
  5
489
100
AcDbEntity
  8
RUNDUNGEN
100
AcDbLine
 62
7
  6
CONTINUOUS
 10
373.2788040697
 20
-92.4821960631
 11
373.3578296152
 21
-92.5912917337
  0
LWPOLYLINE
  5
48A
100
AcDbEntity
  8
RUNDUNGEN
100
AcDbPolyline
 62
7
  6
CONTINUOUS
 90
4
 70
0
 10
373.3550388718
 20
-92.5872773032
 10
373.4128713845
 20
-92.6738110454
 10
373.4536086434
 20
-92.7406558636
 10
373.4666289712
 20
-92.7637363512
  0
LINE
  5
48B
100
AcDbEntity
  8
RUNDUNGEN
100
AcDbLine
 62
7
  6
CONTINUOUS
 10
373.4472115477
 20
-92.7301590185
 11
373.4472115477
 21
-93.2618146004
  0
LINE
  5
48C
100
AcDbEntity
  8
0
100
AcDbLine
 62
7
  6
CONTINUOUS
 10
379.4812790346
 20
-56.7618146004
 11
379.4812790346
 21
-95.7618146004
  0
LINE
  5
48D
100
AcDbEntity
  8
RUNDUNGEN
100
AcDbLine
 62
7
  6
CONTINUOUS
 10
464.2406914955
 20
-62.4466739628
 11
464.0573571747
 21
-62.6153776743
  0
LINE
  5
48E
100
AcDbEntity
  8
RUNDUNGEN
100
AcDbLine
 62
7
  6
CONTINUOUS
 10
400.9472115477
 20
-94.7618146004
 11
400.9472115477
 21
-57.7618146004
  0
LINE
  5
48F
100
AcDbEntity
  8
0
100
AcDbLine
 62
7
  6
CONTINUOUS
 10
462.7540657972
 20
-63.9186688499
 11
464.0658275839
 21
-62.6069070632
  0
LWPOLYLINE
  5
490
100
AcDbEntity
  8
RUNDUNGEN
100
AcDbPolyline
 62
7
  6
CONTINUOUS
 90
11
 70
0
 10
463.693527083
 20
-89.5444215136
 10
463.8857668606
 20
-89.7206320555
 10
464.0917458475
 20
-89.8788945135
 10
464.3106431162
 20
-90.0187454804
 10
464.54081755
 20
-90.13913649
 10
464.7805434858
 20
-90.2391649712
 10
465.0280236642
 20
-90.3180810188
 10
465.2814027001
 20
-90.37529301
 10
465.5387809544
 20
-90.4103720337
 10
465.7982288097
 20
-90.4230551195
 10
466.0578011622
 20
-90.4132472067
  0
LINE
  5
491
100
AcDbEntity
  8
0
100
AcDbLine
 62
7
  6
CONTINUOUS
 10
462.7540657972
 20
-88.6049603509
 11
463.6940512344
 21
-89.5449457881
  0
LINE
  5
492
100
AcDbEntity
  8
BEZUGSACHSEN
100
AcDbLine
 62
7
  6
CONTINUOUS
 10
569.196450962
 20
-113.4921953599
 11
573.9426751743
 21
-110.8613203188
  0
LINE
  5
493
100
AcDbEntity
  8
BEZUGSACHSEN
100
AcDbLine
 62
7
  6
CONTINUOUS
 10
551.9840990857
 20
-86.5656212738
 11
566.4775923072
 21
-112.7125751861
  0
LINE
  5
494
100
AcDbEntity
  8
RUNDUNGEN
100
AcDbLine
 62
7
  6
CONTINUOUS
 10
563.0589390608
 20
-106.5451614708
 11
563.1162933367
 21
-106.6486313236
  0
LINE
  5
495
100
AcDbEntity
  8
BEZUGSACHSEN
100
AcDbLine
 62
7
  6
CONTINUOUS
 10
574.9426714398
 20
-108.7647845492
 11
570.1871607023
 21
-81.7949429607
  0
LINE
  5
496
100
AcDbEntity
  8
RUNDUNGEN
100
AcDbLine
 62
7
  6
CONTINUOUS
 10
574.9426714398
 20
-108.7647845492
 11
570.1871607023
 21
-81.7949429607
  0
ARC
  5
497
100
AcDbEntity
  8
BEZUGSACHSEN
100
AcDbCircle
 62
7
  6
CONTINUOUS
 10
261.4472115477
 20
78.3484108157
 40
8.0
100
AcDbArc
 50
180.0
 51
270.0
  0
ARC
  5
498
100
AcDbEntity
  8
BEZUGSACHSEN
100
AcDbCircle
 62
7
  6
CONTINUOUS
 10
57.6840718269
 20
356.0984108157
 40
20.0
100
AcDbArc
 50
89.9999962537
 51
120.0000044463
  0
ARC
  5
499
100
AcDbEntity
  8
BEZUGSACHSEN
100
AcDbCircle
 62
7
  6
CONTINUOUS
 10
-16.7158797567
 20
378.8484108157
 40
20.0
100
AcDbArc
 50
246.9999987651
 51
270.0
  0
ARC
  5
49A
100
AcDbEntity
  8
RUNDUNGEN
100
AcDbCircle
 62
7
  6
CONTINUOUS
 10
-15.9499146992
 20
376.0984108157
 40
8.0
100
AcDbArc
 50
33.2344429529
 51
90.0011663096
  0
ARC
  5
49B
100
AcDbEntity
  8
BEZUGSACHSEN
100
AcDbCircle
 62
7
  6
CONTINUOUS
 10
-15.9499146992
 20
376.0984108157
 40
8.0
100
AcDbArc
 50
33.2341734675
 51
90.0011866392
  0
ARC
  5
49C
100
AcDbEntity
  8
BEZUGSACHSEN
100
AcDbCircle
 62
7
  6
CONTINUOUS
 10
-36.9523716092
 20
372.3067964224
 40
6.0167071769
100
AcDbArc
 50
234.5819944823
 51
236.4764568876
  0
ARC
  5
49D
100
AcDbEntity
  8
BEZUGSACHSEN
100
AcDbCircle
 62
7
  6
CONTINUOUS
 10
-34.0527884523
 20
382.9484108157
 40
17.0
100
AcDbArc
 50
202.2154066445
 51
247.0
  0
ARC
  5
49E
100
AcDbEntity
  8
RUNDUNGEN
100
AcDbCircle
 62
7
  6
CONTINUOUS
 10
-35.2959724271
 20
394.5984108157
 40
2.0
100
AcDbArc
 50
94.1090642993
 51
180.001804496
  0
ARC
  5
49F
100
AcDbEntity
  8
BEZUGSACHSEN
100
AcDbCircle
 62
7
  6
CONTINUOUS
 10
-35.2959724271
 20
386.0984108157
 40
2.0
100
AcDbArc
 50
179.998195504
 51
265.8909357007
  0
ARC
  5
4A0
100
AcDbEntity
  8
BEZUGSACHSEN
100
AcDbCircle
 62
7
  6
CONTINUOUS
 10
19.7677196234
 20
368.8484108157
 40
10.0
100
AcDbArc
 50
270.0
 51
299.9999940354
  0
ARC
  5
4A1
100
AcDbEntity
  8
BEZUGSACHSEN
100
AcDbCircle
 62
7
  6
CONTINUOUS
 10
5.7972115477
 20
390.3484108157
 40
18.0
100
AcDbArc
 50
213.2356297063
 51
65.6712753369
  0
ARC
  5
4A2
100
AcDbEntity
  8
RUNDUNGEN
100
AcDbCircle
 62
7
  6
CONTINUOUS
 10
5.7972115477
 20
390.3484108157
 40
18.0
100
AcDbArc
 50
219.0844766695
 51
220.1658119331
  0
ARC
  5
4A3
100
AcDbEntity
  8
RUNDUNGEN
100
AcDbCircle
 62
7
  6
CONTINUOUS
 10
5.7972115477
 20
390.3484108157
 40
18.0
100
AcDbArc
 50
233.6667873055
 51
244.8819455307
  0
ARC
  5
4A4
100
AcDbEntity
  8
RUNDUNGEN
100
AcDbCircle
 62
7
  6
CONTINUOUS
 10
5.7972115477
 20
390.3484108157
 40
18.0
100
AcDbArc
 50
292.8875236444
 51
294.3287964332
  0
ARC
  5
4A5
100
AcDbEntity
  8
RUNDUNGEN
100
AcDbCircle
 62
7
  6
CONTINUOUS
 10
5.7972115477
 20
390.3484108157
 40
18.0
100
AcDbArc
 50
65.6712025724
 51
146.7643702937
  0
ARC
  5
4A6
100
AcDbEntity
  8
RUNDUNGEN
100
AcDbCircle
 62
7
  6
CONTINUOUS
 10
-16.7158797567
 20
401.8484108157
 40
20.0
100
AcDbArc
 50
90.0
 51
113.0000017707
  0
ARC
  5
4A7
100
AcDbEntity
  8
RUNDUNGEN
100
AcDbCircle
 62
7
  6
CONTINUOUS
 10
-34.0527884523
 20
397.7484108157
 40
17.0
100
AcDbArc
 50
113.0
 51
157.7845933555
  0
ARC
  5
4A8
100
AcDbEntity
  8
RUNDUNGEN
100
AcDbCircle
 62
7
  6
CONTINUOUS
 10
19.7677196234
 20
411.8484108157
 40
10.0
100
AcDbArc
 50
60.0000059646
 51
90.0
  0
ARC
  5
4A9
100
AcDbEntity
  8
RUNDUNGEN
100
AcDbCircle
 62
7
  6
CONTINUOUS
 10
-15.9499146992
 20
404.5984108157
 40
8.0
100
AcDbArc
 50
269.9988133608
 51
326.7658265325
  0
ARC
  5
4AA
100
AcDbEntity
  8
RUNDUNGEN
100
AcDbCircle
 62
7
  6
CONTINUOUS
 10
-36.9523716093
 20
408.3900252092
 40
6.0167071768
100
AcDbArc
 50
123.5235431124
 51
125.4180055177
  0
ARC
  5
4AB
100
AcDbEntity
  8
0
100
AcDbCircle
 62
7
  6
CONTINUOUS
 10
67.7972115477
 20
372.3484108157
 40
8.0
100
AcDbArc
 50
90.0
 51
135.0
  0
ARC
  5
4AC
100
AcDbEntity
  8
0
100
AcDbCircle
 62
7
  6
CONTINUOUS
 10
67.7982521345
 20
374.7314510371
 40
6.9567058186
100
AcDbArc
 50
90.0085703255
 51
96.8672469998
  0
ARC
  5
4AD
100
AcDbEntity
  8
0
100
AcDbCircle
 62
7
  6
CONTINUOUS
 10
71.7972115477
 20
380.3484108157
 40
5.0
100
AcDbArc
 50
90.0
 51
165.050503583
  0
ARC
  5
4AE
100
AcDbEntity
  8
RUNDUNGEN
100
AcDbCircle
 62
7
  6
CONTINUOUS
 10
58.9908575091
 20
379.0984108157
 40
3.0
100
AcDbArc
 50
270.0000926758
 51
315.0000655315
  0
ARC
  5
4AF
100
AcDbEntity
  8
RUNDUNGEN
100
AcDbCircle
 62
7
  6
CONTINUOUS
 10
104.9472115477
 20
366.3484108157
 40
2.0
100
AcDbArc
 50
179.9999984885
 51
270.0
  0
ARC
  5
4B0
100
AcDbEntity
  8
RUNDUNGEN
100
AcDbCircle
 62
7
  6
CONTINUOUS
 10
109.4472115477
 20
364.8484108157
 40
0.5
100
AcDbArc
 50
270.0
 51
360.0
  0
ARC
  5
4B1
100
AcDbEntity
  8
RUNDUNGEN
100
AcDbCircle
 62
7
  6
CONTINUOUS
 10
57.6840718269
 20
424.5984108157
 40
20.0
100
AcDbArc
 50
239.9999955537
 51
270.0000037463
  0
ARC
  5
4B2
100
AcDbEntity
  8
0
100
AcDbCircle
 62
7
  6
CONTINUOUS
 10
67.7972115477
 20
408.3484108157
 40
8.0
100
AcDbArc
 50
225.0
 51
270.0
  0
ARC
  5
4B3
100
AcDbEntity
  8
RUNDUNGEN
100
AcDbCircle
 62
7
  6
CONTINUOUS
 10
58.990859054
 20
401.5984108157
 40
3.0
100
AcDbArc
 50
44.999955331
 51
89.9999368283
  0
ARC
  5
4B4
100
AcDbEntity
  8
RUNDUNGEN
100
AcDbCircle
 62
7
  6
CONTINUOUS
 10
104.9472115477
 20
414.3484108157
 40
2.0
100
AcDbArc
 50
90.0
 51
180.0000015115
  0
ARC
  5
4B5
100
AcDbEntity
  8
RUNDUNGEN
100
AcDbCircle
 62
7
  6
CONTINUOUS
 10
109.4472115477
 20
415.8484108157
 40
0.5
100
AcDbArc
 50
0.0
 51
90.0
  0
ARC
  5
4B6
100
AcDbEntity
  8
BEZUGSACHSEN
100
AcDbCircle
 62
7
  6
CONTINUOUS
 10
242.4472115477
 20
293.259329754
 40
11.0
100
AcDbArc
 50
0.0
 51
16.4403795217
  0
ARC
  5
4B7
100
AcDbEntity
  8
BEZUGSACHSEN
100
AcDbCircle
 62
7
  6
CONTINUOUS
 10
255.4472115477
 20
326.9374918774
 40
11.0
100
AcDbArc
 50
180.0
 51
196.4403795217
  0
ARC
  5
4B8
100
AcDbEntity
  8
RUNDUNGEN
100
AcDbCircle
 62
7
  6
CONTINUOUS
 10
157.4472115477
 20
395.3484108157
 40
6.0
100
AcDbArc
 50
89.9983471528
 51
179.9978476667
  0
ARC
  5
4B9
100
AcDbEntity
  8
RUNDUNGEN
100
AcDbCircle
 62
7
  6
CONTINUOUS
 10
157.4472115477
 20
385.3484108157
 40
6.0
100
AcDbArc
 50
180.0005164764
 51
270.002481054
  0
ARC
  5
4BA
100
AcDbEntity
  8
RUNDUNGEN
100
AcDbCircle
 62
7
  6
CONTINUOUS
 10
240.4472115477
 20
395.3484108157
 40
6.0
100
AcDbArc
 50
48.1970765251
 51
90.0015777035
  0
ARC
  5
4BB
100
AcDbEntity
  8
RUNDUNGEN
100
AcDbCircle
 62
7
  6
CONTINUOUS
 10
240.4472115477
 20
385.3484108157
 40
6.0
100
AcDbArc
 50
269.9993904099
 51
311.8185594356
  0
ARC
  5
4BC
100
AcDbEntity
  8
RUNDUNGEN
100
AcDbCircle
 62
7
  6
CONTINUOUS
 10
147.5925935326
 20
414.3484108157
 40
5.0
100
AcDbArc
 50
235.0
 51
270.0
  0
ARC
  5
4BD
100
AcDbEntity
  8
RUNDUNGEN
100
AcDbCircle
 62
7
  6
CONTINUOUS
 10
147.5925935326
 20
366.3484108157
 40
5.0
100
AcDbArc
 50
90.0
 51
125.0
  0
ARC
  5
4BE
100
AcDbEntity
  8
BEZUGSACHSEN
100
AcDbCircle
 62
7
  6
CONTINUOUS
 10
249.4472115477
 20
416.3484108157
 40
5.0
100
AcDbArc
 50
90.0
 51
180.0
  0
ARC
  5
4BF
100
AcDbEntity
  8
RUNDUNGEN
100
AcDbCircle
 62
7
  6
CONTINUOUS
 10
239.67864938
 20
407.8484108157
 40
2.0
100
AcDbArc
 50
90.0
 51
110.0
  0
ARC
  5
4C0
100
AcDbEntity
  8
RUNDUNGEN
100
AcDbCircle
 62
7
  6
CONTINUOUS
 10
239.67864938
 20
372.8484108157
 40
2.0
100
AcDbArc
 50
250.0
 51
270.0
  0
ARC
  5
4C1
100
AcDbEntity
  8
RUNDUNGEN
100
AcDbCircle
 62
7
  6
CONTINUOUS
 10
237.5996027474
 20
411.3484108157
 40
2.0
100
AcDbArc
 50
270.0
 51
290.0
  0
ARC
  5
4C2
100
AcDbEntity
  8
RUNDUNGEN
100
AcDbCircle
 62
7
  6
CONTINUOUS
 10
237.5996027474
 20
369.3484108157
 40
2.0
100
AcDbArc
 50
70.0
 51
90.0
  0
ARC
  5
4C3
100
AcDbEntity
  8
0
100
AcDbCircle
 62
7
  6
CONTINUOUS
 10
257.4472115477
 20
362.3484108157
 40
2.0
100
AcDbArc
 50
180.0
 51
270.0
  0
ARC
  5
4C4
100
AcDbEntity
  8
RUNDUNGEN
100
AcDbCircle
 62
7
  6
CONTINUOUS
 10
140.2867356504
 20
383.2025002482
 40
1.4113761021
100
AcDbArc
 50
177.7886256087
 51
179.9946431205
  0
ARC
  5
4C5
100
AcDbEntity
  8
RUNDUNGEN
100
AcDbCircle
 62
7
  6
CONTINUOUS
 10
140.2867355812
 20
397.494317598
 40
1.4113760325
100
AcDbArc
 50
180.0052032151
 51
182.2112211723
  0
ARC
  5
4C6
100
AcDbEntity
  8
RUNDUNGEN
100
AcDbCircle
 62
7
  6
CONTINUOUS
 10
125.9472115477
 20
413.3484108157
 40
1.0
100
AcDbArc
 50
90.0
 51
180.0
  0
ARC
  5
4C7
100
AcDbEntity
  8
RUNDUNGEN
100
AcDbCircle
 62
7
  6
CONTINUOUS
 10
125.9472115477
 20
367.3484108157
 40
1.0
100
AcDbArc
 50
180.0
 51
270.0
  0
ARC
  5
4C8
100
AcDbEntity
  8
RUNDUNGEN
100
AcDbCircle
 62
7
  6
CONTINUOUS
 10
263.4472115477
 20
78.3484108157
 40
8.0
100
AcDbArc
 50
270.0
 51
360.0
  0
ARC
  5
4C9
100
AcDbEntity
  8
RUNDUNGEN
100
AcDbCircle
 62
7
  6
CONTINUOUS
 10
282.4472115477
 20
293.259329754
 40
11.0
100
AcDbArc
 50
163.5596204783
 51
180.0
  0
ARC
  5
4CA
100
AcDbEntity
  8
RUNDUNGEN
100
AcDbCircle
 62
7
  6
CONTINUOUS
 10
269.4472115477
 20
326.9374918774
 40
11.0
100
AcDbArc
 50
343.5596204783
 51
360.0
  0
ARC
  5
4CB
100
AcDbEntity
  8
RUNDUNGEN
100
AcDbCircle
 62
7
  6
CONTINUOUS
 10
284.4472115477
 20
385.3484108157
 40
6.0
100
AcDbArc
 50
228.1824826611
 51
270.0006466578
  0
ARC
  5
4CC
100
AcDbEntity
  8
RUNDUNGEN
100
AcDbCircle
 62
7
  6
CONTINUOUS
 10
285.2157737155
 20
372.8484108157
 40
2.0
100
AcDbArc
 50
270.0
 51
290.0
  0
ARC
  5
4CD
100
AcDbEntity
  8
RUNDUNGEN
100
AcDbCircle
 62
7
  6
CONTINUOUS
 10
287.294820348
 20
369.3484108157
 40
2.0
100
AcDbArc
 50
90.0
 51
110.0
  0
ARC
  5
4CE
100
AcDbEntity
  8
0
100
AcDbCircle
 62
7
  6
CONTINUOUS
 10
267.4472115477
 20
362.3484108157
 40
2.0
100
AcDbArc
 50
270.0
 51
360.0
  0
ARC
  5
4CF
100
AcDbEntity
  8
RUNDUNGEN
100
AcDbCircle
 62
7
  6
CONTINUOUS
 10
284.4472115477
 20
395.3484108157
 40
6.0
100
AcDbArc
 50
89.9984222897
 51
131.8438342939
  0
ARC
  5
4D0
100
AcDbEntity
  8
RUNDUNGEN
100
AcDbCircle
 62
7
  6
CONTINUOUS
 10
275.4472115477
 20
416.3484108157
 40
5.0
100
AcDbArc
 50
0.0
 51
90.0
  0
ARC
  5
4D1
100
AcDbEntity
  8
RUNDUNGEN
100
AcDbCircle
 62
7
  6
CONTINUOUS
 10
285.2157737155
 20
407.8484108157
 40
2.0
100
AcDbArc
 50
70.0
 51
90.0
  0
ARC
  5
4D2
100
AcDbEntity
  8
RUNDUNGEN
100
AcDbCircle
 62
7
  6
CONTINUOUS
 10
287.294820348
 20
411.3484108157
 40
2.0
100
AcDbArc
 50
250.0
 51
270.0
  0
ARC
  5
4D3
100
AcDbEntity
  8
RUNDUNGEN
100
AcDbCircle
 62
7
  6
CONTINUOUS
 10
367.4472115477
 20
385.3484108157
 40
6.0
100
AcDbArc
 50
269.9974648987
 51
0.0017796289
  0
ARC
  5
4D4
100
AcDbEntity
  8
0
100
AcDbCircle
 62
7
  6
CONTINUOUS
 10
377.3018295629
 20
366.3484108157
 40
5.0
100
AcDbArc
 50
64.1580672368
 51
90.0
  0
ARC
  5
4D5
100
AcDbEntity
  8
RUNDUNGEN
100
AcDbCircle
 62
7
  6
CONTINUOUS
 10
399.9472115477
 20
371.8484108157
 40
1.0
100
AcDbArc
 50
270.0
 51
360.0
  0
ARC
  5
4D6
100
AcDbEntity
  8
RUNDUNGEN
100
AcDbCircle
 62
7
  6
CONTINUOUS
 10
367.4472115477
 20
395.3484108157
 40
6.0
100
AcDbArc
 50
359.9982629184
 51
90.0016632488
  0
ARC
  5
4D7
100
AcDbEntity
  8
0
100
AcDbCircle
 62
7
  6
CONTINUOUS
 10
377.3018295629
 20
414.3484108157
 40
5.0
100
AcDbArc
 50
270.0
 51
295.8419327632
  0
ARC
  5
4D8
100
AcDbEntity
  8
RUNDUNGEN
100
AcDbCircle
 62
7
  6
CONTINUOUS
 10
399.9472115477
 20
408.8484108157
 40
1.0
100
AcDbArc
 50
0.0
 51
90.0
  0
ARC
  5
4D9
100
AcDbEntity
  8
RUNDUNGEN
100
AcDbCircle
 62
7
  6
CONTINUOUS
 10
467.2103512685
 20
356.0984108157
 40
20.0
100
AcDbArc
 50
59.9999955537
 51
90.0000037463
  0
ARC
  5
4DA
100
AcDbEntity
  8
RUNDUNGEN
100
AcDbCircle
 62
7
  6
CONTINUOUS
 10
505.126703472
 20
368.8484108157
 40
10.0
100
AcDbArc
 50
240.0000059646
 51
270.0
  0
ARC
  5
4DB
100
AcDbEntity
  8
0
100
AcDbCircle
 62
7
  6
CONTINUOUS
 10
457.0972115477
 20
372.3484108157
 40
8.0
100
AcDbArc
 50
45.0
 51
90.0
  0
ARC
  5
4DC
100
AcDbEntity
  8
RUNDUNGEN
100
AcDbCircle
 62
7
  6
CONTINUOUS
 10
465.9035640415
 20
379.0984108157
 40
3.0
100
AcDbArc
 50
224.999955331
 51
269.9999368283
  0
ARC
  5
4DD
100
AcDbEntity
  8
BEZUGSACHSEN
100
AcDbCircle
 62
7
  6
CONTINUOUS
 10
467.2103512685
 20
424.5984108157
 40
20.0
100
AcDbArc
 50
269.9999962537
 51
300.0000044463
  0
ARC
  5
4DE
100
AcDbEntity
  8
BEZUGSACHSEN
100
AcDbCircle
 62
7
  6
CONTINUOUS
 10
505.126703472
 20
411.8484108157
 40
10.0
100
AcDbArc
 50
90.0
 51
119.9999940354
  0
ARC
  5
4DF
100
AcDbEntity
  8
0
100
AcDbCircle
 62
7
  6
CONTINUOUS
 10
457.0972115477
 20
408.3484108157
 40
8.0
100
AcDbArc
 50
270.0
 51
315.0
  0
ARC
  5
4E0
100
AcDbEntity
  8
RUNDUNGEN
100
AcDbCircle
 62
7
  6
CONTINUOUS
 10
465.9035655863
 20
401.5984108157
 40
3.0
100
AcDbArc
 50
90.0000926758
 51
135.0000655315
  0
ARC
  5
4E1
100
AcDbEntity
  8
BEZUGSACHSEN
100
AcDbCircle
 62
7
  6
CONTINUOUS
 10
519.0972115477
 20
390.3484108157
 40
18.0
100
AcDbArc
 50
33.2356297063
 51
245.6712753369
  0
ARC
  5
4E2
100
AcDbEntity
  8
RUNDUNGEN
100
AcDbCircle
 62
7
  6
CONTINUOUS
 10
519.0972115477
 20
390.3484108157
 40
18.0
100
AcDbArc
 50
39.0844766695
 51
40.1658119331
  0
ARC
  5
4E3
100
AcDbEntity
  8
RUNDUNGEN
100
AcDbCircle
 62
7
  6
CONTINUOUS
 10
519.0972115477
 20
390.3484108157
 40
18.0
100
AcDbArc
 50
53.6667873055
 51
64.8819455307
  0
ARC
  5
4E4
100
AcDbEntity
  8
RUNDUNGEN
100
AcDbCircle
 62
7
  6
CONTINUOUS
 10
519.0972115477
 20
390.3484108157
 40
18.0
100
AcDbArc
 50
112.8875236444
 51
114.3287964332
  0
ARC
  5
4E5
100
AcDbEntity
  8
RUNDUNGEN
100
AcDbCircle
 62
7
  6
CONTINUOUS
 10
519.0972115477
 20
390.3484108157
 40
18.0
100
AcDbArc
 50
245.6712025724
 51
326.7643702937
  0
ARC
  5
4E6
100
AcDbEntity
  8
RUNDUNGEN
100
AcDbCircle
 62
7
  6
CONTINUOUS
 10
541.6103028521
 20
378.8484108157
 40
20.0
100
AcDbArc
 50
270.0
 51
293.0000017707
  0
ARC
  5
4E7
100
AcDbEntity
  8
RUNDUNGEN
100
AcDbCircle
 62
7
  6
CONTINUOUS
 10
558.9472115477
 20
382.9484108157
 40
17.0
100
AcDbArc
 50
293.0
 51
337.7845933555
  0
ARC
  5
4E8
100
AcDbEntity
  8
RUNDUNGEN
100
AcDbCircle
 62
7
  6
CONTINUOUS
 10
540.8443377947
 20
376.0984108157
 40
8.0
100
AcDbArc
 50
89.9988133608
 51
146.7658265325
  0
ARC
  5
4E9
100
AcDbEntity
  8
RUNDUNGEN
100
AcDbCircle
 62
7
  6
CONTINUOUS
 10
561.8467947045
 20
372.3067964226
 40
6.0167071772
100
AcDbArc
 50
303.5235431125
 51
305.4180055177
  0
ARC
  5
4EA
100
AcDbEntity
  8
RUNDUNGEN
100
AcDbCircle
 62
7
  6
CONTINUOUS
 10
560.1903955226
 20
386.0984108157
 40
2.0
100
AcDbArc
 50
274.1090642993
 51
0.001804496
  0
ARC
  5
4EB
100
AcDbEntity
  8
BEZUGSACHSEN
100
AcDbCircle
 62
7
  6
CONTINUOUS
 10
560.1903955226
 20
394.5984108157
 40
2.0
100
AcDbArc
 50
359.998195504
 51
85.8909357007
  0
ARC
  5
4EC
100
AcDbEntity
  8
BEZUGSACHSEN
100
AcDbCircle
 62
7
  6
CONTINUOUS
 10
541.6103028521
 20
401.8484108157
 40
20.0
100
AcDbArc
 50
66.9999987651
 51
90.0
  0
ARC
  5
4ED
100
AcDbEntity
  8
BEZUGSACHSEN
100
AcDbCircle
 62
7
  6
CONTINUOUS
 10
558.9472115477
 20
397.7484108157
 40
17.0
100
AcDbArc
 50
22.2154066445
 51
67.0
  0
ARC
  5
4EE
100
AcDbEntity
  8
RUNDUNGEN
100
AcDbCircle
 62
7
  6
CONTINUOUS
 10
540.8443377947
 20
404.5984108157
 40
8.0
100
AcDbArc
 50
213.2344429529
 51
270.0011663096
  0
ARC
  5
4EF
100
AcDbEntity
  8
BEZUGSACHSEN
100
AcDbCircle
 62
7
  6
CONTINUOUS
 10
540.8443377947
 20
404.5984108157
 40
8.0
100
AcDbArc
 50
213.2341734675
 51
270.0011866392
  0
ARC
  5
4F0
100
AcDbEntity
  8
BEZUGSACHSEN
100
AcDbCircle
 62
7
  6
CONTINUOUS
 10
561.8467947046
 20
408.3900252089
 40
6.0167071771
100
AcDbArc
 50
54.5819944823
 51
56.4764568876
  0
ARC
  5
4F1
100
AcDbEntity
  8
0
100
AcDbCircle
 62
7
  6
CONTINUOUS
 10
707.2391566399
 20
390.3484108157
 40
31.0
100
AcDbArc
 50
58.0372807639
 51
87.00042221
  0
ARC
  5
4F2
100
AcDbEntity
  8
BEZUGSACHSEN
100
AcDbCircle
 62
7
  6
CONTINUOUS
 10
707.2391566399
 20
390.3484108157
 40
31.0
100
AcDbArc
 50
58.0525243637
 51
87.0049606352
  0
ARC
  5
4F3
100
AcDbEntity
  8
BEZUGSACHSEN
100
AcDbCircle
 62
7
  6
CONTINUOUS
 10
707.2391566399
 20
390.3484108157
 40
31.0
100
AcDbArc
 50
165.1099891886
 51
194.8971206526
  0
ARC
  5
4F4
100
AcDbEntity
  8
BEZUGSACHSEN
100
AcDbCircle
 62
7
  6
CONTINUOUS
 10
707.2391566399
 20
86.3484108157
 40
16.0
100
AcDbArc
 50
180.0
 51
360.0
  0
ARC
  5
4F5
100
AcDbEntity
  8
BEZUGSACHSEN
100
AcDbCircle
 62
7
  6
CONTINUOUS
 10
698.2391566399
 20
326.0666470997
 40
11.0
100
AcDbArc
 50
180.0
 51
187.4715591766
  0
ARC
  5
4F6
100
AcDbEntity
  8
RUNDUNGEN
100
AcDbCircle
 62
7
  6
CONTINUOUS
 10
698.2391566399
 20
326.0666470997
 40
11.0
100
AcDbArc
 50
180.0
 51
187.4715591766
  0
ARC
  5
4F7
100
AcDbEntity
  8
BEZUGSACHSEN
100
AcDbCircle
 62
7
  6
CONTINUOUS
 10
680.2391566399
 20
294.1301745317
 40
11.0
100
AcDbArc
 50
0.0
 51
7.4715591766
  0
ARC
  5
4F8
100
AcDbEntity
  8
RUNDUNGEN
100
AcDbCircle
 62
7
  6
CONTINUOUS
 10
680.2391566399
 20
294.1301745317
 40
11.0
100
AcDbArc
 50
7.3392533634
 51
7.4715591766
  0
ARC
  5
4F9
100
AcDbEntity
  8
BEZUGSACHSEN
100
AcDbCircle
 62
7
  6
CONTINUOUS
 10
716.2391565383
 20
326.0666463252
 40
11.0
100
AcDbArc
 50
352.5284448924
 51
0.0000040345
  0
ARC
  5
4FA
100
AcDbEntity
  8
RUNDUNGEN
100
AcDbCircle
 62
7
  6
CONTINUOUS
 10
716.2391565383
 20
326.0666463252
 40
11.0
100
AcDbArc
 50
352.5284448924
 51
0.0000040345
  0
ARC
  5
4FB
100
AcDbEntity
  8
BEZUGSACHSEN
100
AcDbCircle
 62
7
  6
CONTINUOUS
 10
734.2391560025
 20
294.1301696717
 40
10.999999631
100
AcDbArc
 50
172.5284152922
 51
179.9999746855
  0
ARC
  5
4FC
100
AcDbEntity
  8
0
100
AcDbCircle
 62
7
  6
CONTINUOUS
 10
737.3060817943
 20
362.3200460331
 40
10.1086664654
100
AcDbArc
 50
164.8110371635
 51
179.8392285995
  0
ARC
  5
4FD
100
AcDbEntity
  8
0
100
AcDbCircle
 62
7
  6
CONTINUOUS
 10
734.297746763
 20
362.328754158
 40
7.1003188474
100
AcDbArc
 50
179.8413810717
 51
180.0695710246
  0
ARC
  5
4FE
100
AcDbEntity
  8
BEZUGSACHSEN
100
AcDbCircle
 62
7
  6
CONTINUOUS
 10
734.1621580186
 20
370.485704198
 40
4.5439504911
100
AcDbArc
 50
315.6495653638
 51
317.2884428508
  0
ARC
  5
4FF
100
AcDbEntity
  8
RUNDUNGEN
100
AcDbCircle
 62
7
  6
CONTINUOUS
 10
734.1621580191
 20
410.2111174339
 40
4.5439504904
100
AcDbArc
 50
42.7115571491
 51
44.3504346364
  0
ARC
  5
500
100
AcDbEntity
  8
RUNDUNGEN
100
AcDbCircle
 62
7
  6
CONTINUOUS
 10
734.2927585965
 20
410.3387068982
 40
4.3613701559
100
AcDbArc
 50
44.3512137122
 51
44.6895674417
  0
ARC
  5
501
100
AcDbEntity
  8
BEZUGSACHSEN
100
AcDbCircle
 62
7
  6
CONTINUOUS
 10
734.2927586046
 20
370.3581147253
 40
4.3613701445
100
AcDbArc
 50
315.3104325577
 51
315.6487862882
  0
ARC
  5
502
100
AcDbEntity
  8
BEZUGSACHSEN
100
AcDbCircle
 62
7
  6
CONTINUOUS
 10
725.2391566399
 20
390.3484108157
 40
3.5
100
AcDbArc
 50
64.5504968776
 51
295.4495031224
  0
ARC
  5
503
100
AcDbEntity
  8
RUNDUNGEN
100
AcDbCircle
 62
7
  6
CONTINUOUS
 10
724.7391566399
 20
394.5984108157
 40
2.0
100
AcDbArc
 50
359.9993750068
 51
89.9987877637
  0
ARC
  5
504
100
AcDbEntity
  8
RUNDUNGEN
100
AcDbCircle
 62
7
  6
CONTINUOUS
 10
679.2391566399
 20
419.8484108157
 40
2.0
100
AcDbArc
 50
90.0
 51
180.0
  0
ARC
  5
505
100
AcDbEntity
  8
RUNDUNGEN
100
AcDbCircle
 62
7
  6
CONTINUOUS
 10
724.7391566399
 20
386.0984108157
 40
2.0
100
AcDbArc
 50
270.0012126993
 51
0.0006332318
  0
ARC
  5
506
100
AcDbEntity
  8
BEZUGSACHSEN
100
AcDbCircle
 62
7
  6
CONTINUOUS
 10
679.2391566399
 20
360.8484108157
 40
2.0
100
AcDbArc
 50
180.0
 51
270.0
  0
ARC
  5
507
100
AcDbEntity
  8
RUNDUNGEN
100
AcDbCircle
 62
7
  6
CONTINUOUS
 10
737.2515786002
 20
412.3475507285
 40
1.0680848412
100
AcDbArc
 50
87.3809500862
 51
92.5165059704
  0
ARC
  5
508
100
AcDbEntity
  8
BEZUGSACHSEN
100
AcDbCircle
 62
7
  6
CONTINUOUS
 10
737.2515786002
 20
368.349270903
 40
1.0680848412
100
AcDbArc
 50
267.4834940296
 51
272.6190499138
  0
ARC
  5
509
100
AcDbEntity
  8
RUNDUNGEN
100
AcDbCircle
 62
7
  6
CONTINUOUS
 10
737.2545835247
 20
412.4136896867
 40
1.0018776594
100
AcDbArc
 50
82.0370279981
 51
87.3797810148
  0
ARC
  5
50A
100
AcDbEntity
  8
BEZUGSACHSEN
100
AcDbCircle
 62
7
  6
CONTINUOUS
 10
737.2545835247
 20
368.2831319448
 40
1.0018776594
100
AcDbArc
 50
272.6202189852
 51
277.9629720018
  0
ARC
  5
50B
100
AcDbEntity
  8
BEZUGSACHSEN
100
AcDbCircle
 62
7
  6
CONTINUOUS
 10
737.3595303126
 20
367.6997218311
 40
0.4099996567
100
AcDbArc
 50
283.8592672624
 51
287.1299601968
  0
ARC
  5
50C
100
AcDbEntity
  8
RUNDUNGEN
100
AcDbCircle
 62
7
  6
CONTINUOUS
 10
737.3595303126
 20
412.9970998003
 40
0.4099996567
100
AcDbArc
 50
72.8700398031
 51
76.1407327373
  0
ARC
  5
50D
100
AcDbEntity
  8
BEZUGSACHSEN
100
AcDbCircle
 62
7
  6
CONTINUOUS
 10
737.3599330508
 20
367.6927966169
 40
0.4035042737
100
AcDbArc
 50
299.6419810971
 51
306.8989094892
  0
ARC
  5
50E
100
AcDbEntity
  8
RUNDUNGEN
100
AcDbCircle
 62
7
  6
CONTINUOUS
 10
737.3599330508
 20
413.0040250146
 40
0.4035042737
100
AcDbArc
 50
53.1010905108
 51
60.3580189029
  0
ARC
  5
50F
100
AcDbEntity
  8
BEZUGSACHSEN
100
AcDbCircle
 62
7
  6
CONTINUOUS
 10
737.3630163386
 20
367.688459677
 40
0.3982103274
100
AcDbArc
 50
287.1279131467
 51
299.5650283251
  0
ARC
  5
510
100
AcDbEntity
  8
RUNDUNGEN
100
AcDbCircle
 62
7
  6
CONTINUOUS
 10
737.3630163386
 20
413.0083619544
 40
0.3982103274
100
AcDbArc
 50
60.434971675
 51
72.8720868533
  0
ARC
  5
511
100
AcDbEntity
  8
RUNDUNGEN
100
AcDbCircle
 62
7
  6
CONTINUOUS
 10
1155.406026545
 20
78.3484108157
 40
8.0
100
AcDbArc
 50
180.0
 51
270.0
  0
ARC
  5
512
100
AcDbEntity
  8
RUNDUNGEN
100
AcDbCircle
 62
7
  6
CONTINUOUS
 10
951.6428868242
 20
356.0984108157
 40
20.0
100
AcDbArc
 50
90.0
 51
119.9999863474
  0
ARC
  5
513
100
AcDbEntity
  8
RUNDUNGEN
100
AcDbCircle
 62
7
  6
CONTINUOUS
 10
877.2429352407
 20
378.8484108157
 40
20.0
100
AcDbArc
 50
246.9999987651
 51
270.0
  0
ARC
  5
514
100
AcDbEntity
  8
RUNDUNGEN
100
AcDbCircle
 62
7
  6
CONTINUOUS
 10
859.906026545
 20
382.9484108157
 40
17.0
100
AcDbArc
 50
202.2154066445
 51
247.0
  0
ARC
  5
515
100
AcDbEntity
  8
RUNDUNGEN
100
AcDbCircle
 62
7
  6
CONTINUOUS
 10
878.0089002981
 20
376.0984108157
 40
8.0
100
AcDbArc
 50
33.2341734675
 51
90.0011866392
  0
ARC
  5
516
100
AcDbEntity
  8
RUNDUNGEN
100
AcDbCircle
 62
7
  6
CONTINUOUS
 10
858.6628425702
 20
386.0984108157
 40
2.0
100
AcDbArc
 50
180.0
 51
265.8909357007
  0
ARC
  5
517
100
AcDbEntity
  8
BEZUGSACHSEN
100
AcDbCircle
 62
7
  6
CONTINUOUS
 10
858.6628425702
 20
394.5984108157
 40
2.0
100
AcDbArc
 50
94.1090642993
 51
180.0
  0
ARC
  5
518
100
AcDbEntity
  8
BEZUGSACHSEN
100
AcDbCircle
 62
7
  6
CONTINUOUS
 10
899.756026545
 20
390.3484108157
 40
18.0
100
AcDbArc
 50
122.3981759976
 51
125.7534117065
  0
ARC
  5
519
100
AcDbEntity
  8
BEZUGSACHSEN
100
AcDbCircle
 62
7
  6
CONTINUOUS
 10
899.756026545
 20
390.3484108157
 40
18.0
100
AcDbArc
 50
126.3346172154
 51
128.359975608
  0
ARC
  5
51A
100
AcDbEntity
  8
BEZUGSACHSEN
100
AcDbCircle
 62
7
  6
CONTINUOUS
 10
899.756026545
 20
390.3484108157
 40
18.0
100
AcDbArc
 50
134.0058584174
 51
140.9138960869
  0
ARC
  5
51B
100
AcDbEntity
  8
RUNDUNGEN
100
AcDbCircle
 62
7
  6
CONTINUOUS
 10
899.756026545
 20
390.3484108157
 40
18.0
100
AcDbArc
 50
213.2355311554
 51
146.7644900657
  0
ARC
  5
51C
100
AcDbEntity
  8
BEZUGSACHSEN
100
AcDbCircle
 62
7
  6
CONTINUOUS
 10
877.2429352407
 20
401.8484108157
 40
20.0
100
AcDbArc
 50
90.0
 51
113.0000012349
  0
ARC
  5
51D
100
AcDbEntity
  8
BEZUGSACHSEN
100
AcDbCircle
 62
7
  6
CONTINUOUS
 10
859.906026545
 20
397.7484108157
 40
17.0
100
AcDbArc
 50
113.0
 51
157.7845933555
  0
ARC
  5
51E
100
AcDbEntity
  8
BEZUGSACHSEN
100
AcDbCircle
 62
7
  6
CONTINUOUS
 10
878.0089002981
 20
404.5984108157
 40
8.0
100
AcDbArc
 50
269.9988133608
 51
326.7658265325
  0
ARC
  5
51F
100
AcDbEntity
  8
RUNDUNGEN
100
AcDbCircle
 62
7
  6
CONTINUOUS
 10
878.0089002981
 20
404.5984108157
 40
8.0
100
AcDbArc
 50
269.9988336904
 51
326.7655570471
  0
ARC
  5
520
100
AcDbEntity
  8
RUNDUNGEN
100
AcDbCircle
 62
7
  6
CONTINUOUS
 10
913.7265346207
 20
368.8484108157
 40
10.0
100
AcDbArc
 50
270.0
 51
300.0
  0
ARC
  5
521
100
AcDbEntity
  8
0
100
AcDbCircle
 62
7
  6
CONTINUOUS
 10
961.756026545
 20
372.3484108157
 40
8.0
100
AcDbArc
 50
90.0
 51
135.0
  0
ARC
  5
522
100
AcDbEntity
  8
RUNDUNGEN
100
AcDbCircle
 62
7
  6
CONTINUOUS
 10
952.9496740513
 20
379.0984108157
 40
3.0
100
AcDbArc
 50
270.0000631717
 51
315.000044669
  0
ARC
  5
523
100
AcDbEntity
  8
RUNDUNGEN
100
AcDbCircle
 62
7
  6
CONTINUOUS
 10
951.6428868242
 20
424.5984108157
 40
20.0
100
AcDbArc
 50
240.0000136526
 51
270.0
  0
ARC
  5
524
100
AcDbEntity
  8
BEZUGSACHSEN
100
AcDbCircle
 62
7
  6
CONTINUOUS
 10
913.7265346207
 20
411.8484108157
 40
10.0
100
AcDbArc
 50
60.0000059646
 51
90.0
  0
ARC
  5
525
100
AcDbEntity
  8
0
100
AcDbCircle
 62
7
  6
CONTINUOUS
 10
961.756026545
 20
408.3484108157
 40
8.0
100
AcDbArc
 50
225.0
 51
270.0
  0
ARC
  5
526
100
AcDbEntity
  8
RUNDUNGEN
100
AcDbCircle
 62
7
  6
CONTINUOUS
 10
952.9496725064
 20
401.5984108157
 40
3.0
100
AcDbArc
 50
44.9999344685
 51
89.9999073242
  0
ARC
  5
527
100
AcDbEntity
  8
RUNDUNGEN
100
AcDbCircle
 62
7
  6
CONTINUOUS
 10
1149.406026545
 20
326.9374918774
 40
11.0
100
AcDbArc
 50
180.0
 51
196.4403795217
  0
ARC
  5
528
100
AcDbEntity
  8
RUNDUNGEN
100
AcDbCircle
 62
7
  6
CONTINUOUS
 10
1136.4060265711
 20
293.2593296656
 40
10.9999999849
100
AcDbArc
 50
0.0000004604
 51
16.4403800017
  0
ARC
  5
529
100
AcDbEntity
  8
0
100
AcDbCircle
 62
7
  6
CONTINUOUS
 10
1041.5514085299
 20
366.3484108157
 40
5.0
100
AcDbArc
 50
90.0
 51
115.8419327632
  0
ARC
  5
52A
100
AcDbEntity
  8
RUNDUNGEN
100
AcDbCircle
 62
7
  6
CONTINUOUS
 10
1018.906026545
 20
371.8484108157
 40
1.0
100
AcDbArc
 50
180.0
 51
270.0
  0
ARC
  5
52B
100
AcDbEntity
  8
0
100
AcDbCircle
 62
7
  6
CONTINUOUS
 10
1041.5514085299
 20
414.3484108157
 40
5.0
100
AcDbArc
 50
244.1580672368
 51
270.0
  0
ARC
  5
52C
100
AcDbEntity
  8
RUNDUNGEN
100
AcDbCircle
 62
7
  6
CONTINUOUS
 10
1018.906026545
 20
408.8484108157
 40
1.0
100
AcDbArc
 50
90.0
 51
180.0
  0
ARC
  5
52D
100
AcDbEntity
  8
0
100
AcDbCircle
 62
7
  6
CONTINUOUS
 10
1103.856026545
 20
389.1484108157
 40
3.3
100
AcDbArc
 50
180.0
 51
270.0
  0
ARC
  5
52E
100
AcDbEntity
  8
0
100
AcDbCircle
 62
7
  6
CONTINUOUS
 10
1121.331026545
 20
388.4734108157
 40
2.625
100
AcDbArc
 50
111.3550126288
 51
270.0
  0
ARC
  5
52F
100
AcDbEntity
  8
RUNDUNGEN
100
AcDbCircle
 62
7
  6
CONTINUOUS
 10
1133.6374643773
 20
372.8484108157
 40
2.0
100
AcDbArc
 50
250.0
 51
270.0
  0
ARC
  5
530
100
AcDbEntity
  8
RUNDUNGEN
100
AcDbCircle
 62
7
  6
CONTINUOUS
 10
1131.5584177447
 20
369.3484108157
 40
2.0
100
AcDbArc
 50
70.0
 51
90.0
  0
ARC
  5
531
100
AcDbEntity
  8
0
100
AcDbCircle
 62
7
  6
CONTINUOUS
 10
1151.406026545
 20
362.3484108157
 40
2.0
100
AcDbArc
 50
180.0
 51
270.0
  0
ARC
  5
532
100
AcDbEntity
  8
0
100
AcDbCircle
 62
7
  6
CONTINUOUS
 10
1104.231026545
 20
389.2234108157
 40
1.875
100
AcDbArc
 50
180.0
 51
270.0
  0
ARC
  5
533
100
AcDbEntity
  8
0
100
AcDbCircle
 62
7
  6
CONTINUOUS
 10
1121.931026545
 20
388.4734108157
 40
1.125
100
AcDbArc
 50
90.0
 51
270.0
  0
ARC
  5
534
100
AcDbEntity
  8
RUNDUNGEN
100
AcDbCircle
 62
7
  6
CONTINUOUS
 10
1143.406026545
 20
416.3484108157
 40
5.0
100
AcDbArc
 50
90.0
 51
180.0
  0
ARC
  5
535
100
AcDbEntity
  8
0
100
AcDbCircle
 62
7
  6
CONTINUOUS
 10
1113.306026545
 20
391.2484108157
 40
3.6
100
AcDbArc
 50
0.0
 51
180.0
  0
ARC
  5
536
100
AcDbEntity
  8
0
100
AcDbCircle
 62
7
  6
CONTINUOUS
 10
1103.856026545
 20
391.5484108157
 40
3.3
100
AcDbArc
 50
90.0
 51
180.0
  0
ARC
  5
537
100
AcDbEntity
  8
RUNDUNGEN
100
AcDbCircle
 62
7
  6
CONTINUOUS
 10
1133.6374643773
 20
407.8484108157
 40
2.0
100
AcDbArc
 50
90.0
 51
110.0
  0
ARC
  5
538
100
AcDbEntity
  8
RUNDUNGEN
100
AcDbCircle
 62
7
  6
CONTINUOUS
 10
1131.5584177447
 20
411.3484108157
 40
2.0
100
AcDbArc
 50
270.0
 51
290.0
  0
ARC
  5
539
100
AcDbEntity
  8
0
100
AcDbCircle
 62
7
  6
CONTINUOUS
 10
1104.231026545
 20
391.4734108157
 40
1.875
100
AcDbArc
 50
90.0
 51
180.0
  0
ARC
  5
53A
100
AcDbEntity
  8
0
100
AcDbCircle
 62
7
  6
CONTINUOUS
 10
1113.306026545
 20
391.2484108157
 40
1.8
100
AcDbArc
 50
0.0
 51
180.0
  0
ARC
  5
53B
100
AcDbEntity
  8
0
100
AcDbCircle
 62
7
  6
CONTINUOUS
 10
1122.8691662659
 20
392.5984108157
 40
1.5
100
AcDbArc
 50
210.0
 51
270.0
  0
ARC
  5
53C
100
AcDbEntity
  8
BEZUGSACHSEN
100
AcDbCircle
 62
7
  6
CONTINUOUS
 10
1157.406026545
 20
78.3484108157
 40
8.0
100
AcDbArc
 50
270.0
 51
360.0
  0
ARC
  5
53D
100
AcDbEntity
  8
BEZUGSACHSEN
100
AcDbCircle
 62
7
  6
CONTINUOUS
 10
1163.406026545
 20
326.9374918774
 40
11.0
100
AcDbArc
 50
343.5596204783
 51
360.0
  0
ARC
  5
53E
100
AcDbEntity
  8
BEZUGSACHSEN
100
AcDbCircle
 62
7
  6
CONTINUOUS
 10
1176.406026519
 20
293.2593296656
 40
10.9999999849
100
AcDbArc
 50
163.5596199983
 51
179.9999995396
  0
ARC
  5
53F
100
AcDbEntity
  8
RUNDUNGEN
100
AcDbCircle
 62
7
  6
CONTINUOUS
 10
1271.2606445602
 20
366.3484108157
 40
5.0
100
AcDbArc
 50
55.0
 51
90.0
  0
ARC
  5
540
100
AcDbEntity
  8
RUNDUNGEN
100
AcDbCircle
 62
7
  6
CONTINUOUS
 10
1271.2606445602
 20
414.3484108157
 40
5.0
100
AcDbArc
 50
270.0
 51
305.0
  0
ARC
  5
541
100
AcDbEntity
  8
BEZUGSACHSEN
100
AcDbCircle
 62
7
  6
CONTINUOUS
 10
1169.406026545
 20
416.3484108157
 40
5.0
100
AcDbArc
 50
0.0
 51
90.0
  0
ARC
  5
542
100
AcDbEntity
  8
RUNDUNGEN
100
AcDbCircle
 62
7
  6
CONTINUOUS
 10
1179.1745887128
 20
372.8484108157
 40
2.0
100
AcDbArc
 50
270.0
 51
290.0
  0
ARC
  5
543
100
AcDbEntity
  8
RUNDUNGEN
100
AcDbCircle
 62
7
  6
CONTINUOUS
 10
1179.1745887128
 20
407.8484108157
 40
2.0
100
AcDbArc
 50
70.0
 51
90.0
  0
ARC
  5
544
100
AcDbEntity
  8
RUNDUNGEN
100
AcDbCircle
 62
7
  6
CONTINUOUS
 10
1181.2536353454
 20
369.3484108157
 40
2.0
100
AcDbArc
 50
90.0
 51
110.0
  0
ARC
  5
545
100
AcDbEntity
  8
RUNDUNGEN
100
AcDbCircle
 62
7
  6
CONTINUOUS
 10
1181.2536353454
 20
411.3484108157
 40
2.0
100
AcDbArc
 50
250.0
 51
270.0
  0
ARC
  5
546
100
AcDbEntity
  8
0
100
AcDbCircle
 62
7
  6
CONTINUOUS
 10
1161.406026545
 20
362.3484108157
 40
2.0
100
AcDbArc
 50
270.0
 51
360.0
  0
ARC
  5
547
100
AcDbEntity
  8
RUNDUNGEN
100
AcDbCircle
 62
7
  6
CONTINUOUS
 10
1292.906026545
 20
413.3484108157
 40
1.0
100
AcDbArc
 50
0.0
 51
90.0
  0
ARC
  5
548
100
AcDbEntity
  8
RUNDUNGEN
100
AcDbCircle
 62
7
  6
CONTINUOUS
 10
1292.906026545
 20
367.3484108157
 40
1.0
100
AcDbArc
 50
270.0
 51
360.0
  0
ARC
  5
549
100
AcDbEntity
  8
RUNDUNGEN
100
AcDbCircle
 62
7
  6
CONTINUOUS
 10
1361.1691662659
 20
356.0984108157
 40
20.0
100
AcDbArc
 50
60.0000136526
 51
90.0
  0
ARC
  5
54A
100
AcDbEntity
  8
0
100
AcDbCircle
 62
7
  6
CONTINUOUS
 10
1351.056026545
 20
372.3484108157
 40
8.0
100
AcDbArc
 50
45.0
 51
90.0
  0
ARC
  5
54B
100
AcDbEntity
  8
RUNDUNGEN
100
AcDbCircle
 62
7
  6
CONTINUOUS
 10
1359.8623805836
 20
379.0984108157
 40
3.0
100
AcDbArc
 50
224.9999344685
 51
269.9999073242
  0
ARC
  5
54C
100
AcDbEntity
  8
RUNDUNGEN
100
AcDbCircle
 62
7
  6
CONTINUOUS
 10
1313.906026545
 20
366.3484108157
 40
2.0
100
AcDbArc
 50
270.0
 51
0.0000015115
  0
ARC
  5
54D
100
AcDbEntity
  8
RUNDUNGEN
100
AcDbCircle
 62
7
  6
CONTINUOUS
 10
1309.406026545
 20
364.8484108157
 40
0.5
100
AcDbArc
 50
180.0
 51
270.0
  0
ARC
  5
54E
100
AcDbEntity
  8
RUNDUNGEN
100
AcDbCircle
 62
7
  6
CONTINUOUS
 10
1361.1691662659
 20
424.5984108157
 40
20.0
100
AcDbArc
 50
270.0
 51
299.9999863474
  0
ARC
  5
54F
100
AcDbEntity
  8
0
100
AcDbCircle
 62
7
  6
CONTINUOUS
 10
1351.056026545
 20
408.3484108157
 40
8.0
100
AcDbArc
 50
270.0
 51
315.0
  0
ARC
  5
550
100
AcDbEntity
  8
0
100
AcDbCircle
 62
7
  6
CONTINUOUS
 10
1351.0549859582
 20
405.9653705943
 40
6.9567058186
100
AcDbArc
 50
270.0085703255
 51
276.8672469998
  0
ARC
  5
551
100
AcDbEntity
  8
0
100
AcDbCircle
 62
7
  6
CONTINUOUS
 10
1347.056026545
 20
400.3484108157
 40
5.0
100
AcDbArc
 50
270.0
 51
345.050503583
  0
ARC
  5
552
100
AcDbEntity
  8
RUNDUNGEN
100
AcDbCircle
 62
7
  6
CONTINUOUS
 10
1359.8623790388
 20
401.5984108157
 40
3.0
100
AcDbArc
 50
90.0000631717
 51
135.000044669
  0
ARC
  5
553
100
AcDbEntity
  8
RUNDUNGEN
100
AcDbCircle
 62
7
  6
CONTINUOUS
 10
1313.906026545
 20
414.3484108157
 40
2.0
100
AcDbArc
 50
359.9999984885
 51
90.0
  0
ARC
  5
554
100
AcDbEntity
  8
RUNDUNGEN
100
AcDbCircle
 62
7
  6
CONTINUOUS
 10
1309.406026545
 20
415.8484108157
 40
0.5
100
AcDbArc
 50
90.0
 51
180.0
  0
ARC
  5
555
100
AcDbEntity
  8
BEZUGSACHSEN
100
AcDbCircle
 62
7
  6
CONTINUOUS
 10
1399.0855184694
 20
368.8484108157
 40
10.0
100
AcDbArc
 50
240.0000059646
 51
270.0
  0
ARC
  5
556
100
AcDbEntity
  8
BEZUGSACHSEN
100
AcDbCircle
 62
7
  6
CONTINUOUS
 10
1413.056026545
 20
390.3484108157
 40
18.0
100
AcDbArc
 50
302.3981759976
 51
305.7534117065
  0
ARC
  5
557
100
AcDbEntity
  8
BEZUGSACHSEN
100
AcDbCircle
 62
7
  6
CONTINUOUS
 10
1413.056026545
 20
390.3484108157
 40
18.0
100
AcDbArc
 50
306.3346172154
 51
308.359975608
  0
ARC
  5
558
100
AcDbEntity
  8
BEZUGSACHSEN
100
AcDbCircle
 62
7
  6
CONTINUOUS
 10
1413.056026545
 20
390.3484108157
 40
18.0
100
AcDbArc
 50
314.9628321068
 51
320.9138960869
  0
ARC
  5
559
100
AcDbEntity
  8
RUNDUNGEN
100
AcDbCircle
 62
7
  6
CONTINUOUS
 10
1413.056026545
 20
390.3484108157
 40
18.0
100
AcDbArc
 50
33.2355311554
 51
326.7644900657
  0
ARC
  5
55A
100
AcDbEntity
  8
BEZUGSACHSEN
100
AcDbCircle
 62
7
  6
CONTINUOUS
 10
1435.5691178494
 20
378.8484108157
 40
20.0
100
AcDbArc
 50
270.0
 51
293.0000012349
  0
ARC
  5
55B
100
AcDbEntity
  8
BEZUGSACHSEN
100
AcDbCircle
 62
7
  6
CONTINUOUS
 10
1434.803152792
 20
376.0984108157
 40
8.0
100
AcDbArc
 50
89.9988133608
 51
146.7658265325
  0
ARC
  5
55C
100
AcDbEntity
  8
RUNDUNGEN
100
AcDbCircle
 62
7
  6
CONTINUOUS
 10
1434.803152792
 20
376.0984108157
 40
8.0
100
AcDbArc
 50
89.9988336904
 51
146.7655570471
  0
ARC
  5
55D
100
AcDbEntity
  8
BEZUGSACHSEN
100
AcDbCircle
 62
7
  6
CONTINUOUS
 10
1452.906026545
 20
382.9484108157
 40
17.0
100
AcDbArc
 50
293.0
 51
337.7845933555
  0
ARC
  5
55E
100
AcDbEntity
  8
RUNDUNGEN
100
AcDbCircle
 62
7
  6
CONTINUOUS
 10
1454.1492105199
 20
394.5984108157
 40
2.0
100
AcDbArc
 50
0.0
 51
85.8909357007
  0
ARC
  5
55F
100
AcDbEntity
  8
BEZUGSACHSEN
100
AcDbCircle
 62
7
  6
CONTINUOUS
 10
1454.1492105199
 20
386.0984108157
 40
2.0
100
AcDbArc
 50
274.1090642993
 51
360.0
  0
ARC
  5
560
100
AcDbEntity
  8
RUNDUNGEN
100
AcDbCircle
 62
7
  6
CONTINUOUS
 10
1435.5691178494
 20
401.8484108157
 40
20.0
100
AcDbArc
 50
66.9999987651
 51
90.0
  0
ARC
  5
561
100
AcDbEntity
  8
RUNDUNGEN
100
AcDbCircle
 62
7
  6
CONTINUOUS
 10
1452.906026545
 20
397.7484108157
 40
17.0
100
AcDbArc
 50
22.2154066445
 51
67.0
  0
ARC
  5
562
100
AcDbEntity
  8
RUNDUNGEN
100
AcDbCircle
 62
7
  6
CONTINUOUS
 10
1399.0855184694
 20
411.8484108157
 40
10.0
100
AcDbArc
 50
90.0
 51
120.0
  0
ARC
  5
563
100
AcDbEntity
  8
RUNDUNGEN
100
AcDbCircle
 62
7
  6
CONTINUOUS
 10
1434.803152792
 20
404.5984108157
 40
8.0
100
AcDbArc
 50
213.2341734675
 51
270.0011866392
  0
ARC
  5
564
100
AcDbEntity
  8
BEZUGSACHSEN
100
AcDbCircle
 62
7
  6
CONTINUOUS
 10
62.9680395254
 20
500.6230081897
 40
30.0
100
AcDbArc
 50
120.4829024615
 51
132.4811151652
  0
ARC
  5
565
100
AcDbEntity
  8
RUNDUNGEN
100
AcDbCircle
 62
7
  6
CONTINUOUS
 10
62.9680395254
 20
500.6230081897
 40
30.0
100
AcDbArc
 50
97.40364102
 51
120.4829024615
  0
ARC
  5
566
100
AcDbEntity
  8
BEZUGSACHSEN
100
AcDbCircle
 62
7
  6
CONTINUOUS
 10
61.2665044315
 20
529.1230081897
 40
30.0
100
AcDbArc
 50
99.8222426353
 51
130.3149037163
  0
ARC
  5
567
100
AcDbEntity
  8
RUNDUNGEN
100
AcDbCircle
 62
7
  6
CONTINUOUS
 10
61.2665044315
 20
529.1230081897
 40
30.0
100
AcDbArc
 50
94.6458970787
 51
130.3149037163
  0
ARC
  5
568
100
AcDbEntity
  8
0
100
AcDbCircle
 62
7
  6
CONTINUOUS
 10
67.7972115477
 20
526.8730081897
 40
8.0
100
AcDbArc
 50
90.0
 51
135.0
  0
ARC
  5
569
100
AcDbEntity
  8
RUNDUNGEN
100
AcDbCircle
 62
7
  6
CONTINUOUS
 10
147.5925935326
 20
520.8730081897
 40
5.0
100
AcDbArc
 50
90.0
 51
125.0
  0
ARC
  5
56A
100
AcDbEntity
  8
RUNDUNGEN
100
AcDbCircle
 62
7
  6
CONTINUOUS
 10
104.9472115477
 20
520.8730081897
 40
2.0
100
AcDbArc
 50
180.0
 51
270.0
  0
ARC
  5
56B
100
AcDbEntity
  8
RUNDUNGEN
100
AcDbCircle
 62
7
  6
CONTINUOUS
 10
125.9472115477
 20
521.8730081897
 40
1.0
100
AcDbArc
 50
180.0
 51
270.0
  0
ARC
  5
56C
100
AcDbEntity
  8
RUNDUNGEN
100
AcDbCircle
 62
7
  6
CONTINUOUS
 10
109.4472115477
 20
519.3730081897
 40
0.5
100
AcDbArc
 50
270.0
 51
360.0
  0
ARC
  5
56D
100
AcDbEntity
  8
0
100
AcDbCircle
 62
7
  6
CONTINUOUS
 10
256.4472115477
 20
536.8730081897
 40
12.0
100
AcDbArc
 50
251.446995465
 51
257.8532188521
  0
ARC
  5
56E
100
AcDbEntity
  8
0
100
AcDbCircle
 62
7
  6
CONTINUOUS
 10
256.4472115477
 20
536.8730081897
 40
12.0
100
AcDbArc
 50
258.397196836
 51
260.6246377199
  0
ARC
  5
56F
100
AcDbEntity
  8
0
100
AcDbCircle
 62
7
  6
CONTINUOUS
 10
256.4472115477
 20
536.8730081897
 40
12.0
100
AcDbArc
 50
263.9048612023
 51
265.2207657203
  0
ARC
  5
570
100
AcDbEntity
  8
BEZUGSACHSEN
100
AcDbCircle
 62
7
  6
CONTINUOUS
 10
256.4472115477
 20
536.8730081897
 40
12.0
100
AcDbArc
 50
180.0
 51
270.0
  0
ARC
  5
571
100
AcDbEntity
  8
BEZUGSACHSEN
100
AcDbCircle
 62
7
  6
CONTINUOUS
 10
261.4472115477
 20
536.8730081897
 40
8.0
100
AcDbArc
 50
180.0
 51
270.0
  0
ARC
  5
572
100
AcDbEntity
  8
BEZUGSACHSEN
100
AcDbCircle
 62
7
  6
CONTINUOUS
 10
249.4472115477
 20
518.8730081897
 40
5.0
100
AcDbArc
 50
180.0
 51
270.0
  0
ARC
  5
573
100
AcDbEntity
  8
RUNDUNGEN
100
AcDbCircle
 62
7
  6
CONTINUOUS
 10
239.67864938
 20
527.3730081897
 40
2.0
100
AcDbArc
 50
250.0
 51
270.0
  0
ARC
  5
574
100
AcDbEntity
  8
RUNDUNGEN
100
AcDbCircle
 62
7
  6
CONTINUOUS
 10
237.5996027474
 20
523.8730081897
 40
2.0
100
AcDbArc
 50
70.0
 51
90.0
  0
ARC
  5
575
100
AcDbEntity
  8
RUNDUNGEN
100
AcDbCircle
 62
7
  6
CONTINUOUS
 10
-2.9460042273
 20
557.8730081897
 40
43.0
100
AcDbArc
 50
206.7209571956
 51
239.5098386268
  0
ARC
  5
576
100
AcDbEntity
  8
RUNDUNGEN
100
AcDbCircle
 62
7
  6
CONTINUOUS
 10
-2.9460042273
 20
557.8730081897
 40
43.0
100
AcDbArc
 50
201.1922405612
 51
205.6238897151
  0
ARC
  5
577
100
AcDbEntity
  8
RUNDUNGEN
100
AcDbCircle
 62
7
  6
CONTINUOUS
 10
-2.9460042273
 20
557.8730081897
 40
43.0
100
AcDbArc
 50
190.0
 51
195.5611725987
  0
ARC
  5
578
100
AcDbEntity
  8
RUNDUNGEN
100
AcDbCircle
 62
7
  6
CONTINUOUS
 10
-2.9460042273
 20
557.8730081897
 40
43.0
100
AcDbArc
 50
255.2595569882
 51
255.3089842704
  0
ARC
  5
579
100
AcDbEntity
  8
RUNDUNGEN
100
AcDbCircle
 62
7
  6
CONTINUOUS
 10
-2.9460042273
 20
557.8730081897
 40
43.0
100
AcDbArc
 50
250.3757278358
 51
252.8163602909
  0
ARC
  5
57A
100
AcDbEntity
  8
BEZUGSACHSEN
100
AcDbCircle
 62
7
  6
CONTINUOUS
 10
-2.9460042273
 20
557.8730081897
 40
43.0
100
AcDbArc
 50
190.0
 51
270.0
  0
ARC
  5
57B
100
AcDbEntity
  8
RUNDUNGEN
100
AcDbCircle
 62
7
  6
CONTINUOUS
 10
-2.9460042273
 20
557.8730081897
 40
43.0
100
AcDbArc
 50
258.7690213158
 51
260.2731259945
  0
ARC
  5
57C
100
AcDbEntity
  8
RUNDUNGEN
100
AcDbCircle
 62
7
  6
CONTINUOUS
 10
-2.9460042273
 20
557.8730081897
 40
43.0
100
AcDbArc
 50
262.6168856212
 51
265.0488611688
  0
ARC
  5
57D
100
AcDbEntity
  8
RUNDUNGEN
100
AcDbCircle
 62
7
  6
CONTINUOUS
 10
-2.9460042273
 20
557.8730081897
 40
43.0
100
AcDbArc
 50
257.7251606335
 51
257.7531855962
  0
ARC
  5
57E
100
AcDbEntity
  8
BEZUGSACHSEN
100
AcDbCircle
 62
7
  6
CONTINUOUS
 10
22.4472115477
 20
544.8730081897
 40
30.0
100
AcDbArc
 50
270.0
 51
312.4811105856
  0
ARC
  5
57F
100
AcDbEntity
  8
BEZUGSACHSEN
100
AcDbCircle
 62
7
  6
CONTINUOUS
 10
22.4472115477
 20
574.8730081897
 40
30.0
100
AcDbArc
 50
270.0000059763
 51
310.3149146331
  0
ARC
  5
580
100
AcDbEntity
  8
BEZUGSACHSEN
100
AcDbCircle
 62
7
  6
CONTINUOUS
 10
-9.5972823584
 20
564.8730081897
 40
20.0
100
AcDbArc
 50
209.000003019
 51
270.0
  0
ARC
  5
581
100
AcDbEntity
  8
0
100
AcDbCircle
 62
7
  6
CONTINUOUS
 10
67.7972115477
 20
562.8730081897
 40
8.0
100
AcDbArc
 50
225.0
 51
270.0
  0
ARC
  5
582
100
AcDbEntity
  8
RUNDUNGEN
100
AcDbCircle
 62
7
  6
CONTINUOUS
 10
104.9472115477
 20
568.8730081897
 40
2.0
100
AcDbArc
 50
90.0
 51
180.0
  0
ARC
  5
583
100
AcDbEntity
  8
BEZUGSACHSEN
100
AcDbCircle
 62
7
  6
CONTINUOUS
 10
-43.3324086261
 20
580.354149535
 40
2.0
100
AcDbArc
 50
29.0
 51
119.0
  0
ARC
  5
584
100
AcDbEntity
  8
RUNDUNGEN
100
AcDbCircle
 62
7
  6
CONTINUOUS
 10
-48.0786328076
 20
577.7232743195
 40
2.0
100
AcDbArc
 50
118.9999983485
 51
189.9999949272
  0
ARC
  5
585
100
AcDbEntity
  8
BEZUGSACHSEN
100
AcDbCircle
 62
7
  6
CONTINUOUS
 10
-48.0786328076
 20
577.7232743195
 40
2.0
100
AcDbArc
 50
118.9999983485
 51
189.9999949272
  0
ARC
  5
586
100
AcDbEntity
  8
BEZUGSACHSEN
100
AcDbCircle
 62
7
  6
CONTINUOUS
 10
256.4472115477
 20
552.8730081897
 40
12.0
100
AcDbArc
 50
90.0
 51
180.0
  0
ARC
  5
587
100
AcDbEntity
  8
0
100
AcDbCircle
 62
7
  6
CONTINUOUS
 10
256.4472115477
 20
552.8730081897
 40
12.0
100
AcDbArc
 50
102.1467924948
 51
108.553004535
  0
ARC
  5
588
100
AcDbEntity
  8
0
100
AcDbCircle
 62
7
  6
CONTINUOUS
 10
256.4472115477
 20
552.8730081897
 40
12.0
100
AcDbArc
 50
99.3763920395
 51
101.0420286216
  0
ARC
  5
589
100
AcDbEntity
  8
0
100
AcDbCircle
 62
7
  6
CONTINUOUS
 10
256.4472115477
 20
552.8730081897
 40
12.0
100
AcDbArc
 50
94.7792343284
 51
96.0955871289
  0
ARC
  5
58A
100
AcDbEntity
  8
BEZUGSACHSEN
100
AcDbCircle
 62
7
  6
CONTINUOUS
 10
261.4472115477
 20
552.8730081897
 40
8.0
100
AcDbArc
 50
90.0
 51
180.0
  0
ARC
  5
58B
100
AcDbEntity
  8
RUNDUNGEN
100
AcDbCircle
 62
7
  6
CONTINUOUS
 10
239.6799594489
 20
556.5783279715
 40
2.0100429148
100
AcDbArc
 50
90.0373434405
 51
105.5855510188
  0
ARC
  5
58C
100
AcDbEntity
  8
RUNDUNGEN
100
AcDbCircle
 62
7
  6
CONTINUOUS
 10
149.4750553257
 20
560.9008423824
 40
1.9999376075
100
AcDbArc
 50
14.8700385267
 51
90.0006661971
  0
ARC
  5
58D
100
AcDbEntity
  8
RUNDUNGEN
100
AcDbCircle
 62
7
  6
CONTINUOUS
 10
239.6785146567
 20
556.5888376284
 40
1.9995328354
100
AcDbArc
 50
89.9961398081
 51
118.5346729468
  0
ARC
  5
58E
100
AcDbEntity
  8
BEZUGSACHSEN
100
AcDbCircle
 62
7
  6
CONTINUOUS
 10
249.4472115477
 20
570.8730081897
 40
5.0
100
AcDbArc
 50
90.0
 51
180.0
  0
ARC
  5
58F
100
AcDbEntity
  8
RUNDUNGEN
100
AcDbCircle
 62
7
  6
CONTINUOUS
 10
125.9472115477
 20
567.8730081897
 40
1.0
100
AcDbArc
 50
90.0
 51
180.0
  0
ARC
  5
590
100
AcDbEntity
  8
RUNDUNGEN
100
AcDbCircle
 62
7
  6
CONTINUOUS
 10
109.4472115477
 20
570.3730081897
 40
0.5
100
AcDbArc
 50
0.0
 51
90.0
  0
ARC
  5
591
100
AcDbEntity
  8
BEZUGSACHSEN
100
AcDbCircle
 62
7
  6
CONTINUOUS
 10
463.6279186639
 20
529.1230081897
 40
30.0
100
AcDbArc
 50
49.6850962837
 51
80.1777573647
  0
ARC
  5
592
100
AcDbEntity
  8
RUNDUNGEN
100
AcDbCircle
 62
7
  6
CONTINUOUS
 10
461.92638357
 20
500.6230081897
 40
30.0
100
AcDbArc
 50
47.5188848348
 51
82.5963587707
  0
ARC
  5
593
100
AcDbEntity
  8
RUNDUNGEN
100
AcDbCircle
 62
7
  6
CONTINUOUS
 10
463.6279186639
 20
529.1230081897
 40
30.0
100
AcDbArc
 50
49.6850962837
 51
85.3541028845
  0
ARC
  5
594
100
AcDbEntity
  8
RUNDUNGEN
100
AcDbCircle
 62
7
  6
CONTINUOUS
 10
268.4472115477
 20
536.8730081897
 40
12.0
100
AcDbArc
 50
270.0
 51
360.0
  0
ARC
  5
595
100
AcDbEntity
  8
0
100
AcDbCircle
 62
7
  6
CONTINUOUS
 10
268.4472115477
 20
536.8730081897
 40
12.0
100
AcDbArc
 50
282.1467811479
 51
288.553004535
  0
ARC
  5
596
100
AcDbEntity
  8
0
100
AcDbCircle
 62
7
  6
CONTINUOUS
 10
268.4472115477
 20
536.8730081897
 40
12.0
100
AcDbArc
 50
279.3753622801
 51
281.0409606917
  0
ARC
  5
597
100
AcDbEntity
  8
0
100
AcDbCircle
 62
7
  6
CONTINUOUS
 10
268.4472115477
 20
536.8730081897
 40
12.0
100
AcDbArc
 50
274.7792342797
 51
276.0951387977
  0
ARC
  5
598
100
AcDbEntity
  8
RUNDUNGEN
100
AcDbCircle
 62
7
  6
CONTINUOUS
 10
263.4472115477
 20
536.8730081897
 40
8.0
100
AcDbArc
 50
270.0
 51
360.0
  0
ARC
  5
599
100
AcDbEntity
  8
0
100
AcDbCircle
 62
7
  6
CONTINUOUS
 10
457.0972115477
 20
526.8730081897
 40
8.0
100
AcDbArc
 50
45.0
 51
90.0
  0
ARC
  5
59A
100
AcDbEntity
  8
RUNDUNGEN
100
AcDbCircle
 62
7
  6
CONTINUOUS
 10
275.4472115477
 20
518.8730081897
 40
5.0
100
AcDbArc
 50
270.0
 51
360.0
  0
ARC
  5
59B
100
AcDbEntity
  8
0
100
AcDbCircle
 62
7
  6
CONTINUOUS
 10
377.3018295629
 20
520.8730081897
 40
5.0
100
AcDbArc
 50
64.1580672368
 51
90.0
  0
ARC
  5
59C
100
AcDbEntity
  8
RUNDUNGEN
100
AcDbCircle
 62
7
  6
CONTINUOUS
 10
321.5697183933
 20
527.8730087116
 40
2.0000032256
100
AcDbArc
 50
218.6851549633
 51
270.0000703203
  0
ARC
  5
59D
100
AcDbEntity
  8
RUNDUNGEN
100
AcDbCircle
 62
7
  6
CONTINUOUS
 10
285.2157737155
 20
527.3730081897
 40
2.0
100
AcDbArc
 50
270.0
 51
290.0
  0
ARC
  5
59E
100
AcDbEntity
  8
RUNDUNGEN
100
AcDbCircle
 62
7
  6
CONTINUOUS
 10
287.294820348
 20
523.8730081897
 40
2.0
100
AcDbArc
 50
90.0
 51
110.0
  0
ARC
  5
59F
100
AcDbEntity
  8
RUNDUNGEN
100
AcDbCircle
 62
7
  6
CONTINUOUS
 10
318.4472115477
 20
525.3730081897
 40
2.0
100
AcDbArc
 50
38.683707363
 51
90.0020376536
  0
ARC
  5
5A0
100
AcDbEntity
  8
RUNDUNGEN
100
AcDbCircle
 62
7
  6
CONTINUOUS
 10
292.4472115477
 20
525.3730081897
 40
2.0
100
AcDbArc
 50
90.0008661253
 51
141.316387078
  0
ARC
  5
5A1
100
AcDbEntity
  8
RUNDUNGEN
100
AcDbCircle
 62
7
  6
CONTINUOUS
 10
399.9472115477
 20
526.3730081897
 40
1.0
100
AcDbArc
 50
270.0
 51
360.0
  0
ARC
  5
5A2
100
AcDbEntity
  8
0
100
AcDbCircle
 62
7
  6
CONTINUOUS
 10
268.4472115477
 20
552.8730081897
 40
12.0
100
AcDbArc
 50
71.446995465
 51
77.8532075052
  0
ARC
  5
5A3
100
AcDbEntity
  8
0
100
AcDbCircle
 62
7
  6
CONTINUOUS
 10
268.4472115477
 20
552.8730081897
 40
12.0
100
AcDbArc
 50
78.3961535075
 51
80.6236079605
  0
ARC
  5
5A4
100
AcDbEntity
  8
0
100
AcDbCircle
 62
7
  6
CONTINUOUS
 10
268.4472115477
 20
552.8730081897
 40
12.0
100
AcDbArc
 50
83.9044128711
 51
85.2207656716
  0
ARC
  5
5A5
100
AcDbEntity
  8
RUNDUNGEN
100
AcDbCircle
 62
7
  6
CONTINUOUS
 10
268.4472115477
 20
552.8730081897
 40
12.0
100
AcDbArc
 50
0.0
 51
90.0
  0
ARC
  5
5A6
100
AcDbEntity
  8
RUNDUNGEN
100
AcDbCircle
 62
7
  6
CONTINUOUS
 10
263.4472115477
 20
552.8730081897
 40
8.0
100
AcDbArc
 50
0.0
 51
90.0
  0
ARC
  5
5A7
100
AcDbEntity
  8
RUNDUNGEN
100
AcDbCircle
 62
7
  6
CONTINUOUS
 10
285.2135941402
 20
556.5749852754
 40
2.0133863636
100
AcDbArc
 50
71.2650106388
 51
89.9379746579
  0
ARC
  5
5A8
100
AcDbEntity
  8
RUNDUNGEN
100
AcDbCircle
 62
7
  6
CONTINUOUS
 10
375.4472115477
 20
561.8730081897
 40
2.0
100
AcDbArc
 50
90.0
 51
180.0
  0
ARC
  5
5A9
100
AcDbEntity
  8
RUNDUNGEN
100
AcDbCircle
 62
7
  6
CONTINUOUS
 10
285.2159084387
 20
556.5888376283
 40
1.9995328355
100
AcDbArc
 50
61.465327187
 51
90.0038601914
  0
ARC
  5
5AA
100
AcDbEntity
  8
RUNDUNGEN
100
AcDbCircle
 62
7
  6
CONTINUOUS
 10
275.4472115477
 20
570.8730081897
 40
5.0
100
AcDbArc
 50
0.0
 51
90.0
  0
ARC
  5
5AB
100
AcDbEntity
  8
0
100
AcDbCircle
 62
7
  6
CONTINUOUS
 10
377.3018295629
 20
568.8730081897
 40
5.0
100
AcDbArc
 50
270.0
 51
295.8419327632
  0
ARC
  5
5AC
100
AcDbEntity
  8
RUNDUNGEN
100
AcDbCircle
 62
7
  6
CONTINUOUS
 10
399.9472115477
 20
563.3730081897
 40
1.0
100
AcDbArc
 50
0.0
 51
90.0
  0
ARC
  5
5AD
100
AcDbEntity
  8
BEZUGSACHSEN
100
AcDbCircle
 62
7
  6
CONTINUOUS
 10
527.8404273228
 20
557.8730081897
 40
43.0
100
AcDbArc
 50
288.9928855579
 51
289.6242721642
  0
ARC
  5
5AE
100
AcDbEntity
  8
BEZUGSACHSEN
100
AcDbCircle
 62
7
  6
CONTINUOUS
 10
527.8404273228
 20
557.8730081897
 40
43.0
100
AcDbArc
 50
287.1524309237
 51
288.49178395
  0
ARC
  5
5AF
100
AcDbEntity
  8
BEZUGSACHSEN
100
AcDbCircle
 62
7
  6
CONTINUOUS
 10
527.8404273228
 20
557.8730081897
 40
43.0
100
AcDbArc
 50
270.0
 51
272.3472428476
  0
ARC
  5
5B0
100
AcDbEntity
  8
RUNDUNGEN
100
AcDbCircle
 62
7
  6
CONTINUOUS
 10
527.8404273228
 20
557.8730081897
 40
43.0
100
AcDbArc
 50
270.0
 51
350.0
  0
ARC
  5
5B1
100
AcDbEntity
  8
RUNDUNGEN
100
AcDbCircle
 62
7
  6
CONTINUOUS
 10
502.4472115477
 20
544.8730081897
 40
30.0
100
AcDbArc
 50
227.5188894144
 51
270.0
  0
ARC
  5
5B2
100
AcDbEntity
  8
BEZUGSACHSEN
100
AcDbCircle
 62
7
  6
CONTINUOUS
 10
502.4472115477
 20
574.8730081897
 40
30.0
100
AcDbArc
 50
240.161565414
 51
265.952460998
  0
ARC
  5
5B3
100
AcDbEntity
  8
RUNDUNGEN
100
AcDbCircle
 62
7
  6
CONTINUOUS
 10
502.4472115477
 20
574.8730081897
 40
30.0
100
AcDbArc
 50
229.6850853669
 51
269.9999940237
  0
ARC
  5
5B4
100
AcDbEntity
  8
RUNDUNGEN
100
AcDbCircle
 62
7
  6
CONTINUOUS
 10
534.4917054538
 20
564.8730081897
 40
20.0
100
AcDbArc
 50
270.0
 51
330.999996981
  0
ARC
  5
5B5
100
AcDbEntity
  8
0
100
AcDbCircle
 62
7
  6
CONTINUOUS
 10
457.0972115477
 20
562.8730081897
 40
8.0
100
AcDbArc
 50
270.0
 51
315.0
  0
ARC
  5
5B6
100
AcDbEntity
  8
RUNDUNGEN
100
AcDbCircle
 62
7
  6
CONTINUOUS
 10
572.973055903
 20
577.7232743195
 40
2.0
100
AcDbArc
 50
350.0000050728
 51
61.0000016515
  0
ARC
  5
5B7
100
AcDbEntity
  8
RUNDUNGEN
100
AcDbCircle
 62
7
  6
CONTINUOUS
 10
568.2268317215
 20
580.354149535
 40
2.0
100
AcDbArc
 50
61.0
 51
151.0
  0
ARC
  5
5B8
100
AcDbEntity
  8
BEZUGSACHSEN
100
AcDbCircle
 62
7
  6
CONTINUOUS
 10
572.973055903
 20
577.7232743195
 40
2.0
100
AcDbArc
 50
350.0000050728
 51
61.0000016515
  0
ARC
  5
5B9
100
AcDbEntity
  8
BEZUGSACHSEN
100
AcDbCircle
 62
7
  6
CONTINUOUS
 10
22.4472115477
 20
-106.2618146004
 40
30.0
100
AcDbArc
 50
60.161565414
 51
85.952460998
  0
ARC
  5
5BA
100
AcDbEntity
  8
RUNDUNGEN
100
AcDbCircle
 62
7
  6
CONTINUOUS
 10
22.4472115477
 20
-106.2618146004
 40
30.0
100
AcDbArc
 50
49.6850853669
 51
89.9999940237
  0
ARC
  5
5BB
100
AcDbEntity
  8
RUNDUNGEN
100
AcDbCircle
 62
7
  6
CONTINUOUS
 10
-9.5972823584
 20
-96.2618146004
 40
20.0
100
AcDbArc
 50
90.0
 51
150.999996981
  0
ARC
  5
5BC
100
AcDbEntity
  8
0
100
AcDbCircle
 62
7
  6
CONTINUOUS
 10
67.7972115477
 20
-94.2618146004
 40
8.0
100
AcDbArc
 50
90.0
 51
135.0
  0
ARC
  5
5BD
100
AcDbEntity
  8
RUNDUNGEN
100
AcDbCircle
 62
7
  6
CONTINUOUS
 10
-48.0786328076
 20
-109.1120807302
 40
2.0
100
AcDbArc
 50
170.0000050728
 51
241.0000016515
  0
ARC
  5
5BE
100
AcDbEntity
  8
RUNDUNGEN
100
AcDbCircle
 62
7
  6
CONTINUOUS
 10
-43.3324086261
 20
-111.7429559456
 40
2.0
100
AcDbArc
 50
241.0
 51
331.0
  0
ARC
  5
5BF
100
AcDbEntity
  8
BEZUGSACHSEN
100
AcDbCircle
 62
7
  6
CONTINUOUS
 10
-48.0786328076
 20
-109.1120807302
 40
2.0
100
AcDbArc
 50
170.0000050728
 51
241.0000016515
  0
ARC
  5
5C0
100
AcDbEntity
  8
BEZUGSACHSEN
100
AcDbCircle
 62
7
  6
CONTINUOUS
 10
-2.9460042273
 20
-89.2618146004
 40
43.0
100
AcDbArc
 50
167.1715258633
 51
170.0
  0
ARC
  5
5C1
100
AcDbEntity
  8
RUNDUNGEN
100
AcDbCircle
 62
7
  6
CONTINUOUS
 10
-2.9460042273
 20
-89.2618146004
 40
43.0
100
AcDbArc
 50
90.0
 51
170.0
  0
ARC
  5
5C2
100
AcDbEntity
  8
RUNDUNGEN
100
AcDbCircle
 62
7
  6
CONTINUOUS
 10
22.4472115477
 20
-76.2618146004
 40
30.0
100
AcDbArc
 50
47.5188894144
 51
90.0
  0
ARC
  5
5C3
100
AcDbEntity
  8
BEZUGSACHSEN
100
AcDbCircle
 62
7
  6
CONTINUOUS
 10
249.4472115477
 20
-102.2618146004
 40
5.0
100
AcDbArc
 50
180.0
 51
270.0
  0
ARC
  5
5C4
100
AcDbEntity
  8
RUNDUNGEN
100
AcDbCircle
 62
7
  6
CONTINUOUS
 10
104.9472115477
 20
-100.2618146004
 40
2.0
100
AcDbArc
 50
180.0
 51
270.0
  0
ARC
  5
5C5
100
AcDbEntity
  8
RUNDUNGEN
100
AcDbCircle
 62
7
  6
CONTINUOUS
 10
125.9472115477
 20
-99.2618146004
 40
1.0
100
AcDbArc
 50
180.0
 51
270.0
  0
ARC
  5
5C6
100
AcDbEntity
  8
RUNDUNGEN
100
AcDbCircle
 62
7
  6
CONTINUOUS
 10
109.4472115477
 20
-101.7618146004
 40
0.5
100
AcDbArc
 50
270.0
 51
360.0
  0
ARC
  5
5C7
100
AcDbEntity
  8
RUNDUNGEN
100
AcDbCircle
 62
7
  6
CONTINUOUS
 10
149.4680241404
 20
-92.2874845811
 40
2.00729357
100
AcDbArc
 50
343.7141216232
 51
345.0705345368
  0
ARC
  5
5C8
100
AcDbEntity
  8
RUNDUNGEN
100
AcDbCircle
 62
7
  6
CONTINUOUS
 10
149.4750704606
 20
-92.289654596
 40
1.9999254977
100
AcDbArc
 50
270.0055657425
 51
343.717185386
  0
ARC
  5
5C9
100
AcDbEntity
  8
RUNDUNGEN
100
AcDbCircle
 62
7
  6
CONTINUOUS
 10
239.6785146568
 20
-87.977644039
 40
1.9995328355
100
AcDbArc
 50
241.4653272113
 51
270.0038601913
  0
ARC
  5
5CA
100
AcDbEntity
  8
BEZUGSACHSEN
100
AcDbCircle
 62
7
  6
CONTINUOUS
 10
61.2665044315
 20
-60.5118146004
 40
30.0
100
AcDbArc
 50
229.6850962837
 51
260.1777573647
  0
ARC
  5
5CB
100
AcDbEntity
  8
RUNDUNGEN
100
AcDbCircle
 62
7
  6
CONTINUOUS
 10
62.9680395254
 20
-32.0118146004
 40
30.0
100
AcDbArc
 50
227.5188848348
 51
262.59635898
  0
ARC
  5
5CC
100
AcDbEntity
  8
RUNDUNGEN
100
AcDbCircle
 62
7
  6
CONTINUOUS
 10
61.2665044315
 20
-60.5118146004
 40
30.0
100
AcDbArc
 50
229.6850962837
 51
265.3541029213
  0
ARC
  5
5CD
100
AcDbEntity
  8
0
100
AcDbCircle
 62
7
  6
CONTINUOUS
 10
67.7972115477
 20
-58.2618146004
 40
8.0
100
AcDbArc
 50
225.0
 51
270.0
  0
ARC
  5
5CE
100
AcDbEntity
  8
BEZUGSACHSEN
100
AcDbCircle
 62
7
  6
CONTINUOUS
 10
249.4472115477
 20
-50.2618146004
 40
5.0
100
AcDbArc
 50
90.0
 51
180.0
  0
ARC
  5
5CF
100
AcDbEntity
  8
RUNDUNGEN
100
AcDbCircle
 62
7
  6
CONTINUOUS
 10
147.5925935326
 20
-52.2618146004
 40
5.0
100
AcDbArc
 50
235.0
 51
270.0
  0
ARC
  5
5D0
100
AcDbEntity
  8
RUNDUNGEN
100
AcDbCircle
 62
7
  6
CONTINUOUS
 10
104.9472115477
 20
-52.2618146004
 40
2.0
100
AcDbArc
 50
90.0
 51
180.0
  0
ARC
  5
5D1
100
AcDbEntity
  8
RUNDUNGEN
100
AcDbCircle
 62
7
  6
CONTINUOUS
 10
239.67864938
 20
-58.7618146004
 40
2.0
100
AcDbArc
 50
90.0
 51
110.0
  0
ARC
  5
5D2
100
AcDbEntity
  8
RUNDUNGEN
100
AcDbCircle
 62
7
  6
CONTINUOUS
 10
237.5996027474
 20
-55.2618146004
 40
2.0
100
AcDbArc
 50
270.0
 51
290.0
  0
ARC
  5
5D3
100
AcDbEntity
  8
RUNDUNGEN
100
AcDbCircle
 62
7
  6
CONTINUOUS
 10
125.9472115477
 20
-53.2618146004
 40
1.0
100
AcDbArc
 50
90.0
 51
180.0
  0
ARC
  5
5D4
100
AcDbEntity
  8
RUNDUNGEN
100
AcDbCircle
 62
7
  6
CONTINUOUS
 10
109.4472115477
 20
-50.7618146004
 40
0.5
100
AcDbArc
 50
0.0
 51
90.0
  0
ARC
  5
5D5
100
AcDbEntity
  8
RUNDUNGEN
100
AcDbCircle
 62
7
  6
CONTINUOUS
 10
275.4472115477
 20
-102.2618146004
 40
5.0
100
AcDbArc
 50
270.0
 51
360.0
  0
ARC
  5
5D6
100
AcDbEntity
  8
0
100
AcDbCircle
 62
7
  6
CONTINUOUS
 10
377.3018295629
 20
-100.2618146004
 40
5.0
100
AcDbArc
 50
64.1580672368
 51
90.0
  0
ARC
  5
5D7
100
AcDbEntity
  8
RUNDUNGEN
100
AcDbCircle
 62
7
  6
CONTINUOUS
 10
399.9472115477
 20
-94.7618146004
 40
1.0
100
AcDbArc
 50
270.0
 51
360.0
  0
ARC
  5
5D8
100
AcDbEntity
  8
RUNDUNGEN
100
AcDbCircle
 62
7
  6
CONTINUOUS
 10
375.4472115477
 20
-93.2618146004
 40
2.0
100
AcDbArc
 50
180.0
 51
270.0
  0
ARC
  5
5D9
100
AcDbEntity
  8
RUNDUNGEN
100
AcDbCircle
 62
7
  6
CONTINUOUS
 10
285.2159084387
 20
-87.9776440391
 40
1.9995328354
100
AcDbArc
 50
269.9961398081
 51
298.5346729466
  0
ARC
  5
5DA
100
AcDbEntity
  8
BEZUGSACHSEN
100
AcDbCircle
 62
7
  6
CONTINUOUS
 10
502.4472115477
 20
-106.2618146004
 40
30.0
100
AcDbArc
 50
90.0000059763
 51
130.3149146331
  0
ARC
  5
5DB
100
AcDbEntity
  8
BEZUGSACHSEN
100
AcDbCircle
 62
7
  6
CONTINUOUS
 10
534.4917054538
 20
-96.2618146004
 40
20.0
100
AcDbArc
 50
29.000003019
 51
90.0
  0
ARC
  5
5DC
100
AcDbEntity
  8
0
100
AcDbCircle
 62
7
  6
CONTINUOUS
 10
457.0972115477
 20
-94.2618146004
 40
8.0
100
AcDbArc
 50
45.0
 51
90.0
  0
ARC
  5
5DD
100
AcDbEntity
  8
BEZUGSACHSEN
100
AcDbCircle
 62
7
  6
CONTINUOUS
 10
568.2268317215
 20
-111.7429559456
 40
2.0
100
AcDbArc
 50
209.0
 51
299.0
  0
ARC
  5
5DE
100
AcDbEntity
  8
RUNDUNGEN
100
AcDbCircle
 62
7
  6
CONTINUOUS
 10
572.973055903
 20
-109.1120807302
 40
2.0
100
AcDbArc
 50
298.9999983485
 51
9.9999949272
  0
ARC
  5
5DF
100
AcDbEntity
  8
BEZUGSACHSEN
100
AcDbCircle
 62
7
  6
CONTINUOUS
 10
572.973055903
 20
-109.1120807302
 40
2.0
100
AcDbArc
 50
298.9999983485
 51
9.9999949272
  0
ARC
  5
5E0
100
AcDbEntity
  8
BEZUGSACHSEN
100
AcDbCircle
 62
7
  6
CONTINUOUS
 10
502.4472115477
 20
-76.2618146004
 40
30.0
100
AcDbArc
 50
90.0
 51
132.4811105856
  0
ARC
  5
5E1
100
AcDbEntity
  8
RUNDUNGEN
100
AcDbCircle
 62
7
  6
CONTINUOUS
 10
527.8404273228
 20
-89.2618146004
 40
43.0
100
AcDbArc
 50
26.7209578417
 51
59.5098386258
  0
ARC
  5
5E2
100
AcDbEntity
  8
RUNDUNGEN
100
AcDbCircle
 62
7
  6
CONTINUOUS
 10
527.8404273228
 20
-89.2618146004
 40
43.0
100
AcDbArc
 50
21.1922408845
 51
25.623889717
  0
ARC
  5
5E3
100
AcDbEntity
  8
RUNDUNGEN
100
AcDbCircle
 62
7
  6
CONTINUOUS
 10
527.8404273228
 20
-89.2618146004
 40
43.0
100
AcDbArc
 50
10.0
 51
15.561172773
  0
ARC
  5
5E4
100
AcDbEntity
  8
BEZUGSACHSEN
100
AcDbCircle
 62
7
  6
CONTINUOUS
 10
527.8404273228
 20
-89.2618146004
 40
43.0
100
AcDbArc
 50
10.0
 51
90.0
  0
ARC
  5
5E5
100
AcDbEntity
  8
RUNDUNGEN
100
AcDbCircle
 62
7
  6
CONTINUOUS
 10
527.8404273228
 20
-89.2618146004
 40
43.0
100
AcDbArc
 50
70.375753221
 51
89.9694349475
  0
ARC
  5
5E6
100
AcDbEntity
  8
BEZUGSACHSEN
100
AcDbCircle
 62
7
  6
CONTINUOUS
 10
463.6279186639
 20
-60.5118146004
 40
30.0
100
AcDbArc
 50
279.8222426353
 51
310.3149037163
  0
ARC
  5
5E7
100
AcDbEntity
  8
RUNDUNGEN
100
AcDbCircle
 62
7
  6
CONTINUOUS
 10
463.6279186639
 20
-60.5118146004
 40
30.0
100
AcDbArc
 50
274.6458971155
 51
310.3149037163
  0
ARC
  5
5E8
100
AcDbEntity
  8
BEZUGSACHSEN
100
AcDbCircle
 62
7
  6
CONTINUOUS
 10
461.92638357
 20
-32.0118146004
 40
30.0
100
AcDbArc
 50
300.4829024615
 51
312.4811151652
  0
ARC
  5
5E9
100
AcDbEntity
  8
RUNDUNGEN
100
AcDbCircle
 62
7
  6
CONTINUOUS
 10
461.92638357
 20
-32.0118146004
 40
30.0
100
AcDbArc
 50
277.4036412293
 51
300.4829024615
  0
ARC
  5
5EA
100
AcDbEntity
  8
0
100
AcDbCircle
 62
7
  6
CONTINUOUS
 10
457.0972115477
 20
-58.2618146004
 40
8.0
100
AcDbArc
 50
270.0
 51
315.0
  0
ARC
  5
5EB
100
AcDbEntity
  8
RUNDUNGEN
100
AcDbCircle
 62
7
  6
CONTINUOUS
 10
275.4472115477
 20
-50.2618146004
 40
5.0
100
AcDbArc
 50
0.0
 51
90.0
  0
ARC
  5
5EC
100
AcDbEntity
  8
0
100
AcDbCircle
 62
7
  6
CONTINUOUS
 10
377.3018295629
 20
-52.2618146004
 40
5.0
100
AcDbArc
 50
270.0
 51
295.8419327632
  0
ARC
  5
5ED
100
AcDbEntity
  8
RUNDUNGEN
100
AcDbCircle
 62
7
  6
CONTINUOUS
 10
321.5697183933
 20
-59.2618151223
 40
2.0000032256
100
AcDbArc
 50
89.9999296797
 51
141.3148450367
  0
ARC
  5
5EE
100
AcDbEntity
  8
RUNDUNGEN
100
AcDbCircle
 62
7
  6
CONTINUOUS
 10
285.2157737155
 20
-58.7618146004
 40
2.0
100
AcDbArc
 50
70.0
 51
90.0
  0
ARC
  5
5EF
100
AcDbEntity
  8
RUNDUNGEN
100
AcDbCircle
 62
7
  6
CONTINUOUS
 10
287.294820348
 20
-55.2618146004
 40
2.0
100
AcDbArc
 50
250.0
 51
270.0
  0
ARC
  5
5F0
100
AcDbEntity
  8
RUNDUNGEN
100
AcDbCircle
 62
7
  6
CONTINUOUS
 10
318.4472115477
 20
-56.7618146004
 40
2.0
100
AcDbArc
 50
269.9979623464
 51
321.316292637
  0
ARC
  5
5F1
100
AcDbEntity
  8
RUNDUNGEN
100
AcDbCircle
 62
7
  6
CONTINUOUS
 10
292.4472115477
 20
-56.7618146004
 40
2.0
100
AcDbArc
 50
218.683612922
 51
269.9991338747
  0
ARC
  5
5F2
100
AcDbEntity
  8
RUNDUNGEN
100
AcDbCircle
 62
7
  6
CONTINUOUS
 10
399.9472115477
 20
-57.7618146004
 40
1.0
100
AcDbArc
 50
0.0
 51
90.0
  0
SPLINE
  5
5F3
100
AcDbEntity
  8
RUNDUNGEN
100
AcDbSpline
 62
7
  6
CONTINUOUS
 70
0
 71
3
 72
13
 73
9
 74
0
 42
0.0000001
 43
0.0000001
 44
0.0000000001
 40
0.0
 40
0.0
 40
0.0
 40
0.0
 40
0.3203778116
 40
0.6202633572
 40
0.7472365533
 40
0.8534425386
 40
0.9372257173
 40
1.0
 40
1.0
 40
1.0
 40
1.0
 10
138.876410634
 20
383.2569598641
 30
0.0
 10
138.8873784942
 20
383.5416553765
 30
0.0
 10
138.8686859556
 20
384.0946408241
 30
0.0
 10
138.7627634092
 20
384.7533717234
 30
0.0
 10
138.6264662853
 20
385.2080498528
 30
0.0
 10
138.5149689658
 20
385.4680615689
 30
0.0
 10
138.3944757876
 20
385.6586922271
 30
0.0
 10
138.2948544269
 20
385.7488514364
 30
0.0
 10
138.2447619767
 20
385.7734904371
 30
0.0
  0
SPLINE
  5
5F4
100
AcDbEntity
  8
RUNDUNGEN
100
AcDbSpline
 62
7
  6
CONTINUOUS
 70
0
 71
3
 72
13
 73
9
 74
0
 42
0.0000001
 43
0.0000001
 44
0.0000000001
 40
0.0
 40
0.0
 40
0.0
 40
0.0
 40
0.0627742238
 40
0.1465574174
 40
0.2527634099
 40
0.3797366138
 40
0.6796221741
 40
1.0
 40
1.0
 40
1.0
 40
1.0
 10
138.2447619767
 20
394.9233311943
 30
0.0
 10
138.2948543749
 20
394.947970174
 30
0.0
 10
138.3944755223
 20
395.0381295596
 30
0.0
 10
138.5149688055
 20
395.2287600427
 30
0.0
 10
138.6264660799
 20
395.4887718172
 30
0.0
 10
138.7627632504
 20
395.9434499122
 30
0.0
 10
138.8686858024
 20
396.6021808142
 30
0.0
 10
138.8873783509
 20
397.1551662491
 30
0.0
 10
138.8764104887
 20
397.4398617562
 30
0.0
  0
SPLINE
  5
5F5
100
AcDbEntity
  8
BEZUGSACHSEN
100
AcDbSpline
 62
7
  6
CONTINUOUS
 70
0
 71
3
 72
9
 73
5
 74
0
 42
0.0000001
 43
0.0000001
 44
0.0000000001
 40
0.0
 40
0.0
 40
0.0
 40
0.0
 40
0.2632816735
 40
1.0
 40
1.0
 40
1.0
 40
1.0
 10
560.3336783424
 20
396.593271721
 30
0.0
 10
560.3235249259
 20
396.5940008103
 30
0.0
 10
560.2849538645
 20
396.596625885
 30
0.0
 10
560.2462953329
 20
396.5984105171
 30
0.0
 10
560.2178107514
 20
396.5984108157
 30
0.0
  0
SPLINE
  5
5F6
100
AcDbEntity
  8
RUNDUNGEN
100
AcDbSpline
 62
7
  6
CONTINUOUS
 70
0
 71
3
 72
9
 73
5
 74
0
 42
0.0000001
 43
0.0000001
 44
0.0000000001
 40
0.0
 40
0.0
 40
0.0
 40
0.0
 40
0.2632816735
 40
1.0
 40
1.0
 40
1.0
 40
1.0
 10
560.3336783424
 20
384.1035499105
 30
0.0
 10
560.3235249259
 20
384.1028208212
 30
0.0
 10
560.2849538645
 20
384.1001957465
 30
0.0
 10
560.2462953329
 20
384.0984111144
 30
0.0
 10
560.2178107514
 20
384.0984108157
 30
0.0
  0
SPLINE
  5
5F7
100
AcDbEntity
  8
RUNDUNGEN
100
AcDbSpline
 62
7
  6
CONTINUOUS
 70
0
 71
3
 72
9
 73
5
 74
0
 42
0.0000001
 43
0.0000001
 44
0.0000000001
 40
0.0
 40
0.0
 40
0.0
 40
0.0
 40
0.4902444418
 40
1.0
 40
1.0
 40
1.0
 40
1.0
 10
565.748774335
 20
367.3683375196
 30
0.0
 10
565.6604674956
 20
367.3297864103
 30
0.0
 10
565.4681181665
 20
367.2767488903
 30
0.0
 10
565.269101452
 20
367.2783766019
 30
0.0
 10
565.1696992559
 20
367.290914586
 30
0.0
  0
SPLINE
  5
5F8
100
AcDbEntity
  8
RUNDUNGEN
100
AcDbSpline
 62
7
  6
CONTINUOUS
 70
0
 71
3
 72
11
 73
7
 74
0
 42
0.0000001
 43
0.0000001
 44
0.0000000001
 40
0.0
 40
0.0
 40
0.0
 40
0.0
 40
0.2378605158
 40
0.4913619759
 40
0.7496106851
 40
1.0
 40
1.0
 40
1.0
 40
1.0
 10
565.1696992559
 20
367.290914586
 30
0.0
 10
564.9351106159
 20
367.3023009257
 30
0.0
 10
564.4529309784
 20
367.4288487453
 30
0.0
 10
563.8306481579
 20
367.8507299535
 30
0.0
 10
563.3536448963
 20
368.4465135123
 30
0.0
 10
563.1664502032
 20
368.9232296043
 30
0.0
 10
563.1162933367
 20
369.1653242915
 30
0.0
  0
SPLINE
  5
5F9
100
AcDbEntity
  8
BEZUGSACHSEN
100
AcDbSpline
 62
7
  6
CONTINUOUS
 70
0
 71
3
 72
9
 73
5
 74
0
 42
0.0000001
 43
0.0000001
 44
0.0000000001
 40
0.0
 40
0.0
 40
0.0
 40
0.0
 40
0.4902444418
 40
1.0
 40
1.0
 40
1.0
 40
1.0
 10
565.748774335
 20
413.3284841119
 30
0.0
 10
565.6604674956
 20
413.3670352211
 30
0.0
 10
565.4681181665
 20
413.4200727412
 30
0.0
 10
565.269101452
 20
413.4184450296
 30
0.0
 10
565.1696992559
 20
413.4059070454
 30
0.0
  0
SPLINE
  5
5FA
100
AcDbEntity
  8
BEZUGSACHSEN
100
AcDbSpline
 62
7
  6
CONTINUOUS
 70
0
 71
3
 72
11
 73
7
 74
0
 42
0.0000001
 43
0.0000001
 44
0.0000000001
 40
0.0
 40
0.0
 40
0.0
 40
0.0
 40
0.2378605158
 40
0.4913619759
 40
0.7496106851
 40
1.0
 40
1.0
 40
1.0
 40
1.0
 10
565.1696992559
 20
413.4059070454
 30
0.0
 10
564.9351106159
 20
413.3945207057
 30
0.0
 10
564.4529309784
 20
413.2679728862
 30
0.0
 10
563.8306481579
 20
412.8460916779
 30
0.0
 10
563.3536448963
 20
412.2503081191
 30
0.0
 10
563.1664502032
 20
411.7735920272
 30
0.0
 10
563.1162933367
 20
411.53149734
 30
0.0
  0
SPLINE
  5
5FB
100
AcDbEntity
  8
BEZUGSACHSEN
100
AcDbSpline
 62
7
  6
CONTINUOUS
 70
0
 71
3
 72
9
 73
5
 74
0
 42
0.0000001
 43
0.0000001
 44
0.0000000001
 40
0.0
 40
0.0
 40
0.0
 40
0.0
 40
0.2632816735
 40
1.0
 40
1.0
 40
1.0
 40
1.0
 10
-35.439255247
 20
384.1035499105
 30
0.0
 10
-35.4291018305
 20
384.1028208212
 30
0.0
 10
-35.390530769
 20
384.1001957465
 30
0.0
 10
-35.3518722375
 20
384.0984111144
 30
0.0
 10
-35.3233876559
 20
384.0984108157
 30
0.0
  0
SPLINE
  5
5FC
100
AcDbEntity
  8
RUNDUNGEN
100
AcDbSpline
 62
7
  6
CONTINUOUS
 70
0
 71
3
 72
9
 73
5
 74
0
 42
0.0000001
 43
0.0000001
 44
0.0000000001
 40
0.0
 40
0.0
 40
0.0
 40
0.0
 40
0.2632816735
 40
1.0
 40
1.0
 40
1.0
 40
1.0
 10
-35.439255247
 20
396.593271721
 30
0.0
 10
-35.4291018305
 20
396.5940008103
 30
0.0
 10
-35.390530769
 20
396.596625885
 30
0.0
 10
-35.3518722375
 20
396.5984105171
 30
0.0
 10
-35.3233876559
 20
396.5984108157
 30
0.0
  0
SPLINE
  5
5FD
100
AcDbEntity
  8
RUNDUNGEN
100
AcDbSpline
 62
7
  6
CONTINUOUS
 70
0
 71
3
 72
9
 73
5
 74
0
 42
0.0000001
 43
0.0000001
 44
0.0000000001
 40
0.0
 40
0.0
 40
0.0
 40
0.0
 40
0.4902444418
 40
1.0
 40
1.0
 40
1.0
 40
1.0
 10
-40.8543512395
 20
413.3284841119
 30
0.0
 10
-40.7660444001
 20
413.3670352211
 30
0.0
 10
-40.5736950711
 20
413.4200727412
 30
0.0
 10
-40.3746783565
 20
413.4184450296
 30
0.0
 10
-40.2752761605
 20
413.4059070454
 30
0.0
  0
SPLINE
  5
5FE
100
AcDbEntity
  8
RUNDUNGEN
100
AcDbSpline
 62
7
  6
CONTINUOUS
 70
0
 71
3
 72
11
 73
7
 74
0
 42
0.0000001
 43
0.0000001
 44
0.0000000001
 40
0.0
 40
0.0
 40
0.0
 40
0.0
 40
0.2378605158
 40
0.4913619759
 40
0.7496106851
 40
1.0
 40
1.0
 40
1.0
 40
1.0
 10
-40.2752761605
 20
413.4059070454
 30
0.0
 10
-40.0406875204
 20
413.3945207057
 30
0.0
 10
-39.558507883
 20
413.2679728862
 30
0.0
 10
-38.9362250625
 20
412.8460916779
 30
0.0
 10
-38.4592218009
 20
412.2503081191
 30
0.0
 10
-38.2720271077
 20
411.7735920272
 30
0.0
 10
-38.2218702413
 20
411.53149734
 30
0.0
  0
SPLINE
  5
5FF
100
AcDbEntity
  8
0
100
AcDbSpline
 62
7
  6
CONTINUOUS
 70
0
 71
3
 72
9
 73
5
 74
0
 42
0.0000001
 43
0.0000001
 44
0.0000000001
 40
0.0
 40
0.0
 40
0.0
 40
0.0
 40
0.5000097218
 40
1.0
 40
1.0
 40
1.0
 40
1.0
 10
196.2972115477
 20
381.6881567779
 30
0.0
 10
196.7292744563
 20
382.187060051
 30
0.0
 10
197.5829857757
 20
383.1938884205
 30
0.0
 10
198.4028092164
 20
384.229094618
 30
0.0
 10
198.7972115477
 20
384.758240872
 30
0.0
  0
SPLINE
  5
600
100
AcDbEntity
  8
BEZUGSACHSEN
100
AcDbSpline
 62
7
  6
CONTINUOUS
 70
0
 71
3
 72
9
 73
5
 74
0
 42
0.0000001
 43
0.0000001
 44
0.0000000001
 40
0.0
 40
0.0
 40
0.0
 40
0.0
 40
0.4902444418
 40
1.0
 40
1.0
 40
1.0
 40
1.0
 10
-40.8543512395
 20
367.3683375196
 30
0.0
 10
-40.7660444001
 20
367.3297864103
 30
0.0
 10
-40.5736950711
 20
367.2767488903
 30
0.0
 10
-40.3746783565
 20
367.2783766019
 30
0.0
 10
-40.2752761605
 20
367.290914586
 30
0.0
  0
SPLINE
  5
601
100
AcDbEntity
  8
BEZUGSACHSEN
100
AcDbSpline
 62
7
  6
CONTINUOUS
 70
0
 71
3
 72
11
 73
7
 74
0
 42
0.0000001
 43
0.0000001
 44
0.0000000001
 40
0.0
 40
0.0
 40
0.0
 40
0.0
 40
0.2378605158
 40
0.4913619759
 40
0.7496106851
 40
1.0
 40
1.0
 40
1.0
 40
1.0
 10
-40.2752761605
 20
367.290914586
 30
0.0
 10
-40.0406875204
 20
367.3023009257
 30
0.0
 10
-39.558507883
 20
367.4288487453
 30
0.0
 10
-38.9362250625
 20
367.8507299535
 30
0.0
 10
-38.4592218009
 20
368.4465135123
 30
0.0
 10
-38.2720271077
 20
368.9232296043
 30
0.0
 10
-38.2218702413
 20
369.1653242915
 30
0.0
  0
SPLINE
  5
602
100
AcDbEntity
  8
RUNDUNGEN
100
AcDbSpline
 62
7
  6
CONTINUOUS
 70
0
 71
3
 72
12
 73
8
 74
0
 42
0.0000001
 43
0.0000001
 44
0.0000000001
 40
0.0
 40
0.0
 40
0.0
 40
0.0
 40
0.088216948
 40
0.1878186105
 40
0.4197540091
 40
0.6920809528
 40
1.0
 40
1.0
 40
1.0
 40
1.0
 10
677.2391580157
 20
408.3313332379
 30
0.0
 10
677.2392714954
 20
408.1233290003
 30
0.0
 10
677.2540118063
 20
407.6804745342
 30
0.0
 10
677.329027599
 20
406.6934280202
 30
0.0
 10
677.4999708096
 20
405.2794073303
 30
0.0
 10
677.7701422474
 20
403.3836323092
 30
0.0
 10
677.9644374019
 20
402.029315716
 30
0.0
 10
678.0626048323
 20
401.3099492773
 30
0.0
  0
SPLINE
  5
603
100
AcDbEntity
  8
BEZUGSACHSEN
100
AcDbSpline
 62
7
  6
CONTINUOUS
 70
0
 71
3
 72
13
 73
9
 74
0
 42
0.0000001
 43
0.0000001
 44
0.0000000001
 40
0.0
 40
0.0
 40
0.0
 40
0.0
 40
0.120453362
 40
0.2424266481
 40
0.3659333109
 40
0.4908911862
 40
0.7440074009
 40
1.0
 40
1.0
 40
1.0
 40
1.0
 10
737.6021984112
 20
367.370116858
 30
0.0
 10
738.1534215873
 20
367.783556071
 30
0.0
 10
739.2100503424
 20
368.688529229
 30
0.0
 10
740.6212922472
 20
370.241271922
 30
0.0
 10
741.8499488847
 20
371.9742029857
 30
0.0
 10
743.226675515
 20
374.4979530765
 30
0.0
 10
744.4041016887
 20
377.9623506137
 30
0.0
 10
744.7202979851
 20
380.8840293565
 30
0.0
 10
744.7202979851
 20
382.3484108157
 30
0.0
  0
SPLINE
  5
604
100
AcDbEntity
  8
RUNDUNGEN
100
AcDbSpline
 62
7
  6
CONTINUOUS
 70
0
 71
3
 72
13
 73
9
 74
0
 42
0.0000001
 43
0.0000001
 44
0.0000000001
 40
0.0
 40
0.0
 40
0.0
 40
0.0
 40
0.120453362
 40
0.2424266481
 40
0.3659333109
 40
0.4908911862
 40
0.7440074009
 40
1.0
 40
1.0
 40
1.0
 40
1.0
 10
737.6021984112
 20
413.3267047734
 30
0.0
 10
738.1534215873
 20
412.9132655605
 30
0.0
 10
739.2100503424
 20
412.0082924025
 30
0.0
 10
740.6212922472
 20
410.4555497094
 30
0.0
 10
741.8499488847
 20
408.7226186458
 30
0.0
 10
743.226675515
 20
406.1988685549
 30
0.0
 10
744.4041016887
 20
402.7344710177
 30
0.0
 10
744.7202979851
 20
399.812792275
 30
0.0
 10
744.7202979851
 20
398.3484108157
 30
0.0
  0
SPLINE
  5
605
100
AcDbEntity
  8
RUNDUNGEN
100
AcDbSpline
 62
7
  6
CONTINUOUS
 70
0
 71
3
 72
9
 73
5
 74
0
 42
0.0000001
 43
0.0000001
 44
0.0000000001
 40
0.0
 40
0.0
 40
0.0
 40
0.0
 40
0.2599437141
 40
1.0
 40
1.0
 40
1.0
 40
1.0
 10
736.8061834938
 20
413.3284841119
 30
0.0
 10
736.8392365379
 20
413.3411896907
 30
0.0
 10
736.9680769156
 20
413.3854321052
 30
0.0
 10
737.1039627239
 20
413.4102244542
 30
0.0
 10
737.2046819909
 20
413.4146055238
 30
0.0
  0
SPLINE
  5
606
100
AcDbEntity
  8
BEZUGSACHSEN
100
AcDbSpline
 62
7
  6
CONTINUOUS
 70
0
 71
3
 72
9
 73
5
 74
0
 42
0.0000001
 43
0.0000001
 44
0.0000000001
 40
0.0
 40
0.0
 40
0.0
 40
0.0
 40
0.2599437141
 40
1.0
 40
1.0
 40
1.0
 40
1.0
 10
736.8061834938
 20
367.3683375196
 30
0.0
 10
736.8392365379
 20
367.3556319407
 30
0.0
 10
736.9680769156
 20
367.3113895263
 30
0.0
 10
737.1039627239
 20
367.2865971773
 30
0.0
 10
737.2046819909
 20
367.2822161077
 30
0.0
  0
SPLINE
  5
607
100
AcDbEntity
  8
0
100
AcDbSpline
 62
7
  6
CONTINUOUS
 70
0
 71
3
 72
10
 73
6
 74
0
 42
0.0000001
 43
0.0000001
 44
0.0000000001
 40
0.0
 40
0.0
 40
0.0
 40
0.0
 40
0.1836418241
 40
0.4225518627
 40
1.0
 40
1.0
 40
1.0
 40
1.0
 10
727.2391566399
 20
360.6163600082
 30
0.0
 10
727.2391566399
 20
360.7206883873
 30
0.0
 10
727.2315423033
 20
360.9606878795
 30
0.0
 10
727.2089797806
 20
361.5282939893
 30
0.0
 10
727.1978219334
 20
361.9920799996
 30
0.0
 10
727.1974340932
 20
362.3201326445
 30
0.0
  0
SPLINE
  5
608
100
AcDbEntity
  8
BEZUGSACHSEN
100
AcDbSpline
 62
7
  6
CONTINUOUS
 70
0
 71
3
 72
9
 73
5
 74
0
 42
0.0000001
 43
0.0000001
 44
0.0000000001
 40
0.0
 40
0.0
 40
0.0
 40
0.0
 40
0.2632816735
 40
1.0
 40
1.0
 40
1.0
 40
1.0
 10
858.5195597503
 20
396.593271721
 30
0.0
 10
858.5297131669
 20
396.5940008103
 30
0.0
 10
858.5682842283
 20
396.596625885
 30
0.0
 10
858.6069427598
 20
396.5984105171
 30
0.0
 10
858.6354273414
 20
396.5984108157
 30
0.0
  0
SPLINE
  5
609
100
AcDbEntity
  8
RUNDUNGEN
100
AcDbSpline
 62
7
  6
CONTINUOUS
 70
0
 71
3
 72
9
 73
5
 74
0
 42
0.0000001
 43
0.0000001
 44
0.0000000001
 40
0.0
 40
0.0
 40
0.0
 40
0.0
 40
0.2632816735
 40
1.0
 40
1.0
 40
1.0
 40
1.0
 10
858.5195597503
 20
384.1035499105
 30
0.0
 10
858.5297131669
 20
384.1028208212
 30
0.0
 10
858.5682842283
 20
384.1001957465
 30
0.0
 10
858.6069427598
 20
384.0984111144
 30
0.0
 10
858.6354273414
 20
384.0984108157
 30
0.0
  0
SPLINE
  5
60A
100
AcDbEntity
  8
BEZUGSACHSEN
100
AcDbSpline
 62
7
  6
CONTINUOUS
 70
0
 71
3
 72
9
 73
5
 74
0
 42
0.0000001
 43
0.0000001
 44
0.0000000001
 40
0.0
 40
0.0
 40
0.0
 40
0.0
 40
0.2632816735
 40
1.0
 40
1.0
 40
1.0
 40
1.0
 10
1454.2924933398
 20
384.1035499105
 30
0.0
 10
1454.2823399232
 20
384.1028208212
 30
0.0
 10
1454.2437688618
 20
384.1001957465
 30
0.0
 10
1454.2051103302
 20
384.0984111144
 30
0.0
 10
1454.1766257487
 20
384.0984108157
 30
0.0
  0
SPLINE
  5
60B
100
AcDbEntity
  8
RUNDUNGEN
100
AcDbSpline
 62
7
  6
CONTINUOUS
 70
0
 71
3
 72
9
 73
5
 74
0
 42
0.0000001
 43
0.0000001
 44
0.0000000001
 40
0.0
 40
0.0
 40
0.0
 40
0.0
 40
0.2632816735
 40
1.0
 40
1.0
 40
1.0
 40
1.0
 10
1454.2924933398
 20
396.593271721
 30
0.0
 10
1454.2823399232
 20
396.5940008103
 30
0.0
 10
1454.2437688618
 20
396.596625885
 30
0.0
 10
1454.2051103302
 20
396.5984105171
 30
0.0
 10
1454.1766257487
 20
396.5984108157
 30
0.0
  0
SPLINE
  5
60C
100
AcDbEntity
  8
RUNDUNGEN
100
AcDbSpline
 62
7
  6
CONTINUOUS
 70
0
 71
3
 72
8
 73
4
 74
0
 42
0.0000001
 43
0.0000001
 44
0.0000000001
 40
0.0
 40
0.0
 40
0.0
 40
0.0
 40
1.0
 40
1.0
 40
1.0
 40
1.0
 10
138.876410634
 20
567.800633547
 30
0.0
 10
138.8756801468
 20
567.7953042258
 30
0.0
 10
138.8753595545
 20
567.7899095095
 30
0.0
 10
138.8753595545
 20
567.7845303576
 30
0.0
  0
SPLINE
  5
60D
100
AcDbEntity
  8
RUNDUNGEN
100
AcDbSpline
 62
7
  6
CONTINUOUS
 70
0
 71
3
 72
10
 73
6
 74
0
 42
0.0000001
 43
0.0000001
 44
0.0000000001
 40
0.0
 40
0.0
 40
0.0
 40
0.0
 40
0.6926515335
 40
0.8906849967
 40
1.0
 40
1.0
 40
1.0
 40
1.0
 10
138.876410634
 20
567.800633547
 30
0.0
 10
138.8787615847
 20
567.8177850737
 30
0.0
 10
138.8814693463
 20
567.8403776757
 30
0.0
 10
138.8803591295
 20
567.8647495372
 30
0.0
 10
138.8777416081
 20
567.8728602709
 30
0.0
 10
138.8755012721
 20
567.874424149
 30
0.0
  0
SPLINE
  5
60E
100
AcDbEntity
  8
RUNDUNGEN
100
AcDbSpline
 62
7
  6
CONTINUOUS
 70
0
 71
3
 72
9
 73
5
 74
0
 42
0.0000001
 43
0.0000001
 44
0.0000000001
 40
0.0
 40
0.0
 40
0.0
 40
0.0
 40
0.2456382456
 40
1.0
 40
1.0
 40
1.0
 40
1.0
 10
565.748774335
 20
574.4400350436
 30
0.0
 10
565.7041366874
 20
574.4907295438
 30
0.0
 10
565.5196078523
 20
574.6946006722
 30
0.0
 10
565.3240173508
 20
574.8886088091
 30
0.0
 10
565.1696992559
 20
575.0272282934
 30
0.0
  0
LINE
  5
60F
100
AcDbEntity
  8
RUNDUNGEN
100
AcDbLine
 62
7
  6
CONTINUOUS
 10
565.33370095
 20
575.1348034609
 11
565.1696992559
 21
575.0272282934
  0
SPLINE
  5
610
100
AcDbEntity
  8
RUNDUNGEN
100
AcDbSpline
 62
7
  6
CONTINUOUS
 70
0
 71
3
 72
14
 73
10
 74
0
 42
0.0000001
 43
0.0000001
 44
0.0000000001
 40
0.0
 40
0.0
 40
0.0
 40
0.0
 40
0.3386776286
 40
0.4927550545
 40
0.6307149099
 40
0.7497021449
 40
0.8487778652
 40
0.9299844953
 40
1.0
 40
1.0
 40
1.0
 40
1.0
 10
565.1696992559
 20
575.0272282934
 30
0.0
 10
564.9500226322
 20
575.1438988867
 30
0.0
 10
564.6173686802
 20
575.2916262049
 30
0.0
 10
564.172448112
 20
575.4224915074
 30
0.0
 10
563.8748969594
 20
575.4772873784
 30
0.0
 10
563.6127301022
 20
575.4904244423
 30
0.0
 10
563.3932255001
 20
575.4612406366
 30
0.0
 10
563.2207420177
 20
575.3886876646
 30
0.0
 10
563.1412231169
 20
575.3047994286
 30
0.0
 10
563.1162933367
 20
575.2598249129
 30
0.0
  0
SPLINE
  5
611
100
AcDbEntity
  8
0
100
AcDbSpline
 62
7
  6
CONTINUOUS
 70
0
 71
3
 72
11
 73
7
 74
0
 42
0.0000001
 43
0.0000001
 44
0.0000000001
 40
0.0
 40
0.0
 40
0.0
 40
0.0
 40
0.2627877586
 40
0.5150114727
 40
0.7590998034
 40
1.0
 40
1.0
 40
1.0
 40
1.0
 10
66.9664436075
 20
549.8730081897
 30
0.0
 10
66.9982326517
 20
550.0737441701
 30
0.0
 10
67.0745917826
 20
550.4652173307
 30
0.0
 10
67.2444069585
 20
551.0285392173
 30
0.0
 10
67.4789293978
 20
551.5502569864
 30
0.0
 10
67.6839958561
 20
551.866471852
 30
0.0
 10
67.7972115477
 20
552.0144366183
 30
0.0
  0
SPLINE
  5
612
100
AcDbEntity
  8
0
100
AcDbSpline
 62
7
  6
CONTINUOUS
 70
0
 71
3
 72
12
 73
8
 74
0
 42
0.0000001
 43
0.0000001
 44
0.0000000001
 40
0.0
 40
0.0
 40
0.0
 40
0.0
 40
0.1095239952
 40
0.2215865182
 40
0.4600252513
 40
0.7221544848
 40
1.0
 40
1.0
 40
1.0
 40
1.0
 10
67.7972115477
 20
552.0144366183
 30
0.0
 10
67.8953614472
 20
552.1427114778
 30
0.0
 10
68.114286152
 20
552.3874236887
 30
0.0
 10
68.6422798542
 20
552.8174362683
 30
0.0
 10
69.4656417429
 20
553.2179879335
 30
0.0
 10
70.5897328734
 20
553.4781190389
 30
0.0
 10
71.3874669898
 20
553.5332622276
 30
0.0
 10
71.7972115477
 20
553.5332622276
 30
0.0
  0
SPLINE
  5
613
100
AcDbEntity
  8
BEZUGSACHSEN
100
AcDbSpline
 62
7
  6
CONTINUOUS
 70
0
 71
3
 72
14
 73
10
 74
0
 42
0.0000001
 43
0.0000001
 44
0.0000000001
 40
0.0
 40
0.0
 40
0.0
 40
0.0
 40
0.3297865859
 40
0.4814577017
 40
0.6190892052
 40
0.7399511358
 40
0.8427118401
 40
0.9280820531
 40
1.0
 40
1.0
 40
1.0
 40
1.0
 10
-40.2752761605
 20
575.0272282934
 30
0.0
 10
-40.0686300366
 20
575.1369783682
 30
0.0
 10
-39.7554066144
 20
575.2774956268
 30
0.0
 10
-39.3353717829
 20
575.4074196123
 30
0.0
 10
-39.0499827505
 20
575.4670191591
 30
0.0
 10
-38.7939789089
 20
575.4900737066
 30
0.0
 10
-38.5740197519
 20
575.47581833
 30
0.0
 10
-38.3948360923
 20
575.4244230256
 30
0.0
 10
-38.3004310583
 20
575.3590933914
 30
0.0
 10
-38.2661030415
 20
575.321341723
 30
0.0
  0
SPLINE
  5
614
100
AcDbEntity
  8
BEZUGSACHSEN
100
AcDbSpline
 62
7
  6
CONTINUOUS
 70
0
 71
3
 72
8
 73
4
 74
0
 42
0.0000001
 43
0.0000001
 44
0.0000000001
 40
0.0
 40
0.0
 40
0.0
 40
0.0
 40
1.0
 40
1.0
 40
1.0
 40
1.0
 10
-38.2661030415
 20
575.321341723
 30
0.0
 10
-38.2491116616
 20
575.3026557342
 30
0.0
 10
-38.234114666
 20
575.2819144406
 30
0.0
 10
-38.2218702413
 20
575.2598249129
 30
0.0
  0
LINE
  5
615
100
AcDbEntity
  8
BEZUGSACHSEN
100
AcDbLine
 62
7
  6
CONTINUOUS
 10
-40.4392778546
 20
575.1348034609
 11
-40.2752761605
 21
575.0272282934
  0
SPLINE
  5
616
100
AcDbEntity
  8
BEZUGSACHSEN
100
AcDbSpline
 62
7
  6
CONTINUOUS
 70
0
 71
3
 72
9
 73
5
 74
0
 42
0.0000001
 43
0.0000001
 44
0.0000000001
 40
0.0
 40
0.0
 40
0.0
 40
0.0
 40
0.2456382456
 40
1.0
 40
1.0
 40
1.0
 40
1.0
 10
-40.8543512395
 20
574.4400350436
 30
0.0
 10
-40.8097135919
 20
574.4907295438
 30
0.0
 10
-40.6251847568
 20
574.6946006722
 30
0.0
 10
-40.4295942554
 20
574.8886088091
 30
0.0
 10
-40.2752761605
 20
575.0272282934
 30
0.0
  0
SPLINE
  5
617
100
AcDbEntity
  8
RUNDUNGEN
100
AcDbSpline
 62
7
  6
CONTINUOUS
 70
0
 71
3
 72
10
 73
6
 74
0
 42
0.0000001
 43
0.0000001
 44
0.0000000001
 40
0.0
 40
0.0
 40
0.0
 40
0.0
 40
0.1093150213
 40
0.3073484902
 40
1.0
 40
1.0
 40
1.0
 40
1.0
 10
138.8755011274
 20
-99.2632305588
 30
0.0
 10
138.8777414633
 20
-99.2616666801
 30
0.0
 10
138.8803589848
 20
-99.2535559466
 30
0.0
 10
138.8814692017
 20
-99.2291840859
 30
0.0
 10
138.8787614396
 20
-99.206591486
 30
0.0
 10
138.8764104887
 20
-99.1894399607
 30
0.0
  0
SPLINE
  5
618
100
AcDbEntity
  8
RUNDUNGEN
100
AcDbSpline
 62
7
  6
CONTINUOUS
 70
0
 71
3
 72
8
 73
4
 74
0
 42
0.0000001
 43
0.0000001
 44
0.0000000001
 40
0.0
 40
0.0
 40
0.0
 40
0.0
 40
1.0
 40
1.0
 40
1.0
 40
1.0
 10
138.8753595545
 20
-99.1733367682
 30
0.0
 10
138.8753595545
 20
-99.178715918
 30
0.0
 10
138.8756800016
 20
-99.1841106417
 30
0.0
 10
138.8764104887
 20
-99.1894399607
 30
0.0
  0
SPLINE
  5
619
100
AcDbEntity
  8
BEZUGSACHSEN
100
AcDbSpline
 62
7
  6
CONTINUOUS
 70
0
 71
3
 72
14
 73
10
 74
0
 42
0.0000001
 43
0.0000001
 44
0.0000000001
 40
0.0
 40
0.0
 40
0.0
 40
0.0
 40
0.3297865859
 40
0.4814577017
 40
0.6190892052
 40
0.7399511358
 40
0.8427118401
 40
0.9280820531
 40
1.0
 40
1.0
 40
1.0
 40
1.0
 10
565.1696992559
 20
-106.416034704
 30
0.0
 10
564.963053132
 20
-106.5257847788
 30
0.0
 10
564.6498297098
 20
-106.6663020375
 30
0.0
 10
564.2297948783
 20
-106.796226023
 30
0.0
 10
563.9444058459
 20
-106.8558255698
 30
0.0
 10
563.6884020043
 20
-106.8788801173
 30
0.0
 10
563.4684428474
 20
-106.8646247407
 30
0.0
 10
563.2892591878
 20
-106.8132294362
 30
0.0
 10
563.1948541537
 20
-106.7478998021
 30
0.0
 10
563.1605261369
 20
-106.7101481337
 30
0.0
  0
SPLINE
  5
61A
100
AcDbEntity
  8
BEZUGSACHSEN
100
AcDbSpline
 62
7
  6
CONTINUOUS
 70
0
 71
3
 72
8
 73
4
 74
0
 42
0.0000001
 43
0.0000001
 44
0.0000000001
 40
0.0
 40
0.0
 40
0.0
 40
0.0
 40
1.0
 40
1.0
 40
1.0
 40
1.0
 10
563.1605261369
 20
-106.7101481337
 30
0.0
 10
563.143534757
 20
-106.6914621448
 30
0.0
 10
563.1285377614
 20
-106.6707208513
 30
0.0
 10
563.1162933367
 20
-106.6486313236
 30
0.0
  0
LINE
  5
61B
100
AcDbEntity
  8
BEZUGSACHSEN
100
AcDbLine
 62
7
  6
CONTINUOUS
 10
565.33370095
 20
-106.5236098716
 11
565.1696992559
 21
-106.416034704
  0
SPLINE
  5
61C
100
AcDbEntity
  8
BEZUGSACHSEN
100
AcDbSpline
 62
7
  6
CONTINUOUS
 70
0
 71
3
 72
9
 73
5
 74
0
 42
0.0000001
 43
0.0000001
 44
0.0000000001
 40
0.0
 40
0.0
 40
0.0
 40
0.0
 40
0.2456382456
 40
1.0
 40
1.0
 40
1.0
 40
1.0
 10
565.748774335
 20
-105.8288414543
 30
0.0
 10
565.7041366874
 20
-105.8795359545
 30
0.0
 10
565.5196078523
 20
-106.0834070829
 30
0.0
 10
565.3240173508
 20
-106.2774152198
 30
0.0
 10
565.1696992559
 20
-106.416034704
 30
0.0
  0
SPLINE
  5
61D
100
AcDbEntity
  8
RUNDUNGEN
100
AcDbSpline
 62
7
  6
CONTINUOUS
 70
0
 71
3
 72
9
 73
5
 74
0
 42
0.0000001
 43
0.0000001
 44
0.0000000001
 40
0.0
 40
0.0
 40
0.0
 40
0.0
 40
0.2456382456
 40
1.0
 40
1.0
 40
1.0
 40
1.0
 10
-40.8543512395
 20
-105.8288414543
 30
0.0
 10
-40.8097135919
 20
-105.8795359545
 30
0.0
 10
-40.6251847568
 20
-106.0834070829
 30
0.0
 10
-40.4295942554
 20
-106.2774152198
 30
0.0
 10
-40.2752761605
 20
-106.416034704
 30
0.0
  0
LINE
  5
61E
100
AcDbEntity
  8
RUNDUNGEN
100
AcDbLine
 62
7
  6
CONTINUOUS
 10
-40.4392778546
 20
-106.5236098716
 11
-40.2752761605
 21
-106.416034704
  0
SPLINE
  5
61F
100
AcDbEntity
  8
RUNDUNGEN
100
AcDbSpline
 62
7
  6
CONTINUOUS
 70
0
 71
3
 72
14
 73
10
 74
0
 42
0.0000001
 43
0.0000001
 44
0.0000000001
 40
0.0
 40
0.0
 40
0.0
 40
0.0
 40
0.3386776286
 40
0.4927550545
 40
0.6307149099
 40
0.7497021449
 40
0.8487778652
 40
0.9299844953
 40
1.0
 40
1.0
 40
1.0
 40
1.0
 10
-40.2752761605
 20
-106.416034704
 30
0.0
 10
-40.0555995367
 20
-106.5327052974
 30
0.0
 10
-39.7229455848
 20
-106.6804326155
 30
0.0
 10
-39.2780250166
 20
-106.811297918
 30
0.0
 10
-38.9804738639
 20
-106.8660937891
 30
0.0
 10
-38.7183070068
 20
-106.879230853
 30
0.0
 10
-38.4988024047
 20
-106.8500470473
 30
0.0
 10
-38.3263189222
 20
-106.7774940753
 30
0.0
 10
-38.2468000214
 20
-106.6936058393
 30
0.0
 10
-38.2218702413
 20
-106.6486313236
 30
0.0
  0
SPLINE
  5
620
100
AcDbEntity
  8
0
100
AcDbSpline
 62
7
  6
CONTINUOUS
 70
0
 71
3
 72
11
 73
7
 74
0
 42
0.0000001
 43
0.0000001
 44
0.0000000001
 40
0.0
 40
0.0
 40
0.0
 40
0.0
 40
0.2627877586
 40
0.5150114727
 40
0.7590998034
 40
1.0
 40
1.0
 40
1.0
 40
1.0
 10
66.9664436075
 20
-71.2618146004
 30
0.0
 10
66.9982326517
 20
-71.0610786201
 30
0.0
 10
67.0745917826
 20
-70.6696054594
 30
0.0
 10
67.2444069585
 20
-70.1062835728
 30
0.0
 10
67.4789293978
 20
-69.5845658038
 30
0.0
 10
67.6839958561
 20
-69.2683509381
 30
0.0
 10
67.7972115477
 20
-69.1203861719
 30
0.0
  0
SPLINE
  5
621
100
AcDbEntity
  8
0
100
AcDbSpline
 62
7
  6
CONTINUOUS
 70
0
 71
3
 72
12
 73
8
 74
0
 42
0.0000001
 43
0.0000001
 44
0.0000000001
 40
0.0
 40
0.0
 40
0.0
 40
0.0
 40
0.1095184725
 40
0.221558877
 40
0.4600035107
 40
0.7221458354
 40
1.0
 40
1.0
 40
1.0
 40
1.0
 10
67.7972115477
 20
-69.1203861719
 30
0.0
 10
67.8953565954
 20
-68.9921176533
 30
0.0
 10
68.114238709
 20
-68.7474221309
 30
0.0
 10
68.6422034746
 20
-68.3174227226
 30
0.0
 10
69.4655554404
 20
-67.9168578291
 30
0.0
 10
70.5896874517
 20
-67.6567142989
 30
0.0
 10
71.3874538279
 20
-67.6015605626
 30
0.0
 10
71.7972115477
 20
-67.6015605626
 30
0.0
  0
ELLIPSE
  5
622
100
AcDbEntity
  8
0
100
AcDbEllipse
 62
7
  6
CONTINUOUS
 10
183.4472115477
 20
-76.2618146004
 30
0.0
 11
-9.1429258779
 21
17.3368655296
 31
0.0
 40
1.0
 41
-0.4850052214
 42
-0.120095118
  0
ELLIPSE
  5
623
100
AcDbEntity
  8
0
100
AcDbEllipse
 62
7
  6
CONTINUOUS
 10
169.4472115477
 20
-76.2618146004
 30
0.0
 11
12.490161644
 21
15.1048290989
 31
0.0
 40
1.0
 41
0.3257214545
 42
0.690631869
  0
ELLIPSE
  5
624
100
AcDbEntity
  8
0
100
AcDbEllipse
 62
7
  6
CONTINUOUS
 10
183.4472115477
 20
-76.2618146004
 30
0.0
 11
18.9296811974
 21
1.6331471963
 31
0.0
 40
1.0
 41
1.4848221417
 42
1.8620450467
  0
ELLIPSE
  5
625
100
AcDbEntity
  8
0
100
AcDbEllipse
 62
7
  6
CONTINUOUS
 10
169.4472115477
 20
-76.2618146004
 30
0.0
 11
5.0408874919
 21
18.3191007774
 31
0.0
 40
1.0
 41
-0.1087847388
 42
0.2684381661
  0
ENDSEC
  0
SECTION
  2
OBJECTS
  0
DICTIONARY
  5
C
100
AcDbDictionary
280
0
281
1
  3
ACAD_GROUP
350
D
  3
ACAD_MLINESTYLE
350
17
  3
ACAD_LAYOUT
350
1A
  3
ACAD_PLOTSETTINGS
350
19
  3
ACAD_PLOTSTYLENAME
350
E
  0
DICTIONARY
  5
D
102
{ACAD_REACTORS
330
C
102
}
100
AcDbDictionary
280
0
281
1
  0
ACDBDICTIONARYWDFLT
  5
E
102
{ACAD_REACTORS
330
C
102
}
100
AcDbDictionary
281
1
  3
Normal
350
F
100
AcDbDictionaryWithDefault
340
F
  0
DICTIONARY
  5
17
102
{ACAD_REACTORS
330
C
102
}
100
AcDbDictionary
280
0
281
1
  3
Standard
350
18
  0
DICTIONARY
  5
19
102
{ACAD_REACTORS
330
C
102
}
100
AcDbDictionary
281
1
  0
DICTIONARY
  5
1A
102
{ACAD_REACTORS
330
C
102
}
100
AcDbDictionary
281
1
  3
Model
350
626
  3
Layout1
350
627
  0
ACDBPLACEHOLDER
  5
F
102
{ACAD_REACTORS
330
E
102
}
  0
MLINESTYLE
  5
18
102
{ACAD_REACTORS
330
17
102
}
100
AcDbMlineStyle
  2
STANDARD
 70
0
  3

 62
256
 51
90.0
 52
90.0
 71
2
 49
0.5
 62
256
  6
BYLAYER
 49
-0.5
 62
256
  6
BYLAYER
  0
LAYOUT
  5
626
102
{ACAD_REACTORS
330
1A
102
}
100
AcDbPlotSettings
  1

  2
none_device
  4
ISO_A3_(420.00_x_297.00_MM)
  6

 40
0.0
 41
0.0
 42
0.0
 43
0.0
 44
420.0
 45
297.0
 46
0.0
 47
0.0
 48
0.0
 49
0.0
140
0.0
141
0.0
142
1.0
143
1.0
 70
1024
 72
1
 73
0
 74
0
  7

 75
0
147
1.0
148
0.0
149
0.0
100
AcDbLayout
  1
Model
 70
0
 71
0
 10
0.0
 20
0.0
 11
420.0
 21
297.0
 12
0.0
 22
0.0
 32
0.0
 14
0.0
 24
0.0
 34
0.0
 15
0.0
 25
0.0
 35
0.0
146
0.0
 13
0.0
 23
0.0
 33
0.0
 16
1.0
 26
0.0
 36
0.0
 17
0.0
 27
1.0
 37
0.0
 76
0
330
20F
345
0
346
0
  0
LAYOUT
  5
627
102
{ACAD_REACTORS
330
1A
102
}
100
AcDbPlotSettings
  1

  2
none_device
  4
ISO_A3_(420.00_x_297.00_MM)
  6

 40
0.0
 41
0.0
 42
0.0
 43
0.0
 44
420.0
 45
297.0
 46
0.0
 47
0.0
 48
0.0
 49
0.0
140
0.0
141
0.0
142
1.0
143
1.0
 70
0
 72
1
 73
0
 74
0
  7

 75
0
147
1.0
148
0.0
149
0.0
100
AcDbLayout
  1
Layout1
 70
0
 71
1
 10
0.0
 20
0.0
 11
420.0
 21
297.0
 12
0.0
 22
0.0
 32
0.0
 14
0.0
 24
0.0
 34
0.0
 15
0.0
 25
0.0
 35
0.0
146
0.0
 13
0.0
 23
0.0
 33
0.0
 16
1.0
 26
0.0
 36
0.0
 17
0.0
 27
1.0
 37
0.0
 76
0
330
210
345
0
346
0
  0
ENDSEC
  0
EOF
