999
DXF file: ICE-CURT-8-GAKO-KPL_7901125_M34257-P-1.dxf
999
Pro/ENGINEER 2010140 by Parametric Technology Corporation
  0
SECTION
  2
HEADER
  9
$ACADVER
  1
AC1015
  9
$DWGCODEPAGE
  3
ANSI_1252
  9
$EXTMAX
 10
594.0
 20
420.0
 30
0.0
  9
$EXTMIN
 10
0.0
 20
0.0
 30
0.0
  9
$LIMMIN
 10
0.0
 20
0.0
  9
$LIMMAX
 10
594.0
 20
420.0
  9
$VIEWCTR
 10
297.0
 20
210.0
  9
$VIEWSIZE
 40
420.0
  9
$CLAYER
  8
0
  9
$LTSCALE
 40
32.67
  9
$CELTYPE
  6
BYLAYER
  9
$DIMSCALE
 40
1.0
  9
$DIMASZ
 40
3.5
  9
$DIMEXO
 40
3.7125
  9
$DIMDLI
 40
22.572
  9
$DIMEXE
 40
10.692
  9
$DIMCEN
 40
5.346
  9
$DIMLFAC
 40
1.0
  9
$DIMBLK
  1
_FILLED
  9
$DIMTXT
 40
3.5
  9
$DIMTOL
 70
1
  9
$DIMLIM
 70
0
  9
$DIMTFAC
 40
1.0
  9
$DIMTP
 40
0.005
  9
$DIMTM
 40
0.005
  9
$PDMODE
 70
3
  9
$PDSIZE
 40
0.3125
  9
$HANDSEED
  5
807
  9
$TILEMODE
 70
1
  9
$MEASUREMENT
 70
1
  9
$INSUNITS
 70
4
  0
ENDSEC
  0
SECTION
  2
CLASSES
  0
CLASS
  1
ACDBDICTIONARYWDFLT
  2
AcDbDictionaryWithDefault
  3
AutoCAD 2000
 90
0
280
0
281
0
  0
CLASS
  1
ACDBPLACEHOLDER
  2
AcDbPlaceHolder
  3
AutoCAD 2000
 90
0
280
0
281
0
  0
CLASS
  1
LAYOUT
  2
AcDbLayout
  3
AutoCAD 2000
 90
0
280
0
281
0
  0
ENDSEC
  0
SECTION
  2
TABLES
  0
TABLE
  2
VPORT
  5
8
100
AcDbSymbolTable
 70
2
  0
VPORT
  5
1F4
100
AcDbSymbolTableRecord
100
AcDbViewportTableRecord
  2
*ACTIVE
 70
0
 10
0.0
 20
0.0
 11
1.0
 21
1.0
 12
297.0
 22
210.0
 13
0.0
 23
0.0
 14
1.0
 24
1.0
 15
0.0
 25
0.0
 16
0.0
 26
0.0
 36
1.0
 17
0.0
 27
0.0
 37
0.0
 40
420.0
 41
1.4142857143
 42
50.0
 43
0.0
 44
0.0
 50
0.0
 51
0.0
 71
0
 72
100
 73
1
 74
1
 75
0
 76
0
 77
0
 78
0
  0
ENDTAB
  0
TABLE
  2
LTYPE
  5
5
100
AcDbSymbolTable
 70
6
  0
LTYPE
  5
14
100
AcDbSymbolTableRecord
100
AcDbLinetypeTableRecord
  2
BYBLOCK
 70
0
  3

 72
65
 73
0
 40
0.0
  0
LTYPE
  5
15
100
AcDbSymbolTableRecord
100
AcDbLinetypeTableRecord
  2
BYLAYER
 70
0
  3

 72
65
 73
0
 40
0.0
  0
LTYPE
  5
16
100
AcDbSymbolTableRecord
100
AcDbLinetypeTableRecord
  2
CONTINUOUS
 70
64
  3
Solid line
 72
65
 73
0
 40
0.0
  0
LTYPE
  5
1F5
100
AcDbSymbolTableRecord
100
AcDbLinetypeTableRecord
  2
CENTER
 70
64
  3
____ _ ____ _ ____ _ ____ _ ____ _ ____ _ ____
 72
65
 73
4
 40
0.6
 49
0.375
 74
0
 49
-0.075
 74
0
 49
0.075
 74
0
 49
-0.075
 74
0
  0
LTYPE
  5
1F6
100
AcDbSymbolTableRecord
100
AcDbLinetypeTableRecord
  2
HIDDEN
 70
64
  3
- - - - - - - - - - - - - - - - - - - -
 72
65
 73
2
 40
0.2
 49
0.1
 74
0
 49
-0.1
 74
0
  0
LTYPE
  5
1F7
100
AcDbSymbolTableRecord
100
AcDbLinetypeTableRecord
  2
PHANTOM
 70
64
  3
_____ _ _ _____ _ _ _____ _ _ _____
 72
65
 73
6
 40
0.8
 49
0.45
 74
0
 49
-0.05
 74
0
 49
0.1
 74
0
 49
-0.05
 74
0
 49
0.1
 74
0
 49
-0.05
 74
0
  0
LTYPE
  5
1F8
100
AcDbSymbolTableRecord
100
AcDbLinetypeTableRecord
  2
DOT
 70
64
  3
. . . . . . . . . . . . . . . . . . . .
 72
65
 73
2
 40
0.2
 49
0.1
 74
0
 49
-0.1
 74
0
  0
LTYPE
  5
1F9
100
AcDbSymbolTableRecord
100
AcDbLinetypeTableRecord
  2
DASHED
 70
64
  3
- - - - - - - - - - - - - - - - - - - -
 72
65
 73
2
 40
0.2
 49
0.1
 74
0
 49
-0.1
 74
0
  0
ENDTAB
  0
TABLE
  2
LAYER
  5
2
100
AcDbSymbolTable
 70
36
  0
LAYER
  5
10
100
AcDbSymbolTableRecord
100
AcDbLayerTableRecord
  2
0
 70
0
 62
7
  6
CONTINUOUS
370
-3
390
F
  0
LAYER
  5
1FA
100
AcDbSymbolTableRecord
100
AcDbLayerTableRecord
  2
DEFAULT_1
 70
0
 62
7
  6
CENTER
370
-3
390
F
  0
LAYER
  5
1FB
100
AcDbSymbolTableRecord
100
AcDbLayerTableRecord
  2
DEFAULT_2
 70
0
 62
8
  6
HIDDEN
370
-3
390
F
  0
LAYER
  5
1FC
100
AcDbSymbolTableRecord
100
AcDbLayerTableRecord
  2
DEFAULT_3
 70
0
 62
7
  6
PHANTOM
370
-3
390
F
  0
LAYER
  5
1FD
100
AcDbSymbolTableRecord
100
AcDbLayerTableRecord
  2
AUSFORMSCHRAEGEN
 70
0
 62
7
  6
CONTINUOUS
370
-3
390
F
  0
LAYER
  5
1FE
100
AcDbSymbolTableRecord
100
AcDbLayerTableRecord
  2
BEZUGSACHSEN
 70
0
 62
7
  6
CONTINUOUS
370
-3
390
F
  0
LAYER
  5
1FF
100
AcDbSymbolTableRecord
100
AcDbLayerTableRecord
  2
BEZUGSEBENEN
 70
0
 62
7
  6
CONTINUOUS
370
-3
390
F
  0
LAYER
  5
200
100
AcDbSymbolTableRecord
100
AcDbLayerTableRecord
  2
BG_STARTBEZUEGE
 70
0
 62
7
  6
CONTINUOUS
370
-3
390
F
  0
LAYER
  5
201
100
AcDbSymbolTableRecord
100
AcDbLayerTableRecord
  2
FASEN
 70
0
 62
7
  6
CONTINUOUS
370
-3
390
F
  0
LAYER
  5
202
100
AcDbSymbolTableRecord
100
AcDbLayerTableRecord
  2
FLAECHEN
 70
0
 62
7
  6
CONTINUOUS
370
-3
390
F
  0
LAYER
  5
203
100
AcDbSymbolTableRecord
100
AcDbLayerTableRecord
  2
FLAECHENVERBUND
 70
0
 62
7
  6
CONTINUOUS
370
-3
390
F
  0
LAYER
  5
204
100
AcDbSymbolTableRecord
100
AcDbLayerTableRecord
  2
HILFEN
 70
0
 62
7
  6
CONTINUOUS
370
-3
390
F
  0
LAYER
  5
205
100
AcDbSymbolTableRecord
100
AcDbLayerTableRecord
  2
KONSTRUKTIONSELEMENTE
 70
0
 62
7
  6
CONTINUOUS
370
-3
390
F
  0
LAYER
  5
206
100
AcDbSymbolTableRecord
100
AcDbLayerTableRecord
  2
KURVEN
 70
0
 62
7
  6
CONTINUOUS
370
-3
390
F
  0
LAYER
  5
207
100
AcDbSymbolTableRecord
100
AcDbLayerTableRecord
  2
NORM
 70
0
 62
7
  6
CONTINUOUS
370
-3
390
F
  0
LAYER
  5
208
100
AcDbSymbolTableRecord
100
AcDbLayerTableRecord
  2
PLATZIERUNG
 70
0
 62
7
  6
CONTINUOUS
370
-3
390
F
  0
LAYER
  5
209
100
AcDbSymbolTableRecord
100
AcDbLayerTableRecord
  2
RUNDUNGEN
 70
0
 62
7
  6
CONTINUOUS
370
-3
390
F
  0
LAYER
  5
20A
100
AcDbSymbolTableRecord
100
AcDbLayerTableRecord
  2
TEIL_STARTBEZUEGE
 70
0
 62
7
  6
CONTINUOUS
370
-3
390
F
  0
LAYER
  5
20B
100
AcDbSymbolTableRecord
100
AcDbLayerTableRecord
  2
ZEICHNUNGSBEMASSUNGEN
 70
0
 62
7
  6
CONTINUOUS
370
-3
390
F
  0
ENDTAB
  0
TABLE
  2
STYLE
  5
3
100
AcDbSymbolTable
 70
1
  0
STYLE
  5
11
100
AcDbSymbolTableRecord
100
AcDbTextStyleTableRecord
  2
STANDARD
 70
0
 40
0.0
 41
0.7
 50
0.0
 71
0
 42
0.2
  3
txt
  4

  0
STYLE
  5
20C
100
AcDbSymbolTableRecord
100
AcDbTextStyleTableRecord
  2
TEXTSTYLE_1
 70
0
 40
0.0
 41
0.8
 50
0.0
 71
0
 42
0.2
  3
gdt
  4

  0
ENDTAB
  0
TABLE
  2
VIEW
  5
6
100
AcDbSymbolTable
 70
0
  0
ENDTAB
  0
TABLE
  2
UCS
  5
7
100
AcDbSymbolTable
 70
0
  0
ENDTAB
  0
TABLE
  2
APPID
  5
9
100
AcDbSymbolTable
 70
1
  0
APPID
  5
20D
100
AcDbSymbolTableRecord
100
AcDbRegAppTableRecord
  2
ACAD
 70
0
  0
ENDTAB
  0
TABLE
  2
BLOCK_RECORD
  5
1
100
AcDbSymbolTable
 70
0
  0
BLOCK_RECORD
  5
20E
100
AcDbSymbolTableRecord
100
AcDbBlockTableRecord
  2
*Model_Space
  0
BLOCK_RECORD
  5
20F
100
AcDbSymbolTableRecord
100
AcDbBlockTableRecord
  2
*Paper_Space
  0
ENDTAB
  0
TABLE
  2
DIMSTYLE
  5
A
100
AcDbSymbolTable
 70
1
100
AcDbDimStyleTable
 71
0
  0
DIMSTYLE
105
210
100
AcDbSymbolTableRecord
100
AcDbDimStyleTableRecord
  2
STANDARD
 70
0
  3

  4

 40
1.0
 41
3.5
 42
0.0625
 43
0.38
 44
0.18
 45
0.0
 46
0.0
 47
0.005
 48
0.005
140
3.5
141
0.09
142
0.0
143
25.4
144
1.0
145
0.0
146
1.0
147
0.09
 71
1.0
 72
0.0
 73
0
 74
0
 75
0
 76
0
 77
1
 78
8
170
0
171
2
172
0
173
0
174
0
175
0
176
0
177
0
178
5
270
2
271
3
272
3
273
2
274
2
275
0
280
0
281
0
282
0
283
1
284
8
285
0
286
0
287
3
288
0
340
11
  0
ENDTAB
  0
ENDSEC
  0
SECTION
  2
BLOCKS
  0
BLOCK
  5
20
100
AcDbEntity
  8
0
100
AcDbBlockBegin
  2
*Model_Space
 70
0
 10
0.0
 20
0.0
 30
0.0
  3
*Model_Space
  1

  0
ENDBLK
  5
21
100
AcDbEntity
  8
0
100
AcDbBlockEnd
  0
BLOCK
  5
1C
100
AcDbEntity
  8
0
100
AcDbBlockBegin
  2
*Paper_Space
 70
0
 10
0.0
 20
0.0
 30
0.0
  3
*Paper_Space
  1

  0
ENDBLK
  5
1D
100
AcDbEntity
  8
0
100
AcDbBlockEnd
  0
ENDSEC
  0
SECTION
  2
ENTITIES
  0
MTEXT
  5
211
100
AcDbEntity
  8
0
100
AcDbMText
 62
5
  6
CONTINUOUS
  7
STANDARD
 71
1
 72
1
 10
256.3005177717
 20
113.4611865677
 30
0.0
 11
0.0
 21
1.0
 31
0.0
 44
0.9
  1
ICE-CURT 8 RUD
 40
8.0
 41
89.5238095238
  0
MTEXT
  5
212
100
AcDbEntity
  8
0
100
AcDbMText
 62
5
  6
CONTINUOUS
  7
STANDARD
 71
1
 72
1
 10
283.6327000775
 20
506.7697326288
 30
0.0
 11
1.0
 21
0.0
 31
0.0
 44
0.9
  1
ICE-CURT 8 RUD
 40
8.0
 41
89.5238095238
  0
MTEXT
  5
213
100
AcDbEntity
  8
0
100
AcDbMText
 62
5
  6
CONTINUOUS
  7
STANDARD
 71
1
 72
1
 10
687.0730786569
 20
116.9405121448
 30
0.0
 11
0.0
 21
1.0
 31
0.0
 44
0.9
  1
ICE-CURT 8 RUD
 40
8.0
 41
89.5238095238
  0
MTEXT
  5
214
100
AcDbEntity
  8
0
100
AcDbMText
 62
5
  6
CONTINUOUS
  7
STANDARD
 71
1
 72
1
 10
1018.6844712199
 20
103.4175048199
 30
0.0
 11
0.0
 21
1.0
 31
0.0
 44
0.9
  1
ICE-CURT 8 RUD
 40
8.0
 41
89.5238095238
  0
MTEXT
  5
215
100
AcDbEntity
  8
0
100
AcDbMText
 62
5
  6
CONTINUOUS
  7
STANDARD
 71
1
 72
1
 10
283.7451100314
 20
-102.2853906269
 30
0.0
 11
1.0
 21
0.0
 31
0.0
 44
0.9
  1
ICE-CURT 8 RUD
 40
8.0
 41
89.5238095238
  0
LINE
  5
216
100
AcDbEntity
  8
0
100
AcDbLine
 62
7
  6
CONTINUOUS
 10
0.0
 20
0.0
 11
0.0
 21
420.0
  0
LINE
  5
217
100
AcDbEntity
  8
0
100
AcDbLine
 62
7
  6
CONTINUOUS
 10
0.0
 20
0.0
 11
594.0
 21
0.0
  0
LINE
  5
218
100
AcDbEntity
  8
0
100
AcDbLine
 62
7
  6
CONTINUOUS
 10
0.0
 20
420.0
 11
594.0
 21
420.0
  0
LINE
  5
219
100
AcDbEntity
  8
0
100
AcDbLine
 62
7
  6
CONTINUOUS
 10
594.0
 20
0.0
 11
594.0
 21
420.0
  0
LINE
  5
21A
100
AcDbEntity
  8
0
100
AcDbLine
 62
7
  6
CONTINUOUS
 10
20.8439825571
 20
356.3088690921
 11
23.7100079609
 21
361.2729707073
  0
LINE
  5
21B
100
AcDbEntity
  8
0
100
AcDbLine
 62
7
  6
CONTINUOUS
 10
20.5760333647
 20
355.3088690921
 11
20.5760333647
 21
352.7701294312
  0
LINE
  5
21C
100
AcDbEntity
  8
BEZUGSACHSEN
100
AcDbLine
 62
7
  6
CONTINUOUS
 10
20.5760333647
 20
330.7758119833
 11
20.5760333647
 21
328.2370723224
  0
LINE
  5
21D
100
AcDbEntity
  8
0
100
AcDbLine
 62
7
  6
CONTINUOUS
 10
46.7218669166
 20
326.9750983129
 11
46.6177000512
 21
326.5495664488
  0
LINE
  5
21E
100
AcDbEntity
  8
0
100
AcDbLine
 62
7
  6
CONTINUOUS
 10
42.0343666185
 20
328.7836088847
 11
41.9302000512
 21
328.4644599865
  0
LINE
  5
21F
100
AcDbEntity
  8
0
100
AcDbLine
 62
7
  6
CONTINUOUS
 10
42.5552000512
 20
328.3580770205
 11
42.6593666185
 21
328.6772259186
  0
LINE
  5
220
100
AcDbEntity
  8
0
100
AcDbLine
 62
7
  6
CONTINUOUS
 10
47.0343669166
 20
326.0176515441
 11
47.2427000512
 21
326.4431834827
  0
LINE
  5
221
100
AcDbEntity
  8
0
100
AcDbLine
 62
7
  6
CONTINUOUS
 10
52.0343663205
 20
326.0176515441
 11
52.2427000512
 21
326.4431834827
  0
LINE
  5
222
100
AcDbEntity
  8
0
100
AcDbLine
 62
7
  6
CONTINUOUS
 10
46.6177000512
 20
326.5495664488
 11
46.4093669166
 21
326.2304175507
  0
LINE
  5
223
100
AcDbEntity
  8
0
100
AcDbLine
 62
7
  6
CONTINUOUS
 10
51.6177000512
 20
326.5495664488
 11
51.4093663205
 21
326.2304175507
  0
LINE
  5
224
100
AcDbEntity
  8
0
100
AcDbLine
 62
7
  6
CONTINUOUS
 10
42.2427000512
 20
327.9325451563
 11
42.5552000512
 21
328.3580770205
  0
LINE
  5
225
100
AcDbEntity
  8
0
100
AcDbLine
 62
7
  6
CONTINUOUS
 10
41.9302000512
 20
328.4644599865
 11
41.7218666185
 21
328.2516940545
  0
LINE
  5
226
100
AcDbEntity
  8
0
100
AcDbLine
 62
7
  6
CONTINUOUS
 10
46.6177000512
 20
325.5921196426
 11
47.0343669166
 21
326.0176515441
  0
LINE
  5
227
100
AcDbEntity
  8
0
100
AcDbLine
 62
7
  6
CONTINUOUS
 10
51.6177000512
 20
325.5921196426
 11
52.0343663205
 21
326.0176515441
  0
LINE
  5
228
100
AcDbEntity
  8
BEZUGSACHSEN
100
AcDbLine
 62
7
  6
CONTINUOUS
 10
27.0760333647
 20
346.8229707073
 11
27.0760333647
 21
336.7229707073
  0
LINE
  5
229
100
AcDbEntity
  8
BEZUGSACHSEN
100
AcDbLine
 62
7
  6
CONTINUOUS
 10
38.0760333647
 20
346.8229707073
 11
38.0760333647
 21
336.7229707073
  0
LINE
  5
22A
100
AcDbEntity
  8
0
100
AcDbLine
 62
7
  6
CONTINUOUS
 10
38.8052000512
 20
330.2729707073
 11
38.8052000512
 21
325.2729707073
  0
LINE
  5
22B
100
AcDbEntity
  8
0
100
AcDbLine
 62
7
  6
CONTINUOUS
 10
39.4302000512
 20
325.2729707073
 11
39.4302000512
 21
327.5070132922
  0
LINE
  5
22C
100
AcDbEntity
  8
0
100
AcDbLine
 62
7
  6
CONTINUOUS
 10
39.4302000512
 20
328.1453110884
 11
39.4302000512
 21
329.7410558771
  0
LINE
  5
22D
100
AcDbEntity
  8
0
100
AcDbLine
 62
7
  6
CONTINUOUS
 10
42.0343666185
 20
329.1027580808
 11
42.0343666185
 21
328.7836088847
  0
LINE
  5
22E
100
AcDbEntity
  8
0
100
AcDbLine
 62
7
  6
CONTINUOUS
 10
42.6593666185
 20
328.6772259186
 11
42.6593666185
 21
329.1027580808
  0
LINE
  5
22F
100
AcDbEntity
  8
0
100
AcDbLine
 62
7
  6
CONTINUOUS
 10
43.5968666185
 20
330.2729707073
 11
43.5968666185
 21
326.9750983129
  0
LINE
  5
230
100
AcDbEntity
  8
0
100
AcDbLine
 62
7
  6
CONTINUOUS
 10
44.2218669166
 20
326.9750983129
 11
44.2218669166
 21
330.2729707073
  0
LINE
  5
231
100
AcDbEntity
  8
0
100
AcDbLine
 62
7
  6
CONTINUOUS
 10
47.2427000512
 20
326.4431834827
 11
47.3468669166
 21
326.9750983129
  0
LINE
  5
232
100
AcDbEntity
  8
0
100
AcDbLine
 62
7
  6
CONTINUOUS
 10
52.2427000512
 20
326.4431834827
 11
52.3468663205
 21
326.9750983129
  0
LINE
  5
233
100
AcDbEntity
  8
0
100
AcDbLine
 62
7
  6
CONTINUOUS
 10
51.7218663205
 20
326.9750983129
 11
51.6177000512
 21
326.5495664488
  0
LINE
  5
234
100
AcDbEntity
  8
0
100
AcDbLine
 62
7
  6
CONTINUOUS
 10
46.4093669166
 20
326.2304175507
 11
46.0968669166
 21
326.0176515441
  0
LINE
  5
235
100
AcDbEntity
  8
0
100
AcDbLine
 62
7
  6
CONTINUOUS
 10
51.4093663205
 20
326.2304175507
 11
51.0968663205
 21
326.0176515441
  0
LINE
  5
236
100
AcDbEntity
  8
0
100
AcDbLine
 62
7
  6
CONTINUOUS
 10
41.8260334839
 20
327.7197792242
 11
42.2427000512
 21
327.9325451563
  0
LINE
  5
237
100
AcDbEntity
  8
0
100
AcDbLine
 62
7
  6
CONTINUOUS
 10
46.7218669166
 20
330.2729707073
 11
46.7218669166
 21
326.9750983129
  0
LINE
  5
238
100
AcDbEntity
  8
0
100
AcDbLine
 62
7
  6
CONTINUOUS
 10
47.3468669166
 20
326.9750983129
 11
47.3468669166
 21
330.2729707073
  0
LINE
  5
239
100
AcDbEntity
  8
0
100
AcDbLine
 62
7
  6
CONTINUOUS
 10
48.1802000512
 20
330.2729707073
 11
48.1802000512
 21
325.2729707073
  0
LINE
  5
23A
100
AcDbEntity
  8
0
100
AcDbLine
 62
7
  6
CONTINUOUS
 10
48.8052000512
 20
325.911268578
 11
48.8052000512
 21
329.634672911
  0
LINE
  5
23B
100
AcDbEntity
  8
0
100
AcDbLine
 62
7
  6
CONTINUOUS
 10
51.7218663205
 20
328.5708429526
 11
51.7218663205
 21
326.9750983129
  0
LINE
  5
23C
100
AcDbEntity
  8
0
100
AcDbLine
 62
7
  6
CONTINUOUS
 10
52.3468663205
 20
326.9750983129
 11
52.3468663205
 21
328.5708429526
  0
LINE
  5
23D
100
AcDbEntity
  8
RUNDUNGEN
100
AcDbLine
 62
7
  6
CONTINUOUS
 10
60.5760333647
 20
360.7729707073
 11
60.5760333647
 21
346.5677189101
  0
LINE
  5
23E
100
AcDbEntity
  8
RUNDUNGEN
100
AcDbLine
 62
7
  6
CONTINUOUS
 10
60.5760333647
 20
336.9782169962
 11
60.5760333647
 21
322.7729707073
  0
LINE
  5
23F
100
AcDbEntity
  8
0
100
AcDbLine
 62
7
  6
CONTINUOUS
 10
46.2010331859
 20
325.3793536826
 11
46.6177000512
 21
325.5921196426
  0
LINE
  5
240
100
AcDbEntity
  8
0
100
AcDbLine
 62
7
  6
CONTINUOUS
 10
51.2010337819
 20
325.3793536826
 11
51.6177000512
 21
325.5921196426
  0
LINE
  5
241
100
AcDbEntity
  8
0
100
AcDbLine
 62
7
  6
CONTINUOUS
 10
41.7218666185
 20
328.2516940545
 11
41.4093666185
 21
328.1453110884
  0
LINE
  5
242
100
AcDbEntity
  8
0
100
AcDbLine
 62
7
  6
CONTINUOUS
 10
44.3260331859
 20
326.5495664488
 11
44.2218669166
 21
326.9750983129
  0
LINE
  5
243
100
AcDbEntity
  8
0
100
AcDbLine
 62
7
  6
CONTINUOUS
 10
43.5968666185
 20
326.9750983129
 11
43.7010334839
 21
326.4431834827
  0
LINE
  5
244
100
AcDbEntity
  8
0
100
AcDbLine
 62
7
  6
CONTINUOUS
 10
52.3468663205
 20
328.5708429526
 11
52.2427000512
 21
329.1027580808
  0
LINE
  5
245
100
AcDbEntity
  8
RUNDUNGEN
100
AcDbLine
 62
7
  6
CONTINUOUS
 10
96.0760333647
 20
365.7729706545
 11
96.0760333647
 21
317.77297076
  0
LINE
  5
246
100
AcDbEntity
  8
RUNDUNGEN
100
AcDbLine
 62
7
  6
CONTINUOUS
 10
103.0760333647
 20
316.2729707073
 11
103.0760333647
 21
367.2729707073
  0
LINE
  5
247
100
AcDbEntity
  8
0
100
AcDbLine
 62
7
  6
CONTINUOUS
 10
137.0041813714
 20
317.7729707073
 11
142.8535331678
 21
321.8687309287
  0
LINE
  5
248
100
AcDbEntity
  8
0
100
AcDbLine
 62
7
  6
CONTINUOUS
 10
236.412464851
 20
360.8935854657
 11
237.1234309103
 21
361.1523559488
  0
LINE
  5
249
100
AcDbEntity
  8
BEZUGSACHSEN
100
AcDbLine
 62
7
  6
CONTINUOUS
 10
259.5760333647
 20
21.7729707073
 11
261.5760333647
 21
21.7729707073
  0
LINE
  5
24A
100
AcDbEntity
  8
0
100
AcDbLine
 62
7
  6
CONTINUOUS
 10
42.7635334839
 20
325.2729707073
 11
41.8260334839
 21
327.7197792242
  0
LINE
  5
24B
100
AcDbEntity
  8
0
100
AcDbLine
 62
7
  6
CONTINUOUS
 10
41.2010333349
 20
327.5070132922
 11
42.0343666185
 21
325.2729707073
  0
LINE
  5
24C
100
AcDbEntity
  8
0
100
AcDbLine
 62
7
  6
CONTINUOUS
 10
41.9302000512
 20
329.4219069789
 11
42.0343666185
 21
329.1027580808
  0
LINE
  5
24D
100
AcDbEntity
  8
0
100
AcDbLine
 62
7
  6
CONTINUOUS
 10
42.6593666185
 20
329.1027580808
 11
42.5552000512
 21
329.4219069789
  0
LINE
  5
24E
100
AcDbEntity
  8
0
100
AcDbLine
 62
7
  6
CONTINUOUS
 10
51.6177000512
 20
328.9963748167
 11
51.7218663205
 21
328.5708429526
  0
LINE
  5
24F
100
AcDbEntity
  8
RUNDUNGEN
100
AcDbLine
 62
7
  6
CONTINUOUS
 10
123.0760333647
 20
364.7729707073
 11
123.0760333647
 21
318.7729707073
  0
LINE
  5
250
100
AcDbEntity
  8
0
100
AcDbLine
 62
7
  6
CONTINUOUS
 10
192.5760333647
 20
333.7729707073
 11
190.5760333647
 21
331.7729707073
  0
LINE
  5
251
100
AcDbEntity
  8
0
100
AcDbLine
 62
7
  6
CONTINUOUS
 10
203.5760333647
 20
334.7729707073
 11
203.0760333647
 21
334.2729707073
  0
LINE
  5
252
100
AcDbEntity
  8
BEZUGSACHSEN
100
AcDbLine
 62
7
  6
CONTINUOUS
 10
23.7100079609
 20
322.2729707073
 11
20.8439825571
 21
327.2370723224
  0
LINE
  5
253
100
AcDbEntity
  8
0
100
AcDbLine
 62
7
  6
CONTINUOUS
 10
43.7010334839
 20
326.4431834827
 11
43.9093669166
 21
326.0176515441
  0
LINE
  5
254
100
AcDbEntity
  8
RUNDUNGEN
100
AcDbLine
 62
7
  6
CONTINUOUS
 10
127.5760333647
 20
334.6271920966
 11
127.5760333647
 21
348.918749318
  0
LINE
  5
255
100
AcDbEntity
  8
RUNDUNGEN
100
AcDbLine
 62
7
  6
CONTINUOUS
 10
137.0041813714
 20
365.7729707073
 11
137.0041813714
 21
348.918749318
  0
LINE
  5
256
100
AcDbEntity
  8
RUNDUNGEN
100
AcDbLine
 62
7
  6
CONTINUOUS
 10
137.0041813714
 20
334.6271920966
 11
137.0041813714
 21
317.7729707073
  0
LINE
  5
257
100
AcDbEntity
  8
0
100
AcDbLine
 62
7
  6
CONTINUOUS
 10
52.2427000512
 20
329.1027580808
 11
52.0343663205
 21
329.528289945
  0
LINE
  5
258
100
AcDbEntity
  8
RUNDUNGEN
100
AcDbLine
 62
7
  6
CONTINUOUS
 10
149.5760333647
 20
346.7731960903
 11
149.5760333647
 21
336.7729166224
  0
LINE
  5
259
100
AcDbEntity
  8
0
100
AcDbLine
 62
7
  6
CONTINUOUS
 10
284.0286358191
 20
322.3935854657
 11
284.7396018784
 21
322.6523559488
  0
LINE
  5
25A
100
AcDbEntity
  8
0
100
AcDbLine
 62
7
  6
CONTINUOUS
 10
42.5552000512
 20
329.4219069789
 11
42.2427000512
 21
329.8474388431
  0
LINE
  5
25B
100
AcDbEntity
  8
0
100
AcDbLine
 62
7
  6
CONTINUOUS
 10
44.5343669166
 20
326.2304175507
 11
44.3260331859
 21
326.5495664488
  0
LINE
  5
25C
100
AcDbEntity
  8
0
100
AcDbLine
 62
7
  6
CONTINUOUS
 10
51.4093663205
 20
329.3155240129
 11
51.6177000512
 21
328.9963748167
  0
LINE
  5
25D
100
AcDbEntity
  8
0
100
AcDbLine
 62
7
  6
CONTINUOUS
 10
479.4302001108
 20
355.2942473601
 11
479.7427001108
 21
355.4006303261
  0
LINE
  5
25E
100
AcDbEntity
  8
0
100
AcDbLine
 62
7
  6
CONTINUOUS
 10
190.5760333647
 20
331.7729707073
 11
190.5760333647
 21
333.1127166694
  0
LINE
  5
25F
100
AcDbEntity
  8
0
100
AcDbLine
 62
7
  6
CONTINUOUS
 10
190.5760333647
 20
336.7729707073
 11
190.5760333647
 21
351.7729707073
  0
LINE
  5
260
100
AcDbEntity
  8
0
100
AcDbLine
 62
7
  6
CONTINUOUS
 10
192.5760333647
 20
349.7727043368
 11
192.5760333647
 21
336.7729707073
  0
LINE
  5
261
100
AcDbEntity
  8
0
100
AcDbLine
 62
7
  6
CONTINUOUS
 10
192.5760333647
 20
333.7732327341
 11
192.5760333647
 21
336.1828007635
  0
LINE
  5
262
100
AcDbEntity
  8
0
100
AcDbLine
 62
7
  6
CONTINUOUS
 10
203.0760333647
 20
334.2729707073
 11
203.0760333647
 21
336.1828007635
  0
LINE
  5
263
100
AcDbEntity
  8
0
100
AcDbLine
 62
7
  6
CONTINUOUS
 10
203.0760333647
 20
336.7729707073
 11
203.0760333647
 21
349.2729707073
  0
LINE
  5
264
100
AcDbEntity
  8
0
100
AcDbLine
 62
7
  6
CONTINUOUS
 10
203.5760333647
 20
334.7729707073
 11
203.5760333647
 21
348.7729707073
  0
LINE
  5
265
100
AcDbEntity
  8
0
100
AcDbLine
 62
7
  6
CONTINUOUS
 10
329.5760333647
 20
348.7729707073
 11
330.0760333647
 21
349.2729707073
  0
LINE
  5
266
100
AcDbEntity
  8
0
100
AcDbLine
 62
7
  6
CONTINUOUS
 10
43.9093669166
 20
326.0176515441
 11
44.3260331859
 21
325.5921196426
  0
LINE
  5
267
100
AcDbEntity
  8
0
100
AcDbLine
 62
7
  6
CONTINUOUS
 10
41.7218666185
 20
329.634672911
 11
41.9302000512
 21
329.4219069789
  0
LINE
  5
268
100
AcDbEntity
  8
0
100
AcDbLine
 62
7
  6
CONTINUOUS
 10
340.5760333647
 20
349.7729707073
 11
342.5760333647
 21
351.7729707073
  0
LINE
  5
269
100
AcDbEntity
  8
0
100
AcDbLine
 62
7
  6
CONTINUOUS
 10
469.9510329474
 20
358.1665877319
 11
469.5343666781
 21
357.9538217719
  0
LINE
  5
26A
100
AcDbEntity
  8
0
100
AcDbLine
 62
7
  6
CONTINUOUS
 10
474.9510335435
 20
358.1665877319
 11
474.5343666781
 21
357.9538217719
  0
LINE
  5
26B
100
AcDbEntity
  8
0
100
AcDbLine
 62
7
  6
CONTINUOUS
 10
479.3260332455
 20
355.8261621903
 11
478.9093666781
 21
355.6133962582
  0
LINE
  5
26C
100
AcDbEntity
  8
0
100
AcDbLine
 62
7
  6
CONTINUOUS
 10
52.0343663205
 20
329.528289945
 11
51.6177000512
 21
329.9538218091
  0
LINE
  5
26D
100
AcDbEntity
  8
BEZUGSACHSEN
100
AcDbLine
 62
7
  6
CONTINUOUS
 10
242.5760333647
 20
278.362051769
 11
242.5760333647
 21
367.7728916381
  0
LINE
  5
26E
100
AcDbEntity
  8
0
100
AcDbLine
 62
7
  6
CONTINUOUS
 10
42.2427000512
 20
329.8474388431
 11
41.8260334839
 21
330.1665877412
  0
LINE
  5
26F
100
AcDbEntity
  8
BEZUGSACHSEN
100
AcDbLine
 62
7
  6
CONTINUOUS
 10
251.5760333647
 20
29.7729707073
 11
251.5760333647
 21
244.6838896455
  0
LINE
  5
270
100
AcDbEntity
  8
0
100
AcDbLine
 62
7
  6
CONTINUOUS
 10
253.5760333647
 20
313.7729707073
 11
253.5760333647
 21
372.7729707073
  0
LINE
  5
271
100
AcDbEntity
  8
RUNDUNGEN
100
AcDbLine
 62
7
  6
CONTINUOUS
 10
270.0231682517
 20
247.788247435
 11
278.1262956652
 21
275.2488596147
  0
LINE
  5
272
100
AcDbEntity
  8
0
100
AcDbLine
 62
7
  6
CONTINUOUS
 10
469.7427004088
 20
357.3155238639
 11
470.0552004088
 21
357.5282898705
  0
LINE
  5
273
100
AcDbEntity
  8
0
100
AcDbLine
 62
7
  6
CONTINUOUS
 10
474.7426998128
 20
357.3155238639
 11
475.0551998128
 21
357.5282898705
  0
LINE
  5
274
100
AcDbEntity
  8
0
100
AcDbLine
 62
7
  6
CONTINUOUS
 10
44.8468669166
 20
326.0176515441
 11
44.5343669166
 21
326.2304175507
  0
LINE
  5
275
100
AcDbEntity
  8
0
100
AcDbLine
 62
7
  6
CONTINUOUS
 10
51.0968663205
 20
329.528289945
 11
51.4093663205
 21
329.3155240129
  0
LINE
  5
276
100
AcDbEntity
  8
0
100
AcDbLine
 62
7
  6
CONTINUOUS
 10
267.5760333647
 20
372.7729707073
 11
267.5760333647
 21
313.7729707073
  0
LINE
  5
277
100
AcDbEntity
  8
RUNDUNGEN
100
AcDbLine
 62
7
  6
CONTINUOUS
 10
269.5760333647
 20
29.7729707073
 11
269.5760333647
 21
244.6838896455
  0
LINE
  5
278
100
AcDbEntity
  8
RUNDUNGEN
100
AcDbLine
 62
7
  6
CONTINUOUS
 10
278.5760333647
 20
278.362051769
 11
278.5760333647
 21
367.7728916381
  0
LINE
  5
279
100
AcDbEntity
  8
0
100
AcDbLine
 62
7
  6
CONTINUOUS
 10
44.3260331859
 20
325.5921196426
 11
44.7427000512
 21
325.3793536826
  0
LINE
  5
27A
100
AcDbEntity
  8
BEZUGSACHSEN
100
AcDbLine
 62
7
  6
CONTINUOUS
 10
243.0257710641
 20
275.2488596147
 11
251.1295715568
 21
247.7859801673
  0
LINE
  5
27B
100
AcDbEntity
  8
0
100
AcDbLine
 62
7
  6
CONTINUOUS
 10
469.5343666781
 20
357.9538217719
 11
469.1177004088
 21
357.5282898705
  0
LINE
  5
27C
100
AcDbEntity
  8
0
100
AcDbLine
 62
7
  6
CONTINUOUS
 10
474.5343666781
 20
357.9538217719
 11
474.1176998128
 21
357.5282898705
  0
LINE
  5
27D
100
AcDbEntity
  8
0
100
AcDbLine
 62
7
  6
CONTINUOUS
 10
51.6177000512
 20
329.9538218091
 11
51.2010337819
 21
330.1665877412
  0
LINE
  5
27E
100
AcDbEntity
  8
0
100
AcDbLine
 62
7
  6
CONTINUOUS
 10
479.2218666781
 20
355.081481428
 11
479.4302001108
 21
355.2942473601
  0
LINE
  5
27F
100
AcDbEntity
  8
0
100
AcDbLine
 62
7
  6
CONTINUOUS
 10
41.4093666185
 20
329.7410558771
 11
41.7218666185
 21
329.634672911
  0
LINE
  5
280
100
AcDbEntity
  8
0
100
AcDbLine
 62
7
  6
CONTINUOUS
 10
192.5760333647
 20
349.7729707073
 11
190.5760333647
 21
351.7729707073
  0
LINE
  5
281
100
AcDbEntity
  8
0
100
AcDbLine
 62
7
  6
CONTINUOUS
 10
329.5760333647
 20
348.7729707073
 11
329.5760333647
 21
334.7729707073
  0
LINE
  5
282
100
AcDbEntity
  8
0
100
AcDbLine
 62
7
  6
CONTINUOUS
 10
330.0760333647
 20
349.2729707073
 11
330.0760333647
 21
334.2729707073
  0
LINE
  5
283
100
AcDbEntity
  8
0
100
AcDbLine
 62
7
  6
CONTINUOUS
 10
340.5760333647
 20
349.7729707073
 11
340.5760333647
 21
333.7729707073
  0
LINE
  5
284
100
AcDbEntity
  8
0
100
AcDbLine
 62
7
  6
CONTINUOUS
 10
45.2635331859
 20
325.911268578
 11
44.8468669166
 21
326.0176515441
  0
LINE
  5
285
100
AcDbEntity
  8
0
100
AcDbLine
 62
7
  6
CONTINUOUS
 10
50.6802000512
 20
329.634672911
 11
51.0968663205
 21
329.528289945
  0
LINE
  5
286
100
AcDbEntity
  8
0
100
AcDbLine
 62
7
  6
CONTINUOUS
 10
137.0041813714
 20
365.7729707073
 11
142.8535331678
 21
361.6772104858
  0
LINE
  5
287
100
AcDbEntity
  8
0
100
AcDbLine
 62
7
  6
CONTINUOUS
 10
203.5760333647
 20
348.7729707073
 11
203.0760333647
 21
349.2729707073
  0
LINE
  5
288
100
AcDbEntity
  8
0
100
AcDbLine
 62
7
  6
CONTINUOUS
 10
342.5760333647
 20
351.7729707073
 11
342.5760333647
 21
331.7729707073
  0
LINE
  5
289
100
AcDbEntity
  8
0
100
AcDbLine
 62
7
  6
CONTINUOUS
 10
469.5343666781
 20
356.9963749658
 11
469.7427004088
 21
357.3155238639
  0
LINE
  5
28A
100
AcDbEntity
  8
0
100
AcDbLine
 62
7
  6
CONTINUOUS
 10
474.5343666781
 20
356.9963749658
 11
474.7426998128
 21
357.3155238639
  0
LINE
  5
28B
100
AcDbEntity
  8
0
100
AcDbLine
 62
7
  6
CONTINUOUS
 10
478.9093666781
 20
355.6133962582
 11
478.5968666781
 21
355.187864394
  0
LINE
  5
28C
100
AcDbEntity
  8
0
100
AcDbLine
 62
7
  6
CONTINUOUS
 10
44.7427000512
 20
325.3793536826
 11
45.2635331859
 21
325.2729707073
  0
LINE
  5
28D
100
AcDbEntity
  8
0
100
AcDbLine
 62
7
  6
CONTINUOUS
 10
41.8260334839
 20
330.1665877412
 11
41.3052000512
 21
330.2729707073
  0
LINE
  5
28E
100
AcDbEntity
  8
0
100
AcDbLine
 62
7
  6
CONTINUOUS
 10
51.2010337819
 20
330.1665877412
 11
50.6802000512
 21
330.2729707073
  0
LINE
  5
28F
100
AcDbEntity
  8
RUNDUNGEN
100
AcDbLine
 62
7
  6
CONTINUOUS
 10
371.5760333647
 20
346.7727888015
 11
371.5760333647
 21
336.7731570686
  0
LINE
  5
290
100
AcDbEntity
  8
0
100
AcDbLine
 62
7
  6
CONTINUOUS
 10
377.6101008516
 20
361.2729707073
 11
377.6101008516
 21
322.2729707073
  0
LINE
  5
291
100
AcDbEntity
  8
0
100
AcDbLine
 62
7
  6
CONTINUOUS
 10
469.1177004088
 20
357.5282898705
 11
468.9093666781
 21
357.1027579318
  0
LINE
  5
292
100
AcDbEntity
  8
0
100
AcDbLine
 62
7
  6
CONTINUOUS
 10
474.1176998128
 20
357.5282898705
 11
473.9093666781
 21
357.1027579318
  0
LINE
  5
293
100
AcDbEntity
  8
0
100
AcDbLine
 62
7
  6
CONTINUOUS
 10
475.0551998128
 20
357.5282898705
 11
475.4718666781
 21
357.6346728365
  0
LINE
  5
294
100
AcDbEntity
  8
0
100
AcDbLine
 62
7
  6
CONTINUOUS
 10
470.0552004088
 20
357.5282898705
 11
470.4718666781
 21
357.6346728365
  0
LINE
  5
295
100
AcDbEntity
  8
0
100
AcDbLine
 62
7
  6
CONTINUOUS
 10
475.4718666781
 20
358.2729707073
 11
474.9510335435
 21
358.1665877319
  0
LINE
  5
296
100
AcDbEntity
  8
0
100
AcDbLine
 62
7
  6
CONTINUOUS
 10
470.4718666781
 20
358.2729707073
 11
469.9510329474
 21
358.1665877319
  0
LINE
  5
297
100
AcDbEntity
  8
0
100
AcDbLine
 62
7
  6
CONTINUOUS
 10
265.5760333647
 20
311.7729707073
 11
255.5760333647
 21
311.7729707073
  0
LINE
  5
298
100
AcDbEntity
  8
0
100
AcDbLine
 62
7
  6
CONTINUOUS
 10
254.2531577091
 20
312.2729707073
 11
266.8989090202
 21
312.2729707073
  0
LINE
  5
299
100
AcDbEntity
  8
BEZUGSACHSEN
100
AcDbLine
 62
7
  6
CONTINUOUS
 10
98.0760333647
 20
315.7729707073
 11
102.5760333647
 21
315.7729707073
  0
LINE
  5
29A
100
AcDbEntity
  8
RUNDUNGEN
100
AcDbLine
 62
7
  6
CONTINUOUS
 10
137.0041813714
 20
317.7729707073
 11
124.0760333647
 21
317.7729707073
  0
LINE
  5
29B
100
AcDbEntity
  8
0
100
AcDbLine
 62
7
  6
CONTINUOUS
 10
124.0760333647
 20
317.7729707073
 11
137.0041813714
 21
317.7729707073
  0
LINE
  5
29C
100
AcDbEntity
  8
0
100
AcDbLine
 62
7
  6
CONTINUOUS
 10
236.412464851
 20
322.6523559488
 11
237.1234309103
 21
322.3935854657
  0
LINE
  5
29D
100
AcDbEntity
  8
RUNDUNGEN
100
AcDbLine
 62
7
  6
CONTINUOUS
 10
399.0760333647
 20
323.2729707073
 11
399.0760333647
 21
360.2729707073
  0
LINE
  5
29E
100
AcDbEntity
  8
BEZUGSACHSEN
100
AcDbLine
 62
7
  6
CONTINUOUS
 10
494.8433176791
 20
320.7729707073
 11
494.4252061641
 21
320.7729707073
  0
LINE
  5
29F
100
AcDbEntity
  8
BEZUGSACHSEN
100
AcDbLine
 62
7
  6
CONTINUOUS
 10
58.5760333647
 20
320.7729707073
 11
26.3087490502
 21
320.7729707073
  0
LINE
  5
2A0
100
AcDbEntity
  8
RUNDUNGEN
100
AcDbLine
 62
7
  6
CONTINUOUS
 10
462.5760333647
 20
320.7729707073
 11
494.8270138525
 21
320.7729707073
  0
LINE
  5
2A1
100
AcDbEntity
  8
RUNDUNGEN
100
AcDbLine
 62
7
  6
CONTINUOUS
 10
398.0760333647
 20
322.2729707073
 11
377.6101008516
 21
322.2729707073
  0
LINE
  5
2A2
100
AcDbEntity
  8
RUNDUNGEN
100
AcDbLine
 62
7
  6
CONTINUOUS
 10
283.3445955324
 20
322.2729707073
 11
278.5760333647
 21
322.2729707073
  0
LINE
  5
2A3
100
AcDbEntity
  8
RUNDUNGEN
100
AcDbLine
 62
7
  6
CONTINUOUS
 10
242.5760333647
 20
322.2729707073
 11
237.8074711969
 21
322.2729707073
  0
LINE
  5
2A4
100
AcDbEntity
  8
0
100
AcDbLine
 62
7
  6
CONTINUOUS
 10
237.8074711969
 20
322.2729707073
 11
242.5760333647
 21
322.2729707073
  0
LINE
  5
2A5
100
AcDbEntity
  8
0
100
AcDbLine
 62
7
  6
CONTINUOUS
 10
278.5760333647
 20
322.2729707073
 11
283.3445955324
 21
322.2729707073
  0
LINE
  5
2A6
100
AcDbEntity
  8
0
100
AcDbLine
 62
7
  6
CONTINUOUS
 10
377.6101008516
 20
322.2729707073
 11
398.0760333647
 21
322.2729707073
  0
LINE
  5
2A7
100
AcDbEntity
  8
0
100
AcDbLine
 62
7
  6
CONTINUOUS
 10
145.7214153495
 20
322.7729707073
 11
235.7284245644
 21
322.7729707073
  0
LINE
  5
2A8
100
AcDbEntity
  8
0
100
AcDbLine
 62
7
  6
CONTINUOUS
 10
285.423642165
 20
322.7729707073
 11
375.4306513798
 21
322.7729707073
  0
LINE
  5
2A9
100
AcDbEntity
  8
RUNDUNGEN
100
AcDbLine
 62
7
  6
CONTINUOUS
 10
481.5760333647
 20
324.2729707073
 11
467.5760333647
 21
324.2729707073
  0
LINE
  5
2AA
100
AcDbEntity
  8
BEZUGSACHSEN
100
AcDbLine
 62
7
  6
CONTINUOUS
 10
39.5760333647
 20
324.2729707073
 11
53.5760333647
 21
324.2729707073
  0
LINE
  5
2AB
100
AcDbEntity
  8
0
100
AcDbLine
 62
7
  6
CONTINUOUS
 10
38.8052000512
 20
325.2729707073
 11
39.4302000512
 21
325.2729707073
  0
LINE
  5
2AC
100
AcDbEntity
  8
0
100
AcDbLine
 62
7
  6
CONTINUOUS
 10
42.0343666185
 20
325.2729707073
 11
42.7635334839
 21
325.2729707073
  0
LINE
  5
2AD
100
AcDbEntity
  8
0
100
AcDbLine
 62
7
  6
CONTINUOUS
 10
45.2635331859
 20
325.2729707073
 11
45.6802000512
 21
325.2729707073
  0
LINE
  5
2AE
100
AcDbEntity
  8
0
100
AcDbLine
 62
7
  6
CONTINUOUS
 10
48.1802000512
 20
325.2729707073
 11
50.6802000512
 21
325.2729707073
  0
LINE
  5
2AF
100
AcDbEntity
  8
0
100
AcDbLine
 62
7
  6
CONTINUOUS
 10
50.6802000512
 20
325.911268578
 11
48.8052000512
 21
325.911268578
  0
LINE
  5
2B0
100
AcDbEntity
  8
0
100
AcDbLine
 62
7
  6
CONTINUOUS
 10
45.6802000512
 20
325.911268578
 11
45.2635331859
 21
325.911268578
  0
LINE
  5
2B1
100
AcDbEntity
  8
0
100
AcDbLine
 62
7
  6
CONTINUOUS
 10
39.4302000512
 20
327.5070132922
 11
41.2010333349
 21
327.5070132922
  0
LINE
  5
2B2
100
AcDbEntity
  8
0
100
AcDbLine
 62
7
  6
CONTINUOUS
 10
41.4093666185
 20
328.1453110884
 11
39.4302000512
 21
328.1453110884
  0
LINE
  5
2B3
100
AcDbEntity
  8
0
100
AcDbLine
 62
7
  6
CONTINUOUS
 10
48.8052000512
 20
329.634672911
 11
50.6802000512
 21
329.634672911
  0
LINE
  5
2B4
100
AcDbEntity
  8
0
100
AcDbLine
 62
7
  6
CONTINUOUS
 10
39.4302000512
 20
329.7410558771
 11
41.4093666185
 21
329.7410558771
  0
LINE
  5
2B5
100
AcDbEntity
  8
0
100
AcDbLine
 62
7
  6
CONTINUOUS
 10
50.6802000512
 20
330.2729707073
 11
48.1802000512
 21
330.2729707073
  0
LINE
  5
2B6
100
AcDbEntity
  8
0
100
AcDbLine
 62
7
  6
CONTINUOUS
 10
47.3468669166
 20
330.2729707073
 11
46.7218669166
 21
330.2729707073
  0
LINE
  5
2B7
100
AcDbEntity
  8
0
100
AcDbLine
 62
7
  6
CONTINUOUS
 10
44.2218669166
 20
330.2729707073
 11
43.5968666185
 21
330.2729707073
  0
LINE
  5
2B8
100
AcDbEntity
  8
0
100
AcDbLine
 62
7
  6
CONTINUOUS
 10
41.3052000512
 20
330.2729707073
 11
38.8052000512
 21
330.2729707073
  0
LINE
  5
2B9
100
AcDbEntity
  8
RUNDUNGEN
100
AcDbLine
 62
7
  6
CONTINUOUS
 10
365.5760333647
 20
330.7729707073
 11
282.5761010825
 21
330.7729707073
  0
LINE
  5
2BA
100
AcDbEntity
  8
RUNDUNGEN
100
AcDbLine
 62
7
  6
CONTINUOUS
 10
238.5760333647
 20
330.7729707073
 11
155.5762931803
 21
330.7729707073
  0
LINE
  5
2BB
100
AcDbEntity
  8
BEZUGSACHSEN
100
AcDbLine
 62
7
  6
CONTINUOUS
 10
53.5760333647
 20
331.2729707073
 11
39.5760333647
 21
331.2729707073
  0
LINE
  5
2BC
100
AcDbEntity
  8
RUNDUNGEN
100
AcDbLine
 62
7
  6
CONTINUOUS
 10
467.5760333647
 20
331.2729707073
 11
481.5760333647
 21
331.2729707073
  0
LINE
  5
2BD
100
AcDbEntity
  8
0
100
AcDbLine
 62
7
  6
CONTINUOUS
 10
190.5760333647
 20
331.7729707073
 11
152.2625172121
 21
331.7729707073
  0
LINE
  5
2BE
100
AcDbEntity
  8
RUNDUNGEN
100
AcDbLine
 62
7
  6
CONTINUOUS
 10
190.5760333647
 20
331.7729707073
 11
152.2625172121
 21
331.7729707073
  0
LINE
  5
2BF
100
AcDbEntity
  8
0
100
AcDbLine
 62
7
  6
CONTINUOUS
 10
123.0760333647
 20
331.7729707073
 11
103.0760333647
 21
331.7729707073
  0
LINE
  5
2C0
100
AcDbEntity
  8
RUNDUNGEN
100
AcDbLine
 62
7
  6
CONTINUOUS
 10
123.0760333647
 20
331.7729707073
 11
103.0760333647
 21
331.7729707073
  0
LINE
  5
2C1
100
AcDbEntity
  8
0
100
AcDbLine
 62
7
  6
CONTINUOUS
 10
96.0760333647
 20
331.7729707073
 11
61.5760333647
 21
331.7729707073
  0
LINE
  5
2C2
100
AcDbEntity
  8
RUNDUNGEN
100
AcDbLine
 62
7
  6
CONTINUOUS
 10
96.0760333647
 20
331.7729707073
 11
61.5760333647
 21
331.7729707073
  0
LINE
  5
2C3
100
AcDbEntity
  8
0
100
AcDbLine
 62
7
  6
CONTINUOUS
 10
342.5760333647
 20
331.7729707073
 11
368.892658155
 21
331.7729707073
  0
LINE
  5
2C4
100
AcDbEntity
  8
RUNDUNGEN
100
AcDbLine
 62
7
  6
CONTINUOUS
 10
342.5760333647
 20
331.7729707073
 11
368.892658155
 21
331.7729707073
  0
LINE
  5
2C5
100
AcDbEntity
  8
0
100
AcDbLine
 62
7
  6
CONTINUOUS
 10
399.0760333647
 20
331.7729707073
 11
459.5760333647
 21
331.7729707073
  0
LINE
  5
2C6
100
AcDbEntity
  8
RUNDUNGEN
100
AcDbLine
 62
7
  6
CONTINUOUS
 10
399.0760333647
 20
331.7729707073
 11
459.5760333647
 21
331.7729707073
  0
LINE
  5
2C7
100
AcDbEntity
  8
0
100
AcDbLine
 62
7
  6
CONTINUOUS
 10
190.5760333647
 20
333.1127166694
 11
150.824758329
 21
333.1127166694
  0
LINE
  5
2C8
100
AcDbEntity
  8
0
100
AcDbLine
 62
7
  6
CONTINUOUS
 10
123.0760333647
 20
333.1127166694
 11
103.0760333647
 21
333.1127166694
  0
LINE
  5
2C9
100
AcDbEntity
  8
0
100
AcDbLine
 62
7
  6
CONTINUOUS
 10
96.0760333647
 20
333.1127166694
 11
63.7588681447
 21
333.1127166694
  0
LINE
  5
2CA
100
AcDbEntity
  8
0
100
AcDbLine
 62
7
  6
CONTINUOUS
 10
203.0760333647
 20
334.2729707073
 11
192.5760333647
 21
334.2729707073
  0
LINE
  5
2CB
100
AcDbEntity
  8
0
100
AcDbLine
 62
7
  6
CONTINUOUS
 10
330.0760333647
 20
334.2729707073
 11
340.5760333647
 21
334.2729707073
  0
LINE
  5
2CC
100
AcDbEntity
  8
0
100
AcDbLine
 62
7
  6
CONTINUOUS
 10
203.0760333647
 20
336.1828007635
 11
192.5760333647
 21
336.1828007635
  0
LINE
  5
2CD
100
AcDbEntity
  8
BEZUGSACHSEN
100
AcDbLine
 62
7
  6
CONTINUOUS
 10
45.5260333647
 20
336.7229707073
 11
24.8879626001
 21
336.7229707073
  0
LINE
  5
2CE
100
AcDbEntity
  8
BEZUGSACHSEN
100
AcDbLine
 62
7
  6
CONTINUOUS
 10
491.3070334535
 20
336.7229707073
 11
496.2641041292
 21
336.7229707073
  0
LINE
  5
2CF
100
AcDbEntity
  8
RUNDUNGEN
100
AcDbLine
 62
7
  6
CONTINUOUS
 10
475.6260333647
 20
336.7229707073
 11
496.2641041292
 21
336.7229707073
  0
LINE
  5
2D0
100
AcDbEntity
  8
0
100
AcDbLine
 62
7
  6
CONTINUOUS
 10
203.5049655528
 20
336.7729707073
 11
149.5760333649
 21
336.7729707073
  0
LINE
  5
2D1
100
AcDbEntity
  8
0
100
AcDbLine
 62
7
  6
CONTINUOUS
 10
123.0760333647
 20
336.7729707073
 11
103.0760333647
 21
336.7729707073
  0
LINE
  5
2D2
100
AcDbEntity
  8
0
100
AcDbLine
 62
7
  6
CONTINUOUS
 10
96.0760333647
 20
336.7729707073
 11
68.5760333647
 21
336.7729707073
  0
LINE
  5
2D3
100
AcDbEntity
  8
0
100
AcDbLine
 62
7
  6
CONTINUOUS
 10
478.5968666781
 20
355.187864394
 11
478.4927001108
 21
354.8687154959
  0
LINE
  5
2D4
100
AcDbEntity
  8
0
100
AcDbLine
 62
7
  6
CONTINUOUS
 10
479.1177001108
 20
354.7623325299
 11
479.2218666781
 21
355.081481428
  0
LINE
  5
2D5
100
AcDbEntity
  8
0
100
AcDbLine
 62
7
  6
CONTINUOUS
 10
500.3080841722
 20
327.2370723224
 11
497.4420587685
 21
322.2729707073
  0
LINE
  5
2D6
100
AcDbEntity
  8
BEZUGSACHSEN
100
AcDbLine
 62
7
  6
CONTINUOUS
 10
29.8450332758
 20
346.8229707073
 11
24.8879626001
 21
346.8229707073
  0
LINE
  5
2D7
100
AcDbEntity
  8
RUNDUNGEN
100
AcDbLine
 62
7
  6
CONTINUOUS
 10
45.5260333647
 20
346.8229707073
 11
24.8879626001
 21
346.8229707073
  0
LINE
  5
2D8
100
AcDbEntity
  8
BEZUGSACHSEN
100
AcDbLine
 62
7
  6
CONTINUOUS
 10
475.6260333647
 20
346.8229707073
 11
496.2641041292
 21
346.8229707073
  0
LINE
  5
2D9
100
AcDbEntity
  8
0
100
AcDbLine
 62
7
  6
CONTINUOUS
 10
203.0760333647
 20
349.2729707073
 11
192.5760333647
 21
349.2729707073
  0
LINE
  5
2DA
100
AcDbEntity
  8
0
100
AcDbLine
 62
7
  6
CONTINUOUS
 10
330.0760333647
 20
349.2729707073
 11
340.5760333647
 21
349.2729707073
  0
LINE
  5
2DB
100
AcDbEntity
  8
0
100
AcDbLine
 62
7
  6
CONTINUOUS
 10
190.5760333647
 20
351.7729707073
 11
152.2625000756
 21
351.7729707073
  0
LINE
  5
2DC
100
AcDbEntity
  8
RUNDUNGEN
100
AcDbLine
 62
7
  6
CONTINUOUS
 10
190.5760333647
 20
351.7729707073
 11
152.2625000756
 21
351.7729707073
  0
LINE
  5
2DD
100
AcDbEntity
  8
0
100
AcDbLine
 62
7
  6
CONTINUOUS
 10
123.0760333647
 20
351.7729707073
 11
103.0760333647
 21
351.7729707073
  0
LINE
  5
2DE
100
AcDbEntity
  8
RUNDUNGEN
100
AcDbLine
 62
7
  6
CONTINUOUS
 10
123.0760333647
 20
351.7729707073
 11
103.0760333647
 21
351.7729707073
  0
LINE
  5
2DF
100
AcDbEntity
  8
0
100
AcDbLine
 62
7
  6
CONTINUOUS
 10
96.0760333647
 20
351.7729707073
 11
61.5760333647
 21
351.7729707073
  0
LINE
  5
2E0
100
AcDbEntity
  8
RUNDUNGEN
100
AcDbLine
 62
7
  6
CONTINUOUS
 10
96.0760333647
 20
351.7729707073
 11
61.5760333647
 21
351.7729707073
  0
LINE
  5
2E1
100
AcDbEntity
  8
0
100
AcDbLine
 62
7
  6
CONTINUOUS
 10
342.5760333647
 20
351.7729707073
 11
368.8866028304
 21
351.7729707073
  0
LINE
  5
2E2
100
AcDbEntity
  8
RUNDUNGEN
100
AcDbLine
 62
7
  6
CONTINUOUS
 10
342.5760333647
 20
351.7729707073
 11
368.8866028304
 21
351.7729707073
  0
LINE
  5
2E3
100
AcDbEntity
  8
0
100
AcDbLine
 62
7
  6
CONTINUOUS
 10
399.0760333647
 20
351.7729707073
 11
459.5760333647
 21
351.7729707073
  0
LINE
  5
2E4
100
AcDbEntity
  8
RUNDUNGEN
100
AcDbLine
 62
7
  6
CONTINUOUS
 10
399.0760333647
 20
351.7729707073
 11
459.5760333647
 21
351.7729707073
  0
LINE
  5
2E5
100
AcDbEntity
  8
RUNDUNGEN
100
AcDbLine
 62
7
  6
CONTINUOUS
 10
53.5760333647
 20
352.2729707073
 11
39.5760333647
 21
352.2729707073
  0
LINE
  5
2E6
100
AcDbEntity
  8
BEZUGSACHSEN
100
AcDbLine
 62
7
  6
CONTINUOUS
 10
467.5760333647
 20
352.2729707073
 11
481.5760333647
 21
352.2729707073
  0
LINE
  5
2E7
100
AcDbEntity
  8
RUNDUNGEN
100
AcDbLine
 62
7
  6
CONTINUOUS
 10
155.5760333647
 20
352.7729707073
 11
238.5760333643
 21
352.7729707073
  0
LINE
  5
2E8
100
AcDbEntity
  8
RUNDUNGEN
100
AcDbLine
 62
7
  6
CONTINUOUS
 10
282.5761985822
 20
352.7729707073
 11
365.5758591896
 21
352.7729707073
  0
LINE
  5
2E9
100
AcDbEntity
  8
0
100
AcDbLine
 62
7
  6
CONTINUOUS
 10
470.4718666781
 20
353.2729707073
 11
472.9718666781
 21
353.2729707073
  0
LINE
  5
2EA
100
AcDbEntity
  8
0
100
AcDbLine
 62
7
  6
CONTINUOUS
 10
473.8051998128
 20
353.2729707073
 11
474.4301998128
 21
353.2729707073
  0
LINE
  5
2EB
100
AcDbEntity
  8
0
100
AcDbLine
 62
7
  6
CONTINUOUS
 10
476.9301998128
 20
353.2729707073
 11
477.5552001108
 21
353.2729707073
  0
LINE
  5
2EC
100
AcDbEntity
  8
0
100
AcDbLine
 62
7
  6
CONTINUOUS
 10
479.8468666781
 20
353.2729707073
 11
482.3468666781
 21
353.2729707073
  0
LINE
  5
2ED
100
AcDbEntity
  8
0
100
AcDbLine
 62
7
  6
CONTINUOUS
 10
481.7218666781
 20
353.8048855375
 11
479.7427001108
 21
353.8048855375
  0
LINE
  5
2EE
100
AcDbEntity
  8
0
100
AcDbLine
 62
7
  6
CONTINUOUS
 10
472.3468666781
 20
353.9112685035
 11
470.4718666781
 21
353.9112685035
  0
LINE
  5
2EF
100
AcDbEntity
  8
0
100
AcDbLine
 62
7
  6
CONTINUOUS
 10
479.7427001108
 20
355.4006303261
 11
481.7218666781
 21
355.4006303261
  0
LINE
  5
2F0
100
AcDbEntity
  8
0
100
AcDbLine
 62
7
  6
CONTINUOUS
 10
481.7218666781
 20
356.0389281224
 11
479.9510333945
 21
356.0389281224
  0
LINE
  5
2F1
100
AcDbEntity
  8
0
100
AcDbLine
 62
7
  6
CONTINUOUS
 10
470.4718666781
 20
357.6346728365
 11
472.3468666781
 21
357.6346728365
  0
LINE
  5
2F2
100
AcDbEntity
  8
0
100
AcDbLine
 62
7
  6
CONTINUOUS
 10
475.4718666781
 20
357.6346728365
 11
475.8885335435
 21
357.6346728365
  0
LINE
  5
2F3
100
AcDbEntity
  8
0
100
AcDbLine
 62
7
  6
CONTINUOUS
 10
482.3468666781
 20
358.2729707073
 11
481.7218666781
 21
358.2729707073
  0
LINE
  5
2F4
100
AcDbEntity
  8
0
100
AcDbLine
 62
7
  6
CONTINUOUS
 10
479.1177001108
 20
358.2729707073
 11
478.3885332455
 21
358.2729707073
  0
LINE
  5
2F5
100
AcDbEntity
  8
0
100
AcDbLine
 62
7
  6
CONTINUOUS
 10
475.8885335435
 20
358.2729707073
 11
475.4718666781
 21
358.2729707073
  0
LINE
  5
2F6
100
AcDbEntity
  8
0
100
AcDbLine
 62
7
  6
CONTINUOUS
 10
472.9718666781
 20
358.2729707073
 11
470.4718666781
 21
358.2729707073
  0
LINE
  5
2F7
100
AcDbEntity
  8
0
100
AcDbLine
 62
7
  6
CONTINUOUS
 10
329.5760333647
 20
334.7729707073
 11
330.0760333647
 21
334.2729707073
  0
LINE
  5
2F8
100
AcDbEntity
  8
0
100
AcDbLine
 62
7
  6
CONTINUOUS
 10
340.5760333647
 20
333.7729707073
 11
342.5760333647
 21
331.7729707073
  0
LINE
  5
2F9
100
AcDbEntity
  8
0
100
AcDbLine
 62
7
  6
CONTINUOUS
 10
468.9093666781
 20
357.1027579318
 11
468.8052004088
 21
356.5708431016
  0
LINE
  5
2FA
100
AcDbEntity
  8
0
100
AcDbLine
 62
7
  6
CONTINUOUS
 10
473.9093666781
 20
357.1027579318
 11
473.8051998128
 21
356.5708431016
  0
LINE
  5
2FB
100
AcDbEntity
  8
0
100
AcDbLine
 62
7
  6
CONTINUOUS
 10
469.4302004088
 20
356.5708431016
 11
469.5343666781
 21
356.9963749658
  0
LINE
  5
2FC
100
AcDbEntity
  8
0
100
AcDbLine
 62
7
  6
CONTINUOUS
 10
474.4301998128
 20
356.5708431016
 11
474.5343666781
 21
356.9963749658
  0
LINE
  5
2FD
100
AcDbEntity
  8
0
100
AcDbLine
 62
7
  6
CONTINUOUS
 10
51.0968663205
 20
326.0176515441
 11
50.6802000512
 21
325.911268578
  0
LINE
  5
2FE
100
AcDbEntity
  8
0
100
AcDbLine
 62
7
  6
CONTINUOUS
 10
46.0968669166
 20
326.0176515441
 11
45.6802000512
 21
325.911268578
  0
LINE
  5
2FF
100
AcDbEntity
  8
0
100
AcDbLine
 62
7
  6
CONTINUOUS
 10
50.6802000512
 20
325.2729707073
 11
51.2010337819
 21
325.3793536826
  0
LINE
  5
300
100
AcDbEntity
  8
0
100
AcDbLine
 62
7
  6
CONTINUOUS
 10
45.6802000512
 20
325.2729707073
 11
46.2010331859
 21
325.3793536826
  0
LINE
  5
301
100
AcDbEntity
  8
BEZUGSACHSEN
100
AcDbLine
 62
7
  6
CONTINUOUS
 10
481.5760333647
 20
359.2729707073
 11
467.5760333647
 21
359.2729707073
  0
LINE
  5
302
100
AcDbEntity
  8
RUNDUNGEN
100
AcDbLine
 62
7
  6
CONTINUOUS
 10
39.5760333647
 20
359.2729707073
 11
53.5760333647
 21
359.2729707073
  0
LINE
  5
303
100
AcDbEntity
  8
0
100
AcDbLine
 62
7
  6
CONTINUOUS
 10
145.7214153495
 20
360.7729707073
 11
235.7284245644
 21
360.7729707073
  0
LINE
  5
304
100
AcDbEntity
  8
RUNDUNGEN
100
AcDbLine
 62
7
  6
CONTINUOUS
 10
285.423642165
 20
360.7729707073
 11
375.4306513798
 21
360.7729707073
  0
LINE
  5
305
100
AcDbEntity
  8
0
100
AcDbLine
 62
7
  6
CONTINUOUS
 10
285.423642165
 20
360.7729707073
 11
375.4306513798
 21
360.7729707073
  0
LINE
  5
306
100
AcDbEntity
  8
RUNDUNGEN
100
AcDbLine
 62
7
  6
CONTINUOUS
 10
398.0760333647
 20
361.2729707073
 11
377.6101008516
 21
361.2729707073
  0
LINE
  5
307
100
AcDbEntity
  8
RUNDUNGEN
100
AcDbLine
 62
7
  6
CONTINUOUS
 10
283.3445955324
 20
361.2729707073
 11
278.5760333647
 21
361.2729707073
  0
LINE
  5
308
100
AcDbEntity
  8
RUNDUNGEN
100
AcDbLine
 62
7
  6
CONTINUOUS
 10
242.5760333647
 20
361.2729707073
 11
237.8074711969
 21
361.2729707073
  0
LINE
  5
309
100
AcDbEntity
  8
0
100
AcDbLine
 62
7
  6
CONTINUOUS
 10
237.8074711969
 20
361.2729707073
 11
242.5760333647
 21
361.2729707073
  0
LINE
  5
30A
100
AcDbEntity
  8
0
100
AcDbLine
 62
7
  6
CONTINUOUS
 10
278.5760333647
 20
361.2729707073
 11
283.3445955324
 21
361.2729707073
  0
LINE
  5
30B
100
AcDbEntity
  8
0
100
AcDbLine
 62
7
  6
CONTINUOUS
 10
377.6101008516
 20
361.2729707073
 11
398.0760333647
 21
361.2729707073
  0
LINE
  5
30C
100
AcDbEntity
  8
BEZUGSACHSEN
100
AcDbLine
 62
7
  6
CONTINUOUS
 10
26.3087490502
 20
362.7729707073
 11
26.7268605653
 21
362.7729707073
  0
LINE
  5
30D
100
AcDbEntity
  8
RUNDUNGEN
100
AcDbLine
 62
7
  6
CONTINUOUS
 10
26.3250528769
 20
362.7729707073
 11
58.5760333647
 21
362.7729707073
  0
LINE
  5
30E
100
AcDbEntity
  8
BEZUGSACHSEN
100
AcDbLine
 62
7
  6
CONTINUOUS
 10
462.5760333647
 20
362.7729707073
 11
494.8433176791
 21
362.7729707073
  0
LINE
  5
30F
100
AcDbEntity
  8
RUNDUNGEN
100
AcDbLine
 62
7
  6
CONTINUOUS
 10
137.0041813714
 20
365.7729707073
 11
124.0760333647
 21
365.7729707073
  0
LINE
  5
310
100
AcDbEntity
  8
0
100
AcDbLine
 62
7
  6
CONTINUOUS
 10
124.0760333647
 20
365.7729707073
 11
137.0041813714
 21
365.7729707073
  0
LINE
  5
311
100
AcDbEntity
  8
BEZUGSACHSEN
100
AcDbLine
 62
7
  6
CONTINUOUS
 10
98.0760333647
 20
367.7729707073
 11
102.5760333647
 21
367.7729707073
  0
LINE
  5
312
100
AcDbEntity
  8
0
100
AcDbLine
 62
7
  6
CONTINUOUS
 10
253.5760333647
 20
371.2729707073
 11
267.5760333647
 21
371.2729707073
  0
LINE
  5
313
100
AcDbEntity
  8
0
100
AcDbLine
 62
7
  6
CONTINUOUS
 10
247.5760333647
 20
372.7729707073
 11
253.5760333647
 21
372.7729707073
  0
LINE
  5
314
100
AcDbEntity
  8
0
100
AcDbLine
 62
7
  6
CONTINUOUS
 10
267.5760333647
 20
372.7729707073
 11
273.5760333647
 21
372.7729707073
  0
LINE
  5
315
100
AcDbEntity
  8
0
100
AcDbLine
 62
7
  6
CONTINUOUS
 10
284.0286358191
 20
361.1523559488
 11
284.7396018784
 21
360.8935854657
  0
LINE
  5
316
100
AcDbEntity
  8
RUNDUNGEN
100
AcDbLine
 62
7
  6
CONTINUOUS
 10
460.5760333647
 20
322.7729707073
 11
460.5760333647
 21
336.9782225277
  0
LINE
  5
317
100
AcDbEntity
  8
RUNDUNGEN
100
AcDbLine
 62
7
  6
CONTINUOUS
 10
460.5760333647
 20
346.5677243724
 11
460.5760333647
 21
360.7729707073
  0
LINE
  5
318
100
AcDbEntity
  8
0
100
AcDbLine
 62
7
  6
CONTINUOUS
 10
469.9510329474
 20
353.3793536733
 11
470.4718666781
 21
353.2729707073
  0
LINE
  5
319
100
AcDbEntity
  8
0
100
AcDbLine
 62
7
  6
CONTINUOUS
 10
479.3260332455
 20
353.3793536733
 11
479.8468666781
 21
353.2729707073
  0
LINE
  5
31A
100
AcDbEntity
  8
0
100
AcDbLine
 62
7
  6
CONTINUOUS
 10
476.4093666781
 20
358.1665877319
 11
475.8885335435
 21
358.2729707073
  0
LINE
  5
31B
100
AcDbEntity
  8
0
100
AcDbLine
 62
7
  6
CONTINUOUS
 10
468.8052004088
 20
356.5708431016
 11
468.8052004088
 21
354.975098462
  0
LINE
  5
31C
100
AcDbEntity
  8
0
100
AcDbLine
 62
7
  6
CONTINUOUS
 10
469.4302004088
 20
354.975098462
 11
469.4302004088
 21
356.5708431016
  0
LINE
  5
31D
100
AcDbEntity
  8
0
100
AcDbLine
 62
7
  6
CONTINUOUS
 10
472.3468666781
 20
357.6346728365
 11
472.3468666781
 21
353.9112685035
  0
LINE
  5
31E
100
AcDbEntity
  8
0
100
AcDbLine
 62
7
  6
CONTINUOUS
 10
472.9718666781
 20
353.2729707073
 11
472.9718666781
 21
358.2729707073
  0
LINE
  5
31F
100
AcDbEntity
  8
0
100
AcDbLine
 62
7
  6
CONTINUOUS
 10
473.8051998128
 20
356.5708431016
 11
473.8051998128
 21
353.2729707073
  0
LINE
  5
320
100
AcDbEntity
  8
0
100
AcDbLine
 62
7
  6
CONTINUOUS
 10
474.4301998128
 20
353.2729707073
 11
474.4301998128
 21
356.5708431016
  0
LINE
  5
321
100
AcDbEntity
  8
0
100
AcDbLine
 62
7
  6
CONTINUOUS
 10
476.9301998128
 20
356.5708431016
 11
476.9301998128
 21
353.2729707073
  0
LINE
  5
322
100
AcDbEntity
  8
0
100
AcDbLine
 62
7
  6
CONTINUOUS
 10
477.5552001108
 20
353.2729707073
 11
477.5552001108
 21
356.5708431016
  0
LINE
  5
323
100
AcDbEntity
  8
0
100
AcDbLine
 62
7
  6
CONTINUOUS
 10
478.4927001108
 20
354.8687154959
 11
478.4927001108
 21
354.4431833337
  0
LINE
  5
324
100
AcDbEntity
  8
0
100
AcDbLine
 62
7
  6
CONTINUOUS
 10
479.1177001108
 20
354.4431833337
 11
479.1177001108
 21
354.7623325299
  0
LINE
  5
325
100
AcDbEntity
  8
0
100
AcDbLine
 62
7
  6
CONTINUOUS
 10
470.4718666781
 20
353.9112685035
 11
470.0552004088
 21
354.0176514696
  0
LINE
  5
326
100
AcDbEntity
  8
0
100
AcDbLine
 62
7
  6
CONTINUOUS
 10
475.8885335435
 20
357.6346728365
 11
476.3051998128
 21
357.5282898705
  0
LINE
  5
327
100
AcDbEntity
  8
0
100
AcDbLine
 62
7
  6
CONTINUOUS
 10
479.7427001108
 20
353.8048855375
 11
479.4302001108
 21
353.9112685035
  0
LINE
  5
328
100
AcDbEntity
  8
0
100
AcDbLine
 62
7
  6
CONTINUOUS
 10
481.7218666781
 20
358.2729707073
 11
481.7218666781
 21
356.0389281224
  0
LINE
  5
329
100
AcDbEntity
  8
0
100
AcDbLine
 62
7
  6
CONTINUOUS
 10
481.7218666781
 20
355.4006303261
 11
481.7218666781
 21
353.8048855375
  0
LINE
  5
32A
100
AcDbEntity
  8
0
100
AcDbLine
 62
7
  6
CONTINUOUS
 10
482.3468666781
 20
353.2729707073
 11
482.3468666781
 21
358.2729707073
  0
LINE
  5
32B
100
AcDbEntity
  8
BEZUGSACHSEN
100
AcDbLine
 62
7
  6
CONTINUOUS
 10
483.0760333647
 20
346.8229707073
 11
483.0760333647
 21
336.7229707073
  0
LINE
  5
32C
100
AcDbEntity
  8
BEZUGSACHSEN
100
AcDbLine
 62
7
  6
CONTINUOUS
 10
494.0760333647
 20
346.8229707073
 11
494.0760333647
 21
336.7229707073
  0
LINE
  5
32D
100
AcDbEntity
  8
0
100
AcDbLine
 62
7
  6
CONTINUOUS
 10
500.5760333647
 20
328.2370723224
 11
500.5760333647
 21
330.7758119833
  0
LINE
  5
32E
100
AcDbEntity
  8
BEZUGSACHSEN
100
AcDbLine
 62
7
  6
CONTINUOUS
 10
500.5760333647
 20
352.7701294312
 11
500.5760333647
 21
355.3088690921
  0
LINE
  5
32F
100
AcDbEntity
  8
0
100
AcDbLine
 62
7
  6
CONTINUOUS
 10
469.5343666781
 20
353.5921196054
 11
469.9510329474
 21
353.3793536733
  0
LINE
  5
330
100
AcDbEntity
  8
0
100
AcDbLine
 62
7
  6
CONTINUOUS
 10
469.5343666781
 20
354.5495665978
 11
469.4302004088
 21
354.975098462
  0
LINE
  5
331
100
AcDbEntity
  8
0
100
AcDbLine
 62
7
  6
CONTINUOUS
 10
468.8052004088
 20
354.975098462
 11
468.9093666781
 21
354.4431833337
  0
LINE
  5
332
100
AcDbEntity
  8
0
100
AcDbLine
 62
7
  6
CONTINUOUS
 10
476.8260335435
 20
357.9538217719
 11
476.4093666781
 21
358.1665877319
  0
LINE
  5
333
100
AcDbEntity
  8
0
100
AcDbLine
 62
7
  6
CONTINUOUS
 10
470.0552004088
 20
354.0176514696
 11
469.7427004088
 21
354.2304174016
  0
LINE
  5
334
100
AcDbEntity
  8
0
100
AcDbLine
 62
7
  6
CONTINUOUS
 10
476.3051998128
 20
357.5282898705
 11
476.6176998128
 21
357.3155238639
  0
LINE
  5
335
100
AcDbEntity
  8
0
100
AcDbLine
 62
7
  6
CONTINUOUS
 10
478.9093666781
 20
353.6985025714
 11
479.3260332455
 21
353.3793536733
  0
LINE
  5
336
100
AcDbEntity
  8
0
100
AcDbLine
 62
7
  6
CONTINUOUS
 10
469.1177004088
 20
354.0176514696
 11
469.5343666781
 21
353.5921196054
  0
LINE
  5
337
100
AcDbEntity
  8
0
100
AcDbLine
 62
7
  6
CONTINUOUS
 10
468.9093666781
 20
354.4431833337
 11
469.1177004088
 21
354.0176514696
  0
LINE
  5
338
100
AcDbEntity
  8
0
100
AcDbLine
 62
7
  6
CONTINUOUS
 10
478.4927001108
 20
354.4431833337
 11
478.5968666781
 21
354.1240344356
  0
LINE
  5
339
100
AcDbEntity
  8
0
100
AcDbLine
 62
7
  6
CONTINUOUS
 10
479.2218666781
 20
354.1240344356
 11
479.1177001108
 21
354.4431833337
  0
LINE
  5
33A
100
AcDbEntity
  8
0
100
AcDbLine
 62
7
  6
CONTINUOUS
 10
476.8260335435
 20
356.9963749658
 11
476.9301998128
 21
356.5708431016
  0
LINE
  5
33B
100
AcDbEntity
  8
0
100
AcDbLine
 62
7
  6
CONTINUOUS
 10
477.5552001108
 20
356.5708431016
 11
477.4510332455
 21
357.1027579318
  0
LINE
  5
33C
100
AcDbEntity
  8
0
100
AcDbLine
 62
7
  6
CONTINUOUS
 10
479.4302001108
 20
353.9112685035
 11
479.2218666781
 21
354.1240344356
  0
LINE
  5
33D
100
AcDbEntity
  8
0
100
AcDbLine
 62
7
  6
CONTINUOUS
 10
477.2426998128
 20
357.5282898705
 11
476.8260335435
 21
357.9538217719
  0
LINE
  5
33E
100
AcDbEntity
  8
0
100
AcDbLine
 62
7
  6
CONTINUOUS
 10
478.5968666781
 20
354.1240344356
 11
478.9093666781
 21
353.6985025714
  0
LINE
  5
33F
100
AcDbEntity
  8
0
100
AcDbLine
 62
7
  6
CONTINUOUS
 10
469.7427004088
 20
354.2304174016
 11
469.5343666781
 21
354.5495665978
  0
LINE
  5
340
100
AcDbEntity
  8
0
100
AcDbLine
 62
7
  6
CONTINUOUS
 10
476.6176998128
 20
357.3155238639
 11
476.8260335435
 21
356.9963749658
  0
LINE
  5
341
100
AcDbEntity
  8
BEZUGSACHSEN
100
AcDbLine
 62
7
  6
CONTINUOUS
 10
497.4420587685
 20
361.2729707073
 11
500.3080841722
 21
356.3088690921
  0
LINE
  5
342
100
AcDbEntity
  8
0
100
AcDbLine
 62
7
  6
CONTINUOUS
 10
477.4510332455
 20
357.1027579318
 11
477.2426998128
 21
357.5282898705
  0
LINE
  5
343
100
AcDbEntity
  8
0
100
AcDbLine
 62
7
  6
CONTINUOUS
 10
478.3885332455
 20
358.2729707073
 11
479.3260332455
 21
355.8261621903
  0
LINE
  5
344
100
AcDbEntity
  8
0
100
AcDbLine
 62
7
  6
CONTINUOUS
 10
479.9510333945
 20
356.0389281224
 11
479.1177001108
 21
358.2729707073
  0
LINE
  5
345
100
AcDbEntity
  8
BEZUGSACHSEN
100
AcDbLine
 62
7
  6
CONTINUOUS
 10
60.5760333647
 20
514.9394487388
 11
60.5760333647
 21
495.1394487388
  0
LINE
  5
346
100
AcDbEntity
  8
RUNDUNGEN
100
AcDbLine
 62
7
  6
CONTINUOUS
 10
96.0760333647
 20
481.0394487388
 11
96.0760333647
 21
529.0394487388
  0
LINE
  5
347
100
AcDbEntity
  8
BEZUGSACHSEN
100
AcDbLine
 62
7
  6
CONTINUOUS
 10
28.0151760645
 20
516.4609344112
 11
24.4364457864
 21
513.4076199375
  0
LINE
  5
348
100
AcDbEntity
  8
BEZUGSACHSEN
100
AcDbLine
 62
7
  6
CONTINUOUS
 10
28.0151760645
 20
493.6179630663
 11
24.4364457864
 21
496.67127754
  0
LINE
  5
349
100
AcDbEntity
  8
RUNDUNGEN
100
AcDbLine
 62
7
  6
CONTINUOUS
 10
103.0760333647
 20
479.5394487388
 11
103.0760333647
 21
530.5394487388
  0
LINE
  5
34A
100
AcDbEntity
  8
RUNDUNGEN
100
AcDbLine
 62
7
  6
CONTINUOUS
 10
123.0760333647
 20
528.0393499684
 11
123.0760333647
 21
482.0394487388
  0
LINE
  5
34B
100
AcDbEntity
  8
RUNDUNGEN
100
AcDbLine
 62
7
  6
CONTINUOUS
 10
127.5760333647
 20
527.9509709066
 11
127.5760333647
 21
529.0394487387
  0
LINE
  5
34C
100
AcDbEntity
  8
RUNDUNGEN
100
AcDbLine
 62
7
  6
CONTINUOUS
 10
137.0041813714
 20
527.9509709066
 11
137.0041813714
 21
505.0394487388
  0
LINE
  5
34D
100
AcDbEntity
  8
0
100
AcDbLine
 62
7
  6
CONTINUOUS
 10
137.0041813714
 20
505.0394487388
 11
137.0041813714
 21
481.0394487388
  0
LINE
  5
34E
100
AcDbEntity
  8
0
100
AcDbLine
 62
7
  6
CONTINUOUS
 10
166.5760333647
 20
486.0657827777
 11
166.5760333647
 21
485.4649755658
  0
LINE
  5
34F
100
AcDbEntity
  8
0
100
AcDbLine
 62
7
  6
CONTINUOUS
 10
170.5760333647
 20
489.5475153539
 11
170.5760333647
 21
485.4649755658
  0
LINE
  5
350
100
AcDbEntity
  8
0
100
AcDbLine
 62
7
  6
CONTINUOUS
 10
178.5760333647
 20
485.4649755658
 11
178.5760333647
 21
489.5475153539
  0
LINE
  5
351
100
AcDbEntity
  8
RUNDUNGEN
100
AcDbLine
 62
7
  6
CONTINUOUS
 10
149.7958684825
 20
521.1929254778
 11
149.711128859
 21
521.3047518543
  0
LINE
  5
352
100
AcDbEntity
  8
RUNDUNGEN
100
AcDbLine
 62
7
  6
CONTINUOUS
 10
149.7154312802
 20
521.2988725874
 11
149.6439982896
 21
521.4002307782
  0
LINE
  5
353
100
AcDbEntity
  8
RUNDUNGEN
100
AcDbLine
 62
7
  6
CONTINUOUS
 10
149.6472812317
 20
521.3953713471
 11
149.5936573355
 21
521.4780945254
  0
LWPOLYLINE
  5
354
100
AcDbEntity
  8
RUNDUNGEN
100
AcDbPolyline
 62
7
  6
CONTINUOUS
 90
4
 70
0
 10
149.5960099768
 20
521.474284604
 10
149.5603320659
 20
521.534668879
 10
149.5393091716
 20
521.5743840828
 10
149.5364012716
 20
521.5803635161
  0
LINE
  5
355
100
AcDbEntity
  8
0
100
AcDbLine
 62
7
  6
CONTINUOUS
 10
182.5760333647
 20
486.0657827777
 11
182.5760333647
 21
485.4649755658
  0
LINE
  5
356
100
AcDbEntity
  8
0
100
AcDbLine
 62
7
  6
CONTINUOUS
 10
137.0041813714
 20
481.0394487388
 11
142.8535331678
 21
485.1352089602
  0
LINE
  5
357
100
AcDbEntity
  8
RUNDUNGEN
100
AcDbLine
 62
7
  6
CONTINUOUS
 10
143.0771262974
 20
523.7959970146
 11
143.0369641285
 21
523.8214082171
  0
LINE
  5
358
100
AcDbEntity
  8
RUNDUNGEN
100
AcDbLine
 62
7
  6
CONTINUOUS
 10
143.0471641548
 20
523.8149039836
 11
142.9607859796
 21
523.8710922175
  0
LINE
  5
359
100
AcDbEntity
  8
RUNDUNGEN
100
AcDbLine
 62
7
  6
CONTINUOUS
 10
142.9708663097
 20
523.864404313
 11
142.8885991019
 21
523.9200606076
  0
LINE
  5
35A
100
AcDbEntity
  8
RUNDUNGEN
100
AcDbLine
 62
7
  6
CONTINUOUS
 10
142.8954213306
 20
523.9153177528
 11
142.8558746394
 21
523.9428108525
  0
LINE
  5
35B
100
AcDbEntity
  8
RUNDUNGEN
100
AcDbLine
 62
7
  6
CONTINUOUS
 10
142.8558747239
 20
523.9428107396
 11
137.0043233958
 21
528.0408656764
  0
LINE
  5
35C
100
AcDbEntity
  8
0
100
AcDbLine
 62
7
  6
CONTINUOUS
 10
247.5760333647
 20
474.0394487388
 11
253.5760333647
 21
474.0394487388
  0
LINE
  5
35D
100
AcDbEntity
  8
0
100
AcDbLine
 62
7
  6
CONTINUOUS
 10
267.5760333647
 20
474.0394487388
 11
273.5760333647
 21
474.0394487388
  0
LINE
  5
35E
100
AcDbEntity
  8
RUNDUNGEN
100
AcDbLine
 62
7
  6
CONTINUOUS
 10
143.2755659891
 20
523.6788226944
 11
143.0771277586
 21
523.7960108009
  0
LINE
  5
35F
100
AcDbEntity
  8
BEZUGSACHSEN
100
AcDbLine
 62
7
  6
CONTINUOUS
 10
242.5760333647
 20
531.0394130883
 11
242.5760333647
 21
479.0394847294
  0
LWPOLYLINE
  5
360
100
AcDbEntity
  8
RUNDUNGEN
100
AcDbPolyline
 62
7
  6
CONTINUOUS
 90
14
 70
0
 10
242.5760333647
 20
520.1885032001
 10
242.3973719375
 20
520.0663465108
 10
242.1096022503
 20
519.8828765609
 10
241.8096185598
 20
519.7057569414
 10
241.4986387224
 20
519.5372522715
 10
241.1771662525
 20
519.3792965502
 10
240.84603498
 20
519.2340984453
 10
240.5068041573
 20
519.104180798
 10
240.1605044388
 20
518.9917674182
 10
239.8113179232
 20
518.8997355531
 10
239.4627944457
 20
518.8298737697
 10
239.1185394204
 20
518.7830062413
 10
238.7826855541
 20
518.7589198026
 10
238.576033365
 20
518.7548202755
  0
LWPOLYLINE
  5
361
100
AcDbEntity
  8
RUNDUNGEN
100
AcDbPolyline
 62
7
  6
CONTINUOUS
 90
9
 70
0
 10
236.4838742511
 20
518.3107436295
 10
236.1166598557
 20
518.1082831451
 10
236.0597880047
 20
518.079218229
 10
236.0038816136
 20
518.0542950777
 10
235.9485155033
 20
518.0333868568
 10
235.8931588935
 20
518.016522612
 10
235.8389737196
 20
518.0042858087
 10
235.7850391567
 20
517.9966532916
 10
235.7284245656
 20
517.9938999981
  0
LINE
  5
362
100
AcDbEntity
  8
RUNDUNGEN
100
AcDbLine
 62
7
  6
CONTINUOUS
 10
236.8521634738
 20
518.5119194903
 11
236.4780154183
 21
518.3075210453
  0
LINE
  5
363
100
AcDbEntity
  8
RUNDUNGEN
100
AcDbLine
 62
7
  6
CONTINUOUS
 10
367.1225732226
 20
518.2407433158
 11
366.7785506692
 21
518.1443483063
  0
LINE
  5
364
100
AcDbEntity
  8
0
100
AcDbLine
 62
7
  6
CONTINUOUS
 10
181.5702099718
 20
485.4402404586
 11
182.5760333647
 21
485.4649755658
  0
LWPOLYLINE
  5
365
100
AcDbEntity
  8
RUNDUNGEN
100
AcDbPolyline
 62
7
  6
CONTINUOUS
 90
11
 70
0
 10
287.4535328005
 20
486.0394480973
 10
287.4871753536
 20
486.0397310725
 10
287.6820277699
 20
486.0525434528
 10
287.8746915968
 20
486.0842945666
 10
288.0633308668
 20
486.1346787013
 10
288.2461484598
 20
486.2032126394
 10
288.4214032886
 20
486.2892403663
 10
288.5874268639
 20
486.3919394276
 10
288.7426387466
 20
486.5103285311
 10
288.8855619976
 20
486.6432771158
 10
289.0147832404
 20
486.7894487594
  0
LINE
  5
366
100
AcDbEntity
  8
0
100
AcDbLine
 62
7
  6
CONTINUOUS
 10
253.5760333647
 20
475.5394487388
 11
267.5760333647
 21
475.5394487388
  0
LINE
  5
367
100
AcDbEntity
  8
RUNDUNGEN
100
AcDbLine
 62
7
  6
CONTINUOUS
 10
98.0760333647
 20
479.0394487388
 11
102.5760333647
 21
479.0394487388
  0
LINE
  5
368
100
AcDbEntity
  8
BEZUGSACHSEN
100
AcDbLine
 62
7
  6
CONTINUOUS
 10
98.0760333647
 20
479.0394487388
 11
102.5760333647
 21
479.0394487388
  0
LINE
  5
369
100
AcDbEntity
  8
0
100
AcDbLine
 62
7
  6
CONTINUOUS
 10
124.0760333647
 20
481.0394487388
 11
137.0041813714
 21
481.0394487388
  0
LINE
  5
36A
100
AcDbEntity
  8
BEZUGSACHSEN
100
AcDbLine
 62
7
  6
CONTINUOUS
 10
266.5760333647
 20
485.0394487388
 11
254.5760333647
 21
485.0394487388
  0
LINE
  5
36B
100
AcDbEntity
  8
0
100
AcDbLine
 62
7
  6
CONTINUOUS
 10
167.5754633251
 20
485.4394487388
 11
181.5766034801
 21
485.4394487388
  0
LINE
  5
36C
100
AcDbEntity
  8
0
100
AcDbLine
 62
7
  6
CONTINUOUS
 10
182.5760333647
 20
485.4649755658
 11
178.5760333647
 21
485.4649755658
  0
LINE
  5
36D
100
AcDbEntity
  8
0
100
AcDbLine
 62
7
  6
CONTINUOUS
 10
170.5760333647
 20
485.4649755658
 11
166.5760333647
 21
485.4649755658
  0
LINE
  5
36E
100
AcDbEntity
  8
0
100
AcDbLine
 62
7
  6
CONTINUOUS
 10
237.8074711969
 20
485.5394487388
 11
242.5760333647
 21
485.5394487388
  0
LINE
  5
36F
100
AcDbEntity
  8
0
100
AcDbLine
 62
7
  6
CONTINUOUS
 10
278.5760333647
 20
485.5394487388
 11
283.3445955324
 21
485.5394487388
  0
LINE
  5
370
100
AcDbEntity
  8
0
100
AcDbLine
 62
7
  6
CONTINUOUS
 10
377.6101008516
 20
485.5394487388
 11
398.0760333647
 21
485.5394487388
  0
LINE
  5
371
100
AcDbEntity
  8
0
100
AcDbLine
 62
7
  6
CONTINUOUS
 10
145.7214153495
 20
486.0394487388
 11
166.5760333647
 21
486.0394487388
  0
LINE
  5
372
100
AcDbEntity
  8
0
100
AcDbLine
 62
7
  6
CONTINUOUS
 10
182.5760333647
 20
486.0394487388
 11
235.7284245644
 21
486.0394487388
  0
LINE
  5
373
100
AcDbEntity
  8
0
100
AcDbLine
 62
7
  6
CONTINUOUS
 10
285.423642165
 20
486.0394487388
 11
287.4578555533
 21
486.0394487388
  0
LINE
  5
374
100
AcDbEntity
  8
0
100
AcDbLine
 62
7
  6
CONTINUOUS
 10
319.6940684787
 20
486.0394487388
 11
375.4306513798
 21
486.0394487388
  0
LINE
  5
375
100
AcDbEntity
  8
0
100
AcDbLine
 62
7
  6
CONTINUOUS
 10
166.5760333647
 20
486.0657827777
 11
170.5760333647
 21
486.0657827777
  0
LINE
  5
376
100
AcDbEntity
  8
0
100
AcDbLine
 62
7
  6
CONTINUOUS
 10
178.5760333647
 20
486.0657827777
 11
182.5760333647
 21
486.0657827777
  0
LINE
  5
377
100
AcDbEntity
  8
0
100
AcDbLine
 62
7
  6
CONTINUOUS
 10
316.4260333647
 20
486.8394487388
 11
309.0760333647
 21
486.8394487388
  0
LINE
  5
378
100
AcDbEntity
  8
0
100
AcDbLine
 62
7
  6
CONTINUOUS
 10
307.2760333647
 20
486.8394487388
 11
300.0760333647
 21
486.8394487388
  0
LINE
  5
379
100
AcDbEntity
  8
0
100
AcDbLine
 62
7
  6
CONTINUOUS
 10
298.8760333647
 20
486.8394487388
 11
291.0760333647
 21
486.8394487388
  0
LINE
  5
37A
100
AcDbEntity
  8
RUNDUNGEN
100
AcDbLine
 62
7
  6
CONTINUOUS
 10
290.5760031312
 20
487.5394487388
 11
316.5759763333
 21
487.5394487388
  0
LINE
  5
37B
100
AcDbEntity
  8
0
100
AcDbLine
 62
7
  6
CONTINUOUS
 10
178.5760333647
 20
488.8172417372
 11
170.5760333647
 21
488.8172417372
  0
LINE
  5
37C
100
AcDbEntity
  8
BEZUGSACHSEN
100
AcDbLine
 62
7
  6
CONTINUOUS
 10
261.5760333647
 20
489.0394487388
 11
259.5760333647
 21
489.0394487388
  0
LINE
  5
37D
100
AcDbEntity
  8
0
100
AcDbLine
 62
7
  6
CONTINUOUS
 10
170.5760333647
 20
489.5475153539
 11
178.5760333647
 21
489.5475153539
  0
LINE
  5
37E
100
AcDbEntity
  8
0
100
AcDbLine
 62
7
  6
CONTINUOUS
 10
166.5760333647
 20
485.4649755658
 11
167.5818506594
 21
485.4402390523
  0
LINE
  5
37F
100
AcDbEntity
  8
0
100
AcDbLine
 62
7
  6
CONTINUOUS
 10
236.412464851
 20
485.9188339803
 11
237.1234309103
 21
485.6600634972
  0
LINE
  5
380
100
AcDbEntity
  8
BEZUGSACHSEN
100
AcDbLine
 62
7
  6
CONTINUOUS
 10
251.5760333647
 20
497.0394487388
 11
251.5760333647
 21
513.0394487388
  0
LINE
  5
381
100
AcDbEntity
  8
0
100
AcDbLine
 62
7
  6
CONTINUOUS
 10
253.5760333647
 20
474.0395218595
 11
253.5760333647
 21
485.0811502097
  0
LINE
  5
382
100
AcDbEntity
  8
0
100
AcDbLine
 62
7
  6
CONTINUOUS
 10
253.5760333647
 20
524.9977472235
 11
253.5760333647
 21
536.0393756181
  0
LINE
  5
383
100
AcDbEntity
  8
RUNDUNGEN
100
AcDbLine
 62
7
  6
CONTINUOUS
 10
366.7892101563
 20
518.1469947816
 11
366.4433356093
 21
518.0726427037
  0
LINE
  5
384
100
AcDbEntity
  8
RUNDUNGEN
100
AcDbLine
 62
7
  6
CONTINUOUS
 10
366.4540963398
 20
518.0745911892
 11
366.1087255314
 21
518.0237328815
  0
LINE
  5
385
100
AcDbEntity
  8
BEZUGSACHSEN
100
AcDbLine
 62
7
  6
CONTINUOUS
 10
58.5760333647
 20
493.1394487388
 11
29.3132828969
 21
493.1394487388
  0
LINE
  5
386
100
AcDbEntity
  8
BEZUGSACHSEN
100
AcDbLine
 62
7
  6
CONTINUOUS
 10
462.5760333647
 20
493.1394487388
 11
491.8387838324
 21
493.1394487388
  0
LINE
  5
387
100
AcDbEntity
  8
0
100
AcDbLine
 62
7
  6
CONTINUOUS
 10
123.0760333647
 20
495.0394487388
 11
103.0760333647
 21
495.0394487388
  0
LINE
  5
388
100
AcDbEntity
  8
0
100
AcDbLine
 62
7
  6
CONTINUOUS
 10
96.0760333647
 20
495.0394487388
 11
61.3692573244
 21
495.0394487388
  0
LINE
  5
389
100
AcDbEntity
  8
0
100
AcDbLine
 62
7
  6
CONTINUOUS
 10
399.0760333647
 20
495.0394487388
 11
459.7828106717
 21
495.0394487388
  0
LINE
  5
38A
100
AcDbEntity
  8
0
100
AcDbLine
 62
7
  6
CONTINUOUS
 10
267.5760333647
 20
536.0393756181
 11
267.5760333647
 21
524.9977472235
  0
LINE
  5
38B
100
AcDbEntity
  8
0
100
AcDbLine
 62
7
  6
CONTINUOUS
 10
267.5760333647
 20
485.0811502097
 11
267.5760333647
 21
474.0395218595
  0
LINE
  5
38C
100
AcDbEntity
  8
RUNDUNGEN
100
AcDbLine
 62
7
  6
CONTINUOUS
 10
269.5760333647
 20
497.0394487388
 11
269.5760333647
 21
513.0394487388
  0
LINE
  5
38D
100
AcDbEntity
  8
RUNDUNGEN
100
AcDbLine
 62
7
  6
CONTINUOUS
 10
278.5760333647
 20
531.0394130883
 11
278.5760333647
 21
479.0394847294
  0
LINE
  5
38E
100
AcDbEntity
  8
RUNDUNGEN
100
AcDbLine
 62
7
  6
CONTINUOUS
 10
366.1194805782
 20
518.0249509511
 11
365.7811173752
 21
517.9984671599
  0
LINE
  5
38F
100
AcDbEntity
  8
RUNDUNGEN
100
AcDbLine
 62
7
  6
CONTINUOUS
 10
365.7877066986
 20
517.9986140266
 11
365.5760333639
 21
517.9938961276
  0
LINE
  5
390
100
AcDbEntity
  8
0
100
AcDbLine
 62
7
  6
CONTINUOUS
 10
123.0760333647
 20
510.0394487388
 11
103.0760333647
 21
510.0394487388
  0
LINE
  5
391
100
AcDbEntity
  8
0
100
AcDbLine
 62
7
  6
CONTINUOUS
 10
96.0760333647
 20
510.0394487388
 11
63.7588681447
 21
510.0394487388
  0
LINE
  5
392
100
AcDbEntity
  8
0
100
AcDbLine
 62
7
  6
CONTINUOUS
 10
123.0760333647
 20
513.6997027766
 11
103.0760333647
 21
513.6997027766
  0
LINE
  5
393
100
AcDbEntity
  8
0
100
AcDbLine
 62
7
  6
CONTINUOUS
 10
96.0760333647
 20
513.6997027766
 11
68.5760333647
 21
513.6997027766
  0
LINE
  5
394
100
AcDbEntity
  8
0
100
AcDbLine
 62
7
  6
CONTINUOUS
 10
123.0760333647
 20
515.0394487388
 11
103.0760333647
 21
515.0394487388
  0
LINE
  5
395
100
AcDbEntity
  8
0
100
AcDbLine
 62
7
  6
CONTINUOUS
 10
96.0760333647
 20
515.0394487388
 11
61.3692573241
 21
515.0394487388
  0
LINE
  5
396
100
AcDbEntity
  8
0
100
AcDbLine
 62
7
  6
CONTINUOUS
 10
399.0760333647
 20
515.0394487388
 11
459.782810672
 21
515.0394487388
  0
LINE
  5
397
100
AcDbEntity
  8
BEZUGSACHSEN
100
AcDbLine
 62
7
  6
CONTINUOUS
 10
58.5760333647
 20
516.9394487388
 11
29.3132828969
 21
516.9394487388
  0
LINE
  5
398
100
AcDbEntity
  8
RUNDUNGEN
100
AcDbLine
 62
7
  6
CONTINUOUS
 10
462.5760333647
 20
516.9394487388
 11
491.8387838324
 21
516.9394487388
  0
LINE
  5
399
100
AcDbEntity
  8
RUNDUNGEN
100
AcDbLine
 62
7
  6
CONTINUOUS
 10
365.5760333647
 20
517.9938998889
 11
285.4236445149
 21
517.9938998889
  0
LINE
  5
39A
100
AcDbEntity
  8
RUNDUNGEN
100
AcDbLine
 62
7
  6
CONTINUOUS
 10
235.7284245644
 20
517.9938998889
 11
155.57603171
 21
517.9938998889
  0
LINE
  5
39B
100
AcDbEntity
  8
RUNDUNGEN
100
AcDbLine
 62
7
  6
CONTINUOUS
 10
283.3445955324
 20
518.7548232526
 11
282.5760341233
 21
518.7548232526
  0
LINE
  5
39C
100
AcDbEntity
  8
RUNDUNGEN
100
AcDbLine
 62
7
  6
CONTINUOUS
 10
238.5760333647
 20
518.7548232526
 11
237.8074711969
 21
518.7548232526
  0
LINE
  5
39D
100
AcDbEntity
  8
BEZUGSACHSEN
100
AcDbLine
 62
7
  6
CONTINUOUS
 10
259.5760333647
 20
521.0394487388
 11
261.5760333647
 21
521.0394487388
  0
LINE
  5
39E
100
AcDbEntity
  8
RUNDUNGEN
100
AcDbLine
 62
7
  6
CONTINUOUS
 10
147.6038538428
 20
523.0672265165
 11
145.7214153833
 21
523.0672265165
  0
LINE
  5
39F
100
AcDbEntity
  8
RUNDUNGEN
100
AcDbLine
 62
7
  6
CONTINUOUS
 10
282.5760341276
 20
518.7548202464
 11
282.3802727052
 21
518.7584990435
  0
LWPOLYLINE
  5
3A0
100
AcDbEntity
  8
RUNDUNGEN
100
AcDbPolyline
 62
7
  6
CONTINUOUS
 90
25
 70
0
 10
155.5760317054
 20
517.9938961067
 10
155.3953678826
 20
517.9973317362
 10
155.0842701615
 20
518.0193405462
 10
154.7716906564
 20
518.0616861453
 10
154.459028878
 20
518.1239397258
 10
154.1482108015
 20
518.2049198485
 10
153.8392557036
 20
518.3036796114
 10
153.5330267423
 20
518.4189205258
 10
153.2289373124
 20
518.5498228439
 10
152.926488595
 20
518.6958733644
 10
152.6262888658
 20
518.8560194868
 10
152.3276101703
 20
519.0301177897
 10
152.0343610634
 20
519.2152920586
 10
151.7485580036
 20
519.4093975068
 10
151.4736282182
 20
519.6090920348
 10
151.2122041696
 20
519.8112776511
 10
150.9665501067
 20
520.0129048046
 10
150.7385084198
 20
520.2110663417
 10
150.5298279407
 20
520.4028088158
 10
150.3419279895
 20
520.5852953229
 10
150.1751986241
 20
520.7565038021
 10
150.030280959
 20
520.9140424476
 10
149.9059455095
 20
521.0574702153
 10
149.801310427
 20
521.1859994034
 10
149.7154312802
 20
521.2988725874
  0
LINE
  5
3A1
100
AcDbEntity
  8
RUNDUNGEN
100
AcDbLine
 62
7
  6
CONTINUOUS
 10
282.3761778124
 20
518.7587841942
 11
282.3693083356
 21
518.7589204082
  0
LWPOLYLINE
  5
3A2
100
AcDbEntity
  8
RUNDUNGEN
100
AcDbPolyline
 62
7
  6
CONTINUOUS
 90
8
 70
0
 10
145.7214153839
 20
523.0672253545
 10
145.4671371071
 20
523.0732032132
 10
145.0706950634
 20
523.1066022918
 10
144.6842088754
 20
523.1682947948
 10
144.3096615603
 20
523.2572698271
 10
143.9485755458
 20
523.3727066607
 10
143.603325195
 20
523.5135521237
 10
143.2755659891
 20
523.6788226944
  0
LWPOLYLINE
  5
3A3
100
AcDbEntity
  8
RUNDUNGEN
100
AcDbPolyline
 62
7
  6
CONTINUOUS
 90
9
 70
0
 10
285.4236445203
 20
517.9938998397
 10
285.3770371734
 20
517.9957665794
 10
285.3236793375
 20
518.0024189857
 10
285.27002245
 20
518.0136561921
 10
285.2151396012
 20
518.0295102314
 10
285.1602416168
 20
518.0494142266
 10
285.1047584425
 20
518.0733345154
 10
285.0483344597
 20
518.1013576059
 10
285.0249053507
 20
518.1140425112
  0
LINE
  5
3A4
100
AcDbEntity
  8
RUNDUNGEN
100
AcDbLine
 62
7
  6
CONTINUOUS
 10
282.3802727052
 20
518.7584990435
 11
282.0335382996
 21
518.7830063457
  0
LINE
  5
3A5
100
AcDbEntity
  8
RUNDUNGEN
100
AcDbLine
 62
7
  6
CONTINUOUS
 10
282.0444696895
 20
518.7818829156
 11
281.68961335
 21
518.8298158601
  0
LINE
  5
3A6
100
AcDbEntity
  8
RUNDUNGEN
100
AcDbLine
 62
7
  6
CONTINUOUS
 10
281.7003162128
 20
518.8280259832
 11
281.3415548994
 21
518.8995479726
  0
LINE
  5
3A7
100
AcDbEntity
  8
0
100
AcDbLine
 62
7
  6
CONTINUOUS
 10
291.0760333647
 20
487.5394487388
 11
291.0760333647
 21
486.8394487388
  0
LINE
  5
3A8
100
AcDbEntity
  8
RUNDUNGEN
100
AcDbLine
 62
7
  6
CONTINUOUS
 10
368.0875279438
 20
518.6272799873
 11
367.7631965162
 21
518.4789507442
  0
LINE
  5
3A9
100
AcDbEntity
  8
RUNDUNGEN
100
AcDbLine
 62
7
  6
CONTINUOUS
 10
367.7733838909
 20
518.4833381583
 11
367.4412594368
 21
518.3499607082
  0
LINE
  5
3AA
100
AcDbEntity
  8
0
100
AcDbLine
 62
7
  6
CONTINUOUS
 10
284.0286358191
 20
485.6600634972
 11
284.7396018784
 21
485.9188339803
  0
LINE
  5
3AB
100
AcDbEntity
  8
RUNDUNGEN
100
AcDbLine
 62
7
  6
CONTINUOUS
 10
367.4516106939
 20
518.3538151967
 11
367.1120416722
 21
518.2374551183
  0
LINE
  5
3AC
100
AcDbEntity
  8
0
100
AcDbLine
 62
7
  6
CONTINUOUS
 10
373.5760333647
 20
524.0394487388
 11
375.4306513798
 21
524.0394487388
  0
LINE
  5
3AD
100
AcDbEntity
  8
0
100
AcDbLine
 62
7
  6
CONTINUOUS
 10
377.6101008516
 20
524.5394487388
 11
398.0760333647
 21
524.5394487388
  0
LINE
  5
3AE
100
AcDbEntity
  8
BEZUGSACHSEN
100
AcDbLine
 62
7
  6
CONTINUOUS
 10
254.5760333647
 20
525.0394487388
 11
266.5760333647
 21
525.0394487388
  0
LINE
  5
3AF
100
AcDbEntity
  8
RUNDUNGEN
100
AcDbLine
 62
7
  6
CONTINUOUS
 10
127.5760333647
 20
528.0416773926
 11
136.9994532601
 21
528.0416773926
  0
LINE
  5
3B0
100
AcDbEntity
  8
0
100
AcDbLine
 62
7
  6
CONTINUOUS
 10
124.0760333647
 20
529.0394487388
 11
127.5760333647
 21
529.0394487388
  0
LINE
  5
3B1
100
AcDbEntity
  8
RUNDUNGEN
100
AcDbLine
 62
7
  6
CONTINUOUS
 10
98.0760333647
 20
531.0394487388
 11
102.5760333647
 21
531.0394487388
  0
LINE
  5
3B2
100
AcDbEntity
  8
BEZUGSACHSEN
100
AcDbLine
 62
7
  6
CONTINUOUS
 10
98.0760333647
 20
531.0394487388
 11
102.5760333647
 21
531.0394487388
  0
LINE
  5
3B3
100
AcDbEntity
  8
0
100
AcDbLine
 62
7
  6
CONTINUOUS
 10
253.5760333647
 20
534.5394487388
 11
267.5760333647
 21
534.5394487388
  0
LINE
  5
3B4
100
AcDbEntity
  8
0
100
AcDbLine
 62
7
  6
CONTINUOUS
 10
247.5760333647
 20
536.0394487388
 11
253.5760333647
 21
536.0394487388
  0
LINE
  5
3B5
100
AcDbEntity
  8
0
100
AcDbLine
 62
7
  6
CONTINUOUS
 10
267.5760333647
 20
536.0394487388
 11
273.5760333647
 21
536.0394487388
  0
LINE
  5
3B6
100
AcDbEntity
  8
RUNDUNGEN
100
AcDbLine
 62
7
  6
CONTINUOUS
 10
281.3519124678
 20
518.8971534878
 11
280.9929245468
 21
518.9913683556
  0
LINE
  5
3B7
100
AcDbEntity
  8
RUNDUNGEN
100
AcDbLine
 62
7
  6
CONTINUOUS
 10
281.0028438611
 20
518.9884561032
 11
280.6472162681
 21
519.1034891977
  0
LINE
  5
3B8
100
AcDbEntity
  8
RUNDUNGEN
100
AcDbLine
 62
7
  6
CONTINUOUS
 10
280.6566493907
 20
519.1001568087
 11
280.3085314813
 21
519.2330692902
  0
LINE
  5
3B9
100
AcDbEntity
  8
RUNDUNGEN
100
AcDbLine
 62
7
  6
CONTINUOUS
 10
280.3175045111
 20
519.2293904405
 11
279.977903057
 21
519.3778994017
  0
LINE
  5
3BA
100
AcDbEntity
  8
RUNDUNGEN
100
AcDbLine
 62
7
  6
CONTINUOUS
 10
279.9864251542
 20
519.3739425683
 11
279.6568822576
 21
519.5354680048
  0
LINE
  5
3BB
100
AcDbEntity
  8
RUNDUNGEN
100
AcDbLine
 62
7
  6
CONTINUOUS
 10
279.6649678409
 20
519.5312956751
 11
279.3462717617
 21
519.7035919901
  0
LINE
  5
3BC
100
AcDbEntity
  8
RUNDUNGEN
100
AcDbLine
 62
7
  6
CONTINUOUS
 10
284.6798998862
 20
518.3043170792
 11
284.2999032555
 21
518.5119194902
  0
LINE
  5
3BD
100
AcDbEntity
  8
RUNDUNGEN
100
AcDbLine
 62
7
  6
CONTINUOUS
 10
285.0248973452
 20
518.1140382204
 11
284.6740549604
 21
518.3075190422
  0
LINE
  5
3BE
100
AcDbEntity
  8
RUNDUNGEN
100
AcDbLine
 62
7
  6
CONTINUOUS
 10
279.3539404605
 20
519.6992564024
 11
279.0465527008
 21
519.8803659968
  0
LINE
  5
3BF
100
AcDbEntity
  8
RUNDUNGEN
100
AcDbLine
 62
7
  6
CONTINUOUS
 10
279.0538252304
 20
519.8759072441
 11
278.7589366125
 21
520.063544436
  0
LINE
  5
3C0
100
AcDbEntity
  8
RUNDUNGEN
100
AcDbLine
 62
7
  6
CONTINUOUS
 10
278.7658301686
 20
520.0589969146
 11
278.5760333647
 21
520.1884197254
  0
LINE
  5
3C1
100
AcDbEntity
  8
0
100
AcDbLine
 62
7
  6
CONTINUOUS
 10
298.2760333647
 20
487.5394487388
 11
298.2760333647
 21
486.8394487388
  0
LINE
  5
3C2
100
AcDbEntity
  8
0
100
AcDbLine
 62
7
  6
CONTINUOUS
 10
298.8760333647
 20
487.5394487388
 11
298.8760333647
 21
486.8394487388
  0
LINE
  5
3C3
100
AcDbEntity
  8
0
100
AcDbLine
 62
7
  6
CONTINUOUS
 10
300.0760333647
 20
487.5394487388
 11
300.0760333647
 21
486.8394487388
  0
LINE
  5
3C4
100
AcDbEntity
  8
0
100
AcDbLine
 62
7
  6
CONTINUOUS
 10
301.8760333647
 20
487.5394487388
 11
301.8760333647
 21
486.8394487388
  0
LINE
  5
3C5
100
AcDbEntity
  8
0
100
AcDbLine
 62
7
  6
CONTINUOUS
 10
305.4760333647
 20
487.5394487388
 11
305.4760333647
 21
486.8394487388
  0
LINE
  5
3C6
100
AcDbEntity
  8
0
100
AcDbLine
 62
7
  6
CONTINUOUS
 10
307.2760333647
 20
487.5394487388
 11
307.2760333647
 21
486.8394487388
  0
LINE
  5
3C7
100
AcDbEntity
  8
0
100
AcDbLine
 62
7
  6
CONTINUOUS
 10
309.0760333647
 20
487.5394487388
 11
309.0760333647
 21
486.8394487388
  0
LINE
  5
3C8
100
AcDbEntity
  8
RUNDUNGEN
100
AcDbLine
 62
7
  6
CONTINUOUS
 10
369.2596131052
 20
519.309975037
 11
368.9701485068
 21
519.1203565065
  0
LINE
  5
3C9
100
AcDbEntity
  8
RUNDUNGEN
100
AcDbLine
 62
7
  6
CONTINUOUS
 10
368.9796687087
 20
519.1263720622
 11
368.6809171339
 21
518.9446162988
  0
LINE
  5
3CA
100
AcDbEntity
  8
RUNDUNGEN
100
AcDbLine
 62
7
  6
CONTINUOUS
 10
368.690634566
 20
518.9502990836
 11
368.3834240349
 21
518.7782129207
  0
LINE
  5
3CB
100
AcDbEntity
  8
RUNDUNGEN
100
AcDbLine
 62
7
  6
CONTINUOUS
 10
368.3932994095
 20
518.7835033178
 11
368.0774922083
 21
518.6224257514
  0
LINE
  5
3CC
100
AcDbEntity
  8
0
100
AcDbLine
 62
7
  6
CONTINUOUS
 10
316.4260333647
 20
487.5394487388
 11
316.4260333647
 21
486.8394487388
  0
LINE
  5
3CD
100
AcDbEntity
  8
RUNDUNGEN
100
AcDbLine
 62
7
  6
CONTINUOUS
 10
370.7053952002
 20
520.4823248986
 11
370.4925206151
 21
520.2823719104
  0
LINE
  5
3CE
100
AcDbEntity
  8
RUNDUNGEN
100
AcDbLine
 62
7
  6
CONTINUOUS
 10
370.4999659118
 20
520.2891727004
 11
370.2691140146
 21
520.0842590574
  0
LINE
  5
3CF
100
AcDbEntity
  8
RUNDUNGEN
100
AcDbLine
 62
7
  6
CONTINUOUS
 10
370.2770462979
 20
520.0911070127
 11
370.0316951506
 21
519.8852886821
  0
LINE
  5
3D0
100
AcDbEntity
  8
RUNDUNGEN
100
AcDbLine
 62
7
  6
CONTINUOUS
 10
370.040055957
 20
519.8921041783
 11
369.7814585577
 21
519.6872997434
  0
LINE
  5
3D1
100
AcDbEntity
  8
RUNDUNGEN
100
AcDbLine
 62
7
  6
CONTINUOUS
 10
369.7901829927
 20
519.6940095495
 11
369.5209935579
 21
519.4931484103
  0
LINE
  5
3D2
100
AcDbEntity
  8
RUNDUNGEN
100
AcDbLine
 62
7
  6
CONTINUOUS
 10
369.5300201234
 20
519.4996821001
 11
369.2503287543
 21
519.3036787033
  0
LINE
  5
3D3
100
AcDbEntity
  8
RUNDUNGEN
100
AcDbLine
 62
7
  6
CONTINUOUS
 10
371.4866514322
 20
521.3689258721
 11
371.4110729311
 21
521.264417874
  0
LINE
  5
3D4
100
AcDbEntity
  8
RUNDUNGEN
100
AcDbLine
 62
7
  6
CONTINUOUS
 10
371.4110729311
 20
521.264417874
 11
371.3110961193
 21
521.1362884833
  0
LINE
  5
3D5
100
AcDbEntity
  8
RUNDUNGEN
100
AcDbLine
 62
7
  6
CONTINUOUS
 10
371.3152247256
 20
521.1414020194
 11
371.1918567922
 21
520.9937948913
  0
LINE
  5
3D6
100
AcDbEntity
  8
RUNDUNGEN
100
AcDbLine
 62
7
  6
CONTINUOUS
 10
371.1967213875
 20
520.9994296152
 11
371.0499135324
 21
520.8347677398
  0
LWPOLYLINE
  5
3D7
100
AcDbEntity
  8
RUNDUNGEN
100
AcDbPolyline
 62
7
  6
CONTINUOUS
 90
3
 70
0
 10
371.0555099
 20
520.8408576504
 10
370.8849522438
 20
520.6609323642
 10
370.6985007016
 20
520.475661786
  0
LINE
  5
3D8
100
AcDbEntity
  8
RUNDUNGEN
100
AcDbLine
 62
7
  6
CONTINUOUS
 10
370.891223352
 20
520.6673576743
 11
370.7053952002
 21
520.4823248986
  0
LWPOLYLINE
  5
3D9
100
AcDbEntity
  8
RUNDUNGEN
100
AcDbPolyline
 62
7
  6
CONTINUOUS
 90
4
 70
0
 10
371.6208180928
 20
521.5916345651
 10
371.6198264051
 20
521.5893529746
 10
371.6086876269
 20
521.5662832454
 10
371.5839201017
 20
521.52087812
  0
LINE
  5
3DA
100
AcDbEntity
  8
RUNDUNGEN
100
AcDbLine
 62
7
  6
CONTINUOUS
 10
371.5839201017
 20
521.52087812
 11
371.5416932014
 21
521.4514451838
  0
LINE
  5
3DB
100
AcDbEntity
  8
RUNDUNGEN
100
AcDbLine
 62
7
  6
CONTINUOUS
 10
371.5438313639
 20
521.4548016148
 11
371.4838606888
 21
521.3649114415
  0
LINE
  5
3DC
100
AcDbEntity
  8
RUNDUNGEN
100
AcDbLine
 62
7
  6
CONTINUOUS
 10
371.5760333647
 20
522.0393668468
 11
371.5760333647
 21
521.5078787579
  0
LINE
  5
3DD
100
AcDbEntity
  8
0
100
AcDbLine
 62
7
  6
CONTINUOUS
 10
377.6101008516
 20
524.5394487388
 11
377.6101008516
 21
485.5394487388
  0
LINE
  5
3DE
100
AcDbEntity
  8
RUNDUNGEN
100
AcDbLine
 62
7
  6
CONTINUOUS
 10
399.0760333647
 20
486.5394487388
 11
399.0760333647
 21
523.5394487388
  0
LINE
  5
3DF
100
AcDbEntity
  8
BEZUGSACHSEN
100
AcDbLine
 62
7
  6
CONTINUOUS
 10
493.1368906649
 20
493.6179630663
 11
496.715620943
 21
496.67127754
  0
LINE
  5
3E0
100
AcDbEntity
  8
RUNDUNGEN
100
AcDbLine
 62
7
  6
CONTINUOUS
 10
493.1368906649
 20
516.4609344112
 11
496.715620943
 21
513.4076199375
  0
LINE
  5
3E1
100
AcDbEntity
  8
BEZUGSACHSEN
100
AcDbLine
 62
7
  6
CONTINUOUS
 10
460.5760333647
 20
495.1394487388
 11
460.5760333647
 21
514.9394487388
  0
LINE
  5
3E2
100
AcDbEntity
  8
BEZUGSACHSEN
100
AcDbLine
 62
7
  6
CONTINUOUS
 10
713.3358530948
 20
319.7512675273
 11
713.3359325865
 21
319.7513462871
  0
LINE
  5
3E3
100
AcDbEntity
  8
0
100
AcDbLine
 62
7
  6
CONTINUOUS
 10
671.5174070215
 20
277.4912069913
 11
671.5174070215
 21
312.0409198997
  0
LINE
  5
3E4
100
AcDbEntity
  8
BEZUGSACHSEN
100
AcDbLine
 62
7
  6
CONTINUOUS
 10
675.5174070215
 20
245.5547344233
 11
675.5174070215
 21
37.7729707073
  0
LINE
  5
3E5
100
AcDbEntity
  8
BEZUGSACHSEN
100
AcDbLine
 62
7
  6
CONTINUOUS
 10
679.6174070215
 20
322.7729707073
 11
679.6174070215
 21
360.7729707073
  0
LINE
  5
3E6
100
AcDbEntity
  8
BEZUGSACHSEN
100
AcDbLine
 62
7
  6
CONTINUOUS
 10
686.0174070215
 20
336.7229707073
 11
686.0174070215
 21
346.8229707073
  0
LINE
  5
3E7
100
AcDbEntity
  8
BEZUGSACHSEN
100
AcDbLine
 62
7
  6
CONTINUOUS
 10
675.4273149688
 20
246.9599226095
 11
671.6108021849
 21
276.0608325865
  0
LINE
  5
3E8
100
AcDbEntity
  8
RUNDUNGEN
100
AcDbLine
 62
7
  6
CONTINUOUS
 10
671.6332073063
 20
275.8899935358
 11
671.6108021849
 21
276.0608325865
  0
LINE
  5
3E9
100
AcDbEntity
  8
BEZUGSACHSEN
100
AcDbLine
 62
7
  6
CONTINUOUS
 10
697.0174070215
 20
336.7229707073
 11
697.0174070215
 21
346.8229707073
  0
LINE
  5
3EA
100
AcDbEntity
  8
BEZUGSACHSEN
100
AcDbLine
 62
7
  6
CONTINUOUS
 10
703.4174070215
 20
322.7729707073
 11
703.4174070215
 21
348.8229707073
  0
LINE
  5
3EB
100
AcDbEntity
  8
RUNDUNGEN
100
AcDbLine
 62
7
  6
CONTINUOUS
 10
703.4174070215
 20
331.7729707073
 11
703.4174070215
 21
334.7229704146
  0
LINE
  5
3EC
100
AcDbEntity
  8
RUNDUNGEN
100
AcDbLine
 62
7
  6
CONTINUOUS
 10
703.4174070215
 20
348.8229709999
 11
703.4174070215
 21
360.7729707073
  0
LINE
  5
3ED
100
AcDbEntity
  8
RUNDUNGEN
100
AcDbLine
 62
7
  6
CONTINUOUS
 10
711.4240118581
 20
276.0608325865
 11
711.4016025867
 21
275.8899618914
  0
LINE
  5
3EE
100
AcDbEntity
  8
BEZUGSACHSEN
100
AcDbLine
 62
7
  6
CONTINUOUS
 10
711.4240118581
 20
276.0608325865
 11
707.6074989346
 21
246.9599215447
  0
LINE
  5
3EF
100
AcDbEntity
  8
BEZUGSACHSEN
100
AcDbLine
 62
7
  6
CONTINUOUS
 10
707.5174070215
 20
245.5547344233
 11
707.5174070215
 21
37.7729707073
  0
LINE
  5
3F0
100
AcDbEntity
  8
0
100
AcDbLine
 62
7
  6
CONTINUOUS
 10
711.5174070215
 20
277.4912069913
 11
711.5174070215
 21
312.0409198997
  0
LINE
  5
3F1
100
AcDbEntity
  8
BEZUGSACHSEN
100
AcDbLine
 62
7
  6
CONTINUOUS
 10
669.6989609364
 20
319.751267539
 11
669.6988779095
 21
319.7513498015
  0
LINE
  5
3F2
100
AcDbEntity
  8
BEZUGSACHSEN
100
AcDbLine
 62
7
  6
CONTINUOUS
 10
701.4174070215
 20
320.7729707073
 11
681.6174070215
 21
320.7729707073
  0
LINE
  5
3F3
100
AcDbEntity
  8
BEZUGSACHSEN
100
AcDbLine
 62
7
  6
CONTINUOUS
 10
681.6174060317
 20
336.7229707073
 11
701.4174080113
 21
336.7229707073
  0
LINE
  5
3F4
100
AcDbEntity
  8
RUNDUNGEN
100
AcDbLine
 62
7
  6
CONTINUOUS
 10
701.4174080113
 20
346.8229707073
 11
685.057226742
 21
346.8229707073
  0
LINE
  5
3F5
100
AcDbEntity
  8
BEZUGSACHSEN
100
AcDbLine
 62
7
  6
CONTINUOUS
 10
681.6174060317
 20
346.8229707073
 11
697.977587301
 21
346.8229707073
  0
LINE
  5
3F6
100
AcDbEntity
  8
BEZUGSACHSEN
100
AcDbLine
 62
7
  6
CONTINUOUS
 10
681.6174070215
 20
362.7729707073
 11
693.5757587543
 21
362.7729707073
  0
LINE
  5
3F7
100
AcDbEntity
  8
RUNDUNGEN
100
AcDbLine
 62
7
  6
CONTINUOUS
 10
693.5757587543
 20
362.7729707073
 11
701.4174070215
 21
362.7729707073
  0
LINE
  5
3F8
100
AcDbEntity
  8
BEZUGSACHSEN
100
AcDbLine
 62
7
  6
CONTINUOUS
 10
785.5138316646
 20
361.2729707073
 11
782.6478062608
 21
356.3088690921
  0
LINE
  5
3F9
100
AcDbEntity
  8
0
100
AcDbLine
 62
7
  6
CONTINUOUS
 10
799.3699612124
 20
357.2516941737
 11
799.2751695684
 21
356.9538218687
  0
LINE
  5
3FA
100
AcDbEntity
  8
0
100
AcDbLine
 62
7
  6
CONTINUOUS
 10
799.5595445684
 20
356.8793535839
 11
799.6543362124
 21
357.1027580212
  0
LINE
  5
3FB
100
AcDbEntity
  8
0
100
AcDbLine
 62
7
  6
CONTINUOUS
 10
806.1475652209
 20
356.8793535839
 11
806.2423570684
 21
357.1027580212
  0
LINE
  5
3FC
100
AcDbEntity
  8
0
100
AcDbLine
 62
7
  6
CONTINUOUS
 10
809.4178782633
 20
355.1665877263
 11
809.3230858734
 21
354.9431834976
  0
LINE
  5
3FD
100
AcDbEntity
  8
0
100
AcDbLine
 62
7
  6
CONTINUOUS
 10
811.6928782633
 20
356.1346728216
 11
811.8350657633
 21
356.4325451265
  0
LINE
  5
3FE
100
AcDbEntity
  8
0
100
AcDbLine
 62
7
  6
CONTINUOUS
 10
814.7262108734
 20
355.389991955
 11
814.8683983734
 21
355.6878643642
  0
LINE
  5
3FF
100
AcDbEntity
  8
0
100
AcDbLine
 62
7
  6
CONTINUOUS
 10
799.5595445684
 20
357.5495664786
 11
799.3699612124
 21
357.2516941737
  0
LINE
  5
400
100
AcDbEntity
  8
0
100
AcDbLine
 62
7
  6
CONTINUOUS
 10
800.8392320684
 20
354.496374962
 11
801.0288154921
 21
354.794247293
  0
LINE
  5
401
100
AcDbEntity
  8
0
100
AcDbLine
 62
7
  6
CONTINUOUS
 10
806.1475652209
 20
357.5495664786
 11
805.9579820684
 21
357.2516941737
  0
LINE
  5
402
100
AcDbEntity
  8
0
100
AcDbLine
 62
7
  6
CONTINUOUS
 10
807.4272527209
 20
354.496374962
 11
807.6168364158
 21
354.794247293
  0
LINE
  5
403
100
AcDbEntity
  8
0
100
AcDbLine
 62
7
  6
CONTINUOUS
 10
809.4178782633
 20
354.496374962
 11
809.6074608734
 21
354.794247293
  0
LINE
  5
404
100
AcDbEntity
  8
0
100
AcDbLine
 62
7
  6
CONTINUOUS
 10
811.5506907633
 20
356.5070132028
 11
811.4558983734
 21
356.3580770503
  0
LINE
  5
405
100
AcDbEntity
  8
0
100
AcDbLine
 62
7
  6
CONTINUOUS
 10
814.7736070684
 20
357.4750984024
 11
814.6314195684
 21
357.2516941737
  0
LINE
  5
406
100
AcDbEntity
  8
0
100
AcDbLine
 62
7
  6
CONTINUOUS
 10
815.9111070684
 20
356.1346728216
 11
816.0532945684
 21
356.3580770503
  0
LINE
  5
407
100
AcDbEntity
  8
0
100
AcDbLine
 62
7
  6
CONTINUOUS
 10
815.9585032633
 20
354.5708430383
 11
816.1006907633
 21
354.794247293
  0
LINE
  5
408
100
AcDbEntity
  8
0
100
AcDbLine
 62
7
  6
CONTINUOUS
 10
814.8683983734
 20
357.1027580212
 11
815.0579820684
 21
357.3261622499
  0
LINE
  5
409
100
AcDbEntity
  8
0
100
AcDbLine
 62
7
  6
CONTINUOUS
 10
814.7736070684
 20
355.9857366692
 11
814.5840233734
 21
355.7623324405
  0
LINE
  5
40A
100
AcDbEntity
  8
0
100
AcDbLine
 62
7
  6
CONTINUOUS
 10
815.8163157633
 20
356.5070132028
 11
815.6267320684
 21
356.2836089741
  0
LINE
  5
40B
100
AcDbEntity
  8
0
100
AcDbLine
 62
7
  6
CONTINUOUS
 10
799.6543362124
 20
357.1027580212
 11
799.7965237802
 21
357.2516941737
  0
LINE
  5
40C
100
AcDbEntity
  8
0
100
AcDbLine
 62
7
  6
CONTINUOUS
 10
800.7444403565
 20
354.9431834976
 11
800.6022528565
 21
354.794247293
  0
LINE
  5
40D
100
AcDbEntity
  8
0
100
AcDbLine
 62
7
  6
CONTINUOUS
 10
806.2423570684
 20
357.1027580212
 11
806.3845445684
 21
357.2516941737
  0
LINE
  5
40E
100
AcDbEntity
  8
0
100
AcDbLine
 62
7
  6
CONTINUOUS
 10
807.3324614158
 20
354.9431834976
 11
807.1902739158
 21
354.794247293
  0
LINE
  5
40F
100
AcDbEntity
  8
0
100
AcDbLine
 62
7
  6
CONTINUOUS
 10
809.3230858734
 20
354.9431834976
 11
809.1808983734
 21
354.794247293
  0
LINE
  5
410
100
AcDbEntity
  8
0
100
AcDbLine
 62
7
  6
CONTINUOUS
 10
815.0105858734
 20
357.698502631
 11
814.7736070684
 21
357.4750984024
  0
LINE
  5
411
100
AcDbEntity
  8
0
100
AcDbLine
 62
7
  6
CONTINUOUS
 10
815.7215233734
 20
354.34743879
 11
815.9585032633
 21
354.5708430383
  0
LINE
  5
412
100
AcDbEntity
  8
0
100
AcDbLine
 62
7
  6
CONTINUOUS
 10
799.7491278565
 20
357.698502631
 11
799.5595445684
 21
357.5495664786
  0
LINE
  5
413
100
AcDbEntity
  8
0
100
AcDbLine
 62
7
  6
CONTINUOUS
 10
800.6496487802
 20
354.34743879
 11
800.8392320684
 21
354.496374962
  0
LINE
  5
414
100
AcDbEntity
  8
0
100
AcDbLine
 62
7
  6
CONTINUOUS
 10
806.3371489158
 20
357.698502631
 11
806.1475652209
 21
357.5495664786
  0
LINE
  5
415
100
AcDbEntity
  8
0
100
AcDbLine
 62
7
  6
CONTINUOUS
 10
807.2376695684
 20
354.34743879
 11
807.4272527209
 21
354.496374962
  0
LINE
  5
416
100
AcDbEntity
  8
0
100
AcDbLine
 62
7
  6
CONTINUOUS
 10
809.2282945684
 20
354.34743879
 11
809.4178782633
 21
354.496374962
  0
LINE
  5
417
100
AcDbEntity
  8
0
100
AcDbLine
 62
7
  6
CONTINUOUS
 10
811.5032945684
 20
355.9857366692
 11
811.6928782633
 21
356.1346728216
  0
LINE
  5
418
100
AcDbEntity
  8
0
100
AcDbLine
 62
7
  6
CONTINUOUS
 10
782.3798570684
 20
328.2370723224
 11
782.3798570684
 21
330.7758119833
  0
LINE
  5
419
100
AcDbEntity
  8
BEZUGSACHSEN
100
AcDbLine
 62
7
  6
CONTINUOUS
 10
782.3798570684
 20
352.7701294312
 11
782.3798570684
 21
355.3088690921
  0
LINE
  5
41A
100
AcDbEntity
  8
0
100
AcDbLine
 62
7
  6
CONTINUOUS
 10
799.2751695684
 20
356.9538218687
 11
799.2277737124
 21
356.581481279
  0
LINE
  5
41B
100
AcDbEntity
  8
0
100
AcDbLine
 62
7
  6
CONTINUOUS
 10
801.0288154921
 20
354.794247293
 11
801.0762111446
 21
355.1665877263
  0
LINE
  5
41C
100
AcDbEntity
  8
0
100
AcDbLine
 62
7
  6
CONTINUOUS
 10
799.5121487124
 20
356.581481279
 11
799.5595445684
 21
356.8793535839
  0
LINE
  5
41D
100
AcDbEntity
  8
0
100
AcDbLine
 62
7
  6
CONTINUOUS
 10
806.1001695684
 20
356.581481279
 11
806.1475652209
 21
356.8793535839
  0
LINE
  5
41E
100
AcDbEntity
  8
0
100
AcDbLine
 62
7
  6
CONTINUOUS
 10
800.7918362802
 20
355.1665877263
 11
800.7444403565
 21
354.9431834976
  0
LINE
  5
41F
100
AcDbEntity
  8
0
100
AcDbLine
 62
7
  6
CONTINUOUS
 10
807.3798570684
 20
355.1665877263
 11
807.3324614158
 21
354.9431834976
  0
LINE
  5
420
100
AcDbEntity
  8
0
100
AcDbLine
 62
7
  6
CONTINUOUS
 10
811.5980858734
 20
356.7304174314
 11
811.5506907633
 21
356.5070132028
  0
LINE
  5
421
100
AcDbEntity
  8
0
100
AcDbLine
 62
7
  6
CONTINUOUS
 10
811.8350657633
 20
356.4325451265
 11
811.8824608734
 21
356.6559493552
  0
LINE
  5
422
100
AcDbEntity
  8
0
100
AcDbLine
 62
7
  6
CONTINUOUS
 10
814.6314195684
 20
357.2516941737
 11
814.5366282633
 21
356.8793535839
  0
LINE
  5
423
100
AcDbEntity
  8
0
100
AcDbLine
 62
7
  6
CONTINUOUS
 10
814.5840233734
 20
355.7623324405
 11
814.4892320684
 21
355.389991955
  0
LINE
  5
424
100
AcDbEntity
  8
0
100
AcDbLine
 62
7
  6
CONTINUOUS
 10
816.1006907633
 20
354.794247293
 11
816.1954820684
 21
355.1665877263
  0
LINE
  5
425
100
AcDbEntity
  8
0
100
AcDbLine
 62
7
  6
CONTINUOUS
 10
805.9579820684
 20
357.2516941737
 11
805.8631902209
 21
356.9538218687
  0
LINE
  5
426
100
AcDbEntity
  8
0
100
AcDbLine
 62
7
  6
CONTINUOUS
 10
816.0532945684
 20
356.3580770503
 11
816.1480858734
 21
356.6559493552
  0
LINE
  5
427
100
AcDbEntity
  8
0
100
AcDbLine
 62
7
  6
CONTINUOUS
 10
809.6074608734
 20
354.794247293
 11
809.7022532633
 21
355.0921196501
  0
LINE
  5
428
100
AcDbEntity
  8
0
100
AcDbLine
 62
7
  6
CONTINUOUS
 10
814.7736070684
 20
356.8793535839
 11
814.8683983734
 21
357.1027580212
  0
LINE
  5
429
100
AcDbEntity
  8
0
100
AcDbLine
 62
7
  6
CONTINUOUS
 10
815.9111070684
 20
356.7304174314
 11
815.8163157633
 21
356.5070132028
  0
LINE
  5
42A
100
AcDbEntity
  8
0
100
AcDbLine
 62
7
  6
CONTINUOUS
 10
815.9585032633
 20
355.1665877263
 11
815.8163157633
 21
354.8687153693
  0
LINE
  5
42B
100
AcDbEntity
  8
0
100
AcDbLine
 62
7
  6
CONTINUOUS
 10
814.8683983734
 20
356.0602047454
 11
814.7736070684
 21
355.9857366692
  0
LINE
  5
42C
100
AcDbEntity
  8
0
100
AcDbLine
 62
7
  6
CONTINUOUS
 10
814.8683983734
 20
355.6878643642
 11
815.0579820684
 21
355.8368005167
  0
LINE
  5
42D
100
AcDbEntity
  8
0
100
AcDbLine
 62
7
  6
CONTINUOUS
 10
815.8163157633
 20
356.0602047454
 11
815.9111070684
 21
356.1346728216
  0
LINE
  5
42E
100
AcDbEntity
  8
0
100
AcDbLine
 62
7
  6
CONTINUOUS
 10
815.8163157633
 20
354.8687153693
 11
815.6267320684
 21
354.7197792168
  0
LINE
  5
42F
100
AcDbEntity
  8
0
100
AcDbLine
 62
7
  6
CONTINUOUS
 10
811.4558983734
 20
356.3580770503
 11
811.3137108734
 21
356.2836089741
  0
LINE
  5
430
100
AcDbEntity
  8
BEZUGSACHSEN
100
AcDbLine
 62
7
  6
CONTINUOUS
 10
788.8798570684
 20
346.8229707073
 11
788.8798570684
 21
336.7229707073
  0
LINE
  5
431
100
AcDbEntity
  8
0
100
AcDbLine
 62
7
  6
CONTINUOUS
 10
798.5642320684
 20
357.7729707073
 11
798.5642320684
 21
354.2729707073
  0
LINE
  5
432
100
AcDbEntity
  8
0
100
AcDbLine
 62
7
  6
CONTINUOUS
 10
798.8486070684
 20
354.2729707073
 11
798.8486070684
 21
357.7729707073
  0
LINE
  5
433
100
AcDbEntity
  8
0
100
AcDbLine
 62
7
  6
CONTINUOUS
 10
799.2277737124
 20
356.581481279
 11
799.2277737124
 21
355.4644600312
  0
LINE
  5
434
100
AcDbEntity
  8
0
100
AcDbLine
 62
7
  6
CONTINUOUS
 10
799.5121487124
 20
355.4644600312
 11
799.5121487124
 21
356.581481279
  0
LINE
  5
435
100
AcDbEntity
  8
BEZUGSACHSEN
100
AcDbLine
 62
7
  6
CONTINUOUS
 10
799.8798570684
 20
346.8229707073
 11
799.8798570684
 21
336.7229707073
  0
LINE
  5
436
100
AcDbEntity
  8
0
100
AcDbLine
 62
7
  6
CONTINUOUS
 10
801.4553779921
 20
357.7729707073
 11
801.4553779921
 21
354.2729707073
  0
LINE
  5
437
100
AcDbEntity
  8
0
100
AcDbLine
 62
7
  6
CONTINUOUS
 10
801.7397529921
 20
354.7197792168
 11
801.7397529921
 21
355.9112685929
  0
LINE
  5
438
100
AcDbEntity
  8
0
100
AcDbLine
 62
7
  6
CONTINUOUS
 10
801.7397529921
 20
356.3580770503
 11
801.7397529921
 21
357.3261622499
  0
LINE
  5
439
100
AcDbEntity
  8
0
100
AcDbLine
 62
7
  6
CONTINUOUS
 10
802.9720445684
 20
355.9112685929
 11
802.9720445684
 21
356.3580770503
  0
LINE
  5
43A
100
AcDbEntity
  8
0
100
AcDbLine
 62
7
  6
CONTINUOUS
 10
803.1616277209
 20
354.2729707073
 11
803.1616277209
 21
354.7197792168
  0
LINE
  5
43B
100
AcDbEntity
  8
0
100
AcDbLine
 62
7
  6
CONTINUOUS
 10
803.1616277209
 20
357.3261622499
 11
803.1616277209
 21
357.7729707073
  0
LINE
  5
43C
100
AcDbEntity
  8
0
100
AcDbLine
 62
7
  6
CONTINUOUS
 10
805.8157945684
 20
356.581481279
 11
805.8157945684
 21
355.4644600312
  0
LINE
  5
43D
100
AcDbEntity
  8
0
100
AcDbLine
 62
7
  6
CONTINUOUS
 10
806.1001695684
 20
355.4644600312
 11
806.1001695684
 21
356.581481279
  0
LINE
  5
43E
100
AcDbEntity
  8
0
100
AcDbLine
 62
7
  6
CONTINUOUS
 10
805.8631902209
 20
356.9538218687
 11
805.8157945684
 21
356.581481279
  0
LINE
  5
43F
100
AcDbEntity
  8
0
100
AcDbLine
 62
7
  6
CONTINUOUS
 10
807.6168364158
 20
354.794247293
 11
807.6642320684
 21
355.1665877263
  0
LINE
  5
440
100
AcDbEntity
  8
0
100
AcDbLine
 62
7
  6
CONTINUOUS
 10
809.7022532633
 20
355.0921196501
 11
809.7496483734
 21
355.4644600312
  0
LINE
  5
441
100
AcDbEntity
  8
0
100
AcDbLine
 62
7
  6
CONTINUOUS
 10
809.4652733734
 20
355.4644600312
 11
809.4178782633
 21
355.1665877263
  0
LINE
  5
442
100
AcDbEntity
  8
0
100
AcDbLine
 62
7
  6
CONTINUOUS
 10
799.7965237802
 20
357.2516941737
 11
799.9861070684
 21
357.3261622499
  0
LINE
  5
443
100
AcDbEntity
  8
0
100
AcDbLine
 62
7
  6
CONTINUOUS
 10
806.3845445684
 20
357.2516941737
 11
806.5741277209
 21
357.3261622499
  0
LINE
  5
444
100
AcDbEntity
  8
0
100
AcDbLine
 62
7
  6
CONTINUOUS
 10
800.6022528565
 20
354.794247293
 11
800.4126695684
 21
354.7197792168
  0
LINE
  5
445
100
AcDbEntity
  8
0
100
AcDbLine
 62
7
  6
CONTINUOUS
 10
807.1902739158
 20
354.794247293
 11
807.0006902209
 21
354.7197792168
  0
LINE
  5
446
100
AcDbEntity
  8
0
100
AcDbLine
 62
7
  6
CONTINUOUS
 10
815.0579820684
 20
357.3261622499
 11
815.2475657633
 21
357.4006303261
  0
LINE
  5
447
100
AcDbEntity
  8
0
100
AcDbLine
 62
7
  6
CONTINUOUS
 10
809.1808983734
 20
354.794247293
 11
808.9913157633
 21
354.7197792168
  0
LINE
  5
448
100
AcDbEntity
  8
0
100
AcDbLine
 62
7
  6
CONTINUOUS
 10
815.6267320684
 20
356.2836089741
 11
815.4371483734
 21
356.2091408978
  0
LINE
  5
449
100
AcDbEntity
  8
0
100
AcDbLine
 62
7
  6
CONTINUOUS
 10
815.0579820684
 20
355.8368005167
 11
815.2475657633
 21
355.9112685929
  0
LINE
  5
44A
100
AcDbEntity
  8
0
100
AcDbLine
 62
7
  6
CONTINUOUS
 10
815.6267320684
 20
354.7197792168
 11
815.4371483734
 21
354.6453111406
  0
LINE
  5
44B
100
AcDbEntity
  8
0
100
AcDbLine
 62
7
  6
CONTINUOUS
 10
799.9861070684
 20
357.7729707073
 11
799.7491278565
 21
357.698502631
  0
LINE
  5
44C
100
AcDbEntity
  8
0
100
AcDbLine
 62
7
  6
CONTINUOUS
 10
806.5741277209
 20
357.7729707073
 11
806.3371489158
 21
357.698502631
  0
LINE
  5
44D
100
AcDbEntity
  8
0
100
AcDbLine
 62
7
  6
CONTINUOUS
 10
800.4126695684
 20
354.2729707073
 11
800.6496487802
 21
354.34743879
  0
LINE
  5
44E
100
AcDbEntity
  8
0
100
AcDbLine
 62
7
  6
CONTINUOUS
 10
808.0433983734
 20
357.7729707073
 11
808.0433983734
 21
355.4644600312
  0
LINE
  5
44F
100
AcDbEntity
  8
0
100
AcDbLine
 62
7
  6
CONTINUOUS
 10
808.3277733734
 20
355.4644600312
 11
808.3277733734
 21
357.7729707073
  0
LINE
  5
450
100
AcDbEntity
  8
0
100
AcDbLine
 62
7
  6
CONTINUOUS
 10
809.4652733734
 20
357.7729707073
 11
809.4652733734
 21
355.4644600312
  0
LINE
  5
451
100
AcDbEntity
  8
0
100
AcDbLine
 62
7
  6
CONTINUOUS
 10
809.7496483734
 20
355.4644600312
 11
809.7496483734
 21
357.7729707073
  0
LINE
  5
452
100
AcDbEntity
  8
0
100
AcDbLine
 62
7
  6
CONTINUOUS
 10
810.1288157633
 20
357.7729707073
 11
810.1288157633
 21
354.2729707073
  0
LINE
  5
453
100
AcDbEntity
  8
0
100
AcDbLine
 62
7
  6
CONTINUOUS
 10
810.4131907633
 20
354.2729707073
 11
810.4131907633
 21
355.8368005167
  0
LINE
  5
454
100
AcDbEntity
  8
0
100
AcDbLine
 62
7
  6
CONTINUOUS
 10
810.4131907633
 20
356.2836089741
 11
810.4131907633
 21
357.4006303261
  0
LINE
  5
455
100
AcDbEntity
  8
0
100
AcDbLine
 62
7
  6
CONTINUOUS
 10
811.5980858734
 20
356.9538218687
 11
811.5980858734
 21
356.7304174314
  0
LINE
  5
456
100
AcDbEntity
  8
0
100
AcDbLine
 62
7
  6
CONTINUOUS
 10
811.8824608734
 20
356.6559493552
 11
811.8824608734
 21
356.9538218687
  0
LINE
  5
457
100
AcDbEntity
  8
0
100
AcDbLine
 62
7
  6
CONTINUOUS
 10
812.3090233734
 20
357.7729707073
 11
812.3090233734
 21
357.4006303261
  0
LINE
  5
458
100
AcDbEntity
  8
0
100
AcDbLine
 62
7
  6
CONTINUOUS
 10
813.0673570684
 20
357.4006303261
 11
813.0673570684
 21
354.2729707073
  0
LINE
  5
459
100
AcDbEntity
  8
0
100
AcDbLine
 62
7
  6
CONTINUOUS
 10
813.3517320684
 20
354.2729707073
 11
813.3517320684
 21
357.4006303261
  0
LINE
  5
45A
100
AcDbEntity
  8
0
100
AcDbLine
 62
7
  6
CONTINUOUS
 10
814.1100657633
 20
357.4006303261
 11
814.1100657633
 21
357.7729707073
  0
LINE
  5
45B
100
AcDbEntity
  8
0
100
AcDbLine
 62
7
  6
CONTINUOUS
 10
814.4892320684
 20
355.389991955
 11
814.4892320684
 21
355.1665877263
  0
LINE
  5
45C
100
AcDbEntity
  8
0
100
AcDbLine
 62
7
  6
CONTINUOUS
 10
814.5366282633
 20
356.8793535839
 11
814.5366282633
 21
356.6559493552
  0
LINE
  5
45D
100
AcDbEntity
  8
0
100
AcDbLine
 62
7
  6
CONTINUOUS
 10
814.7262108734
 20
355.1665877263
 11
814.7262108734
 21
355.389991955
  0
LINE
  5
45E
100
AcDbEntity
  8
0
100
AcDbLine
 62
7
  6
CONTINUOUS
 10
814.7736070684
 20
356.7304174314
 11
814.7736070684
 21
356.8793535839
  0
LINE
  5
45F
100
AcDbEntity
  8
0
100
AcDbLine
 62
7
  6
CONTINUOUS
 10
815.9111070684
 20
356.8793535839
 11
815.9111070684
 21
356.7304174314
  0
LINE
  5
460
100
AcDbEntity
  8
0
100
AcDbLine
 62
7
  6
CONTINUOUS
 10
815.9585032633
 20
355.389991955
 11
815.9585032633
 21
355.1665877263
  0
LINE
  5
461
100
AcDbEntity
  8
0
100
AcDbLine
 62
7
  6
CONTINUOUS
 10
816.1480858734
 20
356.6559493552
 11
816.1480858734
 21
356.8793535839
  0
LINE
  5
462
100
AcDbEntity
  8
0
100
AcDbLine
 62
7
  6
CONTINUOUS
 10
816.1954820684
 20
355.1665877263
 11
816.1954820684
 21
355.389991955
  0
LINE
  5
463
100
AcDbEntity
  8
RUNDUNGEN
100
AcDbLine
 62
7
  6
CONTINUOUS
 10
822.3798570684
 20
322.7729707073
 11
822.3798570684
 21
336.9782170421
  0
LINE
  5
464
100
AcDbEntity
  8
RUNDUNGEN
100
AcDbLine
 62
7
  6
CONTINUOUS
 10
822.3798570684
 20
346.5677188869
 11
822.3798570684
 21
360.7729707073
  0
LINE
  5
465
100
AcDbEntity
  8
0
100
AcDbLine
 62
7
  6
CONTINUOUS
 10
815.2475657633
 20
357.7729707073
 11
815.0105858734
 21
357.698502631
  0
LINE
  5
466
100
AcDbEntity
  8
0
100
AcDbLine
 62
7
  6
CONTINUOUS
 10
807.0006902209
 20
354.2729707073
 11
807.2376695684
 21
354.34743879
  0
LINE
  5
467
100
AcDbEntity
  8
0
100
AcDbLine
 62
7
  6
CONTINUOUS
 10
808.9913157633
 20
354.2729707073
 11
809.2282945684
 21
354.34743879
  0
LINE
  5
468
100
AcDbEntity
  8
0
100
AcDbLine
 62
7
  6
CONTINUOUS
 10
815.4845445684
 20
354.2729707073
 11
815.7215233734
 21
354.34743879
  0
LINE
  5
469
100
AcDbEntity
  8
0
100
AcDbLine
 62
7
  6
CONTINUOUS
 10
799.2277737124
 20
355.4644600312
 11
799.2751695684
 21
355.0921196501
  0
LINE
  5
46A
100
AcDbEntity
  8
0
100
AcDbLine
 62
7
  6
CONTINUOUS
 10
801.0762111446
 20
356.8793535839
 11
801.0288154921
 21
357.2516941737
  0
LINE
  5
46B
100
AcDbEntity
  8
0
100
AcDbLine
 62
7
  6
CONTINUOUS
 10
800.7444403565
 20
357.1027580212
 11
800.7918362802
 21
356.8793535839
  0
LINE
  5
46C
100
AcDbEntity
  8
0
100
AcDbLine
 62
7
  6
CONTINUOUS
 10
807.3324614158
 20
357.1027580212
 11
807.3798570684
 21
356.8793535839
  0
LINE
  5
46D
100
AcDbEntity
  8
0
100
AcDbLine
 62
7
  6
CONTINUOUS
 10
799.5595445684
 20
355.1665877263
 11
799.5121487124
 21
355.4644600312
  0
LINE
  5
46E
100
AcDbEntity
  8
0
100
AcDbLine
 62
7
  6
CONTINUOUS
 10
806.1475652209
 20
355.1665877263
 11
806.1001695684
 21
355.4644600312
  0
LINE
  5
46F
100
AcDbEntity
  8
0
100
AcDbLine
 62
7
  6
CONTINUOUS
 10
808.3751695684
 20
355.1665877263
 11
808.3277733734
 21
355.4644600312
  0
LINE
  5
470
100
AcDbEntity
  8
0
100
AcDbLine
 62
7
  6
CONTINUOUS
 10
805.8157945684
 20
355.4644600312
 11
805.8631902209
 21
355.0921196501
  0
LINE
  5
471
100
AcDbEntity
  8
0
100
AcDbLine
 62
7
  6
CONTINUOUS
 10
807.6642320684
 20
356.8793535839
 11
807.6168364158
 21
357.2516941737
  0
LINE
  5
472
100
AcDbEntity
  8
0
100
AcDbLine
 62
7
  6
CONTINUOUS
 10
808.0433983734
 20
355.4644600312
 11
808.0907945684
 21
355.0921196501
  0
LINE
  5
473
100
AcDbEntity
  8
0
100
AcDbLine
 62
7
  6
CONTINUOUS
 10
998.9272546139
 20
361.1523559488
 11
998.2162885547
 21
360.8935854657
  0
LINE
  5
474
100
AcDbEntity
  8
BEZUGSACHSEN
100
AcDbLine
 62
7
  6
CONTINUOUS
 10
1023.3798570684
 20
21.7729707073
 11
1021.3798570684
 21
21.7729707073
  0
LINE
  5
475
100
AcDbEntity
  8
0
100
AcDbLine
 62
7
  6
CONTINUOUS
 10
799.2751695684
 20
355.0921196501
 11
799.3699612124
 21
354.794247293
  0
LINE
  5
476
100
AcDbEntity
  8
0
100
AcDbLine
 62
7
  6
CONTINUOUS
 10
805.8631902209
 20
355.0921196501
 11
805.9579820684
 21
354.794247293
  0
LINE
  5
477
100
AcDbEntity
  8
0
100
AcDbLine
 62
7
  6
CONTINUOUS
 10
808.0907945684
 20
355.0921196501
 11
808.1855858734
 21
354.794247293
  0
LINE
  5
478
100
AcDbEntity
  8
0
100
AcDbLine
 62
7
  6
CONTINUOUS
 10
814.4892320684
 20
355.1665877263
 11
814.5840233734
 21
354.794247293
  0
LINE
  5
479
100
AcDbEntity
  8
0
100
AcDbLine
 62
7
  6
CONTINUOUS
 10
816.1954820684
 20
355.389991955
 11
816.1006907633
 21
355.7623324405
  0
LINE
  5
47A
100
AcDbEntity
  8
0
100
AcDbLine
 62
7
  6
CONTINUOUS
 10
816.1480858734
 20
356.8793535839
 11
816.0532945684
 21
357.2516941737
  0
LINE
  5
47B
100
AcDbEntity
  8
0
100
AcDbLine
 62
7
  6
CONTINUOUS
 10
811.9298570684
 20
354.2729707073
 11
811.5032945684
 21
355.9857366692
  0
LINE
  5
47C
100
AcDbEntity
  8
0
100
AcDbLine
 62
7
  6
CONTINUOUS
 10
811.2189195684
 20
355.8368005167
 11
811.5980858734
 21
354.2729707073
  0
LINE
  5
47D
100
AcDbEntity
  8
0
100
AcDbLine
 62
7
  6
CONTINUOUS
 10
811.5506907633
 20
357.1772260974
 11
811.5980858734
 21
356.9538218687
  0
LINE
  5
47E
100
AcDbEntity
  8
0
100
AcDbLine
 62
7
  6
CONTINUOUS
 10
811.8824608734
 20
356.9538218687
 11
811.8350657633
 21
357.1772260974
  0
LINE
  5
47F
100
AcDbEntity
  8
RUNDUNGEN
100
AcDbLine
 62
7
  6
CONTINUOUS
 10
883.8798570684
 20
360.2729707073
 11
883.8798570684
 21
323.2729707073
  0
LINE
  5
480
100
AcDbEntity
  8
0
100
AcDbLine
 62
7
  6
CONTINUOUS
 10
782.6478062608
 20
327.2370723224
 11
785.5138316646
 21
322.2729707073
  0
LINE
  5
481
100
AcDbEntity
  8
0
100
AcDbLine
 62
7
  6
CONTINUOUS
 10
799.6543362124
 20
354.9431834976
 11
799.5595445684
 21
355.1665877263
  0
LINE
  5
482
100
AcDbEntity
  8
0
100
AcDbLine
 62
7
  6
CONTINUOUS
 10
806.2423570684
 20
354.9431834976
 11
806.1475652209
 21
355.1665877263
  0
LINE
  5
483
100
AcDbEntity
  8
0
100
AcDbLine
 62
7
  6
CONTINUOUS
 10
814.5366282633
 20
356.6559493552
 11
814.6314195684
 21
356.3580770503
  0
LINE
  5
484
100
AcDbEntity
  8
0
100
AcDbLine
 62
7
  6
CONTINUOUS
 10
905.3457895814
 20
322.2729707073
 11
905.3457895814
 21
361.2729707073
  0
LINE
  5
485
100
AcDbEntity
  8
0
100
AcDbLine
 62
7
  6
CONTINUOUS
 10
811.8350657633
 20
357.1772260974
 11
811.6928782633
 21
357.4750984024
  0
LINE
  5
486
100
AcDbEntity
  8
0
100
AcDbLine
 62
7
  6
CONTINUOUS
 10
814.8683983734
 20
354.8687153693
 11
814.7262108734
 21
355.1665877263
  0
LINE
  5
487
100
AcDbEntity
  8
0
100
AcDbLine
 62
7
  6
CONTINUOUS
 10
815.8163157633
 20
355.6878643642
 11
815.9585032633
 21
355.389991955
  0
LINE
  5
488
100
AcDbEntity
  8
0
100
AcDbLine
 62
7
  6
CONTINUOUS
 10
808.4699608734
 20
354.9431834976
 11
808.3751695684
 21
355.1665877263
  0
LINE
  5
489
100
AcDbEntity
  8
0
100
AcDbLine
 62
7
  6
CONTINUOUS
 10
814.8683983734
 20
356.5070132028
 11
814.7736070684
 21
356.7304174314
  0
LINE
  5
48A
100
AcDbEntity
  8
0
100
AcDbLine
 62
7
  6
CONTINUOUS
 10
815.8163157633
 20
357.1027580212
 11
815.9111070684
 21
356.8793535839
  0
LINE
  5
48B
100
AcDbEntity
  8
0
100
AcDbLine
 62
7
  6
CONTINUOUS
 10
1046.543425582
 20
322.6523559488
 11
1045.8324595228
 21
322.3935854657
  0
LINE
  5
48C
100
AcDbEntity
  8
0
100
AcDbLine
 62
7
  6
CONTINUOUS
 10
799.3699612124
 20
354.794247293
 11
799.5595445684
 21
354.496374962
  0
LINE
  5
48D
100
AcDbEntity
  8
0
100
AcDbLine
 62
7
  6
CONTINUOUS
 10
801.0288154921
 20
357.2516941737
 11
800.8392320684
 21
357.5495664786
  0
LINE
  5
48E
100
AcDbEntity
  8
0
100
AcDbLine
 62
7
  6
CONTINUOUS
 10
805.9579820684
 20
354.794247293
 11
806.1475652209
 21
354.496374962
  0
LINE
  5
48F
100
AcDbEntity
  8
0
100
AcDbLine
 62
7
  6
CONTINUOUS
 10
808.1855858734
 20
354.794247293
 11
808.3751695684
 21
354.496374962
  0
LINE
  5
490
100
AcDbEntity
  8
0
100
AcDbLine
 62
7
  6
CONTINUOUS
 10
807.6168364158
 20
357.2516941737
 11
807.4272527209
 21
357.5495664786
  0
LINE
  5
491
100
AcDbEntity
  8
0
100
AcDbLine
 62
7
  6
CONTINUOUS
 10
811.4558983734
 20
357.3261622499
 11
811.5506907633
 21
357.1772260974
  0
LINE
  5
492
100
AcDbEntity
  8
0
100
AcDbLine
 62
7
  6
CONTINUOUS
 10
814.5840233734
 20
354.794247293
 11
814.7262108734
 21
354.5708430383
  0
LINE
  5
493
100
AcDbEntity
  8
0
100
AcDbLine
 62
7
  6
CONTINUOUS
 10
814.6314195684
 20
356.3580770503
 11
814.7736070684
 21
356.1346728216
  0
LINE
  5
494
100
AcDbEntity
  8
0
100
AcDbLine
 62
7
  6
CONTINUOUS
 10
816.0532945684
 20
357.2516941737
 11
815.9111070684
 21
357.4750984024
  0
LINE
  5
495
100
AcDbEntity
  8
0
100
AcDbLine
 62
7
  6
CONTINUOUS
 10
1145.9517090616
 20
365.7729707073
 11
1140.1023572653
 21
361.6772104858
  0
LINE
  5
496
100
AcDbEntity
  8
0
100
AcDbLine
 62
7
  6
CONTINUOUS
 10
1229.2751695684
 20
329.2729707073
 11
1229.0381907633
 21
329.1985026245
  0
LINE
  5
497
100
AcDbEntity
  8
0
100
AcDbLine
 62
7
  6
CONTINUOUS
 10
1235.7683983734
 20
329.2729707073
 11
1235.5314195684
 21
329.1985026245
  0
LINE
  5
498
100
AcDbEntity
  8
0
100
AcDbLine
 62
7
  6
CONTINUOUS
 10
1237.7590239158
 20
329.2729707073
 11
1237.5220445684
 21
329.1985026245
  0
LINE
  5
499
100
AcDbEntity
  8
0
100
AcDbLine
 62
7
  6
CONTINUOUS
 10
1229.5121483734
 20
325.7729707073
 11
1229.7491282633
 21
325.8474387835
  0
LINE
  5
49A
100
AcDbEntity
  8
0
100
AcDbLine
 62
7
  6
CONTINUOUS
 10
1244.3470445684
 20
329.2729707073
 11
1244.1100653565
 21
329.1985026245
  0
LINE
  5
49B
100
AcDbEntity
  8
0
100
AcDbLine
 62
7
  6
CONTINUOUS
 10
1238.1855864158
 20
325.7729707073
 11
1238.4225652209
 21
325.8474387835
  0
LINE
  5
49C
100
AcDbEntity
  8
0
100
AcDbLine
 62
7
  6
CONTINUOUS
 10
811.6928782633
 20
357.4750984024
 11
811.5032945684
 21
357.698502631
  0
LINE
  5
49D
100
AcDbEntity
  8
0
100
AcDbLine
 62
7
  6
CONTINUOUS
 10
966.5298570684
 20
342.9729707073
 11
966.5298570684
 21
340.5729707073
  0
LINE
  5
49E
100
AcDbEntity
  8
0
100
AcDbLine
 62
7
  6
CONTINUOUS
 10
968.3298570684
 20
340.6479707073
 11
968.3298570684
 21
342.8979707073
  0
LINE
  5
49F
100
AcDbEntity
  8
0
100
AcDbLine
 62
7
  6
CONTINUOUS
 10
972.0798570684
 20
344.7729707073
 11
972.0798570684
 21
339.6729707073
  0
LINE
  5
4A0
100
AcDbEntity
  8
0
100
AcDbLine
 62
7
  6
CONTINUOUS
 10
973.8798570684
 20
337.2729707073
 11
973.8798570684
 21
338.7729707073
  0
LINE
  5
4A1
100
AcDbEntity
  8
0
100
AcDbLine
 62
7
  6
CONTINUOUS
 10
973.8798570684
 20
339.6729707073
 11
973.8798570684
 21
346.2729707073
  0
LINE
  5
4A2
100
AcDbEntity
  8
0
100
AcDbLine
 62
7
  6
CONTINUOUS
 10
975.6798570684
 20
342.6729707073
 11
975.6798570684
 21
337.2729707073
  0
LINE
  5
4A3
100
AcDbEntity
  8
0
100
AcDbLine
 62
7
  6
CONTINUOUS
 10
977.4798570684
 20
337.2729707073
 11
977.4798570684
 21
342.6729707073
  0
LINE
  5
4A4
100
AcDbEntity
  8
0
100
AcDbLine
 62
7
  6
CONTINUOUS
 10
981.0798570684
 20
342.6729707073
 11
981.0798570684
 21
337.2729707073
  0
LINE
  5
4A5
100
AcDbEntity
  8
0
100
AcDbLine
 62
7
  6
CONTINUOUS
 10
982.8798570684
 20
337.2729707073
 11
982.8798570684
 21
342.6729707073
  0
LINE
  5
4A6
100
AcDbEntity
  8
0
100
AcDbLine
 62
7
  6
CONTINUOUS
 10
1108.3798570684
 20
348.7729707073
 11
1100.3798570684
 21
340.7729707073
  0
LINE
  5
4A7
100
AcDbEntity
  8
0
100
AcDbLine
 62
7
  6
CONTINUOUS
 10
1229.1329820684
 20
328.8261621977
 11
1229.3225657633
 21
328.900630274
  0
LINE
  5
4A8
100
AcDbEntity
  8
0
100
AcDbLine
 62
7
  6
CONTINUOUS
 10
1229.7017320684
 20
327.7091408978
 11
1229.5121483734
 21
327.6346728216
  0
LINE
  5
4A9
100
AcDbEntity
  8
0
100
AcDbLine
 62
7
  6
CONTINUOUS
 10
1229.1329820684
 20
327.2623324405
 11
1229.3225657633
 21
327.3368005167
  0
LINE
  5
4AA
100
AcDbEntity
  8
0
100
AcDbLine
 62
7
  6
CONTINUOUS
 10
1235.5788157633
 20
328.7516941215
 11
1235.7683983734
 21
328.8261621977
  0
LINE
  5
4AB
100
AcDbEntity
  8
0
100
AcDbLine
 62
7
  6
CONTINUOUS
 10
1229.7017320684
 20
326.2197791646
 11
1229.5121483734
 21
326.1453110884
  0
LINE
  5
4AC
100
AcDbEntity
  8
0
100
AcDbLine
 62
7
  6
CONTINUOUS
 10
1237.5694402209
 20
328.7516941215
 11
1237.7590239158
 21
328.8261621977
  0
LINE
  5
4AD
100
AcDbEntity
  8
0
100
AcDbLine
 62
7
  6
CONTINUOUS
 10
1244.1574612802
 20
328.7516941215
 11
1244.3470445684
 21
328.8261621977
  0
LINE
  5
4AE
100
AcDbEntity
  8
0
100
AcDbLine
 62
7
  6
CONTINUOUS
 10
1238.3751695684
 20
326.2942472409
 11
1238.1855864158
 21
326.2197791646
  0
LINE
  5
4AF
100
AcDbEntity
  8
0
100
AcDbLine
 62
7
  6
CONTINUOUS
 10
1244.9631903565
 20
326.2942472409
 11
1244.7736070684
 21
326.2197791646
  0
LINE
  5
4B0
100
AcDbEntity
  8
0
100
AcDbLine
 62
7
  6
CONTINUOUS
 10
1244.7736070684
 20
325.7729707073
 11
1245.0105862802
 21
325.8474387835
  0
LINE
  5
4B1
100
AcDbEntity
  8
0
100
AcDbLine
 62
7
  6
CONTINUOUS
 10
799.7965237802
 20
354.794247293
 11
799.6543362124
 21
354.9431834976
  0
LINE
  5
4B2
100
AcDbEntity
  8
0
100
AcDbLine
 62
7
  6
CONTINUOUS
 10
800.6022528565
 20
357.2516941737
 11
800.7444403565
 21
357.1027580212
  0
LINE
  5
4B3
100
AcDbEntity
  8
0
100
AcDbLine
 62
7
  6
CONTINUOUS
 10
806.3845445684
 20
354.794247293
 11
806.2423570684
 21
354.9431834976
  0
LINE
  5
4B4
100
AcDbEntity
  8
0
100
AcDbLine
 62
7
  6
CONTINUOUS
 10
808.6121483734
 20
354.794247293
 11
808.4699608734
 21
354.9431834976
  0
LINE
  5
4B5
100
AcDbEntity
  8
0
100
AcDbLine
 62
7
  6
CONTINUOUS
 10
807.1902739158
 20
357.2516941737
 11
807.3324614158
 21
357.1027580212
  0
LINE
  5
4B6
100
AcDbEntity
  8
0
100
AcDbLine
 62
7
  6
CONTINUOUS
 10
815.0579820684
 20
356.2836089741
 11
814.8683983734
 21
356.5070132028
  0
LINE
  5
4B7
100
AcDbEntity
  8
0
100
AcDbLine
 62
7
  6
CONTINUOUS
 10
816.1006907633
 20
355.7623324405
 11
815.9111070684
 21
355.9857366692
  0
LINE
  5
4B8
100
AcDbEntity
  8
0
100
AcDbLine
 62
7
  6
CONTINUOUS
 10
815.6267320684
 20
357.3261622499
 11
815.8163157633
 21
357.1027580212
  0
LINE
  5
4B9
100
AcDbEntity
  8
0
100
AcDbLine
 62
7
  6
CONTINUOUS
 10
990.3798570684
 20
346.2729707073
 11
990.3798570684
 21
342.5229707073
  0
LINE
  5
4BA
100
AcDbEntity
  8
0
100
AcDbLine
 62
7
  6
CONTINUOUS
 10
990.3798570684
 20
341.0229707073
 11
990.3798570684
 21
339.6729707073
  0
LINE
  5
4BB
100
AcDbEntity
  8
0
100
AcDbLine
 62
7
  6
CONTINUOUS
 10
991.8798570684
 20
337.2729707073
 11
991.8798570684
 21
338.7729707073
  0
LINE
  5
4BC
100
AcDbEntity
  8
0
100
AcDbLine
 62
7
  6
CONTINUOUS
 10
991.8798570684
 20
339.6729707073
 11
991.8798570684
 21
346.2729707073
  0
LINE
  5
4BD
100
AcDbEntity
  8
RUNDUNGEN
100
AcDbLine
 62
7
  6
CONTINUOUS
 10
1004.3798570684
 20
278.362051769
 11
1004.3798570684
 21
367.7728916381
  0
LINE
  5
4BE
100
AcDbEntity
  8
0
100
AcDbLine
 62
7
  6
CONTINUOUS
 10
1233.3038157633
 20
327.1878643642
 11
1233.4460032633
 21
327.2623324405
  0
LINE
  5
4BF
100
AcDbEntity
  8
0
100
AcDbLine
 62
7
  6
CONTINUOUS
 10
814.7262108734
 20
354.5708430383
 11
814.9631907633
 21
354.34743879
  0
LINE
  5
4C0
100
AcDbEntity
  8
0
100
AcDbLine
 62
7
  6
CONTINUOUS
 10
815.9111070684
 20
357.4750984024
 11
815.6741282633
 21
357.698502631
  0
LINE
  5
4C1
100
AcDbEntity
  8
RUNDUNGEN
100
AcDbLine
 62
7
  6
CONTINUOUS
 10
1013.3798570684
 20
244.6838896455
 11
1013.3798570684
 21
29.7729707073
  0
LINE
  5
4C2
100
AcDbEntity
  8
0
100
AcDbLine
 62
7
  6
CONTINUOUS
 10
1015.3798570684
 20
313.7729707073
 11
1015.3798570684
 21
372.7729707073
  0
LINE
  5
4C3
100
AcDbEntity
  8
BEZUGSACHSEN
100
AcDbLine
 62
7
  6
CONTINUOUS
 10
1039.9301193689
 20
275.2488596147
 11
1031.8263188762
 21
247.7859801673
  0
LINE
  5
4C4
100
AcDbEntity
  8
0
100
AcDbLine
 62
7
  6
CONTINUOUS
 10
799.5595445684
 20
354.496374962
 11
799.7491278565
 21
354.34743879
  0
LINE
  5
4C5
100
AcDbEntity
  8
0
100
AcDbLine
 62
7
  6
CONTINUOUS
 10
800.8392320684
 20
357.5495664786
 11
800.6496487802
 21
357.698502631
  0
LINE
  5
4C6
100
AcDbEntity
  8
0
100
AcDbLine
 62
7
  6
CONTINUOUS
 10
806.1475652209
 20
354.496374962
 11
806.3371489158
 21
354.34743879
  0
LINE
  5
4C7
100
AcDbEntity
  8
0
100
AcDbLine
 62
7
  6
CONTINUOUS
 10
808.3751695684
 20
354.496374962
 11
808.5647532633
 21
354.34743879
  0
LINE
  5
4C8
100
AcDbEntity
  8
0
100
AcDbLine
 62
7
  6
CONTINUOUS
 10
807.4272527209
 20
357.5495664786
 11
807.2376695684
 21
357.698502631
  0
LINE
  5
4C9
100
AcDbEntity
  8
0
100
AcDbLine
 62
7
  6
CONTINUOUS
 10
815.0579820684
 20
354.7197792168
 11
814.8683983734
 21
354.8687153693
  0
LINE
  5
4CA
100
AcDbEntity
  8
0
100
AcDbLine
 62
7
  6
CONTINUOUS
 10
814.7736070684
 20
356.1346728216
 11
814.8683983734
 21
356.0602047454
  0
LINE
  5
4CB
100
AcDbEntity
  8
0
100
AcDbLine
 62
7
  6
CONTINUOUS
 10
815.6267320684
 20
355.8368005167
 11
815.8163157633
 21
355.6878643642
  0
LINE
  5
4CC
100
AcDbEntity
  8
0
100
AcDbLine
 62
7
  6
CONTINUOUS
 10
815.9111070684
 20
355.9857366692
 11
815.8163157633
 21
356.0602047454
  0
LINE
  5
4CD
100
AcDbEntity
  8
0
100
AcDbLine
 62
7
  6
CONTINUOUS
 10
1029.3798570684
 20
313.7729707073
 11
1029.3798570684
 21
372.7729707073
  0
LINE
  5
4CE
100
AcDbEntity
  8
BEZUGSACHSEN
100
AcDbLine
 62
7
  6
CONTINUOUS
 10
1031.3798570684
 20
244.6838896455
 11
1031.3798570684
 21
29.7729707073
  0
LINE
  5
4CF
100
AcDbEntity
  8
BEZUGSACHSEN
100
AcDbLine
 62
7
  6
CONTINUOUS
 10
1040.3798570684
 20
278.362051769
 11
1040.3798570684
 21
367.7729707073
  0
LINE
  5
4D0
100
AcDbEntity
  8
RUNDUNGEN
100
AcDbLine
 62
7
  6
CONTINUOUS
 10
1004.8295947678
 20
275.2488596147
 11
1012.9333933322
 21
247.785986702
  0
LINE
  5
4D1
100
AcDbEntity
  8
0
100
AcDbLine
 62
7
  6
CONTINUOUS
 10
1228.9433983734
 20
328.6772260453
 11
1229.1329820684
 21
328.8261621977
  0
LINE
  5
4D2
100
AcDbEntity
  8
0
100
AcDbLine
 62
7
  6
CONTINUOUS
 10
1228.9433983734
 20
327.4857366692
 11
1228.8486070684
 21
327.4112685929
  0
LINE
  5
4D3
100
AcDbEntity
  8
0
100
AcDbLine
 62
7
  6
CONTINUOUS
 10
1229.8913157633
 20
327.8580770503
 11
1229.7017320684
 21
327.7091408978
  0
LINE
  5
4D4
100
AcDbEntity
  8
0
100
AcDbLine
 62
7
  6
CONTINUOUS
 10
1229.8913157633
 20
327.4857366692
 11
1229.9861070684
 21
327.5602047454
  0
LINE
  5
4D5
100
AcDbEntity
  8
0
100
AcDbLine
 62
7
  6
CONTINUOUS
 10
1233.2564195684
 20
327.5602047454
 11
1233.0668358734
 21
327.4112685929
  0
LINE
  5
4D6
100
AcDbEntity
  8
0
100
AcDbLine
 62
7
  6
CONTINUOUS
 10
1235.5314195684
 20
329.1985026245
 11
1235.3418358734
 21
329.0495664525
  0
LINE
  5
4D7
100
AcDbEntity
  8
0
100
AcDbLine
 62
7
  6
CONTINUOUS
 10
1237.5220445684
 20
329.1985026245
 11
1237.3324614158
 21
329.0495664525
  0
LINE
  5
4D8
100
AcDbEntity
  8
0
100
AcDbLine
 62
7
  6
CONTINUOUS
 10
1238.4225652209
 20
325.8474387835
 11
1238.6121489158
 21
325.996374936
  0
LINE
  5
4D9
100
AcDbEntity
  8
0
100
AcDbLine
 62
7
  6
CONTINUOUS
 10
1244.1100653565
 20
329.1985026245
 11
1243.9204820684
 21
329.0495664525
  0
LINE
  5
4DA
100
AcDbEntity
  8
0
100
AcDbLine
 62
7
  6
CONTINUOUS
 10
1245.0105862802
 20
325.8474387835
 11
1245.2001695684
 21
325.996374936
  0
LINE
  5
4DB
100
AcDbEntity
  8
0
100
AcDbLine
 62
7
  6
CONTINUOUS
 10
984.0798570684
 20
346.2729707073
 11
986.3489747958
 21
342.3427435149
  0
LINE
  5
4DC
100
AcDbEntity
  8
0
100
AcDbLine
 62
7
  6
CONTINUOUS
 10
1229.0381907633
 20
329.1985026245
 11
1228.8012108734
 21
328.9750983763
  0
LINE
  5
4DD
100
AcDbEntity
  8
0
100
AcDbLine
 62
7
  6
CONTINUOUS
 10
1229.7491282633
 20
325.8474387835
 11
1229.9861070684
 21
326.0708430122
  0
LINE
  5
4DE
100
AcDbEntity
  8
0
100
AcDbLine
 62
7
  6
CONTINUOUS
 10
811.3137108734
 20
357.4006303261
 11
811.4558983734
 21
357.3261622499
  0
LINE
  5
4DF
100
AcDbEntity
  8
0
100
AcDbLine
 62
7
  6
CONTINUOUS
 10
987.5439586835
 20
343.2729707073
 11
985.8119078759
 21
346.2729707073
  0
LINE
  5
4E0
100
AcDbEntity
  8
0
100
AcDbLine
 62
7
  6
CONTINUOUS
 10
1228.9433983734
 20
327.0389282118
 11
1229.1329820684
 21
327.2623324405
  0
LINE
  5
4E1
100
AcDbEntity
  8
0
100
AcDbLine
 62
7
  6
CONTINUOUS
 10
1229.9861070684
 20
327.5602047454
 11
1230.1756907633
 21
327.7836089741
  0
LINE
  5
4E2
100
AcDbEntity
  8
0
100
AcDbLine
 62
7
  6
CONTINUOUS
 10
1229.8913157633
 20
326.4431833933
 11
1229.7017320684
 21
326.2197791646
  0
LINE
  5
4E3
100
AcDbEntity
  8
0
100
AcDbLine
 62
7
  6
CONTINUOUS
 10
1235.4366282633
 20
328.6027579169
 11
1235.5788157633
 21
328.7516941215
  0
LINE
  5
4E4
100
AcDbEntity
  8
0
100
AcDbLine
 62
7
  6
CONTINUOUS
 10
1237.4272527209
 20
328.6027579169
 11
1237.5694402209
 21
328.7516941215
  0
LINE
  5
4E5
100
AcDbEntity
  8
0
100
AcDbLine
 62
7
  6
CONTINUOUS
 10
1238.5173570684
 20
326.4431833933
 11
1238.3751695684
 21
326.2942472409
  0
LINE
  5
4E6
100
AcDbEntity
  8
0
100
AcDbLine
 62
7
  6
CONTINUOUS
 10
1244.0152737802
 20
328.6027579169
 11
1244.1574612802
 21
328.7516941215
  0
LINE
  5
4E7
100
AcDbEntity
  8
0
100
AcDbLine
 62
7
  6
CONTINUOUS
 10
1245.1053779243
 20
326.4431833933
 11
1244.9631903565
 21
326.2942472409
  0
LINE
  5
4E8
100
AcDbEntity
  8
0
100
AcDbLine
 62
7
  6
CONTINUOUS
 10
799.9861070684
 20
354.7197792168
 11
799.7965237802
 21
354.794247293
  0
LINE
  5
4E9
100
AcDbEntity
  8
0
100
AcDbLine
 62
7
  6
CONTINUOUS
 10
806.5741277209
 20
354.7197792168
 11
806.3845445684
 21
354.794247293
  0
LINE
  5
4EA
100
AcDbEntity
  8
0
100
AcDbLine
 62
7
  6
CONTINUOUS
 10
800.4126695684
 20
357.3261622499
 11
800.6022528565
 21
357.2516941737
  0
LINE
  5
4EB
100
AcDbEntity
  8
0
100
AcDbLine
 62
7
  6
CONTINUOUS
 10
808.8017320684
 20
354.7197792168
 11
808.6121483734
 21
354.794247293
  0
LINE
  5
4EC
100
AcDbEntity
  8
0
100
AcDbLine
 62
7
  6
CONTINUOUS
 10
807.0006902209
 20
357.3261622499
 11
807.1902739158
 21
357.2516941737
  0
LINE
  5
4ED
100
AcDbEntity
  8
0
100
AcDbLine
 62
7
  6
CONTINUOUS
 10
815.2475657633
 20
354.6453111406
 11
815.0579820684
 21
354.7197792168
  0
LINE
  5
4EE
100
AcDbEntity
  8
0
100
AcDbLine
 62
7
  6
CONTINUOUS
 10
815.4371483734
 20
355.9112685929
 11
815.6267320684
 21
355.8368005167
  0
LINE
  5
4EF
100
AcDbEntity
  8
0
100
AcDbLine
 62
7
  6
CONTINUOUS
 10
815.2475657633
 20
356.2091408978
 11
815.0579820684
 21
356.2836089741
  0
LINE
  5
4F0
100
AcDbEntity
  8
0
100
AcDbLine
 62
7
  6
CONTINUOUS
 10
815.4371483734
 20
357.4006303261
 11
815.6267320684
 21
357.3261622499
  0
LINE
  5
4F1
100
AcDbEntity
  8
0
100
AcDbLine
 62
7
  6
CONTINUOUS
 10
1104.3798570684
 20
340.7729707073
 11
1104.3798570684
 21
330.7729707073
  0
LINE
  5
4F2
100
AcDbEntity
  8
0
100
AcDbLine
 62
7
  6
CONTINUOUS
 10
1112.3798570684
 20
330.7729707073
 11
1112.3798570684
 21
340.7729707073
  0
LINE
  5
4F3
100
AcDbEntity
  8
0
100
AcDbLine
 62
7
  6
CONTINUOUS
 10
799.7491278565
 20
354.34743879
 11
799.9861070684
 21
354.2729707073
  0
LINE
  5
4F4
100
AcDbEntity
  8
0
100
AcDbLine
 62
7
  6
CONTINUOUS
 10
806.3371489158
 20
354.34743879
 11
806.5741277209
 21
354.2729707073
  0
LINE
  5
4F5
100
AcDbEntity
  8
0
100
AcDbLine
 62
7
  6
CONTINUOUS
 10
808.5647532633
 20
354.34743879
 11
808.8017320684
 21
354.2729707073
  0
LINE
  5
4F6
100
AcDbEntity
  8
0
100
AcDbLine
 62
7
  6
CONTINUOUS
 10
800.6496487802
 20
357.698502631
 11
800.4126695684
 21
357.7729707073
  0
LINE
  5
4F7
100
AcDbEntity
  8
0
100
AcDbLine
 62
7
  6
CONTINUOUS
 10
814.9631907633
 20
354.34743879
 11
815.2001695684
 21
354.2729707073
  0
LINE
  5
4F8
100
AcDbEntity
  8
0
100
AcDbLine
 62
7
  6
CONTINUOUS
 10
807.2376695684
 20
357.698502631
 11
807.0006902209
 21
357.7729707073
  0
LINE
  5
4F9
100
AcDbEntity
  8
0
100
AcDbLine
 62
7
  6
CONTINUOUS
 10
811.5032945684
 20
357.698502631
 11
811.2663157633
 21
357.7729707073
  0
LINE
  5
4FA
100
AcDbEntity
  8
0
100
AcDbLine
 62
7
  6
CONTINUOUS
 10
815.6741282633
 20
357.698502631
 11
815.4371483734
 21
357.7729707073
  0
LINE
  5
4FB
100
AcDbEntity
  8
0
100
AcDbLine
 62
7
  6
CONTINUOUS
 10
1228.8012108734
 20
328.9750983763
 11
1228.6590233734
 21
328.7516941215
  0
LINE
  5
4FC
100
AcDbEntity
  8
0
100
AcDbLine
 62
7
  6
CONTINUOUS
 10
1228.8486070684
 20
327.4112685929
 11
1228.7064195683
 21
327.1878643642
  0
LINE
  5
4FD
100
AcDbEntity
  8
0
100
AcDbLine
 62
7
  6
CONTINUOUS
 10
1229.9861070684
 20
326.0708430122
 11
1230.1282945684
 21
326.2942472409
  0
LINE
  5
4FE
100
AcDbEntity
  8
0
100
AcDbLine
 62
7
  6
CONTINUOUS
 10
1233.2090233734
 20
327.0389282118
 11
1233.3038157633
 21
327.1878643642
  0
LINE
  5
4FF
100
AcDbEntity
  8
0
100
AcDbLine
 62
7
  6
CONTINUOUS
 10
1235.3418358734
 20
329.0495664525
 11
1235.1522532633
 21
328.7516941215
  0
LINE
  5
500
100
AcDbEntity
  8
0
100
AcDbLine
 62
7
  6
CONTINUOUS
 10
1237.3324614158
 20
329.0495664525
 11
1237.1428777209
 21
328.7516941215
  0
LINE
  5
501
100
AcDbEntity
  8
0
100
AcDbLine
 62
7
  6
CONTINUOUS
 10
1238.6121489158
 20
325.996374936
 11
1238.8017320684
 21
326.2942472409
  0
LINE
  5
502
100
AcDbEntity
  8
0
100
AcDbLine
 62
7
  6
CONTINUOUS
 10
1243.9204820684
 20
329.0495664525
 11
1243.7308986446
 21
328.7516941215
  0
LINE
  5
503
100
AcDbEntity
  8
0
100
AcDbLine
 62
7
  6
CONTINUOUS
 10
1245.2001695684
 20
325.996374936
 11
1245.3897529243
 21
326.2942472409
  0
LINE
  5
504
100
AcDbEntity
  8
0
100
AcDbLine
 62
7
  6
CONTINUOUS
 10
1017.3798570684
 20
311.7729707073
 11
1027.3798570684
 21
311.7729707073
  0
LINE
  5
505
100
AcDbEntity
  8
0
100
AcDbLine
 62
7
  6
CONTINUOUS
 10
1028.7027327239
 20
312.2729707073
 11
1016.0569814128
 21
312.2729707073
  0
LINE
  5
506
100
AcDbEntity
  8
BEZUGSACHSEN
100
AcDbLine
 62
7
  6
CONTINUOUS
 10
1184.8798570684
 20
315.7729707073
 11
1180.3798570684
 21
315.7729707073
  0
LINE
  5
507
100
AcDbEntity
  8
0
100
AcDbLine
 62
7
  6
CONTINUOUS
 10
1158.8798570684
 20
317.7729707073
 11
1145.9517090616
 21
317.7729707073
  0
LINE
  5
508
100
AcDbEntity
  8
RUNDUNGEN
100
AcDbLine
 62
7
  6
CONTINUOUS
 10
1145.9517090616
 20
317.7729707073
 11
1158.8798570684
 21
317.7729707073
  0
LINE
  5
509
100
AcDbEntity
  8
0
100
AcDbLine
 62
7
  6
CONTINUOUS
 10
998.9272546139
 20
322.3935854657
 11
998.2162885547
 21
322.6523559488
  0
LINE
  5
50A
100
AcDbEntity
  8
0
100
AcDbLine
 62
7
  6
CONTINUOUS
 10
1145.9517090616
 20
317.7729707073
 11
1145.9517090616
 21
365.7729707073
  0
LINE
  5
50B
100
AcDbEntity
  8
RUNDUNGEN
100
AcDbLine
 62
7
  6
CONTINUOUS
 10
1159.8798570684
 20
318.7729707073
 11
1159.8798570684
 21
364.7729707073
  0
LINE
  5
50C
100
AcDbEntity
  8
0
100
AcDbLine
 62
7
  6
CONTINUOUS
 10
1228.8486070684
 20
326.8155239831
 11
1228.9433983734
 21
327.0389282118
  0
LINE
  5
50D
100
AcDbEntity
  8
0
100
AcDbLine
 62
7
  6
CONTINUOUS
 10
1229.9861070684
 20
326.6665878306
 11
1229.8913157633
 21
326.4431833933
  0
LINE
  5
50E
100
AcDbEntity
  8
0
100
AcDbLine
 62
7
  6
CONTINUOUS
 10
1228.8012108734
 20
328.3793536882
 11
1228.9433983734
 21
328.6772260453
  0
LINE
  5
50F
100
AcDbEntity
  8
0
100
AcDbLine
 62
7
  6
CONTINUOUS
 10
1230.0335032633
 20
328.1559494595
 11
1229.8913157633
 21
327.8580770503
  0
LINE
  5
510
100
AcDbEntity
  8
0
100
AcDbLine
 62
7
  6
CONTINUOUS
 10
1233.0668358734
 20
327.4112685929
 11
1232.9246483734
 21
327.113396288
  0
LINE
  5
511
100
AcDbEntity
  8
BEZUGSACHSEN
100
AcDbLine
 62
7
  6
CONTINUOUS
 10
820.3798570684
 20
320.7729707073
 11
788.1125727539
 21
320.7729707073
  0
LINE
  5
512
100
AcDbEntity
  8
RUNDUNGEN
100
AcDbLine
 62
7
  6
CONTINUOUS
 10
788.530684269
 20
320.7729707073
 11
788.1119078759
 21
320.7729707073
  0
LINE
  5
513
100
AcDbEntity
  8
BEZUGSACHSEN
100
AcDbLine
 62
7
  6
CONTINUOUS
 10
1224.3798570684
 20
320.7729707073
 11
1256.6471413828
 21
320.7729707073
  0
LINE
  5
514
100
AcDbEntity
  8
0
100
AcDbLine
 62
7
  6
CONTINUOUS
 10
1045.1484192361
 20
322.2729707073
 11
1040.3798570684
 21
322.2729707073
  0
LINE
  5
515
100
AcDbEntity
  8
0
100
AcDbLine
 62
7
  6
CONTINUOUS
 10
1004.3798570684
 20
322.2729707073
 11
999.6112949006
 21
322.2729707073
  0
LINE
  5
516
100
AcDbEntity
  8
0
100
AcDbLine
 62
7
  6
CONTINUOUS
 10
905.3457895814
 20
322.2729707073
 11
884.8798570684
 21
322.2729707073
  0
LINE
  5
517
100
AcDbEntity
  8
RUNDUNGEN
100
AcDbLine
 62
7
  6
CONTINUOUS
 10
884.8798570684
 20
322.2729707073
 11
905.3457895814
 21
322.2729707073
  0
LINE
  5
518
100
AcDbEntity
  8
RUNDUNGEN
100
AcDbLine
 62
7
  6
CONTINUOUS
 10
999.6112949006
 20
322.2729707073
 11
1004.3798570684
 21
322.2729707073
  0
LINE
  5
519
100
AcDbEntity
  8
RUNDUNGEN
100
AcDbLine
 62
7
  6
CONTINUOUS
 10
1040.3798570684
 20
322.2729707073
 11
1045.1484192361
 21
322.2729707073
  0
LINE
  5
51A
100
AcDbEntity
  8
0
100
AcDbLine
 62
7
  6
CONTINUOUS
 10
1137.2344750835
 20
322.7729707073
 11
1047.2274658687
 21
322.7729707073
  0
LINE
  5
51B
100
AcDbEntity
  8
0
100
AcDbLine
 62
7
  6
CONTINUOUS
 10
997.532248268
 20
322.7729707073
 11
907.5252390532
 21
322.7729707073
  0
LINE
  5
51C
100
AcDbEntity
  8
BEZUGSACHSEN
100
AcDbLine
 62
7
  6
CONTINUOUS
 10
1243.3798570684
 20
324.2729707073
 11
1229.3798570684
 21
324.2729707073
  0
LINE
  5
51D
100
AcDbEntity
  8
BEZUGSACHSEN
100
AcDbLine
 62
7
  6
CONTINUOUS
 10
801.3798570684
 20
324.2729707073
 11
815.3798570684
 21
324.2729707073
  0
LINE
  5
51E
100
AcDbEntity
  8
0
100
AcDbLine
 62
7
  6
CONTINUOUS
 10
1229.3225657633
 20
325.7729707073
 11
1229.5121483734
 21
325.7729707073
  0
LINE
  5
51F
100
AcDbEntity
  8
0
100
AcDbLine
 62
7
  6
CONTINUOUS
 10
1230.6496483734
 20
325.7729707073
 11
1232.4506907633
 21
325.7729707073
  0
LINE
  5
520
100
AcDbEntity
  8
0
100
AcDbLine
 62
7
  6
CONTINUOUS
 10
1233.4933983734
 20
325.7729707073
 11
1234.6308983734
 21
325.7729707073
  0
LINE
  5
521
100
AcDbEntity
  8
0
100
AcDbLine
 62
7
  6
CONTINUOUS
 10
1235.0100657633
 20
325.7729707073
 11
1235.2944407633
 21
325.7729707073
  0
LINE
  5
522
100
AcDbEntity
  8
0
100
AcDbLine
 62
7
  6
CONTINUOUS
 10
1236.4319407633
 20
325.7729707073
 11
1236.7163157633
 21
325.7729707073
  0
LINE
  5
523
100
AcDbEntity
  8
0
100
AcDbLine
 62
7
  6
CONTINUOUS
 10
1237.7590239158
 20
325.7729707073
 11
1238.1855864158
 21
325.7729707073
  0
LINE
  5
524
100
AcDbEntity
  8
0
100
AcDbLine
 62
7
  6
CONTINUOUS
 10
1241.5980864158
 20
325.7729707073
 11
1243.3043361446
 21
325.7729707073
  0
LINE
  5
525
100
AcDbEntity
  8
0
100
AcDbLine
 62
7
  6
CONTINUOUS
 10
1244.3470445684
 20
325.7729707073
 11
1244.7736070684
 21
325.7729707073
  0
LINE
  5
526
100
AcDbEntity
  8
0
100
AcDbLine
 62
7
  6
CONTINUOUS
 10
1245.9111070684
 20
325.7729707073
 11
1246.1954820683
 21
325.7729707073
  0
LINE
  5
527
100
AcDbEntity
  8
0
100
AcDbLine
 62
7
  6
CONTINUOUS
 10
1234.3465233734
 20
326.1453110884
 11
1233.4460032633
 21
326.1453110884
  0
LINE
  5
528
100
AcDbEntity
  8
0
100
AcDbLine
 62
7
  6
CONTINUOUS
 10
1232.4506907633
 20
326.1453110884
 11
1231.6923570684
 21
326.1453110884
  0
LINE
  5
529
100
AcDbEntity
  8
0
100
AcDbLine
 62
7
  6
CONTINUOUS
 10
1231.4079820684
 20
326.1453110884
 11
1230.6496483734
 21
326.1453110884
  0
LINE
  5
52A
100
AcDbEntity
  8
0
100
AcDbLine
 62
7
  6
CONTINUOUS
 10
1229.5121483734
 20
326.1453110884
 11
1229.3225657633
 21
326.1453110884
  0
LINE
  5
52B
100
AcDbEntity
  8
0
100
AcDbLine
 62
7
  6
CONTINUOUS
 10
1244.7736070684
 20
326.2197791646
 11
1244.3470445684
 21
326.2197791646
  0
LINE
  5
52C
100
AcDbEntity
  8
0
100
AcDbLine
 62
7
  6
CONTINUOUS
 10
1243.0199611446
 20
326.2197791646
 11
1241.5980864158
 21
326.2197791646
  0
LINE
  5
52D
100
AcDbEntity
  8
0
100
AcDbLine
 62
7
  6
CONTINUOUS
 10
1238.1855864158
 20
326.2197791646
 11
1237.7590239158
 21
326.2197791646
  0
LINE
  5
52E
100
AcDbEntity
  8
0
100
AcDbLine
 62
7
  6
CONTINUOUS
 10
1243.9678778565
 20
326.6665878306
 11
1243.6835029921
 21
326.6665878306
  0
LINE
  5
52F
100
AcDbEntity
  8
0
100
AcDbLine
 62
7
  6
CONTINUOUS
 10
1237.3798570684
 20
326.6665878306
 11
1237.0954820684
 21
326.6665878306
  0
LINE
  5
530
100
AcDbEntity
  8
0
100
AcDbLine
 62
7
  6
CONTINUOUS
 10
1241.7876695684
 20
327.1878643642
 11
1243.0199611446
 21
327.1878643642
  0
LINE
  5
531
100
AcDbEntity
  8
0
100
AcDbLine
 62
7
  6
CONTINUOUS
 10
1233.4460032633
 20
327.2623324405
 11
1234.3465233734
 21
327.2623324405
  0
LINE
  5
532
100
AcDbEntity
  8
0
100
AcDbLine
 62
7
  6
CONTINUOUS
 10
1229.3225657633
 20
327.3368005167
 11
1229.5121483734
 21
327.3368005167
  0
LINE
  5
533
100
AcDbEntity
  8
0
100
AcDbLine
 62
7
  6
CONTINUOUS
 10
1243.0199611446
 20
327.6346728216
 11
1241.7876695684
 21
327.6346728216
  0
LINE
  5
534
100
AcDbEntity
  8
0
100
AcDbLine
 62
7
  6
CONTINUOUS
 10
1229.5121483734
 20
327.6346728216
 11
1229.3225657633
 21
327.6346728216
  0
LINE
  5
535
100
AcDbEntity
  8
0
100
AcDbLine
 62
7
  6
CONTINUOUS
 10
1234.3465233734
 20
327.7091408978
 11
1233.5407945684
 21
327.7091408978
  0
LINE
  5
536
100
AcDbEntity
  8
0
100
AcDbLine
 62
7
  6
CONTINUOUS
 10
1237.0954820684
 20
328.3793536882
 11
1237.3798570684
 21
328.3793536882
  0
LINE
  5
537
100
AcDbEntity
  8
0
100
AcDbLine
 62
7
  6
CONTINUOUS
 10
1243.6835029921
 20
328.3793536882
 11
1243.9678778565
 21
328.3793536882
  0
LINE
  5
538
100
AcDbEntity
  8
0
100
AcDbLine
 62
7
  6
CONTINUOUS
 10
1235.7683983734
 20
328.8261621977
 11
1235.9579820684
 21
328.8261621977
  0
LINE
  5
539
100
AcDbEntity
  8
0
100
AcDbLine
 62
7
  6
CONTINUOUS
 10
1237.7590239158
 20
328.8261621977
 11
1238.1855864158
 21
328.8261621977
  0
LINE
  5
53A
100
AcDbEntity
  8
0
100
AcDbLine
 62
7
  6
CONTINUOUS
 10
1241.5980864158
 20
328.8261621977
 11
1243.0199611446
 21
328.8261621977
  0
LINE
  5
53B
100
AcDbEntity
  8
0
100
AcDbLine
 62
7
  6
CONTINUOUS
 10
1244.3470445684
 20
328.8261621977
 11
1244.7736070684
 21
328.8261621977
  0
LINE
  5
53C
100
AcDbEntity
  8
0
100
AcDbLine
 62
7
  6
CONTINUOUS
 10
1229.3225657633
 20
328.900630274
 11
1229.5121483734
 21
328.900630274
  0
LINE
  5
53D
100
AcDbEntity
  8
0
100
AcDbLine
 62
7
  6
CONTINUOUS
 10
1246.1954820683
 20
329.2729707073
 11
1245.9111070684
 21
329.2729707073
  0
LINE
  5
53E
100
AcDbEntity
  8
0
100
AcDbLine
 62
7
  6
CONTINUOUS
 10
1244.7736070684
 20
329.2729707073
 11
1244.3470445684
 21
329.2729707073
  0
LINE
  5
53F
100
AcDbEntity
  8
0
100
AcDbLine
 62
7
  6
CONTINUOUS
 10
1243.3043361446
 20
329.2729707073
 11
1241.5980864158
 21
329.2729707073
  0
LINE
  5
540
100
AcDbEntity
  8
0
100
AcDbLine
 62
7
  6
CONTINUOUS
 10
1238.1855864158
 20
329.2729707073
 11
1237.7590239158
 21
329.2729707073
  0
LINE
  5
541
100
AcDbEntity
  8
0
100
AcDbLine
 62
7
  6
CONTINUOUS
 10
1235.9579820684
 20
329.2729707073
 11
1235.7683983734
 21
329.2729707073
  0
LINE
  5
542
100
AcDbEntity
  8
0
100
AcDbLine
 62
7
  6
CONTINUOUS
 10
1234.6308983734
 20
329.2729707073
 11
1234.3465233734
 21
329.2729707073
  0
LINE
  5
543
100
AcDbEntity
  8
0
100
AcDbLine
 62
7
  6
CONTINUOUS
 10
1233.1616282633
 20
329.2729707073
 11
1232.8298570684
 21
329.2729707073
  0
LINE
  5
544
100
AcDbEntity
  8
0
100
AcDbLine
 62
7
  6
CONTINUOUS
 10
1231.6923570684
 20
329.2729707073
 11
1231.4079820684
 21
329.2729707073
  0
LINE
  5
545
100
AcDbEntity
  8
0
100
AcDbLine
 62
7
  6
CONTINUOUS
 10
1229.5595445684
 20
329.2729707073
 11
1229.2751695684
 21
329.2729707073
  0
LINE
  5
546
100
AcDbEntity
  8
0
100
AcDbLine
 62
7
  6
CONTINUOUS
 10
1104.3798570684
 20
330.7729707073
 11
1112.3798570684
 21
330.7729707073
  0
LINE
  5
547
100
AcDbEntity
  8
BEZUGSACHSEN
100
AcDbLine
 62
7
  6
CONTINUOUS
 10
815.3798570684
 20
331.2729707073
 11
801.3798570684
 21
331.2729707073
  0
LINE
  5
548
100
AcDbEntity
  8
BEZUGSACHSEN
100
AcDbLine
 62
7
  6
CONTINUOUS
 10
1229.3798570684
 20
331.2729707073
 11
1243.3798570684
 21
331.2729707073
  0
LINE
  5
549
100
AcDbEntity
  8
0
100
AcDbLine
 62
7
  6
CONTINUOUS
 10
883.8798570684
 20
331.7729707073
 11
823.3798570684
 21
331.7729707073
  0
LINE
  5
54A
100
AcDbEntity
  8
RUNDUNGEN
100
AcDbLine
 62
7
  6
CONTINUOUS
 10
883.8798570684
 20
331.7729707073
 11
823.3798570684
 21
331.7729707073
  0
LINE
  5
54B
100
AcDbEntity
  8
0
100
AcDbLine
 62
7
  6
CONTINUOUS
 10
1159.8798570684
 20
331.7729707073
 11
1179.8798570684
 21
331.7729707073
  0
LINE
  5
54C
100
AcDbEntity
  8
RUNDUNGEN
100
AcDbLine
 62
7
  6
CONTINUOUS
 10
1159.8798570684
 20
331.7729707073
 11
1179.8798570684
 21
331.7729707073
  0
LINE
  5
54D
100
AcDbEntity
  8
0
100
AcDbLine
 62
7
  6
CONTINUOUS
 10
1186.8798570684
 20
331.7729707073
 11
1221.3798570684
 21
331.7729707073
  0
LINE
  5
54E
100
AcDbEntity
  8
RUNDUNGEN
100
AcDbLine
 62
7
  6
CONTINUOUS
 10
1186.8798570684
 20
331.7729707073
 11
1221.3798570684
 21
331.7729707073
  0
LINE
  5
54F
100
AcDbEntity
  8
BEZUGSACHSEN
100
AcDbLine
 62
7
  6
CONTINUOUS
 10
786.6917863038
 20
336.7229707073
 11
807.3298570684
 21
336.7229707073
  0
LINE
  5
550
100
AcDbEntity
  8
RUNDUNGEN
100
AcDbLine
 62
7
  6
CONTINUOUS
 10
786.6917863038
 20
336.7229707073
 11
791.6488569795
 21
336.7229707073
  0
LINE
  5
551
100
AcDbEntity
  8
BEZUGSACHSEN
100
AcDbLine
 62
7
  6
CONTINUOUS
 10
1237.4298570684
 20
336.7229707073
 11
1258.0679278329
 21
336.7229707073
  0
LINE
  5
552
100
AcDbEntity
  8
0
100
AcDbLine
 62
7
  6
CONTINUOUS
 10
969.8298570684
 20
337.2729707073
 11
973.8798570684
 21
337.2729707073
  0
LINE
  5
553
100
AcDbEntity
  8
0
100
AcDbLine
 62
7
  6
CONTINUOUS
 10
975.6798570684
 20
337.2729707073
 11
977.4798570684
 21
337.2729707073
  0
LINE
  5
554
100
AcDbEntity
  8
0
100
AcDbLine
 62
7
  6
CONTINUOUS
 10
981.0798570684
 20
337.2729707073
 11
982.8798570684
 21
337.2729707073
  0
LINE
  5
555
100
AcDbEntity
  8
0
100
AcDbLine
 62
7
  6
CONTINUOUS
 10
987.3048570684
 20
337.2729707073
 11
991.8798570684
 21
337.2729707073
  0
LINE
  5
556
100
AcDbEntity
  8
RUNDUNGEN
100
AcDbLine
 62
7
  6
CONTINUOUS
 10
1179.8798570684
 20
367.2729707073
 11
1179.8798570684
 21
316.2729707073
  0
LINE
  5
557
100
AcDbEntity
  8
0
100
AcDbLine
 62
7
  6
CONTINUOUS
 10
1228.7064195683
 20
327.1878643642
 11
1228.6116282633
 21
326.8899920593
  0
LINE
  5
558
100
AcDbEntity
  8
0
100
AcDbLine
 62
7
  6
CONTINUOUS
 10
1235.3418358734
 20
328.3793536882
 11
1235.4366282633
 21
328.6027579169
  0
LINE
  5
559
100
AcDbEntity
  8
0
100
AcDbLine
 62
7
  6
CONTINUOUS
 10
1238.6121489158
 20
326.6665878306
 11
1238.5173570684
 21
326.4431833933
  0
LINE
  5
55A
100
AcDbEntity
  8
0
100
AcDbLine
 62
7
  6
CONTINUOUS
 10
1245.2001695684
 20
326.6665878306
 11
1245.1053779243
 21
326.4431833933
  0
LINE
  5
55B
100
AcDbEntity
  8
BEZUGSACHSEN
100
AcDbLine
 62
7
  6
CONTINUOUS
 10
1259.2458824721
 20
322.2729707073
 11
1262.1119078759
 21
327.2370723224
  0
LINE
  5
55C
100
AcDbEntity
  8
0
100
AcDbLine
 62
7
  6
CONTINUOUS
 10
991.8798570684
 20
338.7729707073
 11
987.9048570684
 21
338.7729707073
  0
LINE
  5
55D
100
AcDbEntity
  8
0
100
AcDbLine
 62
7
  6
CONTINUOUS
 10
973.8798570684
 20
338.7729707073
 11
970.2048570684
 21
338.7729707073
  0
LINE
  5
55E
100
AcDbEntity
  8
0
100
AcDbLine
 62
7
  6
CONTINUOUS
 10
972.0798570684
 20
339.6729707073
 11
973.8798570684
 21
339.6729707073
  0
LINE
  5
55F
100
AcDbEntity
  8
0
100
AcDbLine
 62
7
  6
CONTINUOUS
 10
990.3798570684
 20
339.6729707073
 11
991.8798570684
 21
339.6729707073
  0
LINE
  5
560
100
AcDbEntity
  8
0
100
AcDbLine
 62
7
  6
CONTINUOUS
 10
1100.3798570684
 20
340.7729707073
 11
1104.3798570684
 21
340.7729707073
  0
LINE
  5
561
100
AcDbEntity
  8
0
100
AcDbLine
 62
7
  6
CONTINUOUS
 10
1112.3798570684
 20
340.7729707073
 11
1116.3798570684
 21
340.7729707073
  0
LINE
  5
562
100
AcDbEntity
  8
0
100
AcDbLine
 62
7
  6
CONTINUOUS
 10
987.9048570684
 20
341.0229707073
 11
990.3798570684
 21
341.0229707073
  0
LINE
  5
563
100
AcDbEntity
  8
0
100
AcDbLine
 62
7
  6
CONTINUOUS
 10
990.3798570684
 20
342.5229707073
 11
988.8429967892
 21
342.5229707073
  0
LINE
  5
564
100
AcDbEntity
  8
0
100
AcDbLine
 62
7
  6
CONTINUOUS
 10
970.2048570684
 20
344.7729707073
 11
972.0798570684
 21
344.7729707073
  0
LINE
  5
565
100
AcDbEntity
  8
0
100
AcDbLine
 62
7
  6
CONTINUOUS
 10
991.8798570684
 20
346.2729707073
 11
990.3798570684
 21
346.2729707073
  0
LINE
  5
566
100
AcDbEntity
  8
0
100
AcDbLine
 62
7
  6
CONTINUOUS
 10
985.8119078759
 20
346.2729707073
 11
984.0798570684
 21
346.2729707073
  0
LINE
  5
567
100
AcDbEntity
  8
0
100
AcDbLine
 62
7
  6
CONTINUOUS
 10
973.8798570684
 20
346.2729707073
 11
969.8298570684
 21
346.2729707073
  0
LINE
  5
568
100
AcDbEntity
  8
0
100
AcDbLine
 62
7
  6
CONTINUOUS
 10
1159.8798570684
 20
346.7729707073
 11
1179.8798570684
 21
346.7729707073
  0
LINE
  5
569
100
AcDbEntity
  8
0
100
AcDbLine
 62
7
  6
CONTINUOUS
 10
1186.8798570684
 20
346.7729707073
 11
1214.3798570684
 21
346.7729707073
  0
LINE
  5
56A
100
AcDbEntity
  8
RUNDUNGEN
100
AcDbLine
 62
7
  6
CONTINUOUS
 10
1258.0679278329
 20
346.8229707073
 11
1253.1108571572
 21
346.8229707073
  0
LINE
  5
56B
100
AcDbEntity
  8
BEZUGSACHSEN
100
AcDbLine
 62
7
  6
CONTINUOUS
 10
807.3298570684
 20
346.8229707073
 11
786.6917863038
 21
346.8229707073
  0
LINE
  5
56C
100
AcDbEntity
  8
BEZUGSACHSEN
100
AcDbLine
 62
7
  6
CONTINUOUS
 10
1237.4298570684
 20
346.8229707073
 11
1258.0679278329
 21
346.8229707073
  0
LINE
  5
56D
100
AcDbEntity
  8
0
100
AcDbLine
 62
7
  6
CONTINUOUS
 10
1159.8798570684
 20
350.4332247451
 11
1179.8798570684
 21
350.4332247451
  0
LINE
  5
56E
100
AcDbEntity
  8
0
100
AcDbLine
 62
7
  6
CONTINUOUS
 10
1186.8798570684
 20
350.4332247451
 11
1219.1970222884
 21
350.4332247451
  0
LINE
  5
56F
100
AcDbEntity
  8
0
100
AcDbLine
 62
7
  6
CONTINUOUS
 10
883.8798570684
 20
351.7729707073
 11
823.3798570684
 21
351.7729707073
  0
LINE
  5
570
100
AcDbEntity
  8
RUNDUNGEN
100
AcDbLine
 62
7
  6
CONTINUOUS
 10
883.8798570684
 20
351.7729707073
 11
823.3798570684
 21
351.7729707073
  0
LINE
  5
571
100
AcDbEntity
  8
0
100
AcDbLine
 62
7
  6
CONTINUOUS
 10
1159.8798570684
 20
351.7729707073
 11
1179.8798570684
 21
351.7729707073
  0
LINE
  5
572
100
AcDbEntity
  8
RUNDUNGEN
100
AcDbLine
 62
7
  6
CONTINUOUS
 10
1159.8798570684
 20
351.7729707073
 11
1179.8798570684
 21
351.7729707073
  0
LINE
  5
573
100
AcDbEntity
  8
0
100
AcDbLine
 62
7
  6
CONTINUOUS
 10
1186.8798570684
 20
351.7729707073
 11
1221.3798570684
 21
351.7729707073
  0
LINE
  5
574
100
AcDbEntity
  8
RUNDUNGEN
100
AcDbLine
 62
7
  6
CONTINUOUS
 10
1186.8798570684
 20
351.7729707073
 11
1221.3798570684
 21
351.7729707073
  0
LINE
  5
575
100
AcDbEntity
  8
BEZUGSACHSEN
100
AcDbLine
 62
7
  6
CONTINUOUS
 10
815.3798570684
 20
352.2729707073
 11
801.3798570684
 21
352.2729707073
  0
LINE
  5
576
100
AcDbEntity
  8
BEZUGSACHSEN
100
AcDbLine
 62
7
  6
CONTINUOUS
 10
1229.3798570684
 20
352.2729707073
 11
1243.3798570684
 21
352.2729707073
  0
LINE
  5
577
100
AcDbEntity
  8
0
100
AcDbLine
 62
7
  6
CONTINUOUS
 10
798.5642320684
 20
354.2729707073
 11
798.8486070684
 21
354.2729707073
  0
LINE
  5
578
100
AcDbEntity
  8
0
100
AcDbLine
 62
7
  6
CONTINUOUS
 10
799.9861070684
 20
354.2729707073
 11
800.4126695684
 21
354.2729707073
  0
LINE
  5
579
100
AcDbEntity
  8
0
100
AcDbLine
 62
7
  6
CONTINUOUS
 10
801.4553779921
 20
354.2729707073
 11
803.1616277209
 21
354.2729707073
  0
LINE
  5
57A
100
AcDbEntity
  8
0
100
AcDbLine
 62
7
  6
CONTINUOUS
 10
806.5741277209
 20
354.2729707073
 11
807.0006902209
 21
354.2729707073
  0
LINE
  5
57B
100
AcDbEntity
  8
0
100
AcDbLine
 62
7
  6
CONTINUOUS
 10
808.8017320684
 20
354.2729707073
 11
808.9913157633
 21
354.2729707073
  0
LINE
  5
57C
100
AcDbEntity
  8
0
100
AcDbLine
 62
7
  6
CONTINUOUS
 10
810.1288157633
 20
354.2729707073
 11
810.4131907633
 21
354.2729707073
  0
LINE
  5
57D
100
AcDbEntity
  8
0
100
AcDbLine
 62
7
  6
CONTINUOUS
 10
811.5980858734
 20
354.2729707073
 11
811.9298570684
 21
354.2729707073
  0
LINE
  5
57E
100
AcDbEntity
  8
0
100
AcDbLine
 62
7
  6
CONTINUOUS
 10
813.0673570684
 20
354.2729707073
 11
813.3517320684
 21
354.2729707073
  0
LINE
  5
57F
100
AcDbEntity
  8
0
100
AcDbLine
 62
7
  6
CONTINUOUS
 10
815.2001695684
 20
354.2729707073
 11
815.4845445684
 21
354.2729707073
  0
LINE
  5
580
100
AcDbEntity
  8
0
100
AcDbLine
 62
7
  6
CONTINUOUS
 10
815.4371483734
 20
354.6453111406
 11
815.2475657633
 21
354.6453111406
  0
LINE
  5
581
100
AcDbEntity
  8
0
100
AcDbLine
 62
7
  6
CONTINUOUS
 10
808.9913157633
 20
354.7197792168
 11
808.8017320684
 21
354.7197792168
  0
LINE
  5
582
100
AcDbEntity
  8
0
100
AcDbLine
 62
7
  6
CONTINUOUS
 10
807.0006902209
 20
354.7197792168
 11
806.5741277209
 21
354.7197792168
  0
LINE
  5
583
100
AcDbEntity
  8
0
100
AcDbLine
 62
7
  6
CONTINUOUS
 10
803.1616277209
 20
354.7197792168
 11
801.7397529921
 21
354.7197792168
  0
LINE
  5
584
100
AcDbEntity
  8
0
100
AcDbLine
 62
7
  6
CONTINUOUS
 10
800.4126695684
 20
354.7197792168
 11
799.9861070684
 21
354.7197792168
  0
LINE
  5
585
100
AcDbEntity
  8
0
100
AcDbLine
 62
7
  6
CONTINUOUS
 10
807.6642320684
 20
355.1665877263
 11
807.3798570684
 21
355.1665877263
  0
LINE
  5
586
100
AcDbEntity
  8
0
100
AcDbLine
 62
7
  6
CONTINUOUS
 10
801.0762111446
 20
355.1665877263
 11
800.7918362802
 21
355.1665877263
  0
LINE
  5
587
100
AcDbEntity
  8
0
100
AcDbLine
 62
7
  6
CONTINUOUS
 10
810.4131907633
 20
355.8368005167
 11
811.2189195684
 21
355.8368005167
  0
LINE
  5
588
100
AcDbEntity
  8
0
100
AcDbLine
 62
7
  6
CONTINUOUS
 10
801.7397529921
 20
355.9112685929
 11
802.9720445684
 21
355.9112685929
  0
LINE
  5
589
100
AcDbEntity
  8
0
100
AcDbLine
 62
7
  6
CONTINUOUS
 10
815.2475657633
 20
355.9112685929
 11
815.4371483734
 21
355.9112685929
  0
LINE
  5
58A
100
AcDbEntity
  8
0
100
AcDbLine
 62
7
  6
CONTINUOUS
 10
815.4371483734
 20
356.2091408978
 11
815.2475657633
 21
356.2091408978
  0
LINE
  5
58B
100
AcDbEntity
  8
0
100
AcDbLine
 62
7
  6
CONTINUOUS
 10
811.3137108734
 20
356.2836089741
 11
810.4131907633
 21
356.2836089741
  0
LINE
  5
58C
100
AcDbEntity
  8
0
100
AcDbLine
 62
7
  6
CONTINUOUS
 10
802.9720445684
 20
356.3580770503
 11
801.7397529921
 21
356.3580770503
  0
LINE
  5
58D
100
AcDbEntity
  8
0
100
AcDbLine
 62
7
  6
CONTINUOUS
 10
800.7918362802
 20
356.8793535839
 11
801.0762111446
 21
356.8793535839
  0
LINE
  5
58E
100
AcDbEntity
  8
0
100
AcDbLine
 62
7
  6
CONTINUOUS
 10
807.3798570684
 20
356.8793535839
 11
807.6642320684
 21
356.8793535839
  0
LINE
  5
58F
100
AcDbEntity
  8
0
100
AcDbLine
 62
7
  6
CONTINUOUS
 10
799.9861070684
 20
357.3261622499
 11
800.4126695684
 21
357.3261622499
  0
LINE
  5
590
100
AcDbEntity
  8
0
100
AcDbLine
 62
7
  6
CONTINUOUS
 10
801.7397529921
 20
357.3261622499
 11
803.1616277209
 21
357.3261622499
  0
LINE
  5
591
100
AcDbEntity
  8
0
100
AcDbLine
 62
7
  6
CONTINUOUS
 10
806.5741277209
 20
357.3261622499
 11
807.0006902209
 21
357.3261622499
  0
LINE
  5
592
100
AcDbEntity
  8
0
100
AcDbLine
 62
7
  6
CONTINUOUS
 10
810.4131907633
 20
357.4006303261
 11
811.3137108734
 21
357.4006303261
  0
LINE
  5
593
100
AcDbEntity
  8
0
100
AcDbLine
 62
7
  6
CONTINUOUS
 10
812.3090233734
 20
357.4006303261
 11
813.0673570684
 21
357.4006303261
  0
LINE
  5
594
100
AcDbEntity
  8
0
100
AcDbLine
 62
7
  6
CONTINUOUS
 10
813.3517320684
 20
357.4006303261
 11
814.1100657633
 21
357.4006303261
  0
LINE
  5
595
100
AcDbEntity
  8
0
100
AcDbLine
 62
7
  6
CONTINUOUS
 10
815.2475657633
 20
357.4006303261
 11
815.4371483734
 21
357.4006303261
  0
LINE
  5
596
100
AcDbEntity
  8
0
100
AcDbLine
 62
7
  6
CONTINUOUS
 10
815.4371483734
 20
357.7729707073
 11
815.2475657633
 21
357.7729707073
  0
LINE
  5
597
100
AcDbEntity
  8
0
100
AcDbLine
 62
7
  6
CONTINUOUS
 10
814.1100657633
 20
357.7729707073
 11
812.3090233734
 21
357.7729707073
  0
LINE
  5
598
100
AcDbEntity
  8
0
100
AcDbLine
 62
7
  6
CONTINUOUS
 10
811.2663157633
 20
357.7729707073
 11
810.1288157633
 21
357.7729707073
  0
LINE
  5
599
100
AcDbEntity
  8
0
100
AcDbLine
 62
7
  6
CONTINUOUS
 10
809.7496483734
 20
357.7729707073
 11
809.4652733734
 21
357.7729707073
  0
LINE
  5
59A
100
AcDbEntity
  8
0
100
AcDbLine
 62
7
  6
CONTINUOUS
 10
808.3277733734
 20
357.7729707073
 11
808.0433983734
 21
357.7729707073
  0
LINE
  5
59B
100
AcDbEntity
  8
0
100
AcDbLine
 62
7
  6
CONTINUOUS
 10
807.0006902209
 20
357.7729707073
 11
806.5741277209
 21
357.7729707073
  0
LINE
  5
59C
100
AcDbEntity
  8
0
100
AcDbLine
 62
7
  6
CONTINUOUS
 10
803.1616277209
 20
357.7729707073
 11
801.4553779921
 21
357.7729707073
  0
LINE
  5
59D
100
AcDbEntity
  8
0
100
AcDbLine
 62
7
  6
CONTINUOUS
 10
800.4126695684
 20
357.7729707073
 11
799.9861070684
 21
357.7729707073
  0
LINE
  5
59E
100
AcDbEntity
  8
0
100
AcDbLine
 62
7
  6
CONTINUOUS
 10
798.8486070684
 20
357.7729707073
 11
798.5642320684
 21
357.7729707073
  0
LINE
  5
59F
100
AcDbEntity
  8
RUNDUNGEN
100
AcDbLine
 62
7
  6
CONTINUOUS
 10
1186.8798570684
 20
365.7729706473
 11
1186.8798570684
 21
317.7729707673
  0
LINE
  5
5A0
100
AcDbEntity
  8
0
100
AcDbLine
 62
7
  6
CONTINUOUS
 10
1232.9246483734
 20
327.113396288
 11
1232.8772532633
 21
326.8899920593
  0
LINE
  5
5A1
100
AcDbEntity
  8
0
100
AcDbLine
 62
7
  6
CONTINUOUS
 10
1233.1616282633
 20
326.8155239831
 11
1233.2090233734
 21
327.0389282118
  0
LINE
  5
5A2
100
AcDbEntity
  8
0
100
AcDbLine
 62
7
  6
CONTINUOUS
 10
1228.6590233734
 20
328.7516941215
 11
1228.5642320684
 21
328.3793536882
  0
LINE
  5
5A3
100
AcDbEntity
  8
0
100
AcDbLine
 62
7
  6
CONTINUOUS
 10
1230.1756907633
 20
327.7836089741
 11
1230.2704820684
 21
328.1559494595
  0
LINE
  5
5A4
100
AcDbEntity
  8
0
100
AcDbLine
 62
7
  6
CONTINUOUS
 10
1230.1282945684
 20
326.2942472409
 11
1230.2230858734
 21
326.6665878306
  0
LINE
  5
5A5
100
AcDbEntity
  8
0
100
AcDbLine
 62
7
  6
CONTINUOUS
 10
1238.8017320684
 20
326.2942472409
 11
1238.8965239158
 21
326.5921195458
  0
LINE
  5
5A6
100
AcDbEntity
  8
0
100
AcDbLine
 62
7
  6
CONTINUOUS
 10
1245.3897529243
 20
326.2942472409
 11
1245.4845445684
 21
326.5921195458
  0
LINE
  5
5A7
100
AcDbEntity
  8
0
100
AcDbLine
 62
7
  6
CONTINUOUS
 10
1235.1522532633
 20
328.7516941215
 11
1235.0574608734
 21
328.4538217644
  0
LINE
  5
5A8
100
AcDbEntity
  8
BEZUGSACHSEN
100
AcDbLine
 62
7
  6
CONTINUOUS
 10
1243.3798570684
 20
359.2729707073
 11
1229.3798570684
 21
359.2729707073
  0
LINE
  5
5A9
100
AcDbEntity
  8
BEZUGSACHSEN
100
AcDbLine
 62
7
  6
CONTINUOUS
 10
801.3798570684
 20
359.2729707073
 11
815.3798570684
 21
359.2729707073
  0
LINE
  5
5AA
100
AcDbEntity
  8
0
100
AcDbLine
 62
7
  6
CONTINUOUS
 10
1137.2344750835
 20
360.7729707073
 11
1047.2274658687
 21
360.7729707073
  0
LINE
  5
5AB
100
AcDbEntity
  8
0
100
AcDbLine
 62
7
  6
CONTINUOUS
 10
997.532248268
 20
360.7729707073
 11
907.5252390532
 21
360.7729707073
  0
LINE
  5
5AC
100
AcDbEntity
  8
RUNDUNGEN
100
AcDbLine
 62
7
  6
CONTINUOUS
 10
997.532248268
 20
360.7729707073
 11
907.5252390532
 21
360.7729707073
  0
LINE
  5
5AD
100
AcDbEntity
  8
0
100
AcDbLine
 62
7
  6
CONTINUOUS
 10
1045.1484192361
 20
361.2729707073
 11
1040.3798570684
 21
361.2729707073
  0
LINE
  5
5AE
100
AcDbEntity
  8
0
100
AcDbLine
 62
7
  6
CONTINUOUS
 10
1004.3798570684
 20
361.2729707073
 11
999.6112949006
 21
361.2729707073
  0
LINE
  5
5AF
100
AcDbEntity
  8
0
100
AcDbLine
 62
7
  6
CONTINUOUS
 10
905.3457895814
 20
361.2729707073
 11
884.8798570684
 21
361.2729707073
  0
LINE
  5
5B0
100
AcDbEntity
  8
RUNDUNGEN
100
AcDbLine
 62
7
  6
CONTINUOUS
 10
884.8798570684
 20
361.2729707073
 11
905.3457895814
 21
361.2729707073
  0
LINE
  5
5B1
100
AcDbEntity
  8
RUNDUNGEN
100
AcDbLine
 62
7
  6
CONTINUOUS
 10
999.6112949006
 20
361.2729707073
 11
1004.3798570683
 21
361.2729707073
  0
LINE
  5
5B2
100
AcDbEntity
  8
RUNDUNGEN
100
AcDbLine
 62
7
  6
CONTINUOUS
 10
1040.3798570684
 20
361.2729707073
 11
1045.1484192361
 21
361.2729707073
  0
LINE
  5
5B3
100
AcDbEntity
  8
BEZUGSACHSEN
100
AcDbLine
 62
7
  6
CONTINUOUS
 10
788.1119078759
 20
362.7729707073
 11
820.3798570684
 21
362.7729707073
  0
LINE
  5
5B4
100
AcDbEntity
  8
RUNDUNGEN
100
AcDbLine
 62
7
  6
CONTINUOUS
 10
1256.2290298677
 20
362.7729707073
 11
1256.6478062608
 21
362.7729707073
  0
LINE
  5
5B5
100
AcDbEntity
  8
BEZUGSACHSEN
100
AcDbLine
 62
7
  6
CONTINUOUS
 10
1224.3798570684
 20
362.7729707073
 11
1256.6471413828
 21
362.7729707073
  0
LINE
  5
5B6
100
AcDbEntity
  8
0
100
AcDbLine
 62
7
  6
CONTINUOUS
 10
1158.8798570684
 20
365.7729707073
 11
1145.9517090616
 21
365.7729707073
  0
LINE
  5
5B7
100
AcDbEntity
  8
RUNDUNGEN
100
AcDbLine
 62
7
  6
CONTINUOUS
 10
1145.9517090616
 20
365.7729707073
 11
1158.8798570684
 21
365.7729707073
  0
LINE
  5
5B8
100
AcDbEntity
  8
BEZUGSACHSEN
100
AcDbLine
 62
7
  6
CONTINUOUS
 10
1184.8798570684
 20
367.7729707073
 11
1180.3798570684
 21
367.7729707073
  0
LINE
  5
5B9
100
AcDbEntity
  8
0
100
AcDbLine
 62
7
  6
CONTINUOUS
 10
1029.3798570684
 20
371.2729707073
 11
1015.3798570684
 21
371.2729707073
  0
LINE
  5
5BA
100
AcDbEntity
  8
0
100
AcDbLine
 62
7
  6
CONTINUOUS
 10
1035.3798570684
 20
372.7729707073
 11
1029.3798570684
 21
372.7729707073
  0
LINE
  5
5BB
100
AcDbEntity
  8
0
100
AcDbLine
 62
7
  6
CONTINUOUS
 10
1015.3798570684
 20
372.7729707073
 11
1009.3798570684
 21
372.7729707073
  0
LINE
  5
5BC
100
AcDbEntity
  8
0
100
AcDbLine
 62
7
  6
CONTINUOUS
 10
1046.543425582
 20
360.8935854657
 11
1045.8324595228
 21
361.1523559488
  0
LINE
  5
5BD
100
AcDbEntity
  8
0
100
AcDbLine
 62
7
  6
CONTINUOUS
 10
1145.9517090616
 20
317.7729707073
 11
1140.1023572653
 21
321.8687309287
  0
LINE
  5
5BE
100
AcDbEntity
  8
0
100
AcDbLine
 62
7
  6
CONTINUOUS
 10
1116.3798570684
 20
340.7729707073
 11
1108.3798570684
 21
348.7729707073
  0
LINE
  5
5BF
100
AcDbEntity
  8
RUNDUNGEN
100
AcDbLine
 62
7
  6
CONTINUOUS
 10
1222.3798570684
 20
360.7729707073
 11
1222.3798570684
 21
346.5677244184
  0
LINE
  5
5C0
100
AcDbEntity
  8
RUNDUNGEN
100
AcDbLine
 62
7
  6
CONTINUOUS
 10
1222.3798570684
 20
336.9782225044
 11
1222.3798570684
 21
322.7729707073
  0
LINE
  5
5C1
100
AcDbEntity
  8
0
100
AcDbLine
 62
7
  6
CONTINUOUS
 10
1235.0574608734
 20
328.4538217644
 11
1235.0100657633
 21
328.0814813833
  0
LINE
  5
5C2
100
AcDbEntity
  8
0
100
AcDbLine
 62
7
  6
CONTINUOUS
 10
1237.1428777209
 20
328.7516941215
 11
1237.0954820684
 21
328.3793536882
  0
LINE
  5
5C3
100
AcDbEntity
  8
0
100
AcDbLine
 62
7
  6
CONTINUOUS
 10
1238.8965239158
 20
326.5921195458
 11
1238.9439195684
 21
326.9644601355
  0
LINE
  5
5C4
100
AcDbEntity
  8
0
100
AcDbLine
 62
7
  6
CONTINUOUS
 10
1235.2944407633
 20
328.0814813833
 11
1235.3418358734
 21
328.3793536882
  0
LINE
  5
5C5
100
AcDbEntity
  8
0
100
AcDbLine
 62
7
  6
CONTINUOUS
 10
1238.6595445684
 20
326.9644601355
 11
1238.6121489158
 21
326.6665878306
  0
LINE
  5
5C6
100
AcDbEntity
  8
0
100
AcDbLine
 62
7
  6
CONTINUOUS
 10
1245.2475654243
 20
326.9644601355
 11
1245.2001695684
 21
326.6665878306
  0
LINE
  5
5C7
100
AcDbEntity
  8
0
100
AcDbLine
 62
7
  6
CONTINUOUS
 10
1237.3798570684
 20
328.3793536882
 11
1237.4272527209
 21
328.6027579169
  0
LINE
  5
5C8
100
AcDbEntity
  8
0
100
AcDbLine
 62
7
  6
CONTINUOUS
 10
1243.9678778565
 20
328.3793536882
 11
1244.0152737802
 21
328.6027579169
  0
LINE
  5
5C9
100
AcDbEntity
  8
0
100
AcDbLine
 62
7
  6
CONTINUOUS
 10
1229.0855858734
 20
325.8474387835
 11
1229.3225657633
 21
325.7729707073
  0
LINE
  5
5CA
100
AcDbEntity
  8
0
100
AcDbLine
 62
7
  6
CONTINUOUS
 10
1233.2564195684
 20
325.8474387835
 11
1233.4933983734
 21
325.7729707073
  0
LINE
  5
5CB
100
AcDbEntity
  8
0
100
AcDbLine
 62
7
  6
CONTINUOUS
 10
1237.5220445684
 20
325.8474387835
 11
1237.7590239158
 21
325.7729707073
  0
LINE
  5
5CC
100
AcDbEntity
  8
0
100
AcDbLine
 62
7
  6
CONTINUOUS
 10
1229.7965233734
 20
329.1985026245
 11
1229.5595445684
 21
329.2729707073
  0
LINE
  5
5CD
100
AcDbEntity
  8
0
100
AcDbLine
 62
7
  6
CONTINUOUS
 10
1244.1100653565
 20
325.8474387835
 11
1244.3470445684
 21
325.7729707073
  0
LINE
  5
5CE
100
AcDbEntity
  8
0
100
AcDbLine
 62
7
  6
CONTINUOUS
 10
1236.1949608734
 20
329.1985026245
 11
1235.9579820684
 21
329.2729707073
  0
LINE
  5
5CF
100
AcDbEntity
  8
0
100
AcDbLine
 62
7
  6
CONTINUOUS
 10
1238.4225652209
 20
329.1985026245
 11
1238.1855864158
 21
329.2729707073
  0
LINE
  5
5D0
100
AcDbEntity
  8
0
100
AcDbLine
 62
7
  6
CONTINUOUS
 10
1245.0105862802
 20
329.1985026245
 11
1244.7736070684
 21
329.2729707073
  0
LINE
  5
5D1
100
AcDbEntity
  8
0
100
AcDbLine
 62
7
  6
CONTINUOUS
 10
1229.3225657633
 20
326.1453110884
 11
1229.1329820684
 21
326.2197791646
  0
LINE
  5
5D2
100
AcDbEntity
  8
0
100
AcDbLine
 62
7
  6
CONTINUOUS
 10
1229.5121483734
 20
327.3368005167
 11
1229.7017320684
 21
327.2623324405
  0
LINE
  5
5D3
100
AcDbEntity
  8
0
100
AcDbLine
 62
7
  6
CONTINUOUS
 10
1229.3225657633
 20
327.6346728216
 11
1229.1329820684
 21
327.7091408978
  0
LINE
  5
5D4
100
AcDbEntity
  8
0
100
AcDbLine
 62
7
  6
CONTINUOUS
 10
1229.5121483734
 20
328.900630274
 11
1229.7017320684
 21
328.8261621977
  0
LINE
  5
5D5
100
AcDbEntity
  8
0
100
AcDbLine
 62
7
  6
CONTINUOUS
 10
1237.7590239158
 20
326.2197791646
 11
1237.5694402209
 21
326.2942472409
  0
LINE
  5
5D6
100
AcDbEntity
  8
0
100
AcDbLine
 62
7
  6
CONTINUOUS
 10
1235.9579820684
 20
328.8261621977
 11
1236.1475657633
 21
328.7516941215
  0
LINE
  5
5D7
100
AcDbEntity
  8
0
100
AcDbLine
 62
7
  6
CONTINUOUS
 10
1228.5642320684
 20
328.3793536882
 11
1228.5642320684
 21
328.1559494595
  0
LINE
  5
5D8
100
AcDbEntity
  8
0
100
AcDbLine
 62
7
  6
CONTINUOUS
 10
1228.6116282633
 20
326.8899920593
 11
1228.6116282633
 21
326.6665878306
  0
LINE
  5
5D9
100
AcDbEntity
  8
0
100
AcDbLine
 62
7
  6
CONTINUOUS
 10
1228.8012108734
 20
328.1559494595
 11
1228.8012108734
 21
328.3793536882
  0
LINE
  5
5DA
100
AcDbEntity
  8
0
100
AcDbLine
 62
7
  6
CONTINUOUS
 10
1228.8486070684
 20
326.6665878306
 11
1228.8486070684
 21
326.8155239831
  0
LINE
  5
5DB
100
AcDbEntity
  8
0
100
AcDbLine
 62
7
  6
CONTINUOUS
 10
1229.9861070684
 20
326.8155239831
 11
1229.9861070684
 21
326.6665878306
  0
LINE
  5
5DC
100
AcDbEntity
  8
0
100
AcDbLine
 62
7
  6
CONTINUOUS
 10
1230.0335032633
 20
328.3793536882
 11
1230.0335032633
 21
328.1559494595
  0
LINE
  5
5DD
100
AcDbEntity
  8
0
100
AcDbLine
 62
7
  6
CONTINUOUS
 10
1230.2230858734
 20
326.6665878306
 11
1230.2230858734
 21
326.8899920593
  0
LINE
  5
5DE
100
AcDbEntity
  8
0
100
AcDbLine
 62
7
  6
CONTINUOUS
 10
1230.2704820684
 20
328.1559494595
 11
1230.2704820684
 21
328.3793536882
  0
LINE
  5
5DF
100
AcDbEntity
  8
0
100
AcDbLine
 62
7
  6
CONTINUOUS
 10
1230.6496483734
 20
326.1453110884
 11
1230.6496483734
 21
325.7729707073
  0
LINE
  5
5E0
100
AcDbEntity
  8
0
100
AcDbLine
 62
7
  6
CONTINUOUS
 10
1231.4079820684
 20
329.2729707073
 11
1231.4079820684
 21
326.1453110884
  0
LINE
  5
5E1
100
AcDbEntity
  8
0
100
AcDbLine
 62
7
  6
CONTINUOUS
 10
1231.6923570684
 20
326.1453110884
 11
1231.6923570684
 21
329.2729707073
  0
LINE
  5
5E2
100
AcDbEntity
  8
0
100
AcDbLine
 62
7
  6
CONTINUOUS
 10
1232.4506907633
 20
325.7729707073
 11
1232.4506907633
 21
326.1453110884
  0
LINE
  5
5E3
100
AcDbEntity
  8
0
100
AcDbLine
 62
7
  6
CONTINUOUS
 10
1232.8772532633
 20
326.8899920593
 11
1232.8772532633
 21
326.5921195458
  0
LINE
  5
5E4
100
AcDbEntity
  8
0
100
AcDbLine
 62
7
  6
CONTINUOUS
 10
1233.1616282633
 20
326.5921195458
 11
1233.1616282633
 21
326.8155239831
  0
LINE
  5
5E5
100
AcDbEntity
  8
0
100
AcDbLine
 62
7
  6
CONTINUOUS
 10
1234.3465233734
 20
329.2729707073
 11
1234.3465233734
 21
327.7091408978
  0
LINE
  5
5E6
100
AcDbEntity
  8
0
100
AcDbLine
 62
7
  6
CONTINUOUS
 10
1234.3465233734
 20
327.2623324405
 11
1234.3465233734
 21
326.1453110884
  0
LINE
  5
5E7
100
AcDbEntity
  8
0
100
AcDbLine
 62
7
  6
CONTINUOUS
 10
1234.6308983734
 20
325.7729707073
 11
1234.6308983734
 21
329.2729707073
  0
LINE
  5
5E8
100
AcDbEntity
  8
0
100
AcDbLine
 62
7
  6
CONTINUOUS
 10
1235.0100657633
 20
328.0814813833
 11
1235.0100657633
 21
325.7729707073
  0
LINE
  5
5E9
100
AcDbEntity
  8
0
100
AcDbLine
 62
7
  6
CONTINUOUS
 10
1235.2944407633
 20
325.7729707073
 11
1235.2944407633
 21
328.0814813833
  0
LINE
  5
5EA
100
AcDbEntity
  8
0
100
AcDbLine
 62
7
  6
CONTINUOUS
 10
1236.4319407633
 20
328.0814813833
 11
1236.4319407633
 21
325.7729707073
  0
LINE
  5
5EB
100
AcDbEntity
  8
0
100
AcDbLine
 62
7
  6
CONTINUOUS
 10
1236.7163157633
 20
325.7729707073
 11
1236.7163157633
 21
328.0814813833
  0
LINE
  5
5EC
100
AcDbEntity
  8
0
100
AcDbLine
 62
7
  6
CONTINUOUS
 10
1238.6595445684
 20
328.0814813833
 11
1238.6595445684
 21
326.9644601355
  0
LINE
  5
5ED
100
AcDbEntity
  8
0
100
AcDbLine
 62
7
  6
CONTINUOUS
 10
1238.9439195684
 20
326.9644601355
 11
1238.9439195684
 21
328.0814813833
  0
LINE
  5
5EE
100
AcDbEntity
  8
0
100
AcDbLine
 62
7
  6
CONTINUOUS
 10
1241.5980864158
 20
329.2729707073
 11
1241.5980864158
 21
328.8261621977
  0
LINE
  5
5EF
100
AcDbEntity
  8
0
100
AcDbLine
 62
7
  6
CONTINUOUS
 10
1241.5980864158
 20
326.2197791646
 11
1241.5980864158
 21
325.7729707073
  0
LINE
  5
5F0
100
AcDbEntity
  8
0
100
AcDbLine
 62
7
  6
CONTINUOUS
 10
1241.7876695684
 20
327.6346728216
 11
1241.7876695684
 21
327.1878643642
  0
LINE
  5
5F1
100
AcDbEntity
  8
0
100
AcDbLine
 62
7
  6
CONTINUOUS
 10
1243.0199611446
 20
328.8261621977
 11
1243.0199611446
 21
327.6346728216
  0
LINE
  5
5F2
100
AcDbEntity
  8
0
100
AcDbLine
 62
7
  6
CONTINUOUS
 10
1243.0199611446
 20
327.1878643642
 11
1243.0199611446
 21
326.2197791646
  0
LINE
  5
5F3
100
AcDbEntity
  8
0
100
AcDbLine
 62
7
  6
CONTINUOUS
 10
1243.7308986446
 20
328.7516941215
 11
1243.6835029921
 21
328.3793536882
  0
LINE
  5
5F4
100
AcDbEntity
  8
0
100
AcDbLine
 62
7
  6
CONTINUOUS
 10
1245.4845445684
 20
326.5921195458
 11
1245.5319404243
 21
326.9644601355
  0
LINE
  5
5F5
100
AcDbEntity
  8
0
100
AcDbLine
 62
7
  6
CONTINUOUS
 10
1244.3470445684
 20
326.2197791646
 11
1244.1574612802
 21
326.2942472409
  0
LINE
  5
5F6
100
AcDbEntity
  8
0
100
AcDbLine
 62
7
  6
CONTINUOUS
 10
1238.1855864158
 20
328.8261621977
 11
1238.3751695684
 21
328.7516941215
  0
LINE
  5
5F7
100
AcDbEntity
  8
0
100
AcDbLine
 62
7
  6
CONTINUOUS
 10
1244.7736070684
 20
328.8261621977
 11
1244.9631903565
 21
328.7516941215
  0
LINE
  5
5F8
100
AcDbEntity
  8
0
100
AcDbLine
 62
7
  6
CONTINUOUS
 10
1233.4460032633
 20
326.1453110884
 11
1233.3038157633
 21
326.2197791646
  0
LINE
  5
5F9
100
AcDbEntity
  8
0
100
AcDbLine
 62
7
  6
CONTINUOUS
 10
1243.3043361446
 20
325.7729707073
 11
1243.3043361446
 21
329.2729707073
  0
LINE
  5
5FA
100
AcDbEntity
  8
BEZUGSACHSEN
100
AcDbLine
 62
7
  6
CONTINUOUS
 10
1244.8798570684
 20
346.8229707073
 11
1244.8798570684
 21
336.7229707073
  0
LINE
  5
5FB
100
AcDbEntity
  8
0
100
AcDbLine
 62
7
  6
CONTINUOUS
 10
1245.2475654243
 20
328.0814813833
 11
1245.2475654243
 21
326.9644601355
  0
LINE
  5
5FC
100
AcDbEntity
  8
0
100
AcDbLine
 62
7
  6
CONTINUOUS
 10
1245.5319404243
 20
326.9644601355
 11
1245.5319404243
 21
328.0814813833
  0
LINE
  5
5FD
100
AcDbEntity
  8
0
100
AcDbLine
 62
7
  6
CONTINUOUS
 10
1245.9111070684
 20
329.2729707073
 11
1245.9111070684
 21
325.7729707073
  0
LINE
  5
5FE
100
AcDbEntity
  8
0
100
AcDbLine
 62
7
  6
CONTINUOUS
 10
1246.1954820683
 20
325.7729707073
 11
1246.1954820683
 21
329.2729707073
  0
LINE
  5
5FF
100
AcDbEntity
  8
BEZUGSACHSEN
100
AcDbLine
 62
7
  6
CONTINUOUS
 10
1255.8798570684
 20
346.8229707073
 11
1255.8798570684
 21
336.7229707073
  0
LINE
  5
600
100
AcDbEntity
  8
0
100
AcDbLine
 62
7
  6
CONTINUOUS
 10
1262.3798570684
 20
355.3088690921
 11
1262.3798570684
 21
352.7701294312
  0
LINE
  5
601
100
AcDbEntity
  8
BEZUGSACHSEN
100
AcDbLine
 62
7
  6
CONTINUOUS
 10
1262.3798570684
 20
330.7758119833
 11
1262.3798570684
 21
328.2370723224
  0
LINE
  5
602
100
AcDbEntity
  8
0
100
AcDbLine
 62
7
  6
CONTINUOUS
 10
1228.8486070684
 20
327.5602047454
 11
1228.9433983734
 21
327.4857366692
  0
LINE
  5
603
100
AcDbEntity
  8
0
100
AcDbLine
 62
7
  6
CONTINUOUS
 10
1229.1329820684
 20
327.7091408978
 11
1228.9433983734
 21
327.8580770503
  0
LINE
  5
604
100
AcDbEntity
  8
0
100
AcDbLine
 62
7
  6
CONTINUOUS
 10
1229.9861070684
 20
327.4112685929
 11
1229.8913157633
 21
327.4857366692
  0
LINE
  5
605
100
AcDbEntity
  8
0
100
AcDbLine
 62
7
  6
CONTINUOUS
 10
1229.7017320684
 20
328.8261621977
 11
1229.8913157633
 21
328.6772260453
  0
LINE
  5
606
100
AcDbEntity
  8
0
100
AcDbLine
 62
7
  6
CONTINUOUS
 10
1237.3324614158
 20
325.996374936
 11
1237.5220445684
 21
325.8474387835
  0
LINE
  5
607
100
AcDbEntity
  8
0
100
AcDbLine
 62
7
  6
CONTINUOUS
 10
1236.3845445684
 20
329.0495664525
 11
1236.1949608734
 21
329.1985026245
  0
LINE
  5
608
100
AcDbEntity
  8
0
100
AcDbLine
 62
7
  6
CONTINUOUS
 10
1238.6121489158
 20
329.0495664525
 11
1238.4225652209
 21
329.1985026245
  0
LINE
  5
609
100
AcDbEntity
  8
0
100
AcDbLine
 62
7
  6
CONTINUOUS
 10
1243.9204820684
 20
325.996374936
 11
1244.1100653565
 21
325.8474387835
  0
LINE
  5
60A
100
AcDbEntity
  8
0
100
AcDbLine
 62
7
  6
CONTINUOUS
 10
1228.8486070684
 20
326.0708430122
 11
1229.0855858734
 21
325.8474387835
  0
LINE
  5
60B
100
AcDbEntity
  8
0
100
AcDbLine
 62
7
  6
CONTINUOUS
 10
1230.0335032633
 20
328.9750983763
 11
1229.7965233734
 21
329.1985026245
  0
LINE
  5
60C
100
AcDbEntity
  8
0
100
AcDbLine
 62
7
  6
CONTINUOUS
 10
1230.2230858734
 20
326.8899920593
 11
1230.1282945684
 21
327.1878643642
  0
LINE
  5
60D
100
AcDbEntity
  8
0
100
AcDbLine
 62
7
  6
CONTINUOUS
 10
1228.6116282633
 20
326.6665878306
 11
1228.7064195683
 21
326.2942472409
  0
LINE
  5
60E
100
AcDbEntity
  8
0
100
AcDbLine
 62
7
  6
CONTINUOUS
 10
1228.5642320684
 20
328.1559494595
 11
1228.6590233734
 21
327.7836089741
  0
LINE
  5
60F
100
AcDbEntity
  8
0
100
AcDbLine
 62
7
  6
CONTINUOUS
 10
1230.2704820684
 20
328.3793536882
 11
1230.1756907633
 21
328.7516941215
  0
LINE
  5
610
100
AcDbEntity
  8
0
100
AcDbLine
 62
7
  6
CONTINUOUS
 10
1232.8298570684
 20
329.2729707073
 11
1233.2564195684
 21
327.5602047454
  0
LINE
  5
611
100
AcDbEntity
  8
0
100
AcDbLine
 62
7
  6
CONTINUOUS
 10
1233.5407945684
 20
327.7091408978
 11
1233.1616282633
 21
329.2729707073
  0
LINE
  5
612
100
AcDbEntity
  8
0
100
AcDbLine
 62
7
  6
CONTINUOUS
 10
1232.8772532633
 20
326.5921195458
 11
1232.9246483734
 21
326.3687153171
  0
LINE
  5
613
100
AcDbEntity
  8
0
100
AcDbLine
 62
7
  6
CONTINUOUS
 10
1233.2090233734
 20
326.3687153171
 11
1233.1616282633
 21
326.5921195458
  0
LINE
  5
614
100
AcDbEntity
  8
0
100
AcDbLine
 62
7
  6
CONTINUOUS
 10
1237.4272527209
 20
326.4431833933
 11
1237.3798570684
 21
326.6665878306
  0
LINE
  5
615
100
AcDbEntity
  8
0
100
AcDbLine
 62
7
  6
CONTINUOUS
 10
1236.3845445684
 20
328.3793536882
 11
1236.4319407633
 21
328.0814813833
  0
LINE
  5
616
100
AcDbEntity
  8
0
100
AcDbLine
 62
7
  6
CONTINUOUS
 10
1238.6121489158
 20
328.3793536882
 11
1238.6595445684
 21
328.0814813833
  0
LINE
  5
617
100
AcDbEntity
  8
0
100
AcDbLine
 62
7
  6
CONTINUOUS
 10
1236.7163157633
 20
328.0814813833
 11
1236.6689195684
 21
328.4538217644
  0
LINE
  5
618
100
AcDbEntity
  8
0
100
AcDbLine
 62
7
  6
CONTINUOUS
 10
1237.0954820684
 20
326.6665878306
 11
1237.1428777209
 21
326.2942472409
  0
LINE
  5
619
100
AcDbEntity
  8
0
100
AcDbLine
 62
7
  6
CONTINUOUS
 10
1238.9439195684
 20
328.0814813833
 11
1238.8965239158
 21
328.4538217644
  0
LINE
  5
61A
100
AcDbEntity
  8
0
100
AcDbLine
 62
7
  6
CONTINUOUS
 10
1243.6835029921
 20
326.6665878306
 11
1243.7308986446
 21
326.2942472409
  0
LINE
  5
61B
100
AcDbEntity
  8
0
100
AcDbLine
 62
7
  6
CONTINUOUS
 10
1245.5319404243
 20
328.0814813833
 11
1245.4845445684
 21
328.4538217644
  0
LINE
  5
61C
100
AcDbEntity
  8
0
100
AcDbLine
 62
7
  6
CONTINUOUS
 10
1245.2001695684
 20
329.0495664525
 11
1245.0105862802
 21
329.1985026245
  0
LINE
  5
61D
100
AcDbEntity
  8
0
100
AcDbLine
 62
7
  6
CONTINUOUS
 10
1237.5694402209
 20
326.2942472409
 11
1237.4272527209
 21
326.4431833933
  0
LINE
  5
61E
100
AcDbEntity
  8
0
100
AcDbLine
 62
7
  6
CONTINUOUS
 10
1236.1475657633
 20
328.7516941215
 11
1236.2897532633
 21
328.6027579169
  0
LINE
  5
61F
100
AcDbEntity
  8
0
100
AcDbLine
 62
7
  6
CONTINUOUS
 10
1238.3751695684
 20
328.7516941215
 11
1238.5173570684
 21
328.6027579169
  0
LINE
  5
620
100
AcDbEntity
  8
0
100
AcDbLine
 62
7
  6
CONTINUOUS
 10
1244.1574612802
 20
326.2942472409
 11
1244.0152737802
 21
326.4431833933
  0
LINE
  5
621
100
AcDbEntity
  8
0
100
AcDbLine
 62
7
  6
CONTINUOUS
 10
1244.9631903565
 20
328.7516941215
 11
1245.1053779243
 21
328.6027579169
  0
LINE
  5
622
100
AcDbEntity
  8
0
100
AcDbLine
 62
7
  6
CONTINUOUS
 10
1229.1329820684
 20
326.2197791646
 11
1228.9433983734
 21
326.4431833933
  0
LINE
  5
623
100
AcDbEntity
  8
0
100
AcDbLine
 62
7
  6
CONTINUOUS
 10
1228.6590233734
 20
327.7836089741
 11
1228.8486070684
 21
327.5602047454
  0
LINE
  5
624
100
AcDbEntity
  8
0
100
AcDbLine
 62
7
  6
CONTINUOUS
 10
1229.7017320684
 20
327.2623324405
 11
1229.8913157633
 21
327.0389282118
  0
LINE
  5
625
100
AcDbEntity
  8
0
100
AcDbLine
 62
7
  6
CONTINUOUS
 10
1233.0668358734
 20
326.0708430122
 11
1233.2564195684
 21
325.8474387835
  0
LINE
  5
626
100
AcDbEntity
  8
0
100
AcDbLine
 62
7
  6
CONTINUOUS
 10
1228.7064195683
 20
326.2942472409
 11
1228.8486070684
 21
326.0708430122
  0
LINE
  5
627
100
AcDbEntity
  8
0
100
AcDbLine
 62
7
  6
CONTINUOUS
 10
1230.1282945684
 20
327.1878643642
 11
1229.9861070684
 21
327.4112685929
  0
LINE
  5
628
100
AcDbEntity
  8
0
100
AcDbLine
 62
7
  6
CONTINUOUS
 10
1230.1756907633
 20
328.7516941215
 11
1230.0335032633
 21
328.9750983763
  0
LINE
  5
629
100
AcDbEntity
  8
0
100
AcDbLine
 62
7
  6
CONTINUOUS
 10
1233.3038157633
 20
326.2197791646
 11
1233.2090233734
 21
326.3687153171
  0
LINE
  5
62A
100
AcDbEntity
  8
0
100
AcDbLine
 62
7
  6
CONTINUOUS
 10
1237.1428777209
 20
326.2942472409
 11
1237.3324614158
 21
325.996374936
  0
LINE
  5
62B
100
AcDbEntity
  8
0
100
AcDbLine
 62
7
  6
CONTINUOUS
 10
1236.5741282633
 20
328.7516941215
 11
1236.3845445684
 21
329.0495664525
  0
LINE
  5
62C
100
AcDbEntity
  8
0
100
AcDbLine
 62
7
  6
CONTINUOUS
 10
1238.8017320684
 20
328.7516941215
 11
1238.6121489158
 21
329.0495664525
  0
LINE
  5
62D
100
AcDbEntity
  8
0
100
AcDbLine
 62
7
  6
CONTINUOUS
 10
1243.7308986446
 20
326.2942472409
 11
1243.9204820684
 21
325.996374936
  0
LINE
  5
62E
100
AcDbEntity
  8
0
100
AcDbLine
 62
7
  6
CONTINUOUS
 10
1245.3897529243
 20
328.7516941215
 11
1245.2001695684
 21
329.0495664525
  0
LINE
  5
62F
100
AcDbEntity
  8
0
100
AcDbLine
 62
7
  6
CONTINUOUS
 10
1228.9433983734
 20
327.8580770503
 11
1228.8012108734
 21
328.1559494595
  0
LINE
  5
630
100
AcDbEntity
  8
0
100
AcDbLine
 62
7
  6
CONTINUOUS
 10
1229.8913157633
 20
328.6772260453
 11
1230.0335032633
 21
328.3793536882
  0
LINE
  5
631
100
AcDbEntity
  8
0
100
AcDbLine
 62
7
  6
CONTINUOUS
 10
1232.9246483734
 20
326.3687153171
 11
1233.0668358734
 21
326.0708430122
  0
LINE
  5
632
100
AcDbEntity
  8
0
100
AcDbLine
 62
7
  6
CONTINUOUS
 10
1228.9433983734
 20
326.4431833933
 11
1228.8486070684
 21
326.6665878306
  0
LINE
  5
633
100
AcDbEntity
  8
0
100
AcDbLine
 62
7
  6
CONTINUOUS
 10
1229.8913157633
 20
327.0389282118
 11
1229.9861070684
 21
326.8155239831
  0
LINE
  5
634
100
AcDbEntity
  8
0
100
AcDbLine
 62
7
  6
CONTINUOUS
 10
1236.2897532633
 20
328.6027579169
 11
1236.3845445684
 21
328.3793536882
  0
LINE
  5
635
100
AcDbEntity
  8
0
100
AcDbLine
 62
7
  6
CONTINUOUS
 10
1238.5173570684
 20
328.6027579169
 11
1238.6121489158
 21
328.3793536882
  0
LINE
  5
636
100
AcDbEntity
  8
0
100
AcDbLine
 62
7
  6
CONTINUOUS
 10
1245.1053779243
 20
328.6027579169
 11
1245.2001695684
 21
328.3793536882
  0
LINE
  5
637
100
AcDbEntity
  8
0
100
AcDbLine
 62
7
  6
CONTINUOUS
 10
1236.6689195684
 20
328.4538217644
 11
1236.5741282633
 21
328.7516941215
  0
LINE
  5
638
100
AcDbEntity
  8
0
100
AcDbLine
 62
7
  6
CONTINUOUS
 10
1238.8965239158
 20
328.4538217644
 11
1238.8017320684
 21
328.7516941215
  0
LINE
  5
639
100
AcDbEntity
  8
0
100
AcDbLine
 62
7
  6
CONTINUOUS
 10
1245.4845445684
 20
328.4538217644
 11
1245.3897529243
 21
328.7516941215
  0
LINE
  5
63A
100
AcDbEntity
  8
0
100
AcDbLine
 62
7
  6
CONTINUOUS
 10
1244.0152737802
 20
326.4431833933
 11
1243.9678778565
 21
326.6665878306
  0
LINE
  5
63B
100
AcDbEntity
  8
0
100
AcDbLine
 62
7
  6
CONTINUOUS
 10
1245.2001695684
 20
328.3793536882
 11
1245.2475654243
 21
328.0814813833
  0
LINE
  5
63C
100
AcDbEntity
  8
0
100
AcDbLine
 62
7
  6
CONTINUOUS
 10
1262.1119078759
 20
356.3088690921
 11
1259.2458824721
 21
361.2729707073
  0
LINE
  5
63D
100
AcDbEntity
  8
BEZUGSACHSEN
100
AcDbLine
 62
7
  6
CONTINUOUS
 10
60.5760333647
 20
-98.7593847463
 11
60.5760333647
 21
-118.5593847463
  0
LINE
  5
63E
100
AcDbEntity
  8
RUNDUNGEN
100
AcDbLine
 62
7
  6
CONTINUOUS
 10
96.0760333647
 20
-132.6593847463
 11
96.0760333647
 21
-84.6593847463
  0
LINE
  5
63F
100
AcDbEntity
  8
BEZUGSACHSEN
100
AcDbLine
 62
7
  6
CONTINUOUS
 10
28.0151760645
 20
-97.2378990738
 11
24.4364457864
 21
-100.2912135476
  0
LINE
  5
640
100
AcDbEntity
  8
RUNDUNGEN
100
AcDbLine
 62
7
  6
CONTINUOUS
 10
28.0151760645
 20
-120.0808704188
 11
24.4364457864
 21
-117.0275559451
  0
LINE
  5
641
100
AcDbEntity
  8
RUNDUNGEN
100
AcDbLine
 62
7
  6
CONTINUOUS
 10
103.0760333647
 20
-134.1593847463
 11
103.0760333647
 21
-83.1593847463
  0
LINE
  5
642
100
AcDbEntity
  8
RUNDUNGEN
100
AcDbLine
 62
7
  6
CONTINUOUS
 10
123.0760333647
 20
-85.6594835167
 11
123.0760333647
 21
-131.6593847463
  0
LINE
  5
643
100
AcDbEntity
  8
RUNDUNGEN
100
AcDbLine
 62
7
  6
CONTINUOUS
 10
127.5760333647
 20
-132.6593847463
 11
127.5760333647
 21
-131.5709069142
  0
LINE
  5
644
100
AcDbEntity
  8
0
100
AcDbLine
 62
7
  6
CONTINUOUS
 10
137.0041813714
 20
-84.6593847463
 11
137.0041813714
 21
-108.6593847463
  0
LINE
  5
645
100
AcDbEntity
  8
RUNDUNGEN
100
AcDbLine
 62
7
  6
CONTINUOUS
 10
137.0041813714
 20
-108.6593847463
 11
137.0041813714
 21
-131.5709069142
  0
LWPOLYLINE
  5
646
100
AcDbEntity
  8
RUNDUNGEN
100
AcDbPolyline
 62
7
  6
CONTINUOUS
 90
5
 70
0
 10
149.5353857452
 20
-125.2000813698
 10
149.5344252145
 20
-125.2028879491
 10
149.5312485483
 20
-125.2115729465
 10
149.5385787242
 20
-125.1958018117
 10
149.5588379229
 20
-125.1572850385
  0
LINE
  5
647
100
AcDbEntity
  8
0
100
AcDbLine
 62
7
  6
CONTINUOUS
 10
166.5760333647
 20
-89.6593847463
 11
166.5760333647
 21
-89.0849115733
  0
LINE
  5
648
100
AcDbEntity
  8
0
100
AcDbLine
 62
7
  6
CONTINUOUS
 10
174.5760333647
 20
-90.9958630137
 11
174.5760333647
 21
-90.3520091835
  0
LINE
  5
649
100
AcDbEntity
  8
RUNDUNGEN
100
AcDbLine
 62
7
  6
CONTINUOUS
 10
149.5588379229
 20
-125.1572850385
 11
149.5960099768
 21
-125.0942206116
  0
LWPOLYLINE
  5
64A
100
AcDbEntity
  8
RUNDUNGEN
100
AcDbPolyline
 62
7
  6
CONTINUOUS
 90
27
 70
0
 10
149.5936573355
 20
-125.098030533
 10
149.6439982896
 20
-125.0201667858
 10
149.711128859
 20
-124.9246878619
 10
149.7958684825
 20
-124.8128614853
 10
149.8992757323
 20
-124.685363473
 10
150.0222799822
 20
-124.5429552106
 10
150.1658621474
 20
-124.3863210556
 10
150.3313898182
 20
-124.2157777566
 10
150.5182291983
 20
-124.0337243906
 10
150.7260664154
 20
-123.8421393778
 10
150.9535010159
 20
-123.6438850288
 10
151.1987901485
 20
-123.4419270827
 10
151.4600491676
 20
-123.2392277228
 10
151.7349726177
 20
-123.0388972711
 10
152.0209172224
 20
-122.8440573017
 10
152.3144190833
 20
-122.6580826873
 10
152.6133615054
 20
-122.4831816014
 10
152.9137827742
 20
-122.3222867195
 10
153.2163950938
 20
-122.1755073716
 10
153.5205456088
 20
-122.0439040266
 10
153.826826981
 20
-121.9279689699
 10
154.1358343586
 20
-121.8284600088
 10
154.4467473243
 20
-121.7467205506
 10
154.7596333599
 20
-121.6836590187
 10
155.0725076386
 20
-121.6405003236
 10
155.3840952288
 20
-121.6177127738
 10
155.5760333647
 20
-121.6138289968
  0
LINE
  5
64B
100
AcDbEntity
  8
0
100
AcDbLine
 62
7
  6
CONTINUOUS
 10
182.5760333647
 20
-89.6593847463
 11
182.5760333647
 21
-89.0849115733
  0
LINE
  5
64C
100
AcDbEntity
  8
RUNDUNGEN
100
AcDbLine
 62
7
  6
CONTINUOUS
 10
137.0043233958
 20
-131.660801684
 11
142.8558747259
 21
-127.5627467482
  0
LINE
  5
64D
100
AcDbEntity
  8
RUNDUNGEN
100
AcDbLine
 62
7
  6
CONTINUOUS
 10
142.8558747251
 20
-127.5627468981
 11
142.8854646347
 21
-127.5421228993
  0
LINE
  5
64E
100
AcDbEntity
  8
RUNDUNGEN
100
AcDbLine
 62
7
  6
CONTINUOUS
 10
142.8854646347
 20
-127.5421228993
 11
142.9708663097
 21
-127.4843403206
  0
LINE
  5
64F
100
AcDbEntity
  8
RUNDUNGEN
100
AcDbLine
 62
7
  6
CONTINUOUS
 10
142.9607859796
 20
-127.491028225
 11
143.0440189924
 21
-127.436880502
  0
LINE
  5
650
100
AcDbEntity
  8
RUNDUNGEN
100
AcDbLine
 62
7
  6
CONTINUOUS
 10
143.0369641285
 20
-127.4413442247
 11
143.0771295714
 21
-127.4159309207
  0
LINE
  5
651
100
AcDbEntity
  8
0
100
AcDbLine
 62
7
  6
CONTINUOUS
 10
137.0041813714
 20
-84.6593847463
 11
142.8535331678
 21
-88.7551449678
  0
LINE
  5
652
100
AcDbEntity
  8
RUNDUNGEN
100
AcDbLine
 62
7
  6
CONTINUOUS
 10
143.0771358037
 20
-127.4159538164
 11
143.2755659891
 21
-127.298758702
  0
LINE
  5
653
100
AcDbEntity
  8
RUNDUNGEN
100
AcDbLine
 62
7
  6
CONTINUOUS
 10
143.2647915464
 20
-127.3047981806
 11
143.603325195
 21
-127.1334881313
  0
LINE
  5
654
100
AcDbEntity
  8
0
100
AcDbLine
 62
7
  6
CONTINUOUS
 10
247.5760333647
 20
-139.6593847463
 11
253.5760333647
 21
-139.6593847463
  0
LINE
  5
655
100
AcDbEntity
  8
0
100
AcDbLine
 62
7
  6
CONTINUOUS
 10
267.5760333647
 20
-139.6593847463
 11
273.5760333647
 21
-139.6593847463
  0
LINE
  5
656
100
AcDbEntity
  8
BEZUGSACHSEN
100
AcDbLine
 62
7
  6
CONTINUOUS
 10
242.5760333647
 20
-82.659420737
 11
242.5760333647
 21
-134.6593490959
  0
LINE
  5
657
100
AcDbEntity
  8
RUNDUNGEN
100
AcDbLine
 62
7
  6
CONTINUOUS
 10
143.5918692737
 20
-127.1387108338
 11
143.9485755458
 21
-126.9926426683
  0
LINE
  5
658
100
AcDbEntity
  8
0
100
AcDbLine
 62
7
  6
CONTINUOUS
 10
236.412464851
 20
-89.5387699879
 11
237.1234309103
 21
-89.2799995048
  0
LINE
  5
659
100
AcDbEntity
  8
RUNDUNGEN
100
AcDbLine
 62
7
  6
CONTINUOUS
 10
143.9364899417
 20
-126.997039218
 11
144.3096615603
 21
-126.8772058347
  0
LINE
  5
65A
100
AcDbEntity
  8
RUNDUNGEN
100
AcDbLine
 62
7
  6
CONTINUOUS
 10
280.9929245468
 20
-122.6113043631
 11
281.3519124678
 21
-122.5170894954
  0
LINE
  5
65B
100
AcDbEntity
  8
RUNDUNGEN
100
AcDbLine
 62
7
  6
CONTINUOUS
 10
281.3415548994
 20
-122.5194839802
 11
281.7003162128
 21
-122.4479619908
  0
LINE
  5
65C
100
AcDbEntity
  8
RUNDUNGEN
100
AcDbLine
 62
7
  6
CONTINUOUS
 10
281.68961335
 20
-122.4497518676
 11
282.0444696895
 21
-122.4018189232
  0
LINE
  5
65D
100
AcDbEntity
  8
RUNDUNGEN
100
AcDbLine
 62
7
  6
CONTINUOUS
 10
282.0335382996
 20
-122.4029423532
 11
282.3802727052
 21
-122.3784350511
  0
LINE
  5
65E
100
AcDbEntity
  8
RUNDUNGEN
100
AcDbLine
 62
7
  6
CONTINUOUS
 10
145.4544865584
 20
-126.6937459987
 11
145.7214153497
 21
-126.6871620073
  0
LINE
  5
65F
100
AcDbEntity
  8
RUNDUNGEN
100
AcDbLine
 62
7
  6
CONTINUOUS
 10
282.3693083356
 20
-122.3788564158
 11
282.576033365
 21
-122.3747572912
  0
LINE
  5
660
100
AcDbEntity
  8
0
100
AcDbLine
 62
7
  6
CONTINUOUS
 10
253.5760333647
 20
-138.1593847463
 11
267.5760333647
 21
-138.1593847463
  0
LINE
  5
661
100
AcDbEntity
  8
RUNDUNGEN
100
AcDbLine
 62
7
  6
CONTINUOUS
 10
98.0760333647
 20
-134.6593847463
 11
102.5760333647
 21
-134.6593847463
  0
LINE
  5
662
100
AcDbEntity
  8
BEZUGSACHSEN
100
AcDbLine
 62
7
  6
CONTINUOUS
 10
98.0760333647
 20
-134.6593847463
 11
102.5760333647
 21
-134.6593847463
  0
LINE
  5
663
100
AcDbEntity
  8
0
100
AcDbLine
 62
7
  6
CONTINUOUS
 10
124.0760333647
 20
-132.6593847463
 11
127.5760333647
 21
-132.6593847463
  0
LINE
  5
664
100
AcDbEntity
  8
RUNDUNGEN
100
AcDbLine
 62
7
  6
CONTINUOUS
 10
136.9994531129
 20
-131.6616134002
 11
127.5760333647
 21
-131.6616134002
  0
LINE
  5
665
100
AcDbEntity
  8
0
100
AcDbLine
 62
7
  6
CONTINUOUS
 10
377.6101008516
 20
-128.1593847463
 11
398.0760333647
 21
-128.1593847463
  0
LINE
  5
666
100
AcDbEntity
  8
0
100
AcDbLine
 62
7
  6
CONTINUOUS
 10
373.5760333647
 20
-127.6593847463
 11
375.4306513798
 21
-127.6593847463
  0
LINE
  5
667
100
AcDbEntity
  8
RUNDUNGEN
100
AcDbLine
 62
7
  6
CONTINUOUS
 10
145.7214153496
 20
-126.6871625241
 11
147.6038538428
 21
-126.6871625241
  0
LWPOLYLINE
  5
668
100
AcDbEntity
  8
RUNDUNGEN
100
AcDbPolyline
 62
7
  6
CONTINUOUS
 90
14
 70
0
 10
238.5760339495
 20
-122.3747573548
 10
238.7718627719
 20
-122.3784355238
 10
239.1075712956
 20
-122.401817786
 10
239.4513869233
 20
-122.4479007459
 10
239.7993138105
 20
-122.5168959725
 10
240.1478130786
 20
-122.6079817386
 10
240.4934037131
 20
-122.7193834971
 10
240.8319911338
 20
-122.848272811
 10
241.162556204
 20
-122.9924490593
 10
241.4835512628
 20
-123.1494057331
 10
241.7942003002
 20
-123.3169765782
 10
242.0940426205
 20
-123.4932724167
 10
242.381877324
 20
-123.6760612963
 10
242.5760333647
 20
-123.8083148622
  0
LINE
  5
669
100
AcDbEntity
  8
RUNDUNGEN
100
AcDbLine
 62
7
  6
CONTINUOUS
 10
236.4721705161
 20
-121.924255103
 11
236.8521634738
 21
-122.1318554978
  0
LINE
  5
66A
100
AcDbEntity
  8
RUNDUNGEN
100
AcDbLine
 62
7
  6
CONTINUOUS
 10
236.1271701633
 20
-121.7339746595
 11
236.4780154183
 21
-121.9274570528
  0
LINE
  5
66B
100
AcDbEntity
  8
0
100
AcDbLine
 62
7
  6
CONTINUOUS
 10
253.5760333647
 20
-77.659457867
 11
253.5760333647
 21
-139.6593116257
  0
LINE
  5
66C
100
AcDbEntity
  8
RUNDUNGEN
100
AcDbLine
 62
7
  6
CONTINUOUS
 10
144.671362306
 20
-126.7907866773
 11
145.0706950634
 21
-126.7265382994
  0
LINE
  5
66D
100
AcDbEntity
  8
RUNDUNGEN
100
AcDbLine
 62
7
  6
CONTINUOUS
 10
145.0578491055
 20
-126.728122402
 11
145.4671371071
 21
-126.6931392208
  0
LINE
  5
66E
100
AcDbEntity
  8
RUNDUNGEN
100
AcDbLine
 62
7
  6
CONTINUOUS
 10
237.8074711969
 20
-122.3747592602
 11
238.5760339463
 21
-122.3747592602
  0
LINE
  5
66F
100
AcDbEntity
  8
RUNDUNGEN
100
AcDbLine
 62
7
  6
CONTINUOUS
 10
282.5760333647
 20
-122.3747592602
 11
283.3445955324
 21
-122.3747592602
  0
LINE
  5
670
100
AcDbEntity
  8
RUNDUNGEN
100
AcDbLine
 62
7
  6
CONTINUOUS
 10
155.5760333647
 20
-121.6138358964
 11
235.7284227229
 21
-121.6138358964
  0
LINE
  5
671
100
AcDbEntity
  8
RUNDUNGEN
100
AcDbLine
 62
7
  6
CONTINUOUS
 10
285.423642165
 20
-121.6138358964
 11
365.5760324915
 21
-121.6138358964
  0
LINE
  5
672
100
AcDbEntity
  8
RUNDUNGEN
100
AcDbLine
 62
7
  6
CONTINUOUS
 10
58.5760333647
 20
-120.5593847463
 11
29.3132828969
 21
-120.5593847463
  0
LINE
  5
673
100
AcDbEntity
  8
BEZUGSACHSEN
100
AcDbLine
 62
7
  6
CONTINUOUS
 10
462.5760333647
 20
-120.5593847463
 11
491.8387838324
 21
-120.5593847463
  0
LINE
  5
674
100
AcDbEntity
  8
0
100
AcDbLine
 62
7
  6
CONTINUOUS
 10
123.0760333647
 20
-118.6593847463
 11
103.0760333647
 21
-118.6593847463
  0
LINE
  5
675
100
AcDbEntity
  8
0
100
AcDbLine
 62
7
  6
CONTINUOUS
 10
96.0760333647
 20
-118.6593847463
 11
61.3692573241
 21
-118.6593847463
  0
LINE
  5
676
100
AcDbEntity
  8
0
100
AcDbLine
 62
7
  6
CONTINUOUS
 10
399.0760333647
 20
-118.6593847463
 11
459.782810672
 21
-118.6593847463
  0
LWPOLYLINE
  5
677
100
AcDbEntity
  8
RUNDUNGEN
100
AcDbPolyline
 62
7
  6
CONTINUOUS
 90
24
 70
0
 10
365.5760324888
 20
-121.6138288964
 10
365.7770375678
 20
-121.6180885255
 10
366.1087255314
 20
-121.6436688891
 10
366.4433356093
 20
-121.6925787113
 10
366.7785506692
 20
-121.7642843139
 10
367.1120416722
 20
-121.8573911259
 10
367.4412594368
 20
-121.9698967157
 10
367.7631965162
 20
-122.0988867518
 10
368.0774922083
 20
-122.242361759
 10
368.3834240349
 20
-122.3981489282
 10
368.6809171339
 20
-122.5645523064
 10
368.9701485068
 20
-122.7402925141
 10
369.2503287543
 20
-122.9236147109
 10
369.5209935579
 20
-123.1130844179
 10
369.7814585577
 20
-123.307235751
 10
370.0316951506
 20
-123.5052246897
 10
370.2691140146
 20
-123.704195065
 10
370.4925206151
 20
-123.902307918
 10
370.6985007016
 20
-124.0955977936
 10
370.8849522438
 20
-124.2808683718
 10
371.0499135324
 20
-124.4547037474
 10
371.1918567922
 20
-124.6137308989
 10
371.3110961193
 20
-124.7562244909
 10
371.4076258867
 20
-124.8797662091
  0
LWPOLYLINE
  5
678
100
AcDbEntity
  8
RUNDUNGEN
100
AcDbPolyline
 62
7
  6
CONTINUOUS
 90
9
 70
0
 10
235.7284227186
 20
-121.6138360104
 10
235.7750293142
 20
-121.6157023128
 10
235.8283871506
 20
-121.6223550531
 10
235.8820417635
 20
-121.633591315
 10
235.9369244287
 20
-121.6494457714
 10
235.9918210452
 20
-121.669348266
 10
236.0473016445
 20
-121.6932672139
 10
236.1037264493
 20
-121.7212913574
 10
236.1271611376
 20
-121.7339789542
  0
LINE
  5
679
100
AcDbEntity
  8
0
100
AcDbLine
 62
7
  6
CONTINUOUS
 10
267.5760333647
 20
-77.659457867
 11
267.5760333647
 21
-139.6593116257
  0
LINE
  5
67A
100
AcDbEntity
  8
RUNDUNGEN
100
AcDbLine
 62
7
  6
CONTINUOUS
 10
278.5760333647
 20
-82.659420737
 11
278.5760333647
 21
-134.6593490959
  0
LINE
  5
67B
100
AcDbEntity
  8
RUNDUNGEN
100
AcDbLine
 62
7
  6
CONTINUOUS
 10
144.2970841414
 20
-126.8807160135
 11
144.6842088754
 21
-126.7882308024
  0
LINE
  5
67C
100
AcDbEntity
  8
0
100
AcDbLine
 62
7
  6
CONTINUOUS
 10
123.0760333647
 20
-103.6593847463
 11
103.0760333647
 21
-103.6593847463
  0
LINE
  5
67D
100
AcDbEntity
  8
0
100
AcDbLine
 62
7
  6
CONTINUOUS
 10
96.0760333647
 20
-103.6593847463
 11
63.7588681447
 21
-103.6593847463
  0
LINE
  5
67E
100
AcDbEntity
  8
0
100
AcDbLine
 62
7
  6
CONTINUOUS
 10
123.0760333647
 20
-99.9991307085
 11
103.0760333647
 21
-99.9991307085
  0
LINE
  5
67F
100
AcDbEntity
  8
0
100
AcDbLine
 62
7
  6
CONTINUOUS
 10
96.0760333647
 20
-99.9991307085
 11
68.5760333647
 21
-99.9991307085
  0
LINE
  5
680
100
AcDbEntity
  8
0
100
AcDbLine
 62
7
  6
CONTINUOUS
 10
123.0760333647
 20
-98.6593847463
 11
103.0760333647
 21
-98.6593847463
  0
LINE
  5
681
100
AcDbEntity
  8
0
100
AcDbLine
 62
7
  6
CONTINUOUS
 10
96.0760333647
 20
-98.6593847463
 11
61.3692573244
 21
-98.6593847463
  0
LINE
  5
682
100
AcDbEntity
  8
0
100
AcDbLine
 62
7
  6
CONTINUOUS
 10
399.0760333647
 20
-98.6593847463
 11
459.7828106717
 21
-98.6593847463
  0
LINE
  5
683
100
AcDbEntity
  8
BEZUGSACHSEN
100
AcDbLine
 62
7
  6
CONTINUOUS
 10
58.5760333647
 20
-96.7593847463
 11
29.3132828969
 21
-96.7593847463
  0
LINE
  5
684
100
AcDbEntity
  8
BEZUGSACHSEN
100
AcDbLine
 62
7
  6
CONTINUOUS
 10
462.5760333647
 20
-96.7593847463
 11
491.8387838324
 21
-96.7593847463
  0
LINE
  5
685
100
AcDbEntity
  8
RUNDUNGEN
100
AcDbLine
 62
7
  6
CONTINUOUS
 10
316.5759622372
 20
-91.1593847463
 11
290.5760178986
 21
-91.1593847463
  0
LINE
  5
686
100
AcDbEntity
  8
0
100
AcDbLine
 62
7
  6
CONTINUOUS
 10
291.0760333647
 20
-90.4593847463
 11
298.8760333647
 21
-90.4593847463
  0
LINE
  5
687
100
AcDbEntity
  8
0
100
AcDbLine
 62
7
  6
CONTINUOUS
 10
300.0760333647
 20
-90.4593847463
 11
307.2760333647
 21
-90.4593847463
  0
LINE
  5
688
100
AcDbEntity
  8
0
100
AcDbLine
 62
7
  6
CONTINUOUS
 10
309.0760333647
 20
-90.4593847463
 11
316.4260333647
 21
-90.4593847463
  0
LINE
  5
689
100
AcDbEntity
  8
0
100
AcDbLine
 62
7
  6
CONTINUOUS
 10
181.5702099718
 20
-89.0601764662
 11
182.5760333647
 21
-89.0849115733
  0
LINE
  5
68A
100
AcDbEntity
  8
0
100
AcDbLine
 62
7
  6
CONTINUOUS
 10
291.0760333647
 20
-91.1593847463
 11
291.0760333647
 21
-90.4593847463
  0
LINE
  5
68B
100
AcDbEntity
  8
0
100
AcDbLine
 62
7
  6
CONTINUOUS
 10
292.5760333647
 20
-91.1593847463
 11
292.5760333647
 21
-90.4593847463
  0
LINE
  5
68C
100
AcDbEntity
  8
RUNDUNGEN
100
AcDbLine
 62
7
  6
CONTINUOUS
 10
278.5760333647
 20
-123.80840728
 11
278.7658301686
 21
-123.6789329222
  0
LINE
  5
68D
100
AcDbEntity
  8
RUNDUNGEN
100
AcDbLine
 62
7
  6
CONTINUOUS
 10
278.7589366125
 20
-123.6834804435
 11
279.0538252304
 21
-123.4958432517
  0
LINE
  5
68E
100
AcDbEntity
  8
RUNDUNGEN
100
AcDbLine
 62
7
  6
CONTINUOUS
 10
279.0465527008
 20
-123.5003020044
 11
279.3539404605
 21
-123.31919241
  0
LWPOLYLINE
  5
68F
100
AcDbEntity
  8
RUNDUNGEN
100
AcDbPolyline
 62
7
  6
CONTINUOUS
 90
9
 70
0
 10
284.6681961504
 20
-121.9306776217
 10
285.0354004489
 20
-121.7282218981
 10
285.0922710524
 20
-121.6991578505
 10
285.1481791393
 20
-121.674234036
 10
285.2035475484
 20
-121.6533238222
 10
285.2589040602
 20
-121.6364596742
 10
285.3130931309
 20
-121.6242220041
 10
285.3670271488
 20
-121.6165892366
 10
285.4236421634
 20
-121.613835851
  0
LINE
  5
690
100
AcDbEntity
  8
RUNDUNGEN
100
AcDbLine
 62
7
  6
CONTINUOUS
 10
284.2999032535
 20
-122.1318554988
 11
284.6740549604
 21
-121.9274550498
  0
LINE
  5
691
100
AcDbEntity
  8
RUNDUNGEN
100
AcDbLine
 62
7
  6
CONTINUOUS
 10
279.3462717617
 20
-123.3235279977
 11
279.6649678409
 21
-123.1512316827
  0
LINE
  5
692
100
AcDbEntity
  8
RUNDUNGEN
100
AcDbLine
 62
7
  6
CONTINUOUS
 10
279.6568822576
 20
-123.1554040124
 11
279.9864251542
 21
-122.9938785759
  0
LINE
  5
693
100
AcDbEntity
  8
RUNDUNGEN
100
AcDbLine
 62
7
  6
CONTINUOUS
 10
279.977903057
 20
-122.9978354092
 11
280.3175045111
 21
-122.849326448
  0
LINE
  5
694
100
AcDbEntity
  8
RUNDUNGEN
100
AcDbLine
 62
7
  6
CONTINUOUS
 10
280.3085314813
 20
-122.8530052978
 11
280.6566493907
 21
-122.7200928163
  0
LINE
  5
695
100
AcDbEntity
  8
RUNDUNGEN
100
AcDbLine
 62
7
  6
CONTINUOUS
 10
280.6472162681
 20
-122.7234252053
 11
281.0028438611
 21
-122.6083921108
  0
LINE
  5
696
100
AcDbEntity
  8
0
100
AcDbLine
 62
7
  6
CONTINUOUS
 10
166.5760333647
 20
-89.0849115733
 11
167.5818506594
 21
-89.0601750599
  0
LINE
  5
697
100
AcDbEntity
  8
0
100
AcDbLine
 62
7
  6
CONTINUOUS
 10
145.7214153495
 20
-89.6593847463
 11
167.5760018267
 21
-89.6593847463
  0
LINE
  5
698
100
AcDbEntity
  8
0
100
AcDbLine
 62
7
  6
CONTINUOUS
 10
181.5760649026
 20
-89.6593847463
 11
235.7284245644
 21
-89.6593847463
  0
LINE
  5
699
100
AcDbEntity
  8
0
100
AcDbLine
 62
7
  6
CONTINUOUS
 10
285.423642165
 20
-89.6593847463
 11
287.4578555533
 21
-89.6593847463
  0
LINE
  5
69A
100
AcDbEntity
  8
0
100
AcDbLine
 62
7
  6
CONTINUOUS
 10
319.6940684787
 20
-89.6593847463
 11
375.4306513798
 21
-89.6593847463
  0
LINE
  5
69B
100
AcDbEntity
  8
0
100
AcDbLine
 62
7
  6
CONTINUOUS
 10
237.8074711969
 20
-89.1593847463
 11
242.5760333647
 21
-89.1593847463
  0
LINE
  5
69C
100
AcDbEntity
  8
0
100
AcDbLine
 62
7
  6
CONTINUOUS
 10
278.5760333647
 20
-89.1593847463
 11
283.3445955324
 21
-89.1593847463
  0
LINE
  5
69D
100
AcDbEntity
  8
0
100
AcDbLine
 62
7
  6
CONTINUOUS
 10
377.6101008516
 20
-89.1593847463
 11
398.0760333647
 21
-89.1593847463
  0
LINE
  5
69E
100
AcDbEntity
  8
0
100
AcDbLine
 62
7
  6
CONTINUOUS
 10
167.5754633251
 20
-89.0593847463
 11
181.5766034801
 21
-89.0593847463
  0
LINE
  5
69F
100
AcDbEntity
  8
0
100
AcDbLine
 62
7
  6
CONTINUOUS
 10
124.0760333647
 20
-84.6593847463
 11
137.0041813714
 21
-84.6593847463
  0
LINE
  5
6A0
100
AcDbEntity
  8
RUNDUNGEN
100
AcDbLine
 62
7
  6
CONTINUOUS
 10
98.0760333647
 20
-82.6593847463
 11
102.5760333647
 21
-82.6593847463
  0
LINE
  5
6A1
100
AcDbEntity
  8
BEZUGSACHSEN
100
AcDbLine
 62
7
  6
CONTINUOUS
 10
98.0760333647
 20
-82.6593847463
 11
102.5760333647
 21
-82.6593847463
  0
LINE
  5
6A2
100
AcDbEntity
  8
0
100
AcDbLine
 62
7
  6
CONTINUOUS
 10
253.5760333647
 20
-79.1593847463
 11
267.5760333647
 21
-79.1593847463
  0
LINE
  5
6A3
100
AcDbEntity
  8
0
100
AcDbLine
 62
7
  6
CONTINUOUS
 10
247.5760333647
 20
-77.6593847463
 11
253.5760333647
 21
-77.6593847463
  0
LINE
  5
6A4
100
AcDbEntity
  8
0
100
AcDbLine
 62
7
  6
CONTINUOUS
 10
267.5760333647
 20
-77.6593847463
 11
273.5760333647
 21
-77.6593847463
  0
LINE
  5
6A5
100
AcDbEntity
  8
0
100
AcDbLine
 62
7
  6
CONTINUOUS
 10
284.0286358191
 20
-89.2799995048
 11
284.7396018784
 21
-89.5387699879
  0
LWPOLYLINE
  5
6A6
100
AcDbEntity
  8
RUNDUNGEN
100
AcDbPolyline
 62
7
  6
CONTINUOUS
 90
11
 70
0
 10
289.0147832404
 20
-90.409384767
 10
288.8855619976
 20
-90.2632131233
 10
288.7426387466
 20
-90.1302645387
 10
288.5874268639
 20
-90.0118754352
 10
288.4214032886
 20
-89.9091763739
 10
288.2461484598
 20
-89.823148647
 10
288.0633308668
 20
-89.7546147089
 10
287.8746915968
 20
-89.7042305742
 10
287.6820277699
 20
-89.6724794604
 10
287.4871753536
 20
-89.6596670801
 10
287.4535328005
 20
-89.6593841049
  0
LINE
  5
6A7
100
AcDbEntity
  8
0
100
AcDbLine
 62
7
  6
CONTINUOUS
 10
297.1439825571
 20
-91.1593847463
 11
297.1439825571
 21
-90.4593847463
  0
LINE
  5
6A8
100
AcDbEntity
  8
0
100
AcDbLine
 62
7
  6
CONTINUOUS
 10
298.8760333647
 20
-91.1593847463
 11
298.8760333647
 21
-90.4593847463
  0
LINE
  5
6A9
100
AcDbEntity
  8
0
100
AcDbLine
 62
7
  6
CONTINUOUS
 10
300.0760333647
 20
-91.1593847463
 11
300.0760333647
 21
-90.4593847463
  0
LINE
  5
6AA
100
AcDbEntity
  8
0
100
AcDbLine
 62
7
  6
CONTINUOUS
 10
307.2760333647
 20
-91.1593847463
 11
307.2760333647
 21
-90.4593847463
  0
LINE
  5
6AB
100
AcDbEntity
  8
0
100
AcDbLine
 62
7
  6
CONTINUOUS
 10
309.0760333647
 20
-91.1593847463
 11
309.0760333647
 21
-90.4593847463
  0
LINE
  5
6AC
100
AcDbEntity
  8
0
100
AcDbLine
 62
7
  6
CONTINUOUS
 10
316.4260333647
 20
-91.1593847463
 11
316.4260333647
 21
-90.4593847463
  0
LINE
  5
6AD
100
AcDbEntity
  8
RUNDUNGEN
100
AcDbLine
 62
7
  6
CONTINUOUS
 10
371.4076258867
 20
-124.8797662091
 11
371.4866514322
 21
-124.9888618796
  0
LWPOLYLINE
  5
6AE
100
AcDbEntity
  8
RUNDUNGEN
100
AcDbPolyline
 62
7
  6
CONTINUOUS
 90
4
 70
0
 10
371.4838606888
 20
-124.9848474491
 10
371.5416932014
 20
-125.0713811914
 10
371.5824304604
 20
-125.1382260096
 10
371.5954507882
 20
-125.1613064972
  0
LINE
  5
6AF
100
AcDbEntity
  8
RUNDUNGEN
100
AcDbLine
 62
7
  6
CONTINUOUS
 10
371.5760333647
 20
-125.1277291644
 11
371.5760333647
 21
-125.6593028544
  0
LINE
  5
6B0
100
AcDbEntity
  8
0
100
AcDbLine
 62
7
  6
CONTINUOUS
 10
377.6101008516
 20
-89.1593847463
 11
377.6101008516
 21
-128.1593847463
  0
LINE
  5
6B1
100
AcDbEntity
  8
RUNDUNGEN
100
AcDbLine
 62
7
  6
CONTINUOUS
 10
399.0760333647
 20
-127.1593847463
 11
399.0760333647
 21
-90.1593847463
  0
LINE
  5
6B2
100
AcDbEntity
  8
BEZUGSACHSEN
100
AcDbLine
 62
7
  6
CONTINUOUS
 10
493.1368906649
 20
-120.0808704188
 11
496.715620943
 21
-117.0275559451
  0
LINE
  5
6B3
100
AcDbEntity
  8
BEZUGSACHSEN
100
AcDbLine
 62
7
  6
CONTINUOUS
 10
493.1368906649
 20
-97.2378990738
 11
496.715620943
 21
-100.2912135476
  0
LINE
  5
6B4
100
AcDbEntity
  8
BEZUGSACHSEN
100
AcDbLine
 62
7
  6
CONTINUOUS
 10
460.5760333647
 20
-118.5593847463
 11
460.5760333647
 21
-98.7593847463
  0
ARC
  5
6B5
100
AcDbEntity
  8
BEZUGSACHSEN
100
AcDbCircle
 62
7
  6
CONTINUOUS
 10
259.5760333647
 20
29.7729707073
 40
8.0
100
AcDbArc
 50
180.0
 51
270.0
  0
ARC
  5
6B6
100
AcDbEntity
  8
BEZUGSACHSEN
100
AcDbCircle
 62
7
  6
CONTINUOUS
 10
8.3260333647
 20
341.7729707073
 40
16.0
100
AcDbArc
 50
322.3415379938
 51
336.9417559121
  0
ARC
  5
6B7
100
AcDbEntity
  8
0
100
AcDbCircle
 62
7
  6
CONTINUOUS
 10
8.3260333647
 20
341.7729707073
 40
16.0
100
AcDbArc
 50
23.0582440879
 51
37.6584620062
  0
ARC
  5
6B8
100
AcDbEntity
  8
BEZUGSACHSEN
100
AcDbCircle
 62
7
  6
CONTINUOUS
 10
45.5260333647
 20
341.7729707073
 40
5.05
100
AcDbArc
 50
270.0
 51
90.0
  0
ARC
  5
6B9
100
AcDbEntity
  8
0
100
AcDbCircle
 62
7
  6
CONTINUOUS
 10
68.5760333647
 20
331.7729707073
 40
5.0
100
AcDbArc
 50
90.0
 51
164.4577317766
  0
ARC
  5
6BA
100
AcDbEntity
  8
RUNDUNGEN
100
AcDbCircle
 62
7
  6
CONTINUOUS
 10
39.5760333647
 20
355.7729707073
 40
3.5
100
AcDbArc
 50
89.9999990903
 51
270.0000013347
  0
ARC
  5
6BB
100
AcDbEntity
  8
RUNDUNGEN
100
AcDbCircle
 62
7
  6
CONTINUOUS
 10
53.5760333647
 20
355.7729707073
 40
3.5
100
AcDbArc
 50
269.9999990903
 51
90.0000013347
  0
ARC
  5
6BC
100
AcDbEntity
  8
BEZUGSACHSEN
100
AcDbCircle
 62
7
  6
CONTINUOUS
 10
39.5760333647
 20
327.7729707073
 40
3.5
100
AcDbArc
 50
89.9999986653
 51
270.0000009097
  0
ARC
  5
6BD
100
AcDbEntity
  8
BEZUGSACHSEN
100
AcDbCircle
 62
7
  6
CONTINUOUS
 10
53.5760333647
 20
327.7729707073
 40
3.5
100
AcDbArc
 50
269.9999986653
 51
90.0000009097
  0
ARC
  5
6BE
100
AcDbEntity
  8
BEZUGSACHSEN
100
AcDbCircle
 62
7
  6
CONTINUOUS
 10
26.3080841722
 20
323.7729707073
 40
3.0
100
AcDbArc
 50
210.0
 51
270.0
  0
ARC
  5
6BF
100
AcDbEntity
  8
RUNDUNGEN
100
AcDbCircle
 62
7
  6
CONTINUOUS
 10
26.3080841722
 20
359.7729707073
 40
3.0
100
AcDbArc
 50
90.0
 51
150.0
  0
ARC
  5
6C0
100
AcDbEntity
  8
RUNDUNGEN
100
AcDbCircle
 62
7
  6
CONTINUOUS
 10
98.0760333647
 20
365.7729707073
 40
2.0
100
AcDbArc
 50
90.0
 51
180.0000015115
  0
ARC
  5
6C1
100
AcDbEntity
  8
RUNDUNGEN
100
AcDbCircle
 62
7
  6
CONTINUOUS
 10
98.0760333647
 20
317.7729707073
 40
2.0
100
AcDbArc
 50
179.9999984885
 51
270.0
  0
ARC
  5
6C2
100
AcDbEntity
  8
RUNDUNGEN
100
AcDbCircle
 62
7
  6
CONTINUOUS
 10
58.5760333647
 20
360.7729707073
 40
2.0
100
AcDbArc
 50
0.0
 51
90.0
  0
ARC
  5
6C3
100
AcDbEntity
  8
BEZUGSACHSEN
100
AcDbCircle
 62
7
  6
CONTINUOUS
 10
22.5760333647
 20
328.2370723224
 40
2.0
100
AcDbArc
 50
180.0
 51
210.0
  0
ARC
  5
6C4
100
AcDbEntity
  8
BEZUGSACHSEN
100
AcDbCircle
 62
7
  6
CONTINUOUS
 10
22.5760333647
 20
330.7758119833
 40
2.0
100
AcDbArc
 50
142.3415379938
 51
180.0
  0
ARC
  5
6C5
100
AcDbEntity
  8
BEZUGSACHSEN
100
AcDbCircle
 62
7
  6
CONTINUOUS
 10
24.8879626001
 20
334.7229707073
 40
2.0
100
AcDbArc
 50
90.0
 51
156.9417559121
  0
ARC
  5
6C6
100
AcDbEntity
  8
RUNDUNGEN
100
AcDbCircle
 62
7
  6
CONTINUOUS
 10
22.5760333647
 20
355.3088690921
 40
2.0
100
AcDbArc
 50
150.0
 51
180.0
  0
ARC
  5
6C7
100
AcDbEntity
  8
RUNDUNGEN
100
AcDbCircle
 62
7
  6
CONTINUOUS
 10
22.5760333647
 20
352.7701294312
 40
2.0
100
AcDbArc
 50
180.0
 51
217.6584620062
  0
ARC
  5
6C8
100
AcDbEntity
  8
RUNDUNGEN
100
AcDbCircle
 62
7
  6
CONTINUOUS
 10
24.8879626001
 20
348.8229707073
 40
2.0
100
AcDbArc
 50
203.0582440879
 51
270.0
  0
ARC
  5
6C9
100
AcDbEntity
  8
BEZUGSACHSEN
100
AcDbCircle
 62
7
  6
CONTINUOUS
 10
58.5760333647
 20
322.7729707073
 40
2.0
100
AcDbArc
 50
270.0
 51
360.0
  0
ARC
  5
6CA
100
AcDbEntity
  8
RUNDUNGEN
100
AcDbCircle
 62
7
  6
CONTINUOUS
 10
61.5760333647
 20
330.7729707073
 40
1.0
100
AcDbArc
 50
90.0
 51
180.0
  0
ARC
  5
6CB
100
AcDbEntity
  8
RUNDUNGEN
100
AcDbCircle
 62
7
  6
CONTINUOUS
 10
61.5760333647
 20
352.7729707073
 40
1.0
100
AcDbArc
 50
180.0
 51
270.0
  0
ARC
  5
6CC
100
AcDbEntity
  8
RUNDUNGEN
100
AcDbCircle
 62
7
  6
CONTINUOUS
 10
124.0760333647
 20
364.7729707073
 40
1.0
100
AcDbArc
 50
90.0
 51
180.0
  0
ARC
  5
6CD
100
AcDbEntity
  8
RUNDUNGEN
100
AcDbCircle
 62
7
  6
CONTINUOUS
 10
124.0760333647
 20
318.7729707073
 40
1.0
100
AcDbArc
 50
180.0
 51
270.0
  0
ARC
  5
6CE
100
AcDbEntity
  8
RUNDUNGEN
100
AcDbCircle
 62
7
  6
CONTINUOUS
 10
102.5760333647
 20
367.2729707073
 40
0.5
100
AcDbArc
 50
0.0
 51
90.0
  0
ARC
  5
6CF
100
AcDbEntity
  8
RUNDUNGEN
100
AcDbCircle
 62
7
  6
CONTINUOUS
 10
102.5760333647
 20
316.2729707073
 40
0.5
100
AcDbArc
 50
270.0
 51
360.0
  0
ARC
  5
6D0
100
AcDbEntity
  8
BEZUGSACHSEN
100
AcDbCircle
 62
7
  6
CONTINUOUS
 10
240.5760333647
 20
244.6838896455
 40
11.0
100
AcDbArc
 50
0.0
 51
16.4403795217
  0
ARC
  5
6D1
100
AcDbEntity
  8
BEZUGSACHSEN
100
AcDbCircle
 62
7
  6
CONTINUOUS
 10
253.5760333647
 20
278.362051769
 40
11.0
100
AcDbArc
 50
180.0
 51
196.4403795217
  0
ARC
  5
6D2
100
AcDbEntity
  8
0
100
AcDbCircle
 62
7
  6
CONTINUOUS
 10
179.7241681638
 20
353.6057624694
 40
29.1353600109
100
AcDbArc
 50
323.2731676295
 51
324.7079467431
  0
ARC
  5
6D3
100
AcDbEntity
  8
RUNDUNGEN
100
AcDbCircle
 62
7
  6
CONTINUOUS
 10
155.5760333647
 20
346.7729707073
 40
6.0
100
AcDbArc
 50
89.9983471528
 51
179.9978476667
  0
ARC
  5
6D4
100
AcDbEntity
  8
RUNDUNGEN
100
AcDbCircle
 62
7
  6
CONTINUOUS
 10
155.5760333647
 20
336.7729707073
 40
6.0
100
AcDbArc
 50
180.0005164764
 51
270.002481054
  0
ARC
  5
6D5
100
AcDbEntity
  8
RUNDUNGEN
100
AcDbCircle
 62
7
  6
CONTINUOUS
 10
238.5760333647
 20
346.7729707073
 40
6.0
100
AcDbArc
 50
48.1970765251
 51
90.0015777035
  0
ARC
  5
6D6
100
AcDbEntity
  8
RUNDUNGEN
100
AcDbCircle
 62
7
  6
CONTINUOUS
 10
238.5760333647
 20
336.7729707073
 40
6.0
100
AcDbArc
 50
269.9993904099
 51
311.8185594356
  0
ARC
  5
6D7
100
AcDbEntity
  8
RUNDUNGEN
100
AcDbCircle
 62
7
  6
CONTINUOUS
 10
145.7214153495
 20
365.7729707073
 40
5.0
100
AcDbArc
 50
235.0
 51
270.0
  0
ARC
  5
6D8
100
AcDbEntity
  8
RUNDUNGEN
100
AcDbCircle
 62
7
  6
CONTINUOUS
 10
145.7214153495
 20
317.7729707073
 40
5.0
100
AcDbArc
 50
90.0
 51
125.0
  0
ARC
  5
6D9
100
AcDbEntity
  8
BEZUGSACHSEN
100
AcDbCircle
 62
7
  6
CONTINUOUS
 10
247.5760333647
 20
367.7729707073
 40
5.0
100
AcDbArc
 50
90.0
 51
180.0
  0
ARC
  5
6DA
100
AcDbEntity
  8
RUNDUNGEN
100
AcDbCircle
 62
7
  6
CONTINUOUS
 10
237.8074711969
 20
359.2729707073
 40
2.0
100
AcDbArc
 50
90.0
 51
110.0
  0
ARC
  5
6DB
100
AcDbEntity
  8
RUNDUNGEN
100
AcDbCircle
 62
7
  6
CONTINUOUS
 10
237.8074711969
 20
324.2729707073
 40
2.0
100
AcDbArc
 50
250.0
 51
270.0
  0
ARC
  5
6DC
100
AcDbEntity
  8
RUNDUNGEN
100
AcDbCircle
 62
7
  6
CONTINUOUS
 10
235.7284245644
 20
362.7729707073
 40
2.0
100
AcDbArc
 50
270.0
 51
290.0
  0
ARC
  5
6DD
100
AcDbEntity
  8
RUNDUNGEN
100
AcDbCircle
 62
7
  6
CONTINUOUS
 10
235.7284245644
 20
320.7729707073
 40
2.0
100
AcDbArc
 50
70.0
 51
90.0
  0
ARC
  5
6DE
100
AcDbEntity
  8
0
100
AcDbCircle
 62
7
  6
CONTINUOUS
 10
255.5760333647
 20
313.7729707073
 40
2.0
100
AcDbArc
 50
180.0
 51
270.0
  0
ARC
  5
6DF
100
AcDbEntity
  8
RUNDUNGEN
100
AcDbCircle
 62
7
  6
CONTINUOUS
 10
138.4155574673
 20
334.6270601397
 40
1.4113761021
100
AcDbArc
 50
177.7886256086
 51
179.9946431206
  0
ARC
  5
6E0
100
AcDbEntity
  8
RUNDUNGEN
100
AcDbCircle
 62
7
  6
CONTINUOUS
 10
138.4155573981
 20
348.9188774896
 40
1.4113760325
100
AcDbArc
 50
180.0052032151
 51
182.2112211723
  0
ARC
  5
6E1
100
AcDbEntity
  8
RUNDUNGEN
100
AcDbCircle
 62
7
  6
CONTINUOUS
 10
261.5760333647
 20
29.7729707073
 40
8.0
100
AcDbArc
 50
270.0
 51
360.0
  0
ARC
  5
6E2
100
AcDbEntity
  8
RUNDUNGEN
100
AcDbCircle
 62
7
  6
CONTINUOUS
 10
280.5760333647
 20
244.6838896455
 40
11.0
100
AcDbArc
 50
163.5596204783
 51
180.0
  0
ARC
  5
6E3
100
AcDbEntity
  8
RUNDUNGEN
100
AcDbCircle
 62
7
  6
CONTINUOUS
 10
267.5760333647
 20
278.362051769
 40
11.0
100
AcDbArc
 50
343.5596204783
 51
360.0
  0
ARC
  5
6E4
100
AcDbEntity
  8
RUNDUNGEN
100
AcDbCircle
 62
7
  6
CONTINUOUS
 10
365.5760333647
 20
346.7729707073
 40
6.0
100
AcDbArc
 50
359.9982629184
 51
90.0016632488
  0
ARC
  5
6E5
100
AcDbEntity
  8
RUNDUNGEN
100
AcDbCircle
 62
7
  6
CONTINUOUS
 10
365.5760333647
 20
336.7729707073
 40
6.0
100
AcDbArc
 50
269.9974648987
 51
0.0017796289
  0
ARC
  5
6E6
100
AcDbEntity
  8
RUNDUNGEN
100
AcDbCircle
 62
7
  6
CONTINUOUS
 10
282.5760333647
 20
346.7729707073
 40
6.0
100
AcDbArc
 50
89.9984222897
 51
131.8438342939
  0
ARC
  5
6E7
100
AcDbEntity
  8
RUNDUNGEN
100
AcDbCircle
 62
7
  6
CONTINUOUS
 10
282.5760333647
 20
336.7729707073
 40
6.0
100
AcDbArc
 50
228.1824826611
 51
270.0006466578
  0
ARC
  5
6E8
100
AcDbEntity
  8
0
100
AcDbCircle
 62
7
  6
CONTINUOUS
 10
375.4306513798
 20
317.7729707073
 40
5.0
100
AcDbArc
 50
64.1580672368
 51
90.0
  0
ARC
  5
6E9
100
AcDbEntity
  8
0
100
AcDbCircle
 62
7
  6
CONTINUOUS
 10
375.4306513798
 20
365.7729707073
 40
5.0
100
AcDbArc
 50
270.0
 51
295.8419327632
  0
ARC
  5
6EA
100
AcDbEntity
  8
RUNDUNGEN
100
AcDbCircle
 62
7
  6
CONTINUOUS
 10
273.5760333647
 20
367.7729707073
 40
5.0
100
AcDbArc
 50
0.0
 51
90.0
  0
ARC
  5
6EB
100
AcDbEntity
  8
RUNDUNGEN
100
AcDbCircle
 62
7
  6
CONTINUOUS
 10
283.3445955324
 20
359.2729707073
 40
2.0
100
AcDbArc
 50
70.0
 51
90.0
  0
ARC
  5
6EC
100
AcDbEntity
  8
RUNDUNGEN
100
AcDbCircle
 62
7
  6
CONTINUOUS
 10
283.3445955324
 20
324.2729707073
 40
2.0
100
AcDbArc
 50
270.0
 51
290.0
  0
ARC
  5
6ED
100
AcDbEntity
  8
RUNDUNGEN
100
AcDbCircle
 62
7
  6
CONTINUOUS
 10
285.423642165
 20
362.7729707073
 40
2.0
100
AcDbArc
 50
250.0
 51
270.0
  0
ARC
  5
6EE
100
AcDbEntity
  8
RUNDUNGEN
100
AcDbCircle
 62
7
  6
CONTINUOUS
 10
285.423642165
 20
320.7729707073
 40
2.0
100
AcDbArc
 50
90.0
 51
110.0
  0
ARC
  5
6EF
100
AcDbEntity
  8
0
100
AcDbCircle
 62
7
  6
CONTINUOUS
 10
265.5760333647
 20
313.7729707073
 40
2.0
100
AcDbArc
 50
270.0
 51
360.0
  0
ARC
  5
6F0
100
AcDbEntity
  8
BEZUGSACHSEN
100
AcDbCircle
 62
7
  6
CONTINUOUS
 10
512.8260333647
 20
341.7729707073
 40
16.0
100
AcDbArc
 50
142.3415379938
 51
156.9417559121
  0
ARC
  5
6F1
100
AcDbEntity
  8
0
100
AcDbCircle
 62
7
  6
CONTINUOUS
 10
512.8260333647
 20
341.7729707073
 40
16.0
100
AcDbArc
 50
203.0582440879
 51
217.6584620062
  0
ARC
  5
6F2
100
AcDbEntity
  8
BEZUGSACHSEN
100
AcDbCircle
 62
7
  6
CONTINUOUS
 10
475.6260333647
 20
341.7729707073
 40
5.05
100
AcDbArc
 50
90.0
 51
270.0
  0
ARC
  5
6F3
100
AcDbEntity
  8
RUNDUNGEN
100
AcDbCircle
 62
7
  6
CONTINUOUS
 10
481.5760333647
 20
327.7729707073
 40
3.5
100
AcDbArc
 50
269.9999990903
 51
90.0000013347
  0
ARC
  5
6F4
100
AcDbEntity
  8
RUNDUNGEN
100
AcDbCircle
 62
7
  6
CONTINUOUS
 10
467.5760333647
 20
327.7729707073
 40
3.5
100
AcDbArc
 50
89.9999990903
 51
270.0000013347
  0
ARC
  5
6F5
100
AcDbEntity
  8
BEZUGSACHSEN
100
AcDbCircle
 62
7
  6
CONTINUOUS
 10
481.5760333647
 20
355.7729707073
 40
3.5
100
AcDbArc
 50
269.9999986653
 51
90.0000009097
  0
ARC
  5
6F6
100
AcDbEntity
  8
BEZUGSACHSEN
100
AcDbCircle
 62
7
  6
CONTINUOUS
 10
467.5760333647
 20
355.7729707073
 40
3.5
100
AcDbArc
 50
89.9999986653
 51
270.0000009097
  0
ARC
  5
6F7
100
AcDbEntity
  8
BEZUGSACHSEN
100
AcDbCircle
 62
7
  6
CONTINUOUS
 10
494.8439825571
 20
359.7729707073
 40
3.0
100
AcDbArc
 50
30.0
 51
90.0
  0
ARC
  5
6F8
100
AcDbEntity
  8
RUNDUNGEN
100
AcDbCircle
 62
7
  6
CONTINUOUS
 10
494.8439825571
 20
323.7729707073
 40
3.0
100
AcDbArc
 50
270.0
 51
330.0
  0
ARC
  5
6F9
100
AcDbEntity
  8
BEZUGSACHSEN
100
AcDbCircle
 62
7
  6
CONTINUOUS
 10
462.5760333647
 20
322.7729707073
 40
2.0
100
AcDbArc
 50
180.0
 51
270.0
  0
ARC
  5
6FA
100
AcDbEntity
  8
RUNDUNGEN
100
AcDbCircle
 62
7
  6
CONTINUOUS
 10
462.5760333647
 20
322.7729707073
 40
2.0
100
AcDbArc
 50
180.0
 51
270.0
  0
ARC
  5
6FB
100
AcDbEntity
  8
BEZUGSACHSEN
100
AcDbCircle
 62
7
  6
CONTINUOUS
 10
498.5760333647
 20
355.3088690921
 40
2.0
100
AcDbArc
 50
0.0
 51
30.0
  0
ARC
  5
6FC
100
AcDbEntity
  8
BEZUGSACHSEN
100
AcDbCircle
 62
7
  6
CONTINUOUS
 10
498.5760333647
 20
352.7701294312
 40
2.0
100
AcDbArc
 50
322.3415379938
 51
360.0
  0
ARC
  5
6FD
100
AcDbEntity
  8
BEZUGSACHSEN
100
AcDbCircle
 62
7
  6
CONTINUOUS
 10
496.2641041292
 20
348.8229707073
 40
2.0
100
AcDbArc
 50
270.0
 51
336.9417559121
  0
ARC
  5
6FE
100
AcDbEntity
  8
RUNDUNGEN
100
AcDbCircle
 62
7
  6
CONTINUOUS
 10
498.5760333647
 20
328.2370723224
 40
2.0
100
AcDbArc
 50
330.0
 51
360.0
  0
ARC
  5
6FF
100
AcDbEntity
  8
RUNDUNGEN
100
AcDbCircle
 62
7
  6
CONTINUOUS
 10
498.5760333647
 20
330.7758119833
 40
2.0
100
AcDbArc
 50
0.0
 51
37.6584620062
  0
ARC
  5
700
100
AcDbEntity
  8
RUNDUNGEN
100
AcDbCircle
 62
7
  6
CONTINUOUS
 10
496.2641041292
 20
334.7229707073
 40
2.0
100
AcDbArc
 50
23.0582440879
 51
90.0
  0
ARC
  5
701
100
AcDbEntity
  8
BEZUGSACHSEN
100
AcDbCircle
 62
7
  6
CONTINUOUS
 10
462.5760333647
 20
360.7729707073
 40
2.0
100
AcDbArc
 50
90.0
 51
180.0
  0
ARC
  5
702
100
AcDbEntity
  8
RUNDUNGEN
100
AcDbCircle
 62
7
  6
CONTINUOUS
 10
459.5760333647
 20
330.7729707073
 40
1.0
100
AcDbArc
 50
0.0
 51
90.0
  0
ARC
  5
703
100
AcDbEntity
  8
RUNDUNGEN
100
AcDbCircle
 62
7
  6
CONTINUOUS
 10
459.5760333647
 20
352.7729707073
 40
1.0
100
AcDbArc
 50
270.0
 51
360.0
  0
ARC
  5
704
100
AcDbEntity
  8
RUNDUNGEN
100
AcDbCircle
 62
7
  6
CONTINUOUS
 10
398.0760333647
 20
323.2729707073
 40
1.0
100
AcDbArc
 50
270.0
 51
360.0
  0
ARC
  5
705
100
AcDbEntity
  8
RUNDUNGEN
100
AcDbCircle
 62
7
  6
CONTINUOUS
 10
398.0760333647
 20
360.2729707073
 40
1.0
100
AcDbArc
 50
0.0
 51
90.0
  0
ARC
  5
706
100
AcDbEntity
  8
RUNDUNGEN
100
AcDbCircle
 62
7
  6
CONTINUOUS
 10
98.0760333647
 20
481.0394487388
 40
2.0
100
AcDbArc
 50
180.0
 51
270.0
  0
ARC
  5
707
100
AcDbEntity
  8
RUNDUNGEN
100
AcDbCircle
 62
7
  6
CONTINUOUS
 10
124.0760333647
 20
482.0394487388
 40
1.0
100
AcDbArc
 50
180.0
 51
270.0
  0
ARC
  5
708
100
AcDbEntity
  8
RUNDUNGEN
100
AcDbCircle
 62
7
  6
CONTINUOUS
 10
102.5760333647
 20
479.5394487388
 40
0.5
100
AcDbArc
 50
270.0
 51
360.0
  0
ARC
  5
709
100
AcDbEntity
  8
BEZUGSACHSEN
100
AcDbCircle
 62
7
  6
CONTINUOUS
 10
29.3132828969
 20
495.1394487388
 40
2.0
100
AcDbArc
 50
229.5297285241
 51
270.0
  0
ARC
  5
70A
100
AcDbEntity
  8
RUNDUNGEN
100
AcDbCircle
 62
7
  6
CONTINUOUS
 10
61.3670982788
 20
494.0394492116
 40
0.999999957
100
AcDbArc
 50
90.0000000346
 51
158.4898387528
  0
ARC
  5
70B
100
AcDbEntity
  8
RUNDUNGEN
100
AcDbCircle
 62
7
  6
CONTINUOUS
 10
58.5760333647
 20
495.1394487388
 40
2.0
100
AcDbArc
 50
338.4924153625
 51
359.9993072267
  0
ARC
  5
70C
100
AcDbEntity
  8
BEZUGSACHSEN
100
AcDbCircle
 62
7
  6
CONTINUOUS
 10
58.5760333647
 20
495.1394487388
 40
2.0
100
AcDbArc
 50
270.0
 51
360.0
  0
ARC
  5
70D
100
AcDbEntity
  8
BEZUGSACHSEN
100
AcDbCircle
 62
7
  6
CONTINUOUS
 10
247.5760333647
 20
479.0394487388
 40
5.0
100
AcDbArc
 50
180.0
 51
270.0
  0
ARC
  5
70E
100
AcDbEntity
  8
RUNDUNGEN
100
AcDbCircle
 62
7
  6
CONTINUOUS
 10
145.7214153495
 20
481.0394487388
 40
5.0
100
AcDbArc
 50
90.0
 51
125.0
  0
ARC
  5
70F
100
AcDbEntity
  8
RUNDUNGEN
100
AcDbCircle
 62
7
  6
CONTINUOUS
 10
237.8074711969
 20
487.5394487388
 40
2.0
100
AcDbArc
 50
250.0
 51
270.0
  0
ARC
  5
710
100
AcDbEntity
  8
RUNDUNGEN
100
AcDbCircle
 62
7
  6
CONTINUOUS
 10
235.7284245644
 20
484.0394487388
 40
2.0
100
AcDbArc
 50
70.0
 51
90.0
  0
ARC
  5
711
100
AcDbEntity
  8
0
100
AcDbCircle
 62
7
  6
CONTINUOUS
 10
254.5760333647
 20
497.0394487388
 40
12.0
100
AcDbArc
 50
251.446995465
 51
257.8532188521
  0
ARC
  5
712
100
AcDbEntity
  8
0
100
AcDbCircle
 62
7
  6
CONTINUOUS
 10
254.5760333647
 20
497.0394487388
 40
12.0
100
AcDbArc
 50
258.397196836
 51
260.6246377199
  0
ARC
  5
713
100
AcDbEntity
  8
0
100
AcDbCircle
 62
7
  6
CONTINUOUS
 10
254.5760333647
 20
497.0394487388
 40
12.0
100
AcDbArc
 50
263.9048612023
 51
265.2207657203
  0
ARC
  5
714
100
AcDbEntity
  8
BEZUGSACHSEN
100
AcDbCircle
 62
7
  6
CONTINUOUS
 10
254.5760333647
 20
497.0394487388
 40
12.0
100
AcDbArc
 50
180.0
 51
270.0
  0
ARC
  5
715
100
AcDbEntity
  8
BEZUGSACHSEN
100
AcDbCircle
 62
7
  6
CONTINUOUS
 10
259.5760333647
 20
497.0394487388
 40
8.0
100
AcDbArc
 50
180.0
 51
270.0
  0
ARC
  5
716
100
AcDbEntity
  8
RUNDUNGEN
100
AcDbCircle
 62
7
  6
CONTINUOUS
 10
31.5760333647
 20
505.0394487388
 40
11.0
100
AcDbArc
 50
201.7001927686
 51
218.1835923756
  0
ARC
  5
717
100
AcDbEntity
  8
RUNDUNGEN
100
AcDbCircle
 62
7
  6
CONTINUOUS
 10
31.5760333647
 20
505.0394487388
 40
11.0
100
AcDbArc
 50
219.9796828068
 51
223.8685147962
  0
ARC
  5
718
100
AcDbEntity
  8
BEZUGSACHSEN
100
AcDbCircle
 62
7
  6
CONTINUOUS
 10
31.5760333647
 20
505.0394487388
 40
11.0
100
AcDbArc
 50
130.4702714759
 51
229.5297285241
  0
ARC
  5
719
100
AcDbEntity
  8
BEZUGSACHSEN
100
AcDbCircle
 62
7
  6
CONTINUOUS
 10
29.3132828969
 20
514.9394487388
 40
2.0
100
AcDbArc
 50
90.0
 51
130.4702714759
  0
ARC
  5
71A
100
AcDbEntity
  8
BEZUGSACHSEN
100
AcDbCircle
 62
7
  6
CONTINUOUS
 10
58.5760333647
 20
514.9394487388
 40
2.0
100
AcDbArc
 50
0.0
 51
90.0
  0
ARC
  5
71B
100
AcDbEntity
  8
RUNDUNGEN
100
AcDbCircle
 62
7
  6
CONTINUOUS
 10
61.3670982788
 20
516.0394482659
 40
0.999999957
100
AcDbArc
 50
201.5101612472
 51
269.9999999654
  0
ARC
  5
71C
100
AcDbEntity
  8
RUNDUNGEN
100
AcDbCircle
 62
7
  6
CONTINUOUS
 10
98.0760333647
 20
529.0394487388
 40
2.0
100
AcDbArc
 50
90.0
 51
180.0
  0
ARC
  5
71D
100
AcDbEntity
  8
RUNDUNGEN
100
AcDbCircle
 62
7
  6
CONTINUOUS
 10
124.0760333647
 20
528.0394487388
 40
1.0
100
AcDbArc
 50
90.0
 51
180.0
  0
ARC
  5
71E
100
AcDbEntity
  8
RUNDUNGEN
100
AcDbCircle
 62
7
  6
CONTINUOUS
 10
102.5760333647
 20
530.5394487388
 40
0.5
100
AcDbArc
 50
0.0
 51
90.0
  0
ARC
  5
71F
100
AcDbEntity
  8
BEZUGSACHSEN
100
AcDbCircle
 62
7
  6
CONTINUOUS
 10
254.5760333647
 20
513.0394487388
 40
12.0
100
AcDbArc
 50
90.0
 51
180.0
  0
ARC
  5
720
100
AcDbEntity
  8
0
100
AcDbCircle
 62
7
  6
CONTINUOUS
 10
254.5760333647
 20
513.0394487388
 40
12.0
100
AcDbArc
 50
102.1467924948
 51
108.553004535
  0
ARC
  5
721
100
AcDbEntity
  8
0
100
AcDbCircle
 62
7
  6
CONTINUOUS
 10
254.5760333647
 20
513.0394487388
 40
12.0
100
AcDbArc
 50
99.3763920395
 51
101.0420286215
  0
ARC
  5
722
100
AcDbEntity
  8
0
100
AcDbCircle
 62
7
  6
CONTINUOUS
 10
254.5760333647
 20
513.0394487388
 40
12.0
100
AcDbArc
 50
94.7792343284
 51
96.0955871289
  0
ARC
  5
723
100
AcDbEntity
  8
BEZUGSACHSEN
100
AcDbCircle
 62
7
  6
CONTINUOUS
 10
259.5760333647
 20
513.0394487388
 40
8.0
100
AcDbArc
 50
90.0
 51
180.0
  0
ARC
  5
724
100
AcDbEntity
  8
RUNDUNGEN
100
AcDbCircle
 62
7
  6
CONTINUOUS
 10
237.8073364737
 20
516.7552781774
 40
1.9995328354
100
AcDbArc
 50
89.9961398081
 51
118.5346729468
  0
ARC
  5
725
100
AcDbEntity
  8
BEZUGSACHSEN
100
AcDbCircle
 62
7
  6
CONTINUOUS
 10
247.5760333647
 20
531.0394487388
 40
5.0
100
AcDbArc
 50
90.0
 51
180.0
  0
ARC
  5
726
100
AcDbEntity
  8
RUNDUNGEN
100
AcDbCircle
 62
7
  6
CONTINUOUS
 10
147.6038354616
 20
521.0671997523
 40
2.0000267643
100
AcDbArc
 50
14.8700385267
 51
89.9994734225
  0
ARC
  5
727
100
AcDbEntity
  8
RUNDUNGEN
100
AcDbCircle
 62
7
  6
CONTINUOUS
 10
273.5760333647
 20
479.0394487388
 40
5.0
100
AcDbArc
 50
270.0
 51
360.0
  0
ARC
  5
728
100
AcDbEntity
  8
0
100
AcDbCircle
 62
7
  6
CONTINUOUS
 10
375.4306513798
 20
481.0394487388
 40
5.0
100
AcDbArc
 50
64.1580672368
 51
90.0
  0
ARC
  5
729
100
AcDbEntity
  8
RUNDUNGEN
100
AcDbCircle
 62
7
  6
CONTINUOUS
 10
283.3445955324
 20
487.5394487388
 40
2.0
100
AcDbArc
 50
270.0
 51
290.0
  0
ARC
  5
72A
100
AcDbEntity
  8
RUNDUNGEN
100
AcDbCircle
 62
7
  6
CONTINUOUS
 10
285.423642165
 20
484.0394487388
 40
2.0
100
AcDbArc
 50
90.0
 51
110.0
  0
ARC
  5
72B
100
AcDbEntity
  8
RUNDUNGEN
100
AcDbCircle
 62
7
  6
CONTINUOUS
 10
316.5760333647
 20
485.5394487388
 40
2.0
100
AcDbArc
 50
38.683707363
 51
90.0020376536
  0
ARC
  5
72C
100
AcDbEntity
  8
RUNDUNGEN
100
AcDbCircle
 62
7
  6
CONTINUOUS
 10
290.5760333647
 20
485.5394487388
 40
2.0
100
AcDbArc
 50
90.0008661253
 51
141.316387078
  0
ARC
  5
72D
100
AcDbEntity
  8
RUNDUNGEN
100
AcDbCircle
 62
7
  6
CONTINUOUS
 10
266.5760333647
 20
497.0394487388
 40
12.0
100
AcDbArc
 50
270.0
 51
360.0
  0
ARC
  5
72E
100
AcDbEntity
  8
0
100
AcDbCircle
 62
7
  6
CONTINUOUS
 10
266.5760333647
 20
497.0394487388
 40
12.0
100
AcDbArc
 50
282.1467811479
 51
288.553004535
  0
ARC
  5
72F
100
AcDbEntity
  8
0
100
AcDbCircle
 62
7
  6
CONTINUOUS
 10
266.5760333647
 20
497.0394487388
 40
12.0
100
AcDbArc
 50
279.3753622801
 51
281.0409606916
  0
ARC
  5
730
100
AcDbEntity
  8
0
100
AcDbCircle
 62
7
  6
CONTINUOUS
 10
266.5760333647
 20
497.0394487388
 40
12.0
100
AcDbArc
 50
274.7792342797
 51
276.0951387977
  0
ARC
  5
731
100
AcDbEntity
  8
RUNDUNGEN
100
AcDbCircle
 62
7
  6
CONTINUOUS
 10
261.5760333647
 20
497.0394487388
 40
8.0
100
AcDbArc
 50
270.0
 51
360.0
  0
ARC
  5
732
100
AcDbEntity
  8
RUNDUNGEN
100
AcDbCircle
 62
7
  6
CONTINUOUS
 10
319.6985402103
 20
488.0394492606
 40
2.0000032256
100
AcDbArc
 50
218.6851549633
 51
270.0000703203
  0
ARC
  5
733
100
AcDbEntity
  8
RUNDUNGEN
100
AcDbCircle
 62
7
  6
CONTINUOUS
 10
398.0760333647
 20
486.5394487388
 40
1.0
100
AcDbArc
 50
270.0
 51
360.0
  0
ARC
  5
734
100
AcDbEntity
  8
RUNDUNGEN
100
AcDbCircle
 62
7
  6
CONTINUOUS
 10
459.7849684616
 20
494.0394492109
 40
0.9999999571
100
AcDbArc
 50
21.5101612787
 51
89.9999999649
  0
ARC
  5
735
100
AcDbEntity
  8
RUNDUNGEN
100
AcDbCircle
 62
7
  6
CONTINUOUS
 10
462.5760333647
 20
495.1394487388
 40
2.0
100
AcDbArc
 50
180.0006931702
 51
201.5075969643
  0
ARC
  5
736
100
AcDbEntity
  8
BEZUGSACHSEN
100
AcDbCircle
 62
7
  6
CONTINUOUS
 10
462.5760333647
 20
495.1394487388
 40
2.0
100
AcDbArc
 50
180.0
 51
270.0
  0
ARC
  5
737
100
AcDbEntity
  8
BEZUGSACHSEN
100
AcDbCircle
 62
7
  6
CONTINUOUS
 10
491.8387838324
 20
495.1394487388
 40
2.0
100
AcDbArc
 50
270.0
 51
310.4702683773
  0
ARC
  5
738
100
AcDbEntity
  8
0
100
AcDbCircle
 62
7
  6
CONTINUOUS
 10
266.5760333647
 20
513.0394487388
 40
12.0
100
AcDbArc
 50
71.446995465
 51
77.8532075052
  0
ARC
  5
739
100
AcDbEntity
  8
0
100
AcDbCircle
 62
7
  6
CONTINUOUS
 10
266.5760333647
 20
513.0394487388
 40
12.0
100
AcDbArc
 50
78.3961535075
 51
80.6236079605
  0
ARC
  5
73A
100
AcDbEntity
  8
0
100
AcDbCircle
 62
7
  6
CONTINUOUS
 10
266.5760333647
 20
513.0394487388
 40
12.0
100
AcDbArc
 50
83.9044128711
 51
85.2207656716
  0
ARC
  5
73B
100
AcDbEntity
  8
RUNDUNGEN
100
AcDbCircle
 62
7
  6
CONTINUOUS
 10
266.5760333647
 20
513.0394487388
 40
12.0
100
AcDbArc
 50
0.0
 51
90.0
  0
ARC
  5
73C
100
AcDbEntity
  8
RUNDUNGEN
100
AcDbCircle
 62
7
  6
CONTINUOUS
 10
261.5760333647
 20
513.0394487388
 40
8.0
100
AcDbArc
 50
0.0
 51
90.0
  0
ARC
  5
73D
100
AcDbEntity
  8
RUNDUNGEN
100
AcDbCircle
 62
7
  6
CONTINUOUS
 10
283.3447302556
 20
516.7552781774
 40
1.9995328355
100
AcDbArc
 50
61.465327187
 51
90.0038601914
  0
ARC
  5
73E
100
AcDbEntity
  8
RUNDUNGEN
100
AcDbCircle
 62
7
  6
CONTINUOUS
 10
273.5760333647
 20
531.0394487388
 40
5.0
100
AcDbArc
 50
0.0
 51
90.0
  0
ARC
  5
73F
100
AcDbEntity
  8
0
100
AcDbCircle
 62
7
  6
CONTINUOUS
 10
375.4306513798
 20
529.0394487388
 40
5.0
100
AcDbArc
 50
270.0
 51
295.8419327632
  0
ARC
  5
740
100
AcDbEntity
  8
RUNDUNGEN
100
AcDbCircle
 62
7
  6
CONTINUOUS
 10
373.5760333647
 20
522.0394487388
 40
2.0
100
AcDbArc
 50
90.0
 51
180.0
  0
ARC
  5
741
100
AcDbEntity
  8
RUNDUNGEN
100
AcDbCircle
 62
7
  6
CONTINUOUS
 10
462.5760333647
 20
514.9394487388
 40
2.0
100
AcDbArc
 50
90.0
 51
180.0
  0
ARC
  5
742
100
AcDbEntity
  8
RUNDUNGEN
100
AcDbCircle
 62
7
  6
CONTINUOUS
 10
459.7849684616
 20
516.0394482666
 40
0.9999999571
100
AcDbArc
 50
270.0000000351
 51
338.4898387213
  0
ARC
  5
743
100
AcDbEntity
  8
RUNDUNGEN
100
AcDbCircle
 62
7
  6
CONTINUOUS
 10
489.5760333647
 20
505.0394487388
 40
11.0
100
AcDbArc
 50
23.000203324
 51
49.5297285241
  0
ARC
  5
744
100
AcDbEntity
  8
RUNDUNGEN
100
AcDbCircle
 62
7
  6
CONTINUOUS
 10
489.5760333647
 20
505.0394487388
 40
11.0
100
AcDbArc
 50
316.7472407547
 51
21.7001927686
  0
ARC
  5
745
100
AcDbEntity
  8
BEZUGSACHSEN
100
AcDbCircle
 62
7
  6
CONTINUOUS
 10
489.5760333647
 20
505.0394487388
 40
11.0
100
AcDbArc
 50
310.4702714759
 51
23.0
  0
ARC
  5
746
100
AcDbEntity
  8
RUNDUNGEN
100
AcDbCircle
 62
7
  6
CONTINUOUS
 10
491.8387838324
 20
514.9394487388
 40
2.0
100
AcDbArc
 50
49.5297285238
 51
89.9999999989
  0
ARC
  5
747
100
AcDbEntity
  8
BEZUGSACHSEN
100
AcDbCircle
 62
7
  6
CONTINUOUS
 10
491.8387838324
 20
514.9394487388
 40
2.0
100
AcDbArc
 50
61.0373251043
 51
63.0198405026
  0
ARC
  5
748
100
AcDbEntity
  8
RUNDUNGEN
100
AcDbCircle
 62
7
  6
CONTINUOUS
 10
398.0760333647
 20
523.5394487388
 40
1.0
100
AcDbArc
 50
0.0
 51
90.0
  0
ARC
  5
749
100
AcDbEntity
  8
BEZUGSACHSEN
100
AcDbCircle
 62
7
  6
CONTINUOUS
 10
691.5174070215
 20
37.7729707073
 40
16.0
100
AcDbArc
 50
180.0
 51
360.0
  0
ARC
  5
74A
100
AcDbEntity
  8
BEZUGSACHSEN
100
AcDbCircle
 62
7
  6
CONTINUOUS
 10
664.5174070215
 20
245.5547344233
 40
11.0
100
AcDbArc
 50
0.0
 51
7.4715591766
  0
ARC
  5
74B
100
AcDbEntity
  8
RUNDUNGEN
100
AcDbCircle
 62
7
  6
CONTINUOUS
 10
664.5174070215
 20
245.5547344233
 40
11.0
100
AcDbArc
 50
7.3392533634
 51
7.4715591766
  0
ARC
  5
74C
100
AcDbEntity
  8
0
100
AcDbCircle
 62
7
  6
CONTINUOUS
 10
661.4693927703
 20
313.74749661
 40
10.0897478801
100
AcDbArc
 50
0.1446577088
 51
36.1198766829
  0
ARC
  5
74D
100
AcDbEntity
  8
0
100
AcDbCircle
 62
7
  6
CONTINUOUS
 10
661.4978727461
 20
313.7635461797
 40
10.0572844207
100
AcDbArc
 50
36.879601591
 51
43.0136927774
  0
ARC
  5
74E
100
AcDbEntity
  8
0
100
AcDbCircle
 62
7
  6
CONTINUOUS
 10
661.5057435848
 20
313.7695991353
 40
10.0473559352
100
AcDbArc
 50
36.1402568657
 51
36.8667877479
  0
ARC
  5
74F
100
AcDbEntity
  8
0
100
AcDbCircle
 62
7
  6
CONTINUOUS
 10
661.5056004569
 20
313.7701821357
 40
10.0470992756
100
AcDbArc
 50
39.9360796735
 51
43.0157757333
  0
ARC
  5
750
100
AcDbEntity
  8
0
100
AcDbCircle
 62
7
  6
CONTINUOUS
 10
664.4588353103
 20
313.7533082658
 40
7.1003004073
100
AcDbArc
 50
359.9304706686
 51
0.1586660122
  0
CIRCLE
  5
751
100
AcDbEntity
  8
BEZUGSACHSEN
100
AcDbCircle
 62
7
  6
CONTINUOUS
 10
673.5174070215
 20
341.7729707073
 40
3.5
  0
ARC
  5
752
100
AcDbEntity
  8
BEZUGSACHSEN
100
AcDbCircle
 62
7
  6
CONTINUOUS
 10
682.5174070215
 20
277.4912069913
 40
11.0
100
AcDbArc
 50
180.0
 51
187.4715591766
  0
ARC
  5
753
100
AcDbEntity
  8
RUNDUNGEN
100
AcDbCircle
 62
7
  6
CONTINUOUS
 10
682.5174070215
 20
277.4912069913
 40
11.0
100
AcDbArc
 50
180.0
 51
187.4715591766
  0
ARC
  5
754
100
AcDbEntity
  8
0
100
AcDbCircle
 62
7
  6
CONTINUOUS
 10
691.5174070215
 20
341.7729707073
 40
31.0
100
AcDbArc
 50
314.7344216658
 51
316.9830506742
  0
ARC
  5
755
100
AcDbEntity
  8
0
100
AcDbCircle
 62
7
  6
CONTINUOUS
 10
691.5174070215
 20
341.7729707073
 40
31.0
100
AcDbArc
 50
223.0169556023
 51
225.2655736382
  0
ARC
  5
756
100
AcDbEntity
  8
0
100
AcDbCircle
 62
7
  6
CONTINUOUS
 10
691.5174070215
 20
341.7729707073
 40
31.0
100
AcDbArc
 50
317.3334072218
 51
40.367264974
  0
ARC
  5
757
100
AcDbEntity
  8
BEZUGSACHSEN
100
AcDbCircle
 62
7
  6
CONTINUOUS
 10
691.5174070215
 20
341.7729707073
 40
31.0
100
AcDbArc
 50
314.7343584339
 51
225.2655736382
  0
CIRCLE
  5
758
100
AcDbEntity
  8
RUNDUNGEN
100
AcDbCircle
 62
7
  6
CONTINUOUS
 10
691.5174070215
 20
341.7729707073
 40
26.0
  0
ARC
  5
759
100
AcDbEntity
  8
BEZUGSACHSEN
100
AcDbCircle
 62
7
  6
CONTINUOUS
 10
691.5174070215
 20
341.7729707073
 40
19.5
100
AcDbArc
 50
350.3192095124
 51
9.6807904876
  0
ARC
  5
75A
100
AcDbEntity
  8
BEZUGSACHSEN
100
AcDbCircle
 62
7
  6
CONTINUOUS
 10
681.6173673138
 20
348.8229707073
 40
2.0
100
AcDbArc
 50
179.9999832356
 51
270.0011091874
  0
ARC
  5
75B
100
AcDbEntity
  8
BEZUGSACHSEN
100
AcDbCircle
 62
7
  6
CONTINUOUS
 10
681.6174070215
 20
360.7729478985
 40
2.0
100
AcDbArc
 50
90.0
 51
179.999346577
  0
ARC
  5
75C
100
AcDbEntity
  8
BEZUGSACHSEN
100
AcDbCircle
 62
7
  6
CONTINUOUS
 10
681.6174070215
 20
322.7729707073
 40
2.0
100
AcDbArc
 50
180.0
 51
270.0
  0
ARC
  5
75D
100
AcDbEntity
  8
BEZUGSACHSEN
100
AcDbCircle
 62
7
  6
CONTINUOUS
 10
681.6173673138
 20
334.7229707073
 40
2.0
100
AcDbArc
 50
89.9988908126
 51
180.0000167644
  0
ARC
  5
75E
100
AcDbEntity
  8
BEZUGSACHSEN
100
AcDbCircle
 62
7
  6
CONTINUOUS
 10
700.5174069199
 20
277.4912062167
 40
11.0
100
AcDbArc
 50
352.5284448924
 51
0.0000040345
  0
ARC
  5
75F
100
AcDbEntity
  8
RUNDUNGEN
100
AcDbCircle
 62
7
  6
CONTINUOUS
 10
700.5174069199
 20
277.4912062167
 40
11.0
100
AcDbArc
 50
352.5284448924
 51
0.0000040345
  0
ARC
  5
760
100
AcDbEntity
  8
BEZUGSACHSEN
100
AcDbCircle
 62
7
  6
CONTINUOUS
 10
718.5174063841
 20
245.5547295632
 40
10.999999631
100
AcDbArc
 50
172.5284152922
 51
179.9999746855
  0
ARC
  5
761
100
AcDbEntity
  8
0
100
AcDbCircle
 62
7
  6
CONTINUOUS
 10
721.565432377
 20
313.7474942872
 40
10.0897590345
100
AcDbArc
 50
143.8800889256
 51
179.8553292606
  0
ARC
  5
762
100
AcDbEntity
  8
0
100
AcDbCircle
 62
7
  6
CONTINUOUS
 10
721.5372120384
 20
313.7632230051
 40
10.0576956533
100
AcDbArc
 50
136.9863028074
 51
143.1383219437
  0
ARC
  5
763
100
AcDbEntity
  8
0
100
AcDbCircle
 62
7
  6
CONTINUOUS
 10
721.5289208341
 20
313.7697088779
 40
10.0471711993
100
AcDbArc
 50
143.1395507883
 51
143.8596841526
  0
ARC
  5
764
100
AcDbEntity
  8
0
100
AcDbCircle
 62
7
  6
CONTINUOUS
 10
718.5759971051
 20
313.7533140496
 40
7.1003188078
100
AcDbArc
 50
179.8413810711
 51
180.0695710253
  0
CIRCLE
  5
765
100
AcDbEntity
  8
BEZUGSACHSEN
100
AcDbCircle
 62
7
  6
CONTINUOUS
 10
709.5174070215
 20
341.7729707073
 40
3.5
  0
ARC
  5
766
100
AcDbEntity
  8
RUNDUNGEN
100
AcDbCircle
 62
7
  6
CONTINUOUS
 10
701.4174467293
 20
348.8229707073
 40
2.0
100
AcDbArc
 50
269.9988908126
 51
0.0000167644
  0
ARC
  5
767
100
AcDbEntity
  8
RUNDUNGEN
100
AcDbCircle
 62
7
  6
CONTINUOUS
 10
701.4174070215
 20
360.7729478985
 40
2.0
100
AcDbArc
 50
0.000653423
 51
90.0
  0
ARC
  5
768
100
AcDbEntity
  8
BEZUGSACHSEN
100
AcDbCircle
 62
7
  6
CONTINUOUS
 10
701.4174467293
 20
334.7229707073
 40
2.0
100
AcDbArc
 50
359.9999832356
 51
90.0011091874
  0
ARC
  5
769
100
AcDbEntity
  8
BEZUGSACHSEN
100
AcDbCircle
 62
7
  6
CONTINUOUS
 10
701.4174070215
 20
322.772993516
 40
2.0
100
AcDbArc
 50
270.0
 51
359.999346577
  0
ARC
  5
76A
100
AcDbEntity
  8
RUNDUNGEN
100
AcDbCircle
 62
7
  6
CONTINUOUS
 10
1021.3798570684
 20
29.7729707073
 40
8.0
100
AcDbArc
 50
180.0
 51
270.0
  0
ARC
  5
76B
100
AcDbEntity
  8
BEZUGSACHSEN
100
AcDbCircle
 62
7
  6
CONTINUOUS
 10
770.1298570684
 20
341.7729707073
 40
16.0
100
AcDbArc
 50
23.0582440879
 51
37.6584620062
  0
ARC
  5
76C
100
AcDbEntity
  8
0
100
AcDbCircle
 62
7
  6
CONTINUOUS
 10
770.1298570684
 20
341.7729707073
 40
16.0
100
AcDbArc
 50
322.3415379938
 51
336.9417559121
  0
ARC
  5
76D
100
AcDbEntity
  8
BEZUGSACHSEN
100
AcDbCircle
 62
7
  6
CONTINUOUS
 10
807.3298570684
 20
341.7729707073
 40
5.05
100
AcDbArc
 50
270.0
 51
90.0
  0
ARC
  5
76E
100
AcDbEntity
  8
BEZUGSACHSEN
100
AcDbCircle
 62
7
  6
CONTINUOUS
 10
801.3798570684
 20
327.7729707073
 40
3.5
100
AcDbArc
 50
89.9999986653
 51
270.0000009097
  0
ARC
  5
76F
100
AcDbEntity
  8
BEZUGSACHSEN
100
AcDbCircle
 62
7
  6
CONTINUOUS
 10
815.3798570684
 20
327.7729707073
 40
3.5
100
AcDbArc
 50
269.9999986653
 51
90.0000009097
  0
ARC
  5
770
100
AcDbEntity
  8
BEZUGSACHSEN
100
AcDbCircle
 62
7
  6
CONTINUOUS
 10
815.3798570684
 20
355.7729707073
 40
3.5
100
AcDbArc
 50
269.9999990903
 51
90.0000013347
  0
ARC
  5
771
100
AcDbEntity
  8
BEZUGSACHSEN
100
AcDbCircle
 62
7
  6
CONTINUOUS
 10
801.3798570684
 20
355.7729707073
 40
3.5
100
AcDbArc
 50
89.9999990903
 51
270.0000013347
  0
ARC
  5
772
100
AcDbEntity
  8
BEZUGSACHSEN
100
AcDbCircle
 62
7
  6
CONTINUOUS
 10
788.1119078759
 20
359.7729707073
 40
3.0
100
AcDbArc
 50
90.0
 51
150.0
  0
ARC
  5
773
100
AcDbEntity
  8
RUNDUNGEN
100
AcDbCircle
 62
7
  6
CONTINUOUS
 10
788.1119078759
 20
323.7729707073
 40
3.0
100
AcDbArc
 50
210.0
 51
270.0
  0
ARC
  5
774
100
AcDbEntity
  8
BEZUGSACHSEN
100
AcDbCircle
 62
7
  6
CONTINUOUS
 10
784.3798570684
 20
355.3088690921
 40
2.0
100
AcDbArc
 50
150.0
 51
180.0
  0
ARC
  5
775
100
AcDbEntity
  8
BEZUGSACHSEN
100
AcDbCircle
 62
7
  6
CONTINUOUS
 10
784.3798570684
 20
352.7701294312
 40
2.0
100
AcDbArc
 50
180.0
 51
217.6584620062
  0
ARC
  5
776
100
AcDbEntity
  8
BEZUGSACHSEN
100
AcDbCircle
 62
7
  6
CONTINUOUS
 10
786.6917863038
 20
348.8229707073
 40
2.0
100
AcDbArc
 50
203.0582440879
 51
270.0
  0
ARC
  5
777
100
AcDbEntity
  8
RUNDUNGEN
100
AcDbCircle
 62
7
  6
CONTINUOUS
 10
784.3798570684
 20
328.2370723224
 40
2.0
100
AcDbArc
 50
180.0
 51
210.0
  0
ARC
  5
778
100
AcDbEntity
  8
RUNDUNGEN
100
AcDbCircle
 62
7
  6
CONTINUOUS
 10
784.3798570684
 20
330.7758119833
 40
2.0
100
AcDbArc
 50
142.3415379938
 51
180.0
  0
ARC
  5
779
100
AcDbEntity
  8
RUNDUNGEN
100
AcDbCircle
 62
7
  6
CONTINUOUS
 10
786.6917863038
 20
334.7229707073
 40
2.0
100
AcDbArc
 50
90.0
 51
156.9417559121
  0
ARC
  5
77A
100
AcDbEntity
  8
BEZUGSACHSEN
100
AcDbCircle
 62
7
  6
CONTINUOUS
 10
820.3798570684
 20
322.7729707073
 40
2.0
100
AcDbArc
 50
270.0
 51
360.0
  0
ARC
  5
77B
100
AcDbEntity
  8
RUNDUNGEN
100
AcDbCircle
 62
7
  6
CONTINUOUS
 10
820.3798570684
 20
322.7729707073
 40
2.0
100
AcDbArc
 50
270.0
 51
360.0
  0
ARC
  5
77C
100
AcDbEntity
  8
BEZUGSACHSEN
100
AcDbCircle
 62
7
  6
CONTINUOUS
 10
820.3798570684
 20
360.7729707073
 40
2.0
100
AcDbArc
 50
0.0
 51
90.0
  0
ARC
  5
77D
100
AcDbEntity
  8
RUNDUNGEN
100
AcDbCircle
 62
7
  6
CONTINUOUS
 10
823.3798570684
 20
330.7729707073
 40
1.0
100
AcDbArc
 50
90.0
 51
180.0
  0
ARC
  5
77E
100
AcDbEntity
  8
RUNDUNGEN
100
AcDbCircle
 62
7
  6
CONTINUOUS
 10
823.3798570684
 20
352.7729707073
 40
1.0
100
AcDbArc
 50
180.0
 51
270.0
  0
ARC
  5
77F
100
AcDbEntity
  8
RUNDUNGEN
100
AcDbCircle
 62
7
  6
CONTINUOUS
 10
884.8798570684
 20
360.2729707073
 40
1.0
100
AcDbArc
 50
90.0
 51
180.0
  0
ARC
  5
780
100
AcDbEntity
  8
RUNDUNGEN
100
AcDbCircle
 62
7
  6
CONTINUOUS
 10
884.8798570684
 20
323.2729707073
 40
1.0
100
AcDbArc
 50
180.0
 51
270.0
  0
ARC
  5
781
100
AcDbEntity
  8
RUNDUNGEN
100
AcDbCircle
 62
7
  6
CONTINUOUS
 10
1015.3798570684
 20
278.362051769
 40
11.0
100
AcDbArc
 50
180.0
 51
196.4403795217
  0
ARC
  5
782
100
AcDbEntity
  8
RUNDUNGEN
100
AcDbCircle
 62
7
  6
CONTINUOUS
 10
1002.3798570944
 20
244.6838895572
 40
10.9999999849
100
AcDbArc
 50
0.0000004604
 51
16.4403800017
  0
ARC
  5
783
100
AcDbEntity
  8
0
100
AcDbCircle
 62
7
  6
CONTINUOUS
 10
907.5252390532
 20
365.7729707073
 40
5.0
100
AcDbArc
 50
244.1580672368
 51
270.0
  0
ARC
  5
784
100
AcDbEntity
  8
0
100
AcDbCircle
 62
7
  6
CONTINUOUS
 10
907.5252390532
 20
317.7729707073
 40
5.0
100
AcDbArc
 50
90.0
 51
115.8419327632
  0
ARC
  5
785
100
AcDbEntity
  8
RUNDUNGEN
100
AcDbCircle
 62
7
  6
CONTINUOUS
 10
1009.3798570684
 20
367.7729707073
 40
5.0
100
AcDbArc
 50
90.0
 51
180.0
  0
ARC
  5
786
100
AcDbEntity
  8
0
100
AcDbCircle
 62
7
  6
CONTINUOUS
 10
979.2798570684
 20
342.6729707073
 40
3.6
100
AcDbArc
 50
0.0
 51
180.0
  0
ARC
  5
787
100
AcDbEntity
  8
0
100
AcDbCircle
 62
7
  6
CONTINUOUS
 10
969.8298570684
 20
342.9729707073
 40
3.3
100
AcDbArc
 50
90.0
 51
180.0
  0
ARC
  5
788
100
AcDbEntity
  8
0
100
AcDbCircle
 62
7
  6
CONTINUOUS
 10
969.8298570684
 20
340.5729707073
 40
3.3
100
AcDbArc
 50
180.0
 51
270.0
  0
ARC
  5
789
100
AcDbEntity
  8
0
100
AcDbCircle
 62
7
  6
CONTINUOUS
 10
987.3048570684
 20
339.8979707073
 40
2.625
100
AcDbArc
 50
111.3550126288
 51
270.0
  0
ARC
  5
78A
100
AcDbEntity
  8
RUNDUNGEN
100
AcDbCircle
 62
7
  6
CONTINUOUS
 10
999.6112949006
 20
324.2729707073
 40
2.0
100
AcDbArc
 50
250.0
 51
270.0
  0
ARC
  5
78B
100
AcDbEntity
  8
RUNDUNGEN
100
AcDbCircle
 62
7
  6
CONTINUOUS
 10
999.6112949006
 20
359.2729707073
 40
2.0
100
AcDbArc
 50
90.0
 51
110.0
  0
ARC
  5
78C
100
AcDbEntity
  8
RUNDUNGEN
100
AcDbCircle
 62
7
  6
CONTINUOUS
 10
997.532248268
 20
320.7729707073
 40
2.0
100
AcDbArc
 50
70.0
 51
90.0
  0
ARC
  5
78D
100
AcDbEntity
  8
RUNDUNGEN
100
AcDbCircle
 62
7
  6
CONTINUOUS
 10
997.532248268
 20
362.7729707073
 40
2.0
100
AcDbArc
 50
270.0
 51
290.0
  0
ARC
  5
78E
100
AcDbEntity
  8
0
100
AcDbCircle
 62
7
  6
CONTINUOUS
 10
1017.3798570684
 20
313.7729707073
 40
2.0
100
AcDbArc
 50
180.0
 51
270.0
  0
ARC
  5
78F
100
AcDbEntity
  8
0
100
AcDbCircle
 62
7
  6
CONTINUOUS
 10
970.2048570684
 20
340.6479707073
 40
1.875
100
AcDbArc
 50
180.0
 51
270.0
  0
ARC
  5
790
100
AcDbEntity
  8
0
100
AcDbCircle
 62
7
  6
CONTINUOUS
 10
970.2048570684
 20
342.8979707073
 40
1.875
100
AcDbArc
 50
90.0
 51
180.0
  0
ARC
  5
791
100
AcDbEntity
  8
0
100
AcDbCircle
 62
7
  6
CONTINUOUS
 10
979.2798570684
 20
342.6729707073
 40
1.8
100
AcDbArc
 50
0.0
 51
180.0
  0
ARC
  5
792
100
AcDbEntity
  8
0
100
AcDbCircle
 62
7
  6
CONTINUOUS
 10
988.8429967892
 20
344.0229707073
 40
1.5
100
AcDbArc
 50
210.0
 51
270.0
  0
ARC
  5
793
100
AcDbEntity
  8
0
100
AcDbCircle
 62
7
  6
CONTINUOUS
 10
987.9048570684
 20
339.8979707073
 40
1.125
100
AcDbArc
 50
90.0
 51
270.0
  0
ARC
  5
794
100
AcDbEntity
  8
BEZUGSACHSEN
100
AcDbCircle
 62
7
  6
CONTINUOUS
 10
1023.3798570684
 20
29.7729707073
 40
8.0
100
AcDbArc
 50
270.0
 51
360.0
  0
ARC
  5
795
100
AcDbEntity
  8
BEZUGSACHSEN
100
AcDbCircle
 62
7
  6
CONTINUOUS
 10
1029.3798570684
 20
278.362051769
 40
11.0
100
AcDbArc
 50
343.5596204783
 51
360.0
  0
ARC
  5
796
100
AcDbEntity
  8
BEZUGSACHSEN
100
AcDbCircle
 62
7
  6
CONTINUOUS
 10
1042.3798570423
 20
244.6838895572
 40
10.9999999849
100
AcDbArc
 50
163.5596199983
 51
179.9999995396
  0
ARC
  5
797
100
AcDbEntity
  8
RUNDUNGEN
100
AcDbCircle
 62
7
  6
CONTINUOUS
 10
1137.2344750835
 20
317.7729707073
 40
5.0
100
AcDbArc
 50
55.0
 51
90.0
  0
ARC
  5
798
100
AcDbEntity
  8
RUNDUNGEN
100
AcDbCircle
 62
7
  6
CONTINUOUS
 10
1137.2344750835
 20
365.7729707073
 40
5.0
100
AcDbArc
 50
270.0
 51
305.0
  0
ARC
  5
799
100
AcDbEntity
  8
BEZUGSACHSEN
100
AcDbCircle
 62
7
  6
CONTINUOUS
 10
1035.3798570684
 20
367.7729707073
 40
5.0
100
AcDbArc
 50
0.0
 51
90.0
  0
ARC
  5
79A
100
AcDbEntity
  8
RUNDUNGEN
100
AcDbCircle
 62
7
  6
CONTINUOUS
 10
1045.1484192361
 20
324.2729707073
 40
2.0
100
AcDbArc
 50
270.0
 51
290.0
  0
ARC
  5
79B
100
AcDbEntity
  8
RUNDUNGEN
100
AcDbCircle
 62
7
  6
CONTINUOUS
 10
1045.1484192361
 20
359.2729707073
 40
2.0
100
AcDbArc
 50
70.0
 51
90.0
  0
ARC
  5
79C
100
AcDbEntity
  8
RUNDUNGEN
100
AcDbCircle
 62
7
  6
CONTINUOUS
 10
1047.2274658687
 20
320.7729707073
 40
2.0
100
AcDbArc
 50
90.0
 51
110.0
  0
ARC
  5
79D
100
AcDbEntity
  8
RUNDUNGEN
100
AcDbCircle
 62
7
  6
CONTINUOUS
 10
1047.2274658687
 20
362.7729707073
 40
2.0
100
AcDbArc
 50
250.0
 51
270.0
  0
ARC
  5
79E
100
AcDbEntity
  8
0
100
AcDbCircle
 62
7
  6
CONTINUOUS
 10
1027.3798570683
 20
313.7729707073
 40
2.0
100
AcDbArc
 50
270.0
 51
360.0
  0
ARC
  5
79F
100
AcDbEntity
  8
RUNDUNGEN
100
AcDbCircle
 62
7
  6
CONTINUOUS
 10
1184.8798570684
 20
317.7729707073
 40
2.0
100
AcDbArc
 50
270.0
 51
0.0000015115
  0
ARC
  5
7A0
100
AcDbEntity
  8
RUNDUNGEN
100
AcDbCircle
 62
7
  6
CONTINUOUS
 10
1158.8798570684
 20
318.7729707073
 40
1.0
100
AcDbArc
 50
270.0
 51
360.0
  0
ARC
  5
7A1
100
AcDbEntity
  8
RUNDUNGEN
100
AcDbCircle
 62
7
  6
CONTINUOUS
 10
1180.3798570684
 20
316.2729707073
 40
0.5
100
AcDbArc
 50
180.0
 51
270.0
  0
ARC
  5
7A2
100
AcDbEntity
  8
0
100
AcDbCircle
 62
7
  6
CONTINUOUS
 10
1214.3798570683
 20
351.7729707073
 40
5.0
100
AcDbArc
 50
270.0
 51
344.4577317766
  0
ARC
  5
7A3
100
AcDbEntity
  8
RUNDUNGEN
100
AcDbCircle
 62
7
  6
CONTINUOUS
 10
1184.8798570684
 20
365.7729707073
 40
2.0
100
AcDbArc
 50
359.9999984885
 51
90.0
  0
ARC
  5
7A4
100
AcDbEntity
  8
RUNDUNGEN
100
AcDbCircle
 62
7
  6
CONTINUOUS
 10
1158.8798570684
 20
364.7729707073
 40
1.0
100
AcDbArc
 50
0.0
 51
90.0
  0
ARC
  5
7A5
100
AcDbEntity
  8
RUNDUNGEN
100
AcDbCircle
 62
7
  6
CONTINUOUS
 10
1180.3798570684
 20
367.2729707073
 40
0.5
100
AcDbArc
 50
90.0
 51
180.0
  0
ARC
  5
7A6
100
AcDbEntity
  8
BEZUGSACHSEN
100
AcDbCircle
 62
7
  6
CONTINUOUS
 10
1229.3798570684
 20
327.7729707073
 40
3.5
100
AcDbArc
 50
89.9999990903
 51
270.0000013347
  0
ARC
  5
7A7
100
AcDbEntity
  8
BEZUGSACHSEN
100
AcDbCircle
 62
7
  6
CONTINUOUS
 10
1243.3798570684
 20
327.7729707073
 40
3.5
100
AcDbArc
 50
269.9999990903
 51
90.0000013347
  0
ARC
  5
7A8
100
AcDbEntity
  8
BEZUGSACHSEN
100
AcDbCircle
 62
7
  6
CONTINUOUS
 10
1256.6478062608
 20
323.7729707073
 40
3.0
100
AcDbArc
 50
270.0
 51
330.0
  0
ARC
  5
7A9
100
AcDbEntity
  8
BEZUGSACHSEN
100
AcDbCircle
 62
7
  6
CONTINUOUS
 10
1260.3798570684
 20
328.2370723224
 40
2.0
100
AcDbArc
 50
330.0
 51
360.0
  0
ARC
  5
7AA
100
AcDbEntity
  8
BEZUGSACHSEN
100
AcDbCircle
 62
7
  6
CONTINUOUS
 10
1260.3798570684
 20
330.7758119833
 40
2.0
100
AcDbArc
 50
0.0
 51
37.6584620062
  0
ARC
  5
7AB
100
AcDbEntity
  8
BEZUGSACHSEN
100
AcDbCircle
 62
7
  6
CONTINUOUS
 10
1258.0679278329
 20
334.7229707073
 40
2.0
100
AcDbArc
 50
23.0582440879
 51
90.0
  0
ARC
  5
7AC
100
AcDbEntity
  8
BEZUGSACHSEN
100
AcDbCircle
 62
7
  6
CONTINUOUS
 10
1224.3798570684
 20
322.7729707073
 40
2.0
100
AcDbArc
 50
180.0
 51
270.0
  0
ARC
  5
7AD
100
AcDbEntity
  8
RUNDUNGEN
100
AcDbCircle
 62
7
  6
CONTINUOUS
 10
1221.3798570684
 20
330.7729707073
 40
1.0
100
AcDbArc
 50
0.0
 51
90.0
  0
ARC
  5
7AE
100
AcDbEntity
  8
BEZUGSACHSEN
100
AcDbCircle
 62
7
  6
CONTINUOUS
 10
1274.6298570684
 20
341.7729707073
 40
16.0
100
AcDbArc
 50
203.0582440879
 51
217.6584620062
  0
ARC
  5
7AF
100
AcDbEntity
  8
0
100
AcDbCircle
 62
7
  6
CONTINUOUS
 10
1274.6298570684
 20
341.7729707073
 40
16.0
100
AcDbArc
 50
142.3415379938
 51
156.9417559121
  0
ARC
  5
7B0
100
AcDbEntity
  8
BEZUGSACHSEN
100
AcDbCircle
 62
7
  6
CONTINUOUS
 10
1237.4298570684
 20
341.7729707073
 40
5.05
100
AcDbArc
 50
90.0
 51
270.0
  0
ARC
  5
7B1
100
AcDbEntity
  8
BEZUGSACHSEN
100
AcDbCircle
 62
7
  6
CONTINUOUS
 10
1243.3798570684
 20
355.7729707073
 40
3.5
100
AcDbArc
 50
269.9999986653
 51
90.0000009097
  0
ARC
  5
7B2
100
AcDbEntity
  8
BEZUGSACHSEN
100
AcDbCircle
 62
7
  6
CONTINUOUS
 10
1229.3798570684
 20
355.7729707073
 40
3.5
100
AcDbArc
 50
89.9999986653
 51
270.0000009097
  0
ARC
  5
7B3
100
AcDbEntity
  8
RUNDUNGEN
100
AcDbCircle
 62
7
  6
CONTINUOUS
 10
1256.6478062608
 20
359.7729707073
 40
3.0
100
AcDbArc
 50
30.0
 51
90.0
  0
ARC
  5
7B4
100
AcDbEntity
  8
RUNDUNGEN
100
AcDbCircle
 62
7
  6
CONTINUOUS
 10
1260.3798570684
 20
355.3088690921
 40
2.0
100
AcDbArc
 50
0.0
 51
30.0
  0
ARC
  5
7B5
100
AcDbEntity
  8
RUNDUNGEN
100
AcDbCircle
 62
7
  6
CONTINUOUS
 10
1260.3798570684
 20
352.7701294312
 40
2.0
100
AcDbArc
 50
322.3415379938
 51
360.0
  0
ARC
  5
7B6
100
AcDbEntity
  8
RUNDUNGEN
100
AcDbCircle
 62
7
  6
CONTINUOUS
 10
1258.0679278329
 20
348.8229707073
 40
2.0
100
AcDbArc
 50
270.0
 51
336.9417559121
  0
ARC
  5
7B7
100
AcDbEntity
  8
BEZUGSACHSEN
100
AcDbCircle
 62
7
  6
CONTINUOUS
 10
1224.3798570684
 20
360.7729707073
 40
2.0
100
AcDbArc
 50
90.0
 51
180.0
  0
ARC
  5
7B8
100
AcDbEntity
  8
RUNDUNGEN
100
AcDbCircle
 62
7
  6
CONTINUOUS
 10
1224.3798570684
 20
360.7729707073
 40
2.0
100
AcDbArc
 50
90.0
 51
180.0
  0
ARC
  5
7B9
100
AcDbEntity
  8
RUNDUNGEN
100
AcDbCircle
 62
7
  6
CONTINUOUS
 10
1221.3798570684
 20
352.7729707073
 40
1.0
100
AcDbArc
 50
270.0
 51
360.0
  0
ARC
  5
7BA
100
AcDbEntity
  8
RUNDUNGEN
100
AcDbCircle
 62
7
  6
CONTINUOUS
 10
98.0760333647
 20
-132.6593847463
 40
2.0
100
AcDbArc
 50
180.0
 51
270.0
  0
ARC
  5
7BB
100
AcDbEntity
  8
RUNDUNGEN
100
AcDbCircle
 62
7
  6
CONTINUOUS
 10
124.0760333647
 20
-131.6593847463
 40
1.0
100
AcDbArc
 50
180.0
 51
270.0
  0
ARC
  5
7BC
100
AcDbEntity
  8
RUNDUNGEN
100
AcDbCircle
 62
7
  6
CONTINUOUS
 10
102.5760333647
 20
-134.1593847463
 40
0.5
100
AcDbArc
 50
270.0
 51
360.0
  0
ARC
  5
7BD
100
AcDbEntity
  8
RUNDUNGEN
100
AcDbCircle
 62
7
  6
CONTINUOUS
 10
29.3132828969
 20
-118.5593847463
 40
2.0
100
AcDbArc
 50
229.5297285238
 51
269.9999999989
  0
ARC
  5
7BE
100
AcDbEntity
  8
BEZUGSACHSEN
100
AcDbCircle
 62
7
  6
CONTINUOUS
 10
29.3132828969
 20
-118.5593847463
 40
2.0
100
AcDbArc
 50
229.5297285238
 51
269.9999999989
  0
ARC
  5
7BF
100
AcDbEntity
  8
RUNDUNGEN
100
AcDbCircle
 62
7
  6
CONTINUOUS
 10
61.3670982788
 20
-119.6593842735
 40
0.999999957
100
AcDbArc
 50
90.0000000346
 51
158.4898387528
  0
ARC
  5
7C0
100
AcDbEntity
  8
RUNDUNGEN
100
AcDbCircle
 62
7
  6
CONTINUOUS
 10
58.5760333647
 20
-118.5593847463
 40
2.0
100
AcDbArc
 50
270.0
 51
360.0
  0
ARC
  5
7C1
100
AcDbEntity
  8
BEZUGSACHSEN
100
AcDbCircle
 62
7
  6
CONTINUOUS
 10
247.5760333647
 20
-134.6593847463
 40
5.0
100
AcDbArc
 50
180.0
 51
270.0
  0
ARC
  5
7C2
100
AcDbEntity
  8
RUNDUNGEN
100
AcDbCircle
 62
7
  6
CONTINUOUS
 10
147.5968459571
 20
-124.685054727
 40
2.0072935703
100
AcDbArc
 50
343.7141216234
 51
345.0705345367
  0
ARC
  5
7C3
100
AcDbEntity
  8
RUNDUNGEN
100
AcDbCircle
 62
7
  6
CONTINUOUS
 10
147.6038922775
 20
-124.687224742
 40
1.9999254977
100
AcDbArc
 50
270.0055657424
 51
343.717185386
  0
ARC
  5
7C4
100
AcDbEntity
  8
RUNDUNGEN
100
AcDbCircle
 62
7
  6
CONTINUOUS
 10
237.8073364737
 20
-120.375214185
 40
1.9995328354
100
AcDbArc
 50
241.4653270532
 51
270.0038601919
  0
ARC
  5
7C5
100
AcDbEntity
  8
RUNDUNGEN
100
AcDbCircle
 62
7
  6
CONTINUOUS
 10
31.5760333647
 20
-108.6593847463
 40
11.0
100
AcDbArc
 50
158.2998072314
 51
229.5297285241
  0
ARC
  5
7C6
100
AcDbEntity
  8
RUNDUNGEN
100
AcDbCircle
 62
7
  6
CONTINUOUS
 10
31.5760333647
 20
-108.6593847463
 40
11.0
100
AcDbArc
 50
136.7472407547
 51
156.999796676
  0
ARC
  5
7C7
100
AcDbEntity
  8
BEZUGSACHSEN
100
AcDbCircle
 62
7
  6
CONTINUOUS
 10
31.5760333647
 20
-108.6593847463
 40
11.0
100
AcDbArc
 50
222.363243431
 51
223.8698380776
  0
ARC
  5
7C8
100
AcDbEntity
  8
BEZUGSACHSEN
100
AcDbCircle
 62
7
  6
CONTINUOUS
 10
31.5760333647
 20
-108.6593847463
 40
11.0
100
AcDbArc
 50
204.1417562428
 51
219.977583146
  0
ARC
  5
7C9
100
AcDbEntity
  8
BEZUGSACHSEN
100
AcDbCircle
 62
7
  6
CONTINUOUS
 10
31.5760333647
 20
-108.6593847463
 40
11.0
100
AcDbArc
 50
130.4702714759
 51
203.0
  0
ARC
  5
7CA
100
AcDbEntity
  8
BEZUGSACHSEN
100
AcDbCircle
 62
7
  6
CONTINUOUS
 10
29.3132828969
 20
-98.7593847463
 40
2.0
100
AcDbArc
 50
90.0
 51
130.4702683773
  0
ARC
  5
7CB
100
AcDbEntity
  8
RUNDUNGEN
100
AcDbCircle
 62
7
  6
CONTINUOUS
 10
58.5760333647
 20
-98.7593847463
 40
2.0
100
AcDbArc
 50
9.0610329255
 51
21.5075846375
  0
ARC
  5
7CC
100
AcDbEntity
  8
BEZUGSACHSEN
100
AcDbCircle
 62
7
  6
CONTINUOUS
 10
58.5760333647
 20
-98.7593847463
 40
2.0
100
AcDbArc
 50
0.0
 51
90.0
  0
ARC
  5
7CD
100
AcDbEntity
  8
RUNDUNGEN
100
AcDbCircle
 62
7
  6
CONTINUOUS
 10
61.3670982788
 20
-97.6593852192
 40
0.999999957
100
AcDbArc
 50
201.5101612472
 51
269.9999999654
  0
ARC
  5
7CE
100
AcDbEntity
  8
RUNDUNGEN
100
AcDbCircle
 62
7
  6
CONTINUOUS
 10
98.0760333647
 20
-84.6593847463
 40
2.0
100
AcDbArc
 50
90.0
 51
180.0
  0
ARC
  5
7CF
100
AcDbEntity
  8
RUNDUNGEN
100
AcDbCircle
 62
7
  6
CONTINUOUS
 10
124.0760333647
 20
-85.6593847463
 40
1.0
100
AcDbArc
 50
90.0
 51
180.0
  0
ARC
  5
7D0
100
AcDbEntity
  8
RUNDUNGEN
100
AcDbCircle
 62
7
  6
CONTINUOUS
 10
102.5760333647
 20
-83.1593847463
 40
0.5
100
AcDbArc
 50
0.0
 51
90.0
  0
ARC
  5
7D1
100
AcDbEntity
  8
BEZUGSACHSEN
100
AcDbCircle
 62
7
  6
CONTINUOUS
 10
247.5760333647
 20
-82.6593847463
 40
5.0
100
AcDbArc
 50
90.0
 51
180.0
  0
ARC
  5
7D2
100
AcDbEntity
  8
RUNDUNGEN
100
AcDbCircle
 62
7
  6
CONTINUOUS
 10
145.7214153495
 20
-84.6593847463
 40
5.0
100
AcDbArc
 50
235.0
 51
270.0
  0
ARC
  5
7D3
100
AcDbEntity
  8
RUNDUNGEN
100
AcDbCircle
 62
7
  6
CONTINUOUS
 10
237.8074711969
 20
-91.1593847463
 40
2.0
100
AcDbArc
 50
90.0
 51
110.0
  0
ARC
  5
7D4
100
AcDbEntity
  8
RUNDUNGEN
100
AcDbCircle
 62
7
  6
CONTINUOUS
 10
235.7284245644
 20
-87.6593847463
 40
2.0
100
AcDbArc
 50
270.0
 51
290.0
  0
ARC
  5
7D5
100
AcDbEntity
  8
RUNDUNGEN
100
AcDbCircle
 62
7
  6
CONTINUOUS
 10
273.5760333647
 20
-134.6593847463
 40
5.0
100
AcDbArc
 50
270.0
 51
360.0
  0
ARC
  5
7D6
100
AcDbEntity
  8
0
100
AcDbCircle
 62
7
  6
CONTINUOUS
 10
375.4306513798
 20
-132.6593847463
 40
5.0
100
AcDbArc
 50
64.1580672368
 51
90.0
  0
ARC
  5
7D7
100
AcDbEntity
  8
RUNDUNGEN
100
AcDbCircle
 62
7
  6
CONTINUOUS
 10
373.5760333647
 20
-125.6593847463
 40
2.0
100
AcDbArc
 50
180.0
 51
270.0
  0
ARC
  5
7D8
100
AcDbEntity
  8
RUNDUNGEN
100
AcDbCircle
 62
7
  6
CONTINUOUS
 10
283.3447302557
 20
-120.375214185
 40
1.9995328354
100
AcDbArc
 50
269.9961398081
 51
298.5346729466
  0
ARC
  5
7D9
100
AcDbEntity
  8
RUNDUNGEN
100
AcDbCircle
 62
7
  6
CONTINUOUS
 10
398.0760333647
 20
-127.1593847463
 40
1.0
100
AcDbArc
 50
270.0
 51
360.0
  0
ARC
  5
7DA
100
AcDbEntity
  8
RUNDUNGEN
100
AcDbCircle
 62
7
  6
CONTINUOUS
 10
459.7849684616
 20
-119.6593842742
 40
0.9999999571
100
AcDbArc
 50
21.5101612787
 51
89.9999999649
  0
ARC
  5
7DB
100
AcDbEntity
  8
RUNDUNGEN
100
AcDbCircle
 62
7
  6
CONTINUOUS
 10
462.5760333647
 20
-118.5593847463
 40
2.0
100
AcDbArc
 50
180.0
 51
270.0
  0
ARC
  5
7DC
100
AcDbEntity
  8
BEZUGSACHSEN
100
AcDbCircle
 62
7
  6
CONTINUOUS
 10
462.5760333647
 20
-118.5593847463
 40
2.0
100
AcDbArc
 50
180.0
 51
270.0
  0
ARC
  5
7DD
100
AcDbEntity
  8
RUNDUNGEN
100
AcDbCircle
 62
7
  6
CONTINUOUS
 10
491.8387838324
 20
-118.5593847463
 40
2.0
100
AcDbArc
 50
292.341082966
 51
303.7252143732
  0
ARC
  5
7DE
100
AcDbEntity
  8
RUNDUNGEN
100
AcDbCircle
 62
7
  6
CONTINUOUS
 10
491.8387838324
 20
-118.5593847463
 40
2.0
100
AcDbArc
 50
287.1612884959
 51
289.5806762116
  0
ARC
  5
7DF
100
AcDbEntity
  8
RUNDUNGEN
100
AcDbCircle
 62
7
  6
CONTINUOUS
 10
491.8387838324
 20
-118.5593847463
 40
2.0
100
AcDbArc
 50
278.6881927939
 51
285.6387453849
  0
ARC
  5
7E0
100
AcDbEntity
  8
RUNDUNGEN
100
AcDbCircle
 62
7
  6
CONTINUOUS
 10
491.8387838324
 20
-118.5593847463
 40
2.0
100
AcDbArc
 50
270.0000000011
 51
276.5254544729
  0
ARC
  5
7E1
100
AcDbEntity
  8
BEZUGSACHSEN
100
AcDbCircle
 62
7
  6
CONTINUOUS
 10
491.8387838324
 20
-118.5593847463
 40
2.0
100
AcDbArc
 50
270.0
 51
310.4702714759
  0
ARC
  5
7E2
100
AcDbEntity
  8
RUNDUNGEN
100
AcDbCircle
 62
7
  6
CONTINUOUS
 10
273.5760333647
 20
-82.6593847463
 40
5.0
100
AcDbArc
 50
0.0
 51
90.0
  0
ARC
  5
7E3
100
AcDbEntity
  8
0
100
AcDbCircle
 62
7
  6
CONTINUOUS
 10
375.4306513798
 20
-84.6593847463
 40
5.0
100
AcDbArc
 50
270.0
 51
295.8419327632
  0
ARC
  5
7E4
100
AcDbEntity
  8
RUNDUNGEN
100
AcDbCircle
 62
7
  6
CONTINUOUS
 10
319.6985402103
 20
-91.6593852682
 40
2.0000032256
100
AcDbArc
 50
89.9999296797
 51
141.3148450367
  0
ARC
  5
7E5
100
AcDbEntity
  8
RUNDUNGEN
100
AcDbCircle
 62
7
  6
CONTINUOUS
 10
283.3445955324
 20
-91.1593847463
 40
2.0
100
AcDbArc
 50
70.0
 51
90.0
  0
ARC
  5
7E6
100
AcDbEntity
  8
RUNDUNGEN
100
AcDbCircle
 62
7
  6
CONTINUOUS
 10
285.423642165
 20
-87.6593847463
 40
2.0
100
AcDbArc
 50
250.0
 51
270.0
  0
ARC
  5
7E7
100
AcDbEntity
  8
RUNDUNGEN
100
AcDbCircle
 62
7
  6
CONTINUOUS
 10
316.5760333647
 20
-89.1593847463
 40
2.0
100
AcDbArc
 50
269.9979623464
 51
321.316292637
  0
ARC
  5
7E8
100
AcDbEntity
  8
RUNDUNGEN
100
AcDbCircle
 62
7
  6
CONTINUOUS
 10
290.5760333647
 20
-89.1593847463
 40
2.0
100
AcDbArc
 50
218.683612922
 51
269.9991338747
  0
ARC
  5
7E9
100
AcDbEntity
  8
RUNDUNGEN
100
AcDbCircle
 62
7
  6
CONTINUOUS
 10
462.5760333647
 20
-98.7593847463
 40
2.0
100
AcDbArc
 50
158.4924030357
 51
179.9993068298
  0
ARC
  5
7EA
100
AcDbEntity
  8
BEZUGSACHSEN
100
AcDbCircle
 62
7
  6
CONTINUOUS
 10
462.5760333647
 20
-98.7593847463
 40
2.0
100
AcDbArc
 50
90.0
 51
180.0
  0
ARC
  5
7EB
100
AcDbEntity
  8
RUNDUNGEN
100
AcDbCircle
 62
7
  6
CONTINUOUS
 10
459.7849684616
 20
-97.6593852185
 40
0.9999999571
100
AcDbArc
 50
270.0000000351
 51
338.4898387213
  0
ARC
  5
7EC
100
AcDbEntity
  8
RUNDUNGEN
100
AcDbCircle
 62
7
  6
CONTINUOUS
 10
489.5760333647
 20
-108.6593847463
 40
11.0
100
AcDbArc
 50
316.7472407547
 51
320.0203171932
  0
ARC
  5
7ED
100
AcDbEntity
  8
RUNDUNGEN
100
AcDbCircle
 62
7
  6
CONTINUOUS
 10
489.5760333647
 20
-108.6593847463
 40
11.0
100
AcDbArc
 50
321.8164076244
 51
324.7718287187
  0
ARC
  5
7EE
100
AcDbEntity
  8
RUNDUNGEN
100
AcDbCircle
 62
7
  6
CONTINUOUS
 10
489.5760333647
 20
-108.6593847463
 40
11.0
100
AcDbArc
 50
326.6400378706
 51
329.5092891814
  0
ARC
  5
7EF
100
AcDbEntity
  8
RUNDUNGEN
100
AcDbCircle
 62
7
  6
CONTINUOUS
 10
489.5760333647
 20
-108.6593847463
 40
11.0
100
AcDbArc
 50
336.999796676
 51
21.7001927686
  0
ARC
  5
7F0
100
AcDbEntity
  8
RUNDUNGEN
100
AcDbCircle
 62
7
  6
CONTINUOUS
 10
489.5760333647
 20
-108.6593847463
 40
11.0
100
AcDbArc
 50
30.4907108186
 51
33.3599621294
  0
ARC
  5
7F1
100
AcDbEntity
  8
RUNDUNGEN
100
AcDbCircle
 62
7
  6
CONTINUOUS
 10
489.5760333647
 20
-108.6593847463
 40
11.0
100
AcDbArc
 50
35.2281712813
 51
38.1835923756
  0
ARC
  5
7F2
100
AcDbEntity
  8
RUNDUNGEN
100
AcDbCircle
 62
7
  6
CONTINUOUS
 10
489.5760333647
 20
-108.6593847463
 40
11.0
100
AcDbArc
 50
43.2527592453
 51
43.8685147962
  0
ARC
  5
7F3
100
AcDbEntity
  8
BEZUGSACHSEN
100
AcDbCircle
 62
7
  6
CONTINUOUS
 10
489.5760333647
 20
-108.6593847463
 40
11.0
100
AcDbArc
 50
310.4702714759
 51
49.5297285241
  0
ARC
  5
7F4
100
AcDbEntity
  8
BEZUGSACHSEN
100
AcDbCircle
 62
7
  6
CONTINUOUS
 10
491.8387838324
 20
-98.7593847463
 40
2.0
100
AcDbArc
 50
49.5297285241
 51
90.0
  0
ARC
  5
7F5
100
AcDbEntity
  8
RUNDUNGEN
100
AcDbCircle
 62
7
  6
CONTINUOUS
 10
398.0760333647
 20
-90.1593847463
 40
1.0
100
AcDbArc
 50
0.0
 51
90.0
  0
SPLINE
  5
7F6
100
AcDbEntity
  8
0
100
AcDbSpline
 62
7
  6
CONTINUOUS
 70
0
 71
3
 72
8
 73
4
 74
0
 42
0.0000001
 43
0.0000001
 44
0.0000000001
 40
0.0
 40
0.0
 40
0.0
 40
0.0
 40
1.0
 40
1.0
 40
1.0
 40
1.0
 10
190.5760333647
 20
333.1127166694
 30
0.0
 10
191.260328683
 20
333.9028728419
 30
0.0
 10
191.9328339322
 20
334.7040180077
 30
0.0
 10
192.5760333647
 20
335.5279727089
 30
0.0
  0
SPLINE
  5
7F7
100
AcDbEntity
  8
RUNDUNGEN
100
AcDbSpline
 62
7
  6
CONTINUOUS
 70
0
 71
3
 72
13
 73
9
 74
0
 42
0.0000001
 43
0.0000001
 44
0.0000000001
 40
0.0
 40
0.0
 40
0.0
 40
0.0
 40
0.3203778116
 40
0.6202633572
 40
0.7472365533
 40
0.8534425386
 40
0.9372257173
 40
1.0
 40
1.0
 40
1.0
 40
1.0
 10
137.005232451
 20
334.6815197557
 30
0.0
 10
137.0162003112
 20
334.9662152681
 30
0.0
 10
136.9975077725
 20
335.5192007156
 30
0.0
 10
136.8915852262
 20
336.177931615
 30
0.0
 10
136.7552881023
 20
336.6326097444
 30
0.0
 10
136.6437907828
 20
336.8926214605
 30
0.0
 10
136.5232976045
 20
337.0832521186
 30
0.0
 10
136.4236762438
 20
337.1734113279
 30
0.0
 10
136.3735837937
 20
337.1980503287
 30
0.0
  0
SPLINE
  5
7F8
100
AcDbEntity
  8
RUNDUNGEN
100
AcDbSpline
 62
7
  6
CONTINUOUS
 70
0
 71
3
 72
13
 73
9
 74
0
 42
0.0000001
 43
0.0000001
 44
0.0000000001
 40
0.0
 40
0.0
 40
0.0
 40
0.0
 40
0.0627742238
 40
0.1465574174
 40
0.2527634099
 40
0.3797366138
 40
0.6796221741
 40
1.0
 40
1.0
 40
1.0
 40
1.0
 10
136.3735837937
 20
346.3478910859
 30
0.0
 10
136.4236761919
 20
346.3725300655
 30
0.0
 10
136.5232973392
 20
346.4626894511
 30
0.0
 10
136.6437906225
 20
346.6533199342
 30
0.0
 10
136.7552878968
 20
346.9133317088
 30
0.0
 10
136.8915850673
 20
347.3680098038
 30
0.0
 10
136.9975076194
 20
348.0267407058
 30
0.0
 10
137.0162001679
 20
348.5797261406
 30
0.0
 10
137.0052323056
 20
348.8644216477
 30
0.0
  0
SPLINE
  5
7F9
100
AcDbEntity
  8
0
100
AcDbSpline
 62
7
  6
CONTINUOUS
 70
0
 71
3
 72
15
 73
11
 74
0
 42
0.0000001
 43
0.0000001
 44
0.0000000001
 40
0.0
 40
0.0
 40
0.0
 40
0.0
 40
0.1227924709
 40
0.2395669069
 40
0.3526104285
 40
0.466582324
 40
0.5869327756
 40
0.7168912062
 40
0.8558259781
 40
1.0
 40
1.0
 40
1.0
 40
1.0
 10
63.7588681447
 20
510.0394487388
 30
0.0
 10
63.8025924247
 20
510.31175171
 30
0.0
 10
63.9124248773
 20
510.8398763298
 30
0.0
 10
64.1840349729
 20
511.5878229995
 30
0.0
 10
64.5912086087
 20
512.2518123768
 30
0.0
 10
65.1553067759
 20
512.802763771
 30
0.0
 10
65.8678104873
 20
513.2189637893
 30
0.0
 10
66.6996651354
 20
513.5019851479
 30
0.0
 10
67.6157110659
 20
513.6646574746
 30
0.0
 10
68.2522194599
 20
513.6997027766
 30
0.0
 10
68.5760333647
 20
513.6997027766
 30
0.0
  0
SPLINE
  5
7FA
100
AcDbEntity
  8
RUNDUNGEN
100
AcDbSpline
 62
7
  6
CONTINUOUS
 70
0
 71
3
 72
8
 73
4
 74
0
 42
0.0000001
 43
0.0000001
 44
0.0000000001
 40
0.0
 40
0.0
 40
0.0
 40
0.0
 40
1.0
 40
1.0
 40
1.0
 40
1.0
 10
137.005232451
 20
527.967074096
 30
0.0
 10
137.0045019638
 20
527.9617447749
 30
0.0
 10
137.0041813714
 20
527.9563500585
 30
0.0
 10
137.0041813714
 20
527.9509709066
 30
0.0
  0
SPLINE
  5
7FB
100
AcDbEntity
  8
RUNDUNGEN
100
AcDbSpline
 62
7
  6
CONTINUOUS
 70
0
 71
3
 72
10
 73
6
 74
0
 42
0.0000001
 43
0.0000001
 44
0.0000000001
 40
0.0
 40
0.0
 40
0.0
 40
0.0
 40
0.6926515335
 40
0.8906849967
 40
1.0
 40
1.0
 40
1.0
 40
1.0
 10
137.005232451
 20
527.967074096
 30
0.0
 10
137.0075834016
 20
527.9842256228
 30
0.0
 10
137.0102911633
 20
528.0068182248
 30
0.0
 10
137.0091809464
 20
528.0311900862
 30
0.0
 10
137.006563425
 20
528.0393008199
 30
0.0
 10
137.004323089
 20
528.040864698
 30
0.0
  0
SPLINE
  5
7FC
100
AcDbEntity
  8
0
100
AcDbSpline
 62
7
  6
CONTINUOUS
 70
0
 71
3
 72
10
 73
6
 74
0
 42
0.0000001
 43
0.0000001
 44
0.0000000001
 40
0.0
 40
0.0
 40
0.0
 40
0.0
 40
0.1836418241
 40
0.4225518627
 40
1.0
 40
1.0
 40
1.0
 40
1.0
 10
711.5174070215
 20
312.0409198997
 30
0.0
 10
711.5174070215
 20
312.1452482788
 30
0.0
 10
711.5097926849
 20
312.385247771
 30
0.0
 10
711.4872301623
 20
312.9528538809
 30
0.0
 10
711.476072315
 20
313.4166398912
 30
0.0
 10
711.4756844748
 20
313.744692536
 30
0.0
  0
SPLINE
  5
7FD
100
AcDbEntity
  8
0
100
AcDbSpline
 62
7
  6
CONTINUOUS
 70
0
 71
3
 72
10
 73
6
 74
0
 42
0.0000001
 43
0.0000001
 44
0.0000000001
 40
0.0
 40
0.0
 40
0.0
 40
0.0
 40
0.5774471856
 40
0.8163587956
 40
1.0
 40
1.0
 40
1.0
 40
1.0
 10
671.5591295674
 20
313.7446919415
 30
0.0
 10
671.5587417198
 20
313.4166399517
 30
0.0
 10
671.5475838776
 20
312.9528537514
 30
0.0
 10
671.5250213761
 20
312.3852478392
 30
0.0
 10
671.5174070215
 20
312.1452478904
 30
0.0
 10
671.5174070215
 20
312.0409198997
 30
0.0
  0
SPLINE
  5
7FE
100
AcDbEntity
  8
0
100
AcDbSpline
 62
7
  6
CONTINUOUS
 70
0
 71
3
 72
15
 73
11
 74
0
 42
0.0000001
 43
0.0000001
 44
0.0000000001
 40
0.0
 40
0.0
 40
0.0
 40
0.0
 40
0.1227924709
 40
0.2395669069
 40
0.3526104285
 40
0.466582324
 40
0.5869327756
 40
0.7168912062
 40
0.8558259781
 40
1.0
 40
1.0
 40
1.0
 40
1.0
 10
63.7588681447
 20
-103.6593847463
 30
0.0
 10
63.8025924247
 20
-103.3870817751
 30
0.0
 10
63.9124248773
 20
-102.8589571553
 30
0.0
 10
64.1840349729
 20
-102.1110104855
 30
0.0
 10
64.5912086087
 20
-101.4470211083
 30
0.0
 10
65.1553067759
 20
-100.8960697141
 30
0.0
 10
65.8678104873
 20
-100.4798696958
 30
0.0
 10
66.6996651354
 20
-100.1968483372
 30
0.0
 10
67.6157110659
 20
-100.0341760105
 30
0.0
 10
68.2522194599
 20
-99.9991307085
 30
0.0
 10
68.5760333647
 20
-99.9991307085
 30
0.0
  0
SPLINE
  5
7FF
100
AcDbEntity
  8
RUNDUNGEN
100
AcDbSpline
 62
7
  6
CONTINUOUS
 70
0
 71
3
 72
10
 73
6
 74
0
 42
0.0000001
 43
0.0000001
 44
0.0000000001
 40
0.0
 40
0.0
 40
0.0
 40
0.0
 40
0.1093150213
 40
0.3073484902
 40
1.0
 40
1.0
 40
1.0
 40
1.0
 10
137.0043229443
 20
-131.6608007047
 30
0.0
 10
137.0065632803
 20
-131.659236826
 30
0.0
 10
137.0091808018
 20
-131.6511260926
 30
0.0
 10
137.0102910186
 20
-131.6267542319
 30
0.0
 10
137.0075832566
 20
-131.6041616319
 30
0.0
 10
137.0052323056
 20
-131.5870101067
 30
0.0
  0
SPLINE
  5
800
100
AcDbEntity
  8
RUNDUNGEN
100
AcDbSpline
 62
7
  6
CONTINUOUS
 70
0
 71
3
 72
8
 73
4
 74
0
 42
0.0000001
 43
0.0000001
 44
0.0000000001
 40
0.0
 40
0.0
 40
0.0
 40
0.0
 40
1.0
 40
1.0
 40
1.0
 40
1.0
 10
137.0041813714
 20
-131.5709069142
 30
0.0
 10
137.0041813714
 20
-131.576286064
 30
0.0
 10
137.0045018186
 20
-131.5816807877
 30
0.0
 10
137.0052323056
 20
-131.5870101067
 30
0.0
  0
ELLIPSE
  5
801
100
AcDbEntity
  8
0
100
AcDbEllipse
 62
7
  6
CONTINUOUS
 10
181.5760333647
 20
-108.6593847463
 30
0.0
 11
19.1268660486
 21
-4.280536784
 31
0.0
 40
1.0
 41
1.7912626366
 42
2.15617274
  0
ELLIPSE
  5
802
100
AcDbEntity
  8
0
100
AcDbEllipse
 62
7
  6
CONTINUOUS
 10
167.5760333647
 20
-108.6593847463
 30
0.0
 11
18.5080463367
 21
6.4507535064
 31
0.0
 40
1.0
 41
0.8702175195
 42
1.235127934
  0
ELLIPSE
  5
803
100
AcDbEntity
  8
0
100
AcDbEllipse
 62
7
  6
CONTINUOUS
 10
181.5760333647
 20
-108.6593847463
 30
0.0
 11
18.4357580692
 21
-4.5959573991
 31
0.0
 40
1.0
 41
1.8151992486
 42
2.1924221536
  0
ELLIPSE
  5
804
100
AcDbEntity
  8
0
100
AcDbEllipse
 62
7
  6
CONTINUOUS
 10
167.5760333647
 20
-108.6593847463
 30
0.0
 11
13.4350288425
 21
13.4350288425
 31
0.0
 40
1.0
 41
0.408088131
 42
0.785311036
  0
ENDSEC
  0
SECTION
  2
OBJECTS
  0
DICTIONARY
  5
C
100
AcDbDictionary
280
0
281
1
  3
ACAD_GROUP
350
D
  3
ACAD_MLINESTYLE
350
17
  3
ACAD_LAYOUT
350
1A
  3
ACAD_PLOTSETTINGS
350
19
  3
ACAD_PLOTSTYLENAME
350
E
  0
DICTIONARY
  5
D
102
{ACAD_REACTORS
330
C
102
}
100
AcDbDictionary
280
0
281
1
  0
ACDBDICTIONARYWDFLT
  5
E
102
{ACAD_REACTORS
330
C
102
}
100
AcDbDictionary
281
1
  3
Normal
350
F
100
AcDbDictionaryWithDefault
340
F
  0
DICTIONARY
  5
17
102
{ACAD_REACTORS
330
C
102
}
100
AcDbDictionary
280
0
281
1
  3
Standard
350
18
  0
DICTIONARY
  5
19
102
{ACAD_REACTORS
330
C
102
}
100
AcDbDictionary
281
1
  0
DICTIONARY
  5
1A
102
{ACAD_REACTORS
330
C
102
}
100
AcDbDictionary
281
1
  3
Model
350
805
  3
Layout1
350
806
  0
ACDBPLACEHOLDER
  5
F
102
{ACAD_REACTORS
330
E
102
}
  0
MLINESTYLE
  5
18
102
{ACAD_REACTORS
330
17
102
}
100
AcDbMlineStyle
  2
STANDARD
 70
0
  3

 62
256
 51
90.0
 52
90.0
 71
2
 49
0.5
 62
256
  6
BYLAYER
 49
-0.5
 62
256
  6
BYLAYER
  0
LAYOUT
  5
805
102
{ACAD_REACTORS
330
1A
102
}
100
AcDbPlotSettings
  1

  2
none_device
  4
ISO_A2_(594.00_x_420.00_MM)
  6

 40
0.0
 41
0.0
 42
0.0
 43
0.0
 44
594.0
 45
420.0
 46
0.0
 47
0.0
 48
0.0
 49
0.0
140
0.0
141
0.0
142
1.0
143
1.0
 70
1024
 72
1
 73
0
 74
0
  7

 75
0
147
1.0
148
0.0
149
0.0
100
AcDbLayout
  1
Model
 70
0
 71
0
 10
0.0
 20
0.0
 11
594.0
 21
420.0
 12
0.0
 22
0.0
 32
0.0
 14
0.0
 24
0.0
 34
0.0
 15
0.0
 25
0.0
 35
0.0
146
0.0
 13
0.0
 23
0.0
 33
0.0
 16
1.0
 26
0.0
 36
0.0
 17
0.0
 27
1.0
 37
0.0
 76
0
330
20E
345
0
346
0
  0
LAYOUT
  5
806
102
{ACAD_REACTORS
330
1A
102
}
100
AcDbPlotSettings
  1

  2
none_device
  4
ISO_A2_(594.00_x_420.00_MM)
  6

 40
0.0
 41
0.0
 42
0.0
 43
0.0
 44
594.0
 45
420.0
 46
0.0
 47
0.0
 48
0.0
 49
0.0
140
0.0
141
0.0
142
1.0
143
1.0
 70
0
 72
1
 73
0
 74
0
  7

 75
0
147
1.0
148
0.0
149
0.0
100
AcDbLayout
  1
Layout1
 70
0
 71
1
 10
0.0
 20
0.0
 11
594.0
 21
420.0
 12
0.0
 22
0.0
 32
0.0
 14
0.0
 24
0.0
 34
0.0
 15
0.0
 25
0.0
 35
0.0
146
0.0
 13
0.0
 23
0.0
 33
0.0
 16
1.0
 26
0.0
 36
0.0
 17
0.0
 27
1.0
 37
0.0
 76
0
330
20F
345
0
346
0
  0
ENDSEC
  0
EOF
