999
DXF file: 001-m34538-p-1.dxf
999
Pro/ENGINEER 2010140 by Parametric Technology Corporation
  0
SECTION
  2
HEADER
  9
$ACADVER
  1
AC1015
  9
$DWGCODEPAGE
  3
ANSI_1252
  9
$EXTMAX
 10
420.0
 20
297.0
 30
0.0
  9
$EXTMIN
 10
0.0
 20
0.0
 30
0.0
  9
$LIMMIN
 10
0.0
 20
0.0
  9
$LIMMAX
 10
420.0
 20
297.0
  9
$VIEWCTR
 10
210.0
 20
148.5
  9
$VIEWSIZE
 40
297.0
  9
$CLAYER
  8
0
  9
$LTSCALE
 40
23.1
  9
$CELTYPE
  6
BYLAYER
  9
$DIMSCALE
 40
1.0
  9
$DIMASZ
 40
3.5
  9
$DIMEXO
 40
2.625
  9
$DIMDLI
 40
15.96
  9
$DIMEXE
 40
7.56
  9
$DIMCEN
 40
3.78
  9
$DIMLFAC
 40
1.0
  9
$DIMBLK
  1
_FILLED
  9
$DIMTXT
 40
3.5
  9
$DIMTOL
 70
1
  9
$DIMLIM
 70
0
  9
$DIMTFAC
 40
1.0
  9
$DIMTP
 40
0.005
  9
$DIMTM
 40
0.005
  9
$PDMODE
 70
3
  9
$PDSIZE
 40
0.3125
  9
$HANDSEED
  5
7EE
  9
$TILEMODE
 70
1
  9
$MEASUREMENT
 70
1
  9
$INSUNITS
 70
4
  0
ENDSEC
  0
SECTION
  2
CLASSES
  0
CLASS
  1
ACDBDICTIONARYWDFLT
  2
AcDbDictionaryWithDefault
  3
AutoCAD 2000
 90
0
280
0
281
0
  0
CLASS
  1
ACDBPLACEHOLDER
  2
AcDbPlaceHolder
  3
AutoCAD 2000
 90
0
280
0
281
0
  0
CLASS
  1
LAYOUT
  2
AcDbLayout
  3
AutoCAD 2000
 90
0
280
0
281
0
  0
ENDSEC
  0
SECTION
  2
TABLES
  0
TABLE
  2
VPORT
  5
8
100
AcDbSymbolTable
 70
2
  0
VPORT
  5
1F4
100
AcDbSymbolTableRecord
100
AcDbViewportTableRecord
  2
*ACTIVE
 70
0
 10
0.0
 20
0.0
 11
1.0
 21
1.0
 12
210.0
 22
148.5
 13
0.0
 23
0.0
 14
1.0
 24
1.0
 15
0.0
 25
0.0
 16
0.0
 26
0.0
 36
1.0
 17
0.0
 27
0.0
 37
0.0
 40
297.0
 41
1.4141414141
 42
50.0
 43
0.0
 44
0.0
 50
0.0
 51
0.0
 71
0
 72
100
 73
1
 74
1
 75
0
 76
0
 77
0
 78
0
  0
ENDTAB
  0
TABLE
  2
LTYPE
  5
5
100
AcDbSymbolTable
 70
6
  0
LTYPE
  5
14
100
AcDbSymbolTableRecord
100
AcDbLinetypeTableRecord
  2
BYBLOCK
 70
0
  3

 72
65
 73
0
 40
0.0
  0
LTYPE
  5
15
100
AcDbSymbolTableRecord
100
AcDbLinetypeTableRecord
  2
BYLAYER
 70
0
  3

 72
65
 73
0
 40
0.0
  0
LTYPE
  5
16
100
AcDbSymbolTableRecord
100
AcDbLinetypeTableRecord
  2
CONTINUOUS
 70
64
  3
Solid line
 72
65
 73
0
 40
0.0
  0
LTYPE
  5
1F5
100
AcDbSymbolTableRecord
100
AcDbLinetypeTableRecord
  2
CENTER
 70
64
  3
____ _ ____ _ ____ _ ____ _ ____ _ ____ _ ____
 72
65
 73
4
 40
0.6
 49
0.375
 74
0
 49
-0.075
 74
0
 49
0.075
 74
0
 49
-0.075
 74
0
  0
LTYPE
  5
1F6
100
AcDbSymbolTableRecord
100
AcDbLinetypeTableRecord
  2
HIDDEN
 70
64
  3
- - - - - - - - - - - - - - - - - - - -
 72
65
 73
2
 40
0.2
 49
0.1
 74
0
 49
-0.1
 74
0
  0
LTYPE
  5
1F7
100
AcDbSymbolTableRecord
100
AcDbLinetypeTableRecord
  2
PHANTOM
 70
64
  3
_____ _ _ _____ _ _ _____ _ _ _____
 72
65
 73
6
 40
0.8
 49
0.45
 74
0
 49
-0.05
 74
0
 49
0.1
 74
0
 49
-0.05
 74
0
 49
0.1
 74
0
 49
-0.05
 74
0
  0
LTYPE
  5
1F8
100
AcDbSymbolTableRecord
100
AcDbLinetypeTableRecord
  2
DOT
 70
64
  3
. . . . . . . . . . . . . . . . . . . .
 72
65
 73
2
 40
0.2
 49
0.1
 74
0
 49
-0.1
 74
0
  0
LTYPE
  5
1F9
100
AcDbSymbolTableRecord
100
AcDbLinetypeTableRecord
  2
DASHED
 70
64
  3
- - - - - - - - - - - - - - - - - - - -
 72
65
 73
2
 40
0.2
 49
0.1
 74
0
 49
-0.1
 74
0
  0
ENDTAB
  0
TABLE
  2
LAYER
  5
2
100
AcDbSymbolTable
 70
36
  0
LAYER
  5
10
100
AcDbSymbolTableRecord
100
AcDbLayerTableRecord
  2
0
 70
0
 62
7
  6
CONTINUOUS
370
-3
390
F
  0
LAYER
  5
1FA
100
AcDbSymbolTableRecord
100
AcDbLayerTableRecord
  2
DEFAULT_1
 70
0
 62
7
  6
CENTER
370
-3
390
F
  0
LAYER
  5
1FB
100
AcDbSymbolTableRecord
100
AcDbLayerTableRecord
  2
DEFAULT_2
 70
0
 62
8
  6
HIDDEN
370
-3
390
F
  0
LAYER
  5
1FC
100
AcDbSymbolTableRecord
100
AcDbLayerTableRecord
  2
DEFAULT_3
 70
0
 62
7
  6
PHANTOM
370
-3
390
F
  0
LAYER
  5
1FD
100
AcDbSymbolTableRecord
100
AcDbLayerTableRecord
  2
AUSFORMSCHRAEGEN
 70
0
 62
7
  6
CONTINUOUS
370
-3
390
F
  0
LAYER
  5
1FE
100
AcDbSymbolTableRecord
100
AcDbLayerTableRecord
  2
BEZUGSACHSEN
 70
0
 62
7
  6
CONTINUOUS
370
-3
390
F
  0
LAYER
  5
1FF
100
AcDbSymbolTableRecord
100
AcDbLayerTableRecord
  2
BEZUGSEBENEN
 70
0
 62
7
  6
CONTINUOUS
370
-3
390
F
  0
LAYER
  5
200
100
AcDbSymbolTableRecord
100
AcDbLayerTableRecord
  2
BG_STARTBEZUEGE
 70
0
 62
7
  6
CONTINUOUS
370
-3
390
F
  0
LAYER
  5
201
100
AcDbSymbolTableRecord
100
AcDbLayerTableRecord
  2
BOHRUNGEN
 70
0
 62
7
  6
CONTINUOUS
370
-3
390
F
  0
LAYER
  5
202
100
AcDbSymbolTableRecord
100
AcDbLayerTableRecord
  2
FASEN
 70
0
 62
7
  6
CONTINUOUS
370
-3
390
F
  0
LAYER
  5
203
100
AcDbSymbolTableRecord
100
AcDbLayerTableRecord
  2
FLAECHEN
 70
0
 62
7
  6
CONTINUOUS
370
-3
390
F
  0
LAYER
  5
204
100
AcDbSymbolTableRecord
100
AcDbLayerTableRecord
  2
FLAECHENVERBUND
 70
0
 62
7
  6
CONTINUOUS
370
-3
390
F
  0
LAYER
  5
205
100
AcDbSymbolTableRecord
100
AcDbLayerTableRecord
  2
HILFEN
 70
0
 62
7
  6
CONTINUOUS
370
-3
390
F
  0
LAYER
  5
206
100
AcDbSymbolTableRecord
100
AcDbLayerTableRecord
  2
KONSTRUKTIONSELEMENTE
 70
0
 62
7
  6
CONTINUOUS
370
-3
390
F
  0
LAYER
  5
207
100
AcDbSymbolTableRecord
100
AcDbLayerTableRecord
  2
KURVEN
 70
0
 62
7
  6
CONTINUOUS
370
-3
390
F
  0
LAYER
  5
208
100
AcDbSymbolTableRecord
100
AcDbLayerTableRecord
  2
NORM
 70
0
 62
7
  6
CONTINUOUS
370
-3
390
F
  0
LAYER
  5
209
100
AcDbSymbolTableRecord
100
AcDbLayerTableRecord
  2
PLATZIERUNG
 70
0
 62
7
  6
CONTINUOUS
370
-3
390
F
  0
LAYER
  5
20A
100
AcDbSymbolTableRecord
100
AcDbLayerTableRecord
  2
RUNDUNGEN
 70
0
 62
7
  6
CONTINUOUS
370
-3
390
F
  0
LAYER
  5
20B
100
AcDbSymbolTableRecord
100
AcDbLayerTableRecord
  2
TEIL_STARTBEZUEGE
 70
0
 62
7
  6
CONTINUOUS
370
-3
390
F
  0
LAYER
  5
20C
100
AcDbSymbolTableRecord
100
AcDbLayerTableRecord
  2
T_STARTBEZUEGE
 70
0
 62
7
  6
CONTINUOUS
370
-3
390
F
  0
LAYER
  5
20D
100
AcDbSymbolTableRecord
100
AcDbLayerTableRecord
  2
XSEC_DATUMS
 70
0
 62
7
  6
CONTINUOUS
370
-3
390
F
  0
ENDTAB
  0
TABLE
  2
STYLE
  5
3
100
AcDbSymbolTable
 70
1
  0
STYLE
  5
11
100
AcDbSymbolTableRecord
100
AcDbTextStyleTableRecord
  2
STANDARD
 70
0
 40
0.0
 41
0.7
 50
0.0
 71
0
 42
0.2
  3
txt
  4

  0
STYLE
  5
20E
100
AcDbSymbolTableRecord
100
AcDbTextStyleTableRecord
  2
TEXTSTYLE_1
 70
0
 40
0.0
 41
0.8
 50
0.0
 71
0
 42
0.2
  3
gdt
  4

  0
ENDTAB
  0
TABLE
  2
VIEW
  5
6
100
AcDbSymbolTable
 70
0
  0
ENDTAB
  0
TABLE
  2
UCS
  5
7
100
AcDbSymbolTable
 70
0
  0
ENDTAB
  0
TABLE
  2
APPID
  5
9
100
AcDbSymbolTable
 70
1
  0
APPID
  5
20F
100
AcDbSymbolTableRecord
100
AcDbRegAppTableRecord
  2
ACAD
 70
0
  0
ENDTAB
  0
TABLE
  2
BLOCK_RECORD
  5
1
100
AcDbSymbolTable
 70
0
  0
BLOCK_RECORD
  5
210
100
AcDbSymbolTableRecord
100
AcDbBlockTableRecord
  2
*Model_Space
  0
BLOCK_RECORD
  5
211
100
AcDbSymbolTableRecord
100
AcDbBlockTableRecord
  2
*Paper_Space
  0
ENDTAB
  0
TABLE
  2
DIMSTYLE
  5
A
100
AcDbSymbolTable
 70
1
100
AcDbDimStyleTable
 71
0
  0
DIMSTYLE
105
212
100
AcDbSymbolTableRecord
100
AcDbDimStyleTableRecord
  2
STANDARD
 70
0
  3

  4

 40
1.0
 41
3.5
 42
0.0625
 43
0.38
 44
0.18
 45
0.0
 46
0.0
 47
0.005
 48
0.005
140
3.5
141
0.09
142
0.0
143
25.4
144
1.0
145
0.0
146
1.0
147
0.09
 71
1.0
 72
0.0
 73
0
 74
0
 75
0
 76
0
 77
1
 78
8
170
0
171
2
172
0
173
0
174
0
175
0
176
0
177
0
178
5
270
2
271
3
272
3
273
2
274
2
275
0
280
0
281
0
282
0
283
1
284
8
285
0
286
0
287
3
288
0
340
11
  0
ENDTAB
  0
ENDSEC
  0
SECTION
  2
BLOCKS
  0
BLOCK
  5
20
100
AcDbEntity
  8
0
100
AcDbBlockBegin
  2
*Model_Space
 70
0
 10
0.0
 20
0.0
 30
0.0
  3
*Model_Space
  1

  0
ENDBLK
  5
21
100
AcDbEntity
  8
0
100
AcDbBlockEnd
  0
BLOCK
  5
1C
100
AcDbEntity
  8
0
100
AcDbBlockBegin
  2
*Paper_Space
 70
0
 10
0.0
 20
0.0
 30
0.0
  3
*Paper_Space
  1

  0
ENDBLK
  5
1D
100
AcDbEntity
  8
0
100
AcDbBlockEnd
  0
ENDSEC
  0
SECTION
  2
ENTITIES
  0
MTEXT
  5
213
100
AcDbEntity
  8
0
100
AcDbMText
 62
5
  6
CONTINUOUS
  7
STANDARD
 71
1
 72
1
 10
189.829716521
 20
125.4913030019
 30
0.0
 11
0.0
 21
1.0
 31
0.0
 44
0.9
  1
ICE-CURT 6 RUD
 40
5.0
 41
55.9523809524
  0
MTEXT
  5
214
100
AcDbEntity
  8
0
100
AcDbMText
 62
5
  6
CONTINUOUS
  7
STANDARD
 71
1
 72
1
 10
209.8584806242
 20
357.522605807
 30
0.0
 11
1.0
 21
0.0
 31
0.0
 44
0.9
  1
ICE-CURT 6 RUD
 40
7.0
 41
78.3333333333
  0
MTEXT
  5
215
100
AcDbEntity
  8
0
100
AcDbMText
 62
5
  6
CONTINUOUS
  7
STANDARD
 71
1
 72
1
 10
461.604829857
 20
117.2535749392
 30
0.0
 11
0.0
 21
1.0
 31
0.0
 44
0.9
  1
ICE-CURT 6 RUD
 40
5.0
 41
55.9523809524
  0
MTEXT
  5
216
100
AcDbEntity
  8
0
100
AcDbMText
 62
5
  6
CONTINUOUS
  7
STANDARD
 71
1
 72
1
 10
705.5421067078
 20
119.1241136787
 30
0.0
 11
0.0
 21
1.0
 31
0.0
 44
0.9
  1
ICE-CURT 6 RUD
 40
5.0
 41
55.9523809524
  0
MTEXT
  5
217
100
AcDbEntity
  8
0
100
AcDbMText
 62
5
  6
CONTINUOUS
  7
STANDARD
 71
1
 72
1
 10
211.4974643376
 20
-39.2080316826
 30
0.0
 11
1.0
 21
0.0
 31
0.0
 44
0.9
  1
ICE-CURT 6 RUD
 40
7.0
 41
78.3333333333
  0
LINE
  5
218
100
AcDbEntity
  8
0
100
AcDbLine
 62
7
  6
CONTINUOUS
 10
0.0
 20
0.0
 11
0.0
 21
297.0
  0
LINE
  5
219
100
AcDbEntity
  8
0
100
AcDbLine
 62
7
  6
CONTINUOUS
 10
0.0
 20
0.0
 11
420.0
 21
0.0
  0
LINE
  5
21A
100
AcDbEntity
  8
0
100
AcDbLine
 62
7
  6
CONTINUOUS
 10
0.0
 20
297.0
 11
420.0
 21
297.0
  0
LINE
  5
21B
100
AcDbEntity
  8
0
100
AcDbLine
 62
7
  6
CONTINUOUS
 10
420.0
 20
0.0
 11
420.0
 21
297.0
  0
LINE
  5
21C
100
AcDbEntity
  8
0
100
AcDbLine
 62
7
  6
CONTINUOUS
 10
12.8581706074
 20
210.7479672718
 11
12.8581706074
 21
211.8797442176
  0
LINE
  5
21D
100
AcDbEntity
  8
BEZUGSACHSEN
100
AcDbLine
 62
7
  6
CONTINUOUS
 10
12.8581706074
 20
231.9857894433
 11
12.8581706074
 21
233.1175663891
  0
LINE
  5
21E
100
AcDbEntity
  8
0
100
AcDbLine
 62
7
  6
CONTINUOUS
 10
16.9981706074
 20
218.2327668304
 11
16.9981706074
 21
225.6327668304
  0
LINE
  5
21F
100
AcDbEntity
  8
0
100
AcDbLine
 62
7
  6
CONTINUOUS
 10
30.8665038255
 20
232.2008518452
 11
30.7873372344
 21
231.9582986827
  0
LINE
  5
220
100
AcDbEntity
  8
0
100
AcDbLine
 62
7
  6
CONTINUOUS
 10
31.2623372344
 20
231.8774476285
 11
31.3415038255
 21
232.1200007911
  0
LINE
  5
221
100
AcDbEntity
  8
0
100
AcDbLine
 62
7
  6
CONTINUOUS
 10
34.666504052
 20
230.0987242664
 11
34.8248372344
 21
230.4221285398
  0
LINE
  5
222
100
AcDbEntity
  8
0
100
AcDbLine
 62
7
  6
CONTINUOUS
 10
31.0248372344
 20
231.5540434117
 11
31.2623372344
 21
231.8774476285
  0
LINE
  5
223
100
AcDbEntity
  8
BEZUGSACHSEN
100
AcDbLine
 62
7
  6
CONTINUOUS
 10
13.1388308071
 20
233.8122247595
 11
16.7274186997
 21
237.528316306
  0
LINE
  5
224
100
AcDbEntity
  8
0
100
AcDbLine
 62
7
  6
CONTINUOUS
 10
27.7181706074
 20
218.2327668304
 11
27.7181706074
 21
225.6327668304
  0
LINE
  5
225
100
AcDbEntity
  8
0
100
AcDbLine
 62
7
  6
CONTINUOUS
 10
28.4123372344
 20
233.3327668304
 11
28.4123372344
 21
229.5327668304
  0
LINE
  5
226
100
AcDbEntity
  8
0
100
AcDbLine
 62
7
  6
CONTINUOUS
 10
28.8873372344
 20
229.5327668304
 11
28.8873372344
 21
231.2306391949
  0
LINE
  5
227
100
AcDbEntity
  8
0
100
AcDbLine
 62
7
  6
CONTINUOUS
 10
28.8873372344
 20
231.7157455201
 11
28.8873372344
 21
232.9285115595
  0
LINE
  5
228
100
AcDbEntity
  8
0
100
AcDbLine
 62
7
  6
CONTINUOUS
 10
30.8665038255
 20
232.4434052343
 11
30.8665038255
 21
232.2008518452
  0
LINE
  5
229
100
AcDbEntity
  8
0
100
AcDbLine
 62
7
  6
CONTINUOUS
 10
31.3415038255
 20
232.1200007911
 11
31.3415038255
 21
232.4434052343
  0
LINE
  5
22A
100
AcDbEntity
  8
0
100
AcDbLine
 62
7
  6
CONTINUOUS
 10
32.0540038255
 20
233.3327668304
 11
32.0540038255
 21
230.8263838107
  0
LINE
  5
22B
100
AcDbEntity
  8
0
100
AcDbLine
 62
7
  6
CONTINUOUS
 10
32.529004052
 20
230.8263838107
 11
32.529004052
 21
233.3327668304
  0
LINE
  5
22C
100
AcDbEntity
  8
0
100
AcDbLine
 62
7
  6
CONTINUOUS
 10
34.429004052
 20
233.3327668304
 11
34.429004052
 21
230.8263838107
  0
LINE
  5
22D
100
AcDbEntity
  8
0
100
AcDbLine
 62
7
  6
CONTINUOUS
 10
34.8248372344
 20
230.4221285398
 11
34.904004052
 21
230.8263838107
  0
LINE
  5
22E
100
AcDbEntity
  8
0
100
AcDbLine
 62
7
  6
CONTINUOUS
 10
38.6248372344
 20
230.4221285398
 11
38.704003599
 21
230.8263838107
  0
LINE
  5
22F
100
AcDbEntity
  8
0
100
AcDbLine
 62
7
  6
CONTINUOUS
 10
34.429004052
 20
230.8263838107
 11
34.3498372344
 21
230.502979594
  0
LINE
  5
230
100
AcDbEntity
  8
0
100
AcDbLine
 62
7
  6
CONTINUOUS
 10
38.229003599
 20
230.8263838107
 11
38.1498372344
 21
230.502979594
  0
LINE
  5
231
100
AcDbEntity
  8
0
100
AcDbLine
 62
7
  6
CONTINUOUS
 10
38.466503599
 20
230.0987242664
 11
38.6248372344
 21
230.4221285398
  0
LINE
  5
232
100
AcDbEntity
  8
0
100
AcDbLine
 62
7
  6
CONTINUOUS
 10
34.3498372344
 20
230.502979594
 11
34.191504052
 21
230.2604264314
  0
LINE
  5
233
100
AcDbEntity
  8
0
100
AcDbLine
 62
7
  6
CONTINUOUS
 10
38.1498372344
 20
230.502979594
 11
37.991503599
 21
230.2604264314
  0
LINE
  5
234
100
AcDbEntity
  8
0
100
AcDbLine
 62
7
  6
CONTINUOUS
 10
30.7873372344
 20
231.9582986827
 11
30.6290038255
 21
231.7965965743
  0
LINE
  5
235
100
AcDbEntity
  8
0
100
AcDbLine
 62
7
  6
CONTINUOUS
 10
34.3498372344
 20
229.7753200213
 11
34.666504052
 21
230.0987242664
  0
LINE
  5
236
100
AcDbEntity
  8
0
100
AcDbLine
 62
7
  6
CONTINUOUS
 10
34.904004052
 20
230.8263838107
 11
34.904004052
 21
233.3327668304
  0
LINE
  5
237
100
AcDbEntity
  8
0
100
AcDbLine
 62
7
  6
CONTINUOUS
 10
35.5373372344
 20
233.3327668304
 11
35.5373372344
 21
229.5327668304
  0
LINE
  5
238
100
AcDbEntity
  8
0
100
AcDbLine
 62
7
  6
CONTINUOUS
 10
36.0123372344
 20
230.0178732122
 11
36.0123372344
 21
232.8476605053
  0
LINE
  5
239
100
AcDbEntity
  8
0
100
AcDbLine
 62
7
  6
CONTINUOUS
 10
38.229003599
 20
232.0391497369
 11
38.229003599
 21
230.8263838107
  0
LINE
  5
23A
100
AcDbEntity
  8
0
100
AcDbLine
 62
7
  6
CONTINUOUS
 10
38.704003599
 20
230.8263838107
 11
38.704003599
 21
232.0391497369
  0
LINE
  5
23B
100
AcDbEntity
  8
RUNDUNGEN
100
AcDbLine
 62
7
  6
CONTINUOUS
 10
42.3581706074
 20
236.4327668304
 11
42.3581706074
 21
207.4327668304
  0
LINE
  5
23C
100
AcDbEntity
  8
0
100
AcDbLine
 62
7
  6
CONTINUOUS
 10
38.1498372344
 20
229.7753200213
 11
38.466503599
 21
230.0987242664
  0
LINE
  5
23D
100
AcDbEntity
  8
0
100
AcDbLine
 62
7
  6
CONTINUOUS
 10
34.191504052
 20
230.2604264314
 11
33.954004052
 21
230.0987242664
  0
LINE
  5
23E
100
AcDbEntity
  8
0
100
AcDbLine
 62
7
  6
CONTINUOUS
 10
37.991503599
 20
230.2604264314
 11
37.754003599
 21
230.0987242664
  0
LINE
  5
23F
100
AcDbEntity
  8
0
100
AcDbLine
 62
7
  6
CONTINUOUS
 10
30.7081706432
 20
231.3923413033
 11
31.0248372344
 21
231.5540434117
  0
LINE
  5
240
100
AcDbEntity
  8
0
100
AcDbLine
 62
7
  6
CONTINUOUS
 10
34.0331704167
 20
229.6136178917
 11
34.3498372344
 21
229.7753200213
  0
LINE
  5
241
100
AcDbEntity
  8
0
100
AcDbLine
 62
7
  6
CONTINUOUS
 10
30.7873372344
 20
232.6859583969
 11
30.8665038255
 21
232.4434052343
  0
LINE
  5
242
100
AcDbEntity
  8
0
100
AcDbLine
 62
7
  6
CONTINUOUS
 10
31.3415038255
 20
232.4434052343
 11
31.2623372344
 21
232.6859583969
  0
LINE
  5
243
100
AcDbEntity
  8
0
100
AcDbLine
 62
7
  6
CONTINUOUS
 10
32.6081704167
 20
230.502979594
 11
32.529004052
 21
230.8263838107
  0
LINE
  5
244
100
AcDbEntity
  8
0
100
AcDbLine
 62
7
  6
CONTINUOUS
 10
38.1498372344
 20
232.3625539536
 11
38.229003599
 21
232.0391497369
  0
LINE
  5
245
100
AcDbEntity
  8
0
100
AcDbLine
 62
7
  6
CONTINUOUS
 10
32.0540038255
 20
230.8263838107
 11
32.1331706432
 21
230.4221285398
  0
LINE
  5
246
100
AcDbEntity
  8
0
100
AcDbLine
 62
7
  6
CONTINUOUS
 10
38.704003599
 20
232.0391497369
 11
38.6248372344
 21
232.4434052343
  0
LINE
  5
247
100
AcDbEntity
  8
RUNDUNGEN
100
AcDbLine
 62
7
  6
CONTINUOUS
 10
64.3581706074
 20
204.4332439484
 11
64.3581706074
 21
239.4327668304
  0
LINE
  5
248
100
AcDbEntity
  8
RUNDUNGEN
100
AcDbLine
 62
7
  6
CONTINUOUS
 10
69.3581706074
 20
240.4322621786
 11
69.3581706074
 21
203.4332714823
  0
LINE
  5
249
100
AcDbEntity
  8
0
100
AcDbLine
 62
7
  6
CONTINUOUS
 10
37.8331708697
 20
229.6136178917
 11
38.1498372344
 21
229.7753200213
  0
LINE
  5
24A
100
AcDbEntity
  8
0
100
AcDbLine
 62
7
  6
CONTINUOUS
 10
30.6290038255
 20
231.7965965743
 11
30.3915038255
 21
231.7157455201
  0
LINE
  5
24B
100
AcDbEntity
  8
0
100
AcDbLine
 62
7
  6
CONTINUOUS
 10
31.4206706432
 20
229.5327668304
 11
30.7081706432
 21
231.3923413033
  0
LINE
  5
24C
100
AcDbEntity
  8
0
100
AcDbLine
 62
7
  6
CONTINUOUS
 10
30.23317053
 20
231.2306391949
 11
30.8665038255
 21
229.5327668304
  0
LINE
  5
24D
100
AcDbEntity
  8
0
100
AcDbLine
 62
7
  6
CONTINUOUS
 10
32.1331706432
 20
230.4221285398
 11
32.291504052
 21
230.0987242664
  0
LINE
  5
24E
100
AcDbEntity
  8
0
100
AcDbLine
 62
7
  6
CONTINUOUS
 10
38.6248372344
 20
232.4434052343
 11
38.466503599
 21
232.7668094511
  0
LINE
  5
24F
100
AcDbEntity
  8
RUNDUNGEN
100
AcDbLine
 62
7
  6
CONTINUOUS
 10
89.3581706074
 20
239.9327668304
 11
89.3581706074
 21
203.9327668304
  0
LINE
  5
250
100
AcDbEntity
  8
RUNDUNGEN
100
AcDbLine
 62
7
  6
CONTINUOUS
 10
95.3581706074
 20
214.0655770047
 11
95.3581706074
 21
229.7999566562
  0
LINE
  5
251
100
AcDbEntity
  8
0
100
AcDbLine
 62
7
  6
CONTINUOUS
 10
16.7274186997
 20
206.3372173549
 11
13.1388308071
 21
210.0533089013
  0
LINE
  5
252
100
AcDbEntity
  8
0
100
AcDbLine
 62
7
  6
CONTINUOUS
 10
32.766504052
 20
230.2604264314
 11
32.6081704167
 21
230.502979594
  0
LINE
  5
253
100
AcDbEntity
  8
RUNDUNGEN
100
AcDbLine
 62
7
  6
CONTINUOUS
 10
105.3581706074
 20
224.9328869368
 11
105.3581706074
 21
218.9326417134
  0
LINE
  5
254
100
AcDbEntity
  8
BEZUGSACHSEN
100
AcDbLine
 62
7
  6
CONTINUOUS
 10
195.3581706074
 20
75.4327668304
 11
189.3581706074
 21
75.4327668304
  0
LINE
  5
255
100
AcDbEntity
  8
0
100
AcDbLine
 62
7
  6
CONTINUOUS
 10
31.2623372344
 20
232.6859583969
 11
31.0248372344
 21
233.0093626137
  0
LINE
  5
256
100
AcDbEntity
  8
0
100
AcDbLine
 62
7
  6
CONTINUOUS
 10
37.991503599
 20
232.6051073427
 11
38.1498372344
 21
232.3625539536
  0
LINE
  5
257
100
AcDbEntity
  8
0
100
AcDbLine
 62
7
  6
CONTINUOUS
 10
137.6081706074
 20
214.9327668304
 11
140.3581706074
 21
217.6827668304
  0
LINE
  5
258
100
AcDbEntity
  8
0
100
AcDbLine
 62
7
  6
CONTINUOUS
 10
147.3581706074
 20
218.6827668304
 11
146.3581706074
 21
217.6827668304
  0
LINE
  5
259
100
AcDbEntity
  8
0
100
AcDbLine
 62
7
  6
CONTINUOUS
 10
175.6261197999
 20
238.2007160229
 11
176.4299673772
 21
238.664817638
  0
LINE
  5
25A
100
AcDbEntity
  8
0
100
AcDbLine
 62
7
  6
CONTINUOUS
 10
100.1866364205
 20
203.2343037265
 11
106.7721370527
 21
205.6312299344
  0
LINE
  5
25B
100
AcDbEntity
  8
0
100
AcDbLine
 62
7
  6
CONTINUOUS
 10
32.291504052
 20
230.0987242664
 11
32.6081704167
 21
229.7753200213
  0
LINE
  5
25C
100
AcDbEntity
  8
0
100
AcDbLine
 62
7
  6
CONTINUOUS
 10
30.6290038255
 20
232.8476605053
 11
30.7873372344
 21
232.6859583969
  0
LINE
  5
25D
100
AcDbEntity
  8
0
100
AcDbLine
 62
7
  6
CONTINUOUS
 10
137.6081706074
 20
228.9327668304
 11
137.6081706074
 21
219.4327668304
  0
LINE
  5
25E
100
AcDbEntity
  8
0
100
AcDbLine
 62
7
  6
CONTINUOUS
 10
137.6081706074
 20
215.3944184151
 11
137.6081706074
 21
214.9327668305
  0
LINE
  5
25F
100
AcDbEntity
  8
0
100
AcDbLine
 62
7
  6
CONTINUOUS
 10
140.3581706074
 20
226.1827668304
 11
140.3581706074
 21
219.4327668304
  0
LINE
  5
260
100
AcDbEntity
  8
0
100
AcDbLine
 62
7
  6
CONTINUOUS
 10
140.3581706074
 20
218.4958350592
 11
140.3581706074
 21
217.6827668305
  0
LINE
  5
261
100
AcDbEntity
  8
0
100
AcDbLine
 62
7
  6
CONTINUOUS
 10
38.466503599
 20
232.7668094511
 11
38.1498372344
 21
233.0902136679
  0
LINE
  5
262
100
AcDbEntity
  8
0
100
AcDbLine
 62
7
  6
CONTINUOUS
 10
146.3581706074
 20
217.6827668304
 11
146.3581706074
 21
218.4958350592
  0
LINE
  5
263
100
AcDbEntity
  8
0
100
AcDbLine
 62
7
  6
CONTINUOUS
 10
146.3581706074
 20
219.4327668304
 11
146.3581706074
 21
226.1827668304
  0
LINE
  5
264
100
AcDbEntity
  8
0
100
AcDbLine
 62
7
  6
CONTINUOUS
 10
147.3581706074
 20
218.6827668304
 11
147.3581706074
 21
225.1827668304
  0
LINE
  5
265
100
AcDbEntity
  8
0
100
AcDbLine
 62
7
  6
CONTINUOUS
 10
31.0248372344
 20
233.0093626137
 11
30.7081706432
 21
233.2519157762
  0
LINE
  5
266
100
AcDbEntity
  8
0
100
AcDbLine
 62
7
  6
CONTINUOUS
 10
208.2863738377
 20
205.2007160229
 11
209.090221415
 21
205.664817638
  0
LINE
  5
267
100
AcDbEntity
  8
0
100
AcDbLine
 62
7
  6
CONTINUOUS
 10
33.004004052
 20
230.0987242664
 11
32.766504052
 21
230.2604264314
  0
LINE
  5
268
100
AcDbEntity
  8
0
100
AcDbLine
 62
7
  6
CONTINUOUS
 10
37.754003599
 20
232.7668094511
 11
37.991503599
 21
232.6051073427
  0
LINE
  5
269
100
AcDbEntity
  8
RUNDUNGEN
100
AcDbLine
 62
7
  6
CONTINUOUS
 10
180.3581706074
 20
247.9327668304
 11
180.3581706074
 21
195.9327668304
  0
LINE
  5
26A
100
AcDbEntity
  8
0
100
AcDbLine
 62
7
  6
CONTINUOUS
 10
32.6081704167
 20
229.7753200213
 11
32.9248372344
 21
229.6136178917
  0
LINE
  5
26B
100
AcDbEntity
  8
BEZUGSACHSEN
100
AcDbLine
 62
7
  6
CONTINUOUS
 10
186.3191072031
 20
149.1209654007
 11
186.3581706074
 21
147.8715614534
  0
LINE
  5
26C
100
AcDbEntity
  8
RUNDUNGEN
100
AcDbLine
 62
7
  6
CONTINUOUS
 10
181.3581706074
 20
193.819971638
 11
181.3581706074
 21
175.9939780513
  0
LINE
  5
26D
100
AcDbEntity
  8
BEZUGSACHSEN
100
AcDbLine
 62
7
  6
CONTINUOUS
 10
181.3581706074
 20
175.9939722075
 11
181.3581706074
 21
193.8199749346
  0
LINE
  5
26E
100
AcDbEntity
  8
BEZUGSACHSEN
100
AcDbLine
 62
7
  6
CONTINUOUS
 10
186.3581706074
 20
147.8715614534
 11
186.3581706074
 21
78.4327668304
  0
LINE
  5
26F
100
AcDbEntity
  8
RUNDUNGEN
100
AcDbLine
 62
7
  6
CONTINUOUS
 10
187.3581706074
 20
248.9327668304
 11
187.3581706074
 21
196.4327668304
  0
LINE
  5
270
100
AcDbEntity
  8
0
100
AcDbLine
 62
7
  6
CONTINUOUS
 10
243.3581706074
 20
226.1827668304
 11
242.3581706074
 21
225.1827668304
  0
LINE
  5
271
100
AcDbEntity
  8
0
100
AcDbLine
 62
7
  6
CONTINUOUS
 10
252.1081706074
 20
228.9327668304
 11
249.3581706074
 21
226.1827668304
  0
LINE
  5
272
100
AcDbEntity
  8
0
100
AcDbLine
 62
7
  6
CONTINUOUS
 10
38.1498372344
 20
233.0902136679
 11
37.8331708697
 21
233.2519157762
  0
LINE
  5
273
100
AcDbEntity
  8
BEZUGSACHSEN
100
AcDbLine
 62
7
  6
CONTINUOUS
 10
181.7785622127
 20
171.9148871252
 11
185.9377788872
 21
151.9506470873
  0
LINE
  5
274
100
AcDbEntity
  8
RUNDUNGEN
100
AcDbLine
 62
7
  6
CONTINUOUS
 10
197.3581706074
 20
196.4327668304
 11
197.3581706074
 21
248.9327668304
  0
LINE
  5
275
100
AcDbEntity
  8
RUNDUNGEN
100
AcDbLine
 62
7
  6
CONTINUOUS
 10
198.3581706074
 20
147.8715614534
 11
198.3581706074
 21
78.4327668304
  0
LINE
  5
276
100
AcDbEntity
  8
RUNDUNGEN
100
AcDbLine
 62
7
  6
CONTINUOUS
 10
203.3581706074
 20
193.8199620915
 11
203.3581706074
 21
175.9939780513
  0
LINE
  5
277
100
AcDbEntity
  8
RUNDUNGEN
100
AcDbLine
 62
7
  6
CONTINUOUS
 10
204.3581706074
 20
247.9327668304
 11
204.3581706074
 21
195.9327668304
  0
LINE
  5
278
100
AcDbEntity
  8
RUNDUNGEN
100
AcDbLine
 62
7
  6
CONTINUOUS
 10
202.9377790022
 20
171.9148871252
 11
198.7785623276
 21
151.9506470873
  0
LINE
  5
279
100
AcDbEntity
  8
0
100
AcDbLine
 62
7
  6
CONTINUOUS
 10
354.0873373893
 20
212.0689370866
 11
354.3248373893
 21
212.1497881408
  0
LINE
  5
27A
100
AcDbEntity
  8
0
100
AcDbLine
 62
7
  6
CONTINUOUS
 10
350.7623371628
 20
213.7668093945
 11
351.0790039805
 21
213.8476604487
  0
LINE
  5
27B
100
AcDbEntity
  8
0
100
AcDbLine
 62
7
  6
CONTINUOUS
 10
346.9623376158
 20
213.7668093945
 11
347.2790039805
 21
213.8476604487
  0
LINE
  5
27C
100
AcDbEntity
  8
0
100
AcDbLine
 62
7
  6
CONTINUOUS
 10
30.3915038255
 20
232.9285115595
 11
30.6290038255
 21
232.8476605053
  0
LINE
  5
27D
100
AcDbEntity
  8
0
100
AcDbLine
 62
7
  6
CONTINUOUS
 10
137.6081706074
 20
228.9327668304
 11
140.3581706074
 21
226.1827668304
  0
LINE
  5
27E
100
AcDbEntity
  8
0
100
AcDbLine
 62
7
  6
CONTINUOUS
 10
146.3581706074
 20
226.1827668304
 11
147.3581706074
 21
225.1827668304
  0
LINE
  5
27F
100
AcDbEntity
  8
0
100
AcDbLine
 62
7
  6
CONTINUOUS
 10
346.8831703452
 20
214.2519157692
 11
346.5665039805
 21
214.0902136395
  0
LINE
  5
280
100
AcDbEntity
  8
0
100
AcDbLine
 62
7
  6
CONTINUOUS
 10
350.6831707982
 20
214.2519157692
 11
350.3665039805
 21
214.0902136395
  0
LINE
  5
281
100
AcDbEntity
  8
0
100
AcDbLine
 62
7
  6
CONTINUOUS
 10
351.0790039805
 20
214.3327668304
 11
350.6831707982
 21
214.2519157692
  0
LINE
  5
282
100
AcDbEntity
  8
0
100
AcDbLine
 62
7
  6
CONTINUOUS
 10
347.2790039805
 20
214.3327668304
 11
346.8831703452
 21
214.2519157692
  0
LINE
  5
283
100
AcDbEntity
  8
0
100
AcDbLine
 62
7
  6
CONTINUOUS
 10
33.3206704167
 20
230.0178732122
 11
33.004004052
 21
230.0987242664
  0
LINE
  5
284
100
AcDbEntity
  8
0
100
AcDbLine
 62
7
  6
CONTINUOUS
 10
354.0081705717
 20
212.4731923575
 11
353.6915039805
 21
212.3114902491
  0
LINE
  5
285
100
AcDbEntity
  8
RUNDUNGEN
100
AcDbLine
 62
7
  6
CONTINUOUS
 10
196.3581706074
 20
195.4327668304
 11
188.3581706074
 21
195.4327668304
  0
LINE
  5
286
100
AcDbEntity
  8
0
100
AcDbLine
 62
7
  6
CONTINUOUS
 10
187.4921452037
 20
195.9327668304
 11
197.2241960112
 21
195.9327668304
  0
LINE
  5
287
100
AcDbEntity
  8
BEZUGSACHSEN
100
AcDbLine
 62
7
  6
CONTINUOUS
 10
68.8581706074
 20
202.9327668304
 11
65.8581706074
 21
202.9327668304
  0
LINE
  5
288
100
AcDbEntity
  8
0
100
AcDbLine
 62
7
  6
CONTINUOUS
 10
90.3581706074
 20
202.9327668304
 11
98.4765357039
 21
202.9327668304
  0
LINE
  5
289
100
AcDbEntity
  8
0
100
AcDbLine
 62
7
  6
CONTINUOUS
 10
32.9248372344
 20
229.6136178917
 11
33.3206704167
 21
229.5327668304
  0
LINE
  5
28A
100
AcDbEntity
  8
0
100
AcDbLine
 62
7
  6
CONTINUOUS
 10
30.7081706432
 20
233.2519157762
 11
30.3123372344
 21
233.3327668304
  0
LINE
  5
28B
100
AcDbEntity
  8
0
100
AcDbLine
 62
7
  6
CONTINUOUS
 10
37.8331708697
 20
233.2519157762
 11
37.4373372344
 21
233.3327668304
  0
LINE
  5
28C
100
AcDbEntity
  8
0
100
AcDbLine
 62
7
  6
CONTINUOUS
 10
37.4373372344
 20
232.8476605053
 11
37.754003599
 21
232.7668094511
  0
LINE
  5
28D
100
AcDbEntity
  8
0
100
AcDbLine
 62
7
  6
CONTINUOUS
 10
175.6261197999
 20
205.664817638
 11
176.4299673772
 21
205.2007160229
  0
LINE
  5
28E
100
AcDbEntity
  8
0
100
AcDbLine
 62
7
  6
CONTINUOUS
 10
242.3581706074
 20
225.1827668304
 11
242.3581706074
 21
218.6827668304
  0
LINE
  5
28F
100
AcDbEntity
  8
0
100
AcDbLine
 62
7
  6
CONTINUOUS
 10
243.3581706074
 20
226.1827668304
 11
243.3581706074
 21
217.6827668304
  0
LINE
  5
290
100
AcDbEntity
  8
0
100
AcDbLine
 62
7
  6
CONTINUOUS
 10
346.7248376158
 20
213.6051072295
 11
346.9623376158
 21
213.7668093945
  0
LINE
  5
291
100
AcDbEntity
  8
0
100
AcDbLine
 62
7
  6
CONTINUOUS
 10
350.5248371628
 20
213.6051072295
 11
350.7623371628
 21
213.7668093945
  0
LINE
  5
292
100
AcDbEntity
  8
0
100
AcDbLine
 62
7
  6
CONTINUOUS
 10
207.2863738377
 20
204.9327668304
 11
204.3581706074
 21
204.9327668304
  0
LINE
  5
293
100
AcDbEntity
  8
0
100
AcDbLine
 62
7
  6
CONTINUOUS
 10
180.3581706074
 20
204.9327668304
 11
177.4299673772
 21
204.9327668304
  0
LINE
  5
294
100
AcDbEntity
  8
BEZUGSACHSEN
100
AcDbLine
 62
7
  6
CONTINUOUS
 10
365.8578910368
 20
205.4327668304
 11
344.3581706074
 21
205.4327668304
  0
LINE
  5
295
100
AcDbEntity
  8
BEZUGSACHSEN
100
AcDbLine
 62
7
  6
CONTINUOUS
 10
19.0692464347
 20
205.4327668304
 11
18.8584501781
 21
205.4327668304
  0
LINE
  5
296
100
AcDbEntity
  8
0
100
AcDbLine
 62
7
  6
CONTINUOUS
 10
18.8666964315
 20
205.4327668304
 11
19.0692464347
 21
205.4327668304
  0
LINE
  5
297
100
AcDbEntity
  8
RUNDUNGEN
100
AcDbLine
 62
7
  6
CONTINUOUS
 10
19.0692464347
 20
205.4327668304
 11
40.3581706074
 21
205.4327668304
  0
LINE
  5
298
100
AcDbEntity
  8
0
100
AcDbLine
 62
7
  6
CONTINUOUS
 10
108.4822377693
 20
205.9327668304
 11
174.6261197999
 21
205.9327668304
  0
LINE
  5
299
100
AcDbEntity
  8
0
100
AcDbLine
 62
7
  6
CONTINUOUS
 10
210.090221415
 20
205.9327668304
 11
293.8756947546
 21
205.9327668304
  0
LINE
  5
29A
100
AcDbEntity
  8
RUNDUNGEN
100
AcDbLine
 62
7
  6
CONTINUOUS
 10
38.3581706074
 20
209.9327668304
 11
28.3581706074
 21
209.9327668304
  0
LINE
  5
29B
100
AcDbEntity
  8
BEZUGSACHSEN
100
AcDbLine
 62
7
  6
CONTINUOUS
 10
346.3581706074
 20
209.9327668304
 11
356.3581706074
 21
209.9327668304
  0
LINE
  5
29C
100
AcDbEntity
  8
0
100
AcDbLine
 62
7
  6
CONTINUOUS
 10
347.2790039805
 20
210.5327668304
 11
349.1790039805
 21
210.5327668304
  0
LINE
  5
29D
100
AcDbEntity
  8
0
100
AcDbLine
 62
7
  6
CONTINUOUS
 10
349.8123371628
 20
210.5327668304
 11
350.2873371628
 21
210.5327668304
  0
LINE
  5
29E
100
AcDbEntity
  8
0
100
AcDbLine
 62
7
  6
CONTINUOUS
 10
352.1873371628
 20
210.5327668304
 11
352.6623373893
 21
210.5327668304
  0
LINE
  5
29F
100
AcDbEntity
  8
0
100
AcDbLine
 62
7
  6
CONTINUOUS
 10
354.4040039805
 20
210.5327668304
 11
356.3040039805
 21
210.5327668304
  0
LINE
  5
2A0
100
AcDbEntity
  8
0
100
AcDbLine
 62
7
  6
CONTINUOUS
 10
355.8290039805
 20
210.9370221014
 11
354.3248373893
 21
210.9370221014
  0
LINE
  5
2A1
100
AcDbEntity
  8
0
100
AcDbLine
 62
7
  6
CONTINUOUS
 10
348.7040039805
 20
211.0178731556
 11
347.2790039805
 21
211.0178731556
  0
LINE
  5
2A2
100
AcDbEntity
  8
0
100
AcDbLine
 62
7
  6
CONTINUOUS
 10
354.3248373893
 20
212.1497881408
 11
355.8290039805
 21
212.1497881408
  0
LINE
  5
2A3
100
AcDbEntity
  8
0
100
AcDbLine
 62
7
  6
CONTINUOUS
 10
355.8290039805
 20
212.6348944659
 11
354.4831706849
 21
212.6348944659
  0
LINE
  5
2A4
100
AcDbEntity
  8
0
100
AcDbLine
 62
7
  6
CONTINUOUS
 10
347.2790039805
 20
213.8476604487
 11
348.7040039805
 21
213.8476604487
  0
LINE
  5
2A5
100
AcDbEntity
  8
0
100
AcDbLine
 62
7
  6
CONTINUOUS
 10
351.0790039805
 20
213.8476604487
 11
351.3956707982
 21
213.8476604487
  0
LINE
  5
2A6
100
AcDbEntity
  8
RUNDUNGEN
100
AcDbLine
 62
7
  6
CONTINUOUS
 10
274.357927087
 20
213.9327668304
 11
209.3583595875
 21
213.9327668304
  0
LINE
  5
2A7
100
AcDbEntity
  8
RUNDUNGEN
100
AcDbLine
 62
7
  6
CONTINUOUS
 10
110.3581706074
 20
213.9327668304
 11
175.3581706074
 21
213.9327668304
  0
LINE
  5
2A8
100
AcDbEntity
  8
0
100
AcDbLine
 62
7
  6
CONTINUOUS
 10
209.3581706074
 20
213.9327668304
 11
210.090221415
 21
213.9327668304
  0
LINE
  5
2A9
100
AcDbEntity
  8
0
100
AcDbLine
 62
7
  6
CONTINUOUS
 10
356.3040039805
 20
214.3327668304
 11
355.8290039805
 21
214.3327668304
  0
LINE
  5
2AA
100
AcDbEntity
  8
0
100
AcDbLine
 62
7
  6
CONTINUOUS
 10
353.8498373893
 20
214.3327668304
 11
353.2956705717
 21
214.3327668304
  0
LINE
  5
2AB
100
AcDbEntity
  8
0
100
AcDbLine
 62
7
  6
CONTINUOUS
 10
351.3956707982
 20
214.3327668304
 11
351.0790039805
 21
214.3327668304
  0
LINE
  5
2AC
100
AcDbEntity
  8
0
100
AcDbLine
 62
7
  6
CONTINUOUS
 10
349.1790039805
 20
214.3327668304
 11
347.2790039805
 21
214.3327668304
  0
LINE
  5
2AD
100
AcDbEntity
  8
BEZUGSACHSEN
100
AcDbLine
 62
7
  6
CONTINUOUS
 10
356.3581706074
 20
214.9327668304
 11
346.3581706074
 21
214.9327668304
  0
LINE
  5
2AE
100
AcDbEntity
  8
0
100
AcDbLine
 62
7
  6
CONTINUOUS
 10
341.3581706074
 20
214.9327668304
 11
296.3581706074
 21
214.9327668304
  0
LINE
  5
2AF
100
AcDbEntity
  8
0
100
AcDbLine
 62
7
  6
CONTINUOUS
 10
277.3576650299
 20
214.9327668304
 11
252.1081706074
 21
214.9327668304
  0
LINE
  5
2B0
100
AcDbEntity
  8
RUNDUNGEN
100
AcDbLine
 62
7
  6
CONTINUOUS
 10
28.3581706074
 20
214.9327668304
 11
38.3581706074
 21
214.9327668304
  0
LINE
  5
2B1
100
AcDbEntity
  8
0
100
AcDbLine
 62
7
  6
CONTINUOUS
 10
43.3581706074
 20
214.9327668304
 11
64.3581706074
 21
214.9327668304
  0
LINE
  5
2B2
100
AcDbEntity
  8
0
100
AcDbLine
 62
7
  6
CONTINUOUS
 10
69.3581706074
 20
214.9327668304
 11
89.3581706074
 21
214.9327668304
  0
LINE
  5
2B3
100
AcDbEntity
  8
0
100
AcDbLine
 62
7
  6
CONTINUOUS
 10
107.3581706074
 20
214.9327668304
 11
137.6081706074
 21
214.9327668304
  0
LINE
  5
2B4
100
AcDbEntity
  8
RUNDUNGEN
100
AcDbLine
 62
7
  6
CONTINUOUS
 10
252.1081706074
 20
214.9327668304
 11
277.3576650299
 21
214.9327668304
  0
LINE
  5
2B5
100
AcDbEntity
  8
RUNDUNGEN
100
AcDbLine
 62
7
  6
CONTINUOUS
 10
296.3581706074
 20
214.9327668304
 11
341.3581706074
 21
214.9327668304
  0
LINE
  5
2B6
100
AcDbEntity
  8
0
100
AcDbLine
 62
7
  6
CONTINUOUS
 10
43.3581706074
 20
215.3944184151
 11
64.3581706074
 21
215.3944184151
  0
LINE
  5
2B7
100
AcDbEntity
  8
0
100
AcDbLine
 62
7
  6
CONTINUOUS
 10
69.3581706074
 20
215.3944184151
 11
89.3581706074
 21
215.3944184151
  0
LINE
  5
2B8
100
AcDbEntity
  8
0
100
AcDbLine
 62
7
  6
CONTINUOUS
 10
106.8260115957
 20
215.3944184151
 11
137.6081706074
 21
215.3944184151
  0
LINE
  5
2B9
100
AcDbEntity
  8
0
100
AcDbLine
 62
7
  6
CONTINUOUS
 10
100.1866364205
 20
240.6312299344
 11
106.7721370527
 21
238.2343037265
  0
LINE
  5
2BA
100
AcDbEntity
  8
0
100
AcDbLine
 62
7
  6
CONTINUOUS
 10
249.3581706074
 20
226.1827668304
 11
249.3581706074
 21
217.6827668304
  0
LINE
  5
2BB
100
AcDbEntity
  8
0
100
AcDbLine
 62
7
  6
CONTINUOUS
 10
252.1081706074
 20
228.9327668304
 11
252.1081706074
 21
214.9327668304
  0
LINE
  5
2BC
100
AcDbEntity
  8
0
100
AcDbLine
 62
7
  6
CONTINUOUS
 10
249.3581706074
 20
217.6827668304
 11
243.3581706074
 21
217.6827668304
  0
LINE
  5
2BD
100
AcDbEntity
  8
0
100
AcDbLine
 62
7
  6
CONTINUOUS
 10
140.3581706074
 20
217.6827668304
 11
146.3581706074
 21
217.6827668304
  0
LINE
  5
2BE
100
AcDbEntity
  8
BEZUGSACHSEN
100
AcDbLine
 62
7
  6
CONTINUOUS
 10
15.6865027455
 20
218.2327668304
 11
22.3581706074
 21
218.2327668304
  0
LINE
  5
2BF
100
AcDbEntity
  8
RUNDUNGEN
100
AcDbLine
 62
7
  6
CONTINUOUS
 10
15.68620067
 20
218.2327668304
 11
30.4581706074
 21
218.2327668304
  0
LINE
  5
2C0
100
AcDbEntity
  8
BEZUGSACHSEN
100
AcDbLine
 62
7
  6
CONTINUOUS
 10
354.2581706074
 20
218.2327668304
 11
369.0301405449
 21
218.2327668304
  0
LINE
  5
2C1
100
AcDbEntity
  8
0
100
AcDbLine
 62
7
  6
CONTINUOUS
 10
140.3581706074
 20
218.4958350592
 11
146.3581706074
 21
218.4958350592
  0
LINE
  5
2C2
100
AcDbEntity
  8
0
100
AcDbLine
 62
7
  6
CONTINUOUS
 10
48.3581706074
 20
219.4327668304
 11
64.3581706074
 21
219.4327668304
  0
LINE
  5
2C3
100
AcDbEntity
  8
0
100
AcDbLine
 62
7
  6
CONTINUOUS
 10
69.3581706074
 20
219.4327668304
 11
89.3581706074
 21
219.4327668304
  0
LINE
  5
2C4
100
AcDbEntity
  8
0
100
AcDbLine
 62
7
  6
CONTINUOUS
 10
105.3581706074
 20
219.4327668304
 11
147.0726367015
 21
219.4327668304
  0
LINE
  5
2C5
100
AcDbEntity
  8
BEZUGSACHSEN
100
AcDbLine
 62
7
  6
CONTINUOUS
 10
369.0298384694
 20
225.6327668304
 11
362.3581706074
 21
225.6327668304
  0
LINE
  5
2C6
100
AcDbEntity
  8
BEZUGSACHSEN
100
AcDbLine
 62
7
  6
CONTINUOUS
 10
15.6865027455
 20
225.6327668304
 11
30.4581706074
 21
225.6327668304
  0
LINE
  5
2C7
100
AcDbEntity
  8
RUNDUNGEN
100
AcDbLine
 62
7
  6
CONTINUOUS
 10
354.2581706074
 20
225.6327668304
 11
369.0301405449
 21
225.6327668304
  0
LINE
  5
2C8
100
AcDbEntity
  8
0
100
AcDbLine
 62
7
  6
CONTINUOUS
 10
249.3581706074
 20
226.1827668304
 11
243.3581706074
 21
226.1827668304
  0
LINE
  5
2C9
100
AcDbEntity
  8
0
100
AcDbLine
 62
7
  6
CONTINUOUS
 10
140.3581706074
 20
226.1827668304
 11
146.3581706074
 21
226.1827668304
  0
LINE
  5
2CA
100
AcDbEntity
  8
RUNDUNGEN
100
AcDbLine
 62
7
  6
CONTINUOUS
 10
356.3581706074
 20
228.9327668304
 11
346.3581706074
 21
228.9327668304
  0
LINE
  5
2CB
100
AcDbEntity
  8
0
100
AcDbLine
 62
7
  6
CONTINUOUS
 10
341.3581706074
 20
228.9327668304
 11
296.3581706074
 21
228.9327668304
  0
LINE
  5
2CC
100
AcDbEntity
  8
0
100
AcDbLine
 62
7
  6
CONTINUOUS
 10
277.3533239567
 20
228.9327668304
 11
252.1081706074
 21
228.9327668304
  0
LINE
  5
2CD
100
AcDbEntity
  8
BEZUGSACHSEN
100
AcDbLine
 62
7
  6
CONTINUOUS
 10
28.3581706074
 20
228.9327668304
 11
38.3581706074
 21
228.9327668304
  0
LINE
  5
2CE
100
AcDbEntity
  8
0
100
AcDbLine
 62
7
  6
CONTINUOUS
 10
43.3581706074
 20
228.9327668304
 11
64.3581706074
 21
228.9327668304
  0
LINE
  5
2CF
100
AcDbEntity
  8
0
100
AcDbLine
 62
7
  6
CONTINUOUS
 10
69.3581706074
 20
228.9327668304
 11
89.3581706074
 21
228.9327668304
  0
LINE
  5
2D0
100
AcDbEntity
  8
0
100
AcDbLine
 62
7
  6
CONTINUOUS
 10
107.3596799008
 20
228.9327668304
 11
137.6081706074
 21
228.9327668304
  0
LINE
  5
2D1
100
AcDbEntity
  8
RUNDUNGEN
100
AcDbLine
 62
7
  6
CONTINUOUS
 10
252.1081706074
 20
228.9327668304
 11
277.3533239567
 21
228.9327668304
  0
LINE
  5
2D2
100
AcDbEntity
  8
RUNDUNGEN
100
AcDbLine
 62
7
  6
CONTINUOUS
 10
296.3581706074
 20
228.9327668304
 11
341.3581706074
 21
228.9327668304
  0
LINE
  5
2D3
100
AcDbEntity
  8
0
100
AcDbLine
 62
7
  6
CONTINUOUS
 10
28.4123372344
 20
229.5327668304
 11
28.8873372344
 21
229.5327668304
  0
LINE
  5
2D4
100
AcDbEntity
  8
0
100
AcDbLine
 62
7
  6
CONTINUOUS
 10
30.8665038255
 20
229.5327668304
 11
31.4206706432
 21
229.5327668304
  0
LINE
  5
2D5
100
AcDbEntity
  8
0
100
AcDbLine
 62
7
  6
CONTINUOUS
 10
33.3206704167
 20
229.5327668304
 11
33.6373372344
 21
229.5327668304
  0
LINE
  5
2D6
100
AcDbEntity
  8
0
100
AcDbLine
 62
7
  6
CONTINUOUS
 10
35.5373372344
 20
229.5327668304
 11
37.4373372344
 21
229.5327668304
  0
LINE
  5
2D7
100
AcDbEntity
  8
0
100
AcDbLine
 62
7
  6
CONTINUOUS
 10
210.090221415
 20
229.9327668304
 11
209.3581706074
 21
229.9327668304
  0
LINE
  5
2D8
100
AcDbEntity
  8
RUNDUNGEN
100
AcDbLine
 62
7
  6
CONTINUOUS
 10
175.3581706074
 20
229.9327668304
 11
110.3582159787
 21
229.9327668304
  0
LINE
  5
2D9
100
AcDbEntity
  8
RUNDUNGEN
100
AcDbLine
 62
7
  6
CONTINUOUS
 10
209.3581706074
 20
229.9327668304
 11
274.3581040232
 21
229.9327668304
  0
LINE
  5
2DA
100
AcDbEntity
  8
0
100
AcDbLine
 62
7
  6
CONTINUOUS
 10
37.4373372344
 20
230.0178732122
 11
36.0123372344
 21
230.0178732122
  0
LINE
  5
2DB
100
AcDbEntity
  8
0
100
AcDbLine
 62
7
  6
CONTINUOUS
 10
33.6373372344
 20
230.0178732122
 11
33.3206704167
 21
230.0178732122
  0
LINE
  5
2DC
100
AcDbEntity
  8
0
100
AcDbLine
 62
7
  6
CONTINUOUS
 10
346.5665039805
 20
214.0902136395
 11
346.2498376158
 21
213.7668093945
  0
LINE
  5
2DD
100
AcDbEntity
  8
0
100
AcDbLine
 62
7
  6
CONTINUOUS
 10
350.3665039805
 20
214.0902136395
 11
350.0498371628
 21
213.7668093945
  0
LINE
  5
2DE
100
AcDbEntity
  8
0
100
AcDbLine
 62
7
  6
CONTINUOUS
 10
353.9290039805
 20
211.9072349782
 11
354.0873373893
 21
212.0689370866
  0
LINE
  5
2DF
100
AcDbEntity
  8
0
100
AcDbLine
 62
7
  6
CONTINUOUS
 10
28.8873372344
 20
231.2306391949
 11
30.23317053
 21
231.2306391949
  0
LINE
  5
2E0
100
AcDbEntity
  8
0
100
AcDbLine
 62
7
  6
CONTINUOUS
 10
30.3915038255
 20
231.7157455201
 11
28.8873372344
 21
231.7157455201
  0
LINE
  5
2E1
100
AcDbEntity
  8
0
100
AcDbLine
 62
7
  6
CONTINUOUS
 10
36.0123372344
 20
232.8476605053
 11
37.4373372344
 21
232.8476605053
  0
LINE
  5
2E2
100
AcDbEntity
  8
0
100
AcDbLine
 62
7
  6
CONTINUOUS
 10
28.8873372344
 20
232.9285115595
 11
30.3915038255
 21
232.9285115595
  0
LINE
  5
2E3
100
AcDbEntity
  8
0
100
AcDbLine
 62
7
  6
CONTINUOUS
 10
37.4373372344
 20
233.3327668304
 11
35.5373372344
 21
233.3327668304
  0
LINE
  5
2E4
100
AcDbEntity
  8
0
100
AcDbLine
 62
7
  6
CONTINUOUS
 10
34.904004052
 20
233.3327668304
 11
34.429004052
 21
233.3327668304
  0
LINE
  5
2E5
100
AcDbEntity
  8
0
100
AcDbLine
 62
7
  6
CONTINUOUS
 10
32.529004052
 20
233.3327668304
 11
32.0540038255
 21
233.3327668304
  0
LINE
  5
2E6
100
AcDbEntity
  8
0
100
AcDbLine
 62
7
  6
CONTINUOUS
 10
30.3123372344
 20
233.3327668304
 11
28.4123372344
 21
233.3327668304
  0
LINE
  5
2E7
100
AcDbEntity
  8
BEZUGSACHSEN
100
AcDbLine
 62
7
  6
CONTINUOUS
 10
38.3581706074
 20
233.9327668304
 11
28.3581706074
 21
233.9327668304
  0
LINE
  5
2E8
100
AcDbEntity
  8
RUNDUNGEN
100
AcDbLine
 62
7
  6
CONTINUOUS
 10
346.3581706074
 20
233.9327668304
 11
356.3581706074
 21
233.9327668304
  0
LINE
  5
2E9
100
AcDbEntity
  8
0
100
AcDbLine
 62
7
  6
CONTINUOUS
 10
108.4822377693
 20
237.9327668304
 11
174.6261197999
 21
237.9327668304
  0
LINE
  5
2EA
100
AcDbEntity
  8
0
100
AcDbLine
 62
7
  6
CONTINUOUS
 10
210.090221415
 20
237.9327668304
 11
293.8756947546
 21
237.9327668304
  0
LINE
  5
2EB
100
AcDbEntity
  8
0
100
AcDbLine
 62
7
  6
CONTINUOUS
 10
365.8496447833
 20
238.4327668304
 11
365.6470947802
 21
238.4327668304
  0
LINE
  5
2EC
100
AcDbEntity
  8
RUNDUNGEN
100
AcDbLine
 62
7
  6
CONTINUOUS
 10
365.6470947802
 20
238.4327668304
 11
344.3581706074
 21
238.4327668304
  0
LINE
  5
2ED
100
AcDbEntity
  8
BEZUGSACHSEN
100
AcDbLine
 62
7
  6
CONTINUOUS
 10
18.8584501781
 20
238.4327668304
 11
40.3581706074
 21
238.4327668304
  0
LINE
  5
2EE
100
AcDbEntity
  8
BEZUGSACHSEN
100
AcDbLine
 62
7
  6
CONTINUOUS
 10
365.6470947802
 20
238.4327668304
 11
365.8578910368
 21
238.4327668304
  0
LINE
  5
2EF
100
AcDbEntity
  8
0
100
AcDbLine
 62
7
  6
CONTINUOUS
 10
207.2863738377
 20
238.9327668304
 11
204.3581706074
 21
238.9327668304
  0
LINE
  5
2F0
100
AcDbEntity
  8
0
100
AcDbLine
 62
7
  6
CONTINUOUS
 10
180.3581706074
 20
238.9327668304
 11
177.4299673772
 21
238.9327668304
  0
LINE
  5
2F1
100
AcDbEntity
  8
RUNDUNGEN
100
AcDbLine
 62
7
  6
CONTINUOUS
 10
98.4765357039
 20
240.9327668304
 11
90.3581706074
 21
240.9327668304
  0
LINE
  5
2F2
100
AcDbEntity
  8
BEZUGSACHSEN
100
AcDbLine
 62
7
  6
CONTINUOUS
 10
68.8581706074
 20
240.9327668304
 11
65.8581706074
 21
240.9327668304
  0
LINE
  5
2F3
100
AcDbEntity
  8
0
100
AcDbLine
 62
7
  6
CONTINUOUS
 10
90.3581706074
 20
240.9327668304
 11
98.4765357039
 21
240.9327668304
  0
LINE
  5
2F4
100
AcDbEntity
  8
0
100
AcDbLine
 62
7
  6
CONTINUOUS
 10
346.8831703452
 20
210.6136178846
 11
347.2790039805
 21
210.5327668304
  0
LINE
  5
2F5
100
AcDbEntity
  8
0
100
AcDbLine
 62
7
  6
CONTINUOUS
 10
354.0081705717
 20
210.6136178846
 11
354.4040039805
 21
210.5327668304
  0
LINE
  5
2F6
100
AcDbEntity
  8
0
100
AcDbLine
 62
7
  6
CONTINUOUS
 10
208.2863738377
 20
238.664817638
 11
209.090221415
 21
238.2007160229
  0
LINE
  5
2F7
100
AcDbEntity
  8
0
100
AcDbLine
 62
7
  6
CONTINUOUS
 10
242.3581706074
 20
218.6827668304
 11
243.3581706074
 21
217.6827668304
  0
LINE
  5
2F8
100
AcDbEntity
  8
0
100
AcDbLine
 62
7
  6
CONTINUOUS
 10
252.1081706074
 20
214.9327668304
 11
249.3581706074
 21
217.6827668304
  0
LINE
  5
2F9
100
AcDbEntity
  8
RUNDUNGEN
100
AcDbLine
 62
7
  6
CONTINUOUS
 10
279.3581706074
 20
218.9330180425
 11
279.3581706074
 21
224.9325401134
  0
LINE
  5
2FA
100
AcDbEntity
  8
0
100
AcDbLine
 62
7
  6
CONTINUOUS
 10
187.3581706074
 20
247.9327668304
 11
197.3581706074
 21
247.9327668304
  0
LINE
  5
2FB
100
AcDbEntity
  8
0
100
AcDbLine
 62
7
  6
CONTINUOUS
 10
181.3581706074
 20
248.9327668304
 11
187.3581706074
 21
248.9327668304
  0
LINE
  5
2FC
100
AcDbEntity
  8
0
100
AcDbLine
 62
7
  6
CONTINUOUS
 10
197.3581706074
 20
248.9327668304
 11
203.3581706074
 21
248.9327668304
  0
LINE
  5
2FD
100
AcDbEntity
  8
0
100
AcDbLine
 62
7
  6
CONTINUOUS
 10
351.7915039805
 20
214.2519157692
 11
351.3956707982
 21
214.3327668304
  0
LINE
  5
2FE
100
AcDbEntity
  8
0
100
AcDbLine
 62
7
  6
CONTINUOUS
 10
347.2790039805
 20
211.0178731556
 11
346.9623376158
 21
211.0987242098
  0
LINE
  5
2FF
100
AcDbEntity
  8
0
100
AcDbLine
 62
7
  6
CONTINUOUS
 10
351.3956707982
 20
213.8476604487
 11
351.7123371628
 21
213.7668093945
  0
LINE
  5
300
100
AcDbEntity
  8
0
100
AcDbLine
 62
7
  6
CONTINUOUS
 10
296.3581706074
 20
231.4471312847
 11
296.3581706074
 21
212.4184023762
  0
LINE
  5
301
100
AcDbEntity
  8
0
100
AcDbLine
 62
7
  6
CONTINUOUS
 10
295.8647385453
 20
207.7237099039
 11
296.3581706074
 21
212.4184023762
  0
LINE
  5
302
100
AcDbEntity
  8
0
100
AcDbLine
 62
7
  6
CONTINUOUS
 10
346.5665039805
 20
213.3625540669
 11
346.7248376158
 21
213.6051072295
  0
LINE
  5
303
100
AcDbEntity
  8
0
100
AcDbLine
 62
7
  6
CONTINUOUS
 10
350.3665039805
 20
213.3625540669
 11
350.5248371628
 21
213.6051072295
  0
LINE
  5
304
100
AcDbEntity
  8
0
100
AcDbLine
 62
7
  6
CONTINUOUS
 10
353.6915039805
 20
212.3114902491
 11
353.4540039805
 21
211.9880860324
  0
LINE
  5
305
100
AcDbEntity
  8
BEZUGSACHSEN
100
AcDbLine
 62
7
  6
CONTINUOUS
 10
371.5775104078
 20
210.0533089013
 11
367.9889225152
 21
206.3372173549
  0
LINE
  5
306
100
AcDbEntity
  8
0
100
AcDbLine
 62
7
  6
CONTINUOUS
 10
37.754003599
 20
230.0987242664
 11
37.4373372344
 21
230.0178732122
  0
LINE
  5
307
100
AcDbEntity
  8
0
100
AcDbLine
 62
7
  6
CONTINUOUS
 10
33.954004052
 20
230.0987242664
 11
33.6373372344
 21
230.0178732122
  0
LINE
  5
308
100
AcDbEntity
  8
0
100
AcDbLine
 62
7
  6
CONTINUOUS
 10
37.4373372344
 20
229.5327668304
 11
37.8331708697
 21
229.6136178917
  0
LINE
  5
309
100
AcDbEntity
  8
0
100
AcDbLine
 62
7
  6
CONTINUOUS
 10
33.6373372344
 20
229.5327668304
 11
34.0331704167
 21
229.6136178917
  0
LINE
  5
30A
100
AcDbEntity
  8
0
100
AcDbLine
 62
7
  6
CONTINUOUS
 10
354.3248373893
 20
210.9370221014
 11
354.0873373893
 21
211.0178731556
  0
LINE
  5
30B
100
AcDbEntity
  8
0
100
AcDbLine
 62
7
  6
CONTINUOUS
 10
295.8647385453
 20
236.141823757
 11
296.3581706074
 21
231.4471312847
  0
LINE
  5
30C
100
AcDbEntity
  8
0
100
AcDbLine
 62
7
  6
CONTINUOUS
 10
346.2498376158
 20
213.7668093945
 11
346.0915039805
 21
213.4434051211
  0
LINE
  5
30D
100
AcDbEntity
  8
0
100
AcDbLine
 62
7
  6
CONTINUOUS
 10
350.0498371628
 20
213.7668093945
 11
349.8915039805
 21
213.4434051211
  0
LINE
  5
30E
100
AcDbEntity
  8
0
100
AcDbLine
 62
7
  6
CONTINUOUS
 10
346.5665039805
 20
210.775319993
 11
346.8831703452
 21
210.6136178846
  0
LINE
  5
30F
100
AcDbEntity
  8
0
100
AcDbLine
 62
7
  6
CONTINUOUS
 10
352.1081707982
 20
214.0902136395
 11
351.7915039805
 21
214.2519157692
  0
LINE
  5
310
100
AcDbEntity
  8
0
100
AcDbLine
 62
7
  6
CONTINUOUS
 10
346.9623376158
 20
211.0987242098
 11
346.7248376158
 21
211.2604263182
  0
LINE
  5
311
100
AcDbEntity
  8
0
100
AcDbLine
 62
7
  6
CONTINUOUS
 10
351.7123371628
 20
213.7668093945
 11
351.9498371628
 21
213.6051072295
  0
LINE
  5
312
100
AcDbEntity
  8
0
100
AcDbLine
 62
7
  6
CONTINUOUS
 10
346.0915039805
 20
213.4434051211
 11
346.0123376158
 21
213.0391498501
  0
LINE
  5
313
100
AcDbEntity
  8
0
100
AcDbLine
 62
7
  6
CONTINUOUS
 10
349.8915039805
 20
213.4434051211
 11
349.8123371628
 21
213.0391498501
  0
LINE
  5
314
100
AcDbEntity
  8
0
100
AcDbLine
 62
7
  6
CONTINUOUS
 10
346.4873376158
 20
213.0391498501
 11
346.5665039805
 21
213.3625540669
  0
LINE
  5
315
100
AcDbEntity
  8
0
100
AcDbLine
 62
7
  6
CONTINUOUS
 10
350.2873371628
 20
213.0391498501
 11
350.3665039805
 21
213.3625540669
  0
LINE
  5
316
100
AcDbEntity
  8
0
100
AcDbLine
 62
7
  6
CONTINUOUS
 10
353.4540039805
 20
211.9880860324
 11
353.3748373893
 21
211.7455328698
  0
LINE
  5
317
100
AcDbEntity
  8
0
100
AcDbLine
 62
7
  6
CONTINUOUS
 10
353.8498373893
 20
211.6646818156
 11
353.9290039805
 21
211.9072349782
  0
LINE
  5
318
100
AcDbEntity
  8
0
100
AcDbLine
 62
7
  6
CONTINUOUS
 10
353.6915039805
 20
210.8561710472
 11
354.0081705717
 21
210.6136178846
  0
LINE
  5
319
100
AcDbEntity
  8
0
100
AcDbLine
 62
7
  6
CONTINUOUS
 10
346.2498376158
 20
211.0987242098
 11
346.5665039805
 21
210.775319993
  0
LINE
  5
31A
100
AcDbEntity
  8
RUNDUNGEN
100
AcDbLine
 62
7
  6
CONTINUOUS
 10
342.3581706074
 20
236.4327668304
 11
342.3581706074
 21
207.4327668304
  0
LINE
  5
31B
100
AcDbEntity
  8
0
100
AcDbLine
 62
7
  6
CONTINUOUS
 10
346.0123376158
 20
213.0391498501
 11
346.0123376158
 21
211.826383924
  0
LINE
  5
31C
100
AcDbEntity
  8
0
100
AcDbLine
 62
7
  6
CONTINUOUS
 10
346.4873376158
 20
211.826383924
 11
346.4873376158
 21
213.0391498501
  0
LINE
  5
31D
100
AcDbEntity
  8
0
100
AcDbLine
 62
7
  6
CONTINUOUS
 10
348.7040039805
 20
213.8476604487
 11
348.7040039805
 21
211.0178731556
  0
LINE
  5
31E
100
AcDbEntity
  8
0
100
AcDbLine
 62
7
  6
CONTINUOUS
 10
349.1790039805
 20
210.5327668304
 11
349.1790039805
 21
214.3327668304
  0
LINE
  5
31F
100
AcDbEntity
  8
0
100
AcDbLine
 62
7
  6
CONTINUOUS
 10
349.8123371628
 20
213.0391498501
 11
349.8123371628
 21
210.5327668304
  0
LINE
  5
320
100
AcDbEntity
  8
0
100
AcDbLine
 62
7
  6
CONTINUOUS
 10
350.2873371628
 20
210.5327668304
 11
350.2873371628
 21
213.0391498501
  0
LINE
  5
321
100
AcDbEntity
  8
0
100
AcDbLine
 62
7
  6
CONTINUOUS
 10
352.1873371628
 20
213.0391498501
 11
352.1873371628
 21
210.5327668304
  0
LINE
  5
322
100
AcDbEntity
  8
0
100
AcDbLine
 62
7
  6
CONTINUOUS
 10
352.6623373893
 20
210.5327668304
 11
352.6623373893
 21
213.0391498501
  0
LINE
  5
323
100
AcDbEntity
  8
0
100
AcDbLine
 62
7
  6
CONTINUOUS
 10
353.3748373893
 20
211.7455328698
 11
353.3748373893
 21
211.4221284265
  0
LINE
  5
324
100
AcDbEntity
  8
0
100
AcDbLine
 62
7
  6
CONTINUOUS
 10
354.0873373893
 20
211.0178731556
 11
353.9290039805
 21
211.179575264
  0
LINE
  5
325
100
AcDbEntity
  8
0
100
AcDbLine
 62
7
  6
CONTINUOUS
 10
352.4248371628
 20
213.7668093945
 11
352.1081707982
 21
214.0902136395
  0
LINE
  5
326
100
AcDbEntity
  8
0
100
AcDbLine
 62
7
  6
CONTINUOUS
 10
353.4540039805
 20
211.179575264
 11
353.6915039805
 21
210.8561710472
  0
LINE
  5
327
100
AcDbEntity
  8
0
100
AcDbLine
 62
7
  6
CONTINUOUS
 10
346.7248376158
 20
211.2604263182
 11
346.5665039805
 21
211.5029797072
  0
LINE
  5
328
100
AcDbEntity
  8
0
100
AcDbLine
 62
7
  6
CONTINUOUS
 10
346.0915039805
 20
211.4221284265
 11
346.2498376158
 21
211.0987242098
  0
LINE
  5
329
100
AcDbEntity
  8
0
100
AcDbLine
 62
7
  6
CONTINUOUS
 10
346.0123376158
 20
211.826383924
 11
346.0915039805
 21
211.4221284265
  0
LINE
  5
32A
100
AcDbEntity
  8
0
100
AcDbLine
 62
7
  6
CONTINUOUS
 10
353.8498373893
 20
211.4221284265
 11
353.8498373893
 21
211.6646818156
  0
LINE
  5
32B
100
AcDbEntity
  8
0
100
AcDbLine
 62
7
  6
CONTINUOUS
 10
355.8290039805
 20
214.3327668304
 11
355.8290039805
 21
212.6348944659
  0
LINE
  5
32C
100
AcDbEntity
  8
0
100
AcDbLine
 62
7
  6
CONTINUOUS
 10
355.8290039805
 20
212.1497881408
 11
355.8290039805
 21
210.9370221014
  0
LINE
  5
32D
100
AcDbEntity
  8
0
100
AcDbLine
 62
7
  6
CONTINUOUS
 10
356.3040039805
 20
210.5327668304
 11
356.3040039805
 21
214.3327668304
  0
LINE
  5
32E
100
AcDbEntity
  8
0
100
AcDbLine
 62
7
  6
CONTINUOUS
 10
356.9981706074
 20
225.6327668304
 11
356.9981706074
 21
218.2327668304
  0
LINE
  5
32F
100
AcDbEntity
  8
0
100
AcDbLine
 62
7
  6
CONTINUOUS
 10
351.9498371628
 20
213.6051072295
 11
352.1081707982
 21
213.3625540669
  0
LINE
  5
330
100
AcDbEntity
  8
0
100
AcDbLine
 62
7
  6
CONTINUOUS
 10
352.5831705717
 20
213.4434051211
 11
352.4248371628
 21
213.7668093945
  0
LINE
  5
331
100
AcDbEntity
  8
0
100
AcDbLine
 62
7
  6
CONTINUOUS
 10
353.2956705717
 20
214.3327668304
 11
354.0081705717
 21
212.4731923575
  0
LINE
  5
332
100
AcDbEntity
  8
0
100
AcDbLine
 62
7
  6
CONTINUOUS
 10
354.4831706849
 20
212.6348944659
 11
353.8498373893
 21
214.3327668304
  0
LINE
  5
333
100
AcDbEntity
  8
0
100
AcDbLine
 62
7
  6
CONTINUOUS
 10
353.3748373893
 20
211.4221284265
 11
353.4540039805
 21
211.179575264
  0
LINE
  5
334
100
AcDbEntity
  8
0
100
AcDbLine
 62
7
  6
CONTINUOUS
 10
353.9290039805
 20
211.179575264
 11
353.8498373893
 21
211.4221284265
  0
LINE
  5
335
100
AcDbEntity
  8
0
100
AcDbLine
 62
7
  6
CONTINUOUS
 10
346.5665039805
 20
211.5029797072
 11
346.4873376158
 21
211.826383924
  0
LINE
  5
336
100
AcDbEntity
  8
0
100
AcDbLine
 62
7
  6
CONTINUOUS
 10
352.1081707982
 20
213.3625540669
 11
352.1873371628
 21
213.0391498501
  0
LINE
  5
337
100
AcDbEntity
  8
0
100
AcDbLine
 62
7
  6
CONTINUOUS
 10
352.6623373893
 20
213.0391498501
 11
352.5831705717
 21
213.4434051211
  0
LINE
  5
338
100
AcDbEntity
  8
0
100
AcDbLine
 62
7
  6
CONTINUOUS
 10
367.7181706074
 20
225.6327668304
 11
367.7181706074
 21
218.2327668304
  0
LINE
  5
339
100
AcDbEntity
  8
0
100
AcDbLine
 62
7
  6
CONTINUOUS
 10
371.8581706074
 20
233.1175663891
 11
371.8581706074
 21
231.9857894433
  0
LINE
  5
33A
100
AcDbEntity
  8
BEZUGSACHSEN
100
AcDbLine
 62
7
  6
CONTINUOUS
 10
371.8581706074
 20
211.8797442176
 11
371.8581706074
 21
210.7479672718
  0
LINE
  5
33B
100
AcDbEntity
  8
0
100
AcDbLine
 62
7
  6
CONTINUOUS
 10
367.9889225152
 20
237.528316306
 11
371.5775104078
 21
233.8122247595
  0
LINE
  5
33C
100
AcDbEntity
  8
BEZUGSACHSEN
100
AcDbLine
 62
7
  6
CONTINUOUS
 10
42.3581706074
 20
363.0061337488
 11
42.3581706074
 21
347.0061337488
  0
LINE
  5
33D
100
AcDbEntity
  8
RUNDUNGEN
100
AcDbLine
 62
7
  6
CONTINUOUS
 10
64.3581706074
 20
337.5061337488
 11
64.3581706074
 21
372.5061337488
  0
LINE
  5
33E
100
AcDbEntity
  8
RUNDUNGEN
100
AcDbLine
 62
7
  6
CONTINUOUS
 10
69.3581706074
 20
373.5061337488
 11
69.3581706074
 21
336.5061337488
  0
LINE
  5
33F
100
AcDbEntity
  8
RUNDUNGEN
100
AcDbLine
 62
7
  6
CONTINUOUS
 10
89.3581706074
 20
373.0061337488
 11
89.3581706074
 21
337.0061337488
  0
LINE
  5
340
100
AcDbEntity
  8
RUNDUNGEN
100
AcDbLine
 62
7
  6
CONTINUOUS
 10
95.3581706074
 20
372.3008532968
 11
95.3581706074
 21
374.0060352692
  0
LINE
  5
341
100
AcDbEntity
  8
RUNDUNGEN
100
AcDbLine
 62
7
  6
CONTINUOUS
 10
114.8581706074
 20
341.0061337488
 11
114.8581706074
 21
339.5061337488
  0
LINE
  5
342
100
AcDbEntity
  8
0
100
AcDbLine
 62
7
  6
CONTINUOUS
 10
127.0581706074
 20
342.0061337488
 11
127.0581706074
 21
341.0061337488
  0
LINE
  5
343
100
AcDbEntity
  8
0
100
AcDbLine
 62
7
  6
CONTINUOUS
 10
128.4581706074
 20
342.0061337488
 11
128.4581706074
 21
341.0061337488
  0
LINE
  5
344
100
AcDbEntity
  8
0
100
AcDbLine
 62
7
  6
CONTINUOUS
 10
131.2581706074
 20
342.0061337488
 11
131.2581706074
 21
341.0061337488
  0
LINE
  5
345
100
AcDbEntity
  8
0
100
AcDbLine
 62
7
  6
CONTINUOUS
 10
132.6581706074
 20
342.0061337488
 11
132.6581706074
 21
341.0061337488
  0
LINE
  5
346
100
AcDbEntity
  8
RUNDUNGEN
100
AcDbLine
 62
7
  6
CONTINUOUS
 10
106.1013244447
 20
369.5638590428
 11
105.9654827157
 21
369.7256257251
  0
LINE
  5
347
100
AcDbEntity
  8
RUNDUNGEN
100
AcDbLine
 62
7
  6
CONTINUOUS
 10
105.9654714824
 20
369.7256153519
 11
105.9654052969
 21
369.7256950732
  0
LWPOLYLINE
  5
348
100
AcDbEntity
  8
RUNDUNGEN
100
AcDbPolyline
 62
7
  6
CONTINUOUS
 90
3
 70
0
 10
107.5150149035
 20
368.0244003036
 10
107.2519279899
 20
368.29535324
 10
106.9131077656
 20
368.6536623005
  0
LWPOLYLINE
  5
349
100
AcDbEntity
  8
RUNDUNGEN
100
AcDbPolyline
 62
7
  6
CONTINUOUS
 90
4
 70
0
 10
106.9175733765
 20
368.6489398291
 10
106.6076068763
 20
368.9866925049
 10
106.3348435255
 20
369.2931813574
 10
106.0941675216
 20
369.5722871829
  0
LINE
  5
34A
100
AcDbEntity
  8
RUNDUNGEN
100
AcDbLine
 62
7
  6
CONTINUOUS
 10
106.6160244372
 20
368.9773726168
 11
106.611595345
 21
368.982344627
  0
LWPOLYLINE
  5
34B
100
AcDbEntity
  8
RUNDUNGEN
100
AcDbPolyline
 62
7
  6
CONTINUOUS
 90
6
 70
0
 10
108.2325756266
 20
367.3939699373
 10
108.0898528062
 20
367.502615846
 10
107.9480729708
 20
367.6191150476
 10
107.8081348102
 20
367.7421237619
 10
107.6697920622
 20
367.8712723566
 10
107.5327533523
 20
368.0063833363
  0
LINE
  5
34C
100
AcDbEntity
  8
RUNDUNGEN
100
AcDbLine
 62
7
  6
CONTINUOUS
 10
164.8581706074
 20
341.0061213166
 11
164.8581706074
 21
339.5061337488
  0
LINE
  5
34D
100
AcDbEntity
  8
0
100
AcDbLine
 62
7
  6
CONTINUOUS
 10
181.3581706074
 20
328.0061337488
 11
187.3581706074
 21
328.0061337488
  0
LINE
  5
34E
100
AcDbEntity
  8
0
100
AcDbLine
 62
7
  6
CONTINUOUS
 10
197.3581706074
 20
328.0061337488
 11
203.3581706074
 21
328.0061337488
  0
LINE
  5
34F
100
AcDbEntity
  8
0
100
AcDbLine
 62
7
  6
CONTINUOUS
 10
187.3581706074
 20
329.0061337488
 11
197.3581706074
 21
329.0061337488
  0
LINE
  5
350
100
AcDbEntity
  8
BEZUGSACHSEN
100
AcDbLine
 62
7
  6
CONTINUOUS
 10
68.8581706074
 20
336.0061337488
 11
65.8581706074
 21
336.0061337488
  0
LINE
  5
351
100
AcDbEntity
  8
RUNDUNGEN
100
AcDbLine
 62
7
  6
CONTINUOUS
 10
68.8581706074
 20
336.0061337488
 11
65.8581706074
 21
336.0061337488
  0
LINE
  5
352
100
AcDbEntity
  8
0
100
AcDbLine
 62
7
  6
CONTINUOUS
 10
90.3581706074
 20
336.0061337488
 11
98.4765357039
 21
336.0061337488
  0
LINE
  5
353
100
AcDbEntity
  8
0
100
AcDbLine
 62
7
  6
CONTINUOUS
 10
175.6261197999
 20
338.7381845564
 11
176.4299673772
 21
338.2740829412
  0
LINE
  5
354
100
AcDbEntity
  8
RUNDUNGEN
100
AcDbLine
 62
7
  6
CONTINUOUS
 10
180.3581706074
 20
381.0061337488
 11
180.3581706074
 21
329.0061337488
  0
LINE
  5
355
100
AcDbEntity
  8
BEZUGSACHSEN
100
AcDbLine
 62
7
  6
CONTINUOUS
 10
181.3581706074
 20
360.5061337488
 11
181.3581706074
 21
349.5061337488
  0
LINE
  5
356
100
AcDbEntity
  8
RUNDUNGEN
100
AcDbLine
 62
7
  6
CONTINUOUS
 10
176.0030570175
 20
367.8606604966
 11
175.7826589957
 21
367.6380325946
  0
LINE
  5
357
100
AcDbEntity
  8
RUNDUNGEN
100
AcDbLine
 62
7
  6
CONTINUOUS
 10
175.794302926
 20
367.6497038047
 11
175.6105015081
 21
367.4666846866
  0
LINE
  5
358
100
AcDbEntity
  8
RUNDUNGEN
100
AcDbLine
 62
7
  6
CONTINUOUS
 10
175.6222484064
 20
367.4783031535
 11
175.4391885572
 21
367.2984969356
  0
LINE
  5
359
100
AcDbEntity
  8
RUNDUNGEN
100
AcDbLine
 62
7
  6
CONTINUOUS
 10
175.4510069151
 20
367.3100233616
 11
175.2687574501
 21
367.1335696884
  0
LWPOLYLINE
  5
35A
100
AcDbEntity
  8
RUNDUNGEN
100
AcDbPolyline
 62
7
  6
CONTINUOUS
 90
50
 70
0
 10
175.2806141939
 20
367.1449640608
 10
175.237325779
 20
367.1034352204
 10
175.2289240194
 20
367.0954717789
 10
175.2205479017
 20
367.0876115127
 10
175.2121959845
 20
367.079852728
 10
175.2038706728
 20
367.0721973243
 10
175.1955660564
 20
367.0646396041
 10
175.1872782528
 20
367.0571759341
 10
175.1790042518
 20
367.0498036286
 10
175.1707408191
 20
367.0425199498
 10
175.1624855442
 20
367.035323031
 10
175.154235849
 20
367.0282109912
 10
175.1459899365
 20
367.021182752
 10
175.137745897
 20
367.0142372553
 10
175.1295025648
 20
367.0073741839
 10
175.1212587153
 20
367.0005932729
 10
175.1130138373
 20
366.9938949432
 10
175.1047673718
 20
366.9872796645
 10
175.0965196135
 20
366.9807486741
 10
175.0882707714
 20
366.9743032105
 10
175.0800222927
 20
366.9679454635
 10
175.071776439
 20
366.9616780746
 10
175.0635353045
 20
366.9555035205
 10
175.0552995183
 20
366.9494232062
 10
175.047078177
 20
366.9434447235
 10
175.0388455394
 20
366.9375506251
 10
175.0307083302
 20
366.9318173376
 10
175.0227822141
 20
366.9263226806
 10
175.0149958094
 20
366.9210128264
 10
175.0073444314
 20
366.9158816082
 10
174.9997517294
 20
366.9108763184
 10
174.99216174
 20
366.9059609582
 10
174.9845324431
 20
366.9011111427
 10
174.9768211208
 20
366.8963044205
 10
174.9690022953
 20
366.89153136
 10
174.9610512954
 20
366.8867843402
 10
174.9529592005
 20
366.882066366
 10
174.9447200132
 20
366.8773834092
 10
174.9363447686
 20
366.8727521441
 10
174.9278492496
 20
366.8681923689
 10
174.9192690723
 20
366.863734582
 10
174.9106464065
 20
366.8594119681
 10
174.9020464749
 20
366.8552678558
 10
174.8935541608
 20
366.8513521804
 10
174.8852330289
 20
366.8477013064
 10
174.8773235171
 20
366.844416813
 10
174.8694618856
 20
366.8413495714
 10
174.861871863
 20
366.8385979
 10
174.8540250871
 20
366.8360055892
 10
174.8464469244
 20
366.8338074127
  0
LWPOLYLINE
  5
35B
100
AcDbEntity
  8
RUNDUNGEN
100
AcDbPolyline
 62
7
  6
CONTINUOUS
 90
18
 70
0
 10
180.3581706074
 20
370.2535792943
 10
180.3378291299
 20
370.2342205583
 10
180.2486104585
 20
370.153878749
 10
180.1445755037
 20
370.064914082
 10
180.0256508157
 20
369.9681398135
 10
179.8910859825
 20
369.8638377687
 10
179.7402134518
 20
369.7524532965
 10
179.5721655083
 20
369.6344073037
 10
179.3858629593
 20
369.5101453249
 10
179.1807053026
 20
369.380635334
 10
178.9561589513
 20
369.247097199
 10
178.7112411347
 20
369.1107300779
 10
178.4454830959
 20
368.9732978465
 10
178.1575303573
 20
368.8365522266
 10
177.8469049233
 20
368.7031559061
 10
177.5118816276
 20
368.5756979795
 10
177.1508043479
 20
368.4577889079
 10
176.9226119231
 20
368.3938503913
  0
LINE
  5
35C
100
AcDbEntity
  8
BEZUGSACHSEN
100
AcDbLine
 62
7
  6
CONTINUOUS
 10
363.2126807332
 20
346.0131185386
 11
362.8581706074
 21
346.0061337488
  0
LINE
  5
35D
100
AcDbEntity
  8
0
100
AcDbLine
 62
7
  6
CONTINUOUS
 10
207.2863738377
 20
338.0061337488
 11
204.3581706074
 21
338.0061337488
  0
LINE
  5
35E
100
AcDbEntity
  8
0
100
AcDbLine
 62
7
  6
CONTINUOUS
 10
180.3581706074
 20
338.0061337488
 11
177.4299673772
 21
338.0061337488
  0
LINE
  5
35F
100
AcDbEntity
  8
RUNDUNGEN
100
AcDbLine
 62
7
  6
CONTINUOUS
 10
293.8756947546
 20
339.0061337488
 11
277.1157383491
 21
339.0061337488
  0
LINE
  5
360
100
AcDbEntity
  8
0
100
AcDbLine
 62
7
  6
CONTINUOUS
 10
108.4822377693
 20
339.0061337488
 11
114.3581706074
 21
339.0061337488
  0
LINE
  5
361
100
AcDbEntity
  8
0
100
AcDbLine
 62
7
  6
CONTINUOUS
 10
165.3581706074
 20
339.0061337488
 11
174.6261197999
 21
339.0061337488
  0
LINE
  5
362
100
AcDbEntity
  8
0
100
AcDbLine
 62
7
  6
CONTINUOUS
 10
210.090221415
 20
339.0061337488
 11
227.3581706074
 21
339.0061337488
  0
LINE
  5
363
100
AcDbEntity
  8
0
100
AcDbLine
 62
7
  6
CONTINUOUS
 10
270.3581706074
 20
339.0061337488
 11
293.8756947546
 21
339.0061337488
  0
LINE
  5
364
100
AcDbEntity
  8
0
100
AcDbLine
 62
7
  6
CONTINUOUS
 10
257.7331706074
 20
341.0061337488
 11
253.2331706074
 21
341.0061337488
  0
LINE
  5
365
100
AcDbEntity
  8
0
100
AcDbLine
 62
7
  6
CONTINUOUS
 10
252.2331701306
 20
341.0061337488
 11
247.4831710843
 21
341.0061337488
  0
LINE
  5
366
100
AcDbEntity
  8
0
100
AcDbLine
 62
7
  6
CONTINUOUS
 10
246.4831706074
 20
341.0061337488
 11
241.7331708459
 21
341.0061337488
  0
LINE
  5
367
100
AcDbEntity
  8
0
100
AcDbLine
 62
7
  6
CONTINUOUS
 10
240.733170369
 20
341.0061337488
 11
236.2331707266
 21
341.0061337488
  0
LINE
  5
368
100
AcDbEntity
  8
0
100
AcDbLine
 62
7
  6
CONTINUOUS
 10
235.2331706074
 20
341.0061337488
 11
230.3581706074
 21
341.0061337488
  0
LINE
  5
369
100
AcDbEntity
  8
0
100
AcDbLine
 62
7
  6
CONTINUOUS
 10
132.6581706074
 20
341.0061337488
 11
127.0581706074
 21
341.0061337488
  0
LINE
  5
36A
100
AcDbEntity
  8
RUNDUNGEN
100
AcDbLine
 62
7
  6
CONTINUOUS
 10
115.8581706074
 20
342.0061337488
 11
163.8581706074
 21
342.0061337488
  0
LINE
  5
36B
100
AcDbEntity
  8
RUNDUNGEN
100
AcDbLine
 62
7
  6
CONTINUOUS
 10
228.8581706074
 20
342.0061337488
 11
268.8581706074
 21
342.0061337488
  0
LINE
  5
36C
100
AcDbEntity
  8
BEZUGSACHSEN
100
AcDbLine
 62
7
  6
CONTINUOUS
 10
196.2785252457
 20
342.5061337488
 11
188.3581706074
 21
342.5061337488
  0
LINE
  5
36D
100
AcDbEntity
  8
RUNDUNGEN
100
AcDbLine
 62
7
  6
CONTINUOUS
 10
196.3581706074
 20
342.5061337488
 11
188.4378159691
 21
342.5061337488
  0
LINE
  5
36E
100
AcDbEntity
  8
BEZUGSACHSEN
100
AcDbLine
 62
7
  6
CONTINUOUS
 10
195.3581706074
 20
344.0061337488
 11
189.3581706074
 21
344.0061337488
  0
LINE
  5
36F
100
AcDbEntity
  8
BEZUGSACHSEN
100
AcDbLine
 62
7
  6
CONTINUOUS
 10
362.8581706074
 20
346.0061337488
 11
343.3581706074
 21
346.0061337488
  0
LINE
  5
370
100
AcDbEntity
  8
BEZUGSACHSEN
100
AcDbLine
 62
7
  6
CONTINUOUS
 10
21.8581706074
 20
346.0061337488
 11
41.3581706074
 21
346.0061337488
  0
LINE
  5
371
100
AcDbEntity
  8
0
100
AcDbLine
 62
7
  6
CONTINUOUS
 10
341.3581706074
 20
348.0061337488
 11
296.3581706074
 21
348.0061337488
  0
LINE
  5
372
100
AcDbEntity
  8
0
100
AcDbLine
 62
7
  6
CONTINUOUS
 10
43.3581706074
 20
348.0061337488
 11
64.3581706074
 21
348.0061337488
  0
LINE
  5
373
100
AcDbEntity
  8
0
100
AcDbLine
 62
7
  6
CONTINUOUS
 10
69.3581706074
 20
348.0061337488
 11
89.3581706074
 21
348.0061337488
  0
LINE
  5
374
100
AcDbEntity
  8
BEZUGSACHSEN
100
AcDbLine
 62
7
  6
CONTINUOUS
 10
21.5036604817
 20
346.0131185386
 11
21.8581706075
 21
346.0061337488
  0
LINE
  5
375
100
AcDbEntity
  8
RUNDUNGEN
100
AcDbLine
 62
7
  6
CONTINUOUS
 10
109.0039065888
 20
366.9895327863
 11
109.0027052856
 21
366.9898608735
  0
LINE
  5
376
100
AcDbEntity
  8
RUNDUNGEN
100
AcDbLine
 62
7
  6
CONTINUOUS
 10
100.0588473339
 20
372.2195403361
 11
99.6958130649
 21
372.3271728123
  0
LWPOLYLINE
  5
377
100
AcDbEntity
  8
RUNDUNGEN
100
AcDbPolyline
 62
7
  6
CONTINUOUS
 90
11
 70
0
 10
109.0039109067
 20
366.9895492486
 10
108.9220817806
 20
367.0143242611
 10
108.7391428374
 20
367.0879477448
 10
108.5642760028
 20
367.1781843394
 10
108.3943146324
 20
367.2820177654
 10
108.2220613423
 20
367.4016677242
 10
108.0515435416
 20
367.5332688992
 10
107.8821102988
 20
367.6761245786
 10
107.7148105807
 20
367.8284373977
 10
107.5495149856
 20
367.9894793448
 10
107.5150799921
 20
368.0243202371
  0
LINE
  5
378
100
AcDbEntity
  8
RUNDUNGEN
100
AcDbLine
 62
7
  6
CONTINUOUS
 10
100.2020381912
 20
372.1685807778
 11
100.0423582651
 21
372.2250925484
  0
LWPOLYLINE
  5
379
100
AcDbEntity
  8
RUNDUNGEN
100
AcDbPolyline
 62
7
  6
CONTINUOUS
 90
5
 70
0
 10
108.9478601263
 20
367.0065194748
 10
108.8069828125
 20
367.0579595605
 10
108.6600756194
 20
367.1265110224
 10
108.516871159
 20
367.2056466617
 10
108.3740569944
 20
367.2953579701
  0
LINE
  5
37A
100
AcDbEntity
  8
RUNDUNGEN
100
AcDbLine
 62
7
  6
CONTINUOUS
 10
105.1322813886
 20
370.3194765675
 11
100.2020404598
 21
372.1685836625
  0
LINE
  5
37B
100
AcDbEntity
  8
RUNDUNGEN
100
AcDbLine
 62
7
  6
CONTINUOUS
 10
174.8464469244
 20
366.8338074127
 11
174.9921446679
 21
366.2833040455
  0
LINE
  5
37C
100
AcDbEntity
  8
BEZUGSACHSEN
100
AcDbLine
 62
7
  6
CONTINUOUS
 10
186.3581706074
 20
363.0061337488
 11
186.3581706074
 21
347.0061337488
  0
LINE
  5
37D
100
AcDbEntity
  8
RUNDUNGEN
100
AcDbLine
 62
7
  6
CONTINUOUS
 10
187.3581706074
 20
382.0060465952
 11
187.3581706074
 21
367.4445266703
  0
LINE
  5
37E
100
AcDbEntity
  8
RUNDUNGEN
100
AcDbLine
 62
7
  6
CONTINUOUS
 10
187.3581706074
 20
342.5677404279
 11
187.3581706074
 21
328.0062209024
  0
LINE
  5
37F
100
AcDbEntity
  8
0
100
AcDbLine
 62
7
  6
CONTINUOUS
 10
100.1866364205
 20
336.3076706449
 11
106.7721370527
 21
338.7045968527
  0
LINE
  5
380
100
AcDbEntity
  8
0
100
AcDbLine
 62
7
  6
CONTINUOUS
 10
42.5576870595
 20
357.5061337488
 11
64.3581706074
 21
357.5061337488
  0
LINE
  5
381
100
AcDbEntity
  8
0
100
AcDbLine
 62
7
  6
CONTINUOUS
 10
69.3581706074
 20
357.5061337488
 11
89.3581706074
 21
357.5061337488
  0
LINE
  5
382
100
AcDbEntity
  8
0
100
AcDbLine
 62
7
  6
CONTINUOUS
 10
48.3581706074
 20
361.5444821641
 11
64.3581706074
 21
361.5444821641
  0
LINE
  5
383
100
AcDbEntity
  8
0
100
AcDbLine
 62
7
  6
CONTINUOUS
 10
69.3581706074
 20
361.5444821641
 11
89.3581706074
 21
361.5444821641
  0
LINE
  5
384
100
AcDbEntity
  8
RUNDUNGEN
100
AcDbLine
 62
7
  6
CONTINUOUS
 10
110.0202492996
 20
366.8158287152
 11
109.7096629139
 21
366.8471715222
  0
LINE
  5
385
100
AcDbEntity
  8
RUNDUNGEN
100
AcDbLine
 62
7
  6
CONTINUOUS
 10
99.3602947752
 20
372.4004700687
 11
98.9860399995
 21
372.4539450492
  0
LWPOLYLINE
  5
386
100
AcDbEntity
  8
RUNDUNGEN
100
AcDbPolyline
 62
7
  6
CONTINUOUS
 90
4
 70
0
 10
109.7275017741
 20
366.8448577178
 10
109.4091664611
 20
366.8959461024
 10
109.1045846484
 20
366.9633687694
 10
109.0027052856
 20
366.9898608735
  0
LINE
  5
387
100
AcDbEntity
  8
RUNDUNGEN
100
AcDbLine
 62
7
  6
CONTINUOUS
 10
99.7127107134
 20
372.3228286954
 11
99.3431032352
 21
372.4035716823
  0
LINE
  5
388
100
AcDbEntity
  8
RUNDUNGEN
100
AcDbLine
 62
7
  6
CONTINUOUS
 10
197.3581706074
 20
328.0062209024
 11
197.3581706074
 21
342.5677409562
  0
LINE
  5
389
100
AcDbEntity
  8
RUNDUNGEN
100
AcDbLine
 62
7
  6
CONTINUOUS
 10
197.3581706074
 20
367.4445270712
 11
197.3581706074
 21
382.0060465952
  0
LINE
  5
38A
100
AcDbEntity
  8
RUNDUNGEN
100
AcDbLine
 62
7
  6
CONTINUOUS
 10
198.3581706074
 20
363.0061337488
 11
198.3581706074
 21
347.0061337488
  0
LINE
  5
38B
100
AcDbEntity
  8
RUNDUNGEN
100
AcDbLine
 62
7
  6
CONTINUOUS
 10
203.3581706074
 20
360.5061337488
 11
203.3581706074
 21
349.5061337488
  0
LINE
  5
38C
100
AcDbEntity
  8
RUNDUNGEN
100
AcDbLine
 62
7
  6
CONTINUOUS
 10
204.3581706074
 20
381.0060498549
 11
204.3581706074
 21
329.0062176427
  0
LINE
  5
38D
100
AcDbEntity
  8
RUNDUNGEN
100
AcDbLine
 62
7
  6
CONTINUOUS
 10
176.9225790758
 20
368.3938272236
 11
176.9229778287
 21
368.3939321818
  0
LINE
  5
38E
100
AcDbEntity
  8
RUNDUNGEN
100
AcDbLine
 62
7
  6
CONTINUOUS
 10
174.8464587733
 20
366.8338183355
 11
174.8265277583
 21
366.8287676946
  0
LWPOLYLINE
  5
38F
100
AcDbEntity
  8
RUNDUNGEN
100
AcDbPolyline
 62
7
  6
CONTINUOUS
 90
4
 70
0
 10
174.8464451876
 20
366.8338139547
 10
174.8115781873
 20
366.8252745062
 10
174.7197298623
 20
366.8095429444
 10
174.6261262743
 20
366.8040871879
  0
LINE
  5
390
100
AcDbEntity
  8
RUNDUNGEN
100
AcDbLine
 62
7
  6
CONTINUOUS
 10
174.8265277583
 20
366.8287676946
 11
174.7722965176
 21
366.8185464356
  0
LINE
  5
391
100
AcDbEntity
  8
BEZUGSACHSEN
100
AcDbLine
 62
7
  6
CONTINUOUS
 10
21.5036604817
 20
363.999148959
 11
21.8581706075
 21
364.0061337488
  0
LINE
  5
392
100
AcDbEntity
  8
0
100
AcDbLine
 62
7
  6
CONTINUOUS
 10
341.3581706074
 20
362.0061337488
 11
296.3581706074
 21
362.0061337488
  0
LINE
  5
393
100
AcDbEntity
  8
0
100
AcDbLine
 62
7
  6
CONTINUOUS
 10
43.3581706074
 20
362.0061337488
 11
64.3581706074
 21
362.0061337488
  0
LINE
  5
394
100
AcDbEntity
  8
0
100
AcDbLine
 62
7
  6
CONTINUOUS
 10
69.3581706074
 20
362.0061337488
 11
89.3581706074
 21
362.0061337488
  0
LINE
  5
395
100
AcDbEntity
  8
BEZUGSACHSEN
100
AcDbLine
 62
7
  6
CONTINUOUS
 10
362.8581706074
 20
364.0061337488
 11
343.3581706074
 21
364.0061337488
  0
LINE
  5
396
100
AcDbEntity
  8
RUNDUNGEN
100
AcDbLine
 62
7
  6
CONTINUOUS
 10
21.8581706074
 20
364.0061337488
 11
41.3581706074
 21
364.0061337488
  0
LINE
  5
397
100
AcDbEntity
  8
RUNDUNGEN
100
AcDbLine
 62
7
  6
CONTINUOUS
 10
195.4030935224
 20
366.0061337488
 11
195.3581706074
 21
366.0061337488
  0
LINE
  5
398
100
AcDbEntity
  8
BEZUGSACHSEN
100
AcDbLine
 62
7
  6
CONTINUOUS
 10
189.3132476925
 20
366.0061337488
 11
195.3581706074
 21
366.0061337488
  0
LINE
  5
399
100
AcDbEntity
  8
RUNDUNGEN
100
AcDbLine
 62
7
  6
CONTINUOUS
 10
274.3581706074
 20
366.8040927199
 11
210.0902254211
 21
366.8040927199
  0
LINE
  5
39A
100
AcDbEntity
  8
RUNDUNGEN
100
AcDbLine
 62
7
  6
CONTINUOUS
 10
110.3581706074
 20
366.8040927199
 11
174.626126264
 21
366.8040927199
  0
LINE
  5
39B
100
AcDbEntity
  8
RUNDUNGEN
100
AcDbLine
 62
7
  6
CONTINUOUS
 10
196.3581706074
 20
367.5061337488
 11
196.2785252457
 21
367.5061337488
  0
LINE
  5
39C
100
AcDbEntity
  8
BEZUGSACHSEN
100
AcDbLine
 62
7
  6
CONTINUOUS
 10
188.3581706074
 20
367.5061337488
 11
196.2785252457
 21
367.5061337488
  0
LINE
  5
39D
100
AcDbEntity
  8
RUNDUNGEN
100
AcDbLine
 62
7
  6
CONTINUOUS
 10
293.8756947546
 20
371.0061337488
 11
281.3581706074
 21
371.0061337488
  0
LINE
  5
39E
100
AcDbEntity
  8
RUNDUNGEN
100
AcDbLine
 62
7
  6
CONTINUOUS
 10
98.4765357038
 20
372.4803565023
 11
95.3581706074
 21
372.4803565023
  0
LWPOLYLINE
  5
39F
100
AcDbEntity
  8
RUNDUNGEN
100
AcDbPolyline
 62
7
  6
CONTINUOUS
 90
5
 70
0
 10
210.090225428
 20
366.8040932967
 10
210.0803752622
 20
366.804153863
 10
209.9902404422
 20
366.8103052647
 10
209.8958542824
 20
366.8273247936
 10
209.8698896353
 20
366.8338175023
  0
LINE
  5
3A0
100
AcDbEntity
  8
RUNDUNGEN
100
AcDbLine
 62
7
  6
CONTINUOUS
 10
110.3581710347
 20
366.8040893478
 11
110.2836315399
 21
366.8046532575
  0
LINE
  5
3A1
100
AcDbEntity
  8
RUNDUNGEN
100
AcDbLine
 62
7
  6
CONTINUOUS
 10
98.643885293
 20
372.4775100567
 11
98.4765357038
 21
372.4803529122
  0
LINE
  5
3A2
100
AcDbEntity
  8
BEZUGSACHSEN
100
AcDbLine
 62
7
  6
CONTINUOUS
 10
363.2126807332
 20
363.999148959
 11
362.8581706074
 21
364.0061337488
  0
LINE
  5
3A3
100
AcDbEntity
  8
RUNDUNGEN
100
AcDbLine
 62
7
  6
CONTINUOUS
 10
110.301480163
 20
366.8044198252
 11
110.0023229364
 21
366.8171068335
  0
LINE
  5
3A4
100
AcDbEntity
  8
RUNDUNGEN
100
AcDbLine
 62
7
  6
CONTINUOUS
 10
99.003409995
 20
372.4521082211
 11
98.6264559414
 21
372.4780712212
  0
LWPOLYLINE
  5
3A5
100
AcDbEntity
  8
RUNDUNGEN
100
AcDbPolyline
 62
7
  6
CONTINUOUS
 90
3
 70
0
 10
210.0235938172
 20
366.8080290078
 10
209.9799809521
 20
366.8116443136
 10
209.9320561123
 20
366.82079695
  0
LINE
  5
3A6
100
AcDbEntity
  8
RUNDUNGEN
100
AcDbLine
 62
7
  6
CONTINUOUS
 10
207.7933787244
 20
368.3939281634
 11
207.7936929203
 21
368.3938455397
  0
LINE
  5
3A7
100
AcDbEntity
  8
RUNDUNGEN
100
AcDbLine
 62
7
  6
CONTINUOUS
 10
207.7936577481
 20
368.393864042
 11
207.5860157611
 21
368.4517184783
  0
LWPOLYLINE
  5
3A8
100
AcDbEntity
  8
RUNDUNGEN
100
AcDbPolyline
 62
7
  6
CONTINUOUS
 90
48
 70
0
 10
209.8698889599
 20
366.8338149205
 10
209.8622164754
 20
366.8360369165
 10
209.8547607731
 20
366.8384919466
 10
209.8477200886
 20
366.8410282734
 10
209.8400920489
 20
366.8439823399
 10
209.8324039288
 20
366.8471526449
 10
209.8247209595
 20
366.8504943262
 10
209.8169888335
 20
366.8540158758
 10
209.8089931588
 20
366.8578116552
 10
209.8008776815
 20
366.8618141798
 10
209.7926824927
 20
366.8660007012
 10
209.7844503559
 20
366.870345469
 10
209.7762169882
 20
366.8748248143
 10
209.7680047899
 20
366.8794212438
 10
209.7598333881
 20
366.8841182786
 10
209.7517124448
 20
366.8889048767
 10
209.7436500746
 20
366.8937703463
 10
209.735640737
 20
366.8987118336
 10
209.7276792173
 20
366.9037271766
 10
209.7197476019
 20
366.9088232626
 10
209.7118285233
 20
366.9140079272
 10
209.7038939814
 20
366.919297315
 10
209.6959099178
 20
366.9247132726
 10
209.6878592318
 20
366.9302676018
 10
209.6796903768
 20
366.9359973746
 10
209.671461475
 20
366.9418633198
 10
209.6632169135
 20
366.9478336395
 10
209.654952625
 20
366.9539105509
 10
209.6466785499
 20
366.9600860285
 10
209.6383956435
 20
366.9663585635
 10
209.630106457
 20
366.9727254622
 10
209.6218136637
 20
366.9791838464
 10
209.6135191018
 20
366.9857312501
 10
209.605223208
 20
366.9923662975
 10
209.5969265835
 20
366.9990875426
 10
209.5886289362
 20
367.0058943274
 10
209.5803300537
 20
367.0127860074
 10
209.5720289404
 20
367.0197626715
 10
209.5637246953
 20
367.0268244243
 10
209.5554156069
 20
367.0339721586
 10
209.547100108
 20
367.0412067555
 10
209.5387757883
 20
367.048529945
 10
209.5304404325
 20
367.055943415
 10
209.5220909452
 20
367.063449769
 10
209.513724478
 20
367.0710515349
 10
209.5053372609
 20
367.0787522289
 10
209.4969237887
 20
367.0865571542
 10
209.4884857331
 20
367.0944650865
  0
LINE
  5
3A9
100
AcDbEntity
  8
RUNDUNGEN
100
AcDbLine
 62
7
  6
CONTINUOUS
 10
207.5977798498
 20
368.4482566683
 11
207.2528020213
 21
368.5587307142
  0
LINE
  5
3AA
100
AcDbEntity
  8
RUNDUNGEN
100
AcDbLine
 62
7
  6
CONTINUOUS
 10
207.2633996155
 20
368.5550600982
 11
206.9397090223
 21
368.6749964865
  0
LINE
  5
3AB
100
AcDbEntity
  8
RUNDUNGEN
100
AcDbLine
 62
7
  6
CONTINUOUS
 10
206.9492535753
 20
368.6712302678
 11
206.6456110041
 21
368.7978142366
  0
LINE
  5
3AC
100
AcDbEntity
  8
RUNDUNGEN
100
AcDbLine
 62
7
  6
CONTINUOUS
 10
209.7241957664
 20
366.2833010949
 11
209.8698889599
 21
366.8338149205
  0
LINE
  5
3AD
100
AcDbEntity
  8
RUNDUNGEN
100
AcDbLine
 62
7
  6
CONTINUOUS
 10
276.5793985196
 20
367.2911615977
 11
276.3874135974
 21
367.2129234842
  0
LINE
  5
3AE
100
AcDbEntity
  8
RUNDUNGEN
100
AcDbLine
 62
7
  6
CONTINUOUS
 10
276.5552848071
 20
367.2813347251
 11
276.2400620164
 21
367.1572341771
  0
LWPOLYLINE
  5
3AF
100
AcDbEntity
  8
RUNDUNGEN
100
AcDbPolyline
 62
7
  6
CONTINUOUS
 90
9
 70
0
 10
276.387924579
 20
367.2131111424
 10
276.2767608761
 20
367.1707306453
 10
275.9721972638
 20
367.0657698925
 10
275.6655649301
 20
366.977131637
 10
275.3584895894
 20
366.9060449877
 10
275.0518774262
 20
366.8533568029
 10
274.7495931652
 20
366.8198348202
 10
274.4554985764
 20
366.8050520885
 10
274.3581706069
 20
366.8040827651
  0
LINE
  5
3B0
100
AcDbEntity
  8
BEZUGSACHSEN
100
AcDbLine
 62
7
  6
CONTINUOUS
 10
68.8581706074
 20
374.0061337488
 11
65.8581706074
 21
374.0061337488
  0
LINE
  5
3B1
100
AcDbEntity
  8
RUNDUNGEN
100
AcDbLine
 62
7
  6
CONTINUOUS
 10
68.8581706074
 20
374.0061337488
 11
65.8581706074
 21
374.0061337488
  0
LINE
  5
3B2
100
AcDbEntity
  8
0
100
AcDbLine
 62
7
  6
CONTINUOUS
 10
90.3581706074
 20
374.0061337488
 11
95.3581706074
 21
374.0061337488
  0
LINE
  5
3B3
100
AcDbEntity
  8
0
100
AcDbLine
 62
7
  6
CONTINUOUS
 10
187.3581706074
 20
381.0061337488
 11
197.3581706074
 21
381.0061337488
  0
LINE
  5
3B4
100
AcDbEntity
  8
0
100
AcDbLine
 62
7
  6
CONTINUOUS
 10
181.3581706074
 20
382.0061337488
 11
187.3581706074
 21
382.0061337488
  0
LINE
  5
3B5
100
AcDbEntity
  8
0
100
AcDbLine
 62
7
  6
CONTINUOUS
 10
197.3581706074
 20
382.0061337488
 11
203.3581706074
 21
382.0061337488
  0
LINE
  5
3B6
100
AcDbEntity
  8
RUNDUNGEN
100
AcDbLine
 62
7
  6
CONTINUOUS
 10
206.654202667
 20
368.7940383647
 11
206.3693502613
 21
368.9251011113
  0
LINE
  5
3B7
100
AcDbEntity
  8
RUNDUNGEN
100
AcDbLine
 62
7
  6
CONTINUOUS
 10
206.377071475
 20
368.9213861135
 11
206.1107107131
 21
369.0548137899
  0
LINE
  5
3B8
100
AcDbEntity
  8
RUNDUNGEN
100
AcDbLine
 62
7
  6
CONTINUOUS
 10
206.1176394008
 20
369.0512063408
 11
205.8687391621
 21
369.1854883084
  0
LINE
  5
3B9
100
AcDbEntity
  8
RUNDUNGEN
100
AcDbLine
 62
7
  6
CONTINUOUS
 10
205.874946118
 20
369.1820202855
 11
205.6433333366
 21
369.3155468395
  0
LINE
  5
3BA
100
AcDbEntity
  8
RUNDUNGEN
100
AcDbLine
 62
7
  6
CONTINUOUS
 10
205.6488804366
 20
369.3122458647
 11
205.4340204383
 21
369.4438560836
  0
LINE
  5
3BB
100
AcDbEntity
  8
RUNDUNGEN
100
AcDbLine
 62
7
  6
CONTINUOUS
 10
205.4389499492
 20
369.4407486778
 11
205.240636402
 21
369.5692433129
  0
LINE
  5
3BC
100
AcDbEntity
  8
RUNDUNGEN
100
AcDbLine
 62
7
  6
CONTINUOUS
 10
205.2449914842
 20
369.5663439084
 11
205.0628001747
 21
369.690826181
  0
LINE
  5
3BD
100
AcDbEntity
  8
RUNDUNGEN
100
AcDbLine
 62
7
  6
CONTINUOUS
 10
205.066625208
 20
369.688142986
 11
204.9005147059
 21
369.8075942415
  0
LINE
  5
3BE
100
AcDbEntity
  8
RUNDUNGEN
100
AcDbLine
 62
7
  6
CONTINUOUS
 10
204.9038410104
 20
369.8051400149
 11
204.7535869694
 21
369.9187568761
  0
LINE
  5
3BF
100
AcDbEntity
  8
RUNDUNGEN
100
AcDbLine
 62
7
  6
CONTINUOUS
 10
204.7564426951
 20
369.9165421963
 11
204.6222534899
 21
370.0232471753
  0
LINE
  5
3C0
100
AcDbEntity
  8
RUNDUNGEN
100
AcDbLine
 62
7
  6
CONTINUOUS
 10
204.6246664958
 20
370.0212789415
 11
204.5064297104
 21
370.1202558439
  0
LWPOLYLINE
  5
3C1
100
AcDbEntity
  8
RUNDUNGEN
100
AcDbPolyline
 62
7
  6
CONTINUOUS
 90
3
 70
0
 10
204.5084213589
 20
370.1185433086
 10
204.4082666979
 20
370.2069451441
 10
204.3581706074
 20
370.253749662
  0
LINE
  5
3C2
100
AcDbEntity
  8
RUNDUNGEN
100
AcDbLine
 62
7
  6
CONTINUOUS
 10
209.4884857331
 20
367.0944650865
 11
209.4739472521
 21
367.1082775123
  0
LINE
  5
3C3
100
AcDbEntity
  8
RUNDUNGEN
100
AcDbLine
 62
7
  6
CONTINUOUS
 10
209.4739487859
 20
367.1082761451
 11
209.2777039915
 21
367.2979594296
  0
LINE
  5
3C4
100
AcDbEntity
  8
RUNDUNGEN
100
AcDbLine
 62
7
  6
CONTINUOUS
 10
209.4362556917
 20
367.1444557234
 11
209.2658667822
 21
367.3095037262
  0
LINE
  5
3C5
100
AcDbEntity
  8
RUNDUNGEN
100
AcDbLine
 62
7
  6
CONTINUOUS
 10
209.2777039915
 20
367.2979594296
 11
209.093827056
 21
367.4785661442
  0
LINE
  5
3C6
100
AcDbEntity
  8
RUNDUNGEN
100
AcDbLine
 62
7
  6
CONTINUOUS
 10
209.1055826402
 20
367.4669388518
 11
208.9210428894
 21
367.650701952
  0
LINE
  5
3C7
100
AcDbEntity
  8
RUNDUNGEN
100
AcDbLine
 62
7
  6
CONTINUOUS
 10
208.9326836129
 20
367.639033073
 11
208.7132840988
 21
367.8606605932
  0
LINE
  5
3C8
100
AcDbEntity
  8
RUNDUNGEN
100
AcDbLine
 62
7
  6
CONTINUOUS
 10
227.8581706074
 20
341.0061337488
 11
227.8581706074
 21
339.5061337488
  0
LINE
  5
3C9
100
AcDbEntity
  8
0
100
AcDbLine
 62
7
  6
CONTINUOUS
 10
230.3581706074
 20
342.0061337488
 11
230.3581706074
 21
341.0061337488
  0
LINE
  5
3CA
100
AcDbEntity
  8
0
100
AcDbLine
 62
7
  6
CONTINUOUS
 10
208.2863738377
 20
338.2740829412
 11
209.090221415
 21
338.7381845564
  0
LINE
  5
3CB
100
AcDbEntity
  8
RUNDUNGEN
100
AcDbLine
 62
7
  6
CONTINUOUS
 10
277.4430847993
 20
367.7191208527
 11
277.1725762824
 21
367.5718900584
  0
LINE
  5
3CC
100
AcDbEntity
  8
RUNDUNGEN
100
AcDbLine
 62
7
  6
CONTINUOUS
 10
277.1729625125
 20
367.5720750063
 11
276.8816990249
 21
367.4269243996
  0
LINE
  5
3CD
100
AcDbEntity
  8
RUNDUNGEN
100
AcDbLine
 62
7
  6
CONTINUOUS
 10
276.8857611815
 20
367.4288655367
 11
276.5696365948
 21
367.2869849026
  0
LINE
  5
3CE
100
AcDbEntity
  8
0
100
AcDbLine
 62
7
  6
CONTINUOUS
 10
230.4831706112
 20
342.0061337488
 11
230.4831706112
 21
341.0061337488
  0
LINE
  5
3CF
100
AcDbEntity
  8
0
100
AcDbLine
 62
7
  6
CONTINUOUS
 10
230.7331706074
 20
342.0061337488
 11
230.7331706074
 21
341.0061337488
  0
LINE
  5
3D0
100
AcDbEntity
  8
0
100
AcDbLine
 62
7
  6
CONTINUOUS
 10
231.2331705776
 20
342.0061337488
 11
231.2331705776
 21
341.0061337488
  0
LINE
  5
3D1
100
AcDbEntity
  8
0
100
AcDbLine
 62
7
  6
CONTINUOUS
 10
231.7331706372
 20
342.0061337488
 11
231.7331706372
 21
341.0061337488
  0
LINE
  5
3D2
100
AcDbEntity
  8
0
100
AcDbLine
 62
7
  6
CONTINUOUS
 10
232.358170667
 20
342.0061337488
 11
232.358170667
 21
341.0061337488
  0
LINE
  5
3D3
100
AcDbEntity
  8
0
100
AcDbLine
 62
7
  6
CONTINUOUS
 10
233.4831704882
 20
342.0061337488
 11
233.4831704882
 21
341.0061337488
  0
LINE
  5
3D4
100
AcDbEntity
  8
0
100
AcDbLine
 62
7
  6
CONTINUOUS
 10
234.1081706074
 20
342.0061337488
 11
234.1081706074
 21
341.0061337488
  0
LINE
  5
3D5
100
AcDbEntity
  8
0
100
AcDbLine
 62
7
  6
CONTINUOUS
 10
234.6081704882
 20
342.0061337488
 11
234.6081704882
 21
341.0061337488
  0
LINE
  5
3D6
100
AcDbEntity
  8
0
100
AcDbLine
 62
7
  6
CONTINUOUS
 10
235.1081707266
 20
342.0061337488
 11
235.1081707266
 21
341.0061337488
  0
LINE
  5
3D7
100
AcDbEntity
  8
0
100
AcDbLine
 62
7
  6
CONTINUOUS
 10
235.2331706074
 20
342.0061337488
 11
235.2331706074
 21
341.0061337488
  0
LINE
  5
3D8
100
AcDbEntity
  8
0
100
AcDbLine
 62
7
  6
CONTINUOUS
 10
236.2331707266
 20
342.0061337488
 11
236.2331707266
 21
341.0061337488
  0
LINE
  5
3D9
100
AcDbEntity
  8
0
100
AcDbLine
 62
7
  6
CONTINUOUS
 10
236.983170369
 20
342.0061337488
 11
236.983170369
 21
341.0061337488
  0
LINE
  5
3DA
100
AcDbEntity
  8
0
100
AcDbLine
 62
7
  6
CONTINUOUS
 10
237.1081706074
 20
342.0061337488
 11
237.1081706074
 21
341.0061337488
  0
LINE
  5
3DB
100
AcDbEntity
  8
0
100
AcDbLine
 62
7
  6
CONTINUOUS
 10
237.358170369
 20
342.0061337488
 11
237.358170369
 21
341.0061337488
  0
LINE
  5
3DC
100
AcDbEntity
  8
0
100
AcDbLine
 62
7
  6
CONTINUOUS
 10
237.733170369
 20
342.0061337488
 11
237.733170369
 21
341.0061337488
  0
LINE
  5
3DD
100
AcDbEntity
  8
0
100
AcDbLine
 62
7
  6
CONTINUOUS
 10
238.2331706074
 20
342.0061337488
 11
238.2331706074
 21
341.0061337488
  0
LINE
  5
3DE
100
AcDbEntity
  8
0
100
AcDbLine
 62
7
  6
CONTINUOUS
 10
238.7331708459
 20
342.0061337488
 11
238.7331708459
 21
341.0061337488
  0
LINE
  5
3DF
100
AcDbEntity
  8
0
100
AcDbLine
 62
7
  6
CONTINUOUS
 10
239.233170369
 20
342.0061337488
 11
239.233170369
 21
341.0061337488
  0
LINE
  5
3E0
100
AcDbEntity
  8
0
100
AcDbLine
 62
7
  6
CONTINUOUS
 10
239.608170369
 20
342.0061337488
 11
239.608170369
 21
341.0061337488
  0
LINE
  5
3E1
100
AcDbEntity
  8
0
100
AcDbLine
 62
7
  6
CONTINUOUS
 10
239.8581708459
 20
342.0061337488
 11
239.8581708459
 21
341.0061337488
  0
LINE
  5
3E2
100
AcDbEntity
  8
0
100
AcDbLine
 62
7
  6
CONTINUOUS
 10
239.983170369
 20
342.0061337488
 11
239.983170369
 21
341.0061337488
  0
LINE
  5
3E3
100
AcDbEntity
  8
0
100
AcDbLine
 62
7
  6
CONTINUOUS
 10
240.733170369
 20
342.0061337488
 11
240.733170369
 21
341.0061337488
  0
LINE
  5
3E4
100
AcDbEntity
  8
0
100
AcDbLine
 62
7
  6
CONTINUOUS
 10
241.7331708459
 20
342.0061337488
 11
241.7331708459
 21
341.0061337488
  0
LINE
  5
3E5
100
AcDbEntity
  8
RUNDUNGEN
100
AcDbLine
 62
7
  6
CONTINUOUS
 10
278.8636987183
 20
368.7014005124
 11
278.6830588943
 21
368.5540521383
  0
LINE
  5
3E6
100
AcDbEntity
  8
RUNDUNGEN
100
AcDbLine
 62
7
  6
CONTINUOUS
 10
278.708821164
 20
368.5745678019
 11
278.5167054309
 21
368.4251973589
  0
LINE
  5
3E7
100
AcDbEntity
  8
RUNDUNGEN
100
AcDbLine
 62
7
  6
CONTINUOUS
 10
278.5380155414
 20
368.4413674096
 11
278.3351983299
 21
368.2912304907
  0
LINE
  5
3E8
100
AcDbEntity
  8
RUNDUNGEN
100
AcDbLine
 62
7
  6
CONTINUOUS
 10
278.3511539242
 20
368.3027483683
 11
278.1380591058
 21
368.1528920463
  0
LINE
  5
3E9
100
AcDbEntity
  8
RUNDUNGEN
100
AcDbLine
 62
7
  6
CONTINUOUS
 10
278.1482776401
 20
368.1598886131
 11
277.9242930187
 21
368.0107739897
  0
LWPOLYLINE
  5
3EA
100
AcDbEntity
  8
RUNDUNGEN
100
AcDbPolyline
 62
7
  6
CONTINUOUS
 90
3
 70
0
 10
277.9291697063
 20
368.0139216448
 10
277.6939712739
 20
367.8663952015
 10
277.4419632707
 20
367.7184989677
  0
LINE
  5
3EB
100
AcDbEntity
  8
0
100
AcDbLine
 62
7
  6
CONTINUOUS
 10
244.7331701306
 20
342.0061337488
 11
244.7331701306
 21
341.0061337488
  0
LINE
  5
3EC
100
AcDbEntity
  8
0
100
AcDbLine
 62
7
  6
CONTINUOUS
 10
245.3581706074
 20
342.0061337488
 11
245.3581706074
 21
341.0061337488
  0
LINE
  5
3ED
100
AcDbEntity
  8
0
100
AcDbLine
 62
7
  6
CONTINUOUS
 10
245.8581701306
 20
342.0061337488
 11
245.8581701306
 21
341.0061337488
  0
LINE
  5
3EE
100
AcDbEntity
  8
0
100
AcDbLine
 62
7
  6
CONTINUOUS
 10
246.2331701306
 20
342.0061337488
 11
246.2331701306
 21
341.0061337488
  0
LINE
  5
3EF
100
AcDbEntity
  8
0
100
AcDbLine
 62
7
  6
CONTINUOUS
 10
246.3581710843
 20
342.0061337488
 11
246.3581710843
 21
341.0061337488
  0
LINE
  5
3F0
100
AcDbEntity
  8
0
100
AcDbLine
 62
7
  6
CONTINUOUS
 10
246.4831706074
 20
342.0061337488
 11
246.4831706074
 21
341.0061337488
  0
LINE
  5
3F1
100
AcDbEntity
  8
0
100
AcDbLine
 62
7
  6
CONTINUOUS
 10
247.4831710843
 20
342.0061337488
 11
247.4831710843
 21
341.0061337488
  0
LINE
  5
3F2
100
AcDbEntity
  8
0
100
AcDbLine
 62
7
  6
CONTINUOUS
 10
252.2331701306
 20
342.0061337488
 11
252.2331701306
 21
341.0061337488
  0
LINE
  5
3F3
100
AcDbEntity
  8
0
100
AcDbLine
 62
7
  6
CONTINUOUS
 10
253.2331706074
 20
342.0061337488
 11
253.2331706074
 21
341.0061337488
  0
LINE
  5
3F4
100
AcDbEntity
  8
0
100
AcDbLine
 62
7
  6
CONTINUOUS
 10
253.3581701306
 20
342.0061337488
 11
253.3581701306
 21
341.0061337488
  0
LINE
  5
3F5
100
AcDbEntity
  8
0
100
AcDbLine
 62
7
  6
CONTINUOUS
 10
253.6081706074
 20
342.0061337488
 11
253.6081706074
 21
341.0061337488
  0
LINE
  5
3F6
100
AcDbEntity
  8
0
100
AcDbLine
 62
7
  6
CONTINUOUS
 10
253.9831706074
 20
342.0061337488
 11
253.9831706074
 21
341.0061337488
  0
LINE
  5
3F7
100
AcDbEntity
  8
0
100
AcDbLine
 62
7
  6
CONTINUOUS
 10
254.6081696538
 20
342.0061337488
 11
254.6081696538
 21
341.0061337488
  0
LINE
  5
3F8
100
AcDbEntity
  8
RUNDUNGEN
100
AcDbLine
 62
7
  6
CONTINUOUS
 10
279.3674913763
 20
369.172105415
 11
279.2974342689
 21
369.0986426008
  0
LWPOLYLINE
  5
3F9
100
AcDbEntity
  8
RUNDUNGEN
100
AcDbPolyline
 62
7
  6
CONTINUOUS
 90
5
 70
0
 10
279.2974342689
 20
369.0986426008
 10
279.2039932947
 20
369.0061418127
 10
279.0955678418
 20
368.904356155
 10
278.9722660578
 20
368.79425273
 10
278.8348864076
 20
368.6773315743
  0
LINE
  5
3FA
100
AcDbEntity
  8
0
100
AcDbLine
 62
7
  6
CONTINUOUS
 10
255.2331715611
 20
342.0061337488
 11
255.2331715611
 21
341.0061337488
  0
LINE
  5
3FB
100
AcDbEntity
  8
0
100
AcDbLine
 62
7
  6
CONTINUOUS
 10
255.7331696538
 20
342.0061337488
 11
255.7331696538
 21
341.0061337488
  0
LINE
  5
3FC
100
AcDbEntity
  8
0
100
AcDbLine
 62
7
  6
CONTINUOUS
 10
256.3581715611
 20
342.0061337488
 11
256.3581715611
 21
341.0061337488
  0
LINE
  5
3FD
100
AcDbEntity
  8
0
100
AcDbLine
 62
7
  6
CONTINUOUS
 10
256.9831706074
 20
342.0061337488
 11
256.9831706074
 21
341.0061337488
  0
LINE
  5
3FE
100
AcDbEntity
  8
0
100
AcDbLine
 62
7
  6
CONTINUOUS
 10
257.3581706074
 20
342.0061337488
 11
257.3581706074
 21
341.0061337488
  0
LINE
  5
3FF
100
AcDbEntity
  8
0
100
AcDbLine
 62
7
  6
CONTINUOUS
 10
257.4831715611
 20
342.0061337488
 11
257.4831715611
 21
341.0061337488
  0
LINE
  5
400
100
AcDbEntity
  8
0
100
AcDbLine
 62
7
  6
CONTINUOUS
 10
257.7331706074
 20
342.0061337488
 11
257.7331706074
 21
341.0061337488
  0
LWPOLYLINE
  5
401
100
AcDbEntity
  8
RUNDUNGEN
100
AcDbPolyline
 62
7
  6
CONTINUOUS
 90
11
 70
0
 10
279.5124698425
 20
369.3433078813
 10
279.5157565777
 20
369.3486458574
 10
279.5101794719
 20
369.3406154308
 10
279.4884952926
 20
369.3117724533
 10
279.4499176558
 20
369.2644736016
 10
279.3940415834
 20
369.2007933274
 10
279.3212435064
 20
369.1230961155
 10
279.231413792
 20
369.0327654879
 10
279.1251502642
 20
368.9316195569
 10
279.0024433774
 20
368.8207112804
 10
278.8636987183
 20
368.7014005124
  0
LINE
  5
402
100
AcDbEntity
  8
RUNDUNGEN
100
AcDbLine
 62
7
  6
CONTINUOUS
 10
269.8581706074
 20
341.0061224341
 11
269.8581706074
 21
339.5061337489
  0
LINE
  5
403
100
AcDbEntity
  8
0
100
AcDbLine
 62
7
  6
CONTINUOUS
 10
295.8647385453
 20
369.2151906753
 11
296.3581706074
 21
364.520498203
  0
LINE
  5
404
100
AcDbEntity
  8
0
100
AcDbLine
 62
7
  6
CONTINUOUS
 10
296.3581706074
 20
364.5203319052
 11
296.3581706074
 21
345.4919355924
  0
LINE
  5
405
100
AcDbEntity
  8
0
100
AcDbLine
 62
7
  6
CONTINUOUS
 10
295.8647385453
 20
340.7970768223
 11
296.3581706074
 21
345.4917692946
  0
LINE
  5
406
100
AcDbEntity
  8
BEZUGSACHSEN
100
AcDbLine
 62
7
  6
CONTINUOUS
 10
342.3581706074
 20
347.0061337488
 11
342.3581706074
 21
363.0061337488
  0
LINE
  5
407
100
AcDbEntity
  8
BEZUGSACHSEN
100
AcDbLine
 62
7
  6
CONTINUOUS
 10
465.5448146334
 20
75.4327668304
 11
463.5448146334
 21
75.4327668304
  0
LINE
  5
408
100
AcDbEntity
  8
BEZUGSACHSEN
100
AcDbLine
 62
7
  6
CONTINUOUS
 10
453.5058672301
 20
150.5559252841
 11
452.0837629181
 21
173.3095942765
  0
LINE
  5
409
100
AcDbEntity
  8
RUNDUNGEN
100
AcDbLine
 62
7
  6
CONTINUOUS
 10
452.1090241671
 20
172.9054142916
 11
452.0837629181
 21
173.3095942765
  0
LINE
  5
40A
100
AcDbEntity
  8
BEZUGSACHSEN
100
AcDbLine
 62
7
  6
CONTINUOUS
 10
452.0448146334
 20
175.9939722075
 11
452.0448146334
 21
174.5571576681
  0
LINE
  5
40B
100
AcDbEntity
  8
RUNDUNGEN
100
AcDbLine
 62
7
  6
CONTINUOUS
 10
452.0448146334
 20
175.9939722075
 11
452.0448146334
 21
195.4327668304
  0
LINE
  5
40C
100
AcDbEntity
  8
BEZUGSACHSEN
100
AcDbLine
 62
7
  6
CONTINUOUS
 10
453.5448146334
 20
85.4327668304
 11
453.5448146334
 21
149.3083596348
  0
LINE
  5
40D
100
AcDbEntity
  8
0
100
AcDbLine
 62
7
  6
CONTINUOUS
 10
455.5448146334
 20
206.4327668304
 11
455.5448146334
 21
212.9445620541
  0
LINE
  5
40E
100
AcDbEntity
  8
BEZUGSACHSEN
100
AcDbLine
 62
7
  6
CONTINUOUS
 10
455.5448146334
 20
206.4327668304
 11
455.5448146334
 21
237.4327668304
  0
LINE
  5
40F
100
AcDbEntity
  8
0
100
AcDbLine
 62
7
  6
CONTINUOUS
 10
459.7948146334
 20
225.6327668304
 11
459.7948146334
 21
218.2327668304
  0
LINE
  5
410
100
AcDbEntity
  8
0
100
AcDbLine
 62
7
  6
CONTINUOUS
 10
469.2948146334
 20
218.2327668304
 11
469.2948146334
 21
225.6327668304
  0
LINE
  5
411
100
AcDbEntity
  8
RUNDUNGEN
100
AcDbLine
 62
7
  6
CONTINUOUS
 10
473.5448146334
 20
206.4327668304
 11
473.5448146334
 21
217.2327668304
  0
LINE
  5
412
100
AcDbEntity
  8
BEZUGSACHSEN
100
AcDbLine
 62
7
  6
CONTINUOUS
 10
473.5448146334
 20
217.2327668304
 11
473.5448146334
 21
237.4327668304
  0
LINE
  5
413
100
AcDbEntity
  8
BEZUGSACHSEN
100
AcDbLine
 62
7
  6
CONTINUOUS
 10
475.5448146334
 20
149.3083759928
 11
475.5448146334
 21
85.4327668304
  0
LINE
  5
414
100
AcDbEntity
  8
RUNDUNGEN
100
AcDbLine
 62
7
  6
CONTINUOUS
 10
477.0058662031
 20
173.309591945
 11
476.9800688233
 21
172.8968338682
  0
LINE
  5
415
100
AcDbEntity
  8
BEZUGSACHSEN
100
AcDbLine
 62
7
  6
CONTINUOUS
 10
477.0058662031
 20
173.309591945
 11
475.5837630638
 21
150.5559417159
  0
LINE
  5
416
100
AcDbEntity
  8
RUNDUNGEN
100
AcDbLine
 62
7
  6
CONTINUOUS
 10
477.0448146334
 20
195.4327668304
 11
477.0448146334
 21
175.9939722075
  0
LINE
  5
417
100
AcDbEntity
  8
BEZUGSACHSEN
100
AcDbLine
 62
7
  6
CONTINUOUS
 10
477.0448146334
 20
175.9939722075
 11
477.0448146334
 21
174.5571576681
  0
LINE
  5
418
100
AcDbEntity
  8
BEZUGSACHSEN
100
AcDbLine
 62
7
  6
CONTINUOUS
 10
465.7418851351
 20
205.4327668304
 11
456.5510233355
 21
205.4327668304
  0
LINE
  5
419
100
AcDbEntity
  8
0
100
AcDbLine
 62
7
  6
CONTINUOUS
 10
463.3477441318
 20
205.4327668304
 11
465.7418851351
 21
205.4327668304
  0
LINE
  5
41A
100
AcDbEntity
  8
RUNDUNGEN
100
AcDbLine
 62
7
  6
CONTINUOUS
 10
465.7418851351
 20
205.4327668304
 11
472.5386059314
 21
205.4327668304
  0
LINE
  5
41B
100
AcDbEntity
  8
BEZUGSACHSEN
100
AcDbLine
 62
7
  6
CONTINUOUS
 10
456.5448146334
 20
218.2327668304
 11
471.2167845709
 21
218.2327668304
  0
LINE
  5
41C
100
AcDbEntity
  8
RUNDUNGEN
100
AcDbLine
 62
7
  6
CONTINUOUS
 10
457.872844696
 20
218.2327668304
 11
472.5448146334
 21
218.2327668304
  0
LINE
  5
41D
100
AcDbEntity
  8
BEZUGSACHSEN
100
AcDbLine
 62
7
  6
CONTINUOUS
 10
456.5448146334
 20
225.6327668304
 11
472.5448146334
 21
225.6327668304
  0
LINE
  5
41E
100
AcDbEntity
  8
BEZUGSACHSEN
100
AcDbLine
 62
7
  6
CONTINUOUS
 10
456.5510233355
 20
238.4327668304
 11
472.5386059314
 21
238.4327668304
  0
LINE
  5
41F
100
AcDbEntity
  8
0
100
AcDbLine
 62
7
  6
CONTINUOUS
 10
528.5873562599
 20
233.1175663891
 11
528.5873562599
 21
231.9857894433
  0
LINE
  5
420
100
AcDbEntity
  8
BEZUGSACHSEN
100
AcDbLine
 62
7
  6
CONTINUOUS
 10
528.5873562599
 20
211.8797442176
 11
528.5873562599
 21
210.7479672718
  0
LINE
  5
421
100
AcDbEntity
  8
0
100
AcDbLine
 62
7
  6
CONTINUOUS
 10
532.7273562599
 20
225.6327668304
 11
532.7273562599
 21
218.2327668304
  0
LINE
  5
422
100
AcDbEntity
  8
0
100
AcDbLine
 62
7
  6
CONTINUOUS
 10
543.6811062618
 20
232.2306392546
 11
543.6186062599
 21
231.9114901776
  0
LINE
  5
423
100
AcDbEntity
  8
0
100
AcDbLine
 62
7
  6
CONTINUOUS
 10
545.9936063195
 20
230.3795753325
 11
546.0561062599
 21
230.6987242753
  0
LINE
  5
424
100
AcDbEntity
  8
0
100
AcDbLine
 62
7
  6
CONTINUOUS
 10
543.9936062599
 20
231.9114901776
 11
544.056106245
 21
232.1668092961
  0
LINE
  5
425
100
AcDbEntity
  8
0
100
AcDbLine
 62
7
  6
CONTINUOUS
 10
548.4311061407
 20
230.9540433938
 11
548.3686063792
 21
230.6987242753
  0
LINE
  5
426
100
AcDbEntity
  8
0
100
AcDbLine
 62
7
  6
CONTINUOUS
 10
545.6811062599
 20
230.6987242753
 11
545.6186063195
 21
230.5072349365
  0
LINE
  5
427
100
AcDbEntity
  8
0
100
AcDbLine
 62
7
  6
CONTINUOUS
 10
543.8061062599
 20
232.4859583731
 11
543.6811062618
 21
232.2306392546
  0
LINE
  5
428
100
AcDbEntity
  8
0
100
AcDbLine
 62
7
  6
CONTINUOUS
 10
548.6186061407
 20
230.3795753325
 11
548.7436063792
 21
230.6348944957
  0
LINE
  5
429
100
AcDbEntity
  8
0
100
AcDbLine
 62
7
  6
CONTINUOUS
 10
544.056106245
 20
232.1668092961
 11
544.1811062599
 21
232.3582988138
  0
LINE
  5
42A
100
AcDbEntity
  8
0
100
AcDbLine
 62
7
  6
CONTINUOUS
 10
548.3686063792
 20
230.6987242753
 11
548.2436061407
 21
230.5072349365
  0
LINE
  5
42B
100
AcDbEntity
  8
0
100
AcDbLine
 62
7
  6
CONTINUOUS
 10
532.4566043522
 20
237.528316306
 11
528.8680164596
 21
233.8122247595
  0
LINE
  5
42C
100
AcDbEntity
  8
0
100
AcDbLine
 62
7
  6
CONTINUOUS
 10
543.4473562599
 20
225.6327668304
 11
543.4473562599
 21
218.2327668304
  0
LINE
  5
42D
100
AcDbEntity
  8
0
100
AcDbLine
 62
7
  6
CONTINUOUS
 10
543.6186062599
 20
231.9114901776
 11
543.6186062599
 21
230.9540433938
  0
LINE
  5
42E
100
AcDbEntity
  8
0
100
AcDbLine
 62
7
  6
CONTINUOUS
 10
543.9936062599
 20
230.9540433938
 11
543.9936062599
 21
231.9114901776
  0
LINE
  5
42F
100
AcDbEntity
  8
0
100
AcDbLine
 62
7
  6
CONTINUOUS
 10
546.5561063195
 20
232.9327668304
 11
546.5561063195
 21
230.9540433938
  0
LINE
  5
430
100
AcDbEntity
  8
0
100
AcDbLine
 62
7
  6
CONTINUOUS
 10
546.9311061407
 20
230.9540433938
 11
546.9311061407
 21
232.9327668304
  0
LINE
  5
431
100
AcDbEntity
  8
0
100
AcDbLine
 62
7
  6
CONTINUOUS
 10
548.4311061407
 20
232.9327668304
 11
548.4311061407
 21
230.9540433938
  0
LINE
  5
432
100
AcDbEntity
  8
0
100
AcDbLine
 62
7
  6
CONTINUOUS
 10
548.8061061407
 20
230.9540433938
 11
548.8061061407
 21
232.9327668304
  0
LINE
  5
433
100
AcDbEntity
  8
0
100
AcDbLine
 62
7
  6
CONTINUOUS
 10
549.3061063792
 20
232.9327668304
 11
549.3061063792
 21
229.9327668304
  0
LINE
  5
434
100
AcDbEntity
  8
0
100
AcDbLine
 62
7
  6
CONTINUOUS
 10
549.6811060215
 20
229.9327668304
 11
549.6811060215
 21
231.2731923814
  0
LINE
  5
435
100
AcDbEntity
  8
0
100
AcDbLine
 62
7
  6
CONTINUOUS
 10
549.6811060215
 20
231.6561710591
 11
549.6811060215
 21
232.6136179323
  0
LINE
  5
436
100
AcDbEntity
  8
0
100
AcDbLine
 62
7
  6
CONTINUOUS
 10
548.7436063792
 20
230.6348944957
 11
548.8061061407
 21
230.9540433938
  0
LINE
  5
437
100
AcDbEntity
  8
0
100
AcDbLine
 62
7
  6
CONTINUOUS
 10
551.2436064984
 20
232.0391497369
 11
551.1811060215
 21
231.847660398
  0
LINE
  5
438
100
AcDbEntity
  8
0
100
AcDbLine
 62
7
  6
CONTINUOUS
 10
551.5561060215
 20
231.7838306184
 11
551.6186064984
 21
231.9753199572
  0
LINE
  5
439
100
AcDbEntity
  8
0
100
AcDbLine
 62
7
  6
CONTINUOUS
 10
551.3686060215
 20
231.5285114999
 11
551.5561060215
 21
231.7838306184
  0
LINE
  5
43A
100
AcDbEntity
  8
0
100
AcDbLine
 62
7
  6
CONTINUOUS
 10
544.056106245
 20
232.7412774916
 11
543.8061062599
 21
232.4859583731
  0
LINE
  5
43B
100
AcDbEntity
  8
0
100
AcDbLine
 62
7
  6
CONTINUOUS
 10
545.7436062003
 20
230.1242561917
 11
545.9936063195
 21
230.3795753325
  0
LINE
  5
43C
100
AcDbEntity
  8
0
100
AcDbLine
 62
7
  6
CONTINUOUS
 10
548.3686063792
 20
230.1242561917
 11
548.6186061407
 21
230.3795753325
  0
LINE
  5
43D
100
AcDbEntity
  8
0
100
AcDbLine
 62
7
  6
CONTINUOUS
 10
551.1811060215
 20
231.847660398
 11
551.0561064984
 21
231.7200008387
  0
LINE
  5
43E
100
AcDbEntity
  8
0
100
AcDbLine
 62
7
  6
CONTINUOUS
 10
551.2436064984
 20
232.2306392546
 11
551.2436064984
 21
232.0391497369
  0
LINE
  5
43F
100
AcDbEntity
  8
0
100
AcDbLine
 62
7
  6
CONTINUOUS
 10
551.6186064984
 20
231.9753199572
 11
551.6186064984
 21
232.2306392546
  0
LINE
  5
440
100
AcDbEntity
  8
0
100
AcDbLine
 62
7
  6
CONTINUOUS
 10
552.1811064984
 20
232.9327668304
 11
552.1811064984
 21
232.6136179323
  0
LINE
  5
441
100
AcDbEntity
  8
0
100
AcDbLine
 62
7
  6
CONTINUOUS
 10
553.1811062599
 20
232.6136179323
 11
553.1811062599
 21
229.9327668304
  0
LINE
  5
442
100
AcDbEntity
  8
0
100
AcDbLine
 62
7
  6
CONTINUOUS
 10
553.5561062599
 20
229.9327668304
 11
553.5561062599
 21
232.6136179323
  0
LINE
  5
443
100
AcDbEntity
  8
0
100
AcDbLine
 62
7
  6
CONTINUOUS
 10
554.5561060215
 20
232.6136179323
 11
554.5561060215
 21
232.9327668304
  0
LINE
  5
444
100
AcDbEntity
  8
BEZUGSACHSEN
100
AcDbLine
 62
7
  6
CONTINUOUS
 10
558.0873562599
 20
207.4327668304
 11
558.0873562599
 21
236.4327668304
  0
LINE
  5
445
100
AcDbEntity
  8
RUNDUNGEN
100
AcDbLine
 62
7
  6
CONTINUOUS
 10
558.0873562599
 20
207.4327668304
 11
558.0873562599
 21
236.4327668304
  0
LINE
  5
446
100
AcDbEntity
  8
0
100
AcDbLine
 62
7
  6
CONTINUOUS
 10
544.1811062599
 20
232.3582988138
 11
544.3686062599
 21
232.4859583731
  0
LINE
  5
447
100
AcDbEntity
  8
0
100
AcDbLine
 62
7
  6
CONTINUOUS
 10
545.6186063195
 20
230.5072349365
 11
545.4311063195
 21
230.3795753325
  0
LINE
  5
448
100
AcDbEntity
  8
0
100
AcDbLine
 62
7
  6
CONTINUOUS
 10
548.2436061407
 20
230.5072349365
 11
548.0561061407
 21
230.3795753325
  0
LINE
  5
449
100
AcDbEntity
  8
0
100
AcDbLine
 62
7
  6
CONTINUOUS
 10
543.6186062599
 20
230.9540433938
 11
543.6811062618
 21
230.6348944957
  0
LINE
  5
44A
100
AcDbEntity
  8
0
100
AcDbLine
 62
7
  6
CONTINUOUS
 10
546.0561062599
 20
232.1668092961
 11
545.9936063195
 21
232.4859583731
  0
LINE
  5
44B
100
AcDbEntity
  8
0
100
AcDbLine
 62
7
  6
CONTINUOUS
 10
546.5561063195
 20
230.9540433938
 11
546.6186062599
 21
230.6348944957
  0
LINE
  5
44C
100
AcDbEntity
  8
0
100
AcDbLine
 62
7
  6
CONTINUOUS
 10
544.3061062748
 20
232.8689370508
 11
544.056106245
 21
232.7412774916
  0
LINE
  5
44D
100
AcDbEntity
  8
0
100
AcDbLine
 62
7
  6
CONTINUOUS
 10
545.4936062599
 20
229.9965966156
 11
545.7436062003
 21
230.1242561917
  0
LINE
  5
44E
100
AcDbEntity
  8
0
100
AcDbLine
 62
7
  6
CONTINUOUS
 10
548.1186062599
 20
229.9965966156
 11
548.3686063792
 21
230.1242561917
  0
LINE
  5
44F
100
AcDbEntity
  8
0
100
AcDbLine
 62
7
  6
CONTINUOUS
 10
551.1186062599
 20
231.4008519406
 11
551.3686060215
 21
231.5285114999
  0
LINE
  5
450
100
AcDbEntity
  8
0
100
AcDbLine
 62
7
  6
CONTINUOUS
 10
545.6186063195
 20
232.3582988138
 11
545.6811062599
 21
232.1668092961
  0
LINE
  5
451
100
AcDbEntity
  8
0
100
AcDbLine
 62
7
  6
CONTINUOUS
 10
544.056106245
 20
230.6987242753
 11
543.9936062599
 21
230.9540433938
  0
LINE
  5
452
100
AcDbEntity
  8
0
100
AcDbLine
 62
7
  6
CONTINUOUS
 10
546.9936062599
 20
230.6987242753
 11
546.9311061407
 21
230.9540433938
  0
LINE
  5
453
100
AcDbEntity
  8
0
100
AcDbLine
 62
7
  6
CONTINUOUS
 10
551.6811062599
 20
229.9327668304
 11
551.1186062599
 21
231.4008519406
  0
LINE
  5
454
100
AcDbEntity
  8
0
100
AcDbLine
 62
7
  6
CONTINUOUS
 10
550.7436062599
 20
231.2731923814
 11
551.2436064984
 21
229.9327668304
  0
LINE
  5
455
100
AcDbEntity
  8
0
100
AcDbLine
 62
7
  6
CONTINUOUS
 10
551.1811060215
 20
232.4221285934
 11
551.2436064984
 21
232.2306392546
  0
LINE
  5
456
100
AcDbEntity
  8
0
100
AcDbLine
 62
7
  6
CONTINUOUS
 10
551.6186064984
 20
232.2306392546
 11
551.5561060215
 21
232.4221285934
  0
LINE
  5
457
100
AcDbEntity
  8
0
100
AcDbLine
 62
7
  6
CONTINUOUS
 10
604.5807883221
 20
236.141823757
 11
604.0873562599
 21
231.4471312847
  0
LINE
  5
458
100
AcDbEntity
  8
0
100
AcDbLine
 62
7
  6
CONTINUOUS
 10
551.0561064984
 20
231.7200008387
 11
550.8686064984
 21
231.6561710591
  0
LINE
  5
459
100
AcDbEntity
  8
0
100
AcDbLine
 62
7
  6
CONTINUOUS
 10
543.6811062618
 20
230.6348944957
 11
543.8061062599
 21
230.3795753325
  0
LINE
  5
45A
100
AcDbEntity
  8
0
100
AcDbLine
 62
7
  6
CONTINUOUS
 10
546.6186062599
 20
230.6348944957
 11
546.7436061407
 21
230.3795753325
  0
LINE
  5
45B
100
AcDbEntity
  8
0
100
AcDbLine
 62
7
  6
CONTINUOUS
 10
604.5807883221
 20
207.7237099039
 11
604.0873562599
 21
212.4184023762
  0
LINE
  5
45C
100
AcDbEntity
  8
0
100
AcDbLine
 62
7
  6
CONTINUOUS
 10
604.0873562599
 20
212.4184023762
 11
604.0873562599
 21
231.4471312847
  0
LINE
  5
45D
100
AcDbEntity
  8
BEZUGSACHSEN
100
AcDbLine
 62
7
  6
CONTINUOUS
 10
528.8680164596
 20
210.0533089013
 11
532.4566043522
 21
206.3372173549
  0
LINE
  5
45E
100
AcDbEntity
  8
0
100
AcDbLine
 62
7
  6
CONTINUOUS
 10
544.1811062599
 20
230.5072349365
 11
544.056106245
 21
230.6987242753
  0
LINE
  5
45F
100
AcDbEntity
  8
0
100
AcDbLine
 62
7
  6
CONTINUOUS
 10
547.1186061407
 20
230.5072349365
 11
546.9936062599
 21
230.6987242753
  0
LINE
  5
460
100
AcDbEntity
  8
0
100
AcDbLine
 62
7
  6
CONTINUOUS
 10
643.3373553063
 20
223.1455328221
 11
643.4623562599
 21
223.5285114999
  0
LINE
  5
461
100
AcDbEntity
  8
0
100
AcDbLine
 62
7
  6
CONTINUOUS
 10
642.9623553063
 20
223.911490267
 11
642.7123562599
 21
223.2731923814
  0
LINE
  5
462
100
AcDbEntity
  8
0
100
AcDbLine
 62
7
  6
CONTINUOUS
 10
646.8373562599
 20
219.9540433044
 11
647.0873567368
 21
220.5923414583
  0
LINE
  5
463
100
AcDbEntity
  8
0
100
AcDbLine
 62
7
  6
CONTINUOUS
 10
643.4623562599
 20
223.5285114999
 11
643.7123553063
 21
223.911490267
  0
LINE
  5
464
100
AcDbEntity
  8
0
100
AcDbLine
 62
7
  6
CONTINUOUS
 10
646.3373567368
 20
220.3370219822
 11
646.0873562599
 21
219.9540433044
  0
LINE
  5
465
100
AcDbEntity
  8
0
100
AcDbLine
 62
7
  6
CONTINUOUS
 10
643.3373553063
 20
224.4221285487
 11
642.9623553063
 21
223.911490267
  0
LINE
  5
466
100
AcDbEntity
  8
0
100
AcDbLine
 62
7
  6
CONTINUOUS
 10
646.4623562599
 20
219.4434050674
 11
646.8373562599
 21
219.9540433044
  0
LINE
  5
467
100
AcDbEntity
  8
0
100
AcDbLine
 62
7
  6
CONTINUOUS
 10
654.5873567368
 20
221.7412774916
 11
654.2123567368
 21
221.2306392546
  0
LINE
  5
468
100
AcDbEntity
  8
0
100
AcDbLine
 62
7
  6
CONTINUOUS
 10
646.3373567368
 20
222.3795752878
 11
646.0873562599
 21
222.1242561693
  0
LINE
  5
469
100
AcDbEntity
  8
0
100
AcDbLine
 62
7
  6
CONTINUOUS
 10
654.9623567368
 20
221.1029796953
 11
655.2123557831
 21
221.3582988138
  0
LINE
  5
46A
100
AcDbEntity
  8
0
100
AcDbLine
 62
7
  6
CONTINUOUS
 10
643.7123553063
 20
223.911490267
 11
644.0873553063
 21
224.1668093855
  0
LINE
  5
46B
100
AcDbEntity
  8
0
100
AcDbLine
 62
7
  6
CONTINUOUS
 10
646.0873562599
 20
222.1242561693
 11
645.7123562599
 21
221.8689370508
  0
LINE
  5
46C
100
AcDbEntity
  8
0
100
AcDbLine
 62
7
  6
CONTINUOUS
 10
645.8373572136
 20
221.2306392546
 11
646.5873557831
 21
221.7412774916
  0
LINE
  5
46D
100
AcDbEntity
  8
0
100
AcDbLine
 62
7
  6
CONTINUOUS
 10
646.0873562599
 20
219.9540433044
 11
645.7123562599
 21
219.6987241859
  0
LINE
  5
46E
100
AcDbEntity
  8
0
100
AcDbLine
 62
7
  6
CONTINUOUS
 10
643.9623572136
 20
224.80510726
 11
643.3373553063
 21
224.4221285487
  0
LINE
  5
46F
100
AcDbEntity
  8
0
100
AcDbLine
 62
7
  6
CONTINUOUS
 10
645.8373572136
 20
219.0604263897
 11
646.4623562599
 21
219.4434050674
  0
LINE
  5
470
100
AcDbEntity
  8
0
100
AcDbLine
 62
7
  6
CONTINUOUS
 10
644.0873553063
 20
224.1668093855
 11
644.4623553063
 21
224.2944689448
  0
LINE
  5
471
100
AcDbEntity
  8
BEZUGSACHSEN
100
AcDbLine
 62
7
  6
CONTINUOUS
 10
711.0873562599
 20
75.4327668304
 11
705.0873562599
 21
75.4327668304
  0
LINE
  5
472
100
AcDbEntity
  8
0
100
AcDbLine
 62
7
  6
CONTINUOUS
 10
551.5561060215
 20
232.4221285934
 11
551.3686060215
 21
232.6774477119
  0
LINE
  5
473
100
AcDbEntity
  8
RUNDUNGEN
100
AcDbLine
 62
7
  6
CONTINUOUS
 10
630.5873562599
 20
215.2807286736
 11
630.5873562599
 21
228.5848063747
  0
LINE
  5
474
100
AcDbEntity
  8
0
100
AcDbLine
 62
7
  6
CONTINUOUS
 10
642.7123562599
 20
223.2731923814
 11
642.7123562599
 21
222.6348944063
  0
LINE
  5
475
100
AcDbEntity
  8
0
100
AcDbLine
 62
7
  6
CONTINUOUS
 10
643.3373553063
 20
222.7625541444
 11
643.3373553063
 21
223.1455328221
  0
LINE
  5
476
100
AcDbEntity
  8
0
100
AcDbLine
 62
7
  6
CONTINUOUS
 10
647.0873567368
 20
220.5923414583
 11
647.2123562599
 21
221.4859583731
  0
LINE
  5
477
100
AcDbEntity
  8
0
100
AcDbLine
 62
7
  6
CONTINUOUS
 10
646.5873557831
 20
221.4859583731
 11
646.4623562599
 21
220.7200010176
  0
LINE
  5
478
100
AcDbEntity
  8
0
100
AcDbLine
 62
7
  6
CONTINUOUS
 10
646.4623562599
 20
222.7625541444
 11
646.3373567368
 21
222.3795752878
  0
LINE
  5
479
100
AcDbEntity
  8
0
100
AcDbLine
 62
7
  6
CONTINUOUS
 10
646.4623562599
 20
220.7200010176
 11
646.3373567368
 21
220.3370219822
  0
LINE
  5
47A
100
AcDbEntity
  8
0
100
AcDbLine
 62
7
  6
CONTINUOUS
 10
654.2123567368
 20
221.2306392546
 11
654.0873557831
 21
220.8476605768
  0
LINE
  5
47B
100
AcDbEntity
  8
0
100
AcDbLine
 62
7
  6
CONTINUOUS
 10
654.8373557831
 20
220.7200010176
 11
654.9623567368
 21
221.1029796953
  0
LINE
  5
47C
100
AcDbEntity
  8
0
100
AcDbLine
 62
7
  6
CONTINUOUS
 10
660.0873564984
 20
224.0391498263
 11
659.8373560215
 21
223.5285114999
  0
LINE
  5
47D
100
AcDbEntity
  8
0
100
AcDbLine
 62
7
  6
CONTINUOUS
 10
660.5873560215
 20
223.4008519406
 11
660.8373564984
 21
223.7838306184
  0
LINE
  5
47E
100
AcDbEntity
  8
0
100
AcDbLine
 62
7
  6
CONTINUOUS
 10
660.5873560215
 20
224.549788108
 11
660.0873564984
 21
224.0391498263
  0
LINE
  5
47F
100
AcDbEntity
  8
0
100
AcDbLine
 62
7
  6
CONTINUOUS
 10
665.8373563792
 20
224.549788108
 11
665.3373561407
 21
224.0391498263
  0
LINE
  5
480
100
AcDbEntity
  8
0
100
AcDbLine
 62
7
  6
CONTINUOUS
 10
669.2123562897
 20
219.3157455082
 11
669.7123562599
 21
219.8263837452
  0
LINE
  5
481
100
AcDbEntity
  8
0
100
AcDbLine
 62
7
  6
CONTINUOUS
 10
660.8373564984
 20
223.7838306184
 11
661.2123564984
 21
224.0391498263
  0
LINE
  5
482
100
AcDbEntity
  8
0
100
AcDbLine
 62
7
  6
CONTINUOUS
 10
666.0873561407
 20
223.7838306184
 11
666.4623561407
 21
224.0391498263
  0
LINE
  5
483
100
AcDbEntity
  8
0
100
AcDbLine
 62
7
  6
CONTINUOUS
 10
668.9623562599
 20
220.0817028637
 11
668.5873562599
 21
219.8263837452
  0
LINE
  5
484
100
AcDbEntity
  8
0
100
AcDbLine
 62
7
  6
CONTINUOUS
 10
692.1591530297
 20
238.664817638
 11
691.3553054524
 21
238.2007160229
  0
LINE
  5
485
100
AcDbEntity
  8
0
100
AcDbLine
 62
7
  6
CONTINUOUS
 10
655.0873562599
 20
221.9965966101
 11
654.5873567368
 21
221.7412774916
  0
LINE
  5
486
100
AcDbEntity
  8
0
100
AcDbLine
 62
7
  6
CONTINUOUS
 10
661.0873562599
 20
224.80510726
 11
660.5873560215
 21
224.549788108
  0
LINE
  5
487
100
AcDbEntity
  8
0
100
AcDbLine
 62
7
  6
CONTINUOUS
 10
666.3373562599
 20
224.80510726
 11
665.8373563792
 21
224.549788108
  0
LINE
  5
488
100
AcDbEntity
  8
0
100
AcDbLine
 62
7
  6
CONTINUOUS
 10
668.7123562301
 20
219.0604263897
 11
669.2123562897
 21
219.3157455082
  0
LINE
  5
489
100
AcDbEntity
  8
0
100
AcDbLine
 62
7
  6
CONTINUOUS
 10
645.7123562599
 20
221.8689370508
 11
645.3373562599
 21
221.7412774916
  0
LINE
  5
48A
100
AcDbEntity
  8
0
100
AcDbLine
 62
7
  6
CONTINUOUS
 10
645.7123562599
 20
219.6987241859
 11
645.3373562599
 21
219.5710646267
  0
LINE
  5
48B
100
AcDbEntity
  8
0
100
AcDbLine
 62
7
  6
CONTINUOUS
 10
655.2123557831
 20
221.3582988138
 11
655.5873557831
 21
221.4859583731
  0
LINE
  5
48C
100
AcDbEntity
  8
0
100
AcDbLine
 62
7
  6
CONTINUOUS
 10
543.8061062599
 20
230.3795753325
 11
544.056106245
 21
230.1242561917
  0
LINE
  5
48D
100
AcDbEntity
  8
0
100
AcDbLine
 62
7
  6
CONTINUOUS
 10
546.7436061407
 20
230.3795753325
 11
546.9936062599
 21
230.1242561917
  0
LINE
  5
48E
100
AcDbEntity
  8
0
100
AcDbLine
 62
7
  6
CONTINUOUS
 10
545.9936063195
 20
232.4859583731
 11
545.7436062003
 21
232.7412774916
  0
LINE
  5
48F
100
AcDbEntity
  8
0
100
AcDbLine
 62
7
  6
CONTINUOUS
 10
646.4623562599
 20
223.1455328221
 11
646.4623562599
 21
222.7625541444
  0
LINE
  5
490
100
AcDbEntity
  8
0
100
AcDbLine
 62
7
  6
CONTINUOUS
 10
646.5873557831
 20
221.7412774916
 11
646.5873557831
 21
221.4859583731
  0
LINE
  5
491
100
AcDbEntity
  8
0
100
AcDbLine
 62
7
  6
CONTINUOUS
 10
647.2123562599
 20
221.4859583731
 11
647.2123562599
 21
222.3795752878
  0
LINE
  5
492
100
AcDbEntity
  8
0
100
AcDbLine
 62
7
  6
CONTINUOUS
 10
648.2123567368
 20
219.5710646267
 11
648.2123567368
 21
218.9327668304
  0
LINE
  5
493
100
AcDbEntity
  8
0
100
AcDbLine
 62
7
  6
CONTINUOUS
 10
650.2123562599
 20
224.9327668304
 11
650.2123562599
 21
219.5710646267
  0
LINE
  5
494
100
AcDbEntity
  8
0
100
AcDbLine
 62
7
  6
CONTINUOUS
 10
650.9623562599
 20
219.5710646267
 11
650.9623562599
 21
224.9327668304
  0
LINE
  5
495
100
AcDbEntity
  8
0
100
AcDbLine
 62
7
  6
CONTINUOUS
 10
652.9623557831
 20
218.9327668304
 11
652.9623557831
 21
219.5710646267
  0
LINE
  5
496
100
AcDbEntity
  8
0
100
AcDbLine
 62
7
  6
CONTINUOUS
 10
654.0873557831
 20
220.8476605768
 11
654.0873557831
 21
220.3370219822
  0
LINE
  5
497
100
AcDbEntity
  8
0
100
AcDbLine
 62
7
  6
CONTINUOUS
 10
654.8373557831
 20
220.3370219822
 11
654.8373557831
 21
220.7200010176
  0
LINE
  5
498
100
AcDbEntity
  8
0
100
AcDbLine
 62
7
  6
CONTINUOUS
 10
659.8373560215
 20
223.5285114999
 11
659.7123564984
 21
222.8902137036
  0
LINE
  5
499
100
AcDbEntity
  8
0
100
AcDbLine
 62
7
  6
CONTINUOUS
 10
665.3373561407
 20
224.0391498263
 11
665.2123562599
 21
223.4008519406
  0
LINE
  5
49A
100
AcDbEntity
  8
0
100
AcDbLine
 62
7
  6
CONTINUOUS
 10
660.4623564984
 20
222.8902137036
 11
660.5873560215
 21
223.4008519406
  0
LINE
  5
49B
100
AcDbEntity
  8
0
100
AcDbLine
 62
7
  6
CONTINUOUS
 10
669.3373562599
 20
220.9753201361
 11
669.2123562897
 21
220.4646818991
  0
LINE
  5
49C
100
AcDbEntity
  8
0
100
AcDbLine
 62
7
  6
CONTINUOUS
 10
665.9623562599
 20
223.4008519406
 11
666.0873561407
 21
223.7838306184
  0
LINE
  5
49D
100
AcDbEntity
  8
0
100
AcDbLine
 62
7
  6
CONTINUOUS
 10
669.7123562599
 20
219.8263837452
 11
669.9623562562
 21
220.3370219822
  0
LINE
  5
49E
100
AcDbEntity
  8
0
100
AcDbLine
 62
7
  6
CONTINUOUS
 10
669.2123562897
 20
220.4646818991
 11
668.9623562599
 21
220.0817028637
  0
LINE
  5
49F
100
AcDbEntity
  8
0
100
AcDbLine
 62
7
  6
CONTINUOUS
 10
551.0561064984
 20
232.5497881527
 11
551.1811060215
 21
232.4221285934
  0
LINE
  5
4A0
100
AcDbEntity
  8
0
100
AcDbLine
 62
7
  6
CONTINUOUS
 10
647.2123562599
 20
222.3795752878
 11
647.0873567368
 21
223.2731923814
  0
LINE
  5
4A1
100
AcDbEntity
  8
0
100
AcDbLine
 62
7
  6
CONTINUOUS
 10
657.9623567368
 20
224.9327668304
 11
657.9623567368
 21
222.2519157286
  0
LINE
  5
4A2
100
AcDbEntity
  8
0
100
AcDbLine
 62
7
  6
CONTINUOUS
 10
657.9623567368
 20
221.4859583731
 11
657.9623567368
 21
219.5710646267
  0
LINE
  5
4A3
100
AcDbEntity
  8
0
100
AcDbLine
 62
7
  6
CONTINUOUS
 10
658.7123560215
 20
218.9327668304
 11
658.7123560215
 21
224.9327668304
  0
LINE
  5
4A4
100
AcDbEntity
  8
0
100
AcDbLine
 62
7
  6
CONTINUOUS
 10
659.7123564984
 20
222.8902137036
 11
659.7123564984
 21
218.9327668304
  0
LINE
  5
4A5
100
AcDbEntity
  8
0
100
AcDbLine
 62
7
  6
CONTINUOUS
 10
660.4623564984
 20
218.9327668304
 11
660.4623564984
 21
222.8902137036
  0
LINE
  5
4A6
100
AcDbEntity
  8
0
100
AcDbLine
 62
7
  6
CONTINUOUS
 10
663.4623564984
 20
222.8902137036
 11
663.4623564984
 21
218.9327668304
  0
LINE
  5
4A7
100
AcDbEntity
  8
0
100
AcDbLine
 62
7
  6
CONTINUOUS
 10
664.2123561407
 20
218.9327668304
 11
664.2123561407
 21
222.8902137036
  0
LINE
  5
4A8
100
AcDbEntity
  8
0
100
AcDbLine
 62
7
  6
CONTINUOUS
 10
669.3373562599
 20
222.8902137036
 11
669.3373562599
 21
220.9753201361
  0
LINE
  5
4A9
100
AcDbEntity
  8
0
100
AcDbLine
 62
7
  6
CONTINUOUS
 10
669.9623562562
 20
220.3370219822
 11
670.0873562599
 21
220.9753201361
  0
LINE
  5
4AA
100
AcDbEntity
  8
0
100
AcDbLine
 62
7
  6
CONTINUOUS
 10
800.2588904469
 20
240.6312299344
 11
793.6733898147
 21
238.2343037265
  0
LINE
  5
4AB
100
AcDbEntity
  8
0
100
AcDbLine
 62
7
  6
CONTINUOUS
 10
551.3686060215
 20
232.6774477119
 11
551.1186062599
 21
232.8689370508
  0
LINE
  5
4AC
100
AcDbEntity
  8
0
100
AcDbLine
 62
7
  6
CONTINUOUS
 10
642.7123562599
 20
222.6348944063
 11
642.9623553063
 21
221.9965966101
  0
LINE
  5
4AD
100
AcDbEntity
  8
0
100
AcDbLine
 62
7
  6
CONTINUOUS
 10
642.9623553063
 20
220.3370219822
 11
643.0873562599
 21
219.9540433044
  0
LINE
  5
4AE
100
AcDbEntity
  8
0
100
AcDbLine
 62
7
  6
CONTINUOUS
 10
643.4623562599
 20
222.3795752878
 11
643.3373553063
 21
222.7625541444
  0
LINE
  5
4AF
100
AcDbEntity
  8
0
100
AcDbLine
 62
7
  6
CONTINUOUS
 10
646.3373567368
 20
223.5285114999
 11
646.4623562599
 21
223.1455328221
  0
LINE
  5
4B0
100
AcDbEntity
  8
0
100
AcDbLine
 62
7
  6
CONTINUOUS
 10
670.0873562599
 20
220.9753201361
 11
670.0873562599
 21
222.8902137036
  0
LINE
  5
4B1
100
AcDbEntity
  8
RUNDUNGEN
100
AcDbLine
 62
7
  6
CONTINUOUS
 10
672.5873562599
 20
228.5848067197
 11
672.5873562599
 21
215.2807221529
  0
LINE
  5
4B2
100
AcDbEntity
  8
0
100
AcDbLine
 62
7
  6
CONTINUOUS
 10
724.8194070675
 20
205.664817638
 11
724.0155594902
 21
205.2007160229
  0
LINE
  5
4B3
100
AcDbEntity
  8
0
100
AcDbLine
 62
7
  6
CONTINUOUS
 10
544.3686062599
 20
230.3795753325
 11
544.1811062599
 21
230.5072349365
  0
LINE
  5
4B4
100
AcDbEntity
  8
0
100
AcDbLine
 62
7
  6
CONTINUOUS
 10
547.3061061407
 20
230.3795753325
 11
547.1186061407
 21
230.5072349365
  0
LINE
  5
4B5
100
AcDbEntity
  8
0
100
AcDbLine
 62
7
  6
CONTINUOUS
 10
545.4311063195
 20
232.4859583731
 11
545.6186063195
 21
232.3582988138
  0
LINE
  5
4B6
100
AcDbEntity
  8
0
100
AcDbLine
 62
7
  6
CONTINUOUS
 10
647.0873567368
 20
223.2731923814
 11
646.8373562599
 21
223.911490267
  0
LINE
  5
4B7
100
AcDbEntity
  8
0
100
AcDbLine
 62
7
  6
CONTINUOUS
 10
653.9623562599
 20
224.9327668304
 11
655.0873562599
 21
221.9965966101
  0
LINE
  5
4B8
100
AcDbEntity
  8
0
100
AcDbLine
 62
7
  6
CONTINUOUS
 10
655.8373562599
 20
222.2519157286
 11
654.8373557831
 21
224.9327668304
  0
LINE
  5
4B9
100
AcDbEntity
  8
0
100
AcDbLine
 62
7
  6
CONTINUOUS
 10
654.0873557831
 20
220.3370219822
 11
654.2123567368
 21
219.9540433044
  0
LINE
  5
4BA
100
AcDbEntity
  8
0
100
AcDbLine
 62
7
  6
CONTINUOUS
 10
654.9623567368
 20
219.9540433044
 11
654.8373557831
 21
220.3370219822
  0
LINE
  5
4BB
100
AcDbEntity
  8
0
100
AcDbLine
 62
7
  6
CONTINUOUS
 10
663.3373562599
 20
223.4008519406
 11
663.4623564984
 21
222.8902137036
  0
LINE
  5
4BC
100
AcDbEntity
  8
0
100
AcDbLine
 62
7
  6
CONTINUOUS
 10
664.2123561407
 20
222.8902137036
 11
664.0873562599
 21
223.5285114999
  0
LINE
  5
4BD
100
AcDbEntity
  8
0
100
AcDbLine
 62
7
  6
CONTINUOUS
 10
665.2123562599
 20
220.4646818991
 11
665.3373561407
 21
219.8263837452
  0
LINE
  5
4BE
100
AcDbEntity
  8
0
100
AcDbLine
 62
7
  6
CONTINUOUS
 10
670.0873562599
 20
222.8902137036
 11
669.9623562562
 21
223.5285114999
  0
LINE
  5
4BF
100
AcDbEntity
  8
RUNDUNGEN
100
AcDbLine
 62
7
  6
CONTINUOUS
 10
696.0873562599
 20
195.9327668304
 11
696.0873562599
 21
247.9327668304
  0
LINE
  5
4C0
100
AcDbEntity
  8
0
100
AcDbLine
 62
7
  6
CONTINUOUS
 10
544.056106245
 20
230.1242561917
 11
544.3061062748
 21
229.9965966156
  0
LINE
  5
4C1
100
AcDbEntity
  8
0
100
AcDbLine
 62
7
  6
CONTINUOUS
 10
546.9936062599
 20
230.1242561917
 11
547.2436063792
 21
229.9965966156
  0
LINE
  5
4C2
100
AcDbEntity
  8
0
100
AcDbLine
 62
7
  6
CONTINUOUS
 10
643.0873562599
 20
219.9540433044
 11
643.4623562599
 21
219.4434050674
  0
LINE
  5
4C3
100
AcDbEntity
  8
0
100
AcDbLine
 62
7
  6
CONTINUOUS
 10
646.8373562599
 20
223.911490267
 11
646.4623562599
 21
224.4221285487
  0
LINE
  5
4C4
100
AcDbEntity
  8
0
100
AcDbLine
 62
7
  6
CONTINUOUS
 10
643.8373562599
 20
219.9540433044
 11
643.5873572136
 21
220.3370219822
  0
LINE
  5
4C5
100
AcDbEntity
  8
0
100
AcDbLine
 62
7
  6
CONTINUOUS
 10
646.0873562599
 20
223.911490267
 11
646.3373567368
 21
223.5285114999
  0
LINE
  5
4C6
100
AcDbEntity
  8
0
100
AcDbLine
 62
7
  6
CONTINUOUS
 10
664.0873562599
 20
223.5285114999
 11
663.8373564984
 21
224.0391498263
  0
LINE
  5
4C7
100
AcDbEntity
  8
0
100
AcDbLine
 62
7
  6
CONTINUOUS
 10
666.0873561407
 20
220.0817028637
 11
665.9623562599
 21
220.4646818991
  0
LINE
  5
4C8
100
AcDbEntity
  8
0
100
AcDbLine
 62
7
  6
CONTINUOUS
 10
669.2123562897
 20
223.4008519406
 11
669.3373562599
 21
222.8902137036
  0
LINE
  5
4C9
100
AcDbEntity
  8
RUNDUNGEN
100
AcDbLine
 62
7
  6
CONTINUOUS
 10
697.0873562599
 20
175.9939722075
 11
697.2098875856
 21
173.7834883007
  0
LINE
  5
4CA
100
AcDbEntity
  8
RUNDUNGEN
100
AcDbLine
 62
7
  6
CONTINUOUS
 10
697.0873562599
 20
175.9939722075
 11
697.0873562599
 21
193.8199623068
  0
LINE
  5
4CB
100
AcDbEntity
  8
RUNDUNGEN
100
AcDbLine
 62
7
  6
CONTINUOUS
 10
702.0873562599
 20
78.4327668304
 11
702.0873562599
 21
147.8715615035
  0
LINE
  5
4CC
100
AcDbEntity
  8
RUNDUNGEN
100
AcDbLine
 62
7
  6
CONTINUOUS
 10
703.0873562599
 20
248.9327668304
 11
703.0873562599
 21
196.4327668304
  0
LINE
  5
4CD
100
AcDbEntity
  8
0
100
AcDbLine
 62
7
  6
CONTINUOUS
 10
770.5873562599
 20
228.5327668304
 11
767.7873562599
 21
225.7327668304
  0
LINE
  5
4CE
100
AcDbEntity
  8
0
100
AcDbLine
 62
7
  6
CONTINUOUS
 10
545.7436062003
 20
232.7412774916
 11
545.4936062599
 21
232.8689370508
  0
LINE
  5
4CF
100
AcDbEntity
  8
0
100
AcDbLine
 62
7
  6
CONTINUOUS
 10
642.9623553063
 20
221.9965966101
 11
643.3373553063
 21
221.6136179323
  0
LINE
  5
4D0
100
AcDbEntity
  8
0
100
AcDbLine
 62
7
  6
CONTINUOUS
 10
643.7123553063
 20
222.1242561693
 11
643.4623562599
 21
222.3795752878
  0
LINE
  5
4D1
100
AcDbEntity
  8
0
100
AcDbLine
 62
7
  6
CONTINUOUS
 10
654.2123567368
 20
219.9540433044
 11
654.5873567368
 21
219.4434050674
  0
LINE
  5
4D2
100
AcDbEntity
  8
0
100
AcDbLine
 62
7
  6
CONTINUOUS
 10
663.0873564984
 20
223.7838306184
 11
663.3373562599
 21
223.4008519406
  0
LINE
  5
4D3
100
AcDbEntity
  8
0
100
AcDbLine
 62
7
  6
CONTINUOUS
 10
668.9623562599
 20
223.7838306184
 11
669.2123562897
 21
223.4008519406
  0
LINE
  5
4D4
100
AcDbEntity
  8
0
100
AcDbLine
 62
7
  6
CONTINUOUS
 10
669.9623562562
 20
223.5285114999
 11
669.7123562599
 21
224.0391498263
  0
LINE
  5
4D5
100
AcDbEntity
  8
RUNDUNGEN
100
AcDbLine
 62
7
  6
CONTINUOUS
 10
701.666964517
 20
151.9506471964
 11
697.5077478652
 21
171.9148871252
  0
LINE
  5
4D6
100
AcDbEntity
  8
RUNDUNGEN
100
AcDbLine
 62
7
  6
CONTINUOUS
 10
713.0873562599
 20
196.4327668304
 11
713.0873562599
 21
248.9327668304
  0
LINE
  5
4D7
100
AcDbEntity
  8
BEZUGSACHSEN
100
AcDbLine
 62
7
  6
CONTINUOUS
 10
714.0873562599
 20
78.4327668304
 11
714.0873562599
 21
147.8715615035
  0
LINE
  5
4D8
100
AcDbEntity
  8
BEZUGSACHSEN
100
AcDbLine
 62
7
  6
CONTINUOUS
 10
719.0873562599
 20
193.8199749346
 11
719.0873562599
 21
175.9939722075
  0
LINE
  5
4D9
100
AcDbEntity
  8
RUNDUNGEN
100
AcDbLine
 62
7
  6
CONTINUOUS
 10
719.0873562599
 20
175.9939722075
 11
719.0873562599
 21
193.819971681
  0
LINE
  5
4DA
100
AcDbEntity
  8
RUNDUNGEN
100
AcDbLine
 62
7
  6
CONTINUOUS
 10
720.0873562599
 20
247.9327668304
 11
720.0873562599
 21
195.9327668304
  0
LINE
  5
4DB
100
AcDbEntity
  8
BEZUGSACHSEN
100
AcDbLine
 62
7
  6
CONTINUOUS
 10
714.5077480028
 20
151.9506471964
 11
718.6669646547
 21
171.9148871252
  0
LINE
  5
4DC
100
AcDbEntity
  8
0
100
AcDbLine
 62
7
  6
CONTINUOUS
 10
865.1186060215
 20
212.1455328221
 11
865.3061060215
 21
212.2093626017
  0
LINE
  5
4DD
100
AcDbEntity
  8
0
100
AcDbLine
 62
7
  6
CONTINUOUS
 10
871.8061062599
 20
211.3795752878
 11
871.5561062301
 21
211.3157455082
  0
LINE
  5
4DE
100
AcDbEntity
  8
0
100
AcDbLine
 62
7
  6
CONTINUOUS
 10
870.7436062003
 20
213.4859583284
 11
870.9936063195
 21
213.549788108
  0
LINE
  5
4DF
100
AcDbEntity
  8
0
100
AcDbLine
 62
7
  6
CONTINUOUS
 10
868.1186063792
 20
213.4859583284
 11
868.3686061407
 21
213.549788108
  0
LINE
  5
4E0
100
AcDbEntity
  8
0
100
AcDbLine
 62
7
  6
CONTINUOUS
 10
871.5561062301
 20
210.9327668304
 11
871.868606245
 21
210.9965966101
  0
LINE
  5
4E1
100
AcDbEntity
  8
0
100
AcDbLine
 62
7
  6
CONTINUOUS
 10
643.4623562599
 20
219.4434050674
 11
644.0873553063
 21
219.0604263897
  0
LINE
  5
4E2
100
AcDbEntity
  8
0
100
AcDbLine
 62
7
  6
CONTINUOUS
 10
644.2123562599
 20
219.6987241859
 11
643.8373562599
 21
219.9540433044
  0
LINE
  5
4E3
100
AcDbEntity
  8
0
100
AcDbLine
 62
7
  6
CONTINUOUS
 10
644.0873553063
 20
221.8689370508
 11
643.7123553063
 21
222.1242561693
  0
LINE
  5
4E4
100
AcDbEntity
  8
0
100
AcDbLine
 62
7
  6
CONTINUOUS
 10
654.5873567368
 20
219.4434050674
 11
655.0873562599
 21
219.0604263897
  0
LINE
  5
4E5
100
AcDbEntity
  8
0
100
AcDbLine
 62
7
  6
CONTINUOUS
 10
655.2123557831
 20
219.6987241859
 11
654.9623567368
 21
219.9540433044
  0
LINE
  5
4E6
100
AcDbEntity
  8
0
100
AcDbLine
 62
7
  6
CONTINUOUS
 10
665.3373561407
 20
219.8263837452
 11
665.8373563792
 21
219.3157455082
  0
LINE
  5
4E7
100
AcDbEntity
  8
0
100
AcDbLine
 62
7
  6
CONTINUOUS
 10
663.8373564984
 20
224.0391498263
 11
663.3373562599
 21
224.549788108
  0
LINE
  5
4E8
100
AcDbEntity
  8
RUNDUNGEN
100
AcDbLine
 62
7
  6
CONTINUOUS
 10
735.5873562599
 20
215.2807315564
 11
735.5873562599
 21
228.5848035402
  0
LINE
  5
4E9
100
AcDbEntity
  8
0
100
AcDbLine
 62
7
  6
CONTINUOUS
 10
865.0561062599
 20
212.4646817202
 11
864.8061064984
 21
212.337022161
  0
LINE
  5
4EA
100
AcDbEntity
  8
0
100
AcDbLine
 62
7
  6
CONTINUOUS
 10
868.0561062599
 20
213.8689370452
 11
867.8061061407
 21
213.7412774692
  0
LINE
  5
4EB
100
AcDbEntity
  8
0
100
AcDbLine
 62
7
  6
CONTINUOUS
 10
870.6811062599
 20
213.8689370452
 11
870.4311063195
 21
213.7412774692
  0
LINE
  5
4EC
100
AcDbEntity
  8
0
100
AcDbLine
 62
7
  6
CONTINUOUS
 10
870.9936063195
 20
213.9327668304
 11
870.6811062599
 21
213.8689370452
  0
LINE
  5
4ED
100
AcDbEntity
  8
0
100
AcDbLine
 62
7
  6
CONTINUOUS
 10
868.3686061407
 20
213.9327668304
 11
868.0561062599
 21
213.8689370452
  0
LINE
  5
4EE
100
AcDbEntity
  8
0
100
AcDbLine
 62
7
  6
CONTINUOUS
 10
544.6186062897
 20
230.3157455529
 11
544.3686062599
 21
230.3795753325
  0
LINE
  5
4EF
100
AcDbEntity
  8
0
100
AcDbLine
 62
7
  6
CONTINUOUS
 10
547.5561062599
 20
230.3157455529
 11
547.3061061407
 21
230.3795753325
  0
LINE
  5
4F0
100
AcDbEntity
  8
0
100
AcDbLine
 62
7
  6
CONTINUOUS
 10
545.1811062003
 20
232.5497881527
 11
545.4311063195
 21
232.4859583731
  0
LINE
  5
4F1
100
AcDbEntity
  8
0
100
AcDbLine
 62
7
  6
CONTINUOUS
 10
550.8686064984
 20
232.6136179323
 11
551.0561064984
 21
232.5497881527
  0
LINE
  5
4F2
100
AcDbEntity
  8
0
100
AcDbLine
 62
7
  6
CONTINUOUS
 10
643.3373553063
 20
221.6136179323
 11
643.9623572136
 21
221.2306392546
  0
LINE
  5
4F3
100
AcDbEntity
  8
0
100
AcDbLine
 62
7
  6
CONTINUOUS
 10
646.4623562599
 20
224.4221285487
 11
645.8373572136
 21
224.80510726
  0
LINE
  5
4F4
100
AcDbEntity
  8
0
100
AcDbLine
 62
7
  6
CONTINUOUS
 10
645.7123562599
 20
224.1668093855
 11
646.0873562599
 21
223.911490267
  0
LINE
  5
4F5
100
AcDbEntity
  8
0
100
AcDbLine
 62
7
  6
CONTINUOUS
 10
666.4623561407
 20
219.8263837452
 11
666.0873561407
 21
220.0817028637
  0
LINE
  5
4F6
100
AcDbEntity
  8
0
100
AcDbLine
 62
7
  6
CONTINUOUS
 10
662.7123564984
 20
224.0391498263
 11
663.0873564984
 21
223.7838306184
  0
LINE
  5
4F7
100
AcDbEntity
  8
0
100
AcDbLine
 62
7
  6
CONTINUOUS
 10
669.7123562599
 20
224.0391498263
 11
669.2123562897
 21
224.549788108
  0
LINE
  5
4F8
100
AcDbEntity
  8
0
100
AcDbLine
 62
7
  6
CONTINUOUS
 10
871.868606245
 20
210.9965966101
 11
872.1186062748
 21
211.1242561693
  0
LINE
  5
4F9
100
AcDbEntity
  8
RUNDUNGEN
100
AcDbLine
 62
7
  6
CONTINUOUS
 10
704.0873562599
 20
195.4327668304
 11
712.0873562599
 21
195.4327668304
  0
LINE
  5
4FA
100
AcDbEntity
  8
0
100
AcDbLine
 62
7
  6
CONTINUOUS
 10
712.9533816637
 20
195.9327668304
 11
703.2213308562
 21
195.9327668304
  0
LINE
  5
4FB
100
AcDbEntity
  8
0
100
AcDbLine
 62
7
  6
CONTINUOUS
 10
810.0873562599
 20
202.9327668304
 11
801.9689911635
 21
202.9327668304
  0
LINE
  5
4FC
100
AcDbEntity
  8
BEZUGSACHSEN
100
AcDbLine
 62
7
  6
CONTINUOUS
 10
831.5873562599
 20
202.9327668304
 11
834.5873562599
 21
202.9327668304
  0
LINE
  5
4FD
100
AcDbEntity
  8
0
100
AcDbLine
 62
7
  6
CONTINUOUS
 10
544.3061062748
 20
229.9965966156
 11
544.6186062897
 21
229.9327668304
  0
LINE
  5
4FE
100
AcDbEntity
  8
0
100
AcDbLine
 62
7
  6
CONTINUOUS
 10
547.2436063792
 20
229.9965966156
 11
547.5561062599
 21
229.9327668304
  0
LINE
  5
4FF
100
AcDbEntity
  8
0
100
AcDbLine
 62
7
  6
CONTINUOUS
 10
545.4936062599
 20
232.8689370508
 11
545.1811062003
 21
232.9327668304
  0
LINE
  5
500
100
AcDbEntity
  8
0
100
AcDbLine
 62
7
  6
CONTINUOUS
 10
551.1186062599
 20
232.8689370508
 11
550.8061060215
 21
232.9327668304
  0
LINE
  5
501
100
AcDbEntity
  8
0
100
AcDbLine
 62
7
  6
CONTINUOUS
 10
644.5873562599
 20
219.5710646267
 11
644.2123562599
 21
219.6987241859
  0
LINE
  5
502
100
AcDbEntity
  8
0
100
AcDbLine
 62
7
  6
CONTINUOUS
 10
644.4623553063
 20
221.7412774916
 11
644.0873553063
 21
221.8689370508
  0
LINE
  5
503
100
AcDbEntity
  8
0
100
AcDbLine
 62
7
  6
CONTINUOUS
 10
655.5873557831
 20
219.5710646267
 11
655.2123557831
 21
219.6987241859
  0
LINE
  5
504
100
AcDbEntity
  8
0
100
AcDbLine
 62
7
  6
CONTINUOUS
 10
645.3373562599
 20
224.2944689448
 11
645.7123562599
 21
224.1668093855
  0
LINE
  5
505
100
AcDbEntity
  8
0
100
AcDbLine
 62
7
  6
CONTINUOUS
 10
665.8373563792
 20
219.3157455082
 11
666.3373562599
 21
219.0604263897
  0
LINE
  5
506
100
AcDbEntity
  8
0
100
AcDbLine
 62
7
  6
CONTINUOUS
 10
663.3373562599
 20
224.549788108
 11
662.8373560215
 21
224.80510726
  0
LINE
  5
507
100
AcDbEntity
  8
0
100
AcDbLine
 62
7
  6
CONTINUOUS
 10
669.2123562897
 20
224.549788108
 11
668.7123562301
 21
224.80510726
  0
LINE
  5
508
100
AcDbEntity
  8
0
100
AcDbLine
 62
7
  6
CONTINUOUS
 10
692.1591530297
 20
205.2007160229
 11
691.3553054524
 21
205.664817638
  0
LINE
  5
509
100
AcDbEntity
  8
0
100
AcDbLine
 62
7
  6
CONTINUOUS
 10
668.5873562599
 20
224.0391498263
 11
668.9623562599
 21
223.7838306184
  0
LINE
  5
50A
100
AcDbEntity
  8
0
100
AcDbLine
 62
7
  6
CONTINUOUS
 10
867.9311063792
 20
213.3582987244
 11
868.1186063792
 21
213.4859583284
  0
LINE
  5
50B
100
AcDbEntity
  8
0
100
AcDbLine
 62
7
  6
CONTINUOUS
 10
870.5561062003
 20
213.3582987244
 11
870.7436062003
 21
213.4859583284
  0
LINE
  5
50C
100
AcDbEntity
  8
0
100
AcDbLine
 62
7
  6
CONTINUOUS
 10
871.9936062599
 20
211.5072348471
 11
871.8061062599
 21
211.3795752878
  0
LINE
  5
50D
100
AcDbEntity
  8
0
100
AcDbLine
 62
7
  6
CONTINUOUS
 10
693.1591530297
 20
204.9327668304
 11
696.0873562599
 21
204.9327668304
  0
LINE
  5
50E
100
AcDbEntity
  8
0
100
AcDbLine
 62
7
  6
CONTINUOUS
 10
720.0873562599
 20
204.9327668304
 11
723.0155594902
 21
204.9327668304
  0
LINE
  5
50F
100
AcDbEntity
  8
BEZUGSACHSEN
100
AcDbLine
 62
7
  6
CONTINUOUS
 10
881.5870766893
 20
205.4327668304
 11
860.0873562599
 21
205.4327668304
  0
LINE
  5
510
100
AcDbEntity
  8
BEZUGSACHSEN
100
AcDbLine
 62
7
  6
CONTINUOUS
 10
534.5876358306
 20
205.4327668304
 11
556.0873562599
 21
205.4327668304
  0
LINE
  5
511
100
AcDbEntity
  8
0
100
AcDbLine
 62
7
  6
CONTINUOUS
 10
881.3762804327
 20
205.4327668304
 11
881.5873562599
 21
205.4327668304
  0
LINE
  5
512
100
AcDbEntity
  8
0
100
AcDbLine
 62
7
  6
CONTINUOUS
 10
791.963289098
 20
205.9327668304
 11
725.8194070675
 21
205.9327668304
  0
LINE
  5
513
100
AcDbEntity
  8
0
100
AcDbLine
 62
7
  6
CONTINUOUS
 10
606.5698321128
 20
205.9327668304
 11
690.3553054524
 21
205.9327668304
  0
LINE
  5
514
100
AcDbEntity
  8
BEZUGSACHSEN
100
AcDbLine
 62
7
  6
CONTINUOUS
 10
554.0873562599
 20
209.9327668304
 11
544.0873562599
 21
209.9327668304
  0
LINE
  5
515
100
AcDbEntity
  8
BEZUGSACHSEN
100
AcDbLine
 62
7
  6
CONTINUOUS
 10
862.0873562599
 20
209.9327668304
 11
872.0873562599
 21
209.9327668304
  0
LINE
  5
516
100
AcDbEntity
  8
0
100
AcDbLine
 62
7
  6
CONTINUOUS
 10
861.6186064984
 20
210.9327668304
 11
863.9936060215
 21
210.9327668304
  0
LINE
  5
517
100
AcDbEntity
  8
0
100
AcDbLine
 62
7
  6
CONTINUOUS
 10
865.3686064984
 20
210.9327668304
 11
866.8686061407
 21
210.9327668304
  0
LINE
  5
518
100
AcDbEntity
  8
0
100
AcDbLine
 62
7
  6
CONTINUOUS
 10
867.3686063792
 20
210.9327668304
 11
867.7436063792
 21
210.9327668304
  0
LINE
  5
519
100
AcDbEntity
  8
0
100
AcDbLine
 62
7
  6
CONTINUOUS
 10
869.2436063792
 20
210.9327668304
 11
869.6186062003
 21
210.9327668304
  0
LINE
  5
51A
100
AcDbEntity
  8
0
100
AcDbLine
 62
7
  6
CONTINUOUS
 10
870.9936063195
 20
210.9327668304
 11
871.5561062301
 21
210.9327668304
  0
LINE
  5
51B
100
AcDbEntity
  8
0
100
AcDbLine
 62
7
  6
CONTINUOUS
 10
866.4936064984
 20
211.2519157286
 11
865.3061060215
 21
211.2519157286
  0
LINE
  5
51C
100
AcDbEntity
  8
0
100
AcDbLine
 62
7
  6
CONTINUOUS
 10
863.9936060215
 20
211.2519157286
 11
862.9936062599
 21
211.2519157286
  0
LINE
  5
51D
100
AcDbEntity
  8
0
100
AcDbLine
 62
7
  6
CONTINUOUS
 10
862.6186062599
 20
211.2519157286
 11
861.6186064984
 21
211.2519157286
  0
LINE
  5
51E
100
AcDbEntity
  8
0
100
AcDbLine
 62
7
  6
CONTINUOUS
 10
871.5561062301
 20
211.3157455082
 11
870.9936063195
 21
211.3157455082
  0
LINE
  5
51F
100
AcDbEntity
  8
0
100
AcDbLine
 62
7
  6
CONTINUOUS
 10
870.4936062599
 20
211.6987243647
 11
870.1186062599
 21
211.6987243647
  0
LINE
  5
520
100
AcDbEntity
  8
0
100
AcDbLine
 62
7
  6
CONTINUOUS
 10
865.3061060215
 20
212.2093626017
 11
866.4936064984
 21
212.2093626017
  0
LINE
  5
521
100
AcDbEntity
  8
0
100
AcDbLine
 62
7
  6
CONTINUOUS
 10
866.4936064984
 20
212.5923412795
 11
865.4311062599
 21
212.5923412795
  0
LINE
  5
522
100
AcDbEntity
  8
0
100
AcDbLine
 62
7
  6
CONTINUOUS
 10
870.1186062599
 20
213.1668093855
 11
870.4936062599
 21
213.1668093855
  0
LINE
  5
523
100
AcDbEntity
  8
0
100
AcDbLine
 62
7
  6
CONTINUOUS
 10
868.3686061407
 20
213.549788108
 11
868.6186062599
 21
213.549788108
  0
LINE
  5
524
100
AcDbEntity
  8
0
100
AcDbLine
 62
7
  6
CONTINUOUS
 10
870.9936063195
 20
213.549788108
 11
871.5561062301
 21
213.549788108
  0
LINE
  5
525
100
AcDbEntity
  8
0
100
AcDbLine
 62
7
  6
CONTINUOUS
 10
871.5561062301
 20
213.9327668304
 11
870.9936063195
 21
213.9327668304
  0
LINE
  5
526
100
AcDbEntity
  8
0
100
AcDbLine
 62
7
  6
CONTINUOUS
 10
868.6186062599
 20
213.9327668304
 11
868.3686061407
 21
213.9327668304
  0
LINE
  5
527
100
AcDbEntity
  8
0
100
AcDbLine
 62
7
  6
CONTINUOUS
 10
866.8686061407
 20
213.9327668304
 11
866.4936064984
 21
213.9327668304
  0
LINE
  5
528
100
AcDbEntity
  8
0
100
AcDbLine
 62
7
  6
CONTINUOUS
 10
864.9311060215
 20
213.9327668304
 11
864.4936062599
 21
213.9327668304
  0
LINE
  5
529
100
AcDbEntity
  8
0
100
AcDbLine
 62
7
  6
CONTINUOUS
 10
862.9936062599
 20
213.9327668304
 11
862.6186062599
 21
213.9327668304
  0
LINE
  5
52A
100
AcDbEntity
  8
BEZUGSACHSEN
100
AcDbLine
 62
7
  6
CONTINUOUS
 10
872.0873562599
 20
214.9327668304
 11
862.0873562599
 21
214.9327668304
  0
LINE
  5
52B
100
AcDbEntity
  8
0
100
AcDbLine
 62
7
  6
CONTINUOUS
 10
857.0873562599
 20
214.9327668304
 11
836.0873562599
 21
214.9327668304
  0
LINE
  5
52C
100
AcDbEntity
  8
0
100
AcDbLine
 62
7
  6
CONTINUOUS
 10
831.0873562599
 20
214.9327668304
 11
811.0873562599
 21
214.9327668304
  0
LINE
  5
52D
100
AcDbEntity
  8
RUNDUNGEN
100
AcDbLine
 62
7
  6
CONTINUOUS
 10
604.0873562599
 20
214.9327668304
 11
559.0873562599
 21
214.9327668304
  0
LINE
  5
52E
100
AcDbEntity
  8
BEZUGSACHSEN
100
AcDbLine
 62
7
  6
CONTINUOUS
 10
544.0873562599
 20
214.9327668304
 11
554.0873562599
 21
214.9327668304
  0
LINE
  5
52F
100
AcDbEntity
  8
0
100
AcDbLine
 62
7
  6
CONTINUOUS
 10
559.0873562599
 20
214.9327668304
 11
604.0873562599
 21
214.9327668304
  0
LINE
  5
530
100
AcDbEntity
  8
0
100
AcDbLine
 62
7
  6
CONTINUOUS
 10
769.1873562599
 20
215.5327668304
 11
771.9873562599
 21
215.5327668304
  0
LINE
  5
531
100
AcDbEntity
  8
0
100
AcDbLine
 62
7
  6
CONTINUOUS
 10
644.0873553063
 20
219.0604263897
 11
644.7123572136
 21
218.9327668304
  0
LINE
  5
532
100
AcDbEntity
  8
0
100
AcDbLine
 62
7
  6
CONTINUOUS
 10
643.9623572136
 20
221.2306392546
 11
644.5873562599
 21
221.1029796953
  0
LINE
  5
533
100
AcDbEntity
  8
0
100
AcDbLine
 62
7
  6
CONTINUOUS
 10
655.0873562599
 20
219.0604263897
 11
655.7123567368
 21
218.9327668304
  0
LINE
  5
534
100
AcDbEntity
  8
0
100
AcDbLine
 62
7
  6
CONTINUOUS
 10
666.3373562599
 20
219.0604263897
 11
666.9623563792
 21
218.9327668304
  0
LINE
  5
535
100
AcDbEntity
  8
0
100
AcDbLine
 62
7
  6
CONTINUOUS
 10
645.8373572136
 20
224.80510726
 11
645.2123553063
 21
224.9327668304
  0
LINE
  5
536
100
AcDbEntity
  8
0
100
AcDbLine
 62
7
  6
CONTINUOUS
 10
662.8373560215
 20
224.80510726
 11
662.2123562599
 21
224.9327668304
  0
LINE
  5
537
100
AcDbEntity
  8
0
100
AcDbLine
 62
7
  6
CONTINUOUS
 10
668.7123562301
 20
224.80510726
 11
668.0873562003
 21
224.9327668304
  0
LINE
  5
538
100
AcDbEntity
  8
0
100
AcDbLine
 62
7
  6
CONTINUOUS
 10
666.9623563792
 20
219.6987241859
 11
666.4623561407
 21
219.8263837452
  0
LINE
  5
539
100
AcDbEntity
  8
0
100
AcDbLine
 62
7
  6
CONTINUOUS
 10
662.2123562599
 20
224.1668093855
 11
662.7123564984
 21
224.0391498263
  0
LINE
  5
53A
100
AcDbEntity
  8
0
100
AcDbLine
 62
7
  6
CONTINUOUS
 10
668.0873562003
 20
224.1668093855
 11
668.5873562599
 21
224.0391498263
  0
LINE
  5
53B
100
AcDbEntity
  8
0
100
AcDbLine
 62
7
  6
CONTINUOUS
 10
769.1873562599
 20
225.7327668304
 11
769.1873562599
 21
215.5327668304
  0
LINE
  5
53C
100
AcDbEntity
  8
0
100
AcDbLine
 62
7
  6
CONTINUOUS
 10
771.9873562599
 20
215.5327668304
 11
771.9873562599
 21
225.7327668304
  0
LINE
  5
53D
100
AcDbEntity
  8
0
100
AcDbLine
 62
7
  6
CONTINUOUS
 10
668.5873562599
 20
219.8263837452
 11
668.0873562003
 21
219.6987241859
  0
LINE
  5
53E
100
AcDbEntity
  8
0
100
AcDbLine
 62
7
  6
CONTINUOUS
 10
668.0873562003
 20
218.9327668304
 11
668.7123562301
 21
219.0604263897
  0
LINE
  5
53F
100
AcDbEntity
  8
0
100
AcDbLine
 62
7
  6
CONTINUOUS
 10
645.2123553063
 20
218.9327668304
 11
645.8373572136
 21
219.0604263897
  0
LINE
  5
540
100
AcDbEntity
  8
BEZUGSACHSEN
100
AcDbLine
 62
7
  6
CONTINUOUS
 10
531.4153863225
 20
218.2327668304
 11
546.1873562599
 21
218.2327668304
  0
LINE
  5
541
100
AcDbEntity
  8
RUNDUNGEN
100
AcDbLine
 62
7
  6
CONTINUOUS
 10
878.0873562599
 20
218.2327668304
 11
884.7593261974
 21
218.2327668304
  0
LINE
  5
542
100
AcDbEntity
  8
BEZUGSACHSEN
100
AcDbLine
 62
7
  6
CONTINUOUS
 10
869.9873562599
 20
218.2327668304
 11
884.7590241219
 21
218.2327668304
  0
LINE
  5
543
100
AcDbEntity
  8
0
100
AcDbLine
 62
7
  6
CONTINUOUS
 10
644.7123572136
 20
218.9327668304
 11
645.2123553063
 21
218.9327668304
  0
LINE
  5
544
100
AcDbEntity
  8
0
100
AcDbLine
 62
7
  6
CONTINUOUS
 10
648.2123567368
 20
218.9327668304
 11
652.9623557831
 21
218.9327668304
  0
LINE
  5
545
100
AcDbEntity
  8
0
100
AcDbLine
 62
7
  6
CONTINUOUS
 10
655.7123567368
 20
218.9327668304
 11
658.7123560215
 21
218.9327668304
  0
LINE
  5
546
100
AcDbEntity
  8
0
100
AcDbLine
 62
7
  6
CONTINUOUS
 10
659.7123564984
 20
218.9327668304
 11
660.4623564984
 21
218.9327668304
  0
LINE
  5
547
100
AcDbEntity
  8
0
100
AcDbLine
 62
7
  6
CONTINUOUS
 10
663.4623564984
 20
218.9327668304
 11
664.2123561407
 21
218.9327668304
  0
LINE
  5
548
100
AcDbEntity
  8
0
100
AcDbLine
 62
7
  6
CONTINUOUS
 10
666.9623563792
 20
218.9327668304
 11
668.0873562003
 21
218.9327668304
  0
LINE
  5
549
100
AcDbEntity
  8
0
100
AcDbLine
 62
7
  6
CONTINUOUS
 10
657.9623567368
 20
219.5710646267
 11
655.5873557831
 21
219.5710646267
  0
LINE
  5
54A
100
AcDbEntity
  8
0
100
AcDbLine
 62
7
  6
CONTINUOUS
 10
652.9623557831
 20
219.5710646267
 11
650.9623562599
 21
219.5710646267
  0
LINE
  5
54B
100
AcDbEntity
  8
0
100
AcDbLine
 62
7
  6
CONTINUOUS
 10
650.2123562599
 20
219.5710646267
 11
648.2123567368
 21
219.5710646267
  0
LINE
  5
54C
100
AcDbEntity
  8
0
100
AcDbLine
 62
7
  6
CONTINUOUS
 10
645.3373562599
 20
219.5710646267
 11
644.5873562599
 21
219.5710646267
  0
LINE
  5
54D
100
AcDbEntity
  8
0
100
AcDbLine
 62
7
  6
CONTINUOUS
 10
668.0873562003
 20
219.6987241859
 11
666.9623563792
 21
219.6987241859
  0
LINE
  5
54E
100
AcDbEntity
  8
0
100
AcDbLine
 62
7
  6
CONTINUOUS
 10
643.5873572136
 20
220.3370219822
 11
642.9623553063
 21
220.3370219822
  0
LINE
  5
54F
100
AcDbEntity
  8
0
100
AcDbLine
 62
7
  6
CONTINUOUS
 10
665.9623562599
 20
220.4646818991
 11
665.2123562599
 21
220.4646818991
  0
LINE
  5
550
100
AcDbEntity
  8
0
100
AcDbLine
 62
7
  6
CONTINUOUS
 10
644.5873562599
 20
221.1029796953
 11
645.2123553063
 21
221.1029796953
  0
LINE
  5
551
100
AcDbEntity
  8
0
100
AcDbLine
 62
7
  6
CONTINUOUS
 10
655.5873557831
 20
221.4859583731
 11
657.9623567368
 21
221.4859583731
  0
LINE
  5
552
100
AcDbEntity
  8
0
100
AcDbLine
 62
7
  6
CONTINUOUS
 10
645.3373562599
 20
221.7412774916
 11
644.4623553063
 21
221.7412774916
  0
LINE
  5
553
100
AcDbEntity
  8
0
100
AcDbLine
 62
7
  6
CONTINUOUS
 10
657.9623567368
 20
222.2519157286
 11
655.8373562599
 21
222.2519157286
  0
LINE
  5
554
100
AcDbEntity
  8
0
100
AcDbLine
 62
7
  6
CONTINUOUS
 10
665.2123562599
 20
223.4008519406
 11
665.9623562599
 21
223.4008519406
  0
LINE
  5
555
100
AcDbEntity
  8
0
100
AcDbLine
 62
7
  6
CONTINUOUS
 10
661.7123560215
 20
224.1668093855
 11
662.2123562599
 21
224.1668093855
  0
LINE
  5
556
100
AcDbEntity
  8
0
100
AcDbLine
 62
7
  6
CONTINUOUS
 10
666.9623563792
 20
224.1668093855
 11
668.0873562003
 21
224.1668093855
  0
LINE
  5
557
100
AcDbEntity
  8
0
100
AcDbLine
 62
7
  6
CONTINUOUS
 10
644.4623553063
 20
224.2944689448
 11
645.3373562599
 21
224.2944689448
  0
LINE
  5
558
100
AcDbEntity
  8
0
100
AcDbLine
 62
7
  6
CONTINUOUS
 10
852.0873562599
 20
224.4327668304
 11
836.0873562599
 21
224.4327668304
  0
LINE
  5
559
100
AcDbEntity
  8
0
100
AcDbLine
 62
7
  6
CONTINUOUS
 10
831.0873562599
 20
224.4327668304
 11
811.0873562599
 21
224.4327668304
  0
LINE
  5
55A
100
AcDbEntity
  8
0
100
AcDbLine
 62
7
  6
CONTINUOUS
 10
668.0873562003
 20
224.9327668304
 11
666.9623563792
 21
224.9327668304
  0
LINE
  5
55B
100
AcDbEntity
  8
0
100
AcDbLine
 62
7
  6
CONTINUOUS
 10
662.2123562599
 20
224.9327668304
 11
661.7123560215
 21
224.9327668304
  0
LINE
  5
55C
100
AcDbEntity
  8
0
100
AcDbLine
 62
7
  6
CONTINUOUS
 10
658.7123560215
 20
224.9327668304
 11
657.9623567368
 21
224.9327668304
  0
LINE
  5
55D
100
AcDbEntity
  8
0
100
AcDbLine
 62
7
  6
CONTINUOUS
 10
654.8373557831
 20
224.9327668304
 11
653.9623562599
 21
224.9327668304
  0
LINE
  5
55E
100
AcDbEntity
  8
0
100
AcDbLine
 62
7
  6
CONTINUOUS
 10
650.9623562599
 20
224.9327668304
 11
650.2123562599
 21
224.9327668304
  0
LINE
  5
55F
100
AcDbEntity
  8
0
100
AcDbLine
 62
7
  6
CONTINUOUS
 10
645.2123553063
 20
224.9327668304
 11
644.5873562599
 21
224.9327668304
  0
LINE
  5
560
100
AcDbEntity
  8
RUNDUNGEN
100
AcDbLine
 62
7
  6
CONTINUOUS
 10
538.0873562599
 20
225.6327668304
 11
531.4153863225
 21
225.6327668304
  0
LINE
  5
561
100
AcDbEntity
  8
BEZUGSACHSEN
100
AcDbLine
 62
7
  6
CONTINUOUS
 10
531.415688398
 20
225.6327668304
 11
546.1873562599
 21
225.6327668304
  0
LINE
  5
562
100
AcDbEntity
  8
BEZUGSACHSEN
100
AcDbLine
 62
7
  6
CONTINUOUS
 10
869.9873562599
 20
225.6327668304
 11
884.7590241219
 21
225.6327668304
  0
LINE
  5
563
100
AcDbEntity
  8
0
100
AcDbLine
 62
7
  6
CONTINUOUS
 10
767.7873562599
 20
225.7327668304
 11
769.1873562599
 21
225.7327668304
  0
LINE
  5
564
100
AcDbEntity
  8
0
100
AcDbLine
 62
7
  6
CONTINUOUS
 10
771.9873562599
 20
225.7327668304
 11
773.3873562599
 21
225.7327668304
  0
LINE
  5
565
100
AcDbEntity
  8
0
100
AcDbLine
 62
7
  6
CONTINUOUS
 10
857.0873562599
 20
228.4711152457
 11
836.0873562599
 21
228.4711152457
  0
LINE
  5
566
100
AcDbEntity
  8
0
100
AcDbLine
 62
7
  6
CONTINUOUS
 10
831.0873562599
 20
228.4711152457
 11
811.0873562599
 21
228.4711152457
  0
LINE
  5
567
100
AcDbEntity
  8
BEZUGSACHSEN
100
AcDbLine
 62
7
  6
CONTINUOUS
 10
872.0873562599
 20
228.9327668304
 11
862.0873562599
 21
228.9327668304
  0
LINE
  5
568
100
AcDbEntity
  8
0
100
AcDbLine
 62
7
  6
CONTINUOUS
 10
857.0873562599
 20
228.9327668304
 11
836.0873562599
 21
228.9327668304
  0
LINE
  5
569
100
AcDbEntity
  8
0
100
AcDbLine
 62
7
  6
CONTINUOUS
 10
831.0873562599
 20
228.9327668304
 11
811.0873562599
 21
228.9327668304
  0
LINE
  5
56A
100
AcDbEntity
  8
RUNDUNGEN
100
AcDbLine
 62
7
  6
CONTINUOUS
 10
604.0873562599
 20
228.9327668304
 11
559.0873562599
 21
228.9327668304
  0
LINE
  5
56B
100
AcDbEntity
  8
BEZUGSACHSEN
100
AcDbLine
 62
7
  6
CONTINUOUS
 10
544.0873562599
 20
228.9327668304
 11
554.0873562599
 21
228.9327668304
  0
LINE
  5
56C
100
AcDbEntity
  8
0
100
AcDbLine
 62
7
  6
CONTINUOUS
 10
559.0873562599
 20
228.9327668304
 11
604.0873562599
 21
228.9327668304
  0
LINE
  5
56D
100
AcDbEntity
  8
0
100
AcDbLine
 62
7
  6
CONTINUOUS
 10
544.6186062897
 20
229.9327668304
 11
545.1811062003
 21
229.9327668304
  0
LINE
  5
56E
100
AcDbEntity
  8
0
100
AcDbLine
 62
7
  6
CONTINUOUS
 10
547.5561062599
 20
229.9327668304
 11
547.8061063792
 21
229.9327668304
  0
LINE
  5
56F
100
AcDbEntity
  8
0
100
AcDbLine
 62
7
  6
CONTINUOUS
 10
549.3061063792
 20
229.9327668304
 11
549.6811060215
 21
229.9327668304
  0
LINE
  5
570
100
AcDbEntity
  8
0
100
AcDbLine
 62
7
  6
CONTINUOUS
 10
551.2436064984
 20
229.9327668304
 11
551.6811062599
 21
229.9327668304
  0
LINE
  5
571
100
AcDbEntity
  8
0
100
AcDbLine
 62
7
  6
CONTINUOUS
 10
553.1811062599
 20
229.9327668304
 11
553.5561062599
 21
229.9327668304
  0
LINE
  5
572
100
AcDbEntity
  8
0
100
AcDbLine
 62
7
  6
CONTINUOUS
 10
547.8061063792
 20
230.3157455529
 11
547.5561062599
 21
230.3157455529
  0
LINE
  5
573
100
AcDbEntity
  8
0
100
AcDbLine
 62
7
  6
CONTINUOUS
 10
545.1811062003
 20
230.3157455529
 11
544.6186062897
 21
230.3157455529
  0
LINE
  5
574
100
AcDbEntity
  8
RUNDUNGEN
100
AcDbLine
 62
7
  6
CONTINUOUS
 10
785.5873562599
 20
228.5848021473
 11
785.5873562599
 21
215.2807301648
  0
LINE
  5
575
100
AcDbEntity
  8
0
100
AcDbLine
 62
7
  6
CONTINUOUS
 10
864.9936064984
 20
212.0178732629
 11
865.1186060215
 21
212.1455328221
  0
LINE
  5
576
100
AcDbEntity
  8
0
100
AcDbLine
 62
7
  6
CONTINUOUS
 10
867.8061061407
 20
213.7412774692
 11
867.5561063792
 21
213.4859583284
  0
LINE
  5
577
100
AcDbEntity
  8
0
100
AcDbLine
 62
7
  6
CONTINUOUS
 10
870.4311063195
 20
213.7412774692
 11
870.1811062003
 21
213.4859583284
  0
LINE
  5
578
100
AcDbEntity
  8
0
100
AcDbLine
 62
7
  6
CONTINUOUS
 10
666.4623561407
 20
224.0391498263
 11
666.9623563792
 21
224.1668093855
  0
LINE
  5
579
100
AcDbEntity
  8
0
100
AcDbLine
 62
7
  6
CONTINUOUS
 10
661.2123564984
 20
224.0391498263
 11
661.7123560215
 21
224.1668093855
  0
LINE
  5
57A
100
AcDbEntity
  8
0
100
AcDbLine
 62
7
  6
CONTINUOUS
 10
666.9623563792
 20
224.9327668304
 11
666.3373562599
 21
224.80510726
  0
LINE
  5
57B
100
AcDbEntity
  8
0
100
AcDbLine
 62
7
  6
CONTINUOUS
 10
645.2123553063
 20
221.1029796953
 11
645.8373572136
 21
221.2306392546
  0
LINE
  5
57C
100
AcDbEntity
  8
0
100
AcDbLine
 62
7
  6
CONTINUOUS
 10
661.7123560215
 20
224.9327668304
 11
661.0873562599
 21
224.80510726
  0
LINE
  5
57D
100
AcDbEntity
  8
0
100
AcDbLine
 62
7
  6
CONTINUOUS
 10
644.5873562599
 20
224.9327668304
 11
643.9623572136
 21
224.80510726
  0
LINE
  5
57E
100
AcDbEntity
  8
0
100
AcDbLine
 62
7
  6
CONTINUOUS
 10
546.0561062599
 20
230.6987242753
 11
545.6811062599
 21
230.6987242753
  0
LINE
  5
57F
100
AcDbEntity
  8
0
100
AcDbLine
 62
7
  6
CONTINUOUS
 10
549.6811060215
 20
231.2731923814
 11
550.7436062599
 21
231.2731923814
  0
LINE
  5
580
100
AcDbEntity
  8
0
100
AcDbLine
 62
7
  6
CONTINUOUS
 10
550.8686064984
 20
231.6561710591
 11
549.6811060215
 21
231.6561710591
  0
LINE
  5
581
100
AcDbEntity
  8
0
100
AcDbLine
 62
7
  6
CONTINUOUS
 10
545.6811062599
 20
232.1668092961
 11
546.0561062599
 21
232.1668092961
  0
LINE
  5
582
100
AcDbEntity
  8
0
100
AcDbLine
 62
7
  6
CONTINUOUS
 10
544.6186062897
 20
232.5497881527
 11
545.1811062003
 21
232.5497881527
  0
LINE
  5
583
100
AcDbEntity
  8
0
100
AcDbLine
 62
7
  6
CONTINUOUS
 10
549.6811060215
 20
232.6136179323
 11
550.8686064984
 21
232.6136179323
  0
LINE
  5
584
100
AcDbEntity
  8
0
100
AcDbLine
 62
7
  6
CONTINUOUS
 10
552.1811064984
 20
232.6136179323
 11
553.1811062599
 21
232.6136179323
  0
LINE
  5
585
100
AcDbEntity
  8
0
100
AcDbLine
 62
7
  6
CONTINUOUS
 10
553.5561062599
 20
232.6136179323
 11
554.5561060215
 21
232.6136179323
  0
LINE
  5
586
100
AcDbEntity
  8
0
100
AcDbLine
 62
7
  6
CONTINUOUS
 10
554.5561060215
 20
232.9327668304
 11
552.1811064984
 21
232.9327668304
  0
LINE
  5
587
100
AcDbEntity
  8
0
100
AcDbLine
 62
7
  6
CONTINUOUS
 10
550.8061060215
 20
232.9327668304
 11
549.3061063792
 21
232.9327668304
  0
LINE
  5
588
100
AcDbEntity
  8
0
100
AcDbLine
 62
7
  6
CONTINUOUS
 10
548.8061061407
 20
232.9327668304
 11
548.4311061407
 21
232.9327668304
  0
LINE
  5
589
100
AcDbEntity
  8
0
100
AcDbLine
 62
7
  6
CONTINUOUS
 10
546.9311061407
 20
232.9327668304
 11
546.5561063195
 21
232.9327668304
  0
LINE
  5
58A
100
AcDbEntity
  8
0
100
AcDbLine
 62
7
  6
CONTINUOUS
 10
545.1811062003
 20
232.9327668304
 11
544.6186062897
 21
232.9327668304
  0
LINE
  5
58B
100
AcDbEntity
  8
BEZUGSACHSEN
100
AcDbLine
 62
7
  6
CONTINUOUS
 10
554.0873562599
 20
233.9327668304
 11
544.0873562599
 21
233.9327668304
  0
LINE
  5
58C
100
AcDbEntity
  8
BEZUGSACHSEN
100
AcDbLine
 62
7
  6
CONTINUOUS
 10
862.0873562599
 20
233.9327668304
 11
872.0873562599
 21
233.9327668304
  0
LINE
  5
58D
100
AcDbEntity
  8
0
100
AcDbLine
 62
7
  6
CONTINUOUS
 10
791.963289098
 20
237.9327668304
 11
725.8194070675
 21
237.9327668304
  0
LINE
  5
58E
100
AcDbEntity
  8
0
100
AcDbLine
 62
7
  6
CONTINUOUS
 10
690.3553054524
 20
237.9327668304
 11
606.5698321128
 21
237.9327668304
  0
LINE
  5
58F
100
AcDbEntity
  8
0
100
AcDbLine
 62
7
  6
CONTINUOUS
 10
534.7984320872
 20
238.4327668304
 11
534.5873562599
 21
238.4327668304
  0
LINE
  5
590
100
AcDbEntity
  8
BEZUGSACHSEN
100
AcDbLine
 62
7
  6
CONTINUOUS
 10
534.5876358306
 20
238.4327668304
 11
556.0873562599
 21
238.4327668304
  0
LINE
  5
591
100
AcDbEntity
  8
BEZUGSACHSEN
100
AcDbLine
 62
7
  6
CONTINUOUS
 10
860.0873562599
 20
238.4327668304
 11
881.5870766893
 21
238.4327668304
  0
LINE
  5
592
100
AcDbEntity
  8
0
100
AcDbLine
 62
7
  6
CONTINUOUS
 10
693.1591530297
 20
238.9327668304
 11
696.0873562599
 21
238.9327668304
  0
LINE
  5
593
100
AcDbEntity
  8
0
100
AcDbLine
 62
7
  6
CONTINUOUS
 10
720.0873562599
 20
238.9327668304
 11
723.0155594902
 21
238.9327668304
  0
LINE
  5
594
100
AcDbEntity
  8
0
100
AcDbLine
 62
7
  6
CONTINUOUS
 10
810.0873562599
 20
240.9327668304
 11
801.9689911635
 21
240.9327668304
  0
LINE
  5
595
100
AcDbEntity
  8
RUNDUNGEN
100
AcDbLine
 62
7
  6
CONTINUOUS
 10
801.9689911635
 20
240.9327668304
 11
810.0873562599
 21
240.9327668304
  0
LINE
  5
596
100
AcDbEntity
  8
BEZUGSACHSEN
100
AcDbLine
 62
7
  6
CONTINUOUS
 10
831.5873562599
 20
240.9327668304
 11
834.5873562599
 21
240.9327668304
  0
LINE
  5
597
100
AcDbEntity
  8
0
100
AcDbLine
 62
7
  6
CONTINUOUS
 10
865.0561062599
 20
210.9965966101
 11
865.3686064984
 21
210.9327668304
  0
LINE
  5
598
100
AcDbEntity
  8
0
100
AcDbLine
 62
7
  6
CONTINUOUS
 10
870.6811062599
 20
210.9965966101
 11
870.9936063195
 21
210.9327668304
  0
LINE
  5
599
100
AcDbEntity
  8
0
100
AcDbLine
 62
7
  6
CONTINUOUS
 10
800.2588904469
 20
203.2343037265
 11
793.6733898147
 21
205.6312299344
  0
LINE
  5
59A
100
AcDbEntity
  8
0
100
AcDbLine
 62
7
  6
CONTINUOUS
 10
724.8194070675
 20
238.2007160229
 11
724.0155594902
 21
238.664817638
  0
LINE
  5
59B
100
AcDbEntity
  8
0
100
AcDbLine
 62
7
  6
CONTINUOUS
 10
872.1186062748
 20
211.1242561693
 11
872.3686062599
 21
211.3795752878
  0
LINE
  5
59C
100
AcDbEntity
  8
0
100
AcDbLine
 62
7
  6
CONTINUOUS
 10
713.0873562599
 20
247.9327668304
 11
703.0873562599
 21
247.9327668304
  0
LINE
  5
59D
100
AcDbEntity
  8
0
100
AcDbLine
 62
7
  6
CONTINUOUS
 10
719.0873562599
 20
248.9327668304
 11
713.0873562599
 21
248.9327668304
  0
LINE
  5
59E
100
AcDbEntity
  8
0
100
AcDbLine
 62
7
  6
CONTINUOUS
 10
703.0873562599
 20
248.9327668304
 11
697.0873562599
 21
248.9327668304
  0
LINE
  5
59F
100
AcDbEntity
  8
0
100
AcDbLine
 62
7
  6
CONTINUOUS
 10
868.9311061407
 20
213.8689370452
 11
868.6186062599
 21
213.9327668304
  0
LINE
  5
5A0
100
AcDbEntity
  8
0
100
AcDbLine
 62
7
  6
CONTINUOUS
 10
871.868606245
 20
213.8689370452
 11
871.5561062301
 21
213.9327668304
  0
LINE
  5
5A1
100
AcDbEntity
  8
0
100
AcDbLine
 62
7
  6
CONTINUOUS
 10
870.9936063195
 20
211.3157455082
 11
870.7436062003
 21
211.3795752878
  0
LINE
  5
5A2
100
AcDbEntity
  8
0
100
AcDbLine
 62
7
  6
CONTINUOUS
 10
868.6186062599
 20
213.549788108
 11
868.8686063792
 21
213.4859583284
  0
LINE
  5
5A3
100
AcDbEntity
  8
0
100
AcDbLine
 62
7
  6
CONTINUOUS
 10
871.5561062301
 20
213.549788108
 11
871.8061062599
 21
213.4859583284
  0
LINE
  5
5A4
100
AcDbEntity
  8
0
100
AcDbLine
 62
7
  6
CONTINUOUS
 10
773.3873562599
 20
225.7327668304
 11
770.5873562599
 21
228.5327668304
  0
LINE
  5
5A5
100
AcDbEntity
  8
RUNDUNGEN
100
AcDbLine
 62
7
  6
CONTINUOUS
 10
811.0873562599
 20
203.9327668304
 11
811.0873562599
 21
239.9327668304
  0
LINE
  5
5A6
100
AcDbEntity
  8
0
100
AcDbLine
 62
7
  6
CONTINUOUS
 10
867.8061061407
 20
213.1668093855
 11
867.9311063792
 21
213.3582987244
  0
LINE
  5
5A7
100
AcDbEntity
  8
0
100
AcDbLine
 62
7
  6
CONTINUOUS
 10
864.8061064984
 20
212.337022161
 11
864.6186064984
 21
212.0817030425
  0
LINE
  5
5A8
100
AcDbEntity
  8
0
100
AcDbLine
 62
7
  6
CONTINUOUS
 10
883.7181081677
 20
206.3372173549
 11
887.3066960603
 21
210.0533089013
  0
LINE
  5
5A9
100
AcDbEntity
  8
0
100
AcDbLine
 62
7
  6
CONTINUOUS
 10
548.0561061407
 20
230.3795753325
 11
547.8061063792
 21
230.3157455529
  0
LINE
  5
5AA
100
AcDbEntity
  8
0
100
AcDbLine
 62
7
  6
CONTINUOUS
 10
545.4311063195
 20
230.3795753325
 11
545.1811062003
 21
230.3157455529
  0
LINE
  5
5AB
100
AcDbEntity
  8
0
100
AcDbLine
 62
7
  6
CONTINUOUS
 10
547.8061063792
 20
229.9327668304
 11
548.1186062599
 21
229.9965966156
  0
LINE
  5
5AC
100
AcDbEntity
  8
0
100
AcDbLine
 62
7
  6
CONTINUOUS
 10
545.1811062003
 20
229.9327668304
 11
545.4936062599
 21
229.9965966156
  0
LINE
  5
5AD
100
AcDbEntity
  8
0
100
AcDbLine
 62
7
  6
CONTINUOUS
 10
544.6186062897
 20
232.9327668304
 11
544.3061062748
 21
232.8689370508
  0
LINE
  5
5AE
100
AcDbEntity
  8
0
100
AcDbLine
 62
7
  6
CONTINUOUS
 10
865.3061060215
 20
211.2519157286
 11
865.1186060215
 21
211.3157455082
  0
LINE
  5
5AF
100
AcDbEntity
  8
0
100
AcDbLine
 62
7
  6
CONTINUOUS
 10
867.5561063792
 20
213.4859583284
 11
867.4311061407
 21
213.2306391651
  0
LINE
  5
5B0
100
AcDbEntity
  8
0
100
AcDbLine
 62
7
  6
CONTINUOUS
 10
872.1186062748
 20
211.6987243647
 11
871.9936062599
 21
211.5072348471
  0
LINE
  5
5B1
100
AcDbEntity
  8
0
100
AcDbLine
 62
7
  6
CONTINUOUS
 10
544.3686062599
 20
232.4859583731
 11
544.6186062897
 21
232.5497881527
  0
LINE
  5
5B2
100
AcDbEntity
  8
0
100
AcDbLine
 62
7
  6
CONTINUOUS
 10
870.4311063195
 20
211.1242561693
 11
870.6811062599
 21
210.9965966101
  0
LINE
  5
5B3
100
AcDbEntity
  8
0
100
AcDbLine
 62
7
  6
CONTINUOUS
 10
869.1811062599
 20
213.7412774692
 11
868.9311061407
 21
213.8689370452
  0
LINE
  5
5B4
100
AcDbEntity
  8
0
100
AcDbLine
 62
7
  6
CONTINUOUS
 10
872.1186062748
 20
213.7412774692
 11
871.868606245
 21
213.8689370452
  0
LINE
  5
5B5
100
AcDbEntity
  8
RUNDUNGEN
100
AcDbLine
 62
7
  6
CONTINUOUS
 10
831.0873562599
 20
240.4327668304
 11
831.0873562599
 21
203.4327668304
  0
LINE
  5
5B6
100
AcDbEntity
  8
RUNDUNGEN
100
AcDbLine
 62
7
  6
CONTINUOUS
 10
836.0873562599
 20
239.4322897124
 11
836.0873562599
 21
204.4327668304
  0
LINE
  5
5B7
100
AcDbEntity
  8
0
100
AcDbLine
 62
7
  6
CONTINUOUS
 10
864.6186064984
 20
212.0817030425
 11
864.5561060215
 21
211.8902137036
  0
LINE
  5
5B8
100
AcDbEntity
  8
0
100
AcDbLine
 62
7
  6
CONTINUOUS
 10
864.9311060215
 20
211.826383924
 11
864.9936064984
 21
212.0178732629
  0
LINE
  5
5B9
100
AcDbEntity
  8
0
100
AcDbLine
 62
7
  6
CONTINUOUS
 10
872.3686062599
 20
211.3795752878
 11
872.4936062581
 21
211.6348944063
  0
LINE
  5
5BA
100
AcDbEntity
  8
0
100
AcDbLine
 62
7
  6
CONTINUOUS
 10
870.7436062003
 20
211.3795752878
 11
870.5561062003
 21
211.5072348471
  0
LINE
  5
5BB
100
AcDbEntity
  8
0
100
AcDbLine
 62
7
  6
CONTINUOUS
 10
868.8686063792
 20
213.4859583284
 11
869.0561063792
 21
213.3582987244
  0
LINE
  5
5BC
100
AcDbEntity
  8
0
100
AcDbLine
 62
7
  6
CONTINUOUS
 10
871.8061062599
 20
213.4859583284
 11
871.9936062599
 21
213.3582987244
  0
LINE
  5
5BD
100
AcDbEntity
  8
0
100
AcDbLine
 62
7
  6
CONTINUOUS
 10
864.8061064984
 20
211.1880859489
 11
865.0561062599
 21
210.9965966101
  0
LINE
  5
5BE
100
AcDbEntity
  8
0
100
AcDbLine
 62
7
  6
CONTINUOUS
 10
867.4311061407
 20
213.2306391651
 11
867.3686063792
 21
212.911490267
  0
LINE
  5
5BF
100
AcDbEntity
  8
0
100
AcDbLine
 62
7
  6
CONTINUOUS
 10
867.7436063792
 20
212.911490267
 11
867.8061061407
 21
213.1668093855
  0
LINE
  5
5C0
100
AcDbEntity
  8
0
100
AcDbLine
 62
7
  6
CONTINUOUS
 10
872.1811062599
 20
211.9540434832
 11
872.1186062748
 21
211.6987243647
  0
LINE
  5
5C1
100
AcDbEntity
  8
0
100
AcDbLine
 62
7
  6
CONTINUOUS
 10
870.4936062599
 20
213.1668093855
 11
870.5561062003
 21
213.3582987244
  0
LINE
  5
5C2
100
AcDbEntity
  8
0
100
AcDbLine
 62
7
  6
CONTINUOUS
 10
865.1186060215
 20
211.3157455082
 11
864.9936064984
 21
211.4434050674
  0
LINE
  5
5C3
100
AcDbEntity
  8
BEZUGSACHSEN
100
AcDbLine
 62
7
  6
CONTINUOUS
 10
858.0873562599
 20
236.4327668304
 11
858.0873562599
 21
207.4327668304
  0
LINE
  5
5C4
100
AcDbEntity
  8
RUNDUNGEN
100
AcDbLine
 62
7
  6
CONTINUOUS
 10
858.0873562599
 20
236.4327668304
 11
858.0873562599
 21
207.4327668304
  0
LINE
  5
5C5
100
AcDbEntity
  8
0
100
AcDbLine
 62
7
  6
CONTINUOUS
 10
861.6186064984
 20
211.2519157286
 11
861.6186064984
 21
210.9327668304
  0
LINE
  5
5C6
100
AcDbEntity
  8
0
100
AcDbLine
 62
7
  6
CONTINUOUS
 10
862.6186062599
 20
213.9327668304
 11
862.6186062599
 21
211.2519157286
  0
LINE
  5
5C7
100
AcDbEntity
  8
0
100
AcDbLine
 62
7
  6
CONTINUOUS
 10
862.9936062599
 20
211.2519157286
 11
862.9936062599
 21
213.9327668304
  0
LINE
  5
5C8
100
AcDbEntity
  8
0
100
AcDbLine
 62
7
  6
CONTINUOUS
 10
863.9936060215
 20
210.9327668304
 11
863.9936060215
 21
211.2519157286
  0
LINE
  5
5C9
100
AcDbEntity
  8
0
100
AcDbLine
 62
7
  6
CONTINUOUS
 10
864.5561060215
 20
211.8902137036
 11
864.5561060215
 21
211.6348944063
  0
LINE
  5
5CA
100
AcDbEntity
  8
0
100
AcDbLine
 62
7
  6
CONTINUOUS
 10
864.9311060215
 20
211.6348944063
 11
864.9311060215
 21
211.826383924
  0
LINE
  5
5CB
100
AcDbEntity
  8
0
100
AcDbLine
 62
7
  6
CONTINUOUS
 10
866.4936064984
 20
213.9327668304
 11
866.4936064984
 21
212.5923412795
  0
LINE
  5
5CC
100
AcDbEntity
  8
0
100
AcDbLine
 62
7
  6
CONTINUOUS
 10
866.4936064984
 20
212.2093626017
 11
866.4936064984
 21
211.2519157286
  0
LINE
  5
5CD
100
AcDbEntity
  8
0
100
AcDbLine
 62
7
  6
CONTINUOUS
 10
866.8686061407
 20
210.9327668304
 11
866.8686061407
 21
213.9327668304
  0
LINE
  5
5CE
100
AcDbEntity
  8
0
100
AcDbLine
 62
7
  6
CONTINUOUS
 10
867.3686063792
 20
212.911490267
 11
867.3686063792
 21
210.9327668304
  0
LINE
  5
5CF
100
AcDbEntity
  8
0
100
AcDbLine
 62
7
  6
CONTINUOUS
 10
867.7436063792
 20
210.9327668304
 11
867.7436063792
 21
212.911490267
  0
LINE
  5
5D0
100
AcDbEntity
  8
0
100
AcDbLine
 62
7
  6
CONTINUOUS
 10
869.2436063792
 20
212.911490267
 11
869.2436063792
 21
210.9327668304
  0
LINE
  5
5D1
100
AcDbEntity
  8
0
100
AcDbLine
 62
7
  6
CONTINUOUS
 10
870.1811062003
 20
213.4859583284
 11
870.1186062599
 21
213.1668093855
  0
LINE
  5
5D2
100
AcDbEntity
  8
0
100
AcDbLine
 62
7
  6
CONTINUOUS
 10
872.4936062581
 20
211.6348944063
 11
872.5561062599
 21
211.9540434832
  0
LINE
  5
5D3
100
AcDbEntity
  8
0
100
AcDbLine
 62
7
  6
CONTINUOUS
 10
870.1811062003
 20
211.3795752878
 11
870.4311063195
 21
211.1242561693
  0
LINE
  5
5D4
100
AcDbEntity
  8
0
100
AcDbLine
 62
7
  6
CONTINUOUS
 10
869.4311063792
 20
213.4859583284
 11
869.1811062599
 21
213.7412774692
  0
LINE
  5
5D5
100
AcDbEntity
  8
0
100
AcDbLine
 62
7
  6
CONTINUOUS
 10
872.3686062599
 20
213.4859583284
 11
872.1186062748
 21
213.7412774692
  0
LINE
  5
5D6
100
AcDbEntity
  8
0
100
AcDbLine
 62
7
  6
CONTINUOUS
 10
864.6186064984
 20
211.4434050674
 11
864.8061064984
 21
211.1880859489
  0
LINE
  5
5D7
100
AcDbEntity
  8
0
100
AcDbLine
 62
7
  6
CONTINUOUS
 10
869.6186062003
 20
210.9327668304
 11
869.6186062003
 21
212.911490267
  0
LINE
  5
5D8
100
AcDbEntity
  8
0
100
AcDbLine
 62
7
  6
CONTINUOUS
 10
872.1811062599
 20
212.911490267
 11
872.1811062599
 21
211.9540434832
  0
LINE
  5
5D9
100
AcDbEntity
  8
0
100
AcDbLine
 62
7
  6
CONTINUOUS
 10
872.5561062599
 20
211.9540434832
 11
872.5561062599
 21
212.911490267
  0
LINE
  5
5DA
100
AcDbEntity
  8
0
100
AcDbLine
 62
7
  6
CONTINUOUS
 10
872.7273562599
 20
218.2327668304
 11
872.7273562599
 21
225.6327668304
  0
LINE
  5
5DB
100
AcDbEntity
  8
0
100
AcDbLine
 62
7
  6
CONTINUOUS
 10
869.0561063792
 20
213.3582987244
 11
869.1811062599
 21
213.1668093855
  0
LINE
  5
5DC
100
AcDbEntity
  8
0
100
AcDbLine
 62
7
  6
CONTINUOUS
 10
871.9936062599
 20
213.3582987244
 11
872.1186062748
 21
213.1668093855
  0
LINE
  5
5DD
100
AcDbEntity
  8
0
100
AcDbLine
 62
7
  6
CONTINUOUS
 10
869.5561062599
 20
213.2306391651
 11
869.4311063792
 21
213.4859583284
  0
LINE
  5
5DE
100
AcDbEntity
  8
0
100
AcDbLine
 62
7
  6
CONTINUOUS
 10
872.4936062581
 20
213.2306391651
 11
872.3686062599
 21
213.4859583284
  0
LINE
  5
5DF
100
AcDbEntity
  8
0
100
AcDbLine
 62
7
  6
CONTINUOUS
 10
864.4936062599
 20
213.9327668304
 11
865.0561062599
 21
212.4646817202
  0
LINE
  5
5E0
100
AcDbEntity
  8
0
100
AcDbLine
 62
7
  6
CONTINUOUS
 10
865.4311062599
 20
212.5923412795
 11
864.9311060215
 21
213.9327668304
  0
LINE
  5
5E1
100
AcDbEntity
  8
0
100
AcDbLine
 62
7
  6
CONTINUOUS
 10
864.5561060215
 20
211.6348944063
 11
864.6186064984
 21
211.4434050674
  0
LINE
  5
5E2
100
AcDbEntity
  8
0
100
AcDbLine
 62
7
  6
CONTINUOUS
 10
864.9936064984
 20
211.4434050674
 11
864.9311060215
 21
211.6348944063
  0
LINE
  5
5E3
100
AcDbEntity
  8
0
100
AcDbLine
 62
7
  6
CONTINUOUS
 10
870.5561062003
 20
211.5072348471
 11
870.4936062599
 21
211.6987243647
  0
LINE
  5
5E4
100
AcDbEntity
  8
0
100
AcDbLine
 62
7
  6
CONTINUOUS
 10
869.1811062599
 20
213.1668093855
 11
869.2436063792
 21
212.911490267
  0
LINE
  5
5E5
100
AcDbEntity
  8
0
100
AcDbLine
 62
7
  6
CONTINUOUS
 10
872.1186062748
 20
213.1668093855
 11
872.1811062599
 21
212.911490267
  0
LINE
  5
5E6
100
AcDbEntity
  8
0
100
AcDbLine
 62
7
  6
CONTINUOUS
 10
869.6186062003
 20
212.911490267
 11
869.5561062599
 21
213.2306391651
  0
LINE
  5
5E7
100
AcDbEntity
  8
0
100
AcDbLine
 62
7
  6
CONTINUOUS
 10
870.1186062599
 20
211.6987243647
 11
870.1811062003
 21
211.3795752878
  0
LINE
  5
5E8
100
AcDbEntity
  8
0
100
AcDbLine
 62
7
  6
CONTINUOUS
 10
872.5561062599
 20
212.911490267
 11
872.4936062581
 21
213.2306391651
  0
LINE
  5
5E9
100
AcDbEntity
  8
0
100
AcDbLine
 62
7
  6
CONTINUOUS
 10
883.4473562599
 20
218.2327668304
 11
883.4473562599
 21
225.6327668304
  0
LINE
  5
5EA
100
AcDbEntity
  8
0
100
AcDbLine
 62
7
  6
CONTINUOUS
 10
887.5873562599
 20
210.7479672718
 11
887.5873562599
 21
211.8797442176
  0
LINE
  5
5EB
100
AcDbEntity
  8
BEZUGSACHSEN
100
AcDbLine
 62
7
  6
CONTINUOUS
 10
887.5873562599
 20
231.9857894433
 11
887.5873562599
 21
233.1175663891
  0
LINE
  5
5EC
100
AcDbEntity
  8
BEZUGSACHSEN
100
AcDbLine
 62
7
  6
CONTINUOUS
 10
887.3066960603
 20
233.8122247595
 11
883.7181081677
 21
237.528316306
  0
LINE
  5
5ED
100
AcDbEntity
  8
BEZUGSACHSEN
100
AcDbLine
 62
7
  6
CONTINUOUS
 10
42.3581706074
 20
-36.0348228936
 11
42.3581706074
 21
-52.0348228936
  0
LINE
  5
5EE
100
AcDbEntity
  8
RUNDUNGEN
100
AcDbLine
 62
7
  6
CONTINUOUS
 10
64.3581706074
 20
-61.5348228936
 11
64.3581706074
 21
-26.5348228936
  0
LINE
  5
5EF
100
AcDbEntity
  8
RUNDUNGEN
100
AcDbLine
 62
7
  6
CONTINUOUS
 10
69.3581706074
 20
-25.5348228936
 11
69.3581706074
 21
-62.5348228936
  0
LINE
  5
5F0
100
AcDbEntity
  8
RUNDUNGEN
100
AcDbLine
 62
7
  6
CONTINUOUS
 10
89.3581706074
 20
-26.0348228936
 11
89.3581706074
 21
-62.0348228936
  0
LINE
  5
5F1
100
AcDbEntity
  8
RUNDUNGEN
100
AcDbLine
 62
7
  6
CONTINUOUS
 10
95.3581706074
 20
-63.034724414
 11
95.3581706074
 21
-61.3295424416
  0
LINE
  5
5F2
100
AcDbEntity
  8
RUNDUNGEN
100
AcDbLine
 62
7
  6
CONTINUOUS
 10
114.8581706074
 20
-30.0348104779
 11
114.8581706074
 21
-28.5348228936
  0
LINE
  5
5F3
100
AcDbEntity
  8
0
100
AcDbLine
 62
7
  6
CONTINUOUS
 10
127.0581706074
 20
-31.0348228936
 11
127.0581706074
 21
-30.0348228936
  0
LINE
  5
5F4
100
AcDbEntity
  8
0
100
AcDbLine
 62
7
  6
CONTINUOUS
 10
129.8581706074
 20
-31.0348228936
 11
129.8581706074
 21
-30.0348228936
  0
LINE
  5
5F5
100
AcDbEntity
  8
0
100
AcDbLine
 62
7
  6
CONTINUOUS
 10
132.6581706074
 20
-31.0348228936
 11
132.6581706074
 21
-30.0348228936
  0
LINE
  5
5F6
100
AcDbEntity
  8
RUNDUNGEN
100
AcDbLine
 62
7
  6
CONTINUOUS
 10
105.965336833
 20
-58.7544912511
 11
105.965440719
 21
-58.7543661274
  0
LWPOLYLINE
  5
5F7
100
AcDbEntity
  8
RUNDUNGEN
100
AcDbPolyline
 62
7
  6
CONTINUOUS
 90
3
 70
0
 10
105.9654827157
 20
-58.7543148699
 10
106.1013244447
 20
-58.5925481876
 10
106.3426747816
 20
-58.3129186159
  0
LINE
  5
5F8
100
AcDbEntity
  8
RUNDUNGEN
100
AcDbLine
 62
7
  6
CONTINUOUS
 10
106.3348435255
 20
-58.3218705022
 11
106.6160244372
 21
-58.0060617616
  0
LINE
  5
5F9
100
AcDbEntity
  8
RUNDUNGEN
100
AcDbLine
 62
7
  6
CONTINUOUS
 10
106.6076068763
 20
-58.0153816496
 11
106.9220491027
 21
-57.6727542254
  0
LINE
  5
5FA
100
AcDbEntity
  8
RUNDUNGEN
100
AcDbLine
 62
7
  6
CONTINUOUS
 10
106.9175733765
 20
-57.6776289738
 11
107.2613715362
 21
-57.3142003695
  0
LINE
  5
5FB
100
AcDbEntity
  8
RUNDUNGEN
100
AcDbLine
 62
7
  6
CONTINUOUS
 10
107.2519279899
 20
-57.3240423848
 11
107.5150149035
 21
-57.0530894484
  0
LWPOLYLINE
  5
5FC
100
AcDbEntity
  8
RUNDUNGEN
100
AcDbPolyline
 62
7
  6
CONTINUOUS
 90
11
 70
0
 10
107.515012045
 20
-57.0530882905
 10
107.5495149856
 20
-57.0181684896
 10
107.7148105807
 20
-56.8571265425
 10
107.8821102988
 20
-56.7048137234
 10
108.0515435416
 20
-56.561958044
 10
108.2220613423
 20
-56.4303568689
 10
108.3943146324
 20
-56.3107069102
 10
108.5642760028
 20
-56.2068734842
 10
108.7391428374
 20
-56.1166368896
 10
108.9220817806
 20
-56.0430134059
 10
108.9478601263
 20
-56.0352086196
  0
LWPOLYLINE
  5
5FD
100
AcDbEntity
  8
RUNDUNGEN
100
AcDbPolyline
 62
7
  6
CONTINUOUS
 90
6
 70
0
 10
107.5327533523
 20
-57.0350724811
 10
107.6697920622
 20
-56.8999615014
 10
107.8081348102
 20
-56.7708129066
 10
107.9480729708
 20
-56.6478041924
 10
108.0898528062
 20
-56.5313049908
 10
108.2325756266
 20
-56.422659082
  0
LWPOLYLINE
  5
5FE
100
AcDbEntity
  8
RUNDUNGEN
100
AcDbPolyline
 62
7
  6
CONTINUOUS
 90
6
 70
0
 10
108.3740569944
 20
-56.3240471149
 10
108.516871159
 20
-56.2343358065
 10
108.6600756194
 20
-56.1552001672
 10
108.8069828125
 20
-56.0866487053
 10
108.9586944174
 20
-56.0312525756
 10
109.0037028425
 20
-56.0182949484
  0
LINE
  5
5FF
100
AcDbEntity
  8
RUNDUNGEN
100
AcDbLine
 62
7
  6
CONTINUOUS
 10
164.8581706074
 20
-28.5348228936
 11
164.8581706074
 21
-30.0348110179
  0
LINE
  5
600
100
AcDbEntity
  8
0
100
AcDbLine
 62
7
  6
CONTINUOUS
 10
175.6261197999
 20
-27.7668737011
 11
176.4299673772
 21
-27.302772086
  0
LINE
  5
601
100
AcDbEntity
  8
RUNDUNGEN
100
AcDbLine
 62
7
  6
CONTINUOUS
 10
180.3581706074
 20
-18.0348228936
 11
180.3581706074
 21
-70.0347389996
  0
LINE
  5
602
100
AcDbEntity
  8
RUNDUNGEN
100
AcDbLine
 62
7
  6
CONTINUOUS
 10
100.2020404598
 20
-61.1972728073
 11
105.1322470601
 21
-59.3481787432
  0
LINE
  5
603
100
AcDbEntity
  8
RUNDUNGEN
100
AcDbLine
 62
7
  6
CONTINUOUS
 10
100.0423582651
 20
-61.2537816932
 11
100.2020381912
 21
-61.1972699225
  0
LINE
  5
604
100
AcDbEntity
  8
RUNDUNGEN
100
AcDbLine
 62
7
  6
CONTINUOUS
 10
99.6958130649
 20
-61.3558619571
 11
100.0588473339
 21
-61.2482294809
  0
LINE
  5
605
100
AcDbEntity
  8
RUNDUNGEN
100
AcDbLine
 62
7
  6
CONTINUOUS
 10
207.5860157611
 20
-57.4804076231
 11
207.7936488536
 21
-57.4225562799
  0
LINE
  5
606
100
AcDbEntity
  8
RUNDUNGEN
100
AcDbLine
 62
7
  6
CONTINUOUS
 10
207.7933876078
 20
-57.4226149802
 11
207.7936841306
 21
-57.4225370205
  0
LWPOLYLINE
  5
607
100
AcDbEntity
  8
RUNDUNGEN
100
AcDbPolyline
 62
7
  6
CONTINUOUS
 90
3
 70
0
 10
209.8698897241
 20
-55.8625040505
 10
209.8958542824
 20
-55.8560139383
 10
209.9320561123
 20
-55.8494860947
  0
LINE
  5
608
100
AcDbEntity
  8
RUNDUNGEN
100
AcDbLine
 62
7
  6
CONTINUOUS
 10
98.4765357038
 20
-61.509042057
 11
98.643885293
 21
-61.5061992015
  0
LINE
  5
609
100
AcDbEntity
  8
0
100
AcDbLine
 62
7
  6
CONTINUOUS
 10
181.3581706074
 20
-71.0348228936
 11
187.3581706074
 21
-71.0348228936
  0
LINE
  5
60A
100
AcDbEntity
  8
0
100
AcDbLine
 62
7
  6
CONTINUOUS
 10
197.3581706074
 20
-71.0348228936
 11
203.3581706074
 21
-71.0348228936
  0
LINE
  5
60B
100
AcDbEntity
  8
0
100
AcDbLine
 62
7
  6
CONTINUOUS
 10
187.3581706074
 20
-70.0348228936
 11
197.3581706074
 21
-70.0348228936
  0
LINE
  5
60C
100
AcDbEntity
  8
BEZUGSACHSEN
100
AcDbLine
 62
7
  6
CONTINUOUS
 10
68.8581706074
 20
-63.0348228936
 11
65.8581706074
 21
-63.0348228936
  0
LINE
  5
60D
100
AcDbEntity
  8
RUNDUNGEN
100
AcDbLine
 62
7
  6
CONTINUOUS
 10
68.8581706074
 20
-63.0348228936
 11
65.8581706074
 21
-63.0348228936
  0
LINE
  5
60E
100
AcDbEntity
  8
0
100
AcDbLine
 62
7
  6
CONTINUOUS
 10
90.3581706074
 20
-63.0348228936
 11
95.3581706074
 21
-63.0348228936
  0
LINE
  5
60F
100
AcDbEntity
  8
RUNDUNGEN
100
AcDbLine
 62
7
  6
CONTINUOUS
 10
95.3581706074
 20
-61.5090456471
 11
98.4765357027
 21
-61.5090456471
  0
LINE
  5
610
100
AcDbEntity
  8
RUNDUNGEN
100
AcDbLine
 62
7
  6
CONTINUOUS
 10
293.8756947546
 20
-60.0348228936
 11
281.3581706074
 21
-60.0348228936
  0
LINE
  5
611
100
AcDbEntity
  8
RUNDUNGEN
100
AcDbLine
 62
7
  6
CONTINUOUS
 10
176.9225846835
 20
-57.4225178935
 11
176.9229592033
 21
-57.4226164456
  0
LINE
  5
612
100
AcDbEntity
  8
RUNDUNGEN
100
AcDbLine
 62
7
  6
CONTINUOUS
 10
176.9226179261
 20
-57.4225414428
 11
177.1628049381
 21
-57.4900685782
  0
LWPOLYLINE
  5
613
100
AcDbEntity
  8
RUNDUNGEN
100
AcDbPolyline
 62
7
  6
CONTINUOUS
 90
23
 70
0
 10
174.8464469244
 20
-55.8624965575
 10
174.8540250871
 20
-55.864694734
 10
174.861871863
 20
-55.8672870448
 10
174.8694618856
 20
-55.8700387162
 10
174.8773235171
 20
-55.8731059578
 10
174.8852330289
 20
-55.8763904512
 10
174.8935541608
 20
-55.8800413251
 10
174.9020464749
 20
-55.8839570006
 10
174.9106464065
 20
-55.8881011129
 10
174.9192690723
 20
-55.8924237268
 10
174.9278492496
 20
-55.8968815137
 10
174.9363447686
 20
-55.9014412888
 10
174.9447200132
 20
-55.9060725539
 10
174.9529592005
 20
-55.9107555108
 10
174.9610512954
 20
-55.915473485
 10
174.9690022953
 20
-55.9202205047
 10
174.9768211208
 20
-55.9249935652
 10
174.9845324431
 20
-55.9298002875
 10
174.99216174
 20
-55.934650103
 10
174.9997517294
 20
-55.9395654631
 10
175.0073444314
 20
-55.944570753
 10
175.0149958094
 20
-55.9497019712
 10
175.0227822141
 20
-55.9550118254
  0
LINE
  5
614
100
AcDbEntity
  8
RUNDUNGEN
100
AcDbLine
 62
7
  6
CONTINUOUS
 10
177.1555755482
 20
-57.4880360787
 11
177.5228555839
 21
-57.6082894462
  0
LINE
  5
615
100
AcDbEntity
  8
RUNDUNGEN
100
AcDbLine
 62
7
  6
CONTINUOUS
 10
177.5118816276
 20
-57.6043871243
 11
177.8568849912
 21
-57.7359034694
  0
LINE
  5
616
100
AcDbEntity
  8
RUNDUNGEN
100
AcDbLine
 62
7
  6
CONTINUOUS
 10
177.8469049233
 20
-57.7318450509
 11
178.1665609748
 21
-57.8693376481
  0
LINE
  5
617
100
AcDbEntity
  8
RUNDUNGEN
100
AcDbLine
 62
7
  6
CONTINUOUS
 10
178.1575303573
 20
-57.8652413714
 11
178.4536081477
 21
-58.0060290928
  0
LINE
  5
618
100
AcDbEntity
  8
RUNDUNGEN
100
AcDbLine
 62
7
  6
CONTINUOUS
 10
178.4454830959
 20
-58.0019869913
 11
178.7185127628
 21
-58.1433322473
  0
LINE
  5
619
100
AcDbEntity
  8
RUNDUNGEN
100
AcDbLine
 62
7
  6
CONTINUOUS
 10
178.7112411347
 20
-58.1394192227
 11
178.9626211292
 21
-58.2795132816
  0
LINE
  5
61A
100
AcDbEntity
  8
RUNDUNGEN
100
AcDbLine
 62
7
  6
CONTINUOUS
 10
178.9561589513
 20
-58.2757863438
 11
179.1864090595
 21
-58.4128263851
  0
LINE
  5
61B
100
AcDbEntity
  8
RUNDUNGEN
100
AcDbLine
 62
7
  6
CONTINUOUS
 10
179.1807053026
 20
-58.4093244788
 11
179.3908613599
 21
-58.5420832847
  0
LINE
  5
61C
100
AcDbEntity
  8
RUNDUNGEN
100
AcDbLine
 62
7
  6
CONTINUOUS
 10
179.3858629593
 20
-58.5388344697
 11
179.5765165519
 21
-58.6660787443
  0
LWPOLYLINE
  5
61D
100
AcDbEntity
  8
RUNDUNGEN
100
AcDbPolyline
 62
7
  6
CONTINUOUS
 90
27
 70
0
 10
175.02295103
 20
-55.9551260451
 10
175.0306917057
 20
-55.9604923753
 10
175.0386642074
 20
-55.9661080325
 10
175.0467661217
 20
-55.9719055364
 10
175.054935097
 20
-55.9778422436
 10
175.0631468131
 20
-55.98390108
 10
175.0713500248
 20
-55.9900436237
 10
175.0795579083
 20
-55.9962783848
 10
175.0877680197
 20
-56.0026023691
 10
175.0959790432
 20
-56.0090134665
 10
175.1041896835
 20
-56.0155096193
 10
175.1123992235
 20
-56.0220892667
 10
175.1206070534
 20
-56.0287509825
 10
175.1288131508
 20
-56.035493871
 10
175.1370175494
 20
-56.0423171462
 10
175.145220887
 20
-56.0492205922
 10
175.1534238087
 20
-56.0562040768
 10
175.1616275765
 20
-56.0632680748
 10
175.1698334664
 20
-56.0704131651
 10
175.1780431888
 20
-56.077640397
 10
175.1862586476
 20
-56.0849510668
 10
175.1944825712
 20
-56.0923472994
 10
175.2027175218
 20
-56.0998312028
 10
175.2109668266
 20
-56.1074057168
 10
175.2192336837
 20
-56.1150738129
 10
175.2275216466
 20
-56.1228389414
 10
175.2358371108
 20
-56.1307074103
  0
LINE
  5
61E
100
AcDbEntity
  8
RUNDUNGEN
100
AcDbLine
 62
7
  6
CONTINUOUS
 10
179.5721655083
 20
-58.6630964484
 11
179.7439778019
 21
-58.7838564171
  0
LINE
  5
61F
100
AcDbEntity
  8
RUNDUNGEN
100
AcDbLine
 62
7
  6
CONTINUOUS
 10
179.7402134518
 20
-58.7811424412
 11
179.8943176035
 21
-58.8949740699
  0
LINE
  5
620
100
AcDbEntity
  8
RUNDUNGEN
100
AcDbLine
 62
7
  6
CONTINUOUS
 10
179.8910859825
 20
-58.8925269134
 11
180.0284034148
 21
-58.9990171209
  0
LINE
  5
621
100
AcDbEntity
  8
RUNDUNGEN
100
AcDbLine
 62
7
  6
CONTINUOUS
 10
180.0256508157
 20
-58.9968289583
 11
180.1468898034
 21
-59.0955352632
  0
LINE
  5
622
100
AcDbEntity
  8
RUNDUNGEN
100
AcDbLine
 62
7
  6
CONTINUOUS
 10
180.1445755037
 20
-59.0936032268
 11
180.2505183646
 21
-59.1842428364
  0
LINE
  5
623
100
AcDbEntity
  8
RUNDUNGEN
100
AcDbLine
 62
7
  6
CONTINUOUS
 10
180.2486104585
 20
-59.1825678938
 11
180.3378291299
 21
-59.2629097031
  0
LINE
  5
624
100
AcDbEntity
  8
RUNDUNGEN
100
AcDbLine
 62
7
  6
CONTINUOUS
 10
180.3393569155
 20
-59.2643243733
 11
180.3581706074
 21
-59.2822478925
  0
LINE
  5
625
100
AcDbEntity
  8
RUNDUNGEN
100
AcDbLine
 62
7
  6
CONTINUOUS
 10
175.2358371108
 20
-56.1307074103
 11
175.2806141939
 21
-56.1736532055
  0
LINE
  5
626
100
AcDbEntity
  8
RUNDUNGEN
100
AcDbLine
 62
7
  6
CONTINUOUS
 10
175.2704728487
 20
-56.1639188351
 11
175.4510069151
 21
-56.3387125064
  0
LINE
  5
627
100
AcDbEntity
  8
RUNDUNGEN
100
AcDbLine
 62
7
  6
CONTINUOUS
 10
175.4391885572
 20
-56.3271860804
 11
175.6222484064
 21
-56.5069922983
  0
LINE
  5
628
100
AcDbEntity
  8
RUNDUNGEN
100
AcDbLine
 62
7
  6
CONTINUOUS
 10
175.6105015081
 20
-56.4953738314
 11
175.794302926
 21
-56.6783929495
  0
LINE
  5
629
100
AcDbEntity
  8
RUNDUNGEN
100
AcDbLine
 62
7
  6
CONTINUOUS
 10
175.7826589957
 20
-56.6667217394
 11
176.0030569549
 21
-56.8893495776
  0
LINE
  5
62A
100
AcDbEntity
  8
RUNDUNGEN
100
AcDbLine
 62
7
  6
CONTINUOUS
 10
187.3581706074
 20
-17.0349100472
 11
187.3581706074
 21
-71.03473574
  0
LWPOLYLINE
  5
62B
100
AcDbEntity
  8
RUNDUNGEN
100
AcDbPolyline
 62
7
  6
CONTINUOUS
 90
4
 70
0
 10
209.8879218312
 20
-55.8579148141
 10
209.9799809521
 20
-55.8403334583
 10
210.067038504
 20
-55.833116788
 10
210.0902214165
 20
-55.8327823637
  0
LINE
  5
62C
100
AcDbEntity
  8
RUNDUNGEN
100
AcDbLine
 62
7
  6
CONTINUOUS
 10
98.9860399995
 20
-61.482634194
 11
99.3602947752
 21
-61.4291592135
  0
LINE
  5
62D
100
AcDbEntity
  8
RUNDUNGEN
100
AcDbLine
 62
7
  6
CONTINUOUS
 10
210.0235938172
 20
-55.8367181526
 11
210.0788630105
 21
-55.832946214
  0
LINE
  5
62E
100
AcDbEntity
  8
RUNDUNGEN
100
AcDbLine
 62
7
  6
CONTINUOUS
 10
98.6264559414
 20
-61.506760366
 11
99.003409995
 21
-61.4807973658
  0
LINE
  5
62F
100
AcDbEntity
  8
BEZUGSACHSEN
100
AcDbLine
 62
7
  6
CONTINUOUS
 10
363.2126807332
 20
-53.0278381038
 11
362.8581706074
 21
-53.0348228936
  0
LINE
  5
630
100
AcDbEntity
  8
RUNDUNGEN
100
AcDbLine
 62
7
  6
CONTINUOUS
 10
174.6261197999
 20
-55.8327818647
 11
110.3581710341
 21
-55.8327818647
  0
LINE
  5
631
100
AcDbEntity
  8
RUNDUNGEN
100
AcDbLine
 62
7
  6
CONTINUOUS
 10
210.090221415
 20
-55.8327818647
 11
274.3581658012
 21
-55.8327818647
  0
LINE
  5
632
100
AcDbEntity
  8
RUNDUNGEN
100
AcDbLine
 62
7
  6
CONTINUOUS
 10
362.8581706074
 20
-53.0348228936
 11
343.3581706074
 21
-53.0348228936
  0
LINE
  5
633
100
AcDbEntity
  8
BEZUGSACHSEN
100
AcDbLine
 62
7
  6
CONTINUOUS
 10
21.8581706074
 20
-53.0348228936
 11
41.3581706074
 21
-53.0348228936
  0
LINE
  5
634
100
AcDbEntity
  8
0
100
AcDbLine
 62
7
  6
CONTINUOUS
 10
341.3581706074
 20
-51.0348228936
 11
296.3581706074
 21
-51.0348228936
  0
LINE
  5
635
100
AcDbEntity
  8
0
100
AcDbLine
 62
7
  6
CONTINUOUS
 10
43.3581706074
 20
-51.0348228936
 11
64.3581706074
 21
-51.0348228936
  0
LINE
  5
636
100
AcDbEntity
  8
0
100
AcDbLine
 62
7
  6
CONTINUOUS
 10
69.3581706074
 20
-51.0348228936
 11
89.3581706074
 21
-51.0348228936
  0
LWPOLYLINE
  5
637
100
AcDbEntity
  8
RUNDUNGEN
100
AcDbPolyline
 62
7
  6
CONTINUOUS
 90
8
 70
0
 10
274.3581706069
 20
-55.8327719099
 10
274.4554985764
 20
-55.8337412332
 10
274.7495931652
 20
-55.8485239649
 10
275.0518774262
 20
-55.8820459477
 10
275.3584895894
 20
-55.9347341325
 10
275.6655649301
 20
-56.0058207818
 10
275.9721972638
 20
-56.0944590372
 10
276.2627471188
 20
-56.1945902751
  0
LWPOLYLINE
  5
638
100
AcDbEntity
  8
RUNDUNGEN
100
AcDbPolyline
 62
7
  6
CONTINUOUS
 90
5
 70
0
 10
174.6261198025
 20
-55.8327765143
 10
174.6469233688
 20
-55.8330418086
 10
174.7339669591
 20
-55.8400113986
 10
174.8265277583
 20
-55.8574568394
 10
174.8464587733
 20
-55.8625074803
  0
LWPOLYLINE
  5
639
100
AcDbEntity
  8
RUNDUNGEN
100
AcDbPolyline
 62
7
  6
CONTINUOUS
 90
26
 70
0
 10
274.3581657949
 20
-55.8327677755
 10
274.508259475
 20
-55.8350892485
 10
274.8359100019
 20
-55.8562039257
 10
275.1860929069
 20
-55.9028240073
 10
275.5454728463
 20
-55.9758778145
 10
275.9019092783
 20
-56.0726068544
 10
276.2505842722
 20
-56.1897750542
 10
276.5846768101
 20
-56.3220409147
 10
276.9007499362
 20
-56.464683075
 10
277.1947140139
 20
-56.6121785784
 10
277.467613434
 20
-56.7617528911
 10
277.7194191551
 20
-56.9105977793
 10
277.9519012666
 20
-57.0573714598
 10
278.1665371061
 20
-57.2011239287
 10
278.3641745381
 20
-57.3408687662
 10
278.545854343
 20
-57.4760276896
 10
278.7120676636
 20
-57.6058549108
 10
278.8634630128
 20
-57.7298932666
 10
279.0000435155
 20
-57.8472847149
 10
279.1222226487
 20
-57.9575933354
 10
279.2288808801
 20
-58.0589812254
 10
279.3197582056
 20
-58.150251122
 10
279.3936184391
 20
-58.2290158332
 10
279.4500822658
 20
-58.2933552786
 10
279.4888969546
 20
-58.3409772178
 10
279.5028404895
 20
-58.3592504687
  0
LINE
  5
63A
100
AcDbEntity
  8
BEZUGSACHSEN
100
AcDbLine
 62
7
  6
CONTINUOUS
 10
21.5036604817
 20
-53.0278381038
 11
21.8581706075
 21
-53.0348228936
  0
LINE
  5
63B
100
AcDbEntity
  8
RUNDUNGEN
100
AcDbLine
 62
7
  6
CONTINUOUS
 10
174.6261262743
 20
-55.8327763326
 11
174.7197298623
 21
-55.8382320891
  0
LINE
  5
63C
100
AcDbEntity
  8
RUNDUNGEN
100
AcDbLine
 62
7
  6
CONTINUOUS
 10
174.7197298623
 20
-55.8382320891
 11
174.7722965176
 21
-55.8472355804
  0
LINE
  5
63D
100
AcDbEntity
  8
0
100
AcDbLine
 62
7
  6
CONTINUOUS
 10
100.1866364205
 20
-25.3363597896
 11
106.7721370527
 21
-27.7332859975
  0
LINE
  5
63E
100
AcDbEntity
  8
RUNDUNGEN
100
AcDbLine
 62
7
  6
CONTINUOUS
 10
197.3581706074
 20
-71.03473574
 11
197.3581706074
 21
-17.0349100472
  0
LINE
  5
63F
100
AcDbEntity
  8
RUNDUNGEN
100
AcDbLine
 62
7
  6
CONTINUOUS
 10
204.3581706074
 20
-18.0349067875
 11
204.3581706074
 21
-70.0348228936
  0
LINE
  5
640
100
AcDbEntity
  8
RUNDUNGEN
100
AcDbLine
 62
7
  6
CONTINUOUS
 10
206.6456110041
 20
-57.8265033814
 11
206.9492535753
 21
-57.6999194126
  0
LINE
  5
641
100
AcDbEntity
  8
RUNDUNGEN
100
AcDbLine
 62
7
  6
CONTINUOUS
 10
206.9397090223
 20
-57.7036856312
 11
207.2633996155
 21
-57.583749243
  0
LINE
  5
642
100
AcDbEntity
  8
RUNDUNGEN
100
AcDbLine
 62
7
  6
CONTINUOUS
 10
207.2528020213
 20
-57.587419859
 11
207.5932667025
 21
-57.4783873445
  0
LWPOLYLINE
  5
643
100
AcDbEntity
  8
RUNDUNGEN
100
AcDbPolyline
 62
7
  6
CONTINUOUS
 90
6
 70
0
 10
109.1045846484
 20
-55.9920579141
 10
109.426761228
 20
-55.9212831495
 10
109.7275017741
 20
-55.8735468626
 10
110.0202492996
 20
-55.84451786
 10
110.301480163
 20
-55.8331089699
 10
110.3581710347
 20
-55.8327784926
  0
LINE
  5
644
100
AcDbEntity
  8
RUNDUNGEN
100
AcDbLine
 62
7
  6
CONTINUOUS
 10
99.3431032352
 20
-61.432260827
 11
99.7127107134
 21
-61.3515178401
  0
LINE
  5
645
100
AcDbEntity
  8
RUNDUNGEN
100
AcDbLine
 62
7
  6
CONTINUOUS
 10
109.4091664611
 20
-55.9246352471
 11
109.4178474092
 21
-55.9232262135
  0
LWPOLYLINE
  5
646
100
AcDbEntity
  8
RUNDUNGEN
100
AcDbPolyline
 62
7
  6
CONTINUOUS
 90
3
 70
0
 10
109.8623574374
 20
-55.8601745022
 10
110.0023229364
 20
-55.8457959782
 10
110.0114223375
 20
-55.8453931463
  0
LINE
  5
647
100
AcDbEntity
  8
0
100
AcDbLine
 62
7
  6
CONTINUOUS
 10
42.5576870595
 20
-41.5348228936
 11
64.3581706074
 21
-41.5348228936
  0
LINE
  5
648
100
AcDbEntity
  8
0
100
AcDbLine
 62
7
  6
CONTINUOUS
 10
69.3581706074
 20
-41.5348228936
 11
89.3581706074
 21
-41.5348228936
  0
LINE
  5
649
100
AcDbEntity
  8
0
100
AcDbLine
 62
7
  6
CONTINUOUS
 10
48.3581706074
 20
-37.4964744783
 11
64.3581706074
 21
-37.4964744783
  0
LINE
  5
64A
100
AcDbEntity
  8
0
100
AcDbLine
 62
7
  6
CONTINUOUS
 10
69.3581706074
 20
-37.4964744783
 11
89.3581706074
 21
-37.4964744783
  0
LINE
  5
64B
100
AcDbEntity
  8
0
100
AcDbLine
 62
7
  6
CONTINUOUS
 10
341.3581706074
 20
-37.0348228936
 11
296.3581706074
 21
-37.0348228936
  0
LINE
  5
64C
100
AcDbEntity
  8
0
100
AcDbLine
 62
7
  6
CONTINUOUS
 10
43.3581706074
 20
-37.0348228936
 11
64.3581706074
 21
-37.0348228936
  0
LINE
  5
64D
100
AcDbEntity
  8
0
100
AcDbLine
 62
7
  6
CONTINUOUS
 10
69.3581706074
 20
-37.0348228936
 11
89.3581706074
 21
-37.0348228936
  0
LINE
  5
64E
100
AcDbEntity
  8
RUNDUNGEN
100
AcDbLine
 62
7
  6
CONTINUOUS
 10
208.7132841694
 20
-56.8893496661
 11
208.9326836129
 21
-56.6677222178
  0
LINE
  5
64F
100
AcDbEntity
  8
RUNDUNGEN
100
AcDbLine
 62
7
  6
CONTINUOUS
 10
208.9210428894
 20
-56.6793910968
 11
209.1055826402
 21
-56.4956279966
  0
LINE
  5
650
100
AcDbEntity
  8
RUNDUNGEN
100
AcDbLine
 62
7
  6
CONTINUOUS
 10
209.093827056
 20
-56.507255289
 11
209.2777039915
 21
-56.3266485744
  0
LINE
  5
651
100
AcDbEntity
  8
RUNDUNGEN
100
AcDbLine
 62
7
  6
CONTINUOUS
 10
209.2658667822
 20
-56.338192871
 11
209.4464405011
 21
-56.1633690162
  0
LWPOLYLINE
  5
652
100
AcDbEntity
  8
RUNDUNGEN
100
AcDbPolyline
 62
7
  6
CONTINUOUS
 90
21
 70
0
 10
209.4362556917
 20
-56.1731448682
 10
209.4800207518
 20
-56.1311677233
 10
209.4884857331
 20
-56.1231542313
 10
209.4969237887
 20
-56.115246299
 10
209.5053372609
 20
-56.1074413737
 10
209.513724478
 20
-56.0997406797
 10
209.5220909452
 20
-56.0921389138
 10
209.5304404325
 20
-56.0846325598
 10
209.5387757883
 20
-56.0772190897
 10
209.547100108
 20
-56.0698959002
 10
209.5554156069
 20
-56.0626613034
 10
209.5637246953
 20
-56.0555135691
 10
209.5720289404
 20
-56.0484518163
 10
209.5803300537
 20
-56.0414751522
 10
209.5886289362
 20
-56.0345834721
 10
209.5969265835
 20
-56.0277766874
 10
209.605223208
 20
-56.0210554422
 10
209.6135191018
 20
-56.0144203949
 10
209.6218136637
 20
-56.0078729912
 10
209.630106457
 20
-56.001414607
 10
209.6383956435
 20
-55.9950477082
  0
LINE
  5
653
100
AcDbEntity
  8
RUNDUNGEN
100
AcDbLine
 62
7
  6
CONTINUOUS
 10
204.3581706074
 20
-59.2824438142
 11
204.4066762761
 21
-59.2370813646
  0
LINE
  5
654
100
AcDbEntity
  8
RUNDUNGEN
100
AcDbLine
 62
7
  6
CONTINUOUS
 10
204.4066762761
 20
-59.2370813646
 11
204.5084213589
 21
-59.1472324534
  0
LINE
  5
655
100
AcDbEntity
  8
RUNDUNGEN
100
AcDbLine
 62
7
  6
CONTINUOUS
 10
204.5064297104
 20
-59.1489449886
 11
204.6246664958
 21
-59.0499680863
  0
LINE
  5
656
100
AcDbEntity
  8
RUNDUNGEN
100
AcDbLine
 62
7
  6
CONTINUOUS
 10
204.6222534899
 20
-59.05193632
 11
204.7564426951
 21
-58.9452313411
  0
LWPOLYLINE
  5
657
100
AcDbEntity
  8
RUNDUNGEN
100
AcDbPolyline
 62
7
  6
CONTINUOUS
 90
3
 70
0
 10
209.638724821
 20
-55.9947967123
 10
209.646956483
 20
-55.9885648875
 10
209.655177719
 20
-55.9824299895
  0
LINE
  5
658
100
AcDbEntity
  8
RUNDUNGEN
100
AcDbLine
 62
7
  6
CONTINUOUS
 10
204.7535869694
 20
-58.9474460209
 11
204.9038410104
 21
-58.8338291597
  0
LINE
  5
659
100
AcDbEntity
  8
RUNDUNGEN
100
AcDbLine
 62
7
  6
CONTINUOUS
 10
209.654952625
 20
-55.9825996957
 11
209.6632169135
 21
-55.9765227843
  0
LINE
  5
65A
100
AcDbEntity
  8
RUNDUNGEN
100
AcDbLine
 62
7
  6
CONTINUOUS
 10
209.6633952704
 20
-55.976388047
 11
209.6715769405
 21
-55.9704634833
  0
LINE
  5
65B
100
AcDbEntity
  8
RUNDUNGEN
100
AcDbLine
 62
7
  6
CONTINUOUS
 10
204.9005147059
 20
-58.8362833863
 11
205.066625208
 21
-58.7168321308
  0
LINE
  5
65C
100
AcDbEntity
  8
RUNDUNGEN
100
AcDbLine
 62
7
  6
CONTINUOUS
 10
209.671461475
 20
-55.9705524646
 11
209.6796903768
 21
-55.9646865194
  0
LWPOLYLINE
  5
65D
100
AcDbEntity
  8
RUNDUNGEN
100
AcDbPolyline
 62
7
  6
CONTINUOUS
 90
25
 70
0
 10
209.679696871
 20
-55.9646749141
 10
209.6877458444
 20
-55.9590283101
 10
209.6956873766
 20
-55.9535478476
 10
209.7035777694
 20
-55.9481934189
 10
209.7114481921
 20
-55.9429442057
 10
209.7193227996
 20
-55.9377855534
 10
209.727225681
 20
-55.9327042097
 10
209.735171039
 20
-55.9276945559
 10
209.7431730878
 20
-55.9227520538
 10
209.7512354071
 20
-55.9178797436
 10
209.759361415
 20
-55.9130815599
 10
209.7675414038
 20
-55.9083698529
 10
209.7757647057
 20
-55.9037574298
 10
209.784009313
 20
-55.8992624454
 10
209.7922506229
 20
-55.8949037265
 10
209.8004530724
 20
-55.8907049883
 10
209.8085724252
 20
-55.8866928653
 10
209.8165727106
 20
-55.8828883065
 10
209.8243182751
 20
-55.8793556509
 10
209.8320089387
 20
-55.876007368
 10
209.8396949586
 20
-55.8728338436
 10
209.8473341657
 20
-55.8698675567
 10
209.8544341351
 20
-55.8672987403
 10
209.8618902528
 20
-55.8648271121
 10
209.8698879857
 20
-55.8624974233
  0
LINE
  5
65E
100
AcDbEntity
  8
RUNDUNGEN
100
AcDbLine
 62
7
  6
CONTINUOUS
 10
205.0628001747
 20
-58.7195153258
 11
205.2449914842
 21
-58.5950330532
  0
LINE
  5
65F
100
AcDbEntity
  8
RUNDUNGEN
100
AcDbLine
 62
7
  6
CONTINUOUS
 10
205.240636402
 20
-58.5979324577
 11
205.4389499492
 21
-58.4694378225
  0
LINE
  5
660
100
AcDbEntity
  8
RUNDUNGEN
100
AcDbLine
 62
7
  6
CONTINUOUS
 10
205.4340204383
 20
-58.4725452284
 11
205.6488804366
 21
-58.3409350095
  0
LINE
  5
661
100
AcDbEntity
  8
RUNDUNGEN
100
AcDbLine
 62
7
  6
CONTINUOUS
 10
205.6433333366
 20
-58.3442359843
 11
205.874946118
 21
-58.2107094303
  0
LINE
  5
662
100
AcDbEntity
  8
RUNDUNGEN
100
AcDbLine
 62
7
  6
CONTINUOUS
 10
205.8687391621
 20
-58.2141774532
 11
206.1176394008
 21
-58.0798954856
  0
LINE
  5
663
100
AcDbEntity
  8
RUNDUNGEN
100
AcDbLine
 62
7
  6
CONTINUOUS
 10
206.1107107131
 20
-58.0835029346
 11
206.377071475
 21
-57.9500752582
  0
LINE
  5
664
100
AcDbEntity
  8
RUNDUNGEN
100
AcDbLine
 62
7
  6
CONTINUOUS
 10
206.3693502613
 20
-57.9537902561
 11
206.654202667
 21
-57.8227275094
  0
LINE
  5
665
100
AcDbEntity
  8
RUNDUNGEN
100
AcDbLine
 62
7
  6
CONTINUOUS
 10
109.0037028425
 20
-56.0182949484
 11
109.0026507558
 21
-56.0185816323
  0
LINE
  5
666
100
AcDbEntity
  8
RUNDUNGEN
100
AcDbLine
 62
7
  6
CONTINUOUS
 10
109.0027052856
 20
-56.0185500183
 11
109.1219498445
 21
-55.9877269536
  0
LINE
  5
667
100
AcDbEntity
  8
BEZUGSACHSEN
100
AcDbLine
 62
7
  6
CONTINUOUS
 10
362.8581706074
 20
-35.0348228936
 11
343.3581706074
 21
-35.0348228936
  0
LINE
  5
668
100
AcDbEntity
  8
BEZUGSACHSEN
100
AcDbLine
 62
7
  6
CONTINUOUS
 10
21.8581706074
 20
-35.0348228936
 11
41.3581706074
 21
-35.0348228936
  0
LINE
  5
669
100
AcDbEntity
  8
RUNDUNGEN
100
AcDbLine
 62
7
  6
CONTINUOUS
 10
268.8581706074
 20
-31.0348228936
 11
228.8581706074
 21
-31.0348228936
  0
LINE
  5
66A
100
AcDbEntity
  8
RUNDUNGEN
100
AcDbLine
 62
7
  6
CONTINUOUS
 10
163.8581706074
 20
-31.0348228936
 11
115.8581706074
 21
-31.0348228936
  0
LINE
  5
66B
100
AcDbEntity
  8
0
100
AcDbLine
 62
7
  6
CONTINUOUS
 10
127.0581706074
 20
-30.0348228936
 11
132.6581706074
 21
-30.0348228936
  0
LINE
  5
66C
100
AcDbEntity
  8
0
100
AcDbLine
 62
7
  6
CONTINUOUS
 10
230.3581706074
 20
-30.0348228936
 11
235.2331706074
 21
-30.0348228936
  0
LINE
  5
66D
100
AcDbEntity
  8
0
100
AcDbLine
 62
7
  6
CONTINUOUS
 10
236.2331707266
 20
-30.0348228936
 11
240.733170369
 21
-30.0348228936
  0
LINE
  5
66E
100
AcDbEntity
  8
0
100
AcDbLine
 62
7
  6
CONTINUOUS
 10
241.7331708459
 20
-30.0348228936
 11
246.4831706074
 21
-30.0348228936
  0
LINE
  5
66F
100
AcDbEntity
  8
0
100
AcDbLine
 62
7
  6
CONTINUOUS
 10
247.4831710843
 20
-30.0348228936
 11
252.2331701306
 21
-30.0348228936
  0
LINE
  5
670
100
AcDbEntity
  8
0
100
AcDbLine
 62
7
  6
CONTINUOUS
 10
253.2331706074
 20
-30.0348228936
 11
257.7331706074
 21
-30.0348228936
  0
LINE
  5
671
100
AcDbEntity
  8
RUNDUNGEN
100
AcDbLine
 62
7
  6
CONTINUOUS
 10
293.8756947546
 20
-28.0348228936
 11
277.1157383491
 21
-28.0348228936
  0
LINE
  5
672
100
AcDbEntity
  8
0
100
AcDbLine
 62
7
  6
CONTINUOUS
 10
108.4822377693
 20
-28.0348228936
 11
114.3581706074
 21
-28.0348228936
  0
LINE
  5
673
100
AcDbEntity
  8
0
100
AcDbLine
 62
7
  6
CONTINUOUS
 10
165.3581706074
 20
-28.0348228936
 11
174.6261197999
 21
-28.0348228936
  0
LINE
  5
674
100
AcDbEntity
  8
0
100
AcDbLine
 62
7
  6
CONTINUOUS
 10
210.090221415
 20
-28.0348228936
 11
227.3581706074
 21
-28.0348228936
  0
LINE
  5
675
100
AcDbEntity
  8
0
100
AcDbLine
 62
7
  6
CONTINUOUS
 10
270.3581706074
 20
-28.0348228936
 11
293.8756947546
 21
-28.0348228936
  0
LINE
  5
676
100
AcDbEntity
  8
0
100
AcDbLine
 62
7
  6
CONTINUOUS
 10
207.2863738377
 20
-27.0348228936
 11
204.3581706074
 21
-27.0348228936
  0
LINE
  5
677
100
AcDbEntity
  8
0
100
AcDbLine
 62
7
  6
CONTINUOUS
 10
180.3581706074
 20
-27.0348228936
 11
177.4299673772
 21
-27.0348228936
  0
LINE
  5
678
100
AcDbEntity
  8
BEZUGSACHSEN
100
AcDbLine
 62
7
  6
CONTINUOUS
 10
68.8581706074
 20
-25.0348228936
 11
65.8581706074
 21
-25.0348228936
  0
LINE
  5
679
100
AcDbEntity
  8
RUNDUNGEN
100
AcDbLine
 62
7
  6
CONTINUOUS
 10
68.8581706074
 20
-25.0348228936
 11
65.8581706074
 21
-25.0348228936
  0
LINE
  5
67A
100
AcDbEntity
  8
0
100
AcDbLine
 62
7
  6
CONTINUOUS
 10
90.3581706074
 20
-25.0348228936
 11
98.4765357039
 21
-25.0348228936
  0
LINE
  5
67B
100
AcDbEntity
  8
BEZUGSACHSEN
100
AcDbLine
 62
7
  6
CONTINUOUS
 10
363.2126807332
 20
-35.0418076834
 11
362.8581706074
 21
-35.0348228936
  0
LINE
  5
67C
100
AcDbEntity
  8
RUNDUNGEN
100
AcDbLine
 62
7
  6
CONTINUOUS
 10
276.387375455
 20
-56.2415976818
 11
276.5514853697
 21
-56.3089005601
  0
LINE
  5
67D
100
AcDbEntity
  8
RUNDUNGEN
100
AcDbLine
 62
7
  6
CONTINUOUS
 10
227.8581706074
 20
-30.0348122502
 11
227.8581706074
 21
-28.5348228937
  0
LINE
  5
67E
100
AcDbEntity
  8
0
100
AcDbLine
 62
7
  6
CONTINUOUS
 10
230.3581706074
 20
-31.0348228936
 11
230.3581706074
 21
-30.0348228936
  0
LINE
  5
67F
100
AcDbEntity
  8
0
100
AcDbLine
 62
7
  6
CONTINUOUS
 10
187.3581706074
 20
-18.0348228936
 11
197.3581706074
 21
-18.0348228936
  0
LINE
  5
680
100
AcDbEntity
  8
0
100
AcDbLine
 62
7
  6
CONTINUOUS
 10
181.3581706074
 20
-17.0348228936
 11
187.3581706074
 21
-17.0348228936
  0
LINE
  5
681
100
AcDbEntity
  8
0
100
AcDbLine
 62
7
  6
CONTINUOUS
 10
197.3581706074
 20
-17.0348228936
 11
203.3581706074
 21
-17.0348228936
  0
LINE
  5
682
100
AcDbEntity
  8
0
100
AcDbLine
 62
7
  6
CONTINUOUS
 10
208.2863738377
 20
-27.302772086
 11
209.090221415
 21
-27.7668737011
  0
LINE
  5
683
100
AcDbEntity
  8
0
100
AcDbLine
 62
7
  6
CONTINUOUS
 10
230.4831706112
 20
-31.0348228936
 11
230.4831706112
 21
-30.0348228936
  0
LINE
  5
684
100
AcDbEntity
  8
0
100
AcDbLine
 62
7
  6
CONTINUOUS
 10
230.7331706074
 20
-31.0348228936
 11
230.7331706074
 21
-30.0348228936
  0
LINE
  5
685
100
AcDbEntity
  8
0
100
AcDbLine
 62
7
  6
CONTINUOUS
 10
231.2331705776
 20
-31.0348228936
 11
231.2331705776
 21
-30.0348228936
  0
LINE
  5
686
100
AcDbEntity
  8
0
100
AcDbLine
 62
7
  6
CONTINUOUS
 10
231.7331706372
 20
-31.0348228936
 11
231.7331706372
 21
-30.0348228936
  0
LINE
  5
687
100
AcDbEntity
  8
0
100
AcDbLine
 62
7
  6
CONTINUOUS
 10
232.358170667
 20
-31.0348228936
 11
232.358170667
 21
-30.0348228936
  0
LINE
  5
688
100
AcDbEntity
  8
0
100
AcDbLine
 62
7
  6
CONTINUOUS
 10
233.4831704882
 20
-31.0348228936
 11
233.4831704882
 21
-30.0348228936
  0
LINE
  5
689
100
AcDbEntity
  8
0
100
AcDbLine
 62
7
  6
CONTINUOUS
 10
234.1081706074
 20
-31.0348228936
 11
234.1081706074
 21
-30.0348228936
  0
LINE
  5
68A
100
AcDbEntity
  8
0
100
AcDbLine
 62
7
  6
CONTINUOUS
 10
234.6081704882
 20
-31.0348228936
 11
234.6081704882
 21
-30.0348228936
  0
LINE
  5
68B
100
AcDbEntity
  8
0
100
AcDbLine
 62
7
  6
CONTINUOUS
 10
235.1081707266
 20
-31.0348228936
 11
235.1081707266
 21
-30.0348228936
  0
LINE
  5
68C
100
AcDbEntity
  8
0
100
AcDbLine
 62
7
  6
CONTINUOUS
 10
235.2331706074
 20
-31.0348228936
 11
235.2331706074
 21
-30.0348228936
  0
LINE
  5
68D
100
AcDbEntity
  8
0
100
AcDbLine
 62
7
  6
CONTINUOUS
 10
236.2331707266
 20
-31.0348228936
 11
236.2331707266
 21
-30.0348228936
  0
LINE
  5
68E
100
AcDbEntity
  8
0
100
AcDbLine
 62
7
  6
CONTINUOUS
 10
236.3581706074
 20
-31.0348228936
 11
236.3581706074
 21
-30.0348228936
  0
LINE
  5
68F
100
AcDbEntity
  8
0
100
AcDbLine
 62
7
  6
CONTINUOUS
 10
236.608170369
 20
-31.0348228936
 11
236.608170369
 21
-30.0348228936
  0
LINE
  5
690
100
AcDbEntity
  8
0
100
AcDbLine
 62
7
  6
CONTINUOUS
 10
237.1081706074
 20
-31.0348228936
 11
237.1081706074
 21
-30.0348228936
  0
LINE
  5
691
100
AcDbEntity
  8
0
100
AcDbLine
 62
7
  6
CONTINUOUS
 10
237.6081708459
 20
-31.0348228936
 11
237.6081708459
 21
-30.0348228936
  0
LINE
  5
692
100
AcDbEntity
  8
0
100
AcDbLine
 62
7
  6
CONTINUOUS
 10
238.2331706074
 20
-31.0348228936
 11
238.2331706074
 21
-30.0348228936
  0
LINE
  5
693
100
AcDbEntity
  8
0
100
AcDbLine
 62
7
  6
CONTINUOUS
 10
238.7331708459
 20
-31.0348228936
 11
238.7331708459
 21
-30.0348228936
  0
LINE
  5
694
100
AcDbEntity
  8
0
100
AcDbLine
 62
7
  6
CONTINUOUS
 10
239.3581706074
 20
-31.0348228936
 11
239.3581706074
 21
-30.0348228936
  0
LINE
  5
695
100
AcDbEntity
  8
0
100
AcDbLine
 62
7
  6
CONTINUOUS
 10
239.8581708459
 20
-31.0348228936
 11
239.8581708459
 21
-30.0348228936
  0
LINE
  5
696
100
AcDbEntity
  8
0
100
AcDbLine
 62
7
  6
CONTINUOUS
 10
240.358170369
 20
-31.0348228936
 11
240.358170369
 21
-30.0348228936
  0
LINE
  5
697
100
AcDbEntity
  8
0
100
AcDbLine
 62
7
  6
CONTINUOUS
 10
240.6081708459
 20
-31.0348228936
 11
240.6081708459
 21
-30.0348228936
  0
LINE
  5
698
100
AcDbEntity
  8
0
100
AcDbLine
 62
7
  6
CONTINUOUS
 10
240.733170369
 20
-31.0348228936
 11
240.733170369
 21
-30.0348228936
  0
LINE
  5
699
100
AcDbEntity
  8
0
100
AcDbLine
 62
7
  6
CONTINUOUS
 10
241.7331708459
 20
-31.0348228936
 11
241.7331708459
 21
-30.0348228936
  0
LINE
  5
69A
100
AcDbEntity
  8
0
100
AcDbLine
 62
7
  6
CONTINUOUS
 10
242.4831701306
 20
-31.0348228936
 11
242.4831701306
 21
-30.0348228936
  0
LINE
  5
69B
100
AcDbEntity
  8
0
100
AcDbLine
 62
7
  6
CONTINUOUS
 10
244.6081706074
 20
-31.0348228936
 11
244.6081706074
 21
-30.0348228936
  0
LINE
  5
69C
100
AcDbEntity
  8
0
100
AcDbLine
 62
7
  6
CONTINUOUS
 10
245.6081710843
 20
-31.0348228936
 11
245.6081710843
 21
-30.0348228936
  0
LINE
  5
69D
100
AcDbEntity
  8
0
100
AcDbLine
 62
7
  6
CONTINUOUS
 10
246.4831706074
 20
-31.0348228936
 11
246.4831706074
 21
-30.0348228936
  0
LINE
  5
69E
100
AcDbEntity
  8
0
100
AcDbLine
 62
7
  6
CONTINUOUS
 10
247.4831710843
 20
-31.0348228936
 11
247.4831710843
 21
-30.0348228936
  0
LINE
  5
69F
100
AcDbEntity
  8
0
100
AcDbLine
 62
7
  6
CONTINUOUS
 10
249.4831706074
 20
-31.0348228936
 11
249.4831706074
 21
-30.0348228936
  0
LINE
  5
6A0
100
AcDbEntity
  8
0
100
AcDbLine
 62
7
  6
CONTINUOUS
 10
250.2331706074
 20
-31.0348228936
 11
250.2331706074
 21
-30.0348228936
  0
LINE
  5
6A1
100
AcDbEntity
  8
0
100
AcDbLine
 62
7
  6
CONTINUOUS
 10
252.2331701306
 20
-31.0348228936
 11
252.2331701306
 21
-30.0348228936
  0
LINE
  5
6A2
100
AcDbEntity
  8
0
100
AcDbLine
 62
7
  6
CONTINUOUS
 10
253.2331706074
 20
-31.0348228936
 11
253.2331706074
 21
-30.0348228936
  0
LINE
  5
6A3
100
AcDbEntity
  8
0
100
AcDbLine
 62
7
  6
CONTINUOUS
 10
253.3581701306
 20
-31.0348228936
 11
253.3581701306
 21
-30.0348228936
  0
LINE
  5
6A4
100
AcDbEntity
  8
0
100
AcDbLine
 62
7
  6
CONTINUOUS
 10
253.6081706074
 20
-31.0348228936
 11
253.6081706074
 21
-30.0348228936
  0
LINE
  5
6A5
100
AcDbEntity
  8
0
100
AcDbLine
 62
7
  6
CONTINUOUS
 10
253.9831706074
 20
-31.0348228936
 11
253.9831706074
 21
-30.0348228936
  0
LINE
  5
6A6
100
AcDbEntity
  8
0
100
AcDbLine
 62
7
  6
CONTINUOUS
 10
254.6081696538
 20
-31.0348228936
 11
254.6081696538
 21
-30.0348228936
  0
LINE
  5
6A7
100
AcDbEntity
  8
0
100
AcDbLine
 62
7
  6
CONTINUOUS
 10
255.2331715611
 20
-31.0348228936
 11
255.2331715611
 21
-30.0348228936
  0
LINE
  5
6A8
100
AcDbEntity
  8
0
100
AcDbLine
 62
7
  6
CONTINUOUS
 10
255.8581706074
 20
-31.0348228936
 11
255.8581706074
 21
-30.0348228936
  0
LINE
  5
6A9
100
AcDbEntity
  8
0
100
AcDbLine
 62
7
  6
CONTINUOUS
 10
256.4831696538
 20
-31.0348228936
 11
256.4831696538
 21
-30.0348228936
  0
LINE
  5
6AA
100
AcDbEntity
  8
0
100
AcDbLine
 62
7
  6
CONTINUOUS
 10
257.1081715611
 20
-31.0348228936
 11
257.1081715611
 21
-30.0348228936
  0
LINE
  5
6AB
100
AcDbEntity
  8
0
100
AcDbLine
 62
7
  6
CONTINUOUS
 10
257.4831715611
 20
-31.0348228936
 11
257.4831715611
 21
-30.0348228936
  0
LINE
  5
6AC
100
AcDbEntity
  8
0
100
AcDbLine
 62
7
  6
CONTINUOUS
 10
257.7331706074
 20
-31.0348228936
 11
257.7331706074
 21
-30.0348228936
  0
LINE
  5
6AD
100
AcDbEntity
  8
RUNDUNGEN
100
AcDbLine
 62
7
  6
CONTINUOUS
 10
269.8581706074
 20
-28.5348228937
 11
269.8581706074
 21
-30.0348121165
  0
LINE
  5
6AE
100
AcDbEntity
  8
0
100
AcDbLine
 62
7
  6
CONTINUOUS
 10
295.8647385453
 20
-29.825765967
 11
296.3581706074
 21
-34.5204584394
  0
LINE
  5
6AF
100
AcDbEntity
  8
0
100
AcDbLine
 62
7
  6
CONTINUOUS
 10
296.3581706074
 20
-34.5206247372
 11
296.3581706074
 21
-53.5490210499
  0
LINE
  5
6B0
100
AcDbEntity
  8
0
100
AcDbLine
 62
7
  6
CONTINUOUS
 10
295.8647385453
 20
-58.2438798201
 11
296.3581706074
 21
-53.5491873478
  0
LINE
  5
6B1
100
AcDbEntity
  8
BEZUGSACHSEN
100
AcDbLine
 62
7
  6
CONTINUOUS
 10
342.3581706074
 20
-52.0348228936
 11
342.3581706074
 21
-36.0348228936
  0
ARC
  5
6B2
100
AcDbEntity
  8
BEZUGSACHSEN
100
AcDbCircle
 62
7
  6
CONTINUOUS
 10
166.3581706074
 20
147.8715614534
 40
20.0
100
AcDbArc
 50
0.0
 51
11.7682905465
  0
ARC
  5
6B3
100
AcDbEntity
  8
BEZUGSACHSEN
100
AcDbCircle
 62
7
  6
CONTINUOUS
 10
189.3581706074
 20
78.4327668304
 40
3.0
100
AcDbArc
 50
180.0
 51
270.0
  0
ARC
  5
6B4
100
AcDbEntity
  8
0
100
AcDbCircle
 62
7
  6
CONTINUOUS
 10
18.8581706074
 20
208.3948605541
 40
2.9620937237
100
AcDbArc
 50
224.0
 51
270.0
  0
ARC
  5
6B5
100
AcDbEntity
  8
BEZUGSACHSEN
100
AcDbCircle
 62
7
  6
CONTINUOUS
 10
40.3581706074
 20
207.4327668304
 40
2.0
100
AcDbArc
 50
270.0
 51
360.0
  0
ARC
  5
6B6
100
AcDbEntity
  8
RUNDUNGEN
100
AcDbCircle
 62
7
  6
CONTINUOUS
 10
40.3581706074
 20
207.4327668304
 40
2.0
100
AcDbArc
 50
269.9999996927
 51
0.0000004432
  0
ARC
  5
6B7
100
AcDbEntity
  8
RUNDUNGEN
100
AcDbCircle
 62
7
  6
CONTINUOUS
 10
65.8581706074
 20
204.4327668304
 40
1.5
100
AcDbArc
 50
180.0
 51
270.0
  0
ARC
  5
6B8
100
AcDbEntity
  8
RUNDUNGEN
100
AcDbCircle
 62
7
  6
CONTINUOUS
 10
90.3581706074
 20
203.9327668304
 40
1.0
100
AcDbArc
 50
180.0
 51
270.0
  0
ARC
  5
6B9
100
AcDbEntity
  8
BEZUGSACHSEN
100
AcDbCircle
 62
7
  6
CONTINUOUS
 10
13.8581746931
 20
210.747967047
 40
0.9999998097
100
AcDbArc
 50
179.9999871189
 51
223.9998281204
  0
ARC
  5
6BA
100
AcDbEntity
  8
BEZUGSACHSEN
100
AcDbCircle
 62
7
  6
CONTINUOUS
 10
13.8581904223
 20
211.8797453992
 40
0.9999990336
100
AcDbArc
 50
154.0823297892
 51
180.0000676961
  0
ARC
  5
6BB
100
AcDbEntity
  8
RUNDUNGEN
100
AcDbCircle
 62
7
  6
CONTINUOUS
 10
68.8581706074
 20
203.4327668304
 40
0.5
100
AcDbArc
 50
270.0
 51
360.0
  0
ARC
  5
6BC
100
AcDbEntity
  8
BEZUGSACHSEN
100
AcDbCircle
 62
7
  6
CONTINUOUS
 10
-6.8284612196
 20
221.9327668304
 40
22.0
100
AcDbArc
 50
11.7913240793
 51
25.9182273224
  0
ARC
  5
6BD
100
AcDbEntity
  8
0
100
AcDbCircle
 62
7
  6
CONTINUOUS
 10
-6.8284612196
 20
221.9327668304
 40
22.0
100
AcDbArc
 50
334.0817726776
 51
348.2086759207
  0
ARC
  5
6BE
100
AcDbEntity
  8
0
100
AcDbCircle
 62
7
  6
CONTINUOUS
 10
48.3581706074
 20
213.4327668304
 40
6.0
100
AcDbArc
 50
90.0
 51
165.1829337335
  0
ARC
  5
6BF
100
AcDbEntity
  8
BEZUGSACHSEN
100
AcDbCircle
 62
7
  6
CONTINUOUS
 10
30.4581706074
 20
221.9327668304
 40
3.7
100
AcDbArc
 50
270.0
 51
90.0
  0
ARC
  5
6C0
100
AcDbEntity
  8
RUNDUNGEN
100
AcDbCircle
 62
7
  6
CONTINUOUS
 10
30.4581706074
 20
221.9327668304
 40
3.7
100
AcDbArc
 50
269.999999847
 51
90.000000153
  0
ARC
  5
6C1
100
AcDbEntity
  8
BEZUGSACHSEN
100
AcDbCircle
 62
7
  6
CONTINUOUS
 10
18.8581706074
 20
235.4706731068
 40
2.9620937237
100
AcDbArc
 50
90.0
 51
136.0
  0
ARC
  5
6C2
100
AcDbEntity
  8
RUNDUNGEN
100
AcDbCircle
 62
7
  6
CONTINUOUS
 10
38.3581706074
 20
212.4327668304
 40
2.5
100
AcDbArc
 50
269.9999996386
 51
90.0000005691
  0
ARC
  5
6C3
100
AcDbEntity
  8
RUNDUNGEN
100
AcDbCircle
 62
7
  6
CONTINUOUS
 10
28.3581706074
 20
212.4327668304
 40
2.5
100
AcDbArc
 50
89.9999996386
 51
270.0000005691
  0
ARC
  5
6C4
100
AcDbEntity
  8
BEZUGSACHSEN
100
AcDbCircle
 62
7
  6
CONTINUOUS
 10
38.3581706074
 20
231.4327668304
 40
2.5
100
AcDbArc
 50
269.9999994309
 51
90.0000003614
  0
ARC
  5
6C5
100
AcDbEntity
  8
BEZUGSACHSEN
100
AcDbCircle
 62
7
  6
CONTINUOUS
 10
28.3581706074
 20
231.4327668304
 40
2.5
100
AcDbArc
 50
89.9999994309
 51
270.0000003614
  0
ARC
  5
6C6
100
AcDbEntity
  8
BEZUGSACHSEN
100
AcDbCircle
 62
7
  6
CONTINUOUS
 10
40.3581706074
 20
236.4327668304
 40
2.0
100
AcDbArc
 50
0.0
 51
90.0
  0
ARC
  5
6C7
100
AcDbEntity
  8
RUNDUNGEN
100
AcDbCircle
 62
7
  6
CONTINUOUS
 10
65.8581706074
 20
239.4327668304
 40
1.5
100
AcDbArc
 50
90.0
 51
180.0
  0
ARC
  5
6C8
100
AcDbEntity
  8
RUNDUNGEN
100
AcDbCircle
 62
7
  6
CONTINUOUS
 10
43.3581706074
 20
229.9327668304
 40
1.0
100
AcDbArc
 50
180.0
 51
270.0
  0
ARC
  5
6C9
100
AcDbEntity
  8
RUNDUNGEN
100
AcDbCircle
 62
7
  6
CONTINUOUS
 10
43.3581706074
 20
213.9327668304
 40
1.0
100
AcDbArc
 50
90.0
 51
179.9999999999
  0
ARC
  5
6CA
100
AcDbEntity
  8
BEZUGSACHSEN
100
AcDbCircle
 62
7
  6
CONTINUOUS
 10
15.68620067
 20
226.6327668304
 40
1.0
100
AcDbArc
 50
191.7913240793
 51
270.0
  0
ARC
  5
6CB
100
AcDbEntity
  8
RUNDUNGEN
100
AcDbCircle
 62
7
  6
CONTINUOUS
 10
15.68620067
 20
217.2327668304
 40
1.0
100
AcDbArc
 50
90.0
 51
168.2086759207
  0
ARC
  5
6CC
100
AcDbEntity
  8
RUNDUNGEN
100
AcDbCircle
 62
7
  6
CONTINUOUS
 10
90.3581706074
 20
239.9327668304
 40
1.0
100
AcDbArc
 50
90.0
 51
180.0
  0
ARC
  5
6CD
100
AcDbEntity
  8
BEZUGSACHSEN
100
AcDbCircle
 62
7
  6
CONTINUOUS
 10
13.8581746931
 20
233.1175666139
 40
0.9999998097
100
AcDbArc
 50
136.0001718796
 51
180.0000128811
  0
ARC
  5
6CE
100
AcDbEntity
  8
BEZUGSACHSEN
100
AcDbCircle
 62
7
  6
CONTINUOUS
 10
13.8581904223
 20
231.9857882617
 40
0.9999990336
100
AcDbArc
 50
179.9999323039
 51
205.9176702108
  0
ARC
  5
6CF
100
AcDbEntity
  8
RUNDUNGEN
100
AcDbCircle
 62
7
  6
CONTINUOUS
 10
68.8581706074
 20
240.4327668304
 40
0.5
100
AcDbArc
 50
0.0
 51
90.0
  0
ARC
  5
6D0
100
AcDbEntity
  8
RUNDUNGEN
100
AcDbCircle
 62
7
  6
CONTINUOUS
 10
183.3581706074
 20
175.9939722075
 40
20.0
100
AcDbArc
 50
348.231711068
 51
0.0000167414
  0
ARC
  5
6D1
100
AcDbEntity
  8
RUNDUNGEN
100
AcDbCircle
 62
7
  6
CONTINUOUS
 10
98.4765357039
 20
207.9327668304
 40
5.0
100
AcDbArc
 50
270.0
 51
290.0
  0
ARC
  5
6D2
100
AcDbEntity
  8
RUNDUNGEN
100
AcDbCircle
 62
7
  6
CONTINUOUS
 10
108.4822377693
 20
200.9327668304
 40
5.0
100
AcDbArc
 50
90.0
 51
110.0
  0
ARC
  5
6D3
100
AcDbEntity
  8
RUNDUNGEN
100
AcDbCircle
 62
7
  6
CONTINUOUS
 10
178.3581706074
 20
193.2870155194
 40
3.0
100
AcDbArc
 50
0.0
 51
41.4096221093
  0
ARC
  5
6D4
100
AcDbEntity
  8
RUNDUNGEN
100
AcDbCircle
 62
7
  6
CONTINUOUS
 10
177.4299673772
 20
206.9327668304
 40
2.0
100
AcDbArc
 50
240.0
 51
270.0
  0
ARC
  5
6D5
100
AcDbEntity
  8
RUNDUNGEN
100
AcDbCircle
 62
7
  6
CONTINUOUS
 10
174.6261197999
 20
203.9327668304
 40
2.0
100
AcDbArc
 50
60.0
 51
90.0
  0
ARC
  5
6D6
100
AcDbEntity
  8
RUNDUNGEN
100
AcDbCircle
 62
7
  6
CONTINUOUS
 10
181.3581706074
 20
195.9327668304
 40
1.0
100
AcDbArc
 50
180.0
 51
221.4096221093
  0
ARC
  5
6D7
100
AcDbEntity
  8
RUNDUNGEN
100
AcDbCircle
 62
7
  6
CONTINUOUS
 10
188.3581706074
 20
196.4327668304
 40
1.0
100
AcDbArc
 50
180.0
 51
270.0
  0
ARC
  5
6D8
100
AcDbEntity
  8
RUNDUNGEN
100
AcDbCircle
 62
7
  6
CONTINUOUS
 10
110.3581706074
 20
224.9327668304
 40
5.0
100
AcDbArc
 50
89.9994800841
 51
179.9986236487
  0
ARC
  5
6D9
100
AcDbEntity
  8
RUNDUNGEN
100
AcDbCircle
 62
7
  6
CONTINUOUS
 10
98.4765357039
 20
235.9327668304
 40
5.0
100
AcDbArc
 50
70.0
 51
90.0
  0
ARC
  5
6DA
100
AcDbEntity
  8
RUNDUNGEN
100
AcDbCircle
 62
7
  6
CONTINUOUS
 10
108.4822377693
 20
242.9327668304
 40
5.0
100
AcDbArc
 50
250.0
 51
270.0
  0
ARC
  5
6DB
100
AcDbEntity
  8
0
100
AcDbCircle
 62
7
  6
CONTINUOUS
 10
110.3581706074
 20
218.9327668304
 40
5.0
100
AcDbArc
 50
247.4915170683
 51
252.847331705
  0
ARC
  5
6DC
100
AcDbEntity
  8
0
100
AcDbCircle
 62
7
  6
CONTINUOUS
 10
110.3581706074
 20
218.9327668304
 40
5.0
100
AcDbArc
 50
233.2236924833
 51
247.104124408
  0
ARC
  5
6DD
100
AcDbEntity
  8
RUNDUNGEN
100
AcDbCircle
 62
7
  6
CONTINUOUS
 10
110.3581706074
 20
218.9327668304
 40
5.0
100
AcDbArc
 50
180.0014337711
 51
270.001842331
  0
ARC
  5
6DE
100
AcDbEntity
  8
RUNDUNGEN
100
AcDbCircle
 62
7
  6
CONTINUOUS
 10
175.3581706074
 20
224.9327668304
 40
5.0
100
AcDbArc
 50
359.9971028033
 51
90.0
  0
ARC
  5
6DF
100
AcDbEntity
  8
RUNDUNGEN
100
AcDbCircle
 62
7
  6
CONTINUOUS
 10
175.3581706074
 20
218.9327668304
 40
5.0
100
AcDbArc
 50
270.0
 51
0.0029047463
  0
ARC
  5
6E0
100
AcDbEntity
  8
RUNDUNGEN
100
AcDbCircle
 62
7
  6
CONTINUOUS
 10
177.4299673772
 20
236.9327668304
 40
2.0
100
AcDbArc
 50
90.0
 51
120.0
  0
ARC
  5
6E1
100
AcDbEntity
  8
RUNDUNGEN
100
AcDbCircle
 62
7
  6
CONTINUOUS
 10
174.6261197999
 20
239.9327668304
 40
2.0
100
AcDbArc
 50
270.0
 51
300.0
  0
ARC
  5
6E2
100
AcDbEntity
  8
RUNDUNGEN
100
AcDbCircle
 62
7
  6
CONTINUOUS
 10
181.3581706074
 20
247.9327668304
 40
1.0
100
AcDbArc
 50
90.0
 51
180.0
  0
ARC
  5
6E3
100
AcDbEntity
  8
RUNDUNGEN
100
AcDbCircle
 62
7
  6
CONTINUOUS
 10
218.3581706074
 20
147.8715614534
 40
20.0
100
AcDbArc
 50
168.2317094535
 51
180.0
  0
ARC
  5
6E4
100
AcDbEntity
  8
RUNDUNGEN
100
AcDbCircle
 62
7
  6
CONTINUOUS
 10
195.3581706074
 20
78.4327668304
 40
3.0
100
AcDbArc
 50
270.0
 51
360.0
  0
ARC
  5
6E5
100
AcDbEntity
  8
BEZUGSACHSEN
100
AcDbCircle
 62
7
  6
CONTINUOUS
 10
201.3581706074
 20
175.9939722075
 40
20.0
100
AcDbArc
 50
179.9999832586
 51
191.768288932
  0
ARC
  5
6E6
100
AcDbEntity
  8
RUNDUNGEN
100
AcDbCircle
 62
7
  6
CONTINUOUS
 10
206.3581706074
 20
193.2870155194
 40
3.0
100
AcDbArc
 50
138.5903778907
 51
180.0
  0
ARC
  5
6E7
100
AcDbEntity
  8
RUNDUNGEN
100
AcDbCircle
 62
7
  6
CONTINUOUS
 10
207.2863738377
 20
206.9327668304
 40
2.0
100
AcDbArc
 50
270.0
 51
300.0
  0
ARC
  5
6E8
100
AcDbEntity
  8
RUNDUNGEN
100
AcDbCircle
 62
7
  6
CONTINUOUS
 10
210.090221415
 20
203.9327668304
 40
2.0
100
AcDbArc
 50
90.0
 51
120.0
  0
ARC
  5
6E9
100
AcDbEntity
  8
RUNDUNGEN
100
AcDbCircle
 62
7
  6
CONTINUOUS
 10
293.8756947546
 20
207.9327668304
 40
2.0
100
AcDbArc
 50
270.0
 51
354.0000000003
  0
ARC
  5
6EA
100
AcDbEntity
  8
RUNDUNGEN
100
AcDbCircle
 62
7
  6
CONTINUOUS
 10
196.3581706074
 20
196.4327668304
 40
1.0
100
AcDbArc
 50
270.0
 51
360.0
  0
ARC
  5
6EB
100
AcDbEntity
  8
RUNDUNGEN
100
AcDbCircle
 62
7
  6
CONTINUOUS
 10
203.3581706074
 20
195.9327668304
 40
1.0
100
AcDbArc
 50
318.5903778907
 51
360.0
  0
ARC
  5
6EC
100
AcDbEntity
  8
RUNDUNGEN
100
AcDbCircle
 62
7
  6
CONTINUOUS
 10
274.3581706074
 20
224.9327668304
 40
5.0
100
AcDbArc
 50
359.9974019971
 51
90.000762999
  0
ARC
  5
6ED
100
AcDbEntity
  8
RUNDUNGEN
100
AcDbCircle
 62
7
  6
CONTINUOUS
 10
274.3581706074
 20
218.9327668304
 40
5.0
100
AcDbArc
 50
269.9972094646
 51
0.0028787004
  0
ARC
  5
6EE
100
AcDbEntity
  8
0
100
AcDbCircle
 62
7
  6
CONTINUOUS
 10
274.3581706074
 20
218.9327668304
 40
5.0
100
AcDbArc
 50
287.2434290739
 51
293.19945822
  0
ARC
  5
6EF
100
AcDbEntity
  8
0
100
AcDbCircle
 62
7
  6
CONTINUOUS
 10
274.3581706074
 20
218.9327668304
 40
5.0
100
AcDbArc
 50
299.4409559351
 51
306.7763075167
  0
ARC
  5
6F0
100
AcDbEntity
  8
RUNDUNGEN
100
AcDbCircle
 62
7
  6
CONTINUOUS
 10
209.3581706074
 20
224.9327668304
 40
5.0
100
AcDbArc
 50
90.0
 51
180.0025238426
  0
ARC
  5
6F1
100
AcDbEntity
  8
RUNDUNGEN
100
AcDbCircle
 62
7
  6
CONTINUOUS
 10
209.3581706074
 20
218.9327668304
 40
5.0
100
AcDbArc
 50
179.997208655
 51
270.0021655439
  0
ARC
  5
6F2
100
AcDbEntity
  8
RUNDUNGEN
100
AcDbCircle
 62
7
  6
CONTINUOUS
 10
207.2863738377
 20
236.9327668304
 40
2.0
100
AcDbArc
 50
60.0
 51
90.0
  0
ARC
  5
6F3
100
AcDbEntity
  8
RUNDUNGEN
100
AcDbCircle
 62
7
  6
CONTINUOUS
 10
210.090221415
 20
239.9327668304
 40
2.0
100
AcDbArc
 50
240.0
 51
270.0
  0
ARC
  5
6F4
100
AcDbEntity
  8
RUNDUNGEN
100
AcDbCircle
 62
7
  6
CONTINUOUS
 10
293.8756947546
 20
235.9327668304
 40
2.0
100
AcDbArc
 50
5.9999999997
 51
90.0
  0
ARC
  5
6F5
100
AcDbEntity
  8
RUNDUNGEN
100
AcDbCircle
 62
7
  6
CONTINUOUS
 10
203.3581706074
 20
247.9327668304
 40
1.0
100
AcDbArc
 50
0.0
 51
90.0
  0
ARC
  5
6F6
100
AcDbEntity
  8
BEZUGSACHSEN
100
AcDbCircle
 62
7
  6
CONTINUOUS
 10
365.8581706074
 20
208.3948605541
 40
2.9620937237
100
AcDbArc
 50
270.0
 51
316.0
  0
ARC
  5
6F7
100
AcDbEntity
  8
BEZUGSACHSEN
100
AcDbCircle
 62
7
  6
CONTINUOUS
 10
344.3581706074
 20
207.4327668304
 40
2.0
100
AcDbArc
 50
180.0
 51
270.0
  0
ARC
  5
6F8
100
AcDbEntity
  8
BEZUGSACHSEN
100
AcDbCircle
 62
7
  6
CONTINUOUS
 10
370.8581665218
 20
210.747967047
 40
0.9999998097
100
AcDbArc
 50
316.0001718796
 51
0.0000128811
  0
ARC
  5
6F9
100
AcDbEntity
  8
BEZUGSACHSEN
100
AcDbCircle
 62
7
  6
CONTINUOUS
 10
370.8581507925
 20
211.8797453992
 40
0.9999990336
100
AcDbArc
 50
359.9999323039
 51
25.9176702108
  0
ARC
  5
6FA
100
AcDbEntity
  8
BEZUGSACHSEN
100
AcDbCircle
 62
7
  6
CONTINUOUS
 10
391.5448024344
 20
221.9327668304
 40
22.0
100
AcDbArc
 50
191.7913240793
 51
205.9182273224
  0
ARC
  5
6FB
100
AcDbEntity
  8
0
100
AcDbCircle
 62
7
  6
CONTINUOUS
 10
391.5448024344
 20
221.9327668304
 40
22.0
100
AcDbArc
 50
154.0817726776
 51
168.2086759207
  0
ARC
  5
6FC
100
AcDbEntity
  8
BEZUGSACHSEN
100
AcDbCircle
 62
7
  6
CONTINUOUS
 10
354.2581706074
 20
221.9327668304
 40
3.7
100
AcDbArc
 50
90.0
 51
270.0
  0
ARC
  5
6FD
100
AcDbEntity
  8
RUNDUNGEN
100
AcDbCircle
 62
7
  6
CONTINUOUS
 10
354.2581706074
 20
221.9327668304
 40
3.7
100
AcDbArc
 50
89.999999847
 51
270.000000153
  0
ARC
  5
6FE
100
AcDbEntity
  8
0
100
AcDbCircle
 62
7
  6
CONTINUOUS
 10
365.8581706074
 20
235.4706731068
 40
2.9620937237
100
AcDbArc
 50
44.0
 51
90.0
  0
ARC
  5
6FF
100
AcDbEntity
  8
RUNDUNGEN
100
AcDbCircle
 62
7
  6
CONTINUOUS
 10
346.3581706074
 20
231.4327668304
 40
2.5
100
AcDbArc
 50
89.9999996386
 51
270.0000005691
  0
ARC
  5
700
100
AcDbEntity
  8
RUNDUNGEN
100
AcDbCircle
 62
7
  6
CONTINUOUS
 10
356.3581706074
 20
231.4327668304
 40
2.5
100
AcDbArc
 50
269.9999996386
 51
90.0000005691
  0
ARC
  5
701
100
AcDbEntity
  8
BEZUGSACHSEN
100
AcDbCircle
 62
7
  6
CONTINUOUS
 10
346.3581706074
 20
212.4327668304
 40
2.5
100
AcDbArc
 50
89.9999994309
 51
270.0000003614
  0
ARC
  5
702
100
AcDbEntity
  8
BEZUGSACHSEN
100
AcDbCircle
 62
7
  6
CONTINUOUS
 10
356.3581706074
 20
212.4327668304
 40
2.5
100
AcDbArc
 50
269.9999994309
 51
90.0000003614
  0
ARC
  5
703
100
AcDbEntity
  8
RUNDUNGEN
100
AcDbCircle
 62
7
  6
CONTINUOUS
 10
344.3581706074
 20
236.4327668304
 40
2.0
100
AcDbArc
 50
89.9999996927
 51
180.0000004432
  0
ARC
  5
704
100
AcDbEntity
  8
RUNDUNGEN
100
AcDbCircle
 62
7
  6
CONTINUOUS
 10
341.3581706074
 20
213.9327668304
 40
1.0
100
AcDbArc
 50
0.0
 51
90.0
  0
ARC
  5
705
100
AcDbEntity
  8
RUNDUNGEN
100
AcDbCircle
 62
7
  6
CONTINUOUS
 10
341.3581706074
 20
229.9327668304
 40
1.0
100
AcDbArc
 50
270.0
 51
359.9999999999
  0
ARC
  5
706
100
AcDbEntity
  8
BEZUGSACHSEN
100
AcDbCircle
 62
7
  6
CONTINUOUS
 10
369.0301405449
 20
217.2327668304
 40
1.0
100
AcDbArc
 50
11.7913240793
 51
90.0
  0
ARC
  5
707
100
AcDbEntity
  8
RUNDUNGEN
100
AcDbCircle
 62
7
  6
CONTINUOUS
 10
369.0301405449
 20
226.6327668304
 40
1.0
100
AcDbArc
 50
270.0
 51
348.2086759207
  0
ARC
  5
708
100
AcDbEntity
  8
BEZUGSACHSEN
100
AcDbCircle
 62
7
  6
CONTINUOUS
 10
370.8581665218
 20
233.1175666139
 40
0.9999998097
100
AcDbArc
 50
359.9999871189
 51
43.9998281204
  0
ARC
  5
709
100
AcDbEntity
  8
BEZUGSACHSEN
100
AcDbCircle
 62
7
  6
CONTINUOUS
 10
370.8581507925
 20
231.9857882617
 40
0.9999990336
100
AcDbArc
 50
334.0823297892
 51
0.0000676961
  0
ARC
  5
70A
100
AcDbEntity
  8
BEZUGSACHSEN
100
AcDbCircle
 62
7
  6
CONTINUOUS
 10
188.3581706074
 20
349.5061337488
 40
7.0
100
AcDbArc
 50
180.0
 51
270.0
  0
ARC
  5
70B
100
AcDbEntity
  8
RUNDUNGEN
100
AcDbCircle
 62
7
  6
CONTINUOUS
 10
98.4765357039
 20
341.0061337488
 40
5.0
100
AcDbArc
 50
270.0
 51
290.0
  0
ARC
  5
70C
100
AcDbEntity
  8
RUNDUNGEN
100
AcDbCircle
 62
7
  6
CONTINUOUS
 10
108.4822377693
 20
334.0061337488
 40
5.0
100
AcDbArc
 50
90.0
 51
110.0
  0
ARC
  5
70D
100
AcDbEntity
  8
BEZUGSACHSEN
100
AcDbCircle
 62
7
  6
CONTINUOUS
 10
189.3581670197
 20
347.0061301611
 40
2.9999964123
100
AcDbArc
 50
180.0
 51
270.0
  0
ARC
  5
70E
100
AcDbEntity
  8
RUNDUNGEN
100
AcDbCircle
 62
7
  6
CONTINUOUS
 10
177.4299673772
 20
340.0061337488
 40
2.0
100
AcDbArc
 50
240.0
 51
270.0
  0
ARC
  5
70F
100
AcDbEntity
  8
RUNDUNGEN
100
AcDbCircle
 62
7
  6
CONTINUOUS
 10
174.6261197999
 20
337.0061337488
 40
2.0
100
AcDbArc
 50
60.0
 51
90.0
  0
ARC
  5
710
100
AcDbEntity
  8
RUNDUNGEN
100
AcDbCircle
 62
7
  6
CONTINUOUS
 10
65.8581706074
 20
337.5061337488
 40
1.5
100
AcDbArc
 50
180.0
 51
270.0
  0
ARC
  5
711
100
AcDbEntity
  8
RUNDUNGEN
100
AcDbCircle
 62
7
  6
CONTINUOUS
 10
43.3581706074
 20
347.0061337488
 40
1.0
100
AcDbArc
 50
90.0
 51
180.0
  0
ARC
  5
712
100
AcDbEntity
  8
BEZUGSACHSEN
100
AcDbCircle
 62
7
  6
CONTINUOUS
 10
41.3581706074
 20
347.0061337488
 40
1.0
100
AcDbArc
 50
270.0
 51
360.0
  0
ARC
  5
713
100
AcDbEntity
  8
RUNDUNGEN
100
AcDbCircle
 62
7
  6
CONTINUOUS
 10
181.3581706074
 20
329.0061337488
 40
1.0
100
AcDbArc
 50
180.0
 51
270.0
  0
ARC
  5
714
100
AcDbEntity
  8
RUNDUNGEN
100
AcDbCircle
 62
7
  6
CONTINUOUS
 10
90.3581706074
 20
337.0061337488
 40
1.0
100
AcDbArc
 50
180.0
 51
270.0
  0
ARC
  5
715
100
AcDbEntity
  8
RUNDUNGEN
100
AcDbCircle
 62
7
  6
CONTINUOUS
 10
115.8581706074
 20
341.0061337488
 40
1.0
100
AcDbArc
 50
90.0
 51
180.0007113631
  0
ARC
  5
716
100
AcDbEntity
  8
RUNDUNGEN
100
AcDbCircle
 62
7
  6
CONTINUOUS
 10
163.8581706074
 20
341.0061337488
 40
1.0
100
AcDbArc
 50
359.9993195728
 51
90.0
  0
ARC
  5
717
100
AcDbEntity
  8
RUNDUNGEN
100
AcDbCircle
 62
7
  6
CONTINUOUS
 10
68.8581706074
 20
336.5061337488
 40
0.5
100
AcDbArc
 50
270.0
 51
360.0
  0
ARC
  5
718
100
AcDbEntity
  8
RUNDUNGEN
100
AcDbCircle
 62
7
  6
CONTINUOUS
 10
165.3581706074
 20
339.5061337488
 40
0.5
100
AcDbArc
 50
180.0
 51
270.0
  0
ARC
  5
719
100
AcDbEntity
  8
RUNDUNGEN
100
AcDbCircle
 62
7
  6
CONTINUOUS
 10
114.3581706074
 20
339.5061337488
 40
0.5
100
AcDbArc
 50
270.0
 51
360.0
  0
ARC
  5
71A
100
AcDbEntity
  8
RUNDUNGEN
100
AcDbCircle
 62
7
  6
CONTINUOUS
 10
21.8581706074
 20
355.0061337488
 40
9.0
100
AcDbArc
 50
90.0
 51
158.7751372855
  0
ARC
  5
71B
100
AcDbEntity
  8
BEZUGSACHSEN
100
AcDbCircle
 62
7
  6
CONTINUOUS
 10
21.8581706074
 20
355.0061337488
 40
9.0
100
AcDbArc
 50
158.0797110648
 51
270.0011609768
  0
ARC
  5
71C
100
AcDbEntity
  8
BEZUGSACHSEN
100
AcDbCircle
 62
7
  6
CONTINUOUS
 10
21.8581706074
 20
355.0061337488
 40
9.0
100
AcDbArc
 50
89.9988390232
 51
103.6892072758
  0
ARC
  5
71D
100
AcDbEntity
  8
RUNDUNGEN
100
AcDbCircle
 62
7
  6
CONTINUOUS
 10
43.3581706074
 20
363.0061337488
 40
1.0
100
AcDbArc
 50
180.0
 51
270.0
  0
ARC
  5
71E
100
AcDbEntity
  8
RUNDUNGEN
100
AcDbCircle
 62
7
  6
CONTINUOUS
 10
41.3581706074
 20
363.0061337488
 40
1.0
100
AcDbArc
 50
0.0
 51
90.0
  0
ARC
  5
71F
100
AcDbEntity
  8
RUNDUNGEN
100
AcDbCircle
 62
7
  6
CONTINUOUS
 10
104.4257215704
 20
368.444935286
 40
2.0032546657
100
AcDbArc
 50
67.8127775716
 51
69.3438873694
  0
ARC
  5
720
100
AcDbEntity
  8
RUNDUNGEN
100
AcDbCircle
 62
7
  6
CONTINUOUS
 10
104.4269650329
 20
368.4484313689
 40
1.999565902
100
AcDbArc
 50
39.7040990631
 51
69.3429101521
  0
ARC
  5
721
100
AcDbEntity
  8
RUNDUNGEN
100
AcDbCircle
 62
7
  6
CONTINUOUS
 10
65.8581706074
 20
372.5061337488
 40
1.5
100
AcDbArc
 50
90.0
 51
180.0
  0
ARC
  5
722
100
AcDbEntity
  8
RUNDUNGEN
100
AcDbCircle
 62
7
  6
CONTINUOUS
 10
90.3581706074
 20
373.0061337488
 40
1.0
100
AcDbArc
 50
90.0
 51
180.0
  0
ARC
  5
723
100
AcDbEntity
  8
RUNDUNGEN
100
AcDbCircle
 62
7
  6
CONTINUOUS
 10
68.8581706074
 20
373.5061337488
 40
0.5
100
AcDbArc
 50
0.0
 51
90.0
  0
ARC
  5
724
100
AcDbEntity
  8
BEZUGSACHSEN
100
AcDbCircle
 62
7
  6
CONTINUOUS
 10
188.3581714092
 20
360.506132983
 40
7.0000007658
100
AcDbArc
 50
90.0000065623
 51
179.999993732
  0
ARC
  5
725
100
AcDbEntity
  8
RUNDUNGEN
100
AcDbCircle
 62
7
  6
CONTINUOUS
 10
188.3581706074
 20
360.5061337488
 40
7.0
100
AcDbArc
 50
97.9642414035
 51
180.0001848971
  0
ARC
  5
726
100
AcDbEntity
  8
BEZUGSACHSEN
100
AcDbCircle
 62
7
  6
CONTINUOUS
 10
189.3581706074
 20
363.0061337488
 40
3.0
100
AcDbArc
 50
90.0
 51
180.0
  0
ARC
  5
727
100
AcDbEntity
  8
RUNDUNGEN
100
AcDbCircle
 62
7
  6
CONTINUOUS
 10
177.4298572667
 20
366.4595936097
 40
1.9996464679
100
AcDbArc
 50
104.6837912825
 51
135.5073091714
  0
ARC
  5
728
100
AcDbEntity
  8
RUNDUNGEN
100
AcDbCircle
 62
7
  6
CONTINUOUS
 10
181.3581706074
 20
381.0061337488
 40
1.0
100
AcDbArc
 50
90.0
 51
180.0
  0
ARC
  5
729
100
AcDbEntity
  8
RUNDUNGEN
100
AcDbCircle
 62
7
  6
CONTINUOUS
 10
196.3581706074
 20
349.5061337488
 40
7.0
100
AcDbArc
 50
270.0
 51
360.0
  0
ARC
  5
72A
100
AcDbEntity
  8
RUNDUNGEN
100
AcDbCircle
 62
7
  6
CONTINUOUS
 10
195.3581741951
 20
347.0061301611
 40
2.9999964123
100
AcDbArc
 50
270.0
 51
360.0
  0
ARC
  5
72B
100
AcDbEntity
  8
RUNDUNGEN
100
AcDbCircle
 62
7
  6
CONTINUOUS
 10
207.2863738377
 20
340.0061337488
 40
2.0
100
AcDbArc
 50
270.0
 51
300.0
  0
ARC
  5
72C
100
AcDbEntity
  8
RUNDUNGEN
100
AcDbCircle
 62
7
  6
CONTINUOUS
 10
210.090221415
 20
337.0061337488
 40
2.0
100
AcDbArc
 50
90.0
 51
120.0
  0
ARC
  5
72D
100
AcDbEntity
  8
RUNDUNGEN
100
AcDbCircle
 62
7
  6
CONTINUOUS
 10
293.8756947546
 20
341.0061337488
 40
2.0
100
AcDbArc
 50
270.0
 51
354.0
  0
ARC
  5
72E
100
AcDbEntity
  8
RUNDUNGEN
100
AcDbCircle
 62
7
  6
CONTINUOUS
 10
341.3581706074
 20
347.0061337488
 40
1.0
100
AcDbArc
 50
0.0
 51
90.0
  0
ARC
  5
72F
100
AcDbEntity
  8
BEZUGSACHSEN
100
AcDbCircle
 62
7
  6
CONTINUOUS
 10
343.3581706074
 20
347.0061337488
 40
1.0
100
AcDbArc
 50
180.0
 51
270.0
  0
ARC
  5
730
100
AcDbEntity
  8
RUNDUNGEN
100
AcDbCircle
 62
7
  6
CONTINUOUS
 10
203.3581706074
 20
329.0061337488
 40
1.0
100
AcDbArc
 50
270.0
 51
360.0
  0
ARC
  5
731
100
AcDbEntity
  8
RUNDUNGEN
100
AcDbCircle
 62
7
  6
CONTINUOUS
 10
228.8581706074
 20
341.0061337488
 40
1.0
100
AcDbArc
 50
90.0
 51
180.0006098202
  0
ARC
  5
732
100
AcDbEntity
  8
RUNDUNGEN
100
AcDbCircle
 62
7
  6
CONTINUOUS
 10
268.8581706074
 20
341.0061337488
 40
1.0
100
AcDbArc
 50
359.999382517
 51
90.0
  0
ARC
  5
733
100
AcDbEntity
  8
RUNDUNGEN
100
AcDbCircle
 62
7
  6
CONTINUOUS
 10
270.3581706074
 20
339.5061337488
 40
0.5
100
AcDbArc
 50
180.0
 51
270.0
  0
ARC
  5
734
100
AcDbEntity
  8
RUNDUNGEN
100
AcDbCircle
 62
7
  6
CONTINUOUS
 10
227.3581706074
 20
339.5061337488
 40
0.5
100
AcDbArc
 50
270.0
 51
360.0
  0
ARC
  5
735
100
AcDbEntity
  8
RUNDUNGEN
100
AcDbCircle
 62
7
  6
CONTINUOUS
 10
196.3581706074
 20
360.5061337488
 40
7.0
100
AcDbArc
 50
359.9992796733
 51
89.9999934377
  0
ARC
  5
736
100
AcDbEntity
  8
RUNDUNGEN
100
AcDbCircle
 62
7
  6
CONTINUOUS
 10
195.3581706074
 20
363.0061337488
 40
3.0
100
AcDbArc
 50
0.0
 51
90.0
  0
ARC
  5
737
100
AcDbEntity
  8
RUNDUNGEN
100
AcDbCircle
 62
7
  6
CONTINUOUS
 10
207.2865127651
 20
366.4596462351
 40
1.9995868096
100
AcDbArc
 50
44.4925915529
 51
75.3161711406
  0
ARC
  5
738
100
AcDbEntity
  8
RUNDUNGEN
100
AcDbCircle
 62
7
  6
CONTINUOUS
 10
203.3581706074
 20
381.0061337488
 40
1.0
100
AcDbArc
 50
0.0
 51
90.0
  0
ARC
  5
739
100
AcDbEntity
  8
RUNDUNGEN
100
AcDbCircle
 62
7
  6
CONTINUOUS
 10
341.3581706074
 20
363.0061337488
 40
1.0
100
AcDbArc
 50
270.0
 51
360.0
  0
ARC
  5
73A
100
AcDbEntity
  8
BEZUGSACHSEN
100
AcDbCircle
 62
7
  6
CONTINUOUS
 10
343.3581706074
 20
363.0061337488
 40
1.0
100
AcDbArc
 50
90.0
 51
180.0
  0
ARC
  5
73B
100
AcDbEntity
  8
RUNDUNGEN
100
AcDbCircle
 62
7
  6
CONTINUOUS
 10
362.8581706074
 20
355.0061337488
 40
9.0
100
AcDbArc
 50
82.068055143
 51
90.0
  0
ARC
  5
73C
100
AcDbEntity
  8
RUNDUNGEN
100
AcDbCircle
 62
7
  6
CONTINUOUS
 10
362.8581706074
 20
355.0061337488
 40
9.0
100
AcDbArc
 50
21.2248627145
 51
21.629134056
  0
ARC
  5
73D
100
AcDbEntity
  8
BEZUGSACHSEN
100
AcDbCircle
 62
7
  6
CONTINUOUS
 10
362.8581706074
 20
355.0061337488
 40
9.0
100
AcDbArc
 50
270.0
 51
90.0
  0
ARC
  5
73E
100
AcDbEntity
  8
RUNDUNGEN
100
AcDbCircle
 62
7
  6
CONTINUOUS
 10
281.3581706074
 20
369.0061337488
 40
2.0
100
AcDbArc
 50
90.0
 51
175.2245540773
  0
ARC
  5
73F
100
AcDbEntity
  8
RUNDUNGEN
100
AcDbCircle
 62
7
  6
CONTINUOUS
 10
293.8756947546
 20
369.0061337488
 40
2.0
100
AcDbArc
 50
5.9999999999
 51
90.0
  0
ARC
  5
740
100
AcDbEntity
  8
BEZUGSACHSEN
100
AcDbCircle
 62
7
  6
CONTINUOUS
 10
433.5448146334
 20
149.3083759928
 40
20.0
100
AcDbArc
 50
359.9999531378
 51
3.5762872094
  0
ARC
  5
741
100
AcDbEntity
  8
BEZUGSACHSEN
100
AcDbCircle
 62
7
  6
CONTINUOUS
 10
463.5448146334
 20
85.4327668304
 40
10.0
100
AcDbArc
 50
180.0
 51
270.0
  0
ARC
  5
742
100
AcDbEntity
  8
RUNDUNGEN
100
AcDbCircle
 62
7
  6
CONTINUOUS
 10
463.5448146334
 20
85.4327668304
 40
10.0
100
AcDbArc
 50
180.0
 51
183.7500000047
  0
ARC
  5
743
100
AcDbEntity
  8
RUNDUNGEN
100
AcDbCircle
 62
7
  6
CONTINUOUS
 10
445.0234450316
 20
196.4407004929
 40
7.0933462733
100
AcDbArc
 50
351.8308692149
 51
357.9681815981
  0
ARC
  5
744
100
AcDbEntity
  8
0
100
AcDbCircle
 62
7
  6
CONTINUOUS
 10
435.3581828064
 20
221.9327668304
 40
22.0
100
AcDbArc
 50
337.0959511496
 51
348.2086759207
  0
ARC
  5
745
100
AcDbEntity
  8
BEZUGSACHSEN
100
AcDbCircle
 62
7
  6
CONTINUOUS
 10
435.3581828064
 20
221.9327668304
 40
22.0
100
AcDbArc
 50
337.0959511496
 51
348.2086759207
  0
ARC
  5
746
100
AcDbEntity
  8
BEZUGSACHSEN
100
AcDbCircle
 62
7
  6
CONTINUOUS
 10
435.3581828064
 20
221.9327668304
 40
22.0
100
AcDbArc
 50
11.7913240793
 51
22.9040488504
  0
ARC
  5
747
100
AcDbEntity
  8
BEZUGSACHSEN
100
AcDbCircle
 62
7
  6
CONTINUOUS
 10
457.0448146334
 20
174.5571576681
 40
20.0
100
AcDbArc
 50
356.423665625
 51
360.0
  0
ARC
  5
748
100
AcDbEntity
  8
RUNDUNGEN
100
AcDbCircle
 62
7
  6
CONTINUOUS
 10
449.0723993095
 20
196.1798373099
 40
3.0434519836
100
AcDbArc
 50
4.7977158873
 51
58.9992089389
  0
ARC
  5
749
100
AcDbEntity
  8
RUNDUNGEN
100
AcDbCircle
 62
7
  6
CONTINUOUS
 10
450.0264423483
 20
196.2604420986
 40
2.0871052453
100
AcDbArc
 50
358.0441242586
 51
4.736096887
  0
ARC
  5
74A
100
AcDbEntity
  8
BEZUGSACHSEN
100
AcDbCircle
 62
7
  6
CONTINUOUS
 10
456.5448146334
 20
217.2327668304
 40
1.0
100
AcDbArc
 50
90.0
 51
180.0
  0
ARC
  5
74B
100
AcDbEntity
  8
BEZUGSACHSEN
100
AcDbCircle
 62
7
  6
CONTINUOUS
 10
456.5448146334
 20
212.981416859
 40
1.0
100
AcDbArc
 50
157.0958494876
 51
179.9998896365
  0
ARC
  5
74C
100
AcDbEntity
  8
BEZUGSACHSEN
100
AcDbCircle
 62
7
  6
CONTINUOUS
 10
456.5448146334
 20
206.4327668304
 40
1.0
100
AcDbArc
 50
180.0
 51
270.0
  0
ARC
  5
74D
100
AcDbEntity
  8
BEZUGSACHSEN
100
AcDbCircle
 62
7
  6
CONTINUOUS
 10
456.5448146334
 20
226.6327668304
 40
1.0
100
AcDbArc
 50
180.0
 51
270.0
  0
ARC
  5
74E
100
AcDbEntity
  8
BEZUGSACHSEN
100
AcDbCircle
 62
7
  6
CONTINUOUS
 10
456.5448146334
 20
230.8841168019
 40
1.0
100
AcDbArc
 50
180.0001103635
 51
202.9041505124
  0
ARC
  5
74F
100
AcDbEntity
  8
BEZUGSACHSEN
100
AcDbCircle
 62
7
  6
CONTINUOUS
 10
456.5448146334
 20
237.4327668304
 40
1.0
100
AcDbArc
 50
90.0
 51
180.0
  0
ARC
  5
750
100
AcDbEntity
  8
RUNDUNGEN
100
AcDbCircle
 62
7
  6
CONTINUOUS
 10
457.872844696
 20
217.2327668304
 40
1.0
100
AcDbArc
 50
90.0
 51
168.2086759173
  0
ARC
  5
751
100
AcDbEntity
  8
BEZUGSACHSEN
100
AcDbCircle
 62
7
  6
CONTINUOUS
 10
457.872844696
 20
217.2327668304
 40
1.0
100
AcDbArc
 50
90.0
 51
168.2086759207
  0
ARC
  5
752
100
AcDbEntity
  8
BEZUGSACHSEN
100
AcDbCircle
 62
7
  6
CONTINUOUS
 10
457.872844696
 20
226.6327668304
 40
1.0
100
AcDbArc
 50
191.7913240793
 51
270.0
  0
ARC
  5
753
100
AcDbEntity
  8
BEZUGSACHSEN
100
AcDbCircle
 62
7
  6
CONTINUOUS
 10
495.5448146334
 20
149.3083759928
 40
20.0
100
AcDbArc
 50
176.423665625
 51
180.0
  0
ARC
  5
754
100
AcDbEntity
  8
BEZUGSACHSEN
100
AcDbCircle
 62
7
  6
CONTINUOUS
 10
465.5448146334
 20
85.4327668304
 40
10.0
100
AcDbArc
 50
270.0
 51
360.0
  0
ARC
  5
755
100
AcDbEntity
  8
BEZUGSACHSEN
100
AcDbCircle
 62
7
  6
CONTINUOUS
 10
472.0448146334
 20
174.5571576681
 40
20.0
100
AcDbArc
 50
180.0
 51
183.5763276826
  0
ARC
  5
756
100
AcDbEntity
  8
RUNDUNGEN
100
AcDbCircle
 62
7
  6
CONTINUOUS
 10
479.0400607041
 20
196.2610066832
 40
2.0640122155
100
AcDbArc
 50
175.2265178905
 51
181.9935835403
  0
ARC
  5
757
100
AcDbEntity
  8
BEZUGSACHSEN
100
AcDbCircle
 62
7
  6
CONTINUOUS
 10
464.5448146334
 20
207.9327668304
 40
3.0
100
AcDbArc
 50
236.6493933442
 51
303.3506066558
  0
ARC
  5
758
100
AcDbEntity
  8
RUNDUNGEN
100
AcDbCircle
 62
7
  6
CONTINUOUS
 10
464.5448146334
 20
221.9327668304
 40
27.0
100
AcDbArc
 50
294.9218141801
 51
245.0781858844
  0
CIRCLE
  5
759
100
AcDbEntity
  8
RUNDUNGEN
100
AcDbCircle
 62
7
  6
CONTINUOUS
 10
464.5448146334
 20
221.9327668304
 40
19.0
  0
ARC
  5
75A
100
AcDbEntity
  8
BEZUGSACHSEN
100
AcDbCircle
 62
7
  6
CONTINUOUS
 10
464.5448146334
 20
235.9327668304
 40
3.0
100
AcDbArc
 50
56.6493933442
 51
123.3506066558
  0
ARC
  5
75B
100
AcDbEntity
  8
RUNDUNGEN
100
AcDbCircle
 62
7
  6
CONTINUOUS
 10
472.5448146334
 20
217.2327668304
 40
1.0
100
AcDbArc
 50
0.0
 51
90.0
  0
ARC
  5
75C
100
AcDbEntity
  8
RUNDUNGEN
100
AcDbCircle
 62
7
  6
CONTINUOUS
 10
472.5448146334
 20
212.9814187852
 40
1.0
100
AcDbArc
 50
0.0001103635
 51
22.9040488504
  0
ARC
  5
75D
100
AcDbEntity
  8
RUNDUNGEN
100
AcDbCircle
 62
7
  6
CONTINUOUS
 10
472.5448146334
 20
206.4327668304
 40
1.0
100
AcDbArc
 50
270.0
 51
360.0
  0
ARC
  5
75E
100
AcDbEntity
  8
RUNDUNGEN
100
AcDbCircle
 62
7
  6
CONTINUOUS
 10
471.2167845709
 20
217.2327668304
 40
1.0
100
AcDbArc
 50
11.7913240793
 51
90.0
  0
ARC
  5
75F
100
AcDbEntity
  8
BEZUGSACHSEN
100
AcDbCircle
 62
7
  6
CONTINUOUS
 10
471.2167845709
 20
226.6327668304
 40
1.0
100
AcDbArc
 50
270.0
 51
348.2086759207
  0
ARC
  5
760
100
AcDbEntity
  8
BEZUGSACHSEN
100
AcDbCircle
 62
7
  6
CONTINUOUS
 10
472.5448146334
 20
237.4327668304
 40
1.0
100
AcDbArc
 50
0.0
 51
90.0
  0
ARC
  5
761
100
AcDbEntity
  8
BEZUGSACHSEN
100
AcDbCircle
 62
7
  6
CONTINUOUS
 10
472.5448146334
 20
230.8841148757
 40
1.0
100
AcDbArc
 50
337.0959511496
 51
360.0
  0
ARC
  5
762
100
AcDbEntity
  8
BEZUGSACHSEN
100
AcDbCircle
 62
7
  6
CONTINUOUS
 10
472.5448146334
 20
226.6327668304
 40
1.0
100
AcDbArc
 50
270.0
 51
360.0
  0
ARC
  5
763
100
AcDbEntity
  8
RUNDUNGEN
100
AcDbCircle
 62
7
  6
CONTINUOUS
 10
484.1387598259
 20
196.4471783384
 40
7.1661069697
100
AcDbArc
 50
182.0630441453
 51
188.1379442949
  0
ARC
  5
764
100
AcDbEntity
  8
RUNDUNGEN
100
AcDbCircle
 62
7
  6
CONTINUOUS
 10
480.0172157537
 20
196.1798678341
 40
3.0434192107
100
AcDbArc
 50
121.0007021492
 51
175.2022406407
  0
ARC
  5
765
100
AcDbEntity
  8
RUNDUNGEN
100
AcDbCircle
 62
7
  6
CONTINUOUS
 10
493.7314464604
 20
221.9327668304
 40
22.0
100
AcDbArc
 50
191.7913240793
 51
202.9040488504
  0
ARC
  5
766
100
AcDbEntity
  8
BEZUGSACHSEN
100
AcDbCircle
 62
7
  6
CONTINUOUS
 10
493.7314464604
 20
221.9327668304
 40
22.0
100
AcDbArc
 50
157.0959511496
 51
168.2086759207
  0
ARC
  5
767
100
AcDbEntity
  8
RUNDUNGEN
100
AcDbCircle
 62
7
  6
CONTINUOUS
 10
682.0873562599
 20
147.8715614534
 40
20.0
100
AcDbArc
 50
0.0000001436
 51
11.7682908656
  0
ARC
  5
768
100
AcDbEntity
  8
RUNDUNGEN
100
AcDbCircle
 62
7
  6
CONTINUOUS
 10
705.0873562599
 20
78.4327668304
 40
3.0
100
AcDbArc
 50
180.0
 51
270.0
  0
ARC
  5
769
100
AcDbEntity
  8
BEZUGSACHSEN
100
AcDbCircle
 62
7
  6
CONTINUOUS
 10
534.5873562599
 20
208.3948605541
 40
2.9620937237
100
AcDbArc
 50
224.0
 51
270.0
  0
ARC
  5
76A
100
AcDbEntity
  8
BEZUGSACHSEN
100
AcDbCircle
 62
7
  6
CONTINUOUS
 10
556.0873562599
 20
207.4327668304
 40
2.0
100
AcDbArc
 50
270.0
 51
360.0
  0
ARC
  5
76B
100
AcDbEntity
  8
BEZUGSACHSEN
100
AcDbCircle
 62
7
  6
CONTINUOUS
 10
529.5873603456
 20
210.747967047
 40
0.9999998097
100
AcDbArc
 50
179.9999871189
 51
223.9998281204
  0
ARC
  5
76C
100
AcDbEntity
  8
BEZUGSACHSEN
100
AcDbCircle
 62
7
  6
CONTINUOUS
 10
529.5873760748
 20
211.8797453992
 40
0.9999990336
100
AcDbArc
 50
154.0823297892
 51
180.0000676961
  0
ARC
  5
76D
100
AcDbEntity
  8
BEZUGSACHSEN
100
AcDbCircle
 62
7
  6
CONTINUOUS
 10
508.9007244329
 20
221.9327668304
 40
22.0
100
AcDbArc
 50
334.0817726776
 51
348.2086759207
  0
ARC
  5
76E
100
AcDbEntity
  8
0
100
AcDbCircle
 62
7
  6
CONTINUOUS
 10
508.9007244329
 20
221.9327668304
 40
22.0
100
AcDbArc
 50
11.7913240793
 51
25.9182273224
  0
ARC
  5
76F
100
AcDbEntity
  8
BEZUGSACHSEN
100
AcDbCircle
 62
7
  6
CONTINUOUS
 10
546.1873562599
 20
221.9327668304
 40
3.7
100
AcDbArc
 50
270.0
 51
90.0
  0
ARC
  5
770
100
AcDbEntity
  8
0
100
AcDbCircle
 62
7
  6
CONTINUOUS
 10
534.5873562599
 20
235.4706731068
 40
2.9620937237
100
AcDbArc
 50
90.0
 51
136.0
  0
ARC
  5
771
100
AcDbEntity
  8
BEZUGSACHSEN
100
AcDbCircle
 62
7
  6
CONTINUOUS
 10
544.0873562599
 20
212.4327668304
 40
2.5
100
AcDbArc
 50
89.9999996386
 51
270.0000005691
  0
ARC
  5
772
100
AcDbEntity
  8
BEZUGSACHSEN
100
AcDbCircle
 62
7
  6
CONTINUOUS
 10
554.0873562599
 20
212.4327668304
 40
2.5
100
AcDbArc
 50
269.9999996386
 51
90.0000005691
  0
ARC
  5
773
100
AcDbEntity
  8
BEZUGSACHSEN
100
AcDbCircle
 62
7
  6
CONTINUOUS
 10
544.0873562599
 20
231.4327668304
 40
2.5
100
AcDbArc
 50
89.9999994309
 51
270.0000003614
  0
ARC
  5
774
100
AcDbEntity
  8
BEZUGSACHSEN
100
AcDbCircle
 62
7
  6
CONTINUOUS
 10
554.0873562599
 20
231.4327668304
 40
2.5
100
AcDbArc
 50
269.9999994309
 51
90.0000003614
  0
ARC
  5
775
100
AcDbEntity
  8
BEZUGSACHSEN
100
AcDbCircle
 62
7
  6
CONTINUOUS
 10
556.0873562599
 20
236.4327668304
 40
2.0
100
AcDbArc
 50
0.0
 51
90.0
  0
ARC
  5
776
100
AcDbEntity
  8
RUNDUNGEN
100
AcDbCircle
 62
7
  6
CONTINUOUS
 10
559.0873562599
 20
229.9327668304
 40
1.0
100
AcDbArc
 50
180.0000000001
 51
270.0
  0
ARC
  5
777
100
AcDbEntity
  8
RUNDUNGEN
100
AcDbCircle
 62
7
  6
CONTINUOUS
 10
559.0873562599
 20
213.9327668304
 40
1.0
100
AcDbArc
 50
90.0
 51
180.0
  0
ARC
  5
778
100
AcDbEntity
  8
BEZUGSACHSEN
100
AcDbCircle
 62
7
  6
CONTINUOUS
 10
531.4153863225
 20
217.2327668304
 40
1.0
100
AcDbArc
 50
90.0
 51
168.2086759207
  0
ARC
  5
779
100
AcDbEntity
  8
RUNDUNGEN
100
AcDbCircle
 62
7
  6
CONTINUOUS
 10
531.4153863225
 20
226.6327668304
 40
1.0
100
AcDbArc
 50
191.7913240793
 51
270.0
  0
ARC
  5
77A
100
AcDbEntity
  8
BEZUGSACHSEN
100
AcDbCircle
 62
7
  6
CONTINUOUS
 10
529.5873603456
 20
233.1175666139
 40
0.9999998097
100
AcDbArc
 50
136.0001718796
 51
180.0000128811
  0
ARC
  5
77B
100
AcDbEntity
  8
BEZUGSACHSEN
100
AcDbCircle
 62
7
  6
CONTINUOUS
 10
529.5873760748
 20
231.9857882617
 40
0.9999990336
100
AcDbArc
 50
179.9999323039
 51
205.9176702108
  0
ARC
  5
77C
100
AcDbEntity
  8
BEZUGSACHSEN
100
AcDbCircle
 62
7
  6
CONTINUOUS
 10
699.0873562599
 20
175.9939722075
 40
20.0
100
AcDbArc
 50
348.231711068
 51
360.0
  0
ARC
  5
77D
100
AcDbEntity
  8
RUNDUNGEN
100
AcDbCircle
 62
7
  6
CONTINUOUS
 10
694.0873562599
 20
193.2870155194
 40
3.0
100
AcDbArc
 50
0.0
 51
41.4096221093
  0
ARC
  5
77E
100
AcDbEntity
  8
RUNDUNGEN
100
AcDbCircle
 62
7
  6
CONTINUOUS
 10
693.1591530297
 20
206.9327668304
 40
2.0
100
AcDbArc
 50
240.0
 51
270.0
  0
ARC
  5
77F
100
AcDbEntity
  8
RUNDUNGEN
100
AcDbCircle
 62
7
  6
CONTINUOUS
 10
690.3553054524
 20
203.9327668304
 40
2.0
100
AcDbArc
 50
60.0
 51
90.0
  0
ARC
  5
780
100
AcDbEntity
  8
RUNDUNGEN
100
AcDbCircle
 62
7
  6
CONTINUOUS
 10
606.5698321128
 20
207.9327668304
 40
2.0
100
AcDbArc
 50
185.9999999997
 51
270.0
  0
ARC
  5
781
100
AcDbEntity
  8
RUNDUNGEN
100
AcDbCircle
 62
7
  6
CONTINUOUS
 10
704.0873562599
 20
196.4327668304
 40
1.0
100
AcDbArc
 50
180.0
 51
270.0
  0
ARC
  5
782
100
AcDbEntity
  8
RUNDUNGEN
100
AcDbCircle
 62
7
  6
CONTINUOUS
 10
697.0873562599
 20
195.9327668304
 40
1.0
100
AcDbArc
 50
180.0
 51
221.4096221093
  0
ARC
  5
783
100
AcDbEntity
  8
RUNDUNGEN
100
AcDbCircle
 62
7
  6
CONTINUOUS
 10
693.1591530297
 20
236.9327668304
 40
2.0
100
AcDbArc
 50
90.0
 51
120.0
  0
ARC
  5
784
100
AcDbEntity
  8
RUNDUNGEN
100
AcDbCircle
 62
7
  6
CONTINUOUS
 10
690.3553054524
 20
239.9327668304
 40
2.0
100
AcDbArc
 50
270.0
 51
300.0
  0
ARC
  5
785
100
AcDbEntity
  8
RUNDUNGEN
100
AcDbCircle
 62
7
  6
CONTINUOUS
 10
606.5698321128
 20
235.9327668304
 40
2.0
100
AcDbArc
 50
90.0
 51
174.0000000003
  0
ARC
  5
786
100
AcDbEntity
  8
RUNDUNGEN
100
AcDbCircle
 62
7
  6
CONTINUOUS
 10
697.0873562599
 20
247.9327668304
 40
1.0
100
AcDbArc
 50
90.0
 51
180.0
  0
ARC
  5
787
100
AcDbEntity
  8
BEZUGSACHSEN
100
AcDbCircle
 62
7
  6
CONTINUOUS
 10
734.0873562599
 20
147.8715614534
 40
20.0
100
AcDbArc
 50
168.2317091344
 51
179.9999998564
  0
ARC
  5
788
100
AcDbEntity
  8
BEZUGSACHSEN
100
AcDbCircle
 62
7
  6
CONTINUOUS
 10
711.0873562599
 20
78.4327668304
 40
3.0
100
AcDbArc
 50
270.0
 51
360.0
  0
ARC
  5
789
100
AcDbEntity
  8
RUNDUNGEN
100
AcDbCircle
 62
7
  6
CONTINUOUS
 10
717.0873562599
 20
175.9939722075
 40
20.0
100
AcDbArc
 50
179.9999832586
 51
191.768288932
  0
ARC
  5
78A
100
AcDbEntity
  8
RUNDUNGEN
100
AcDbCircle
 62
7
  6
CONTINUOUS
 10
722.0873562599
 20
193.2870155194
 40
3.0
100
AcDbArc
 50
138.5903778907
 51
180.0
  0
ARC
  5
78B
100
AcDbEntity
  8
RUNDUNGEN
100
AcDbCircle
 62
7
  6
CONTINUOUS
 10
723.0155594902
 20
206.9327668304
 40
2.0
100
AcDbArc
 50
270.0
 51
300.0
  0
ARC
  5
78C
100
AcDbEntity
  8
RUNDUNGEN
100
AcDbCircle
 62
7
  6
CONTINUOUS
 10
725.8194070675
 20
203.9327668304
 40
2.0
100
AcDbArc
 50
90.0
 51
120.0
  0
ARC
  5
78D
100
AcDbEntity
  8
RUNDUNGEN
100
AcDbCircle
 62
7
  6
CONTINUOUS
 10
719.0873562599
 20
195.9327668304
 40
1.0
100
AcDbArc
 50
318.5903778907
 51
360.0
  0
ARC
  5
78E
100
AcDbEntity
  8
RUNDUNGEN
100
AcDbCircle
 62
7
  6
CONTINUOUS
 10
712.0873562599
 20
196.4327668304
 40
1.0
100
AcDbArc
 50
270.0
 51
360.0
  0
ARC
  5
78F
100
AcDbEntity
  8
RUNDUNGEN
100
AcDbCircle
 62
7
  6
CONTINUOUS
 10
801.9689911635
 20
207.9327668304
 40
5.0
100
AcDbArc
 50
250.0
 51
270.0
  0
ARC
  5
790
100
AcDbEntity
  8
RUNDUNGEN
100
AcDbCircle
 62
7
  6
CONTINUOUS
 10
791.963289098
 20
200.9327668304
 40
5.0
100
AcDbArc
 50
70.0
 51
90.0
  0
ARC
  5
791
100
AcDbEntity
  8
RUNDUNGEN
100
AcDbCircle
 62
7
  6
CONTINUOUS
 10
801.9689911635
 20
235.9327668304
 40
5.0
100
AcDbArc
 50
90.0
 51
110.0
  0
ARC
  5
792
100
AcDbEntity
  8
RUNDUNGEN
100
AcDbCircle
 62
7
  6
CONTINUOUS
 10
791.963289098
 20
242.9327668304
 40
5.0
100
AcDbArc
 50
270.0
 51
290.0
  0
ARC
  5
793
100
AcDbEntity
  8
RUNDUNGEN
100
AcDbCircle
 62
7
  6
CONTINUOUS
 10
723.0155594902
 20
236.9327668304
 40
2.0
100
AcDbArc
 50
60.0
 51
90.0
  0
ARC
  5
794
100
AcDbEntity
  8
RUNDUNGEN
100
AcDbCircle
 62
7
  6
CONTINUOUS
 10
725.8194070675
 20
239.9327668304
 40
2.0
100
AcDbArc
 50
240.0
 51
270.0
  0
ARC
  5
795
100
AcDbEntity
  8
RUNDUNGEN
100
AcDbCircle
 62
7
  6
CONTINUOUS
 10
719.0873562599
 20
247.9327668304
 40
1.0
100
AcDbArc
 50
0.0
 51
90.0
  0
ARC
  5
796
100
AcDbEntity
  8
0
100
AcDbCircle
 62
7
  6
CONTINUOUS
 10
881.5873562599
 20
208.3948605541
 40
2.9620937237
100
AcDbArc
 50
270.0
 51
316.0
  0
ARC
  5
797
100
AcDbEntity
  8
RUNDUNGEN
100
AcDbCircle
 62
7
  6
CONTINUOUS
 10
860.0873562599
 20
207.4327668304
 40
2.0
100
AcDbArc
 50
261.9622635279
 51
270.0000003073
  0
ARC
  5
798
100
AcDbEntity
  8
BEZUGSACHSEN
100
AcDbCircle
 62
7
  6
CONTINUOUS
 10
860.0873562599
 20
207.4327668304
 40
2.0
100
AcDbArc
 50
180.0
 51
270.0
  0
ARC
  5
799
100
AcDbEntity
  8
RUNDUNGEN
100
AcDbCircle
 62
7
  6
CONTINUOUS
 10
834.5873562599
 20
204.4327668304
 40
1.5
100
AcDbArc
 50
270.0
 51
360.0
  0
ARC
  5
79A
100
AcDbEntity
  8
RUNDUNGEN
100
AcDbCircle
 62
7
  6
CONTINUOUS
 10
810.0873562599
 20
203.9327668304
 40
1.0
100
AcDbArc
 50
270.0
 51
360.0
  0
ARC
  5
79B
100
AcDbEntity
  8
BEZUGSACHSEN
100
AcDbCircle
 62
7
  6
CONTINUOUS
 10
886.5873521743
 20
210.747967047
 40
0.9999998097
100
AcDbArc
 50
316.0001718796
 51
0.0000128811
  0
ARC
  5
79C
100
AcDbEntity
  8
BEZUGSACHSEN
100
AcDbCircle
 62
7
  6
CONTINUOUS
 10
886.587336445
 20
211.8797453992
 40
0.9999990336
100
AcDbArc
 50
359.9999323039
 51
25.9176702108
  0
ARC
  5
79D
100
AcDbEntity
  8
RUNDUNGEN
100
AcDbCircle
 62
7
  6
CONTINUOUS
 10
831.5873562599
 20
203.4327668304
 40
0.5
100
AcDbArc
 50
180.0
 51
270.0
  0
ARC
  5
79E
100
AcDbEntity
  8
BEZUGSACHSEN
100
AcDbCircle
 62
7
  6
CONTINUOUS
 10
907.2739880869
 20
221.9327668304
 40
22.0
100
AcDbArc
 50
154.0817726776
 51
168.2086759207
  0
ARC
  5
79F
100
AcDbEntity
  8
0
100
AcDbCircle
 62
7
  6
CONTINUOUS
 10
907.2739880869
 20
221.9327668304
 40
22.0
100
AcDbArc
 50
191.7913240793
 51
205.9182273224
  0
ARC
  5
7A0
100
AcDbEntity
  8
0
100
AcDbCircle
 62
7
  6
CONTINUOUS
 10
852.0873562599
 20
230.4327668304
 40
6.0
100
AcDbArc
 50
270.0
 51
345.1829337335
  0
ARC
  5
7A1
100
AcDbEntity
  8
BEZUGSACHSEN
100
AcDbCircle
 62
7
  6
CONTINUOUS
 10
869.9873562599
 20
221.9327668304
 40
3.7
100
AcDbArc
 50
90.0
 51
270.0
  0
ARC
  5
7A2
100
AcDbEntity
  8
BEZUGSACHSEN
100
AcDbCircle
 62
7
  6
CONTINUOUS
 10
881.5873562599
 20
235.4706731068
 40
2.9620937237
100
AcDbArc
 50
44.0
 51
90.0
  0
ARC
  5
7A3
100
AcDbEntity
  8
BEZUGSACHSEN
100
AcDbCircle
 62
7
  6
CONTINUOUS
 10
872.0873562599
 20
231.4327668304
 40
2.5
100
AcDbArc
 50
269.9999996385
 51
90.0000005691
  0
ARC
  5
7A4
100
AcDbEntity
  8
BEZUGSACHSEN
100
AcDbCircle
 62
7
  6
CONTINUOUS
 10
862.0873562599
 20
231.4327668304
 40
2.5
100
AcDbArc
 50
89.9999996386
 51
270.0000005691
  0
ARC
  5
7A5
100
AcDbEntity
  8
BEZUGSACHSEN
100
AcDbCircle
 62
7
  6
CONTINUOUS
 10
872.0873562599
 20
212.4327668304
 40
2.5
100
AcDbArc
 50
269.9999994309
 51
90.0000003615
  0
ARC
  5
7A6
100
AcDbEntity
  8
BEZUGSACHSEN
100
AcDbCircle
 62
7
  6
CONTINUOUS
 10
862.0873562599
 20
212.4327668304
 40
2.5
100
AcDbArc
 50
89.9999994309
 51
270.0000003614
  0
ARC
  5
7A7
100
AcDbEntity
  8
BEZUGSACHSEN
100
AcDbCircle
 62
7
  6
CONTINUOUS
 10
860.0873562599
 20
236.4327668304
 40
2.0
100
AcDbArc
 50
90.0
 51
180.0
  0
ARC
  5
7A8
100
AcDbEntity
  8
RUNDUNGEN
100
AcDbCircle
 62
7
  6
CONTINUOUS
 10
834.5873562599
 20
239.4327668304
 40
1.5
100
AcDbArc
 50
0.0
 51
90.0
  0
ARC
  5
7A9
100
AcDbEntity
  8
RUNDUNGEN
100
AcDbCircle
 62
7
  6
CONTINUOUS
 10
857.0873562599
 20
213.9327668304
 40
1.0
100
AcDbArc
 50
0.0000000001
 51
90.0
  0
ARC
  5
7AA
100
AcDbEntity
  8
RUNDUNGEN
100
AcDbCircle
 62
7
  6
CONTINUOUS
 10
857.0873562599
 20
229.9327668304
 40
1.0
100
AcDbArc
 50
270.0
 51
360.0
  0
ARC
  5
7AB
100
AcDbEntity
  8
BEZUGSACHSEN
100
AcDbCircle
 62
7
  6
CONTINUOUS
 10
884.7593261974
 20
226.6327668304
 40
1.0
100
AcDbArc
 50
270.0
 51
348.2086759207
  0
ARC
  5
7AC
100
AcDbEntity
  8
RUNDUNGEN
100
AcDbCircle
 62
7
  6
CONTINUOUS
 10
884.7593261974
 20
217.2327668304
 40
1.0
100
AcDbArc
 50
11.7913240793
 51
90.0
  0
ARC
  5
7AD
100
AcDbEntity
  8
RUNDUNGEN
100
AcDbCircle
 62
7
  6
CONTINUOUS
 10
810.0873562599
 20
239.9327668304
 40
1.0
100
AcDbArc
 50
0.0
 51
90.0
  0
ARC
  5
7AE
100
AcDbEntity
  8
BEZUGSACHSEN
100
AcDbCircle
 62
7
  6
CONTINUOUS
 10
886.5873521743
 20
233.1175666139
 40
0.9999998097
100
AcDbArc
 50
359.9999871189
 51
43.9998281204
  0
ARC
  5
7AF
100
AcDbEntity
  8
BEZUGSACHSEN
100
AcDbCircle
 62
7
  6
CONTINUOUS
 10
886.587336445
 20
231.9857882617
 40
0.9999990336
100
AcDbArc
 50
334.0823297892
 51
0.0000676961
  0
ARC
  5
7B0
100
AcDbEntity
  8
RUNDUNGEN
100
AcDbCircle
 62
7
  6
CONTINUOUS
 10
831.5873562599
 20
240.4327668304
 40
0.5
100
AcDbArc
 50
90.0
 51
180.0
  0
ARC
  5
7B1
100
AcDbEntity
  8
RUNDUNGEN
100
AcDbCircle
 62
7
  6
CONTINUOUS
 10
104.4257214399
 20
-57.4736407756
 40
2.003260631
100
AcDbArc
 50
290.6552616226
 51
292.1855816554
  0
ARC
  5
7B2
100
AcDbEntity
  8
RUNDUNGEN
100
AcDbCircle
 62
7
  6
CONTINUOUS
 10
104.4269010261
 20
-57.4770437416
 40
1.9996641898
100
AcDbArc
 50
292.1911038965
 51
320.2953801507
  0
ARC
  5
7B3
100
AcDbEntity
  8
RUNDUNGEN
100
AcDbCircle
 62
7
  6
CONTINUOUS
 10
177.4298572478
 20
-55.4882827807
 40
1.999646436
100
AcDbArc
 50
224.4926911467
 51
255.3156573568
  0
ARC
  5
7B4
100
AcDbEntity
  8
RUNDUNGEN
100
AcDbCircle
 62
7
  6
CONTINUOUS
 10
65.8581706074
 20
-61.5348228936
 40
1.5
100
AcDbArc
 50
180.0
 51
270.0
  0
ARC
  5
7B5
100
AcDbEntity
  8
RUNDUNGEN
100
AcDbCircle
 62
7
  6
CONTINUOUS
 10
181.3581706074
 20
-70.0348228936
 40
1.0
100
AcDbArc
 50
180.0
 51
270.0
  0
ARC
  5
7B6
100
AcDbEntity
  8
RUNDUNGEN
100
AcDbCircle
 62
7
  6
CONTINUOUS
 10
43.3581706074
 20
-52.0348228936
 40
1.0
100
AcDbArc
 50
90.0
 51
180.0
  0
ARC
  5
7B7
100
AcDbEntity
  8
BEZUGSACHSEN
100
AcDbCircle
 62
7
  6
CONTINUOUS
 10
41.3581706074
 20
-52.0348228936
 40
1.0
100
AcDbArc
 50
270.0
 51
360.0
  0
ARC
  5
7B8
100
AcDbEntity
  8
RUNDUNGEN
100
AcDbCircle
 62
7
  6
CONTINUOUS
 10
90.3581706074
 20
-62.0348228936
 40
1.0
100
AcDbArc
 50
180.0
 51
270.0
  0
ARC
  5
7B9
100
AcDbEntity
  8
RUNDUNGEN
100
AcDbCircle
 62
7
  6
CONTINUOUS
 10
68.8581706074
 20
-62.5348228936
 40
0.5
100
AcDbArc
 50
270.0
 51
360.0
  0
ARC
  5
7BA
100
AcDbEntity
  8
RUNDUNGEN
100
AcDbCircle
 62
7
  6
CONTINUOUS
 10
21.8581706074
 20
-44.0348228936
 40
9.0
100
AcDbArc
 50
262.068055143
 51
270.0
  0
ARC
  5
7BB
100
AcDbEntity
  8
RUNDUNGEN
100
AcDbCircle
 62
7
  6
CONTINUOUS
 10
21.8581706074
 20
-44.0348228936
 40
9.0
100
AcDbArc
 50
201.2248627145
 51
201.629134056
  0
ARC
  5
7BC
100
AcDbEntity
  8
BEZUGSACHSEN
100
AcDbCircle
 62
7
  6
CONTINUOUS
 10
21.8581706074
 20
-44.0348228936
 40
9.0
100
AcDbArc
 50
90.0
 51
270.0
  0
ARC
  5
7BD
100
AcDbEntity
  8
RUNDUNGEN
100
AcDbCircle
 62
7
  6
CONTINUOUS
 10
43.3581706074
 20
-36.0348228936
 40
1.0
100
AcDbArc
 50
180.0
 51
270.0
  0
ARC
  5
7BE
100
AcDbEntity
  8
BEZUGSACHSEN
100
AcDbCircle
 62
7
  6
CONTINUOUS
 10
41.3581706074
 20
-36.0348228936
 40
1.0
100
AcDbArc
 50
0.0
 51
90.0
  0
ARC
  5
7BF
100
AcDbEntity
  8
RUNDUNGEN
100
AcDbCircle
 62
7
  6
CONTINUOUS
 10
98.4765357039
 20
-30.0348228936
 40
5.0
100
AcDbArc
 50
70.0
 51
90.0
  0
ARC
  5
7C0
100
AcDbEntity
  8
RUNDUNGEN
100
AcDbCircle
 62
7
  6
CONTINUOUS
 10
65.8581706074
 20
-26.5348228936
 40
1.5
100
AcDbArc
 50
90.0
 51
180.0
  0
ARC
  5
7C1
100
AcDbEntity
  8
RUNDUNGEN
100
AcDbCircle
 62
7
  6
CONTINUOUS
 10
90.3581706074
 20
-26.0348228936
 40
1.0
100
AcDbArc
 50
90.0
 51
180.0
  0
ARC
  5
7C2
100
AcDbEntity
  8
RUNDUNGEN
100
AcDbCircle
 62
7
  6
CONTINUOUS
 10
68.8581706074
 20
-25.5348228936
 40
0.5
100
AcDbArc
 50
0.0
 51
90.0
  0
ARC
  5
7C3
100
AcDbEntity
  8
RUNDUNGEN
100
AcDbCircle
 62
7
  6
CONTINUOUS
 10
108.4822377693
 20
-23.0348228936
 40
5.0
100
AcDbArc
 50
250.0
 51
270.0
  0
ARC
  5
7C4
100
AcDbEntity
  8
RUNDUNGEN
100
AcDbCircle
 62
7
  6
CONTINUOUS
 10
177.4299673772
 20
-29.0348228936
 40
2.0
100
AcDbArc
 50
90.0
 51
120.0
  0
ARC
  5
7C5
100
AcDbEntity
  8
RUNDUNGEN
100
AcDbCircle
 62
7
  6
CONTINUOUS
 10
174.6261197999
 20
-26.0348228936
 40
2.0
100
AcDbArc
 50
270.0
 51
300.0
  0
ARC
  5
7C6
100
AcDbEntity
  8
RUNDUNGEN
100
AcDbCircle
 62
7
  6
CONTINUOUS
 10
181.3581706074
 20
-18.0348228936
 40
1.0
100
AcDbArc
 50
90.0
 51
180.0
  0
ARC
  5
7C7
100
AcDbEntity
  8
RUNDUNGEN
100
AcDbCircle
 62
7
  6
CONTINUOUS
 10
115.8581706074
 20
-30.0348228936
 40
1.0
100
AcDbArc
 50
179.9992886369
 51
270.0
  0
ARC
  5
7C8
100
AcDbEntity
  8
RUNDUNGEN
100
AcDbCircle
 62
7
  6
CONTINUOUS
 10
163.8581706074
 20
-30.0348228936
 40
1.0
100
AcDbArc
 50
270.0
 51
0.0006804272
  0
ARC
  5
7C9
100
AcDbEntity
  8
RUNDUNGEN
100
AcDbCircle
 62
7
  6
CONTINUOUS
 10
165.3581706074
 20
-28.5348228936
 40
0.5
100
AcDbArc
 50
90.0
 51
180.0
  0
ARC
  5
7CA
100
AcDbEntity
  8
RUNDUNGEN
100
AcDbCircle
 62
7
  6
CONTINUOUS
 10
114.3581706074
 20
-28.5348228936
 40
0.5
100
AcDbArc
 50
0.0
 51
90.0
  0
ARC
  5
7CB
100
AcDbEntity
  8
RUNDUNGEN
100
AcDbCircle
 62
7
  6
CONTINUOUS
 10
281.3581706074
 20
-58.0348228936
 40
2.0
100
AcDbArc
 50
184.7757011658
 51
270.0
  0
ARC
  5
7CC
100
AcDbEntity
  8
RUNDUNGEN
100
AcDbCircle
 62
7
  6
CONTINUOUS
 10
293.8756947546
 20
-58.0348228936
 40
2.0
100
AcDbArc
 50
270.0
 51
354.0000000001
  0
ARC
  5
7CD
100
AcDbEntity
  8
RUNDUNGEN
100
AcDbCircle
 62
7
  6
CONTINUOUS
 10
207.2865127754
 20
-55.4883353944
 40
1.999586792
100
AcDbArc
 50
284.6840918184
 51
315.5074083953
  0
ARC
  5
7CE
100
AcDbEntity
  8
RUNDUNGEN
100
AcDbCircle
 62
7
  6
CONTINUOUS
 10
203.3581706074
 20
-70.0348228936
 40
1.0
100
AcDbArc
 50
270.0
 51
360.0
  0
ARC
  5
7CF
100
AcDbEntity
  8
RUNDUNGEN
100
AcDbCircle
 62
7
  6
CONTINUOUS
 10
341.3581706074
 20
-52.0348228936
 40
1.0
100
AcDbArc
 50
0.0
 51
90.0
  0
ARC
  5
7D0
100
AcDbEntity
  8
RUNDUNGEN
100
AcDbCircle
 62
7
  6
CONTINUOUS
 10
343.3581706074
 20
-52.0348228936
 40
1.0
100
AcDbArc
 50
180.0
 51
270.0
  0
ARC
  5
7D1
100
AcDbEntity
  8
RUNDUNGEN
100
AcDbCircle
 62
7
  6
CONTINUOUS
 10
207.2863738377
 20
-29.0348228936
 40
2.0
100
AcDbArc
 50
60.0
 51
90.0
  0
ARC
  5
7D2
100
AcDbEntity
  8
RUNDUNGEN
100
AcDbCircle
 62
7
  6
CONTINUOUS
 10
210.090221415
 20
-26.0348228936
 40
2.0
100
AcDbArc
 50
240.0
 51
270.0
  0
ARC
  5
7D3
100
AcDbEntity
  8
RUNDUNGEN
100
AcDbCircle
 62
7
  6
CONTINUOUS
 10
203.3581706074
 20
-18.0348228936
 40
1.0
100
AcDbArc
 50
0.0
 51
90.0
  0
ARC
  5
7D4
100
AcDbEntity
  8
RUNDUNGEN
100
AcDbCircle
 62
7
  6
CONTINUOUS
 10
228.8581706074
 20
-30.0348228936
 40
1.0
100
AcDbArc
 50
179.9993901798
 51
270.0
  0
ARC
  5
7D5
100
AcDbEntity
  8
RUNDUNGEN
100
AcDbCircle
 62
7
  6
CONTINUOUS
 10
268.8581706074
 20
-30.0348228936
 40
1.0
100
AcDbArc
 50
270.0
 51
0.000617483
  0
ARC
  5
7D6
100
AcDbEntity
  8
RUNDUNGEN
100
AcDbCircle
 62
7
  6
CONTINUOUS
 10
270.3581706074
 20
-28.5348228936
 40
0.5
100
AcDbArc
 50
90.0
 51
180.0
  0
ARC
  5
7D7
100
AcDbEntity
  8
RUNDUNGEN
100
AcDbCircle
 62
7
  6
CONTINUOUS
 10
227.3581706074
 20
-28.5348228936
 40
0.5
100
AcDbArc
 50
0.0
 51
90.0
  0
ARC
  5
7D8
100
AcDbEntity
  8
RUNDUNGEN
100
AcDbCircle
 62
7
  6
CONTINUOUS
 10
341.3581706074
 20
-36.0348228936
 40
1.0
100
AcDbArc
 50
270.0
 51
360.0
  0
ARC
  5
7D9
100
AcDbEntity
  8
BEZUGSACHSEN
100
AcDbCircle
 62
7
  6
CONTINUOUS
 10
343.3581706074
 20
-36.0348228936
 40
1.0
100
AcDbArc
 50
90.0
 51
180.0
  0
ARC
  5
7DA
100
AcDbEntity
  8
RUNDUNGEN
100
AcDbCircle
 62
7
  6
CONTINUOUS
 10
362.8581706074
 20
-44.0348228936
 40
9.0
100
AcDbArc
 50
270.0
 51
338.7751372855
  0
ARC
  5
7DB
100
AcDbEntity
  8
BEZUGSACHSEN
100
AcDbCircle
 62
7
  6
CONTINUOUS
 10
362.8581706074
 20
-44.0348228936
 40
9.0
100
AcDbArc
 50
338.0797110648
 51
90.0
  0
ARC
  5
7DC
100
AcDbEntity
  8
BEZUGSACHSEN
100
AcDbCircle
 62
7
  6
CONTINUOUS
 10
362.8581706074
 20
-44.0348228936
 40
9.0
100
AcDbArc
 50
269.9988390232
 51
283.6892072758
  0
ARC
  5
7DD
100
AcDbEntity
  8
RUNDUNGEN
100
AcDbCircle
 62
7
  6
CONTINUOUS
 10
293.8756947546
 20
-30.0348228936
 40
2.0
100
AcDbArc
 50
6.0
 51
90.0
  0
SPLINE
  5
7DE
100
AcDbEntity
  8
0
100
AcDbSpline
 62
7
  6
CONTINUOUS
 70
0
 71
3
 72
11
 73
7
 74
0
 42
0.0000001
 43
0.0000001
 44
0.0000000001
 40
0.0
 40
0.0
 40
0.0
 40
0.0
 40
0.2499850801
 40
0.4999542386
 40
0.7499523949
 40
1.0
 40
1.0
 40
1.0
 40
1.0
 10
43.3581706074
 20
215.3944184151
 30
0.0
 10
43.2797711593
 20
215.3944184151
 30
0.0
 10
43.122274389
 20
215.3744273108
 30
0.0
 10
42.9014166012
 20
215.2871315026
 30
0.0
 10
42.7077644403
 20
215.1499247732
 30
0.0
 10
42.6028605279
 20
215.0312699436
 30
0.0
 10
42.5576870595
 20
214.9671691929
 30
0.0
  0
SPLINE
  5
7DF
100
AcDbEntity
  8
0
100
AcDbSpline
 62
7
  6
CONTINUOUS
 70
0
 71
3
 72
8
 73
4
 74
0
 42
0.0000001
 43
0.0000001
 44
0.0000000001
 40
0.0
 40
0.0
 40
0.0
 40
0.0
 40
1.0
 40
1.0
 40
1.0
 40
1.0
 10
147.0726367015
 20
219.4327668304
 30
0.0
 10
146.845879943
 20
219.1120843472
 30
0.0
 10
146.6051369791
 20
218.8012257825
 30
0.0
 10
146.3581706074
 20
218.4958350592
 30
0.0
  0
SPLINE
  5
7E0
100
AcDbEntity
  8
0
100
AcDbSpline
 62
7
  6
CONTINUOUS
 70
0
 71
3
 72
10
 73
6
 74
0
 42
0.0000001
 43
0.0000001
 44
0.0000000001
 40
0.0
 40
0.0
 40
0.0
 40
0.0
 40
0.2500000996
 40
0.500001616
 40
1.0
 40
1.0
 40
1.0
 40
1.0
 10
140.3581706074
 20
218.4958350592
 30
0.0
 10
140.1409310435
 20
218.2272035564
 30
0.0
 10
139.6960842743
 20
217.6983141132
 30
0.0
 10
138.7822469787
 20
216.6616217058
 30
0.0
 10
138.0798157984
 20
215.899364944
 30
0.0
 10
137.6081706074
 20
215.3944184151
 30
0.0
  0
SPLINE
  5
7E1
100
AcDbEntity
  8
RUNDUNGEN
100
AcDbSpline
 62
7
  6
CONTINUOUS
 70
0
 71
3
 72
18
 73
14
 74
0
 42
0.0000001
 43
0.0000001
 44
0.0000000001
 40
0.0
 40
0.0
 40
0.0
 40
0.0
 40
0.0218475504
 40
0.049156136
 40
0.0846142943
 40
0.128993019
 40
0.1821207524
 40
0.2433000163
 40
0.3854335054
 40
0.5448424874
 40
0.7089696738
 40
0.8647367864
 40
1.0
 40
1.0
 40
1.0
 40
1.0
 10
175.3581706106
 20
213.9327559088
 30
0.0
 10
175.3322756742
 20
213.9327553105
 30
0.0
 10
175.2739181418
 20
213.9134713248
 30
0.0
 10
175.2005413902
 20
213.8426545664
 30
0.0
 10
175.1321606293
 20
213.7348982482
 30
0.0
 10
175.0686530239
 20
213.5902086759
 30
0.0
 10
175.0108301046
 20
213.4110056034
 30
0.0
 10
174.9396048639
 20
213.1152968962
 30
0.0
 10
174.8770480652
 20
212.6891267062
 30
0.0
 10
174.8421005749
 20
212.1378436552
 30
0.0
 10
174.8478662659
 20
211.5692086434
 30
0.0
 10
174.8937018496
 20
211.0312437788
 30
0.0
 10
174.9532627778
 20
210.6906009788
 30
0.0
 10
174.9921446679
 20
210.5350658192
 30
0.0
  0
SPLINE
  5
7E2
100
AcDbEntity
  8
RUNDUNGEN
100
AcDbSpline
 62
7
  6
CONTINUOUS
 70
0
 71
3
 72
18
 73
14
 74
0
 42
0.0000001
 43
0.0000001
 44
0.0000000001
 40
0.0
 40
0.0
 40
0.0
 40
0.0
 40
0.135263765
 40
0.2910310467
 40
0.4551586866
 40
0.6145685663
 40
0.7567029396
 40
0.8178824072
 40
0.8710100742
 40
0.9153884159
 40
0.9508458696
 40
0.9781534841
 40
1.0
 40
1.0
 40
1.0
 40
1.0
 10
209.7241957664
 20
210.5350688012
 30
0.0
 10
209.7630768795
 20
210.6906053867
 30
0.0
 10
209.8226365198
 20
211.0312504266
 30
0.0
 10
209.8684704727
 20
211.569218651
 30
0.0
 10
209.8742348032
 20
212.1378573816
 30
0.0
 10
209.8392863217
 20
212.6891448811
 30
0.0
 10
209.7767290711
 20
213.1153188271
 30
0.0
 10
209.7055038413
 20
213.4110298354
 30
0.0
 10
209.6476813266
 20
213.5902333879
 30
0.0
 10
209.5841746017
 20
213.7349224452
 30
0.0
 10
209.5157952886
 20
213.842677253
 30
0.0
 10
209.4424205324
 20
213.9134920961
 30
0.0
 10
209.3840644055
 20
213.9327740382
 30
0.0
 10
209.3581706079
 20
213.9327735797
 30
0.0
  0
SPLINE
  5
7E3
100
AcDbEntity
  8
0
100
AcDbSpline
 62
7
  6
CONTINUOUS
 70
0
 71
3
 72
11
 73
7
 74
0
 42
0.0000001
 43
0.0000001
 44
0.0000000001
 40
0.0
 40
0.0
 40
0.0
 40
0.0
 40
0.2641077178
 40
0.5138294693
 40
0.7561617447
 40
1.0
 40
1.0
 40
1.0
 40
1.0
 10
42.5576870595
 20
357.5061337488
 30
0.0
 10
42.5889312787
 20
357.7116938061
 30
0.0
 10
42.665123159
 20
358.1096434797
 30
0.0
 10
42.8381040373
 20
358.6805845306
 30
0.0
 10
43.0706192795
 20
359.2125884951
 30
0.0
 10
43.2591587281
 20
359.5462069333
 30
0.0
 10
43.3581706074
 20
359.7106657591
 30
0.0
  0
SPLINE
  5
7E4
100
AcDbEntity
  8
0
100
AcDbSpline
 62
7
  6
CONTINUOUS
 70
0
 71
3
 72
15
 73
11
 74
0
 42
0.0000001
 43
0.0000001
 44
0.0000000001
 40
0.0
 40
0.0
 40
0.0
 40
0.0
 40
0.1106531212
 40
0.221079791
 40
0.3353202999
 40
0.4561150963
 40
0.5842459483
 40
0.7188807946
 40
0.8582217681
 40
1.0
 40
1.0
 40
1.0
 40
1.0
 10
43.3581706074
 20
359.7106657591
 30
0.0
 10
43.4641200292
 20
359.8866478495
 30
0.0
 10
43.7092482926
 20
360.219851543
 30
0.0
 10
44.1784715083
 20
360.6356402703
 30
0.0
 10
44.7369555706
 20
360.9583333777
 30
0.0
 10
45.3702481318
 20
361.1960876116
 30
0.0
 10
46.0638752744
 20
361.3625820747
 30
0.0
 10
46.8031672902
 20
361.4709417047
 30
0.0
 10
47.5730084501
 20
361.5315517662
 30
0.0
 10
48.0949764405
 20
361.5444821641
 30
0.0
 10
48.3581706074
 20
361.5444821641
 30
0.0
  0
SPLINE
  5
7E5
100
AcDbEntity
  8
RUNDUNGEN
100
AcDbSpline
 62
7
  6
CONTINUOUS
 70
0
 71
3
 72
11
 73
7
 74
0
 42
0.0000001
 43
0.0000001
 44
0.0000000001
 40
0.0
 40
0.0
 40
0.0
 40
0.0
 40
0.1372994809
 40
0.3213791372
 40
0.6044731488
 40
1.0
 40
1.0
 40
1.0
 40
1.0
 10
187.3581706074
 20
342.5677404279
 30
0.0
 10
187.3581706074
 20
342.5692673111
 30
0.0
 10
187.3599816438
 20
342.572938374
 30
0.0
 10
187.3668757893
 20
342.5748023068
 30
0.0
 10
187.3763632552
 20
342.5750860473
 30
0.0
 10
187.3839279404
 20
342.5742602233
 30
0.0
 10
187.3882840988
 20
342.5736507766
 30
0.0
  0
SPLINE
  5
7E6
100
AcDbEntity
  8
RUNDUNGEN
100
AcDbSpline
 62
7
  6
CONTINUOUS
 70
0
 71
3
 72
11
 73
7
 74
0
 42
0.0000001
 43
0.0000001
 44
0.0000000001
 40
0.0
 40
0.0
 40
0.0
 40
0.0
 40
0.3955300144
 40
0.6786207264
 40
0.8627011476
 40
1.0
 40
1.0
 40
1.0
 40
1.0
 10
187.3882853106
 20
367.4386168906
 30
0.0
 10
187.3839289684
 20
367.4380074189
 30
0.0
 10
187.3763640956
 20
367.4371813006
 30
0.0
 10
187.3668761965
 20
367.4374646358
 30
0.0
 10
187.3599819758
 20
367.4393286757
 30
0.0
 10
187.3581706074
 20
367.4429997419
 30
0.0
 10
187.3581706074
 20
367.4445266703
 30
0.0
  0
SPLINE
  5
7E7
100
AcDbEntity
  8
RUNDUNGEN
100
AcDbSpline
 62
7
  6
CONTINUOUS
 70
0
 71
3
 72
11
 73
7
 74
0
 42
0.0000001
 43
0.0000001
 44
0.0000000001
 40
0.0
 40
0.0
 40
0.0
 40
0.0
 40
0.137299095
 40
0.3213786825
 40
0.6044728926
 40
1.0
 40
1.0
 40
1.0
 40
1.0
 10
197.3581706074
 20
367.4445270712
 30
0.0
 10
197.3581706074
 20
367.4430001848
 30
0.0
 10
197.3563595576
 20
367.4393291102
 30
0.0
 10
197.3494653741
 20
367.4374651901
 30
0.0
 10
197.3399778586
 20
367.4371814631
 30
0.0
 10
197.3324131311
 20
367.4380072944
 30
0.0
 10
197.3280569484
 20
367.4386167445
 30
0.0
  0
SPLINE
  5
7E8
100
AcDbEntity
  8
RUNDUNGEN
100
AcDbSpline
 62
7
  6
CONTINUOUS
 70
0
 71
3
 72
11
 73
7
 74
0
 42
0.0000001
 43
0.0000001
 44
0.0000000001
 40
0.0
 40
0.0
 40
0.0
 40
0.0
 40
0.3955301089
 40
0.6786207666
 40
0.8627009035
 40
1.0
 40
1.0
 40
1.0
 40
1.0
 10
197.328055788
 20
342.5736505908
 30
0.0
 10
197.332412149
 20
342.574260065
 30
0.0
 10
197.3399770451
 20
342.575086216
 30
0.0
 10
197.3494649826
 20
342.574803018
 30
0.0
 10
197.3563592498
 20
342.5729389837
 30
0.0
 10
197.3581706074
 20
342.5692678935
 30
0.0
 10
197.3581706074
 20
342.5677409562
 30
0.0
  0
SPLINE
  5
7E9
100
AcDbEntity
  8
0
100
AcDbSpline
 62
7
  6
CONTINUOUS
 70
0
 71
3
 72
11
 73
7
 74
0
 42
0.0000001
 43
0.0000001
 44
0.0000000001
 40
0.0
 40
0.0
 40
0.0
 40
0.0
 40
0.2499850801
 40
0.4999542386
 40
0.7499523949
 40
1.0
 40
1.0
 40
1.0
 40
1.0
 10
857.0873562599
 20
228.4711152457
 30
0.0
 10
857.165755708
 20
228.4711152457
 30
0.0
 10
857.3232524784
 20
228.49110635
 30
0.0
 10
857.5441102661
 20
228.5784021583
 30
0.0
 10
857.7377624271
 20
228.7156088877
 30
0.0
 10
857.8426663395
 20
228.8342637172
 30
0.0
 10
857.8878398079
 20
228.898364468
 30
0.0
  0
SPLINE
  5
7EA
100
AcDbEntity
  8
0
100
AcDbSpline
 62
7
  6
CONTINUOUS
 70
0
 71
3
 72
11
 73
7
 74
0
 42
0.0000001
 43
0.0000001
 44
0.0000000001
 40
0.0
 40
0.0
 40
0.0
 40
0.0
 40
0.2641077178
 40
0.5138294693
 40
0.7561617447
 40
1.0
 40
1.0
 40
1.0
 40
1.0
 10
42.5576870595
 20
-41.5348228936
 30
0.0
 10
42.5889312787
 20
-41.3292628363
 30
0.0
 10
42.665123159
 20
-40.9313131627
 30
0.0
 10
42.8381040373
 20
-40.3603721117
 30
0.0
 10
43.0706192795
 20
-39.8283681473
 30
0.0
 10
43.2591587281
 20
-39.494749709
 30
0.0
 10
43.3581706074
 20
-39.3302908833
 30
0.0
  0
SPLINE
  5
7EB
100
AcDbEntity
  8
0
100
AcDbSpline
 62
7
  6
CONTINUOUS
 70
0
 71
3
 72
15
 73
11
 74
0
 42
0.0000001
 43
0.0000001
 44
0.0000000001
 40
0.0
 40
0.0
 40
0.0
 40
0.0
 40
0.1106531212
 40
0.221079791
 40
0.3353202999
 40
0.4561150963
 40
0.5842459483
 40
0.7188807946
 40
0.8582217681
 40
1.0
 40
1.0
 40
1.0
 40
1.0
 10
43.3581706074
 20
-39.3302908833
 30
0.0
 10
43.4641200292
 20
-39.1543087929
 30
0.0
 10
43.7092482926
 20
-38.8211050993
 30
0.0
 10
44.1784715083
 20
-38.4053163721
 30
0.0
 10
44.7369555706
 20
-38.0826232646
 30
0.0
 10
45.3702481318
 20
-37.8448690307
 30
0.0
 10
46.0638752744
 20
-37.6783745676
 30
0.0
 10
46.8031672902
 20
-37.5700149377
 30
0.0
 10
47.5730084501
 20
-37.5094048761
 30
0.0
 10
48.0949764405
 20
-37.4964744783
 30
0.0
 10
48.3581706074
 20
-37.4964744783
 30
0.0
  0
ENDSEC
  0
SECTION
  2
OBJECTS
  0
DICTIONARY
  5
C
100
AcDbDictionary
280
0
281
1
  3
ACAD_GROUP
350
D
  3
ACAD_MLINESTYLE
350
17
  3
ACAD_LAYOUT
350
1A
  3
ACAD_PLOTSETTINGS
350
19
  3
ACAD_PLOTSTYLENAME
350
E
  0
DICTIONARY
  5
D
102
{ACAD_REACTORS
330
C
102
}
100
AcDbDictionary
280
0
281
1
  0
ACDBDICTIONARYWDFLT
  5
E
102
{ACAD_REACTORS
330
C
102
}
100
AcDbDictionary
281
1
  3
Normal
350
F
100
AcDbDictionaryWithDefault
340
F
  0
DICTIONARY
  5
17
102
{ACAD_REACTORS
330
C
102
}
100
AcDbDictionary
280
0
281
1
  3
Standard
350
18
  0
DICTIONARY
  5
19
102
{ACAD_REACTORS
330
C
102
}
100
AcDbDictionary
281
1
  0
DICTIONARY
  5
1A
102
{ACAD_REACTORS
330
C
102
}
100
AcDbDictionary
281
1
  3
Model
350
7EC
  3
Layout1
350
7ED
  0
ACDBPLACEHOLDER
  5
F
102
{ACAD_REACTORS
330
E
102
}
  0
MLINESTYLE
  5
18
102
{ACAD_REACTORS
330
17
102
}
100
AcDbMlineStyle
  2
STANDARD
 70
0
  3

 62
256
 51
90.0
 52
90.0
 71
2
 49
0.5
 62
256
  6
BYLAYER
 49
-0.5
 62
256
  6
BYLAYER
  0
LAYOUT
  5
7EC
102
{ACAD_REACTORS
330
1A
102
}
100
AcDbPlotSettings
  1

  2
none_device
  4
ISO_A3_(420.00_x_297.00_MM)
  6

 40
0.0
 41
0.0
 42
0.0
 43
0.0
 44
420.0
 45
297.0
 46
0.0
 47
0.0
 48
0.0
 49
0.0
140
0.0
141
0.0
142
1.0
143
1.0
 70
1024
 72
1
 73
0
 74
0
  7

 75
0
147
1.0
148
0.0
149
0.0
100
AcDbLayout
  1
Model
 70
0
 71
0
 10
0.0
 20
0.0
 11
420.0
 21
297.0
 12
0.0
 22
0.0
 32
0.0
 14
0.0
 24
0.0
 34
0.0
 15
0.0
 25
0.0
 35
0.0
146
0.0
 13
0.0
 23
0.0
 33
0.0
 16
1.0
 26
0.0
 36
0.0
 17
0.0
 27
1.0
 37
0.0
 76
0
330
210
345
0
346
0
  0
LAYOUT
  5
7ED
102
{ACAD_REACTORS
330
1A
102
}
100
AcDbPlotSettings
  1

  2
none_device
  4
ISO_A3_(420.00_x_297.00_MM)
  6

 40
0.0
 41
0.0
 42
0.0
 43
0.0
 44
420.0
 45
297.0
 46
0.0
 47
0.0
 48
0.0
 49
0.0
140
0.0
141
0.0
142
1.0
143
1.0
 70
0
 72
1
 73
0
 74
0
  7

 75
0
147
1.0
148
0.0
149
0.0
100
AcDbLayout
  1
Layout1
 70
0
 71
1
 10
0.0
 20
0.0
 11
420.0
 21
297.0
 12
0.0
 22
0.0
 32
0.0
 14
0.0
 24
0.0
 34
0.0
 15
0.0
 25
0.0
 35
0.0
146
0.0
 13
0.0
 23
0.0
 33
0.0
 16
1.0
 26
0.0
 36
0.0
 17
0.0
 27
1.0
 37
0.0
 76
0
330
211
345
0
346
0
  0
ENDSEC
  0
EOF
