999
DXF file: ICE-CURT-16-GAKO-KPL_7902625_M34579-P-1.dxf
999
Pro/ENGINEER 2010140 by Parametric Technology Corporation
  0
SECTION
  2
HEADER
  9
$ACADVER
  1
AC1015
  9
$DWGCODEPAGE
  3
ANSI_1252
  9
$EXTMAX
 10
594.0
 20
420.0
 30
0.0
  9
$EXTMIN
 10
0.0
 20
0.0
 30
0.0
  9
$LIMMIN
 10
0.0
 20
0.0
  9
$LIMMAX
 10
594.0
 20
420.0
  9
$VIEWCTR
 10
297.0
 20
210.0
  9
$VIEWSIZE
 40
420.0
  9
$CLAYER
  8
0
  9
$LTSCALE
 40
32.67
  9
$CELTYPE
  6
BYLAYER
  9
$DIMSCALE
 40
1.0
  9
$DIMASZ
 40
3.5
  9
$DIMEXO
 40
3.7125
  9
$DIMDLI
 40
22.572
  9
$DIMEXE
 40
10.692
  9
$DIMCEN
 40
5.346
  9
$DIMLFAC
 40
1.0
  9
$DIMBLK
  1
_FILLED
  9
$DIMTXT
 40
3.5
  9
$DIMTOL
 70
1
  9
$DIMLIM
 70
0
  9
$DIMTFAC
 40
1.0
  9
$DIMTP
 40
0.005
  9
$DIMTM
 40
0.005
  9
$PDMODE
 70
3
  9
$PDSIZE
 40
0.3125
  9
$HANDSEED
  5
AA1
  9
$TILEMODE
 70
1
  9
$MEASUREMENT
 70
1
  9
$INSUNITS
 70
4
  0
ENDSEC
  0
SECTION
  2
CLASSES
  0
CLASS
  1
ACDBDICTIONARYWDFLT
  2
AcDbDictionaryWithDefault
  3
AutoCAD 2000
 90
0
280
0
281
0
  0
CLASS
  1
ACDBPLACEHOLDER
  2
AcDbPlaceHolder
  3
AutoCAD 2000
 90
0
280
0
281
0
  0
CLASS
  1
LAYOUT
  2
AcDbLayout
  3
AutoCAD 2000
 90
0
280
0
281
0
  0
ENDSEC
  0
SECTION
  2
TABLES
  0
TABLE
  2
VPORT
  5
8
100
AcDbSymbolTable
 70
2
  0
VPORT
  5
1F4
100
AcDbSymbolTableRecord
100
AcDbViewportTableRecord
  2
*ACTIVE
 70
0
 10
0.0
 20
0.0
 11
1.0
 21
1.0
 12
297.0
 22
210.0
 13
0.0
 23
0.0
 14
1.0
 24
1.0
 15
0.0
 25
0.0
 16
0.0
 26
0.0
 36
1.0
 17
0.0
 27
0.0
 37
0.0
 40
420.0
 41
1.4142857143
 42
50.0
 43
0.0
 44
0.0
 50
0.0
 51
0.0
 71
0
 72
100
 73
1
 74
1
 75
0
 76
0
 77
0
 78
0
  0
ENDTAB
  0
TABLE
  2
LTYPE
  5
5
100
AcDbSymbolTable
 70
6
  0
LTYPE
  5
14
100
AcDbSymbolTableRecord
100
AcDbLinetypeTableRecord
  2
BYBLOCK
 70
0
  3

 72
65
 73
0
 40
0.0
  0
LTYPE
  5
15
100
AcDbSymbolTableRecord
100
AcDbLinetypeTableRecord
  2
BYLAYER
 70
0
  3

 72
65
 73
0
 40
0.0
  0
LTYPE
  5
16
100
AcDbSymbolTableRecord
100
AcDbLinetypeTableRecord
  2
CONTINUOUS
 70
64
  3
Solid line
 72
65
 73
0
 40
0.0
  0
LTYPE
  5
1F5
100
AcDbSymbolTableRecord
100
AcDbLinetypeTableRecord
  2
CENTER
 70
64
  3
____ _ ____ _ ____ _ ____ _ ____ _ ____ _ ____
 72
65
 73
4
 40
0.6
 49
0.375
 74
0
 49
-0.075
 74
0
 49
0.075
 74
0
 49
-0.075
 74
0
  0
LTYPE
  5
1F6
100
AcDbSymbolTableRecord
100
AcDbLinetypeTableRecord
  2
HIDDEN
 70
64
  3
- - - - - - - - - - - - - - - - - - - -
 72
65
 73
2
 40
0.2
 49
0.1
 74
0
 49
-0.1
 74
0
  0
LTYPE
  5
1F7
100
AcDbSymbolTableRecord
100
AcDbLinetypeTableRecord
  2
PHANTOM
 70
64
  3
_____ _ _ _____ _ _ _____ _ _ _____
 72
65
 73
6
 40
0.8
 49
0.45
 74
0
 49
-0.05
 74
0
 49
0.1
 74
0
 49
-0.05
 74
0
 49
0.1
 74
0
 49
-0.05
 74
0
  0
LTYPE
  5
1F8
100
AcDbSymbolTableRecord
100
AcDbLinetypeTableRecord
  2
DOT
 70
64
  3
. . . . . . . . . . . . . . . . . . . .
 72
65
 73
2
 40
0.2
 49
0.1
 74
0
 49
-0.1
 74
0
  0
LTYPE
  5
1F9
100
AcDbSymbolTableRecord
100
AcDbLinetypeTableRecord
  2
DASHED
 70
64
  3
- - - - - - - - - - - - - - - - - - - -
 72
65
 73
2
 40
0.2
 49
0.1
 74
0
 49
-0.1
 74
0
  0
ENDTAB
  0
TABLE
  2
LAYER
  5
2
100
AcDbSymbolTable
 70
36
  0
LAYER
  5
10
100
AcDbSymbolTableRecord
100
AcDbLayerTableRecord
  2
0
 70
0
 62
7
  6
CONTINUOUS
370
-3
390
F
  0
LAYER
  5
1FA
100
AcDbSymbolTableRecord
100
AcDbLayerTableRecord
  2
DEFAULT_1
 70
0
 62
7
  6
CENTER
370
-3
390
F
  0
LAYER
  5
1FB
100
AcDbSymbolTableRecord
100
AcDbLayerTableRecord
  2
DEFAULT_2
 70
0
 62
8
  6
HIDDEN
370
-3
390
F
  0
LAYER
  5
1FC
100
AcDbSymbolTableRecord
100
AcDbLayerTableRecord
  2
DEFAULT_3
 70
0
 62
7
  6
PHANTOM
370
-3
390
F
  0
LAYER
  5
1FD
100
AcDbSymbolTableRecord
100
AcDbLayerTableRecord
  2
AUSFORMSCHRAEGEN
 70
0
 62
7
  6
CONTINUOUS
370
-3
390
F
  0
LAYER
  5
1FE
100
AcDbSymbolTableRecord
100
AcDbLayerTableRecord
  2
BEZUGSACHSEN
 70
0
 62
7
  6
CONTINUOUS
370
-3
390
F
  0
LAYER
  5
1FF
100
AcDbSymbolTableRecord
100
AcDbLayerTableRecord
  2
BEZUGSEBENEN
 70
0
 62
7
  6
CONTINUOUS
370
-3
390
F
  0
LAYER
  5
200
100
AcDbSymbolTableRecord
100
AcDbLayerTableRecord
  2
BG_STARTBEZUEGE
 70
0
 62
7
  6
CONTINUOUS
370
-3
390
F
  0
LAYER
  5
201
100
AcDbSymbolTableRecord
100
AcDbLayerTableRecord
  2
BOHRUNGEN
 70
0
 62
7
  6
CONTINUOUS
370
-3
390
F
  0
LAYER
  5
202
100
AcDbSymbolTableRecord
100
AcDbLayerTableRecord
  2
FASEN
 70
0
 62
7
  6
CONTINUOUS
370
-3
390
F
  0
LAYER
  5
203
100
AcDbSymbolTableRecord
100
AcDbLayerTableRecord
  2
FLAECHEN
 70
0
 62
7
  6
CONTINUOUS
370
-3
390
F
  0
LAYER
  5
204
100
AcDbSymbolTableRecord
100
AcDbLayerTableRecord
  2
FLAECHENVERBUND
 70
0
 62
7
  6
CONTINUOUS
370
-3
390
F
  0
LAYER
  5
205
100
AcDbSymbolTableRecord
100
AcDbLayerTableRecord
  2
HILFEN
 70
0
 62
7
  6
CONTINUOUS
370
-3
390
F
  0
LAYER
  5
206
100
AcDbSymbolTableRecord
100
AcDbLayerTableRecord
  2
KONSTRUKTIONSELEMENTE
 70
0
 62
7
  6
CONTINUOUS
370
-3
390
F
  0
LAYER
  5
207
100
AcDbSymbolTableRecord
100
AcDbLayerTableRecord
  2
KURVEN
 70
0
 62
7
  6
CONTINUOUS
370
-3
390
F
  0
LAYER
  5
208
100
AcDbSymbolTableRecord
100
AcDbLayerTableRecord
  2
NORM
 70
0
 62
7
  6
CONTINUOUS
370
-3
390
F
  0
LAYER
  5
209
100
AcDbSymbolTableRecord
100
AcDbLayerTableRecord
  2
PLATZIERUNG
 70
0
 62
7
  6
CONTINUOUS
370
-3
390
F
  0
LAYER
  5
20A
100
AcDbSymbolTableRecord
100
AcDbLayerTableRecord
  2
RUNDUNGEN
 70
0
 62
7
  6
CONTINUOUS
370
-3
390
F
  0
LAYER
  5
20B
100
AcDbSymbolTableRecord
100
AcDbLayerTableRecord
  2
TEIL_STARTBEZUEGE
 70
0
 62
7
  6
CONTINUOUS
370
-3
390
F
  0
LAYER
  5
20C
100
AcDbSymbolTableRecord
100
AcDbLayerTableRecord
  2
T_STARTBEZUEGE
 70
0
 62
7
  6
CONTINUOUS
370
-3
390
F
  0
LAYER
  5
20D
100
AcDbSymbolTableRecord
100
AcDbLayerTableRecord
  2
XSEC_DATUMS
 70
0
 62
7
  6
CONTINUOUS
370
-3
390
F
  0
LAYER
  5
20E
100
AcDbSymbolTableRecord
100
AcDbLayerTableRecord
  2
ZEICHNUNGSBEMASSUNGEN
 70
0
 62
7
  6
CONTINUOUS
370
-3
390
F
  0
ENDTAB
  0
TABLE
  2
STYLE
  5
3
100
AcDbSymbolTable
 70
1
  0
STYLE
  5
11
100
AcDbSymbolTableRecord
100
AcDbTextStyleTableRecord
  2
STANDARD
 70
0
 40
0.0
 41
0.7
 50
0.0
 71
0
 42
0.2
  3
txt
  4

  0
STYLE
  5
20F
100
AcDbSymbolTableRecord
100
AcDbTextStyleTableRecord
  2
TEXTSTYLE_1
 70
0
 40
0.0
 41
0.8
 50
0.0
 71
0
 42
0.2
  3
gdt
  4

  0
ENDTAB
  0
TABLE
  2
VIEW
  5
6
100
AcDbSymbolTable
 70
0
  0
ENDTAB
  0
TABLE
  2
UCS
  5
7
100
AcDbSymbolTable
 70
0
  0
ENDTAB
  0
TABLE
  2
APPID
  5
9
100
AcDbSymbolTable
 70
1
  0
APPID
  5
210
100
AcDbSymbolTableRecord
100
AcDbRegAppTableRecord
  2
ACAD
 70
0
  0
ENDTAB
  0
TABLE
  2
BLOCK_RECORD
  5
1
100
AcDbSymbolTable
 70
0
  0
BLOCK_RECORD
  5
211
100
AcDbSymbolTableRecord
100
AcDbBlockTableRecord
  2
*Model_Space
  0
BLOCK_RECORD
  5
212
100
AcDbSymbolTableRecord
100
AcDbBlockTableRecord
  2
*Paper_Space
  0
ENDTAB
  0
TABLE
  2
DIMSTYLE
  5
A
100
AcDbSymbolTable
 70
1
100
AcDbDimStyleTable
 71
0
  0
DIMSTYLE
105
213
100
AcDbSymbolTableRecord
100
AcDbDimStyleTableRecord
  2
STANDARD
 70
0
  3

  4

 40
1.0
 41
3.5
 42
0.0625
 43
0.38
 44
0.18
 45
0.0
 46
0.0
 47
0.005
 48
0.005
140
3.5
141
0.09
142
0.0
143
25.4
144
1.0
145
0.0
146
1.0
147
0.09
 71
1.0
 72
0.0
 73
0
 74
0
 75
0
 76
0
 77
1
 78
8
170
0
171
2
172
0
173
0
174
0
175
0
176
0
177
0
178
5
270
2
271
3
272
3
273
2
274
2
275
0
280
0
281
0
282
0
283
1
284
8
285
0
286
0
287
3
288
0
340
11
  0
ENDTAB
  0
ENDSEC
  0
SECTION
  2
BLOCKS
  0
BLOCK
  5
20
100
AcDbEntity
  8
0
100
AcDbBlockBegin
  2
*Model_Space
 70
0
 10
0.0
 20
0.0
 30
0.0
  3
*Model_Space
  1

  0
ENDBLK
  5
21
100
AcDbEntity
  8
0
100
AcDbBlockEnd
  0
BLOCK
  5
1C
100
AcDbEntity
  8
0
100
AcDbBlockBegin
  2
*Paper_Space
 70
0
 10
0.0
 20
0.0
 30
0.0
  3
*Paper_Space
  1

  0
ENDBLK
  5
1D
100
AcDbEntity
  8
0
100
AcDbBlockEnd
  0
ENDSEC
  0
SECTION
  2
ENTITIES
  0
MTEXT
  5
214
100
AcDbEntity
  8
0
100
AcDbMText
 62
5
  6
CONTINUOUS
  7
STANDARD
 71
1
 72
1
 10
147.4783485736
 20
76.2729163882
 30
0.0
 11
0.0
 21
1.0
 31
0.0
 44
0.9
  1
ICE-CURT 16 RUD
 40
8.0
 41
94.0952380952
  0
MTEXT
  5
215
100
AcDbEntity
  8
0
100
AcDbMText
 62
5
  6
CONTINUOUS
  7
STANDARD
 71
1
 72
1
 10
771.4350430507
 20
82.6667700434
 30
0.0
 11
0.0
 21
1.0
 31
0.0
 44
0.9
  1
ICE-CURT 16 RUD
 40
8.0
 41
94.0952380952
  0
MTEXT
  5
216
100
AcDbEntity
  8
0
100
AcDbMText
 62
5
  6
CONTINUOUS
  7
STANDARD
 71
1
 72
1
 10
216.473774476
 20
-109.4964156303
 30
0.0
 11
1.0
 21
0.0
 31
0.0
 44
0.9
  1
ICE-CURT 16 RUD
 40
8.0
 41
94.0952380952
  0
MTEXT
  5
217
100
AcDbEntity
  8
0
100
AcDbMText
 62
5
  6
CONTINUOUS
  7
STANDARD
 71
1
 72
1
 10
216.9460399537
 20
586.0532382004
 30
0.0
 11
1.0
 21
0.0
 31
0.0
 44
0.9
  1
ICE-CURT 16 RUD
 40
8.0
 41
94.0952380952
  0
MTEXT
  5
218
100
AcDbEntity
  8
0
100
AcDbMText
 62
5
  6
CONTINUOUS
  7
STANDARD
 71
1
 72
1
 10
1418.8956749487
 20
68.7241729388
 30
0.0
 11
0.0
 21
1.0
 31
0.0
 44
0.9
  1
ICE-CURT 16 RUD
 40
8.0
 41
94.0952380952
  0
LINE
  5
219
100
AcDbEntity
  8
0
100
AcDbLine
 62
7
  6
CONTINUOUS
 10
0.0
 20
0.0
 11
0.0
 21
420.0
  0
LINE
  5
21A
100
AcDbEntity
  8
0
100
AcDbLine
 62
7
  6
CONTINUOUS
 10
0.0
 20
0.0
 11
594.0
 21
0.0
  0
LINE
  5
21B
100
AcDbEntity
  8
0
100
AcDbLine
 62
7
  6
CONTINUOUS
 10
0.0
 20
420.0
 11
594.0
 21
420.0
  0
LINE
  5
21C
100
AcDbEntity
  8
0
100
AcDbLine
 62
7
  6
CONTINUOUS
 10
594.0
 20
0.0
 11
594.0
 21
420.0
  0
LINE
  5
21D
100
AcDbEntity
  8
BEZUGSACHSEN
100
AcDbLine
 62
7
  6
CONTINUOUS
 10
-257.1594766259
 20
329.59274842
 11
-257.1594766259
 21
348.49274842
  0
LINE
  5
21E
100
AcDbEntity
  8
0
100
AcDbLine
 62
7
  6
CONTINUOUS
 10
-234.003225987
 20
363.3725357936
 11
-234.1073926568
 21
362.8406206653
  0
LINE
  5
21F
100
AcDbEntity
  8
0
100
AcDbLine
 62
7
  6
CONTINUOUS
 10
-230.1490592241
 20
360.2874292568
 11
-230.0448926568
 21
360.8193441615
  0
LINE
  5
220
100
AcDbEntity
  8
0
100
AcDbLine
 62
7
  6
CONTINUOUS
 10
-225.5657257914
 20
360.7129611955
 11
-225.4615595221
 21
361.2448760257
  0
LINE
  5
221
100
AcDbEntity
  8
0
100
AcDbLine
 62
7
  6
CONTINUOUS
 10
-233.4823926568
 20
362.8406206653
 11
-233.378226015
 21
363.2661525295
  0
LINE
  5
222
100
AcDbEntity
  8
0
100
AcDbLine
 62
7
  6
CONTINUOUS
 10
-226.0865595221
 20
361.2448760257
 11
-226.1907257914
 21
360.8193441615
  0
LINE
  5
223
100
AcDbEntity
  8
0
100
AcDbLine
 62
7
  6
CONTINUOUS
 10
-230.6698926568
 20
360.8193441615
 11
-230.7740592241
 21
360.5001952634
  0
LINE
  5
224
100
AcDbEntity
  8
0
100
AcDbLine
 62
7
  6
CONTINUOUS
 10
-221.3990589261
 20
363.0533865974
 11
-221.5032263875
 21
362.7342376993
  0
LINE
  5
225
100
AcDbEntity
  8
0
100
AcDbLine
 62
7
  6
CONTINUOUS
 10
-220.8782263875
 20
362.6278547333
 11
-220.7740589261
 21
362.9470036314
  0
LINE
  5
226
100
AcDbEntity
  8
0
100
AcDbLine
 62
7
  6
CONTINUOUS
 10
-212.3365601182
 20
363.0533865974
 11
-212.2323926568
 21
363.3725357936
  0
LINE
  5
227
100
AcDbEntity
  8
0
100
AcDbLine
 62
7
  6
CONTINUOUS
 10
-212.6490601182
 20
363.6916846917
 11
-212.8573926568
 21
363.1597695635
  0
LINE
  5
228
100
AcDbEntity
  8
0
100
AcDbLine
 62
7
  6
CONTINUOUS
 10
-233.7948926568
 20
363.7980676577
 11
-234.003225987
 21
363.3725357936
  0
LINE
  5
229
100
AcDbEntity
  8
0
100
AcDbLine
 62
7
  6
CONTINUOUS
 10
-225.7740595221
 20
360.2874292568
 11
-225.5657257914
 21
360.7129611955
  0
LINE
  5
22A
100
AcDbEntity
  8
0
100
AcDbLine
 62
7
  6
CONTINUOUS
 10
-233.378226015
 20
363.2661525295
 11
-233.1698926568
 21
363.5853017257
  0
LINE
  5
22B
100
AcDbEntity
  8
0
100
AcDbLine
 62
7
  6
CONTINUOUS
 10
-226.1907257914
 20
360.8193441615
 11
-226.3990595221
 21
360.5001952634
  0
LINE
  5
22C
100
AcDbEntity
  8
BEZUGSACHSEN
100
AcDbLine
 62
7
  6
CONTINUOUS
 10
-270.50655241
 20
372.0031137485
 11
-264.9847345973
 21
377.7211234808
  0
LINE
  5
22D
100
AcDbEntity
  8
BEZUGSACHSEN
100
AcDbLine
 62
7
  6
CONTINUOUS
 10
-237.1594766259
 20
329.59274842
 11
-237.1594766259
 21
348.49274842
  0
LINE
  5
22E
100
AcDbEntity
  8
0
100
AcDbLine
 62
7
  6
CONTINUOUS
 10
-234.1073926568
 20
362.8406206653
 11
-234.1073926568
 21
361.2448760257
  0
LINE
  5
22F
100
AcDbEntity
  8
0
100
AcDbLine
 62
7
  6
CONTINUOUS
 10
-233.4823926568
 20
361.2448760257
 11
-233.4823926568
 21
362.8406206653
  0
LINE
  5
230
100
AcDbEntity
  8
0
100
AcDbLine
 62
7
  6
CONTINUOUS
 10
-229.2115592241
 20
364.54274842
 11
-229.2115592241
 21
361.2448760257
  0
LINE
  5
231
100
AcDbEntity
  8
0
100
AcDbLine
 62
7
  6
CONTINUOUS
 10
-228.5865595221
 20
361.2448760257
 11
-228.5865595221
 21
364.54274842
  0
LINE
  5
232
100
AcDbEntity
  8
0
100
AcDbLine
 62
7
  6
CONTINUOUS
 10
-226.0865595221
 20
364.54274842
 11
-226.0865595221
 21
361.2448760257
  0
LINE
  5
233
100
AcDbEntity
  8
0
100
AcDbLine
 62
7
  6
CONTINUOUS
 10
-225.4615595221
 20
361.2448760257
 11
-225.4615595221
 21
364.54274842
  0
LINE
  5
234
100
AcDbEntity
  8
0
100
AcDbLine
 62
7
  6
CONTINUOUS
 10
-224.6282257914
 20
364.54274842
 11
-224.6282257914
 21
359.54274842
  0
LINE
  5
235
100
AcDbEntity
  8
0
100
AcDbLine
 62
7
  6
CONTINUOUS
 10
-224.0032263875
 20
359.54274842
 11
-224.0032263875
 21
361.7767910049
  0
LINE
  5
236
100
AcDbEntity
  8
0
100
AcDbLine
 62
7
  6
CONTINUOUS
 10
-224.0032263875
 20
362.4150888012
 11
-224.0032263875
 21
364.0108335898
  0
LINE
  5
237
100
AcDbEntity
  8
0
100
AcDbLine
 62
7
  6
CONTINUOUS
 10
-221.3990589261
 20
363.3725357936
 11
-221.3990589261
 21
363.0533865974
  0
LINE
  5
238
100
AcDbEntity
  8
0
100
AcDbLine
 62
7
  6
CONTINUOUS
 10
-220.7740589261
 20
362.9470036314
 11
-220.7740589261
 21
363.3725357936
  0
LINE
  5
239
100
AcDbEntity
  8
0
100
AcDbLine
 62
7
  6
CONTINUOUS
 10
-219.8365589261
 20
364.54274842
 11
-219.8365589261
 21
364.0108335898
  0
LINE
  5
23A
100
AcDbEntity
  8
0
100
AcDbLine
 62
7
  6
CONTINUOUS
 10
-218.1698926568
 20
364.0108335898
 11
-218.1698926568
 21
359.54274842
  0
LINE
  5
23B
100
AcDbEntity
  8
0
100
AcDbLine
 62
7
  6
CONTINUOUS
 10
-217.5448926568
 20
359.54274842
 11
-217.5448926568
 21
364.0108335898
  0
LINE
  5
23C
100
AcDbEntity
  8
0
100
AcDbLine
 62
7
  6
CONTINUOUS
 10
-215.8782263875
 20
364.0108335898
 11
-215.8782263875
 21
364.54274842
  0
LINE
  5
23D
100
AcDbEntity
  8
0
100
AcDbLine
 62
7
  6
CONTINUOUS
 10
-215.0448926568
 20
363.7980676577
 11
-215.0448926568
 21
362.9470036314
  0
LINE
  5
23E
100
AcDbEntity
  8
0
100
AcDbLine
 62
7
  6
CONTINUOUS
 10
-214.4198926568
 20
363.6916846917
 11
-214.4198926568
 21
359.54274842
  0
LINE
  5
23F
100
AcDbEntity
  8
0
100
AcDbLine
 62
7
  6
CONTINUOUS
 10
-213.7948926568
 20
359.54274842
 11
-213.7948926568
 21
364.54274842
  0
LINE
  5
240
100
AcDbEntity
  8
0
100
AcDbLine
 62
7
  6
CONTINUOUS
 10
-212.8573926568
 20
363.1597695635
 11
-212.9615601182
 21
362.4150888012
  0
LINE
  5
241
100
AcDbEntity
  8
0
100
AcDbLine
 62
7
  6
CONTINUOUS
 10
-212.4407251954
 20
362.4150888012
 11
-212.3365601182
 21
363.0533865974
  0
LINE
  5
242
100
AcDbEntity
  8
0
100
AcDbLine
 62
7
  6
CONTINUOUS
 10
-212.3365601182
 20
361.3512589917
 11
-212.2323926568
 21
361.6704080389
  0
LINE
  5
243
100
AcDbEntity
  8
0
100
AcDbLine
 62
7
  6
CONTINUOUS
 10
-209.7323926568
 20
361.0321100936
 11
-209.8365601182
 21
360.7129611955
  0
LINE
  5
244
100
AcDbEntity
  8
0
100
AcDbLine
 62
7
  6
CONTINUOUS
 10
-209.4198926568
 20
360.3938122229
 11
-209.2115601182
 21
360.9257271276
  0
LINE
  5
245
100
AcDbEntity
  8
0
100
AcDbLine
 62
7
  6
CONTINUOUS
 10
-212.2323926568
 20
363.3725357936
 11
-212.0240601182
 21
363.6916846917
  0
LINE
  5
246
100
AcDbEntity
  8
0
100
AcDbLine
 62
7
  6
CONTINUOUS
 10
-209.8365601182
 20
360.7129611955
 11
-210.0448926568
 21
360.3938122229
  0
LINE
  5
247
100
AcDbEntity
  8
0
100
AcDbLine
 62
7
  6
CONTINUOUS
 10
-221.1907263875
 20
362.2023228691
 11
-220.8782263875
 21
362.6278547333
  0
LINE
  5
248
100
AcDbEntity
  8
0
100
AcDbLine
 62
7
  6
CONTINUOUS
 10
-212.3365601182
 20
364.1172165559
 11
-212.6490601182
 21
363.6916846917
  0
LINE
  5
249
100
AcDbEntity
  8
0
100
AcDbLine
 62
7
  6
CONTINUOUS
 10
-209.7323926568
 20
359.9682803214
 11
-209.4198926568
 21
360.3938122229
  0
LINE
  5
24A
100
AcDbEntity
  8
0
100
AcDbLine
 62
7
  6
CONTINUOUS
 10
-214.4198926568
 20
364.54274842
 11
-215.0448926568
 21
363.7980676577
  0
LINE
  5
24B
100
AcDbEntity
  8
0
100
AcDbLine
 62
7
  6
CONTINUOUS
 10
-215.0448926568
 20
362.9470036314
 11
-214.4198926568
 21
363.6916846917
  0
LINE
  5
24C
100
AcDbEntity
  8
0
100
AcDbLine
 62
7
  6
CONTINUOUS
 10
-233.378226015
 20
364.2235995219
 11
-233.7948926568
 21
363.7980676577
  0
LINE
  5
24D
100
AcDbEntity
  8
0
100
AcDbLine
 62
7
  6
CONTINUOUS
 10
-230.5657260895
 20
359.8618973554
 11
-230.1490592241
 21
360.2874292568
  0
LINE
  5
24E
100
AcDbEntity
  8
0
100
AcDbLine
 62
7
  6
CONTINUOUS
 10
-226.1907257914
 20
359.8618973554
 11
-225.7740595221
 21
360.2874292568
  0
LINE
  5
24F
100
AcDbEntity
  8
0
100
AcDbLine
 62
7
  6
CONTINUOUS
 10
-221.5032263875
 20
362.7342376993
 11
-221.7115589261
 21
362.5214717672
  0
LINE
  5
250
100
AcDbEntity
  8
0
100
AcDbLine
 62
7
  6
CONTINUOUS
 10
-212.2323926568
 20
361.6704080389
 11
-212.0240601182
 21
361.883173971
  0
LINE
  5
251
100
AcDbEntity
  8
0
100
AcDbLine
 62
7
  6
CONTINUOUS
 10
-212.9615601182
 20
362.4150888012
 11
-212.9615601182
 21
361.6704080389
  0
LINE
  5
252
100
AcDbEntity
  8
0
100
AcDbLine
 62
7
  6
CONTINUOUS
 10
-212.4407251954
 20
362.2023228691
 11
-212.4407251954
 21
362.4150888012
  0
LINE
  5
253
100
AcDbEntity
  8
0
100
AcDbLine
 62
7
  6
CONTINUOUS
 10
-212.3365601182
 20
361.0321100936
 11
-212.3365601182
 21
361.3512589917
  0
LINE
  5
254
100
AcDbEntity
  8
0
100
AcDbLine
 62
7
  6
CONTINUOUS
 10
-209.7323926568
 20
361.3512589917
 11
-209.7323926568
 21
361.0321100936
  0
LINE
  5
255
100
AcDbEntity
  8
0
100
AcDbLine
 62
7
  6
CONTINUOUS
 10
-209.2115601182
 20
360.9257271276
 11
-209.2115601182
 21
361.4576421068
  0
LINE
  5
256
100
AcDbEntity
  8
BEZUGSACHSEN
100
AcDbLine
 62
7
  6
CONTINUOUS
 10
-198.1594766259
 20
376.04274842
 11
-198.1594766259
 21
302.04274842
  0
LINE
  5
257
100
AcDbEntity
  8
0
100
AcDbLine
 62
7
  6
CONTINUOUS
 10
-233.1698926568
 20
363.5853017257
 11
-232.8573926568
 21
363.7980676577
  0
LINE
  5
258
100
AcDbEntity
  8
0
100
AcDbLine
 62
7
  6
CONTINUOUS
 10
-230.7740592241
 20
360.5001952634
 11
-231.0865592241
 21
360.2874292568
  0
LINE
  5
259
100
AcDbEntity
  8
0
100
AcDbLine
 62
7
  6
CONTINUOUS
 10
-226.3990595221
 20
360.5001952634
 11
-226.7115595221
 21
360.2874292568
  0
LINE
  5
25A
100
AcDbEntity
  8
0
100
AcDbLine
 62
7
  6
CONTINUOUS
 10
-212.0240601182
 20
363.6916846917
 11
-211.7115601182
 21
363.9044506238
  0
LINE
  5
25B
100
AcDbEntity
  8
0
100
AcDbLine
 62
7
  6
CONTINUOUS
 10
-211.8157251954
 20
362.6278547333
 11
-212.4407251954
 21
362.2023228691
  0
LINE
  5
25C
100
AcDbEntity
  8
0
100
AcDbLine
 62
7
  6
CONTINUOUS
 10
-212.0240601182
 20
361.883173971
 11
-211.7115601182
 21
362.095939903
  0
LINE
  5
25D
100
AcDbEntity
  8
0
100
AcDbLine
 62
7
  6
CONTINUOUS
 10
-210.0448926568
 20
360.3938122229
 11
-210.3573926568
 21
360.1810462908
  0
LINE
  5
25E
100
AcDbEntity
  8
0
100
AcDbLine
 62
7
  6
CONTINUOUS
 10
-233.378226015
 20
360.8193441615
 11
-233.4823926568
 21
361.2448760257
  0
LINE
  5
25F
100
AcDbEntity
  8
0
100
AcDbLine
 62
7
  6
CONTINUOUS
 10
-234.1073926568
 20
361.2448760257
 11
-234.003225987
 21
360.7129611955
  0
LINE
  5
260
100
AcDbEntity
  8
0
100
AcDbLine
 62
7
  6
CONTINUOUS
 10
-230.0448926568
 20
363.2661525295
 11
-230.1490592241
 21
363.7980676577
  0
LINE
  5
261
100
AcDbEntity
  8
0
100
AcDbLine
 62
7
  6
CONTINUOUS
 10
-229.2115592241
 20
361.2448760257
 11
-229.1073926568
 21
360.7129611955
  0
LINE
  5
262
100
AcDbEntity
  8
0
100
AcDbLine
 62
7
  6
CONTINUOUS
 10
-212.9615601182
 20
361.6704080389
 11
-212.8573926568
 21
360.9257271276
  0
LINE
  5
263
100
AcDbEntity
  8
0
100
AcDbLine
 62
7
  6
CONTINUOUS
 10
-211.8157251954
 20
364.436365454
 11
-212.3365601182
 21
364.1172165559
  0
LINE
  5
264
100
AcDbEntity
  8
0
100
AcDbLine
 62
7
  6
CONTINUOUS
 10
-210.2532251954
 20
359.6491313954
 11
-209.7323926568
 21
359.9682803214
  0
LINE
  5
265
100
AcDbEntity
  8
0
100
AcDbLine
 62
7
  6
CONTINUOUS
 10
-232.9615592986
 20
364.436365454
 11
-233.378226015
 21
364.2235995219
  0
LINE
  5
266
100
AcDbEntity
  8
0
100
AcDbLine
 62
7
  6
CONTINUOUS
 10
-230.9823926568
 20
359.6491313954
 11
-230.5657260895
 21
359.8618973554
  0
LINE
  5
267
100
AcDbEntity
  8
0
100
AcDbLine
 62
7
  6
CONTINUOUS
 10
-226.6073926568
 20
359.6491313954
 11
-226.1907257914
 21
359.8618973554
  0
LINE
  5
268
100
AcDbEntity
  8
0
100
AcDbLine
 62
7
  6
CONTINUOUS
 10
-221.6073926568
 20
361.989556937
 11
-221.1907263875
 21
362.2023228691
  0
LINE
  5
269
100
AcDbEntity
  8
0
100
AcDbLine
 62
7
  6
CONTINUOUS
 10
-230.7740592241
 20
363.5853017257
 11
-230.6698926568
 21
363.2661525295
  0
LINE
  5
26A
100
AcDbEntity
  8
0
100
AcDbLine
 62
7
  6
CONTINUOUS
 10
-221.5032263875
 20
363.6916846917
 11
-221.3990589261
 21
363.3725357936
  0
LINE
  5
26B
100
AcDbEntity
  8
0
100
AcDbLine
 62
7
  6
CONTINUOUS
 10
-220.7740589261
 20
363.3725357936
 11
-220.8782263875
 21
363.6916846917
  0
LINE
  5
26C
100
AcDbEntity
  8
0
100
AcDbLine
 62
7
  6
CONTINUOUS
 10
-228.4823926568
 20
360.8193441615
 11
-228.5865595221
 21
361.2448760257
  0
LINE
  5
26D
100
AcDbEntity
  8
RUNDUNGEN
100
AcDbLine
 62
7
  6
CONTINUOUS
 10
-142.6594766259
 20
306.5430132539
 11
-142.6594766259
 21
371.54274842
  0
LINE
  5
26E
100
AcDbEntity
  8
RUNDUNGEN
100
AcDbLine
 62
7
  6
CONTINUOUS
 10
-136.6594766259
 20
373.0424714069
 11
-136.6594766259
 21
305.0430254332
  0
LINE
  5
26F
100
AcDbEntity
  8
0
100
AcDbLine
 62
7
  6
CONTINUOUS
 10
-234.003225987
 20
360.7129611955
 11
-233.7948926568
 21
360.2874292568
  0
LINE
  5
270
100
AcDbEntity
  8
0
100
AcDbLine
 62
7
  6
CONTINUOUS
 10
-212.8573926568
 20
360.9257271276
 11
-212.6490601182
 21
360.3938122229
  0
LINE
  5
271
100
AcDbEntity
  8
0
100
AcDbLine
 62
7
  6
CONTINUOUS
 10
-209.2115601182
 20
361.4576421068
 11
-209.4198926568
 21
361.989556937
  0
LINE
  5
272
100
AcDbEntity
  8
0
100
AcDbLine
 62
7
  6
CONTINUOUS
 10
-220.6698926568
 20
359.54274842
 11
-221.6073926568
 21
361.989556937
  0
LINE
  5
273
100
AcDbEntity
  8
0
100
AcDbLine
 62
7
  6
CONTINUOUS
 10
-222.2323926568
 20
361.7767910049
 11
-221.3990589261
 21
359.54274842
  0
LINE
  5
274
100
AcDbEntity
  8
0
100
AcDbLine
 62
7
  6
CONTINUOUS
 10
-212.2323926568
 20
360.7129611955
 11
-212.3365601182
 21
361.0321100936
  0
LINE
  5
275
100
AcDbEntity
  8
0
100
AcDbLine
 62
7
  6
CONTINUOUS
 10
-209.8365601182
 20
361.6704080389
 11
-209.7323926568
 21
361.3512589917
  0
LINE
  5
276
100
AcDbEntity
  8
0
100
AcDbLine
 62
7
  6
CONTINUOUS
 10
-209.4198926568
 20
363.3725357936
 11
-209.5240601182
 21
363.6916846917
  0
LINE
  5
277
100
AcDbEntity
  8
RUNDUNGEN
100
AcDbLine
 62
7
  6
CONTINUOUS
 10
-99.6594766259
 20
308.04274842
 11
-99.6594766259
 21
370.04274842
  0
LINE
  5
278
100
AcDbEntity
  8
0
100
AcDbLine
 62
7
  6
CONTINUOUS
 10
-221.7115589261
 20
362.5214717672
 11
-222.0240589261
 21
362.4150888012
  0
LINE
  5
279
100
AcDbEntity
  8
0
100
AcDbLine
 62
7
  6
CONTINUOUS
 10
-211.7115601182
 20
363.9044506238
 11
-211.3990601182
 21
364.0108335898
  0
LINE
  5
27A
100
AcDbEntity
  8
0
100
AcDbLine
 62
7
  6
CONTINUOUS
 10
-211.7115601182
 20
362.095939903
 11
-211.3990601182
 21
362.2023228691
  0
LINE
  5
27B
100
AcDbEntity
  8
0
100
AcDbLine
 62
7
  6
CONTINUOUS
 10
-210.3573926568
 20
360.1810462908
 11
-210.6698926568
 21
360.0746633247
  0
LINE
  5
27C
100
AcDbEntity
  8
0
100
AcDbLine
 62
7
  6
CONTINUOUS
 10
-229.1073926568
 20
360.7129611955
 11
-228.8990595221
 21
360.2874292568
  0
LINE
  5
27D
100
AcDbEntity
  8
RUNDUNGEN
100
AcDbLine
 62
7
  6
CONTINUOUS
 10
-88.1594766259
 20
333.4311273437
 11
-88.1594766259
 21
344.6543704799
  0
LINE
  5
27E
100
AcDbEntity
  8
RUNDUNGEN
100
AcDbLine
 62
7
  6
CONTINUOUS
 10
-61.1594766259
 20
346.54274842
 11
-61.1594766259
 21
331.54274842
  0
LINE
  5
27F
100
AcDbEntity
  8
0
100
AcDbLine
 62
7
  6
CONTINUOUS
 10
-79.8680883885
 20
305.9469881986
 11
-76.7382728363
 21
308.1385086415
  0
LINE
  5
280
100
AcDbEntity
  8
0
100
AcDbLine
 62
7
  6
CONTINUOUS
 10
-264.9847345973
 20
300.3643733592
 11
-270.50655241
 21
306.0823830916
  0
LINE
  5
281
100
AcDbEntity
  8
0
100
AcDbLine
 62
7
  6
CONTINUOUS
 10
-233.1698926568
 20
360.5001952634
 11
-233.378226015
 21
360.8193441615
  0
LINE
  5
282
100
AcDbEntity
  8
0
100
AcDbLine
 62
7
  6
CONTINUOUS
 10
-228.2740595221
 20
360.5001952634
 11
-228.4823926568
 21
360.8193441615
  0
LINE
  5
283
100
AcDbEntity
  8
0
100
AcDbLine
 62
7
  6
CONTINUOUS
 10
-212.0240601182
 20
360.3938122229
 11
-212.2323926568
 21
360.7129611955
  0
LINE
  5
284
100
AcDbEntity
  8
0
100
AcDbLine
 62
7
  6
CONTINUOUS
 10
-210.1490601182
 20
363.6916846917
 11
-209.9407251954
 21
363.3725357936
  0
LINE
  5
285
100
AcDbEntity
  8
RUNDUNGEN
100
AcDbLine
 62
7
  6
CONTINUOUS
 10
148.8405233741
 20
19.04274842
 11
154.8405233741
 21
19.04274842
  0
LINE
  5
286
100
AcDbEntity
  8
0
100
AcDbLine
 62
7
  6
CONTINUOUS
 10
-220.8782263875
 20
363.6916846917
 11
-221.1907263875
 21
364.1172165559
  0
LINE
  5
287
100
AcDbEntity
  8
0
100
AcDbLine
 62
7
  6
CONTINUOUS
 10
-212.6490601182
 20
360.3938122229
 11
-212.3365601182
 21
359.9682803214
  0
LINE
  5
288
100
AcDbEntity
  8
0
100
AcDbLine
 62
7
  6
CONTINUOUS
 10
-209.5240601182
 20
363.6916846917
 11
-209.8365601182
 21
364.1172165559
  0
LINE
  5
289
100
AcDbEntity
  8
0
100
AcDbLine
 62
7
  6
CONTINUOUS
 10
31.8405233741
 20
328.04274842
 11
26.8405233741
 21
323.04274842
  0
LINE
  5
28A
100
AcDbEntity
  8
0
100
AcDbLine
 62
7
  6
CONTINUOUS
 10
51.8405233741
 20
330.04274842
 11
49.8405233741
 21
328.04274842
  0
LINE
  5
28B
100
AcDbEntity
  8
0
100
AcDbLine
 62
7
  6
CONTINUOUS
 10
125.1375229881
 20
369.1030557992
 11
126.1798753726
 21
369.4824410408
  0
LINE
  5
28C
100
AcDbEntity
  8
0
100
AcDbLine
 62
7
  6
CONTINUOUS
 10
-233.7948926568
 20
360.2874292568
 11
-233.378226015
 21
359.8618973554
  0
LINE
  5
28D
100
AcDbEntity
  8
0
100
AcDbLine
 62
7
  6
CONTINUOUS
 10
-228.8990595221
 20
360.2874292568
 11
-228.4823926568
 21
359.8618973554
  0
LINE
  5
28E
100
AcDbEntity
  8
0
100
AcDbLine
 62
7
  6
CONTINUOUS
 10
-230.1490592241
 20
363.7980676577
 11
-230.5657260895
 21
364.2235995219
  0
LINE
  5
28F
100
AcDbEntity
  8
0
100
AcDbLine
 62
7
  6
CONTINUOUS
 10
-221.7115589261
 20
363.9044506238
 11
-221.5032263875
 21
363.6916846917
  0
LINE
  5
290
100
AcDbEntity
  8
0
100
AcDbLine
 62
7
  6
CONTINUOUS
 10
26.8405233741
 20
323.04274842
 11
26.8405233741
 21
325.1863419595
  0
LINE
  5
291
100
AcDbEntity
  8
0
100
AcDbLine
 62
7
  6
CONTINUOUS
 10
26.8405233741
 20
331.04274842
 11
26.8405233741
 21
355.04274842
  0
LINE
  5
292
100
AcDbEntity
  8
0
100
AcDbLine
 62
7
  6
CONTINUOUS
 10
31.8405233741
 20
328.04274842
 11
31.8405233741
 21
350.04274842
  0
LINE
  5
293
100
AcDbEntity
  8
0
100
AcDbLine
 62
7
  6
CONTINUOUS
 10
-210.0448926568
 20
361.883173971
 11
-209.8365601182
 21
361.6704080389
  0
LINE
  5
294
100
AcDbEntity
  8
0
100
AcDbLine
 62
7
  6
CONTINUOUS
 10
-209.4198926568
 20
361.989556937
 11
-209.7323926568
 21
362.3087058351
  0
LINE
  5
295
100
AcDbEntity
  8
KURVEN
100
AcDbLine
 62
4
  6
CONTINUOUS
 10
40.8405233741
 20
355.04274842
 11
40.8405233741
 21
323.04274842
  0
LINE
  5
296
100
AcDbEntity
  8
0
100
AcDbLine
 62
7
  6
CONTINUOUS
 10
49.8405233741
 20
328.04274842
 11
49.8405233741
 21
350.04274842
  0
LINE
  5
297
100
AcDbEntity
  8
0
100
AcDbLine
 62
7
  6
CONTINUOUS
 10
51.8405233741
 20
330.04274842
 11
51.8405233741
 21
348.04274842
  0
LINE
  5
298
100
AcDbEntity
  8
0
100
AcDbLine
 62
7
  6
CONTINUOUS
 10
177.5011713756
 20
308.6030557992
 11
178.5435237601
 21
308.9824410408
  0
LINE
  5
299
100
AcDbEntity
  8
0
100
AcDbLine
 62
7
  6
CONTINUOUS
 10
-221.1907263875
 20
364.1172165559
 11
-221.6073926568
 21
364.436365454
  0
LINE
  5
29A
100
AcDbEntity
  8
0
100
AcDbLine
 62
7
  6
CONTINUOUS
 10
-232.8573926568
 20
360.2874292568
 11
-233.1698926568
 21
360.5001952634
  0
LINE
  5
29B
100
AcDbEntity
  8
0
100
AcDbLine
 62
7
  6
CONTINUOUS
 10
-227.9615595221
 20
360.2874292568
 11
-228.2740595221
 21
360.5001952634
  0
LINE
  5
29C
100
AcDbEntity
  8
0
100
AcDbLine
 62
7
  6
CONTINUOUS
 10
-231.0865592241
 20
363.7980676577
 11
-230.7740592241
 21
363.5853017257
  0
LINE
  5
29D
100
AcDbEntity
  8
0
100
AcDbLine
 62
7
  6
CONTINUOUS
 10
-211.7115601182
 20
360.1810462908
 11
-212.0240601182
 21
360.3938122229
  0
LINE
  5
29E
100
AcDbEntity
  8
0
100
AcDbLine
 62
7
  6
CONTINUOUS
 10
-210.3573926568
 20
362.095939903
 11
-210.0448926568
 21
361.883173971
  0
LINE
  5
29F
100
AcDbEntity
  8
0
100
AcDbLine
 62
7
  6
CONTINUOUS
 10
-210.4615601182
 20
363.9044506238
 11
-210.1490601182
 21
363.6916846917
  0
LINE
  5
2A0
100
AcDbEntity
  8
0
100
AcDbLine
 62
7
  6
CONTINUOUS
 10
-233.378226015
 20
359.8618973554
 11
-232.9615592986
 21
359.6491313954
  0
LINE
  5
2A1
100
AcDbEntity
  8
0
100
AcDbLine
 62
7
  6
CONTINUOUS
 10
-228.4823926568
 20
359.8618973554
 11
-228.0657257914
 21
359.6491313954
  0
LINE
  5
2A2
100
AcDbEntity
  8
0
100
AcDbLine
 62
7
  6
CONTINUOUS
 10
-230.5657260895
 20
364.2235995219
 11
-230.9823926568
 21
364.436365454
  0
LINE
  5
2A3
100
AcDbEntity
  8
0
100
AcDbLine
 62
7
  6
CONTINUOUS
 10
-212.3365601182
 20
359.9682803214
 11
-211.8157251954
 21
359.6491313954
  0
LINE
  5
2A4
100
AcDbEntity
  8
0
100
AcDbLine
 62
7
  6
CONTINUOUS
 10
-209.7323926568
 20
362.3087058351
 11
-210.2532251954
 21
362.6278547333
  0
LINE
  5
2A5
100
AcDbEntity
  8
0
100
AcDbLine
 62
7
  6
CONTINUOUS
 10
-209.8365601182
 20
364.1172165559
 11
-210.3573926568
 21
364.436365454
  0
LINE
  5
2A6
100
AcDbEntity
  8
RUNDUNGEN
100
AcDbLine
 62
7
  6
CONTINUOUS
 10
128.8405233741
 20
346.54274842
 11
128.8405233741
 21
331.54274842
  0
LINE
  5
2A7
100
AcDbEntity
  8
RUNDUNGEN
100
AcDbLine
 62
7
  6
CONTINUOUS
 10
133.8405233741
 20
266.8436531708
 11
133.8405233741
 21
379.0426695908
  0
LINE
  5
2A8
100
AcDbEntity
  8
RUNDUNGEN
100
AcDbLine
 62
7
  6
CONTINUOUS
 10
143.8405233741
 20
24.04274842
 11
143.8405233741
 21
226.2416496632
  0
LINE
  5
2A9
100
AcDbEntity
  8
RUNDUNGEN
100
AcDbLine
 62
7
  6
CONTINUOUS
 10
144.8405233741
 20
297.54274842
 11
144.8405233741
 21
299.4433876297
  0
LINE
  5
2AA
100
AcDbEntity
  8
0
100
AcDbLine
 62
7
  6
CONTINUOUS
 10
144.8405233741
 20
299.4433876297
 11
144.8405233741
 21
384.04274842
  0
LINE
  5
2AB
100
AcDbEntity
  8
BEZUGSACHSEN
100
AcDbLine
 62
7
  6
CONTINUOUS
 10
160.6100449443
 20
231.7360739157
 11
169.0720249163
 21
261.3530038176
  0
LINE
  5
2AC
100
AcDbEntity
  8
0
100
AcDbLine
 62
7
  6
CONTINUOUS
 10
261.8405233741
 20
348.04274842
 11
263.8405233741
 21
350.04274842
  0
LINE
  5
2AD
100
AcDbEntity
  8
0
100
AcDbLine
 62
7
  6
CONTINUOUS
 10
281.8405233741
 20
350.04274842
 11
286.8405233741
 21
355.04274842
  0
LINE
  5
2AE
100
AcDbEntity
  8
RUNDUNGEN
100
AcDbLine
 62
7
  6
CONTINUOUS
 10
379.3862089946
 20
369.2235963757
 11
379.583727703
 21
369.3619004643
  0
LINE
  5
2AF
100
AcDbEntity
  8
0
100
AcDbLine
 62
7
  6
CONTINUOUS
 10
379.3862089946
 20
369.2235963757
 11
379.583727703
 21
369.3619004643
  0
LINE
  5
2B0
100
AcDbEntity
  8
RUNDUNGEN
100
AcDbLine
 62
7
  6
CONTINUOUS
 10
143.0710018039
 20
231.7360739157
 11
134.6090218319
 21
261.3530038176
  0
LINE
  5
2B1
100
AcDbEntity
  8
RUNDUNGEN
100
AcDbLine
 62
7
  6
CONTINUOUS
 10
158.8405233741
 20
297.54274842
 11
158.8405233741
 21
299.4433876297
  0
LINE
  5
2B2
100
AcDbEntity
  8
0
100
AcDbLine
 62
7
  6
CONTINUOUS
 10
158.8405233741
 20
299.4433876297
 11
158.8405233741
 21
384.04274842
  0
LINE
  5
2B3
100
AcDbEntity
  8
BEZUGSACHSEN
100
AcDbLine
 62
7
  6
CONTINUOUS
 10
159.8405233741
 20
24.04274842
 11
159.8405233741
 21
226.2416496632
  0
LINE
  5
2B4
100
AcDbEntity
  8
BEZUGSACHSEN
100
AcDbLine
 62
7
  6
CONTINUOUS
 10
169.8405233741
 20
266.8436531708
 11
169.8405233741
 21
379.04274842
  0
LINE
  5
2B5
100
AcDbEntity
  8
RUNDUNGEN
100
AcDbLine
 62
7
  6
CONTINUOUS
 10
174.8405233741
 20
346.5424842329
 11
174.8405233741
 21
331.5429992299
  0
LINE
  5
2B6
100
AcDbEntity
  8
0
100
AcDbLine
 62
7
  6
CONTINUOUS
 10
514.038439405
 20
317.9044505493
 11
514.350939405
 21
318.0108335153
  0
LINE
  5
2B7
100
AcDbEntity
  8
0
100
AcDbLine
 62
7
  6
CONTINUOUS
 10
515.3926068664
 20
315.989556937
 11
515.0801068664
 21
315.883173971
  0
LINE
  5
2B8
100
AcDbEntity
  8
0
100
AcDbLine
 62
7
  6
CONTINUOUS
 10
515.3926068664
 20
314.1810462163
 11
515.0801068664
 21
314.0746632502
  0
LINE
  5
2B9
100
AcDbEntity
  8
0
100
AcDbLine
 62
7
  6
CONTINUOUS
 10
525.3926056743
 20
315.5640250728
 11
525.7051056743
 21
315.6704080389
  0
LINE
  5
2BA
100
AcDbEntity
  8
0
100
AcDbLine
 62
7
  6
CONTINUOUS
 10
536.538439405
 20
314.2874291823
 11
536.1217726886
 21
314.1810462163
  0
LINE
  5
2BB
100
AcDbEntity
  8
0
100
AcDbLine
 62
7
  6
CONTINUOUS
 10
534.7676059723
 20
317.7980675832
 11
535.1842728377
 21
317.9044505493
  0
LINE
  5
2BC
100
AcDbEntity
  8
0
100
AcDbLine
 62
7
  6
CONTINUOUS
 10
530.3926062703
 20
317.7980675832
 11
530.8092725396
 21
317.9044505493
  0
LINE
  5
2BD
100
AcDbEntity
  8
0
100
AcDbLine
 62
7
  6
CONTINUOUS
 10
536.1217726886
 20
313.54274842
 11
536.6426060468
 21
313.6491313861
  0
LINE
  5
2BE
100
AcDbEntity
  8
0
100
AcDbLine
 62
7
  6
CONTINUOUS
 10
-211.3990601182
 20
360.0746633247
 11
-211.7115601182
 21
360.1810462908
  0
LINE
  5
2BF
100
AcDbEntity
  8
0
100
AcDbLine
 62
7
  6
CONTINUOUS
 10
-222.0240589261
 20
364.0108335898
 11
-221.7115589261
 21
363.9044506238
  0
LINE
  5
2C0
100
AcDbEntity
  8
0
100
AcDbLine
 62
7
  6
CONTINUOUS
 10
-79.8680883885
 20
372.1385086415
 11
-76.7382728363
 21
369.9469881986
  0
LINE
  5
2C1
100
AcDbEntity
  8
0
100
AcDbLine
 62
7
  6
CONTINUOUS
 10
31.8405233741
 20
350.04274842
 11
26.8405233741
 21
355.04274842
  0
LINE
  5
2C2
100
AcDbEntity
  8
0
100
AcDbLine
 62
7
  6
CONTINUOUS
 10
51.8405233741
 20
348.04274842
 11
49.8405233741
 21
350.04274842
  0
LINE
  5
2C3
100
AcDbEntity
  8
0
100
AcDbLine
 62
7
  6
CONTINUOUS
 10
514.975939405
 20
313.54274842
 11
515.4967719436
 21
313.6491313861
  0
LINE
  5
2C4
100
AcDbEntity
  8
0
100
AcDbLine
 62
7
  6
CONTINUOUS
 10
535.1842728377
 20
318.54274842
 11
534.663439405
 21
318.4363654447
  0
LINE
  5
2C5
100
AcDbEntity
  8
0
100
AcDbLine
 62
7
  6
CONTINUOUS
 10
530.8092725396
 20
318.54274842
 11
530.288439405
 21
318.4363654447
  0
LINE
  5
2C6
100
AcDbEntity
  8
0
100
AcDbLine
 62
7
  6
CONTINUOUS
 10
514.975939405
 20
315.3512591408
 11
515.4967719436
 21
315.4576421068
  0
LINE
  5
2C7
100
AcDbEntity
  8
0
100
AcDbLine
 62
7
  6
CONTINUOUS
 10
514.4551068664
 20
318.54274842
 11
513.9342719436
 21
318.4363654447
  0
LINE
  5
2C8
100
AcDbEntity
  8
0
100
AcDbLine
 62
7
  6
CONTINUOUS
 10
-232.4407259404
 20
360.1810462908
 11
-232.8573926568
 21
360.2874292568
  0
LINE
  5
2C9
100
AcDbEntity
  8
0
100
AcDbLine
 62
7
  6
CONTINUOUS
 10
-227.5448926568
 20
360.1810462908
 11
-227.9615595221
 21
360.2874292568
  0
LINE
  5
2CA
100
AcDbEntity
  8
0
100
AcDbLine
 62
7
  6
CONTINUOUS
 10
-231.5032260895
 20
363.9044506238
 11
-231.0865592241
 21
363.7980676577
  0
LINE
  5
2CB
100
AcDbEntity
  8
0
100
AcDbLine
 62
7
  6
CONTINUOUS
 10
-210.6698926568
 20
362.2023228691
 11
-210.3573926568
 21
362.095939903
  0
LINE
  5
2CC
100
AcDbEntity
  8
0
100
AcDbLine
 62
7
  6
CONTINUOUS
 10
-210.7740601182
 20
364.0108335898
 11
-210.4615601182
 21
363.9044506238
  0
LINE
  5
2CD
100
AcDbEntity
  8
0
100
AcDbLine
 62
7
  6
CONTINUOUS
 10
513.9342719436
 20
318.4363654447
 11
513.413439405
 21
318.1172165186
  0
LINE
  5
2CE
100
AcDbEntity
  8
0
100
AcDbLine
 62
7
  6
CONTINUOUS
 10
515.4967719436
 20
313.6491313861
 11
516.0176068664
 21
313.9682802842
  0
LINE
  5
2CF
100
AcDbEntity
  8
0
100
AcDbLine
 62
7
  6
CONTINUOUS
 10
525.288439405
 20
316.095939903
 11
524.8717731357
 21
315.883173971
  0
LINE
  5
2D0
100
AcDbEntity
  8
0
100
AcDbLine
 62
7
  6
CONTINUOUS
 10
530.288439405
 20
318.4363654447
 11
529.8717725396
 21
318.2235994846
  0
LINE
  5
2D1
100
AcDbEntity
  8
0
100
AcDbLine
 62
7
  6
CONTINUOUS
 10
534.663439405
 20
318.4363654447
 11
534.2467728377
 21
318.2235994846
  0
LINE
  5
2D2
100
AcDbEntity
  8
0
100
AcDbLine
 62
7
  6
CONTINUOUS
 10
536.6426060468
 20
313.6491313861
 11
537.0592727632
 21
313.8618973181
  0
LINE
  5
2D3
100
AcDbEntity
  8
RUNDUNGEN
100
AcDbLine
 62
7
  6
CONTINUOUS
 10
146.8405233741
 20
295.54274842
 11
156.8405233741
 21
295.54274842
  0
LINE
  5
2D4
100
AcDbEntity
  8
0
100
AcDbLine
 62
7
  6
CONTINUOUS
 10
158.1633990296
 20
296.04274842
 11
145.5176477186
 21
296.04274842
  0
LINE
  5
2D5
100
AcDbEntity
  8
0
100
AcDbLine
 62
7
  6
CONTINUOUS
 10
-257.1351171285
 20
297.04274842
 11
-256.5564028338
 21
297.04274842
  0
LINE
  5
2D6
100
AcDbEntity
  8
RUNDUNGEN
100
AcDbLine
 62
7
  6
CONTINUOUS
 10
-203.1594766259
 20
297.04274842
 11
-256.5564028338
 21
297.04274842
  0
LINE
  5
2D7
100
AcDbEntity
  8
BEZUGSACHSEN
100
AcDbLine
 62
7
  6
CONTINUOUS
 10
-256.5564028338
 20
297.04274842
 11
-257.1586778526
 21
297.04274842
  0
LINE
  5
2D8
100
AcDbEntity
  8
BEZUGSACHSEN
100
AcDbLine
 62
7
  6
CONTINUOUS
 10
506.8405233741
 20
297.04274842
 11
560.8397246008
 21
297.04274842
  0
LINE
  5
2D9
100
AcDbEntity
  8
0
100
AcDbLine
 62
7
  6
CONTINUOUS
 10
-232.9615592986
 20
359.6491313954
 11
-232.4407259404
 21
359.54274842
  0
LINE
  5
2DA
100
AcDbEntity
  8
0
100
AcDbLine
 62
7
  6
CONTINUOUS
 10
-228.0657257914
 20
359.6491313954
 11
-227.5448926568
 21
359.54274842
  0
LINE
  5
2DB
100
AcDbEntity
  8
0
100
AcDbLine
 62
7
  6
CONTINUOUS
 10
-211.8157251954
 20
359.6491313954
 11
-211.2948926568
 21
359.54274842
  0
LINE
  5
2DC
100
AcDbEntity
  8
0
100
AcDbLine
 62
7
  6
CONTINUOUS
 10
-230.9823926568
 20
364.436365454
 11
-231.5032260895
 21
364.54274842
  0
LINE
  5
2DD
100
AcDbEntity
  8
0
100
AcDbLine
 62
7
  6
CONTINUOUS
 10
-221.6073926568
 20
364.436365454
 11
-222.1282263875
 21
364.54274842
  0
LINE
  5
2DE
100
AcDbEntity
  8
0
100
AcDbLine
 62
7
  6
CONTINUOUS
 10
-210.2532251954
 20
362.6278547333
 11
-210.7740601182
 21
362.7342376993
  0
LINE
  5
2DF
100
AcDbEntity
  8
0
100
AcDbLine
 62
7
  6
CONTINUOUS
 10
-210.3573926568
 20
364.436365454
 11
-210.8782251954
 21
364.54274842
  0
LINE
  5
2E0
100
AcDbEntity
  8
0
100
AcDbLine
 62
7
  6
CONTINUOUS
 10
125.1375229881
 20
308.9824410408
 11
126.1798753726
 21
308.6030557992
  0
LINE
  5
2E1
100
AcDbEntity
  8
0
100
AcDbLine
 62
7
  6
CONTINUOUS
 10
261.8405233741
 20
348.04274842
 11
261.8405233741
 21
330.04274842
  0
LINE
  5
2E2
100
AcDbEntity
  8
0
100
AcDbLine
 62
7
  6
CONTINUOUS
 10
263.8405233741
 20
350.04274842
 11
263.8405233741
 21
328.04274842
  0
LINE
  5
2E3
100
AcDbEntity
  8
0
100
AcDbLine
 62
7
  6
CONTINUOUS
 10
513.725939405
 20
317.6916846172
 11
514.038439405
 21
317.9044505493
  0
LINE
  5
2E4
100
AcDbEntity
  8
0
100
AcDbLine
 62
7
  6
CONTINUOUS
 10
515.7051068664
 20
316.2023228691
 11
515.3926068664
 21
315.989556937
  0
LINE
  5
2E5
100
AcDbEntity
  8
0
100
AcDbLine
 62
7
  6
CONTINUOUS
 10
515.4967719436
 20
315.4576421068
 11
516.1217719436
 21
315.883173971
  0
LINE
  5
2E6
100
AcDbEntity
  8
0
100
AcDbLine
 62
7
  6
CONTINUOUS
 10
515.7051068664
 20
314.3938121484
 11
515.3926068664
 21
314.1810462163
  0
LINE
  5
2E7
100
AcDbEntity
  8
0
100
AcDbLine
 62
7
  6
CONTINUOUS
 10
530.0801062703
 20
317.5853015766
 11
530.3926062703
 21
317.7980675832
  0
LINE
  5
2E8
100
AcDbEntity
  8
0
100
AcDbLine
 62
7
  6
CONTINUOUS
 10
534.4551059723
 20
317.5853015766
 11
534.7676059723
 21
317.7980675832
  0
LINE
  5
2E9
100
AcDbEntity
  8
0
100
AcDbLine
 62
7
  6
CONTINUOUS
 10
536.850939405
 20
314.5001951144
 11
536.538439405
 21
314.2874291823
  0
LINE
  5
2EA
100
AcDbEntity
  8
0
100
AcDbLine
 62
7
  6
CONTINUOUS
 10
-137.6594766259
 20
304.04274842
 11
-140.1594766259
 21
304.04274842
  0
LINE
  5
2EB
100
AcDbEntity
  8
0
100
AcDbLine
 62
7
  6
CONTINUOUS
 10
-96.6594766259
 20
305.04274842
 11
-82.7359705703
 21
305.04274842
  0
LINE
  5
2EC
100
AcDbEntity
  8
RUNDUNGEN
100
AcDbLine
 62
7
  6
CONTINUOUS
 10
400.9336320656
 20
308.54274842
 11
380.1573041394
 21
308.54274842
  0
LINE
  5
2ED
100
AcDbEntity
  8
RUNDUNGEN
100
AcDbLine
 62
7
  6
CONTINUOUS
 10
177.1591512323
 20
308.54274842
 11
169.8405233741
 21
308.54274842
  0
LINE
  5
2EE
100
AcDbEntity
  8
RUNDUNGEN
100
AcDbLine
 62
7
  6
CONTINUOUS
 10
133.8405233741
 20
308.54274842
 11
126.5218955159
 21
308.54274842
  0
LINE
  5
2EF
100
AcDbEntity
  8
0
100
AcDbLine
 62
7
  6
CONTINUOUS
 10
126.5218955159
 20
308.54274842
 11
133.8405233741
 21
308.54274842
  0
LINE
  5
2F0
100
AcDbEntity
  8
0
100
AcDbLine
 62
7
  6
CONTINUOUS
 10
169.8405233741
 20
308.54274842
 11
177.1591512323
 21
308.54274842
  0
LINE
  5
2F1
100
AcDbEntity
  8
0
100
AcDbLine
 62
7
  6
CONTINUOUS
 10
380.1573041394
 20
308.54274842
 11
400.9336320656
 21
308.54274842
  0
LINE
  5
2F2
100
AcDbEntity
  8
0
100
AcDbLine
 62
7
  6
CONTINUOUS
 10
-73.8703906545
 20
309.04274842
 11
124.7955028448
 21
309.04274842
  0
LINE
  5
2F3
100
AcDbEntity
  8
0
100
AcDbLine
 62
7
  6
CONTINUOUS
 10
178.8855439034
 20
309.04274842
 11
378.8126325583
 21
309.04274842
  0
LINE
  5
2F4
100
AcDbEntity
  8
RUNDUNGEN
100
AcDbLine
 62
7
  6
CONTINUOUS
 10
-212.1594766259
 20
311.04274842
 11
-231.1594766259
 21
311.04274842
  0
LINE
  5
2F5
100
AcDbEntity
  8
BEZUGSACHSEN
100
AcDbLine
 62
7
  6
CONTINUOUS
 10
515.8405233741
 20
311.04274842
 11
534.8405233741
 21
311.04274842
  0
LINE
  5
2F6
100
AcDbEntity
  8
0
100
AcDbLine
 62
7
  6
CONTINUOUS
 10
514.5592719436
 20
313.54274842
 11
514.975939405
 21
313.54274842
  0
LINE
  5
2F7
100
AcDbEntity
  8
0
100
AcDbLine
 62
7
  6
CONTINUOUS
 10
517.475939405
 20
313.54274842
 11
518.100939405
 21
313.54274842
  0
LINE
  5
2F8
100
AcDbEntity
  8
0
100
AcDbLine
 62
7
  6
CONTINUOUS
 10
519.5592731357
 20
313.54274842
 11
523.5176056743
 21
313.54274842
  0
LINE
  5
2F9
100
AcDbEntity
  8
0
100
AcDbLine
 62
7
  6
CONTINUOUS
 10
525.8092731357
 20
313.54274842
 11
528.3092725396
 21
313.54274842
  0
LINE
  5
2FA
100
AcDbEntity
  8
0
100
AcDbLine
 62
7
  6
CONTINUOUS
 10
529.1426062703
 20
313.54274842
 11
529.7676062703
 21
313.54274842
  0
LINE
  5
2FB
100
AcDbEntity
  8
0
100
AcDbLine
 62
7
  6
CONTINUOUS
 10
532.2676062703
 20
313.54274842
 11
532.8926059723
 21
313.54274842
  0
LINE
  5
2FC
100
AcDbEntity
  8
0
100
AcDbLine
 62
7
  6
CONTINUOUS
 10
535.1842728377
 20
313.54274842
 11
536.1217726886
 21
313.54274842
  0
LINE
  5
2FD
100
AcDbEntity
  8
0
100
AcDbLine
 62
7
  6
CONTINUOUS
 10
527.6842731357
 20
314.0746632502
 11
525.7051056743
 21
314.0746632502
  0
LINE
  5
2FE
100
AcDbEntity
  8
0
100
AcDbLine
 62
7
  6
CONTINUOUS
 10
523.5176056743
 20
314.0746632502
 11
521.850939405
 21
314.0746632502
  0
LINE
  5
2FF
100
AcDbEntity
  8
0
100
AcDbLine
 62
7
  6
CONTINUOUS
 10
521.225939405
 20
314.0746632502
 11
519.5592731357
 21
314.0746632502
  0
LINE
  5
300
100
AcDbEntity
  8
0
100
AcDbLine
 62
7
  6
CONTINUOUS
 10
515.0801068664
 20
314.0746632502
 11
514.4551068664
 21
314.0746632502
  0
LINE
  5
301
100
AcDbEntity
  8
0
100
AcDbLine
 62
7
  6
CONTINUOUS
 10
536.1217726886
 20
314.1810462163
 11
535.1842728377
 21
314.1810462163
  0
LINE
  5
302
100
AcDbEntity
  8
0
100
AcDbLine
 62
7
  6
CONTINUOUS
 10
513.6217719436
 20
314.7129610465
 11
513.100939405
 21
314.7129610465
  0
LINE
  5
303
100
AcDbEntity
  8
0
100
AcDbLine
 62
7
  6
CONTINUOUS
 10
534.350939405
 20
314.8193443105
 11
533.725939405
 21
314.8193443105
  0
LINE
  5
304
100
AcDbEntity
  8
0
100
AcDbLine
 62
7
  6
CONTINUOUS
 10
514.4551068664
 20
315.3512591408
 11
514.975939405
 21
315.3512591408
  0
LINE
  5
305
100
AcDbEntity
  8
0
100
AcDbLine
 62
7
  6
CONTINUOUS
 10
525.7051056743
 20
315.6704080389
 11
527.6842731357
 21
315.6704080389
  0
LINE
  5
306
100
AcDbEntity
  8
0
100
AcDbLine
 62
7
  6
CONTINUOUS
 10
515.0801068664
 20
315.883173971
 11
514.350939405
 21
315.883173971
  0
LINE
  5
307
100
AcDbEntity
  8
0
100
AcDbLine
 62
7
  6
CONTINUOUS
 10
527.6842731357
 20
316.3087058351
 11
525.913439405
 21
316.3087058351
  0
LINE
  5
308
100
AcDbEntity
  8
0
100
AcDbLine
 62
7
  6
CONTINUOUS
 10
533.725939405
 20
317.2661526785
 11
534.350939405
 21
317.2661526785
  0
LINE
  5
309
100
AcDbEntity
  8
0
100
AcDbLine
 62
7
  6
CONTINUOUS
 10
530.8092725396
 20
317.9044505493
 11
531.225939405
 21
317.9044505493
  0
LINE
  5
30A
100
AcDbEntity
  8
0
100
AcDbLine
 62
7
  6
CONTINUOUS
 10
535.1842728377
 20
317.9044505493
 11
536.1217726886
 21
317.9044505493
  0
LINE
  5
30B
100
AcDbEntity
  8
0
100
AcDbLine
 62
7
  6
CONTINUOUS
 10
514.350939405
 20
318.0108335153
 11
515.0801068664
 21
318.0108335153
  0
LINE
  5
30C
100
AcDbEntity
  8
0
100
AcDbLine
 62
7
  6
CONTINUOUS
 10
536.1217726886
 20
318.54274842
 11
535.1842728377
 21
318.54274842
  0
LINE
  5
30D
100
AcDbEntity
  8
0
100
AcDbLine
 62
7
  6
CONTINUOUS
 10
531.225939405
 20
318.54274842
 11
530.8092725396
 21
318.54274842
  0
LINE
  5
30E
100
AcDbEntity
  8
0
100
AcDbLine
 62
7
  6
CONTINUOUS
 10
528.3092725396
 20
318.54274842
 11
527.6842731357
 21
318.54274842
  0
LINE
  5
30F
100
AcDbEntity
  8
0
100
AcDbLine
 62
7
  6
CONTINUOUS
 10
525.0801056743
 20
318.54274842
 11
524.350939405
 21
318.54274842
  0
LINE
  5
310
100
AcDbEntity
  8
0
100
AcDbLine
 62
7
  6
CONTINUOUS
 10
521.850939405
 20
318.54274842
 11
521.225939405
 21
318.54274842
  0
LINE
  5
311
100
AcDbEntity
  8
0
100
AcDbLine
 62
7
  6
CONTINUOUS
 10
518.100939405
 20
318.54274842
 11
517.475939405
 21
318.54274842
  0
LINE
  5
312
100
AcDbEntity
  8
0
100
AcDbLine
 62
7
  6
CONTINUOUS
 10
514.975939405
 20
318.54274842
 11
514.4551068664
 21
318.54274842
  0
LINE
  5
313
100
AcDbEntity
  8
BEZUGSACHSEN
100
AcDbLine
 62
7
  6
CONTINUOUS
 10
534.8405233741
 20
321.04274842
 11
515.8405233741
 21
321.04274842
  0
LINE
  5
314
100
AcDbEntity
  8
RUNDUNGEN
100
AcDbLine
 62
7
  6
CONTINUOUS
 10
-231.1594766259
 20
321.04274842
 11
-212.1594766259
 21
321.04274842
  0
LINE
  5
315
100
AcDbEntity
  8
RUNDUNGEN
100
AcDbLine
 62
7
  6
CONTINUOUS
 10
354.8402071475
 20
321.54274842
 11
184.8407815382
 21
321.54274842
  0
LINE
  5
316
100
AcDbEntity
  8
RUNDUNGEN
100
AcDbLine
 62
7
  6
CONTINUOUS
 10
-51.1591134967
 20
321.54274842
 11
118.8401736785
 21
321.54274842
  0
LINE
  5
317
100
AcDbEntity
  8
0
100
AcDbLine
 62
7
  6
CONTINUOUS
 10
26.8405233741
 20
323.04274842
 11
-56.420644413
 21
323.04274842
  0
LINE
  5
318
100
AcDbEntity
  8
0
100
AcDbLine
 62
7
  6
CONTINUOUS
 10
-99.6594766259
 20
323.04274842
 11
-136.6594766259
 21
323.04274842
  0
LINE
  5
319
100
AcDbEntity
  8
0
100
AcDbLine
 62
7
  6
CONTINUOUS
 10
-142.6594766259
 20
323.04274842
 11
-194.1594766259
 21
323.04274842
  0
LINE
  5
31A
100
AcDbEntity
  8
0
100
AcDbLine
 62
7
  6
CONTINUOUS
 10
286.8405233741
 20
323.04274842
 11
360.1056936229
 21
323.04274842
  0
LINE
  5
31B
100
AcDbEntity
  8
RUNDUNGEN
100
AcDbLine
 62
7
  6
CONTINUOUS
 10
286.8405233741
 20
323.04274842
 11
360.1056936229
 21
323.04274842
  0
LINE
  5
31C
100
AcDbEntity
  8
0
100
AcDbLine
 62
7
  6
CONTINUOUS
 10
404.9786358949
 20
323.04274842
 11
497.8405233741
 21
323.04274842
  0
LINE
  5
31D
100
AcDbEntity
  8
RUNDUNGEN
100
AcDbLine
 62
7
  6
CONTINUOUS
 10
404.9786358949
 20
323.04274842
 11
497.8405233741
 21
323.04274842
  0
LINE
  5
31E
100
AcDbEntity
  8
0
100
AcDbLine
 62
7
  6
CONTINUOUS
 10
26.8405233741
 20
325.1863419595
 11
-58.8726483463
 21
325.1863419595
  0
LINE
  5
31F
100
AcDbEntity
  8
0
100
AcDbLine
 62
7
  6
CONTINUOUS
 10
-99.6594766259
 20
325.1863419595
 11
-136.6594766259
 21
325.1863419595
  0
LINE
  5
320
100
AcDbEntity
  8
0
100
AcDbLine
 62
7
  6
CONTINUOUS
 10
-142.6594766259
 20
325.1863419595
 11
-194.1594766259
 21
325.1863419595
  0
LINE
  5
321
100
AcDbEntity
  8
0
100
AcDbLine
 62
7
  6
CONTINUOUS
 10
49.8405233741
 20
328.04274842
 11
31.8405233741
 21
328.04274842
  0
LINE
  5
322
100
AcDbEntity
  8
0
100
AcDbLine
 62
7
  6
CONTINUOUS
 10
263.8405233741
 20
328.04274842
 11
281.8405233741
 21
328.04274842
  0
LINE
  5
323
100
AcDbEntity
  8
0
100
AcDbLine
 62
7
  6
CONTINUOUS
 10
281.8405233741
 20
350.04274842
 11
281.8405233741
 21
328.04274842
  0
LINE
  5
324
100
AcDbEntity
  8
0
100
AcDbLine
 62
7
  6
CONTINUOUS
 10
286.8405233741
 20
355.04274842
 11
286.8405233741
 21
323.04274842
  0
LINE
  5
325
100
AcDbEntity
  8
BEZUGSACHSEN
100
AcDbLine
 62
7
  6
CONTINUOUS
 10
-264.3676907904
 20
329.59274842
 11
-246.8594766259
 21
329.59274842
  0
LINE
  5
326
100
AcDbEntity
  8
RUNDUNGEN
100
AcDbLine
 62
7
  6
CONTINUOUS
 10
-226.4094766259
 20
329.59274842
 11
-264.3684757465
 21
329.59274842
  0
LINE
  5
327
100
AcDbEntity
  8
BEZUGSACHSEN
100
AcDbLine
 62
7
  6
CONTINUOUS
 10
530.0905233741
 20
329.59274842
 11
568.0495224947
 21
329.59274842
  0
LINE
  5
328
100
AcDbEntity
  8
0
100
AcDbLine
 62
7
  6
CONTINUOUS
 10
31.5268148751
 20
331.04274842
 11
-61.1468928174
 21
331.04274842
  0
LINE
  5
329
100
AcDbEntity
  8
0
100
AcDbLine
 62
7
  6
CONTINUOUS
 10
-99.6594766259
 20
331.04274842
 11
-136.6594766259
 21
331.04274842
  0
LINE
  5
32A
100
AcDbEntity
  8
0
100
AcDbLine
 62
7
  6
CONTINUOUS
 10
-142.6594766259
 20
331.04274842
 11
-183.1594766259
 21
331.04274842
  0
LINE
  5
32B
100
AcDbEntity
  8
BEZUGSACHSEN
100
AcDbLine
 62
7
  6
CONTINUOUS
 10
568.0487375386
 20
348.49274842
 11
550.5405233741
 21
348.49274842
  0
LINE
  5
32C
100
AcDbEntity
  8
BEZUGSACHSEN
100
AcDbLine
 62
7
  6
CONTINUOUS
 10
-226.4094766259
 20
348.49274842
 11
-264.3684757465
 21
348.49274842
  0
LINE
  5
32D
100
AcDbEntity
  8
RUNDUNGEN
100
AcDbLine
 62
7
  6
CONTINUOUS
 10
530.0905233741
 20
348.49274842
 11
568.0495224947
 21
348.49274842
  0
LINE
  5
32E
100
AcDbEntity
  8
0
100
AcDbLine
 62
7
  6
CONTINUOUS
 10
49.8405233741
 20
350.04274842
 11
31.8405233741
 21
350.04274842
  0
LINE
  5
32F
100
AcDbEntity
  8
0
100
AcDbLine
 62
7
  6
CONTINUOUS
 10
263.8405233741
 20
350.04274842
 11
281.8405233741
 21
350.04274842
  0
LINE
  5
330
100
AcDbEntity
  8
0
100
AcDbLine
 62
7
  6
CONTINUOUS
 10
26.8405233741
 20
355.04274842
 11
-56.4179107969
 21
355.04274842
  0
LINE
  5
331
100
AcDbEntity
  8
0
100
AcDbLine
 62
7
  6
CONTINUOUS
 10
-99.6594766259
 20
355.04274842
 11
-136.6594766259
 21
355.04274842
  0
LINE
  5
332
100
AcDbEntity
  8
0
100
AcDbLine
 62
7
  6
CONTINUOUS
 10
-142.6594766259
 20
355.04274842
 11
-194.1594766259
 21
355.04274842
  0
LINE
  5
333
100
AcDbEntity
  8
0
100
AcDbLine
 62
7
  6
CONTINUOUS
 10
286.8405233741
 20
355.04274842
 11
360.1057649595
 21
355.04274842
  0
LINE
  5
334
100
AcDbEntity
  8
RUNDUNGEN
100
AcDbLine
 62
7
  6
CONTINUOUS
 10
286.8405233741
 20
355.04274842
 11
360.1057649595
 21
355.04274842
  0
LINE
  5
335
100
AcDbEntity
  8
0
100
AcDbLine
 62
7
  6
CONTINUOUS
 10
404.9786358949
 20
355.04274842
 11
497.8405233741
 21
355.04274842
  0
LINE
  5
336
100
AcDbEntity
  8
RUNDUNGEN
100
AcDbLine
 62
7
  6
CONTINUOUS
 10
404.9786358949
 20
355.04274842
 11
497.8405233741
 21
355.04274842
  0
LINE
  5
337
100
AcDbEntity
  8
RUNDUNGEN
100
AcDbLine
 62
7
  6
CONTINUOUS
 10
118.8401800323
 20
356.54274842
 11
-51.1591330119
 21
356.54274842
  0
LINE
  5
338
100
AcDbEntity
  8
RUNDUNGEN
100
AcDbLine
 62
7
  6
CONTINUOUS
 10
184.8408542685
 20
356.54274842
 11
354.8403063993
 21
356.54274842
  0
LINE
  5
339
100
AcDbEntity
  8
RUNDUNGEN
100
AcDbLine
 62
7
  6
CONTINUOUS
 10
534.8405233741
 20
357.04274842
 11
515.8405233741
 21
357.04274842
  0
LINE
  5
33A
100
AcDbEntity
  8
BEZUGSACHSEN
100
AcDbLine
 62
7
  6
CONTINUOUS
 10
-231.1594766259
 20
357.04274842
 11
-212.1594766259
 21
357.04274842
  0
LINE
  5
33B
100
AcDbEntity
  8
0
100
AcDbLine
 62
7
  6
CONTINUOUS
 10
-232.4407259404
 20
359.54274842
 11
-231.5032260895
 21
359.54274842
  0
LINE
  5
33C
100
AcDbEntity
  8
0
100
AcDbLine
 62
7
  6
CONTINUOUS
 10
-227.5448926568
 20
359.54274842
 11
-227.1282257914
 21
359.54274842
  0
LINE
  5
33D
100
AcDbEntity
  8
0
100
AcDbLine
 62
7
  6
CONTINUOUS
 10
-224.6282257914
 20
359.54274842
 11
-224.0032263875
 21
359.54274842
  0
LINE
  5
33E
100
AcDbEntity
  8
0
100
AcDbLine
 62
7
  6
CONTINUOUS
 10
-221.3990589261
 20
359.54274842
 11
-220.6698926568
 21
359.54274842
  0
LINE
  5
33F
100
AcDbEntity
  8
0
100
AcDbLine
 62
7
  6
CONTINUOUS
 10
-218.1698926568
 20
359.54274842
 11
-217.5448926568
 21
359.54274842
  0
LINE
  5
340
100
AcDbEntity
  8
0
100
AcDbLine
 62
7
  6
CONTINUOUS
 10
-214.4198926568
 20
359.54274842
 11
-213.7948926568
 21
359.54274842
  0
LINE
  5
341
100
AcDbEntity
  8
0
100
AcDbLine
 62
7
  6
CONTINUOUS
 10
-211.2948926568
 20
359.54274842
 11
-210.7740601182
 21
359.54274842
  0
LINE
  5
342
100
AcDbEntity
  8
0
100
AcDbLine
 62
7
  6
CONTINUOUS
 10
515.913439405
 20
316.4150888012
 11
515.7051068664
 21
316.2023228691
  0
LINE
  5
343
100
AcDbEntity
  8
0
100
AcDbLine
 62
7
  6
CONTINUOUS
 10
525.1842731357
 20
315.3512591408
 11
525.3926056743
 21
315.5640250728
  0
LINE
  5
344
100
AcDbEntity
  8
0
100
AcDbLine
 62
7
  6
CONTINUOUS
 10
529.8717725396
 20
318.2235994846
 11
529.4551062703
 21
317.7980675832
  0
LINE
  5
345
100
AcDbEntity
  8
0
100
AcDbLine
 62
7
  6
CONTINUOUS
 10
-210.6698926568
 20
360.0746633247
 11
-211.3990601182
 21
360.0746633247
  0
LINE
  5
346
100
AcDbEntity
  8
0
100
AcDbLine
 62
7
  6
CONTINUOUS
 10
-227.1282257914
 20
360.1810462908
 11
-227.5448926568
 21
360.1810462908
  0
LINE
  5
347
100
AcDbEntity
  8
0
100
AcDbLine
 62
7
  6
CONTINUOUS
 10
-231.5032260895
 20
360.1810462908
 11
-232.4407259404
 21
360.1810462908
  0
LINE
  5
348
100
AcDbEntity
  8
0
100
AcDbLine
 62
7
  6
CONTINUOUS
 10
-230.0448926568
 20
360.8193441615
 11
-230.6698926568
 21
360.8193441615
  0
LINE
  5
349
100
AcDbEntity
  8
0
100
AcDbLine
 62
7
  6
CONTINUOUS
 10
-224.0032263875
 20
361.7767910049
 11
-222.2323926568
 21
361.7767910049
  0
LINE
  5
34A
100
AcDbEntity
  8
0
100
AcDbLine
 62
7
  6
CONTINUOUS
 10
-211.3990601182
 20
362.2023228691
 11
-210.6698926568
 21
362.2023228691
  0
LINE
  5
34B
100
AcDbEntity
  8
0
100
AcDbLine
 62
7
  6
CONTINUOUS
 10
-222.0240589261
 20
362.4150888012
 11
-224.0032263875
 21
362.4150888012
  0
LINE
  5
34C
100
AcDbEntity
  8
0
100
AcDbLine
 62
7
  6
CONTINUOUS
 10
-210.7740601182
 20
362.7342376993
 11
-211.2948926568
 21
362.7342376993
  0
LINE
  5
34D
100
AcDbEntity
  8
0
100
AcDbLine
 62
7
  6
CONTINUOUS
 10
-230.6698926568
 20
363.2661525295
 11
-230.0448926568
 21
363.2661525295
  0
LINE
  5
34E
100
AcDbEntity
  8
0
100
AcDbLine
 62
7
  6
CONTINUOUS
 10
-209.9407251954
 20
363.3725357936
 11
-209.4198926568
 21
363.3725357936
  0
LINE
  5
34F
100
AcDbEntity
  8
0
100
AcDbLine
 62
7
  6
CONTINUOUS
 10
-232.4407259404
 20
363.9044506238
 11
-231.5032260895
 21
363.9044506238
  0
LINE
  5
350
100
AcDbEntity
  8
0
100
AcDbLine
 62
7
  6
CONTINUOUS
 10
-224.0032263875
 20
364.0108335898
 11
-222.0240589261
 21
364.0108335898
  0
LINE
  5
351
100
AcDbEntity
  8
0
100
AcDbLine
 62
7
  6
CONTINUOUS
 10
-219.8365589261
 20
364.0108335898
 11
-218.1698926568
 21
364.0108335898
  0
LINE
  5
352
100
AcDbEntity
  8
0
100
AcDbLine
 62
7
  6
CONTINUOUS
 10
-217.5448926568
 20
364.0108335898
 11
-215.8782263875
 21
364.0108335898
  0
LINE
  5
353
100
AcDbEntity
  8
0
100
AcDbLine
 62
7
  6
CONTINUOUS
 10
-211.3990601182
 20
364.0108335898
 11
-210.7740601182
 21
364.0108335898
  0
LINE
  5
354
100
AcDbEntity
  8
0
100
AcDbLine
 62
7
  6
CONTINUOUS
 10
-210.8782251954
 20
364.54274842
 11
-211.2948926568
 21
364.54274842
  0
LINE
  5
355
100
AcDbEntity
  8
0
100
AcDbLine
 62
7
  6
CONTINUOUS
 10
-213.7948926568
 20
364.54274842
 11
-214.4198926568
 21
364.54274842
  0
LINE
  5
356
100
AcDbEntity
  8
0
100
AcDbLine
 62
7
  6
CONTINUOUS
 10
-215.8782263875
 20
364.54274842
 11
-219.8365589261
 21
364.54274842
  0
LINE
  5
357
100
AcDbEntity
  8
0
100
AcDbLine
 62
7
  6
CONTINUOUS
 10
-222.1282263875
 20
364.54274842
 11
-224.6282257914
 21
364.54274842
  0
LINE
  5
358
100
AcDbEntity
  8
0
100
AcDbLine
 62
7
  6
CONTINUOUS
 10
-225.4615595221
 20
364.54274842
 11
-226.0865595221
 21
364.54274842
  0
LINE
  5
359
100
AcDbEntity
  8
0
100
AcDbLine
 62
7
  6
CONTINUOUS
 10
-228.5865595221
 20
364.54274842
 11
-229.2115592241
 21
364.54274842
  0
LINE
  5
35A
100
AcDbEntity
  8
0
100
AcDbLine
 62
7
  6
CONTINUOUS
 10
-231.5032260895
 20
364.54274842
 11
-232.4407259404
 21
364.54274842
  0
LINE
  5
35B
100
AcDbEntity
  8
BEZUGSACHSEN
100
AcDbLine
 62
7
  6
CONTINUOUS
 10
-212.1594766259
 20
367.04274842
 11
-231.1594766259
 21
367.04274842
  0
LINE
  5
35C
100
AcDbEntity
  8
RUNDUNGEN
100
AcDbLine
 62
7
  6
CONTINUOUS
 10
515.8405233741
 20
367.04274842
 11
534.8405233741
 21
367.04274842
  0
LINE
  5
35D
100
AcDbEntity
  8
0
100
AcDbLine
 62
7
  6
CONTINUOUS
 10
-73.8703906545
 20
369.04274842
 11
124.7955028448
 21
369.04274842
  0
LINE
  5
35E
100
AcDbEntity
  8
RUNDUNGEN
100
AcDbLine
 62
7
  6
CONTINUOUS
 10
178.8855439034
 20
369.04274842
 11
378.8126325583
 21
369.04274842
  0
LINE
  5
35F
100
AcDbEntity
  8
0
100
AcDbLine
 62
7
  6
CONTINUOUS
 10
178.8855439034
 20
369.04274842
 11
378.8126325583
 21
369.04274842
  0
LINE
  5
360
100
AcDbEntity
  8
RUNDUNGEN
100
AcDbLine
 62
7
  6
CONTINUOUS
 10
400.9336320656
 20
369.54274842
 11
380.1573041394
 21
369.54274842
  0
LINE
  5
361
100
AcDbEntity
  8
RUNDUNGEN
100
AcDbLine
 62
7
  6
CONTINUOUS
 10
177.1591512323
 20
369.54274842
 11
169.8405233741
 21
369.54274842
  0
LINE
  5
362
100
AcDbEntity
  8
RUNDUNGEN
100
AcDbLine
 62
7
  6
CONTINUOUS
 10
133.8405233741
 20
369.54274842
 11
126.5218955159
 21
369.54274842
  0
LINE
  5
363
100
AcDbEntity
  8
0
100
AcDbLine
 62
7
  6
CONTINUOUS
 10
126.5218955159
 20
369.54274842
 11
133.8405233741
 21
369.54274842
  0
LINE
  5
364
100
AcDbEntity
  8
0
100
AcDbLine
 62
7
  6
CONTINUOUS
 10
169.8405233741
 20
369.54274842
 11
177.1591512323
 21
369.54274842
  0
LINE
  5
365
100
AcDbEntity
  8
0
100
AcDbLine
 62
7
  6
CONTINUOUS
 10
380.1573041394
 20
369.54274842
 11
400.9336320656
 21
369.54274842
  0
LINE
  5
366
100
AcDbEntity
  8
0
100
AcDbLine
 62
7
  6
CONTINUOUS
 10
-96.6594766259
 20
373.04274842
 11
-82.7359705703
 21
373.04274842
  0
LINE
  5
367
100
AcDbEntity
  8
RUNDUNGEN
100
AcDbLine
 62
7
  6
CONTINUOUS
 10
-82.7359705703
 20
373.04274842
 11
-96.6594766259
 21
373.04274842
  0
LINE
  5
368
100
AcDbEntity
  8
0
100
AcDbLine
 62
7
  6
CONTINUOUS
 10
-137.6594766259
 20
374.04274842
 11
-140.1594766259
 21
374.04274842
  0
LINE
  5
369
100
AcDbEntity
  8
0
100
AcDbLine
 62
7
  6
CONTINUOUS
 10
560.8161638767
 20
381.04274842
 11
560.237449582
 21
381.04274842
  0
LINE
  5
36A
100
AcDbEntity
  8
BEZUGSACHSEN
100
AcDbLine
 62
7
  6
CONTINUOUS
 10
-203.1594766259
 20
381.04274842
 11
-257.1586778526
 21
381.04274842
  0
LINE
  5
36B
100
AcDbEntity
  8
RUNDUNGEN
100
AcDbLine
 62
7
  6
CONTINUOUS
 10
506.8405233741
 20
381.04274842
 11
560.237449582
 21
381.04274842
  0
LINE
  5
36C
100
AcDbEntity
  8
BEZUGSACHSEN
100
AcDbLine
 62
7
  6
CONTINUOUS
 10
560.237449582
 20
381.04274842
 11
560.8397246008
 21
381.04274842
  0
LINE
  5
36D
100
AcDbEntity
  8
0
100
AcDbLine
 62
7
  6
CONTINUOUS
 10
158.8405233741
 20
382.04274842
 11
144.8405233741
 21
382.04274842
  0
LINE
  5
36E
100
AcDbEntity
  8
0
100
AcDbLine
 62
7
  6
CONTINUOUS
 10
164.8405233741
 20
384.04274842
 11
158.8405233741
 21
384.04274842
  0
LINE
  5
36F
100
AcDbEntity
  8
0
100
AcDbLine
 62
7
  6
CONTINUOUS
 10
144.8405233741
 20
384.04274842
 11
138.8405233741
 21
384.04274842
  0
LINE
  5
370
100
AcDbEntity
  8
0
100
AcDbLine
 62
7
  6
CONTINUOUS
 10
514.038439405
 20
313.6491313861
 11
514.5592719436
 21
313.54274842
  0
LINE
  5
371
100
AcDbEntity
  8
0
100
AcDbLine
 62
7
  6
CONTINUOUS
 10
513.9342719436
 20
315.4576421068
 11
514.4551068664
 21
315.3512591408
  0
LINE
  5
372
100
AcDbEntity
  8
0
100
AcDbLine
 62
7
  6
CONTINUOUS
 10
525.288439405
 20
313.6491313861
 11
525.8092731357
 21
313.54274842
  0
LINE
  5
373
100
AcDbEntity
  8
0
100
AcDbLine
 62
7
  6
CONTINUOUS
 10
534.663439405
 20
313.6491313861
 11
535.1842728377
 21
313.54274842
  0
LINE
  5
374
100
AcDbEntity
  8
0
100
AcDbLine
 62
7
  6
CONTINUOUS
 10
515.4967719436
 20
318.4363654447
 11
514.975939405
 21
318.54274842
  0
LINE
  5
375
100
AcDbEntity
  8
0
100
AcDbLine
 62
7
  6
CONTINUOUS
 10
177.5011713756
 20
369.4824410408
 11
178.5435237601
 21
369.1030557992
  0
LINE
  5
376
100
AcDbEntity
  8
0
100
AcDbLine
 62
7
  6
CONTINUOUS
 10
261.8405233741
 20
330.04274842
 11
263.8405233741
 21
328.04274842
  0
LINE
  5
377
100
AcDbEntity
  8
0
100
AcDbLine
 62
7
  6
CONTINUOUS
 10
281.8405233741
 20
328.04274842
 11
286.8405233741
 21
323.04274842
  0
LINE
  5
378
100
AcDbEntity
  8
RUNDUNGEN
100
AcDbLine
 62
7
  6
CONTINUOUS
 10
364.8405233741
 20
346.5425071073
 11
364.8405233741
 21
331.5429916849
  0
LINE
  5
379
100
AcDbEntity
  8
0
100
AcDbLine
 62
7
  6
CONTINUOUS
 10
518.725939405
 20
315.1384932087
 11
518.100939405
 21
314.3938121484
  0
LINE
  5
37A
100
AcDbEntity
  8
0
100
AcDbLine
 62
7
  6
CONTINUOUS
 10
518.100939405
 20
313.54274842
 11
518.725939405
 21
314.2874291823
  0
LINE
  5
37B
100
AcDbEntity
  8
0
100
AcDbLine
 62
7
  6
CONTINUOUS
 10
534.2467728377
 20
318.2235994846
 11
533.8301059723
 21
317.7980675832
  0
LINE
  5
37C
100
AcDbEntity
  8
0
100
AcDbLine
 62
7
  6
CONTINUOUS
 10
537.0592727632
 20
313.8618973181
 11
537.475939405
 21
314.2874291823
  0
LINE
  5
37D
100
AcDbEntity
  8
0
100
AcDbLine
 62
7
  6
CONTINUOUS
 10
531.7467725396
 20
318.4363654447
 11
531.225939405
 21
318.54274842
  0
LINE
  5
37E
100
AcDbEntity
  8
0
100
AcDbLine
 62
7
  6
CONTINUOUS
 10
536.6426060468
 20
318.4363654447
 11
536.1217726886
 21
318.54274842
  0
LINE
  5
37F
100
AcDbEntity
  8
0
100
AcDbLine
 62
7
  6
CONTINUOUS
 10
535.1842728377
 20
314.1810462163
 11
534.7676059723
 21
314.2874291823
  0
LINE
  5
380
100
AcDbEntity
  8
0
100
AcDbLine
 62
7
  6
CONTINUOUS
 10
531.225939405
 20
317.9044505493
 11
531.6426062703
 21
317.7980675832
  0
LINE
  5
381
100
AcDbEntity
  8
0
100
AcDbLine
 62
7
  6
CONTINUOUS
 10
536.1217726886
 20
317.9044505493
 11
536.538439405
 21
317.7980675832
  0
LINE
  5
382
100
AcDbEntity
  8
0
100
AcDbLine
 62
7
  6
CONTINUOUS
 10
379.3862089946
 20
308.8619004643
 11
379.583727703
 21
308.7235963757
  0
LINE
  5
383
100
AcDbEntity
  8
0
100
AcDbLine
 62
7
  6
CONTINUOUS
 10
403.9171977517
 20
311.2291630302
 11
404.9786358949
 21
321.3280723702
  0
LINE
  5
384
100
AcDbEntity
  8
0
100
AcDbLine
 62
7
  6
CONTINUOUS
 10
513.5176068664
 20
317.3725356446
 11
513.725939405
 21
317.6916846172
  0
LINE
  5
385
100
AcDbEntity
  8
0
100
AcDbLine
 62
7
  6
CONTINUOUS
 10
515.913439405
 20
314.7129610465
 11
515.7051068664
 21
314.3938121484
  0
LINE
  5
386
100
AcDbEntity
  8
0
100
AcDbLine
 62
7
  6
CONTINUOUS
 10
513.413439405
 20
318.1172165186
 11
513.100939405
 21
317.6916846172
  0
LINE
  5
387
100
AcDbEntity
  8
0
100
AcDbLine
 62
7
  6
CONTINUOUS
 10
516.0176068664
 20
313.9682802842
 11
516.3301068664
 21
314.3938121484
  0
LINE
  5
388
100
AcDbEntity
  8
0
100
AcDbLine
 62
7
  6
CONTINUOUS
 10
524.8717731357
 20
315.883173971
 11
524.5592731357
 21
315.4576421068
  0
LINE
  5
389
100
AcDbEntity
  8
BEZUGSACHSEN
100
AcDbLine
 62
7
  6
CONTINUOUS
 10
574.1875991582
 20
306.0823830916
 11
568.6657813455
 21
300.3643733592
  0
LINE
  5
38A
100
AcDbEntity
  8
0
100
AcDbLine
 62
7
  6
CONTINUOUS
 10
-226.7115595221
 20
360.2874292568
 11
-227.1282257914
 21
360.1810462908
  0
LINE
  5
38B
100
AcDbEntity
  8
0
100
AcDbLine
 62
7
  6
CONTINUOUS
 10
-231.0865592241
 20
360.2874292568
 11
-231.5032260895
 21
360.1810462908
  0
LINE
  5
38C
100
AcDbEntity
  8
0
100
AcDbLine
 62
7
  6
CONTINUOUS
 10
-210.7740601182
 20
359.54274842
 11
-210.2532251954
 21
359.6491313954
  0
LINE
  5
38D
100
AcDbEntity
  8
0
100
AcDbLine
 62
7
  6
CONTINUOUS
 10
-211.2948926568
 20
362.7342376993
 11
-211.8157251954
 21
362.6278547333
  0
LINE
  5
38E
100
AcDbEntity
  8
0
100
AcDbLine
 62
7
  6
CONTINUOUS
 10
-227.1282257914
 20
359.54274842
 11
-226.6073926568
 21
359.6491313954
  0
LINE
  5
38F
100
AcDbEntity
  8
0
100
AcDbLine
 62
7
  6
CONTINUOUS
 10
-231.5032260895
 20
359.54274842
 11
-230.9823926568
 21
359.6491313954
  0
LINE
  5
390
100
AcDbEntity
  8
0
100
AcDbLine
 62
7
  6
CONTINUOUS
 10
-211.2948926568
 20
364.54274842
 11
-211.8157251954
 21
364.436365454
  0
LINE
  5
391
100
AcDbEntity
  8
0
100
AcDbLine
 62
7
  6
CONTINUOUS
 10
-232.4407259404
 20
364.54274842
 11
-232.9615592986
 21
364.436365454
  0
LINE
  5
392
100
AcDbEntity
  8
0
100
AcDbLine
 62
7
  6
CONTINUOUS
 10
514.4551068664
 20
314.0746632502
 11
514.1426068664
 21
314.1810462163
  0
LINE
  5
393
100
AcDbEntity
  8
0
100
AcDbLine
 62
7
  6
CONTINUOUS
 10
514.350939405
 20
315.883173971
 11
514.038439405
 21
315.989556937
  0
LINE
  5
394
100
AcDbEntity
  8
0
100
AcDbLine
 62
7
  6
CONTINUOUS
 10
525.7051056743
 20
314.0746632502
 11
525.3926056743
 21
314.1810462163
  0
LINE
  5
395
100
AcDbEntity
  8
0
100
AcDbLine
 62
7
  6
CONTINUOUS
 10
515.0801068664
 20
318.0108335153
 11
515.3926068664
 21
317.9044505493
  0
LINE
  5
396
100
AcDbEntity
  8
RUNDUNGEN
100
AcDbLine
 62
7
  6
CONTINUOUS
 10
404.9786358949
 20
356.7574244698
 11
403.9171977517
 21
366.8563338098
  0
LINE
  5
397
100
AcDbEntity
  8
0
100
AcDbLine
 62
7
  6
CONTINUOUS
 10
404.9786358949
 20
356.7574244698
 11
404.9786358949
 21
321.3280723702
  0
LINE
  5
398
100
AcDbEntity
  8
0
100
AcDbLine
 62
7
  6
CONTINUOUS
 10
529.8717725396
 20
317.2661526785
 11
530.0801062703
 21
317.5853015766
  0
LINE
  5
399
100
AcDbEntity
  8
0
100
AcDbLine
 62
7
  6
CONTINUOUS
 10
537.0592727632
 20
314.8193443105
 11
536.850939405
 21
314.5001951144
  0
LINE
  5
39A
100
AcDbEntity
  8
0
100
AcDbLine
 62
7
  6
CONTINUOUS
 10
-232.8573926568
 20
363.7980676577
 11
-232.4407259404
 21
363.9044506238
  0
LINE
  5
39B
100
AcDbEntity
  8
0
100
AcDbLine
 62
7
  6
CONTINUOUS
 10
534.2467728377
 20
313.8618973181
 11
534.663439405
 21
313.6491313861
  0
LINE
  5
39C
100
AcDbEntity
  8
0
100
AcDbLine
 62
7
  6
CONTINUOUS
 10
532.163439405
 20
318.2235994846
 11
531.7467725396
 21
318.4363654447
  0
LINE
  5
39D
100
AcDbEntity
  8
0
100
AcDbLine
 62
7
  6
CONTINUOUS
 10
537.0592727632
 20
318.2235994846
 11
536.6426060468
 21
318.4363654447
  0
LINE
  5
39E
100
AcDbEntity
  8
0
100
AcDbLine
 62
7
  6
CONTINUOUS
 10
513.413439405
 20
317.0533867464
 11
513.5176068664
 21
317.3725356446
  0
LINE
  5
39F
100
AcDbEntity
  8
0
100
AcDbLine
 62
7
  6
CONTINUOUS
 10
516.0176068664
 20
316.7342378483
 11
515.913439405
 21
316.4150888012
  0
LINE
  5
3A0
100
AcDbEntity
  8
0
100
AcDbLine
 62
7
  6
CONTINUOUS
 10
516.0176068664
 20
315.0321102426
 11
515.913439405
 21
314.7129610465
  0
LINE
  5
3A1
100
AcDbEntity
  8
0
100
AcDbLine
 62
7
  6
CONTINUOUS
 10
513.100939405
 20
317.6916846172
 11
512.8926068664
 21
317.1597697125
  0
LINE
  5
3A2
100
AcDbEntity
  8
0
100
AcDbLine
 62
7
  6
CONTINUOUS
 10
516.3301068664
 20
314.3938121484
 11
516.538439405
 21
314.9257272766
  0
LINE
  5
3A3
100
AcDbEntity
  8
0
100
AcDbLine
 62
7
  6
CONTINUOUS
 10
529.4551062703
 20
317.7980675832
 11
529.2467725396
 21
317.3725356446
  0
LINE
  5
3A4
100
AcDbEntity
  8
0
100
AcDbLine
 62
7
  6
CONTINUOUS
 10
537.475939405
 20
314.2874291823
 11
537.6842727352
 21
314.7129610465
  0
LINE
  5
3A5
100
AcDbEntity
  8
0
100
AcDbLine
 62
7
  6
CONTINUOUS
 10
513.5176068664
 20
313.9682802842
 11
514.038439405
 21
313.6491313861
  0
LINE
  5
3A6
100
AcDbEntity
  8
0
100
AcDbLine
 62
7
  6
CONTINUOUS
 10
513.413439405
 20
315.7767910049
 11
513.9342719436
 21
315.4576421068
  0
LINE
  5
3A7
100
AcDbEntity
  8
0
100
AcDbLine
 62
7
  6
CONTINUOUS
 10
516.0176068664
 20
318.1172165186
 11
515.4967719436
 21
318.4363654447
  0
LINE
  5
3A8
100
AcDbEntity
  8
0
100
AcDbLine
 62
7
  6
CONTINUOUS
 10
514.1426068664
 20
314.1810462163
 11
513.8301068664
 21
314.3938121484
  0
LINE
  5
3A9
100
AcDbEntity
  8
0
100
AcDbLine
 62
7
  6
CONTINUOUS
 10
514.038439405
 20
315.989556937
 11
513.725939405
 21
316.2023228691
  0
LINE
  5
3AA
100
AcDbEntity
  8
0
100
AcDbLine
 62
7
  6
CONTINUOUS
 10
515.3926068664
 20
317.9044505493
 11
515.7051068664
 21
317.6916846172
  0
LINE
  5
3AB
100
AcDbEntity
  8
0
100
AcDbLine
 62
7
  6
CONTINUOUS
 10
534.7676059723
 20
314.2874291823
 11
534.4551059723
 21
314.5001951144
  0
LINE
  5
3AC
100
AcDbEntity
  8
0
100
AcDbLine
 62
7
  6
CONTINUOUS
 10
531.6426062703
 20
317.7980675832
 11
531.9551062703
 21
317.5853015766
  0
LINE
  5
3AD
100
AcDbEntity
  8
0
100
AcDbLine
 62
7
  6
CONTINUOUS
 10
516.1217719436
 20
315.6704080389
 11
516.0176068664
 21
315.0321102426
  0
LINE
  5
3AE
100
AcDbEntity
  8
0
100
AcDbLine
 62
7
  6
CONTINUOUS
 10
529.7676062703
 20
316.8406208143
 11
529.8717725396
 21
317.2661526785
  0
LINE
  5
3AF
100
AcDbEntity
  8
0
100
AcDbLine
 62
7
  6
CONTINUOUS
 10
524.5592731357
 20
315.4576421068
 11
524.4551056743
 21
315.1384932087
  0
LINE
  5
3B0
100
AcDbEntity
  8
0
100
AcDbLine
 62
7
  6
CONTINUOUS
 10
525.0801056743
 20
315.0321102426
 11
525.1842731357
 21
315.3512591408
  0
LINE
  5
3B1
100
AcDbEntity
  8
0
100
AcDbLine
 62
7
  6
CONTINUOUS
 10
534.350939405
 20
317.2661526785
 11
534.4551059723
 21
317.5853015766
  0
LINE
  5
3B2
100
AcDbEntity
  8
0
100
AcDbLine
 62
7
  6
CONTINUOUS
 10
536.538439405
 20
317.7980675832
 11
536.850939405
 21
317.5853015766
  0
LINE
  5
3B3
100
AcDbEntity
  8
0
100
AcDbLine
 62
7
  6
CONTINUOUS
 10
524.8717731357
 20
313.9682802842
 11
525.288439405
 21
313.6491313861
  0
LINE
  5
3B4
100
AcDbEntity
  8
0
100
AcDbLine
 62
7
  6
CONTINUOUS
 10
513.100939405
 20
316.095939903
 11
513.413439405
 21
315.7767910049
  0
LINE
  5
3B5
100
AcDbEntity
  8
0
100
AcDbLine
 62
7
  6
CONTINUOUS
 10
513.725939405
 20
316.2023228691
 11
513.5176068664
 21
316.4150888012
  0
LINE
  5
3B6
100
AcDbEntity
  8
BEZUGSACHSEN
100
AcDbLine
 62
7
  6
CONTINUOUS
 10
501.8405233741
 20
302.04274842
 11
501.8405233741
 21
376.04274842
  0
LINE
  5
3B7
100
AcDbEntity
  8
0
100
AcDbLine
 62
7
  6
CONTINUOUS
 10
512.8926068664
 20
317.1597697125
 11
512.8926068664
 21
316.6278547333
  0
LINE
  5
3B8
100
AcDbEntity
  8
0
100
AcDbLine
 62
7
  6
CONTINUOUS
 10
513.413439405
 20
316.7342378483
 11
513.413439405
 21
317.0533867464
  0
LINE
  5
3B9
100
AcDbEntity
  8
0
100
AcDbLine
 62
7
  6
CONTINUOUS
 10
516.0176068664
 20
317.0533867464
 11
516.0176068664
 21
316.7342378483
  0
LINE
  5
3BA
100
AcDbEntity
  8
0
100
AcDbLine
 62
7
  6
CONTINUOUS
 10
516.1217719436
 20
315.883173971
 11
516.1217719436
 21
315.6704080389
  0
LINE
  5
3BB
100
AcDbEntity
  8
0
100
AcDbLine
 62
7
  6
CONTINUOUS
 10
516.6426068664
 20
315.6704080389
 11
516.6426068664
 21
316.4150888012
  0
LINE
  5
3BC
100
AcDbEntity
  8
0
100
AcDbLine
 62
7
  6
CONTINUOUS
 10
517.475939405
 20
318.54274842
 11
517.475939405
 21
313.54274842
  0
LINE
  5
3BD
100
AcDbEntity
  8
0
100
AcDbLine
 62
7
  6
CONTINUOUS
 10
518.100939405
 20
314.3938121484
 11
518.100939405
 21
318.54274842
  0
LINE
  5
3BE
100
AcDbEntity
  8
0
100
AcDbLine
 62
7
  6
CONTINUOUS
 10
518.725939405
 20
314.2874291823
 11
518.725939405
 21
315.1384932087
  0
LINE
  5
3BF
100
AcDbEntity
  8
0
100
AcDbLine
 62
7
  6
CONTINUOUS
 10
519.5592731357
 20
314.0746632502
 11
519.5592731357
 21
313.54274842
  0
LINE
  5
3C0
100
AcDbEntity
  8
0
100
AcDbLine
 62
7
  6
CONTINUOUS
 10
521.225939405
 20
318.54274842
 11
521.225939405
 21
314.0746632502
  0
LINE
  5
3C1
100
AcDbEntity
  8
0
100
AcDbLine
 62
7
  6
CONTINUOUS
 10
521.850939405
 20
314.0746632502
 11
521.850939405
 21
318.54274842
  0
LINE
  5
3C2
100
AcDbEntity
  8
0
100
AcDbLine
 62
7
  6
CONTINUOUS
 10
523.5176056743
 20
313.54274842
 11
523.5176056743
 21
314.0746632502
  0
LINE
  5
3C3
100
AcDbEntity
  8
0
100
AcDbLine
 62
7
  6
CONTINUOUS
 10
524.4551056743
 20
315.1384932087
 11
524.4551056743
 21
314.7129610465
  0
LINE
  5
3C4
100
AcDbEntity
  8
0
100
AcDbLine
 62
7
  6
CONTINUOUS
 10
525.0801056743
 20
314.7129610465
 11
525.0801056743
 21
315.0321102426
  0
LINE
  5
3C5
100
AcDbEntity
  8
0
100
AcDbLine
 62
7
  6
CONTINUOUS
 10
516.538439405
 20
314.9257272766
 11
516.6426068664
 21
315.6704080389
  0
LINE
  5
3C6
100
AcDbEntity
  8
0
100
AcDbLine
 62
7
  6
CONTINUOUS
 10
529.2467725396
 20
317.3725356446
 11
529.1426062703
 21
316.8406208143
  0
LINE
  5
3C7
100
AcDbEntity
  8
0
100
AcDbLine
 62
7
  6
CONTINUOUS
 10
533.8301059723
 20
317.7980675832
 11
533.725939405
 21
317.2661526785
  0
LINE
  5
3C8
100
AcDbEntity
  8
0
100
AcDbLine
 62
7
  6
CONTINUOUS
 10
537.6842727352
 20
314.7129610465
 11
537.788439405
 21
315.2448761747
  0
LINE
  5
3C9
100
AcDbEntity
  8
0
100
AcDbLine
 62
7
  6
CONTINUOUS
 10
537.163439405
 20
315.2448761747
 11
537.0592727632
 21
314.8193443105
  0
LINE
  5
3CA
100
AcDbEntity
  8
0
100
AcDbLine
 62
7
  6
CONTINUOUS
 10
525.3926056743
 20
314.1810462163
 11
525.1842731357
 21
314.3938121484
  0
LINE
  5
3CB
100
AcDbEntity
  8
0
100
AcDbLine
 62
7
  6
CONTINUOUS
 10
533.8301059723
 20
314.2874291823
 11
534.2467728377
 21
313.8618973181
  0
LINE
  5
3CC
100
AcDbEntity
  8
0
100
AcDbLine
 62
7
  6
CONTINUOUS
 10
532.5801062703
 20
317.7980675832
 11
532.163439405
 21
318.2235994846
  0
LINE
  5
3CD
100
AcDbEntity
  8
0
100
AcDbLine
 62
7
  6
CONTINUOUS
 10
537.475939405
 20
317.7980675832
 11
537.0592727632
 21
318.2235994846
  0
LINE
  5
3CE
100
AcDbEntity
  8
0
100
AcDbLine
 62
7
  6
CONTINUOUS
 10
513.2051068664
 20
314.3938121484
 11
513.5176068664
 21
313.9682802842
  0
LINE
  5
3CF
100
AcDbEntity
  8
0
100
AcDbLine
 62
7
  6
CONTINUOUS
 10
516.3301068664
 20
317.6916846172
 11
516.0176068664
 21
318.1172165186
  0
LINE
  5
3D0
100
AcDbEntity
  8
0
100
AcDbLine
 62
7
  6
CONTINUOUS
 10
524.5592731357
 20
314.3938121484
 11
524.8717731357
 21
313.9682802842
  0
LINE
  5
3D1
100
AcDbEntity
  8
0
100
AcDbLine
 62
7
  6
CONTINUOUS
 10
513.8301068664
 20
314.3938121484
 11
513.6217719436
 21
314.7129610465
  0
LINE
  5
3D2
100
AcDbEntity
  8
0
100
AcDbLine
 62
7
  6
CONTINUOUS
 10
515.7051068664
 20
317.6916846172
 11
515.913439405
 21
317.3725356446
  0
LINE
  5
3D3
100
AcDbEntity
  8
0
100
AcDbLine
 62
7
  6
CONTINUOUS
 10
527.6842731357
 20
318.54274842
 11
527.6842731357
 21
316.3087058351
  0
LINE
  5
3D4
100
AcDbEntity
  8
0
100
AcDbLine
 62
7
  6
CONTINUOUS
 10
527.6842731357
 20
315.6704080389
 11
527.6842731357
 21
314.0746632502
  0
LINE
  5
3D5
100
AcDbEntity
  8
0
100
AcDbLine
 62
7
  6
CONTINUOUS
 10
528.3092725396
 20
313.54274842
 11
528.3092725396
 21
318.54274842
  0
LINE
  5
3D6
100
AcDbEntity
  8
0
100
AcDbLine
 62
7
  6
CONTINUOUS
 10
529.1426062703
 20
316.8406208143
 11
529.1426062703
 21
313.54274842
  0
LINE
  5
3D7
100
AcDbEntity
  8
0
100
AcDbLine
 62
7
  6
CONTINUOUS
 10
529.7676062703
 20
313.54274842
 11
529.7676062703
 21
316.8406208143
  0
LINE
  5
3D8
100
AcDbEntity
  8
0
100
AcDbLine
 62
7
  6
CONTINUOUS
 10
532.2676062703
 20
316.8406208143
 11
532.2676062703
 21
313.54274842
  0
LINE
  5
3D9
100
AcDbEntity
  8
0
100
AcDbLine
 62
7
  6
CONTINUOUS
 10
532.8926059723
 20
313.54274842
 11
532.8926059723
 21
316.8406208143
  0
LINE
  5
3DA
100
AcDbEntity
  8
0
100
AcDbLine
 62
7
  6
CONTINUOUS
 10
537.163439405
 20
316.8406208143
 11
537.163439405
 21
315.2448761747
  0
LINE
  5
3DB
100
AcDbEntity
  8
0
100
AcDbLine
 62
7
  6
CONTINUOUS
 10
537.788439405
 20
315.2448761747
 11
537.788439405
 21
316.8406208143
  0
LINE
  5
3DC
100
AcDbEntity
  8
BEZUGSACHSEN
100
AcDbLine
 62
7
  6
CONTINUOUS
 10
540.8405233741
 20
348.49274842
 11
540.8405233741
 21
329.59274842
  0
LINE
  5
3DD
100
AcDbEntity
  8
0
100
AcDbLine
 62
7
  6
CONTINUOUS
 10
531.9551062703
 20
317.5853015766
 11
532.163439405
 21
317.2661526785
  0
LINE
  5
3DE
100
AcDbEntity
  8
0
100
AcDbLine
 62
7
  6
CONTINUOUS
 10
536.850939405
 20
317.5853015766
 11
537.0592727632
 21
317.2661526785
  0
LINE
  5
3DF
100
AcDbEntity
  8
0
100
AcDbLine
 62
7
  6
CONTINUOUS
 10
532.788439405
 20
317.3725356446
 11
532.5801062703
 21
317.7980675832
  0
LINE
  5
3E0
100
AcDbEntity
  8
0
100
AcDbLine
 62
7
  6
CONTINUOUS
 10
537.6842727352
 20
317.3725356446
 11
537.475939405
 21
317.7980675832
  0
LINE
  5
3E1
100
AcDbEntity
  8
0
100
AcDbLine
 62
7
  6
CONTINUOUS
 10
512.8926068664
 20
316.6278547333
 11
513.100939405
 21
316.095939903
  0
LINE
  5
3E2
100
AcDbEntity
  8
0
100
AcDbLine
 62
7
  6
CONTINUOUS
 10
516.538439405
 20
317.1597697125
 11
516.3301068664
 21
317.6916846172
  0
LINE
  5
3E3
100
AcDbEntity
  8
0
100
AcDbLine
 62
7
  6
CONTINUOUS
 10
524.350939405
 20
318.54274842
 11
525.288439405
 21
316.095939903
  0
LINE
  5
3E4
100
AcDbEntity
  8
0
100
AcDbLine
 62
7
  6
CONTINUOUS
 10
525.913439405
 20
316.3087058351
 11
525.0801056743
 21
318.54274842
  0
LINE
  5
3E5
100
AcDbEntity
  8
0
100
AcDbLine
 62
7
  6
CONTINUOUS
 10
513.100939405
 20
314.7129610465
 11
513.2051068664
 21
314.3938121484
  0
LINE
  5
3E6
100
AcDbEntity
  8
0
100
AcDbLine
 62
7
  6
CONTINUOUS
 10
513.5176068664
 20
316.4150888012
 11
513.413439405
 21
316.7342378483
  0
LINE
  5
3E7
100
AcDbEntity
  8
0
100
AcDbLine
 62
7
  6
CONTINUOUS
 10
515.913439405
 20
317.3725356446
 11
516.0176068664
 21
317.0533867464
  0
LINE
  5
3E8
100
AcDbEntity
  8
0
100
AcDbLine
 62
7
  6
CONTINUOUS
 10
524.4551056743
 20
314.7129610465
 11
524.5592731357
 21
314.3938121484
  0
LINE
  5
3E9
100
AcDbEntity
  8
0
100
AcDbLine
 62
7
  6
CONTINUOUS
 10
525.1842731357
 20
314.3938121484
 11
525.0801056743
 21
314.7129610465
  0
LINE
  5
3EA
100
AcDbEntity
  8
0
100
AcDbLine
 62
7
  6
CONTINUOUS
 10
534.4551059723
 20
314.5001951144
 11
534.350939405
 21
314.8193443105
  0
LINE
  5
3EB
100
AcDbEntity
  8
0
100
AcDbLine
 62
7
  6
CONTINUOUS
 10
532.163439405
 20
317.2661526785
 11
532.2676062703
 21
316.8406208143
  0
LINE
  5
3EC
100
AcDbEntity
  8
0
100
AcDbLine
 62
7
  6
CONTINUOUS
 10
537.0592727632
 20
317.2661526785
 11
537.163439405
 21
316.8406208143
  0
LINE
  5
3ED
100
AcDbEntity
  8
0
100
AcDbLine
 62
7
  6
CONTINUOUS
 10
532.8926059723
 20
316.8406208143
 11
532.788439405
 21
317.3725356446
  0
LINE
  5
3EE
100
AcDbEntity
  8
0
100
AcDbLine
 62
7
  6
CONTINUOUS
 10
533.725939405
 20
314.8193443105
 11
533.8301059723
 21
314.2874291823
  0
LINE
  5
3EF
100
AcDbEntity
  8
0
100
AcDbLine
 62
7
  6
CONTINUOUS
 10
537.788439405
 20
316.8406208143
 11
537.6842727352
 21
317.3725356446
  0
LINE
  5
3F0
100
AcDbEntity
  8
0
100
AcDbLine
 62
7
  6
CONTINUOUS
 10
516.6426068664
 20
316.4150888012
 11
516.538439405
 21
317.1597697125
  0
LINE
  5
3F1
100
AcDbEntity
  8
BEZUGSACHSEN
100
AcDbLine
 62
7
  6
CONTINUOUS
 10
560.8405233741
 20
348.49274842
 11
560.8405233741
 21
329.59274842
  0
LINE
  5
3F2
100
AcDbEntity
  8
0
100
AcDbLine
 62
7
  6
CONTINUOUS
 10
568.6657813455
 20
377.7211234808
 11
574.1875991582
 21
372.0031137485
  0
LINE
  5
3F3
100
AcDbEntity
  8
BEZUGSACHSEN
100
AcDbLine
 62
7
  6
CONTINUOUS
 10
752.1310331447
 20
300.04274842
 11
752.1310331447
 21
378.04274842
  0
LINE
  5
3F4
100
AcDbEntity
  8
RUNDUNGEN
100
AcDbLine
 62
7
  6
CONTINUOUS
 10
756.9424833625
 20
263.260654738
 11
759.5695829934
 21
229.8248412538
  0
LINE
  5
3F5
100
AcDbEntity
  8
BEZUGSACHSEN
100
AcDbLine
 62
7
  6
CONTINUOUS
 10
752.1310331447
 20
361.4765950072
 11
752.1311606123
 21
361.4489401835
  0
LINE
  5
3F6
100
AcDbEntity
  8
RUNDUNGEN
100
AcDbLine
 62
7
  6
CONTINUOUS
 10
756.8810331447
 20
295.043458653
 11
756.8810331447
 21
264.8272260921
  0
LINE
  5
3F7
100
AcDbEntity
  8
RUNDUNGEN
100
AcDbLine
 62
7
  6
CONTINUOUS
 10
759.6310331447
 20
228.2582379837
 11
759.6310331447
 21
35.04274842
  0
LINE
  5
3F8
100
AcDbEntity
  8
BEZUGSACHSEN
100
AcDbLine
 62
7
  6
CONTINUOUS
 10
765.6310331447
 20
329.59274842
 11
765.6310331447
 21
348.49274842
  0
LINE
  5
3F9
100
AcDbEntity
  8
BEZUGSACHSEN
100
AcDbLine
 62
7
  6
CONTINUOUS
 10
785.6310331447
 20
329.59274842
 11
785.6310331447
 21
348.49274842
  0
LINE
  5
3FA
100
AcDbEntity
  8
RUNDUNGEN
100
AcDbLine
 62
7
  6
CONTINUOUS
 10
791.692483294
 20
229.8248412292
 11
794.3195829109
 21
263.2606545358
  0
LINE
  5
3FB
100
AcDbEntity
  8
RUNDUNGEN
100
AcDbLine
 62
7
  6
CONTINUOUS
 10
799.1310331447
 20
316.6089018329
 11
799.1309056762
 21
316.6365567573
  0
LINE
  5
3FC
100
AcDbEntity
  8
RUNDUNGEN
100
AcDbLine
 62
7
  6
CONTINUOUS
 10
791.6310331447
 20
35.04274842
 11
791.6310331447
 21
228.2582381191
  0
LINE
  5
3FD
100
AcDbEntity
  8
RUNDUNGEN
100
AcDbLine
 62
7
  6
CONTINUOUS
 10
794.3810331447
 20
264.8272537887
 11
794.3810331447
 21
295.043458653
  0
LINE
  5
3FE
100
AcDbEntity
  8
RUNDUNGEN
100
AcDbLine
 62
7
  6
CONTINUOUS
 10
799.1310331447
 20
326.59274842
 11
799.1310331447
 21
300.04274842
  0
LINE
  5
3FF
100
AcDbEntity
  8
BEZUGSACHSEN
100
AcDbLine
 62
7
  6
CONTINUOUS
 10
799.1310331447
 20
326.59274842
 11
799.1310331447
 21
378.04274842
  0
LINE
  5
400
100
AcDbEntity
  8
RUNDUNGEN
100
AcDbLine
 62
7
  6
CONTINUOUS
 10
796.1310331447
 20
297.04274842
 11
779.0512345779
 21
297.04274842
  0
LINE
  5
401
100
AcDbEntity
  8
BEZUGSACHSEN
100
AcDbLine
 62
7
  6
CONTINUOUS
 10
755.1310331447
 20
297.04274842
 11
779.0512345779
 21
297.04274842
  0
LINE
  5
402
100
AcDbEntity
  8
0
100
AcDbLine
 62
7
  6
CONTINUOUS
 10
772.2108317114
 20
297.04274842
 11
779.0512345779
 21
297.04274842
  0
LINE
  5
403
100
AcDbEntity
  8
BEZUGSACHSEN
100
AcDbLine
 62
7
  6
CONTINUOUS
 10
755.1310331447
 20
329.59274842
 11
793.1400322652
 21
329.59274842
  0
LINE
  5
404
100
AcDbEntity
  8
RUNDUNGEN
100
AcDbLine
 62
7
  6
CONTINUOUS
 10
758.1220340241
 20
329.59274842
 11
796.1310331447
 21
329.59274842
  0
LINE
  5
405
100
AcDbEntity
  8
BEZUGSACHSEN
100
AcDbLine
 62
7
  6
CONTINUOUS
 10
755.1310331447
 20
348.49274842
 11
796.1310331447
 21
348.49274842
  0
LINE
  5
406
100
AcDbEntity
  8
BEZUGSACHSEN
100
AcDbLine
 62
7
  6
CONTINUOUS
 10
755.1310331447
 20
381.04274842
 11
796.1310331447
 21
381.04274842
  0
LWPOLYLINE
  5
407
100
AcDbEntity
  8
BEZUGSACHSEN
100
AcDbPolyline
 62
7
  6
CONTINUOUS
 90
7
 70
0
 10
-272.471173355
 20
-114.3039309151
 10
-272.4406212525
 20
-115.5520532623
 10
-272.3154080026
 20
-117.1187065987
 10
-272.0939869398
 20
-118.6745904179
 10
-271.7771992798
 20
-120.2138105318
 10
-271.3661744737
 20
-121.7307547375
 10
-270.9646496048
 20
-122.9408474189
  0
LWPOLYLINE
  5
408
100
AcDbEntity
  8
RUNDUNGEN
100
AcDbPolyline
 62
7
  6
CONTINUOUS
 90
7
 70
0
 10
-272.471173355
 20
-114.3039309151
 10
-272.4406212525
 20
-115.5520532619
 10
-272.3154080026
 20
-117.1187065984
 10
-272.0939869398
 20
-118.6745904177
 10
-271.7771992798
 20
-120.2138105317
 10
-271.3661744737
 20
-121.7307547374
 10
-270.9646496048
 20
-122.9408474189
  0
LWPOLYLINE
  5
409
100
AcDbEntity
  8
BEZUGSACHSEN
100
AcDbPolyline
 62
7
  6
CONTINUOUS
 90
7
 70
0
 10
-270.9646496048
 20
-105.6670144113
 10
-271.3661744737
 20
-106.8771070927
 10
-271.7771992798
 20
-108.3940512983
 10
-272.0939869398
 20
-109.9332714122
 10
-272.3154080026
 20
-111.4891552314
 10
-272.4406212525
 20
-113.0558085677
 10
-272.471173355
 20
-114.3039309151
  0
LWPOLYLINE
  5
40A
100
AcDbEntity
  8
BEZUGSACHSEN
100
AcDbPolyline
 62
7
  6
CONTINUOUS
 90
10
 70
0
 10
-270.9646506334
 20
-122.9408485163
 10
-270.4069386639
 20
-124.3888205515
 10
-269.6182910264
 20
-126.1656601107
 10
-268.7077333239
 20
-127.9413328656
 10
-267.6734659796
 20
-129.7037968105
 10
-266.5163722524
 20
-131.4401828861
 10
-265.2397768619
 20
-133.1382342145
 10
-263.8483687968
 20
-134.7879251397
 10
-262.3493020568
 20
-136.3800973288
 10
-261.7635382763
 20
-136.958498857
  0
LWPOLYLINE
  5
40B
100
AcDbEntity
  8
RUNDUNGEN
100
AcDbPolyline
 62
7
  6
CONTINUOUS
 90
10
 70
0
 10
-270.9646506334
 20
-122.9408485163
 10
-270.4069386639
 20
-124.3888205515
 10
-269.6182910264
 20
-126.1656601107
 10
-268.7077333239
 20
-127.9413328656
 10
-267.6734659796
 20
-129.7037968105
 10
-266.5163722524
 20
-131.4401828861
 10
-265.2397768619
 20
-133.1382342145
 10
-263.8483687968
 20
-134.7879251397
 10
-262.3493020568
 20
-136.3800973288
 10
-261.7635382763
 20
-136.958498857
  0
LINE
  5
40C
100
AcDbEntity
  8
BEZUGSACHSEN
100
AcDbLine
 62
7
  6
CONTINUOUS
 10
-198.1594766259
 20
-93.8039309151
 11
-198.1594766259
 21
-134.8039309151
  0
LINE
  5
40D
100
AcDbEntity
  8
RUNDUNGEN
100
AcDbLine
 62
7
  6
CONTINUOUS
 10
-142.6594766259
 20
-146.8039309151
 11
-142.6594766259
 21
-81.8039309151
  0
LINE
  5
40E
100
AcDbEntity
  8
RUNDUNGEN
100
AcDbLine
 62
7
  6
CONTINUOUS
 10
-136.6594766259
 20
-80.3039309151
 11
-136.6594766259
 21
-148.3039309151
  0
LWPOLYLINE
  5
40F
100
AcDbEntity
  8
BEZUGSACHSEN
100
AcDbPolyline
 62
7
  6
CONTINUOUS
 90
10
 70
0
 10
-261.7635382763
 20
-91.6493629732
 10
-262.3493020568
 20
-92.2277645014
 10
-263.8483687968
 20
-93.8199366905
 10
-265.2397768619
 20
-95.4696276157
 10
-266.5163722524
 20
-97.1676789441
 10
-267.6734659796
 20
-98.9040650197
 10
-268.7077333239
 20
-100.6665289646
 10
-269.6182910264
 20
-102.4422017195
 10
-270.4069386639
 20
-104.2190412787
 10
-270.9646506334
 20
-105.667013314
  0
LINE
  5
410
100
AcDbEntity
  8
BEZUGSACHSEN
100
AcDbLine
 62
7
  6
CONTINUOUS
 10
-261.7620661802
 20
-91.6479387061
 11
-261.7625987135
 21
-91.6484530694
  0
LINE
  5
411
100
AcDbEntity
  8
BEZUGSACHSEN
100
AcDbLine
 62
7
  6
CONTINUOUS
 10
-261.632322465
 20
-91.5296099579
 11
-261.7625869282
 21
-91.6484926338
  0
LINE
  5
412
100
AcDbEntity
  8
RUNDUNGEN
100
AcDbLine
 62
7
  6
CONTINUOUS
 10
-261.7625869282
 20
-136.9593691964
 11
-261.632322465
 21
-137.0782518723
  0
LWPOLYLINE
  5
413
100
AcDbEntity
  8
BEZUGSACHSEN
100
AcDbPolyline
 62
7
  6
CONTINUOUS
 90
8
 70
0
 10
-261.7625869291
 20
-136.9593691956
 10
-261.6424093771
 20
-137.0695366547
 10
-261.3591688171
 20
-137.2872028941
 10
-261.0520612785
 20
-137.4696653291
 10
-260.7254399106
 20
-137.6143366647
 10
-260.3839342281
 20
-137.7191652409
 10
-260.032384646
 20
-137.7826638915
 10
-259.6757753902
 20
-137.8039309151
  0
LINE
  5
414
100
AcDbEntity
  8
BEZUGSACHSEN
100
AcDbLine
 62
7
  6
CONTINUOUS
 10
-261.7620661803
 20
-136.959923124
 11
-261.7625987135
 21
-136.9594087608
  0
LINE
  5
415
100
AcDbEntity
  8
RUNDUNGEN
100
AcDbLine
 62
7
  6
CONTINUOUS
 10
-261.7620661802
 20
-136.9599231241
 11
-261.7625987135
 21
-136.9594087608
  0
LINE
  5
416
100
AcDbEntity
  8
BEZUGSACHSEN
100
AcDbLine
 62
7
  6
CONTINUOUS
 10
-261.3499616276
 20
-91.3144432877
 11
-261.6424093771
 21
-91.5383251755
  0
LINE
  5
417
100
AcDbEntity
  8
RUNDUNGEN
100
AcDbLine
 62
7
  6
CONTINUOUS
 10
-261.632322465
 20
-137.0782518723
 11
-261.3499616276
 21
-137.2934185425
  0
LINE
  5
418
100
AcDbEntity
  8
RUNDUNGEN
100
AcDbLine
 62
7
  6
CONTINUOUS
 10
-99.6594766259
 20
-145.3039309151
 11
-99.6594766259
 21
-83.3039309151
  0
LINE
  5
419
100
AcDbEntity
  8
BEZUGSACHSEN
100
AcDbLine
 62
7
  6
CONTINUOUS
 10
-261.044158142
 20
-91.1341316741
 11
-261.3591688171
 21
-91.3206589361
  0
LINE
  5
41A
100
AcDbEntity
  8
RUNDUNGEN
100
AcDbLine
 62
7
  6
CONTINUOUS
 10
-261.3499616276
 20
-137.2934185425
 11
-261.044158142
 21
-137.4737301561
  0
LINE
  5
41B
100
AcDbEntity
  8
RUNDUNGEN
100
AcDbLine
 62
7
  6
CONTINUOUS
 10
-61.2020259743
 20
-140.6233604513
 11
-61.2026209325
 21
-140.6258008005
  0
LINE
  5
41C
100
AcDbEntity
  8
0
100
AcDbLine
 62
7
  6
CONTINUOUS
 10
-65.3426949592
 20
-84.3040116428
 11
-64.234016663
 21
-91.3039309151
  0
LINE
  5
41D
100
AcDbEntity
  8
0
100
AcDbLine
 62
7
  6
CONTINUOUS
 10
-23.0219766259
 20
-91.3039309151
 11
-23.0219766259
 21
-90.3039309151
  0
LINE
  5
41E
100
AcDbEntity
  8
0
100
AcDbLine
 62
7
  6
CONTINUOUS
 10
-17.3719766259
 20
-91.3039309151
 11
-17.3719766259
 21
-90.3039309151
  0
LWPOLYLINE
  5
41F
100
AcDbEntity
  8
RUNDUNGEN
100
AcDbPolyline
 62
7
  6
CONTINUOUS
 90
4
 70
0
 10
-61.2282154026
 20
-140.7148802731
 10
-61.2250615757
 20
-140.7083406388
 10
-61.1988753104
 20
-140.6584076482
 10
-61.1521747602
 20
-140.5785196292
  0
LINE
  5
420
100
AcDbEntity
  8
RUNDUNGEN
100
AcDbLine
 62
7
  6
CONTINUOUS
 10
-261.044158142
 20
-137.4737301561
 11
-260.7191930149
 21
-137.616661555
  0
LINE
  5
421
100
AcDbEntity
  8
0
100
AcDbLine
 62
7
  6
CONTINUOUS
 10
-11.7219766259
 20
-91.3039309151
 11
-11.7219766259
 21
-90.3039309151
  0
LINE
  5
422
100
AcDbEntity
  8
RUNDUNGEN
100
AcDbLine
 62
7
  6
CONTINUOUS
 10
-61.1521747602
 20
-140.5785196292
 11
-61.0835394298
 21
-140.4716215079
  0
LINE
  5
423
100
AcDbEntity
  8
RUNDUNGEN
100
AcDbLine
 62
7
  6
CONTINUOUS
 10
-61.0877227592
 20
-140.4778933763
 11
-60.9914035202
 21
-140.3394346707
  0
LINE
  5
424
100
AcDbEntity
  8
RUNDUNGEN
100
AcDbLine
 62
7
  6
CONTINUOUS
 10
-60.9968828728
 20
-140.3470273701
 11
-60.8748903926
 21
-140.1840363926
  0
LWPOLYLINE
  5
425
100
AcDbEntity
  8
RUNDUNGEN
100
AcDbPolyline
 62
7
  6
CONTINUOUS
 90
26
 70
0
 10
-60.8818165881
 20
-140.1929799336
 10
-60.7327422922
 20
-140.0065167719
 10
-60.5641526891
 20
-139.8083250723
 10
-60.3676069926
 20
-139.5899458906
 10
-60.1414943492
 20
-139.3518134834
 10
-59.8852519203
 20
-139.0955643766
 10
-59.5975853749
 20
-138.822156041
 10
-59.2799667246
 20
-138.5351651395
 10
-58.9337849393
 20
-138.2379272679
 10
-58.5607319891
 20
-137.9339223307
 10
-58.1630719801
 20
-137.6269371212
 10
-57.7432667547
 20
-137.3208159793
 10
-57.3042519482
 20
-137.0195912713
 10
-56.8492754498
 20
-136.7272641809
 10
-56.3828436356
 20
-136.4483124659
 10
-55.9068827076
 20
-136.18535737
 10
-55.425422643
 20
-135.9419301444
 10
-54.9381634068
 20
-135.7190879917
 10
-54.446048663
 20
-135.518750061
 10
-53.9493796583
 20
-135.3424564413
 10
-53.4480393788
 20
-135.1917790786
 10
-52.9448048816
 20
-135.0690128662
 10
-52.4411788482
 20
-134.9755491962
 10
-51.9408498798
 20
-134.9126290075
 10
-51.4473525695
 20
-134.88029567
 10
-51.1594782436
 20
-134.8752128874
  0
LWPOLYLINE
  5
426
100
AcDbEntity
  8
BEZUGSACHSEN
100
AcDbPolyline
 62
7
  6
CONTINUOUS
 90
3
 70
0
 10
-260.3796152685
 20
-90.8876509963
 10
-260.7191930149
 20
-90.9912002752
 10
-261.0520612785
 20
-91.1381965011
  0
LINE
  5
427
100
AcDbEntity
  8
RUNDUNGEN
100
AcDbLine
 62
7
  6
CONTINUOUS
 10
-260.7191930149
 20
-137.616661555
 11
-260.3817508976
 21
-137.719559605
  0
LINE
  5
428
100
AcDbEntity
  8
RUNDUNGEN
100
AcDbLine
 62
7
  6
CONTINUOUS
 10
-79.9041536025
 20
-145.6248557651
 11
-76.7737043324
 21
-143.4997659216
  0
LINE
  5
429
100
AcDbEntity
  8
RUNDUNGEN
100
AcDbLine
 62
7
  6
CONTINUOUS
 10
-76.7737214973
 20
-143.4997874454
 11
-76.5688310666
 21
-143.3678028743
  0
LINE
  5
42A
100
AcDbEntity
  8
RUNDUNGEN
100
AcDbLine
 62
7
  6
CONTINUOUS
 10
-76.5835049397
 20
-143.3767953727
 11
-76.1886944098
 21
-143.1575727875
  0
LWPOLYLINE
  5
42B
100
AcDbEntity
  8
RUNDUNGEN
100
AcDbPolyline
 62
7
  6
CONTINUOUS
 90
11
 70
0
 10
-89.2764129528
 20
-146.983561506
 10
-89.2843521872
 20
-146.9879099552
 10
-89.2765237463
 20
-146.9840619718
 10
-89.2503408129
 20
-146.9720970937
 10
-89.2051677391
 20
-146.9530604909
 10
-89.1410788913
 20
-146.9281589949
 10
-89.0585356077
 20
-146.8986252773
 10
-88.9574069002
 20
-146.865369021
 10
-88.8380988159
 20
-146.8293829012
 10
-88.7008066951
 20
-146.7915399158
 10
-88.546137995
 20
-146.7527945008
  0
LINE
  5
42C
100
AcDbEntity
  8
BEZUGSACHSEN
100
AcDbLine
 62
7
  6
CONTINUOUS
 10
563.7134313942
 20
-137.7826638915
 11
564.0627976458
 21
-137.719559605
  0
LINE
  5
42D
100
AcDbEntity
  8
RUNDUNGEN
100
AcDbLine
 62
7
  6
CONTINUOUS
 10
-260.3796152685
 20
-137.7202108339
 11
-260.0312772256
 21
-137.7827299345
  0
LINE
  5
42E
100
AcDbEntity
  8
0
100
AcDbLine
 62
7
  6
CONTINUOUS
 10
-79.8680883885
 20
-81.2081706937
 11
-76.7382728363
 21
-83.3996911365
  0
LINE
  5
42F
100
AcDbEntity
  8
RUNDUNGEN
100
AcDbLine
 62
7
  6
CONTINUOUS
 10
-76.2042140775
 20
-143.1653412534
 11
-75.7911194634
 21
-142.9801080028
  0
LINE
  5
430
100
AcDbEntity
  8
0
100
AcDbLine
 62
7
  6
CONTINUOUS
 10
114.0237417074
 20
-84.3040116428
 11
112.9150634112
 21
-91.3039309151
  0
LINE
  5
431
100
AcDbEntity
  8
0
100
AcDbLine
 62
7
  6
CONTINUOUS
 10
125.1375229881
 20
-84.2436235359
 11
126.1798753726
 21
-83.8642382943
  0
LINE
  5
432
100
AcDbEntity
  8
RUNDUNGEN
100
AcDbLine
 62
7
  6
CONTINUOUS
 10
-75.8073593185
 20
-142.9865771482
 11
-75.3792616783
 21
-142.8366907075
  0
LINE
  5
433
100
AcDbEntity
  8
BEZUGSACHSEN
100
AcDbLine
 62
7
  6
CONTINUOUS
 10
563.3568221384
 20
-137.8039309151
 11
563.7123239738
 21
-137.7827299345
  0
LWPOLYLINE
  5
434
100
AcDbEntity
  8
RUNDUNGEN
100
AcDbPolyline
 62
7
  6
CONTINUOUS
 90
8
 70
0
 10
563.3568221379
 20
-137.8039309151
 10
563.7112251594
 20
-137.7829271478
 10
564.0606620167
 20
-137.7202108339
 10
564.4002397631
 20
-137.616661555
 10
564.7252048902
 20
-137.4737301561
 10
565.0310083758
 20
-137.2934185425
 10
565.3133692132
 20
-137.0782518723
 10
565.4436336764
 20
-136.9593691964
  0
LWPOLYLINE
  5
435
100
AcDbEntity
  8
RUNDUNGEN
100
AcDbPolyline
 62
7
  6
CONTINUOUS
 90
8
 70
0
 10
-82.7359705714
 20
-146.4930770383
 10
-82.5491981275
 20
-146.4896215635
 10
-82.1060696817
 20
-146.4537551406
 10
-81.668285081
 20
-146.3792069733
 10
-81.2392486434
 20
-146.2666940523
 10
-80.8221941288
 20
-146.1171058792
 10
-80.42017866
 20
-145.9315865345
 10
-80.0363812016
 20
-145.7115467904
  0
LINE
  5
436
100
AcDbEntity
  8
RUNDUNGEN
100
AcDbLine
 62
7
  6
CONTINUOUS
 10
-86.4543624002
 20
-146.4967763336
 11
-86.1594766257
 21
-146.4930916849
  0
LWPOLYLINE
  5
437
100
AcDbEntity
  8
RUNDUNGEN
100
AcDbPolyline
 62
7
  6
CONTINUOUS
 90
14
 70
0
 10
-63.7181051939
 20
-142.6145261282
 10
-63.674105894
 20
-142.6141689485
 10
-63.4051039194
 20
-142.596048899
 10
-63.1425121207
 20
-142.5511349167
 10
-62.8883027092
 20
-142.4802988243
 10
-62.644417869
 20
-142.3845278869
 10
-62.412858174
 20
-142.2649768709
 10
-62.1951411184
 20
-142.1226526883
 10
-61.9933716495
 20
-141.959092914
 10
-61.8089717304
 20
-141.7755005638
 10
-61.6436793414
 20
-141.5736040982
 10
-61.4986286641
 20
-141.3545121735
 10
-61.3755661539
 20
-141.1203509897
 10
-61.2807523826
 20
-140.8857538004
  0
LINE
  5
438
100
AcDbEntity
  8
0
100
AcDbLine
 62
7
  6
CONTINUOUS
 10
164.8405233741
 20
-159.3039309151
 11
158.8405233741
 21
-159.3039309151
  0
LINE
  5
439
100
AcDbEntity
  8
0
100
AcDbLine
 62
7
  6
CONTINUOUS
 10
144.8405233741
 20
-159.3039309151
 11
138.8405233741
 21
-159.3039309151
  0
LINE
  5
43A
100
AcDbEntity
  8
0
100
AcDbLine
 62
7
  6
CONTINUOUS
 10
158.8405233741
 20
-157.3039309151
 11
144.8405233741
 21
-157.3039309151
  0
LINE
  5
43B
100
AcDbEntity
  8
0
100
AcDbLine
 62
7
  6
CONTINUOUS
 10
-137.6594766259
 20
-149.3039309151
 11
-140.1594766259
 21
-149.3039309151
  0
LINE
  5
43C
100
AcDbEntity
  8
RUNDUNGEN
100
AcDbLine
 62
7
  6
CONTINUOUS
 10
-137.6594766259
 20
-149.3039309151
 11
-140.1594766259
 21
-149.3039309151
  0
LINE
  5
43D
100
AcDbEntity
  8
0
100
AcDbLine
 62
7
  6
CONTINUOUS
 10
-96.6594766259
 20
-148.3039309151
 11
-91.1594766259
 21
-148.3039309151
  0
LINE
  5
43E
100
AcDbEntity
  8
RUNDUNGEN
100
AcDbLine
 62
7
  6
CONTINUOUS
 10
-86.1594766259
 20
-146.4930911292
 11
-82.7359705832
 21
-146.4930911292
  0
LINE
  5
43F
100
AcDbEntity
  8
0
100
AcDbLine
 62
7
  6
CONTINUOUS
 10
131.8405233741
 20
-144.8039309151
 11
133.8405233741
 21
-144.8039309151
  0
LINE
  5
440
100
AcDbEntity
  8
0
100
AcDbLine
 62
7
  6
CONTINUOUS
 10
169.8405233741
 20
-144.8039309151
 11
171.8405233741
 21
-144.8039309151
  0
LINE
  5
441
100
AcDbEntity
  8
0
100
AcDbLine
 62
7
  6
CONTINUOUS
 10
380.1573041394
 20
-144.8039309151
 11
400.9336320656
 21
-144.8039309151
  0
LINE
  5
442
100
AcDbEntity
  8
0
100
AcDbLine
 62
7
  6
CONTINUOUS
 10
367.8405233741
 20
-144.3039309151
 11
378.8126325583
 21
-144.3039309151
  0
LINE
  5
443
100
AcDbEntity
  8
RUNDUNGEN
100
AcDbLine
 62
7
  6
CONTINUOUS
 10
-73.8703906543
 20
-142.6145339164
 11
-63.7181369088
 21
-142.6145339164
  0
LINE
  5
444
100
AcDbEntity
  8
RUNDUNGEN
100
AcDbLine
 62
7
  6
CONTINUOUS
 10
-260.0301784112
 20
-137.7829271478
 11
-259.6757753897
 21
-137.8039309151
  0
LINE
  5
445
100
AcDbEntity
  8
RUNDUNGEN
100
AcDbLine
 62
7
  6
CONTINUOUS
 10
120.0887114352
 20
-134.9703948026
 11
120.6218896638
 21
-135.0681616056
  0
LINE
  5
446
100
AcDbEntity
  8
RUNDUNGEN
100
AcDbLine
 62
7
  6
CONTINUOUS
 10
120.6017910558
 20
-135.0638707326
 11
121.1351038261
 21
-135.1934220749
  0
LINE
  5
447
100
AcDbEntity
  8
RUNDUNGEN
100
AcDbLine
 62
7
  6
CONTINUOUS
 10
121.1152979393
 20
-135.1880330387
 11
121.6468959645
 21
-135.3478762182
  0
LINE
  5
448
100
AcDbEntity
  8
RUNDUNGEN
100
AcDbLine
 62
7
  6
CONTINUOUS
 10
121.6274598786
 20
-135.3414815187
 11
122.1540508375
 21
-135.5290693498
  0
LINE
  5
449
100
AcDbEntity
  8
RUNDUNGEN
100
AcDbLine
 62
7
  6
CONTINUOUS
 10
122.1350204022
 20
-135.5217765969
 11
122.6560325321
 21
-135.7350867695
  0
LINE
  5
44A
100
AcDbEntity
  8
RUNDUNGEN
100
AcDbLine
 62
7
  6
CONTINUOUS
 10
122.6374448686
 20
-135.7269927682
 11
123.1523714631
 21
-135.9641502861
  0
LINE
  5
44B
100
AcDbEntity
  8
RUNDUNGEN
100
AcDbLine
 62
7
  6
CONTINUOUS
 10
123.1342437929
 20
-135.9553491489
 11
123.4255844734
 21
-136.1007240787
  0
LINE
  5
44C
100
AcDbEntity
  8
RUNDUNGEN
100
AcDbLine
 62
7
  6
CONTINUOUS
 10
123.4251561545
 20
-136.1005047045
 11
123.4255973762
 21
-136.1007312085
  0
LWPOLYLINE
  5
44D
100
AcDbEntity
  8
RUNDUNGEN
100
AcDbPolyline
 62
7
  6
CONTINUOUS
 90
3
 70
0
 10
123.4252722722
 20
-136.1005526509
 10
123.4403195353
 20
-136.108748908
 10
123.4421990887
 20
-136.1098767419
  0
LWPOLYLINE
  5
44E
100
AcDbEntity
  8
RUNDUNGEN
100
AcDbPolyline
 62
7
  6
CONTINUOUS
 90
13
 70
0
 10
123.4251610026
 20
-136.1004952074
 10
123.4442471476
 20
-136.1110044469
 10
123.4715513191
 20
-136.1276631938
 10
123.5056485532
 20
-136.1504352941
 10
123.5452556076
 20
-136.1790258296
 10
123.5890139802
 20
-136.2128679981
 10
123.6359909931
 20
-136.2515607997
 10
123.6854350236
 20
-136.2946584097
 10
123.736763714
 20
-136.3417810715
 10
123.7894304957
 20
-136.3925278093
 10
123.8431084098
 20
-136.4466235543
 10
123.897486325
 20
-136.5037727376
 10
123.9394544211
 20
-136.5494558943
  0
LWPOLYLINE
  5
44F
100
AcDbEntity
  8
RUNDUNGEN
100
AcDbPolyline
 62
7
  6
CONTINUOUS
 90
15
 70
0
 10
125.0673320574
 20
-137.735919541
 10
125.1890420709
 20
-137.815483871
 10
125.5852900299
 20
-138.0845310992
 10
125.9608487924
 20
-138.3540505688
 10
126.3152342109
 20
-138.6219197829
 10
126.6481979188
 20
-138.8863502117
 10
126.9593323901
 20
-139.1455322047
 10
127.2484624193
 20
-139.3979075138
 10
127.5150952462
 20
-139.6417282325
 10
127.7589890429
 20
-139.8754961655
 10
127.9796819973
 20
-140.0974586609
 10
128.1770162896
 20
-140.3061025601
 10
128.3505919254
 20
-140.4995792688
 10
128.5004581979
 20
-140.6763342019
 10
128.6264665272
 20
-140.8343111644
  0
LWPOLYLINE
  5
450
100
AcDbEntity
  8
RUNDUNGEN
100
AcDbPolyline
 62
7
  6
CONTINUOUS
 90
3
 70
0
 10
124.8976384697
 20
-137.6082241762
 10
125.0262826105
 20
-137.7083586416
 10
125.0674474168
 20
-137.7359996165
  0
LINE
  5
451
100
AcDbEntity
  8
RUNDUNGEN
100
AcDbLine
 62
7
  6
CONTINUOUS
 10
124.7932163838
 20
-137.5071417767
 11
124.8976384697
 21
-137.6082241762
  0
LWPOLYLINE
  5
452
100
AcDbEntity
  8
RUNDUNGEN
100
AcDbPolyline
 62
7
  6
CONTINUOUS
 90
4
 70
0
 10
124.7492423871
 20
-137.4601275672
 10
124.8212012265
 20
-137.5370613965
 10
124.9557973627
 20
-137.6562617492
 10
125.0672597795
 20
-137.7358727095
  0
LINE
  5
453
100
AcDbEntity
  8
RUNDUNGEN
100
AcDbLine
 62
7
  6
CONTINUOUS
 10
123.9394520857
 20
-136.5494533105
 11
124.1837570951
 21
-136.8207917537
  0
LINE
  5
454
100
AcDbEntity
  8
RUNDUNGEN
100
AcDbLine
 62
7
  6
CONTINUOUS
 10
124.1837570951
 20
-136.8207917537
 11
124.5496136519
 21
-137.2326088591
  0
LINE
  5
455
100
AcDbEntity
  8
RUNDUNGEN
100
AcDbLine
 62
7
  6
CONTINUOUS
 10
124.5437277159
 20
-137.2259565374
 11
124.7497424415
 21
-137.4607215034
  0
LINE
  5
456
100
AcDbEntity
  8
RUNDUNGEN
100
AcDbLine
 62
7
  6
CONTINUOUS
 10
128.6210259033
 20
-140.8272728372
 11
128.7288946662
 21
-140.9716340174
  0
LINE
  5
457
100
AcDbEntity
  8
RUNDUNGEN
100
AcDbLine
 62
7
  6
CONTINUOUS
 10
128.7244570606
 20
-140.9654730033
 11
128.8083086904
 21
-141.0863562611
  0
LWPOLYLINE
  5
458
100
AcDbEntity
  8
RUNDUNGEN
100
AcDbPolyline
 62
7
  6
CONTINUOUS
 90
4
 70
0
 10
128.8048987719
 20
-141.0812291594
 10
128.8657926708
 20
-141.1766827463
 10
128.9025570403
 20
-141.240251632
 10
128.9148386495
 20
-141.2634616932
  0
LINE
  5
459
100
AcDbEntity
  8
RUNDUNGEN
100
AcDbLine
 62
7
  6
CONTINUOUS
 10
128.8405233741
 20
-141.8038333081
 11
128.8405233741
 21
-141.1355446202
  0
LINE
  5
45A
100
AcDbEntity
  8
RUNDUNGEN
100
AcDbLine
 62
7
  6
CONTINUOUS
 10
133.8405233741
 20
-154.3039208359
 11
133.8405233741
 21
-74.303941071
  0
LINE
  5
45B
100
AcDbEntity
  8
0
100
AcDbLine
 62
7
  6
CONTINUOUS
 10
144.8405233741
 20
-159.3038984161
 11
144.8405233741
 21
-69.3039634142
  0
LINE
  5
45C
100
AcDbEntity
  8
RUNDUNGEN
100
AcDbLine
 62
7
  6
CONTINUOUS
 10
-87.7596439155
 20
-146.6047307987
 11
-87.5053727722
 21
-146.571372696
  0
LINE
  5
45D
100
AcDbEntity
  8
RUNDUNGEN
100
AcDbLine
 62
7
  6
CONTINUOUS
 10
-87.5237538753
 20
-146.5735711719
 11
-87.2539970189
 21
-146.5445053226
  0
LINE
  5
45E
100
AcDbEntity
  8
RUNDUNGEN
100
AcDbLine
 62
7
  6
CONTINUOUS
 10
-74.5438865783
 20
-142.6579647721
 11
-74.0922532759
 21
-142.6192367235
  0
LINE
  5
45F
100
AcDbEntity
  8
RUNDUNGEN
100
AcDbLine
 62
7
  6
CONTINUOUS
 10
-87.2738928584
 20
-146.5464181071
 11
-86.9899556229
 21
-146.5225239168
  0
LWPOLYLINE
  5
460
100
AcDbEntity
  8
RUNDUNGEN
100
AcDbPolyline
 62
7
  6
CONTINUOUS
 90
8
 70
0
 10
-82.5727296378
 20
-146.4904358546
 10
-82.129624943
 20
-146.4566516111
 10
-81.6916151462
 20
-146.3841851264
 10
-81.262112126
 20
-146.2737178327
 10
-80.8443414492
 20
-146.1261052769
 10
-80.4413841195
 20
-145.9424677747
 10
-80.0564324583
 20
-145.7241817676
 10
-79.9041769434
 20
-145.6248537336
  0
LINE
  5
461
100
AcDbEntity
  8
RUNDUNGEN
100
AcDbLine
 62
7
  6
CONTINUOUS
 10
184.5900855993
 20
-134.8792654541
 11
184.5969828433
 21
-134.8788494746
  0
LINE
  5
462
100
AcDbEntity
  8
RUNDUNGEN
100
AcDbLine
 62
7
  6
CONTINUOUS
 10
-87.0113294696
 20
-146.5240702929
 11
-86.7147796624
 21
-146.5062015377
  0
LWPOLYLINE
  5
463
100
AcDbEntity
  8
RUNDUNGEN
100
AcDbPolyline
 62
7
  6
CONTINUOUS
 90
14
 70
0
 10
-63.7180990166
 20
-142.6145264964
 10
-63.4259415546
 20
-142.5984440618
 10
-63.1632751829
 20
-142.5557028602
 10
-62.9088166438
 20
-142.4870709002
 10
-62.6644779256
 20
-142.3935135586
 10
-62.4322357557
 20
-142.276159658
 10
-62.2135796251
 20
-142.1359741239
 10
-62.0106551652
 20
-141.9744873442
 10
-61.8249111336
 20
-141.7929092917
 10
-61.658132439
 20
-141.5930103968
 10
-61.5114865835
 20
-141.3760055462
 10
-61.3866898178
 20
-141.1440521421
 10
-61.2846108227
 20
-140.898591308
 10
-61.2292969479
 20
-140.714555204
  0
LINE
  5
464
100
AcDbEntity
  8
RUNDUNGEN
100
AcDbLine
 62
7
  6
CONTINUOUS
 10
-86.7375626479
 20
-146.5073031423
 11
-86.430275082
 21
-146.4961980142
  0
LINE
  5
465
100
AcDbEntity
  8
RUNDUNGEN
100
AcDbLine
 62
7
  6
CONTINUOUS
 10
-74.1098701479
 20
-142.620011763
 11
-73.870390654
 21
-142.6145417854
  0
LINE
  5
466
100
AcDbEntity
  8
RUNDUNGEN
100
AcDbLine
 62
7
  6
CONTINUOUS
 10
563.3561809257
 20
-137.8039309151
 11
504.8405233741
 21
-137.8039309151
  0
LINE
  5
467
100
AcDbEntity
  8
BEZUGSACHSEN
100
AcDbLine
 62
7
  6
CONTINUOUS
 10
-259.6751341317
 20
-137.8039309151
 11
-201.1594766259
 21
-137.8039309151
  0
LINE
  5
468
100
AcDbEntity
  8
RUNDUNGEN
100
AcDbLine
 62
7
  6
CONTINUOUS
 10
118.8405233741
 20
-134.8752143059
 11
-51.1594782334
 21
-134.8752143059
  0
LINE
  5
469
100
AcDbEntity
  8
RUNDUNGEN
100
AcDbLine
 62
7
  6
CONTINUOUS
 10
184.8405233741
 20
-134.8752143059
 11
354.8405225726
 21
-134.8752143059
  0
LINE
  5
46A
100
AcDbEntity
  8
0
100
AcDbLine
 62
7
  6
CONTINUOUS
 10
-99.6594766259
 20
-130.3039309151
 11
-136.6594766259
 21
-130.3039309151
  0
LINE
  5
46B
100
AcDbEntity
  8
0
100
AcDbLine
 62
7
  6
CONTINUOUS
 10
-142.6594766259
 20
-130.3039309151
 11
-194.1594766259
 21
-130.3039309151
  0
LINE
  5
46C
100
AcDbEntity
  8
0
100
AcDbLine
 62
7
  6
CONTINUOUS
 10
404.9786358949
 20
-130.3039309151
 11
497.8405233741
 21
-130.3039309151
  0
LINE
  5
46D
100
AcDbEntity
  8
RUNDUNGEN
100
AcDbLine
 62
7
  6
CONTINUOUS
 10
118.8405252813
 20
-134.8752127381
 11
119.1043990476
 21
-134.8794824584
  0
LINE
  5
46E
100
AcDbEntity
  8
RUNDUNGEN
100
AcDbLine
 62
7
  6
CONTINUOUS
 10
354.8405225675
 20
-134.8752104492
 11
355.1374342692
 21
-134.8806204411
  0
LINE
  5
46F
100
AcDbEntity
  8
RUNDUNGEN
100
AcDbLine
 62
7
  6
CONTINUOUS
 10
119.0841168664
 20
-134.8788508095
 11
119.6014738545
 21
-134.9107025959
  0
LINE
  5
470
100
AcDbEntity
  8
RUNDUNGEN
100
AcDbLine
 62
7
  6
CONTINUOUS
 10
355.1206464449
 20
-134.8800269746
 11
355.6288089817
 21
-134.9132917363
  0
LINE
  5
471
100
AcDbEntity
  8
RUNDUNGEN
100
AcDbLine
 62
7
  6
CONTINUOUS
 10
119.5811119526
 20
-134.9088326551
 11
120.1089938664
 21
-134.9734976941
  0
LINE
  5
472
100
AcDbEntity
  8
0
100
AcDbLine
 62
7
  6
CONTINUOUS
 10
158.8405233741
 20
-159.3038984161
 11
158.8405233741
 21
-69.3039634142
  0
LINE
  5
473
100
AcDbEntity
  8
BEZUGSACHSEN
100
AcDbLine
 62
7
  6
CONTINUOUS
 10
169.8405233741
 20
-154.3039208359
 11
169.8405233741
 21
-74.303941071
  0
LINE
  5
474
100
AcDbEntity
  8
RUNDUNGEN
100
AcDbLine
 62
7
  6
CONTINUOUS
 10
174.8405233741
 20
-141.1355463782
 11
174.8405233741
 21
-141.8038333081
  0
LWPOLYLINE
  5
475
100
AcDbEntity
  8
RUNDUNGEN
100
AcDbPolyline
 62
7
  6
CONTINUOUS
 90
7
 70
0
 10
174.7624211516
 20
-141.2692509366
 10
174.7586199101
 20
-141.2787927263
 10
174.7611206891
 20
-141.2736611213
 10
174.7799173717
 20
-141.23764008
 10
174.8176610296
 20
-141.1727209444
 10
174.8761624752
 20
-141.0812099738
 10
174.9566118278
 20
-140.965442952
  0
LWPOLYLINE
  5
476
100
AcDbEntity
  8
RUNDUNGEN
100
AcDbPolyline
 62
7
  6
CONTINUOUS
 90
11
 70
0
 10
180.2554571468
 20
-136.1007206977
 10
180.5287221414
 20
-135.964122623
 10
181.0250667844
 20
-135.7350649717
 10
181.5270365155
 20
-135.5290505449
 10
182.0341766529
 20
-135.3478671144
 10
182.5459637763
 20
-135.1934166011
 10
183.05917851
 20
-135.0681579122
 10
183.5720762717
 20
-134.9734939596
 10
184.079583537
 20
-134.9107013572
 10
184.5766461803
 20
-134.8794829482
 10
184.8405233735
 20
-134.8752125445
  0
LINE
  5
477
100
AcDbEntity
  8
RUNDUNGEN
100
AcDbLine
 62
7
  6
CONTINUOUS
 10
-75.3960810666
 20
-142.841794826
 11
-74.9565249038
 21
-142.7283250848
  0
LINE
  5
478
100
AcDbEntity
  8
RUNDUNGEN
100
AcDbLine
 62
7
  6
CONTINUOUS
 10
-88.546137995
 20
-146.7527945008
 11
-88.361785678
 21
-146.7112516912
  0
LINE
  5
479
100
AcDbEntity
  8
RUNDUNGEN
100
AcDbLine
 62
7
  6
CONTINUOUS
 10
-88.3742206175
 20
-146.713907804
 11
-88.1717007537
 21
-146.6730984559
  0
LINE
  5
47A
100
AcDbEntity
  8
RUNDUNGEN
100
AcDbLine
 62
7
  6
CONTINUOUS
 10
-88.1855766911
 20
-146.675733045
 11
-87.9651757722
 21
-146.6365168284
  0
LINE
  5
47B
100
AcDbEntity
  8
RUNDUNGEN
100
AcDbLine
 62
7
  6
CONTINUOUS
 10
-74.9737624214
 20
-142.7320112648
 11
-74.5263845098
 21
-142.6557270018
  0
LINE
  5
47C
100
AcDbEntity
  8
RUNDUNGEN
100
AcDbLine
 62
7
  6
CONTINUOUS
 10
-87.9805314743
 20
-146.6390722382
 11
-87.7427814765
 21
-146.602318325
  0
LINE
  5
47D
100
AcDbEntity
  8
0
100
AcDbLine
 62
7
  6
CONTINUOUS
 10
-99.6594766259
 20
-106.3039309151
 11
-136.6594766259
 21
-106.3039309151
  0
LINE
  5
47E
100
AcDbEntity
  8
0
100
AcDbLine
 62
7
  6
CONTINUOUS
 10
-142.6594766259
 20
-106.3039309151
 11
-195.1622572771
 21
-106.3039309151
  0
LINE
  5
47F
100
AcDbEntity
  8
0
100
AcDbLine
 62
7
  6
CONTINUOUS
 10
-99.6594766259
 20
-100.4475244546
 11
-136.6594766259
 21
-100.4475244546
  0
LINE
  5
480
100
AcDbEntity
  8
0
100
AcDbLine
 62
7
  6
CONTINUOUS
 10
-142.6594766259
 20
-100.4475244546
 11
-183.1594766259
 21
-100.4475244546
  0
LINE
  5
481
100
AcDbEntity
  8
0
100
AcDbLine
 62
7
  6
CONTINUOUS
 10
-99.6594766259
 20
-98.3039309151
 11
-136.6594766259
 21
-98.3039309151
  0
LINE
  5
482
100
AcDbEntity
  8
0
100
AcDbLine
 62
7
  6
CONTINUOUS
 10
-142.6594766259
 20
-98.3039309151
 11
-194.1594766259
 21
-98.3039309151
  0
LINE
  5
483
100
AcDbEntity
  8
0
100
AcDbLine
 62
7
  6
CONTINUOUS
 10
404.9786358949
 20
-98.3039309151
 11
497.8405233741
 21
-98.3039309151
  0
LINE
  5
484
100
AcDbEntity
  8
0
100
AcDbLine
 62
7
  6
CONTINUOUS
 10
367.9150634112
 20
-91.3039309151
 11
190.765983337
 21
-91.3039309151
  0
LINE
  5
485
100
AcDbEntity
  8
0
100
AcDbLine
 62
7
  6
CONTINUOUS
 10
112.9150634112
 20
-91.3039309151
 11
-64.234016663
 21
-91.3039309151
  0
LINE
  5
486
100
AcDbEntity
  8
BEZUGSACHSEN
100
AcDbLine
 62
7
  6
CONTINUOUS
 10
563.3561808799
 20
-90.8039309151
 11
504.8405233741
 21
-90.8039309151
  0
LINE
  5
487
100
AcDbEntity
  8
BEZUGSACHSEN
100
AcDbLine
 62
7
  6
CONTINUOUS
 10
-259.6751341775
 20
-90.8039309151
 11
-201.1594766259
 21
-90.8039309151
  0
LINE
  5
488
100
AcDbEntity
  8
0
100
AcDbLine
 62
7
  6
CONTINUOUS
 10
-23.0219766259
 20
-90.3039309151
 11
-11.7219766259
 21
-90.3039309151
  0
LINE
  5
489
100
AcDbEntity
  8
0
100
AcDbLine
 62
7
  6
CONTINUOUS
 10
199.8405233741
 20
-90.3039309151
 11
211.5405233741
 21
-90.3039309151
  0
LINE
  5
48A
100
AcDbEntity
  8
0
100
AcDbLine
 62
7
  6
CONTINUOUS
 10
213.3405233741
 20
-90.3039309151
 11
224.1405233741
 21
-90.3039309151
  0
LINE
  5
48B
100
AcDbEntity
  8
0
100
AcDbLine
 62
7
  6
CONTINUOUS
 10
226.8405233741
 20
-90.3039309151
 11
237.8655233741
 21
-90.3039309151
  0
LINE
  5
48C
100
AcDbEntity
  8
0
100
AcDbLine
 62
7
  6
CONTINUOUS
 10
258.0905233741
 20
-90.3039309151
 11
259.6530233741
 21
-90.3039309151
  0
LINE
  5
48D
100
AcDbEntity
  8
0
100
AcDbLine
 62
7
  6
CONTINUOUS
 10
261.7363565833
 20
-90.3039309151
 11
271.8926062107
 21
-90.3039309151
  0
LINE
  5
48E
100
AcDbEntity
  8
0
100
AcDbLine
 62
7
  6
CONTINUOUS
 10
273.9759405375
 20
-90.3039309151
 11
283.3509390474
 21
-90.3039309151
  0
LINE
  5
48F
100
AcDbEntity
  8
0
100
AcDbLine
 62
7
  6
CONTINUOUS
 10
285.4342733741
 20
-90.3039309151
 11
289.0801077008
 21
-90.3039309151
  0
LINE
  5
490
100
AcDbEntity
  8
0
100
AcDbLine
 62
7
  6
CONTINUOUS
 10
291.1634390474
 20
-90.3039309151
 11
301.3196890474
 21
-90.3039309151
  0
LINE
  5
491
100
AcDbEntity
  8
0
100
AcDbLine
 62
7
  6
CONTINUOUS
 10
303.4030233741
 20
-90.3039309151
 11
312.7780233741
 21
-90.3039309151
  0
LINE
  5
492
100
AcDbEntity
  8
0
100
AcDbLine
 62
7
  6
CONTINUOUS
 10
314.8613547206
 20
-90.3039309151
 11
324.7571920276
 21
-90.3039309151
  0
LINE
  5
493
100
AcDbEntity
  8
0
100
AcDbLine
 62
7
  6
CONTINUOUS
 10
326.8405233741
 20
-90.3039309151
 11
336.7363547206
 21
-90.3039309151
  0
LINE
  5
494
100
AcDbEntity
  8
0
100
AcDbLine
 62
7
  6
CONTINUOUS
 10
338.8196920276
 20
-90.3039309151
 11
341.9446920276
 21
-90.3039309151
  0
LINE
  5
495
100
AcDbEntity
  8
0
100
AcDbLine
 62
7
  6
CONTINUOUS
 10
344.0280233741
 20
-90.3039309151
 11
353.4030233741
 21
-90.3039309151
  0
LINE
  5
496
100
AcDbEntity
  8
0
100
AcDbLine
 62
7
  6
CONTINUOUS
 10
-73.8703906545
 20
-84.3039309151
 11
-65.3359072327
 21
-84.3039309151
  0
LINE
  5
497
100
AcDbEntity
  8
0
100
AcDbLine
 62
7
  6
CONTINUOUS
 10
114.0169539809
 20
-84.3039309151
 11
124.7955028448
 21
-84.3039309151
  0
LINE
  5
498
100
AcDbEntity
  8
0
100
AcDbLine
 62
7
  6
CONTINUOUS
 10
178.8855439034
 20
-84.3039309151
 11
189.6640927696
 21
-84.3039309151
  0
LINE
  5
499
100
AcDbEntity
  8
0
100
AcDbLine
 62
7
  6
CONTINUOUS
 10
369.0169539786
 20
-84.3039309151
 11
378.8126325583
 21
-84.3039309151
  0
LINE
  5
49A
100
AcDbEntity
  8
0
100
AcDbLine
 62
7
  6
CONTINUOUS
 10
126.5218955159
 20
-83.8039309151
 11
133.8405233741
 21
-83.8039309151
  0
LINE
  5
49B
100
AcDbEntity
  8
0
100
AcDbLine
 62
7
  6
CONTINUOUS
 10
169.8405233741
 20
-83.8039309151
 11
177.1591512323
 21
-83.8039309151
  0
LINE
  5
49C
100
AcDbEntity
  8
0
100
AcDbLine
 62
7
  6
CONTINUOUS
 10
380.1573041394
 20
-83.8039309151
 11
400.9336320656
 21
-83.8039309151
  0
LINE
  5
49D
100
AcDbEntity
  8
RUNDUNGEN
100
AcDbLine
 62
7
  6
CONTINUOUS
 10
355.6115059733
 20
-134.9116383206
 11
356.1346133546
 21
-134.9774885074
  0
LINE
  5
49E
100
AcDbEntity
  8
RUNDUNGEN
100
AcDbLine
 62
7
  6
CONTINUOUS
 10
356.1168060776
 20
-134.9747085056
 11
356.6481677547
 21
-135.0738419884
  0
LINE
  5
49F
100
AcDbEntity
  8
RUNDUNGEN
100
AcDbLine
 62
7
  6
CONTINUOUS
 10
356.629939289
 20
-135.0698944295
 11
357.1634802505
 21
-135.2012189846
  0
LINE
  5
4A0
100
AcDbEntity
  8
0
100
AcDbLine
 62
7
  6
CONTINUOUS
 10
199.8405233741
 20
-91.3039309151
 11
199.8405233741
 21
-90.3039309151
  0
LINE
  5
4A1
100
AcDbEntity
  8
0
100
AcDbLine
 62
7
  6
CONTINUOUS
 10
202.0905233741
 20
-91.3039309151
 11
202.0905233741
 21
-90.3039309151
  0
LINE
  5
4A2
100
AcDbEntity
  8
0
100
AcDbLine
 62
7
  6
CONTINUOUS
 10
208.9424471627
 20
-91.3039309151
 11
208.9424471627
 21
-90.3039309151
  0
LINE
  5
4A3
100
AcDbEntity
  8
0
100
AcDbLine
 62
7
  6
CONTINUOUS
 10
211.5405233741
 20
-91.3039309151
 11
211.5405233741
 21
-90.3039309151
  0
LWPOLYLINE
  5
4A4
100
AcDbEntity
  8
RUNDUNGEN
100
AcDbPolyline
 62
7
  6
CONTINUOUS
 90
16
 70
0
 10
174.9521571064
 20
-140.9716313266
 10
175.0600519153
 20
-140.8272318649
 10
175.1870028397
 20
-140.6685465412
 10
175.337766341
 20
-140.4912136305
 10
175.5122039641
 20
-140.2972488477
 10
175.7103121508
 20
-140.0882412373
 10
175.9316992785
 20
-139.8660423922
 10
176.1762113506
 20
-139.6321403433
 10
176.4433707056
 20
-139.3882801301
 10
176.7329702259
 20
-139.1359409036
 10
177.0445516076
 20
-138.8768450195
 10
177.3778983131
 20
-138.6125652165
 10
177.7325877215
 20
-138.3449275341
 10
178.1084140018
 20
-138.0757010804
 10
178.5049224302
 20
-137.806976588
 10
178.6133491781
 20
-137.7361642646
  0
LINE
  5
4A5
100
AcDbEntity
  8
RUNDUNGEN
100
AcDbLine
 62
7
  6
CONTINUOUS
 10
178.9312818026
 20
-137.4607264122
 11
179.1373112808
 21
-137.2259653345
  0
LINE
  5
4A6
100
AcDbEntity
  8
RUNDUNGEN
100
AcDbLine
 62
7
  6
CONTINUOUS
 10
179.1314192957
 20
-137.2326244961
 11
179.4972766283
 21
-136.820806328
  0
LINE
  5
4A7
100
AcDbEntity
  8
RUNDUNGEN
100
AcDbLine
 62
7
  6
CONTINUOUS
 10
179.4972766283
 20
-136.820806328
 11
179.7415948169
 21
-136.549453128
  0
LINE
  5
4A8
100
AcDbEntity
  8
RUNDUNGEN
100
AcDbLine
 62
7
  6
CONTINUOUS
 10
179.7415952796
 20
-136.5494524985
 11
179.77449342
 21
-136.5135282824
  0
LINE
  5
4A9
100
AcDbEntity
  8
RUNDUNGEN
100
AcDbLine
 62
7
  6
CONTINUOUS
 10
178.8879021363
 20
-137.5070647194
 11
178.9318072526
 21
-137.4601242361
  0
LINE
  5
4AA
100
AcDbEntity
  8
RUNDUNGEN
100
AcDbLine
 62
7
  6
CONTINUOUS
 10
179.7648710644
 20
-136.5239467685
 11
179.8226388743
 21
-136.4624604145
  0
LINE
  5
4AB
100
AcDbEntity
  8
RUNDUNGEN
100
AcDbLine
 62
7
  6
CONTINUOUS
 10
179.8132488673
 20
-136.4722808234
 11
179.8702944247
 21
-136.4137270729
  0
LINE
  5
4AC
100
AcDbEntity
  8
RUNDUNGEN
100
AcDbLine
 62
7
  6
CONTINUOUS
 10
179.8611982237
 20
-136.4228952466
 11
179.917308072
 21
-136.3674844626
  0
LINE
  5
4AD
100
AcDbEntity
  8
RUNDUNGEN
100
AcDbLine
 62
7
  6
CONTINUOUS
 10
179.90849734
 20
-136.3760055505
 11
179.9635001051
 21
-136.3238862216
  0
LWPOLYLINE
  5
4AE
100
AcDbEntity
  8
RUNDUNGEN
100
AcDbPolyline
 62
7
  6
CONTINUOUS
 90
10
 70
0
 10
179.9549339678
 20
-136.3318054054
 10
180.0002472406
 20
-136.2905204742
 10
180.0441377468
 20
-136.252357248
 10
180.086030939
 20
-136.2177014763
 10
180.125235822
 20
-136.1869761649
 10
180.1614603099
 20
-136.1602503968
 10
180.1945383715
 20
-136.1374531227
 10
180.2223300457
 20
-136.1196586486
 10
180.2425926046
 20
-136.107672266
 10
180.2546523719
 20
-136.1011425072
  0
LINE
  5
4AF
100
AcDbEntity
  8
RUNDUNGEN
100
AcDbLine
 62
7
  6
CONTINUOUS
 10
178.6137933709
 20
-137.735873212
 11
178.6821875415
 21
-137.6870224872
  0
LWPOLYLINE
  5
4B0
100
AcDbEntity
  8
RUNDUNGEN
100
AcDbPolyline
 62
7
  6
CONTINUOUS
 90
5
 70
0
 10
178.6136572609
 20
-137.7359609565
 10
178.654919121
 20
-137.7082519411
 10
178.7835503384
 20
-137.6081078752
 10
178.9009375861
 20
-137.4944425795
 10
178.9312076683
 20
-137.4608110087
  0
LINE
  5
4B1
100
AcDbEntity
  8
RUNDUNGEN
100
AcDbLine
 62
7
  6
CONTINUOUS
 10
180.2407513908
 20
-136.108761442
 11
180.2445082585
 21
-136.1066350355
  0
LINE
  5
4B2
100
AcDbEntity
  8
RUNDUNGEN
100
AcDbLine
 62
7
  6
CONTINUOUS
 10
180.2489569503
 20
-136.1042262922
 11
180.254612654
 21
-136.1012374693
  0
LINE
  5
4B3
100
AcDbEntity
  8
RUNDUNGEN
100
AcDbLine
 62
7
  6
CONTINUOUS
 10
180.2546482951
 20
-136.1011345659
 11
180.2554571468
 21
-136.1007206977
  0
LINE
  5
4B4
100
AcDbEntity
  8
BEZUGSACHSEN
100
AcDbLine
 62
7
  6
CONTINUOUS
 10
-259.6757753902
 20
-90.8039309151
 11
-260.0312772256
 21
-90.8251318957
  0
LINE
  5
4B5
100
AcDbEntity
  8
0
100
AcDbLine
 62
7
  6
CONTINUOUS
 10
-96.6594766259
 20
-80.3039309151
 11
-82.7359705703
 21
-80.3039309151
  0
LINE
  5
4B6
100
AcDbEntity
  8
0
100
AcDbLine
 62
7
  6
CONTINUOUS
 10
-137.6594766259
 20
-79.3039309151
 11
-140.1594766259
 21
-79.3039309151
  0
LINE
  5
4B7
100
AcDbEntity
  8
RUNDUNGEN
100
AcDbLine
 62
7
  6
CONTINUOUS
 10
-137.6594766259
 20
-79.3039309151
 11
-140.1594766259
 21
-79.3039309151
  0
LINE
  5
4B8
100
AcDbEntity
  8
0
100
AcDbLine
 62
7
  6
CONTINUOUS
 10
158.8405233741
 20
-71.3039309151
 11
144.8405233741
 21
-71.3039309151
  0
LINE
  5
4B9
100
AcDbEntity
  8
0
100
AcDbLine
 62
7
  6
CONTINUOUS
 10
164.8405233741
 20
-69.3039309151
 11
158.8405233741
 21
-69.3039309151
  0
LINE
  5
4BA
100
AcDbEntity
  8
0
100
AcDbLine
 62
7
  6
CONTINUOUS
 10
144.8405233741
 20
-69.3039309151
 11
138.8405233741
 21
-69.3039309151
  0
LINE
  5
4BB
100
AcDbEntity
  8
BEZUGSACHSEN
100
AcDbLine
 62
7
  6
CONTINUOUS
 10
563.7112251594
 20
-90.8249346824
 11
563.3568221379
 21
-90.8039309151
  0
LINE
  5
4BC
100
AcDbEntity
  8
RUNDUNGEN
100
AcDbLine
 62
7
  6
CONTINUOUS
 10
357.1448689953
 20
-135.1960899692
 11
357.6769041115
 21
-135.3578295929
  0
LINE
  5
4BD
100
AcDbEntity
  8
RUNDUNGEN
100
AcDbLine
 62
7
  6
CONTINUOUS
 10
357.6579905167
 20
-135.3515500828
 11
358.1832571108
 21
-135.5403290198
  0
LINE
  5
4BE
100
AcDbEntity
  8
0
100
AcDbLine
 62
7
  6
CONTINUOUS
 10
177.5011713756
 20
-83.8642382943
 11
178.5435237601
 21
-84.2436235359
  0
LINE
  5
4BF
100
AcDbEntity
  8
RUNDUNGEN
100
AcDbLine
 62
7
  6
CONTINUOUS
 10
358.1640911413
 20
-135.5329187461
 11
358.6814568506
 21
-135.7462188726
  0
LINE
  5
4C0
100
AcDbEntity
  8
0
100
AcDbLine
 62
7
  6
CONTINUOUS
 10
189.6573050408
 20
-84.3040116433
 11
190.765983337
 21
-91.3039309151
  0
LINE
  5
4C1
100
AcDbEntity
  8
0
100
AcDbLine
 62
7
  6
CONTINUOUS
 10
213.3405233741
 20
-91.3039309151
 11
213.3405233741
 21
-90.3039309151
  0
LINE
  5
4C2
100
AcDbEntity
  8
0
100
AcDbLine
 62
7
  6
CONTINUOUS
 10
224.1405233741
 20
-91.3039309151
 11
224.1405233741
 21
-90.3039309151
  0
LINE
  5
4C3
100
AcDbEntity
  8
0
100
AcDbLine
 62
7
  6
CONTINUOUS
 10
226.8405233741
 20
-91.3039309151
 11
226.8405233741
 21
-90.3039309151
  0
LINE
  5
4C4
100
AcDbEntity
  8
0
100
AcDbLine
 62
7
  6
CONTINUOUS
 10
237.8655233741
 20
-91.3039309151
 11
237.8655233741
 21
-90.3039309151
  0
LINE
  5
4C5
100
AcDbEntity
  8
RUNDUNGEN
100
AcDbLine
 62
7
  6
CONTINUOUS
 10
358.6621197192
 20
-135.7377559236
 11
359.1698778977
 21
-135.9726754117
  0
LINE
  5
4C6
100
AcDbEntity
  8
RUNDUNGEN
100
AcDbLine
 62
7
  6
CONTINUOUS
 10
359.1504892217
 20
-135.9632271024
 11
359.6467634614
 21
-136.2166629998
  0
LINE
  5
4C7
100
AcDbEntity
  8
RUNDUNGEN
100
AcDbLine
 62
7
  6
CONTINUOUS
 10
359.6274154643
 20
-136.2063292508
 11
360.1109574046
 21
-136.4755137275
  0
LINE
  5
4C8
100
AcDbEntity
  8
RUNDUNGEN
100
AcDbLine
 62
7
  6
CONTINUOUS
 10
360.0917887702
 20
-136.464414585
 11
360.5606057755
 21
-136.7460996658
  0
LINE
  5
4C9
100
AcDbEntity
  8
0
100
AcDbLine
 62
7
  6
CONTINUOUS
 10
258.0905233741
 20
-91.3039309151
 11
258.0905233741
 21
-90.3039309151
  0
LINE
  5
4CA
100
AcDbEntity
  8
0
100
AcDbLine
 62
7
  6
CONTINUOUS
 10
259.6530233741
 20
-91.3039309151
 11
259.6530233741
 21
-90.3039309151
  0
LINE
  5
4CB
100
AcDbEntity
  8
0
100
AcDbLine
 62
7
  6
CONTINUOUS
 10
261.7363565833
 20
-91.3039309151
 11
261.7363565833
 21
-90.3039309151
  0
LINE
  5
4CC
100
AcDbEntity
  8
0
100
AcDbLine
 62
7
  6
CONTINUOUS
 10
261.9967733741
 20
-91.3039309151
 11
261.9967733741
 21
-90.3039309151
  0
LINE
  5
4CD
100
AcDbEntity
  8
0
100
AcDbLine
 62
7
  6
CONTINUOUS
 10
262.5176065833
 20
-91.3039309151
 11
262.5176065833
 21
-90.3039309151
  0
LINE
  5
4CE
100
AcDbEntity
  8
0
100
AcDbLine
 62
7
  6
CONTINUOUS
 10
263.5592733741
 20
-91.3039309151
 11
263.5592733741
 21
-90.3039309151
  0
LINE
  5
4CF
100
AcDbEntity
  8
0
100
AcDbLine
 62
7
  6
CONTINUOUS
 10
264.6009397924
 20
-91.3039309151
 11
264.6009397924
 21
-90.3039309151
  0
LINE
  5
4D0
100
AcDbEntity
  8
0
100
AcDbLine
 62
7
  6
CONTINUOUS
 10
265.9030233741
 20
-91.3039309151
 11
265.9030233741
 21
-90.3039309151
  0
LINE
  5
4D1
100
AcDbEntity
  8
0
100
AcDbLine
 62
7
  6
CONTINUOUS
 10
268.2467733741
 20
-91.3039309151
 11
268.2467733741
 21
-90.3039309151
  0
LINE
  5
4D2
100
AcDbEntity
  8
0
100
AcDbLine
 62
7
  6
CONTINUOUS
 10
379.3862089946
 20
-84.1230829594
 11
379.583727703
 21
-83.9847788708
  0
LINE
  5
4D3
100
AcDbEntity
  8
BEZUGSACHSEN
100
AcDbLine
 62
7
  6
CONTINUOUS
 10
-260.032384646
 20
-90.8251979387
 11
-260.3817508976
 21
-90.8883022252
  0
LINE
  5
4D4
100
AcDbEntity
  8
RUNDUNGEN
100
AcDbLine
 62
7
  6
CONTINUOUS
 10
360.5417506438
 20
-136.7343602428
 11
360.9946305952
 21
-137.0257937284
  0
LINE
  5
4D5
100
AcDbEntity
  8
RUNDUNGEN
100
AcDbLine
 62
7
  6
CONTINUOUS
 10
360.9762114459
 20
-137.0135507755
 11
361.4108174073
 21
-137.3112730676
  0
LINE
  5
4D6
100
AcDbEntity
  8
0
100
AcDbLine
 62
7
  6
CONTINUOUS
 10
379.3862089946
 20
-144.4847788708
 11
379.583727703
 21
-144.6230829594
  0
LINE
  5
4D7
100
AcDbEntity
  8
RUNDUNGEN
100
AcDbLine
 62
7
  6
CONTINUOUS
 10
361.3929620347
 20
-137.2986749555
 11
361.8076855936
 21
-137.5996576683
  0
LINE
  5
4D8
100
AcDbEntity
  8
RUNDUNGEN
100
AcDbLine
 62
7
  6
CONTINUOUS
 10
361.790510833
 20
-137.5868453028
 11
362.1836601697
 21
-137.8879825123
  0
LINE
  5
4D9
100
AcDbEntity
  8
RUNDUNGEN
100
AcDbLine
 62
7
  6
CONTINUOUS
 10
362.1672564484
 20
-137.8750815783
 11
362.5374835165
 21
-138.1735529072
  0
LINE
  5
4DA
100
AcDbEntity
  8
0
100
AcDbLine
 62
7
  6
CONTINUOUS
 10
269.5488569558
 20
-91.3039309151
 11
269.5488569558
 21
-90.3039309151
  0
LINE
  5
4DB
100
AcDbEntity
  8
0
100
AcDbLine
 62
7
  6
CONTINUOUS
 10
270.5905233741
 20
-91.3039309151
 11
270.5905233741
 21
-90.3039309151
  0
LINE
  5
4DC
100
AcDbEntity
  8
0
100
AcDbLine
 62
7
  6
CONTINUOUS
 10
271.6321905375
 20
-91.3039309151
 11
271.6321905375
 21
-90.3039309151
  0
LINE
  5
4DD
100
AcDbEntity
  8
0
100
AcDbLine
 62
7
  6
CONTINUOUS
 10
271.8926062107
 20
-91.3039309151
 11
271.8926062107
 21
-90.3039309151
  0
LINE
  5
4DE
100
AcDbEntity
  8
0
100
AcDbLine
 62
7
  6
CONTINUOUS
 10
273.9759405375
 20
-91.3039309151
 11
273.9759405375
 21
-90.3039309151
  0
LINE
  5
4DF
100
AcDbEntity
  8
0
100
AcDbLine
 62
7
  6
CONTINUOUS
 10
283.3509390474
 20
-91.3039309151
 11
283.3509390474
 21
-90.3039309151
  0
LINE
  5
4E0
100
AcDbEntity
  8
0
100
AcDbLine
 62
7
  6
CONTINUOUS
 10
285.4342733741
 20
-91.3039309151
 11
285.4342733741
 21
-90.3039309151
  0
LINE
  5
4E1
100
AcDbEntity
  8
0
100
AcDbLine
 62
7
  6
CONTINUOUS
 10
289.0801077008
 20
-91.3039309151
 11
289.0801077008
 21
-90.3039309151
  0
LINE
  5
4E2
100
AcDbEntity
  8
0
100
AcDbLine
 62
7
  6
CONTINUOUS
 10
291.1634390474
 20
-91.3039309151
 11
291.1634390474
 21
-90.3039309151
  0
LINE
  5
4E3
100
AcDbEntity
  8
0
100
AcDbLine
 62
7
  6
CONTINUOUS
 10
291.4238577008
 20
-91.3039309151
 11
291.4238577008
 21
-90.3039309151
  0
LINE
  5
4E4
100
AcDbEntity
  8
0
100
AcDbLine
 62
7
  6
CONTINUOUS
 10
291.9446890474
 20
-91.3039309151
 11
291.9446890474
 21
-90.3039309151
  0
LINE
  5
4E5
100
AcDbEntity
  8
0
100
AcDbLine
 62
7
  6
CONTINUOUS
 10
292.9863577008
 20
-91.3039309151
 11
292.9863577008
 21
-90.3039309151
  0
LINE
  5
4E6
100
AcDbEntity
  8
0
100
AcDbLine
 62
7
  6
CONTINUOUS
 10
294.0280233741
 20
-91.3039309151
 11
294.0280233741
 21
-90.3039309151
  0
LINE
  5
4E7
100
AcDbEntity
  8
0
100
AcDbLine
 62
7
  6
CONTINUOUS
 10
295.3301077008
 20
-91.3039309151
 11
295.3301077008
 21
-90.3039309151
  0
LINE
  5
4E8
100
AcDbEntity
  8
0
100
AcDbLine
 62
7
  6
CONTINUOUS
 10
297.6738577008
 20
-91.3039309151
 11
297.6738577008
 21
-90.3039309151
  0
LINE
  5
4E9
100
AcDbEntity
  8
BEZUGSACHSEN
100
AcDbLine
 62
7
  6
CONTINUOUS
 10
564.0649809763
 20
-137.7191652409
 11
564.4033053497
 21
-137.6153131993
  0
LWPOLYLINE
  5
4EA
100
AcDbEntity
  8
BEZUGSACHSEN
100
AcDbPolyline
 62
7
  6
CONTINUOUS
 90
3
 70
0
 10
564.4064866588
 20
-90.9935251655
 10
564.0649809763
 20
-90.8886965893
 10
563.7134313942
 20
-90.8251979387
  0
LINE
  5
4EB
100
AcDbEntity
  8
RUNDUNGEN
100
AcDbLine
 62
7
  6
CONTINUOUS
 10
362.5219223474
 20
-138.160689092
 11
362.8679279991
 21
-138.453723075
  0
LINE
  5
4EC
100
AcDbEntity
  8
RUNDUNGEN
100
AcDbLine
 62
7
  6
CONTINUOUS
 10
362.8532794176
 20
-138.4410144158
 11
363.1741533975
 21
-138.726135133
  0
LINE
  5
4ED
100
AcDbEntity
  8
RUNDUNGEN
100
AcDbLine
 62
7
  6
CONTINUOUS
 10
363.1604793748
 20
-138.7136867198
 11
363.4551548233
 21
-138.9882737997
  0
LINE
  5
4EE
100
AcDbEntity
  8
RUNDUNGEN
100
AcDbLine
 62
7
  6
CONTINUOUS
 10
363.4424982665
 20
-138.9761906259
 11
363.7102436233
 21
-139.2378923803
  0
LINE
  5
4EF
100
AcDbEntity
  8
RUNDUNGEN
100
AcDbLine
 62
7
  6
CONTINUOUS
 10
363.6986585983
 20
-139.226290732
 11
363.9389851335
 21
-139.4728858866
  0
LINE
  5
4F0
100
AcDbEntity
  8
RUNDUNGEN
100
AcDbLine
 62
7
  6
CONTINUOUS
 10
363.9285099189
 20
-139.4618639958
 11
364.1410611756
 21
-139.6911295826
  0
LINE
  5
4F1
100
AcDbEntity
  8
RUNDUNGEN
100
AcDbLine
 62
7
  6
CONTINUOUS
 10
364.1316899013
 20
-139.6807510359
 11
364.3172451214
 21
-139.8916155378
  0
LINE
  5
4F2
100
AcDbEntity
  8
0
100
AcDbLine
 62
7
  6
CONTINUOUS
 10
298.9759390474
 20
-91.3039309151
 11
298.9759390474
 21
-90.3039309151
  0
LINE
  5
4F3
100
AcDbEntity
  8
0
100
AcDbLine
 62
7
  6
CONTINUOUS
 10
300.0176077008
 20
-91.3039309151
 11
300.0176077008
 21
-90.3039309151
  0
LINE
  5
4F4
100
AcDbEntity
  8
0
100
AcDbLine
 62
7
  6
CONTINUOUS
 10
301.0592733741
 20
-91.3039309151
 11
301.0592733741
 21
-90.3039309151
  0
LINE
  5
4F5
100
AcDbEntity
  8
0
100
AcDbLine
 62
7
  6
CONTINUOUS
 10
301.3196890474
 20
-91.3039309151
 11
301.3196890474
 21
-90.3039309151
  0
LINE
  5
4F6
100
AcDbEntity
  8
0
100
AcDbLine
 62
7
  6
CONTINUOUS
 10
303.4030233741
 20
-91.3039309151
 11
303.4030233741
 21
-90.3039309151
  0
LINE
  5
4F7
100
AcDbEntity
  8
0
100
AcDbLine
 62
7
  6
CONTINUOUS
 10
303.6634390474
 20
-91.3039309151
 11
303.6634390474
 21
-90.3039309151
  0
LINE
  5
4F8
100
AcDbEntity
  8
0
100
AcDbLine
 62
7
  6
CONTINUOUS
 10
304.1842733741
 20
-91.3039309151
 11
304.1842733741
 21
-90.3039309151
  0
LINE
  5
4F9
100
AcDbEntity
  8
0
100
AcDbLine
 62
7
  6
CONTINUOUS
 10
305.2259390474
 20
-91.3039309151
 11
305.2259390474
 21
-90.3039309151
  0
LINE
  5
4FA
100
AcDbEntity
  8
0
100
AcDbLine
 62
7
  6
CONTINUOUS
 10
306.2676077008
 20
-91.3039309151
 11
306.2676077008
 21
-90.3039309151
  0
LINE
  5
4FB
100
AcDbEntity
  8
0
100
AcDbLine
 62
7
  6
CONTINUOUS
 10
307.5696890474
 20
-91.3039309151
 11
307.5696890474
 21
-90.3039309151
  0
LINE
  5
4FC
100
AcDbEntity
  8
0
100
AcDbLine
 62
7
  6
CONTINUOUS
 10
308.6113547206
 20
-91.3039309151
 11
308.6113547206
 21
-90.3039309151
  0
LINE
  5
4FD
100
AcDbEntity
  8
0
100
AcDbLine
 62
7
  6
CONTINUOUS
 10
309.9134420276
 20
-91.3039309151
 11
309.9134420276
 21
-90.3039309151
  0
LINE
  5
4FE
100
AcDbEntity
  8
0
100
AcDbLine
 62
7
  6
CONTINUOUS
 10
310.9551047206
 20
-91.3039309151
 11
310.9551047206
 21
-90.3039309151
  0
LINE
  5
4FF
100
AcDbEntity
  8
0
100
AcDbLine
 62
7
  6
CONTINUOUS
 10
311.9967733741
 20
-91.3039309151
 11
311.9967733741
 21
-90.3039309151
  0
LINE
  5
500
100
AcDbEntity
  8
0
100
AcDbLine
 62
7
  6
CONTINUOUS
 10
312.5176047206
 20
-91.3039309151
 11
312.5176047206
 21
-90.3039309151
  0
LINE
  5
501
100
AcDbEntity
  8
0
100
AcDbLine
 62
7
  6
CONTINUOUS
 10
312.7780233741
 20
-91.3039309151
 11
312.7780233741
 21
-90.3039309151
  0
LINE
  5
502
100
AcDbEntity
  8
0
100
AcDbLine
 62
7
  6
CONTINUOUS
 10
314.8613547206
 20
-91.3039309151
 11
314.8613547206
 21
-90.3039309151
  0
LINE
  5
503
100
AcDbEntity
  8
0
100
AcDbLine
 62
7
  6
CONTINUOUS
 10
316.4238547206
 20
-91.3039309151
 11
316.4238547206
 21
-90.3039309151
  0
LINE
  5
504
100
AcDbEntity
  8
0
100
AcDbLine
 62
7
  6
CONTINUOUS
 10
320.8509420276
 20
-91.3039309151
 11
320.8509420276
 21
-90.3039309151
  0
LINE
  5
505
100
AcDbEntity
  8
0
100
AcDbLine
 62
7
  6
CONTINUOUS
 10
322.9342733741
 20
-91.3039309151
 11
322.9342733741
 21
-90.3039309151
  0
LINE
  5
506
100
AcDbEntity
  8
0
100
AcDbLine
 62
7
  6
CONTINUOUS
 10
324.7571920276
 20
-91.3039309151
 11
324.7571920276
 21
-90.3039309151
  0
LINE
  5
507
100
AcDbEntity
  8
RUNDUNGEN
100
AcDbLine
 62
7
  6
CONTINUOUS
 10
364.3089811883
 20
-139.8819621897
 11
364.468117835
 21
-140.0730616062
  0
LINE
  5
508
100
AcDbEntity
  8
RUNDUNGEN
100
AcDbLine
 62
7
  6
CONTINUOUS
 10
364.4609877286
 20
-140.0642455749
 11
364.5948658885
 21
-140.2347893533
  0
LINE
  5
509
100
AcDbEntity
  8
RUNDUNGEN
100
AcDbLine
 62
7
  6
CONTINUOUS
 10
364.5888713458
 20
-140.2269022904
 11
364.6986627745
 21
-140.3760319792
  0
LINE
  5
50A
100
AcDbEntity
  8
RUNDUNGEN
100
AcDbLine
 62
7
  6
CONTINUOUS
 10
364.6937627561
 20
-140.3691342316
 11
364.7804879932
 21
-140.4955881513
  0
LWPOLYLINE
  5
50B
100
AcDbEntity
  8
RUNDUNGEN
100
AcDbPolyline
 62
7
  6
CONTINUOUS
 90
4
 70
0
 10
364.776657752
 20
-140.4897776697
 10
364.8389408099
 20
-140.5879027313
 10
364.8815333536
 20
-140.6613288932
 10
364.893308803
 20
-140.6831925953
  0
LINE
  5
50C
100
AcDbEntity
  8
0
100
AcDbLine
 62
7
  6
CONTINUOUS
 10
326.8405233741
 20
-91.3039309151
 11
326.8405233741
 21
-90.3039309151
  0
LINE
  5
50D
100
AcDbEntity
  8
0
100
AcDbLine
 62
7
  6
CONTINUOUS
 10
331.0071920276
 20
-91.3039309151
 11
331.0071920276
 21
-90.3039309151
  0
LINE
  5
50E
100
AcDbEntity
  8
0
100
AcDbLine
 62
7
  6
CONTINUOUS
 10
332.5696920276
 20
-91.3039309151
 11
332.5696920276
 21
-90.3039309151
  0
LINE
  5
50F
100
AcDbEntity
  8
0
100
AcDbLine
 62
7
  6
CONTINUOUS
 10
336.7363547206
 20
-91.3039309151
 11
336.7363547206
 21
-90.3039309151
  0
LINE
  5
510
100
AcDbEntity
  8
0
100
AcDbLine
 62
7
  6
CONTINUOUS
 10
338.8196920276
 20
-91.3039309151
 11
338.8196920276
 21
-90.3039309151
  0
LINE
  5
511
100
AcDbEntity
  8
0
100
AcDbLine
 62
7
  6
CONTINUOUS
 10
340.3821920276
 20
-91.3039309151
 11
340.3821920276
 21
-90.3039309151
  0
LINE
  5
512
100
AcDbEntity
  8
0
100
AcDbLine
 62
7
  6
CONTINUOUS
 10
341.9446920276
 20
-91.3039309151
 11
341.9446920276
 21
-90.3039309151
  0
LINE
  5
513
100
AcDbEntity
  8
0
100
AcDbLine
 62
7
  6
CONTINUOUS
 10
344.0280233741
 20
-91.3039309151
 11
344.0280233741
 21
-90.3039309151
  0
LINE
  5
514
100
AcDbEntity
  8
0
100
AcDbLine
 62
7
  6
CONTINUOUS
 10
344.2884420276
 20
-91.3039309151
 11
344.2884420276
 21
-90.3039309151
  0
LINE
  5
515
100
AcDbEntity
  8
0
100
AcDbLine
 62
7
  6
CONTINUOUS
 10
344.8092733741
 20
-91.3039309151
 11
344.8092733741
 21
-90.3039309151
  0
LINE
  5
516
100
AcDbEntity
  8
0
100
AcDbLine
 62
7
  6
CONTINUOUS
 10
345.5905233741
 20
-91.3039309151
 11
345.5905233741
 21
-90.3039309151
  0
LINE
  5
517
100
AcDbEntity
  8
0
100
AcDbLine
 62
7
  6
CONTINUOUS
 10
346.8926047206
 20
-91.3039309151
 11
346.8926047206
 21
-90.3039309151
  0
LINE
  5
518
100
AcDbEntity
  8
0
100
AcDbLine
 62
7
  6
CONTINUOUS
 10
348.1946920276
 20
-91.3039309151
 11
348.1946920276
 21
-90.3039309151
  0
LINE
  5
519
100
AcDbEntity
  8
0
100
AcDbLine
 62
7
  6
CONTINUOUS
 10
349.4967733741
 20
-91.3039309151
 11
349.4967733741
 21
-90.3039309151
  0
LINE
  5
51A
100
AcDbEntity
  8
0
100
AcDbLine
 62
7
  6
CONTINUOUS
 10
350.7988547206
 20
-91.3039309151
 11
350.7988547206
 21
-90.3039309151
  0
LINE
  5
51B
100
AcDbEntity
  8
0
100
AcDbLine
 62
7
  6
CONTINUOUS
 10
352.1009420276
 20
-91.3039309151
 11
352.1009420276
 21
-90.3039309151
  0
LINE
  5
51C
100
AcDbEntity
  8
0
100
AcDbLine
 62
7
  6
CONTINUOUS
 10
352.8821920276
 20
-91.3039309151
 11
352.8821920276
 21
-90.3039309151
  0
LINE
  5
51D
100
AcDbEntity
  8
0
100
AcDbLine
 62
7
  6
CONTINUOUS
 10
353.4030233741
 20
-91.3039309151
 11
353.4030233741
 21
-90.3039309151
  0
LINE
  5
51E
100
AcDbEntity
  8
BEZUGSACHSEN
100
AcDbLine
 62
7
  6
CONTINUOUS
 10
564.4064866588
 20
-137.6143366647
 11
564.7331080267
 21
-137.4696653291
  0
LINE
  5
51F
100
AcDbEntity
  8
BEZUGSACHSEN
100
AcDbLine
 62
7
  6
CONTINUOUS
 10
564.7331080267
 20
-91.1381965011
 11
564.4002397631
 21
-90.9912002752
  0
LINE
  5
520
100
AcDbEntity
  8
RUNDUNGEN
100
AcDbLine
 62
7
  6
CONTINUOUS
 10
364.8405233741
 20
-140.5906309462
 11
364.8405233741
 21
-141.303827558
  0
LINE
  5
521
100
AcDbEntity
  8
0
100
AcDbLine
 62
7
  6
CONTINUOUS
 10
369.0237417074
 20
-84.3040116433
 11
367.9150634112
 21
-91.3039309151
  0
LINE
  5
522
100
AcDbEntity
  8
BEZUGSACHSEN
100
AcDbLine
 62
7
  6
CONTINUOUS
 10
564.7331080267
 20
-137.4696653291
 11
565.0402155653
 21
-137.2872028941
  0
LINE
  5
523
100
AcDbEntity
  8
BEZUGSACHSEN
100
AcDbLine
 62
7
  6
CONTINUOUS
 10
565.0402155653
 20
-91.3206589361
 11
564.7252048902
 21
-91.1341316741
  0
LINE
  5
524
100
AcDbEntity
  8
0
100
AcDbLine
 62
7
  6
CONTINUOUS
 10
403.9171977517
 20
-86.4903455253
 11
404.9786358949
 21
-96.5892548653
  0
LINE
  5
525
100
AcDbEntity
  8
0
100
AcDbLine
 62
7
  6
CONTINUOUS
 10
404.9786358949
 20
-96.5892548653
 11
404.9786358949
 21
-132.0186069649
  0
LINE
  5
526
100
AcDbEntity
  8
0
100
AcDbLine
 62
7
  6
CONTINUOUS
 10
403.9171977517
 20
-142.1175163049
 11
404.9786358949
 21
-132.0186069649
  0
LWPOLYLINE
  5
527
100
AcDbEntity
  8
BEZUGSACHSEN
100
AcDbPolyline
 62
7
  6
CONTINUOUS
 90
3
 70
0
 10
565.0402155653
 20
-137.2872028941
 10
565.3234561253
 20
-137.0695366547
 10
565.4436336773
 20
-136.9593691956
  0
LINE
  5
528
100
AcDbEntity
  8
BEZUGSACHSEN
100
AcDbLine
 62
7
  6
CONTINUOUS
 10
565.3234561253
 20
-91.5383251755
 11
565.0310083758
 21
-91.3144432877
  0
LWPOLYLINE
  5
529
100
AcDbEntity
  8
BEZUGSACHSEN
100
AcDbPolyline
 62
7
  6
CONTINUOUS
 90
10
 70
0
 10
565.4445850245
 20
-136.958498857
 10
566.030348805
 20
-136.3800973288
 10
567.529415545
 20
-134.7879251397
 10
568.9208236101
 20
-133.1382342145
 10
570.1974190006
 20
-131.4401828861
 10
571.3545127278
 20
-129.7037968105
 10
572.3887800721
 20
-127.9413328656
 10
573.2993377746
 20
-126.1656601107
 10
574.0879854121
 20
-124.3888205515
 10
574.6456973817
 20
-122.9408485163
  0
LWPOLYLINE
  5
52A
100
AcDbEntity
  8
RUNDUNGEN
100
AcDbPolyline
 62
7
  6
CONTINUOUS
 90
10
 70
0
 10
565.4445850245
 20
-136.958498857
 10
566.030348805
 20
-136.3800973288
 10
567.529415545
 20
-134.7879251397
 10
568.9208236101
 20
-133.1382342145
 10
570.1974190006
 20
-131.4401828861
 10
571.3545127278
 20
-129.7037968105
 10
572.3887800721
 20
-127.9413328656
 10
573.2993377746
 20
-126.1656601107
 10
574.0879854121
 20
-124.3888205515
 10
574.6456973817
 20
-122.9408485163
  0
LINE
  5
52B
100
AcDbEntity
  8
BEZUGSACHSEN
100
AcDbLine
 62
7
  6
CONTINUOUS
 10
565.4431129285
 20
-136.959923124
 11
565.4436454617
 21
-136.9594087608
  0
LINE
  5
52C
100
AcDbEntity
  8
RUNDUNGEN
100
AcDbLine
 62
7
  6
CONTINUOUS
 10
565.4431129284
 20
-136.9599231241
 11
565.4436454617
 21
-136.9594087608
  0
LINE
  5
52D
100
AcDbEntity
  8
BEZUGSACHSEN
100
AcDbLine
 62
7
  6
CONTINUOUS
 10
565.4436336764
 20
-91.6484926338
 11
565.3133692132
 21
-91.5296099579
  0
LINE
  5
52E
100
AcDbEntity
  8
BEZUGSACHSEN
100
AcDbLine
 62
7
  6
CONTINUOUS
 10
565.4431129284
 20
-91.6479387061
 11
565.4436454617
 21
-91.6484530694
  0
LINE
  5
52F
100
AcDbEntity
  8
BEZUGSACHSEN
100
AcDbLine
 62
7
  6
CONTINUOUS
 10
501.8405233741
 20
-93.8039309151
 11
501.8405233741
 21
-134.8039309151
  0
LWPOLYLINE
  5
530
100
AcDbEntity
  8
BEZUGSACHSEN
100
AcDbPolyline
 62
7
  6
CONTINUOUS
 90
7
 70
0
 10
576.1522201032
 20
-114.3039309151
 10
576.1216680007
 20
-113.0558085677
 10
575.9964547508
 20
-111.4891552314
 10
575.775033688
 20
-109.9332714122
 10
575.458246028
 20
-108.3940512983
 10
575.0472212219
 20
-106.8771070927
 10
574.645696353
 20
-105.6670144113
  0
LWPOLYLINE
  5
531
100
AcDbEntity
  8
BEZUGSACHSEN
100
AcDbPolyline
 62
7
  6
CONTINUOUS
 90
7
 70
0
 10
574.645696353
 20
-122.9408474189
 10
575.0472212219
 20
-121.7307547375
 10
575.458246028
 20
-120.2138105318
 10
575.775033688
 20
-118.6745904179
 10
575.9964547508
 20
-117.1187065987
 10
576.1216680007
 20
-115.5520532623
 10
576.1522201032
 20
-114.3039309151
  0
LWPOLYLINE
  5
532
100
AcDbEntity
  8
RUNDUNGEN
100
AcDbPolyline
 62
7
  6
CONTINUOUS
 90
7
 70
0
 10
574.645696353
 20
-122.9408474189
 10
575.0472212219
 20
-121.7307547374
 10
575.458246028
 20
-120.2138105317
 10
575.775033688
 20
-118.6745904177
 10
575.9964547508
 20
-117.1187065984
 10
576.1216680007
 20
-115.5520532619
 10
576.1522201032
 20
-114.3039309151
  0
LWPOLYLINE
  5
533
100
AcDbEntity
  8
BEZUGSACHSEN
100
AcDbPolyline
 62
7
  6
CONTINUOUS
 90
10
 70
0
 10
574.6456973817
 20
-105.667013314
 10
574.0879854121
 20
-104.2190412787
 10
573.2993377746
 20
-102.4422017195
 10
572.3887800721
 20
-100.6665289646
 10
571.3545127278
 20
-98.9040650197
 10
570.1974190006
 20
-97.1676789441
 10
568.9208236101
 20
-95.4696276157
 10
567.529415545
 20
-93.8199366905
 10
566.030348805
 20
-92.2277645014
 10
565.4445850245
 20
-91.6493629732
  0
LWPOLYLINE
  5
534
100
AcDbEntity
  8
BEZUGSACHSEN
100
AcDbPolyline
 62
7
  6
CONTINUOUS
 90
7
 70
0
 10
-272.471173355
 20
582.6295414486
 10
-272.4406212525
 20
581.3814191012
 10
-272.3154080026
 20
579.8147657649
 10
-272.0939869398
 20
578.2588819457
 10
-271.7771992798
 20
576.7196618318
 10
-271.3661744737
 20
575.2027176262
 10
-270.9646496048
 20
573.9926249448
  0
LWPOLYLINE
  5
535
100
AcDbEntity
  8
BEZUGSACHSEN
100
AcDbPolyline
 62
7
  6
CONTINUOUS
 90
7
 70
0
 10
-270.9646496048
 20
591.2664579524
 10
-271.3661744737
 20
590.056365271
 10
-271.7771992798
 20
588.5394210653
 10
-272.0939869398
 20
587.0002009514
 10
-272.3154080026
 20
585.4443171321
 10
-272.4406212525
 20
583.8776637958
 10
-272.471173355
 20
582.6295414486
  0
LWPOLYLINE
  5
536
100
AcDbEntity
  8
RUNDUNGEN
100
AcDbPolyline
 62
7
  6
CONTINUOUS
 90
7
 70
0
 10
-270.9646496048
 20
591.2664579524
 10
-271.3661744737
 20
590.0563652709
 10
-271.7771992798
 20
588.5394210651
 10
-272.0939869398
 20
587.0002009511
 10
-272.3154080026
 20
585.4443171318
 10
-272.4406212525
 20
583.8776637954
 10
-272.471173355
 20
582.6295414486
  0
LWPOLYLINE
  5
537
100
AcDbEntity
  8
BEZUGSACHSEN
100
AcDbPolyline
 62
7
  6
CONTINUOUS
 90
10
 70
0
 10
-270.9646506334
 20
573.9926238474
 10
-270.4069386639
 20
572.5446518122
 10
-269.6182910264
 20
570.767812253
 10
-268.7077333239
 20
568.9921394981
 10
-267.6734659796
 20
567.2296755531
 10
-266.5163722524
 20
565.4932894776
 10
-265.2397768619
 20
563.7952381492
 10
-263.8483687968
 20
562.145547224
 10
-262.3493020568
 20
560.5533750349
 10
-261.7635382763
 20
559.9749735067
  0
LINE
  5
538
100
AcDbEntity
  8
BEZUGSACHSEN
100
AcDbLine
 62
7
  6
CONTINUOUS
 10
-198.1594766259
 20
562.1295414486
 11
-198.1594766259
 21
603.1295414486
  0
LINE
  5
539
100
AcDbEntity
  8
RUNDUNGEN
100
AcDbLine
 62
7
  6
CONTINUOUS
 10
-142.6594766259
 20
550.1295414486
 11
-142.6594766259
 21
615.1295414486
  0
LINE
  5
53A
100
AcDbEntity
  8
RUNDUNGEN
100
AcDbLine
 62
7
  6
CONTINUOUS
 10
-136.6594766259
 20
616.6295414486
 11
-136.6594766259
 21
548.6295414486
  0
LWPOLYLINE
  5
53B
100
AcDbEntity
  8
BEZUGSACHSEN
100
AcDbPolyline
 62
7
  6
CONTINUOUS
 90
10
 70
0
 10
-261.7635382763
 20
605.2841093905
 10
-262.3493020568
 20
604.7057078623
 10
-263.8483687968
 20
603.1135356732
 10
-265.2397768619
 20
601.463844748
 10
-266.5163722524
 20
599.7657934195
 10
-267.6734659796
 20
598.029407344
 10
-268.7077333239
 20
596.266943399
 10
-269.6182910264
 20
594.4912706442
 10
-270.4069386639
 20
592.714431085
 10
-270.9646506334
 20
591.2664590497
  0
LWPOLYLINE
  5
53C
100
AcDbEntity
  8
RUNDUNGEN
100
AcDbPolyline
 62
7
  6
CONTINUOUS
 90
10
 70
0
 10
-261.7635382763
 20
605.2841093905
 10
-262.3493020568
 20
604.7057078623
 10
-263.8483687968
 20
603.1135356732
 10
-265.2397768619
 20
601.463844748
 10
-266.5163722524
 20
599.7657934195
 10
-267.6734659796
 20
598.029407344
 10
-268.7077333239
 20
596.266943399
 10
-269.6182910264
 20
594.4912706442
 10
-270.4069386639
 20
592.714431085
 10
-270.9646506334
 20
591.2664590497
  0
LINE
  5
53D
100
AcDbEntity
  8
BEZUGSACHSEN
100
AcDbLine
 62
7
  6
CONTINUOUS
 10
-261.7620661803
 20
605.2855336574
 11
-261.7625987135
 21
605.2850192942
  0
LINE
  5
53E
100
AcDbEntity
  8
RUNDUNGEN
100
AcDbLine
 62
7
  6
CONTINUOUS
 10
-261.7620661802
 20
605.2855336575
 11
-261.7625987135
 21
605.2850192942
  0
LINE
  5
53F
100
AcDbEntity
  8
BEZUGSACHSEN
100
AcDbLine
 62
7
  6
CONTINUOUS
 10
-261.7625869282
 20
559.9741031673
 11
-261.632322465
 21
559.8552204914
  0
LINE
  5
540
100
AcDbEntity
  8
BEZUGSACHSEN
100
AcDbLine
 62
7
  6
CONTINUOUS
 10
-261.7620661802
 20
559.9735492396
 11
-261.7625987135
 21
559.9740636029
  0
LWPOLYLINE
  5
541
100
AcDbEntity
  8
BEZUGSACHSEN
100
AcDbPolyline
 62
7
  6
CONTINUOUS
 90
3
 70
0
 10
-261.3591688171
 20
605.6128134276
 10
-261.6424093771
 20
605.3951471882
 10
-261.7625869291
 20
605.2849797291
  0
LINE
  5
542
100
AcDbEntity
  8
BEZUGSACHSEN
100
AcDbLine
 62
7
  6
CONTINUOUS
 10
-261.6424093771
 20
559.8639357089
 11
-261.3499616276
 21
559.6400538211
  0
LINE
  5
543
100
AcDbEntity
  8
RUNDUNGEN
100
AcDbLine
 62
7
  6
CONTINUOUS
 10
-99.6594766259
 20
551.6295414486
 11
-99.6594766259
 21
613.6295414486
  0
LINE
  5
544
100
AcDbEntity
  8
BEZUGSACHSEN
100
AcDbLine
 62
7
  6
CONTINUOUS
 10
-261.0520612785
 20
605.7952758626
 11
-261.3591688171
 21
605.6128134276
  0
LINE
  5
545
100
AcDbEntity
  8
BEZUGSACHSEN
100
AcDbLine
 62
7
  6
CONTINUOUS
 10
-261.3591688171
 20
559.6462694696
 11
-261.044158142
 21
559.4597422076
  0
LINE
  5
546
100
AcDbEntity
  8
0
100
AcDbLine
 62
7
  6
CONTINUOUS
 10
-64.234016663
 20
559.6295414486
 11
-65.3426949592
 21
552.6296221763
  0
LWPOLYLINE
  5
547
100
AcDbEntity
  8
RUNDUNGEN
100
AcDbPolyline
 62
7
  6
CONTINUOUS
 90
15
 70
0
 10
-61.2029246883
 20
608.9526685127
 10
-61.2753990762
 20
609.1981186776
 10
-61.3755661539
 20
609.4459615232
 10
-61.4986286641
 20
609.680122707
 10
-61.6436793414
 20
609.8992146317
 10
-61.8089717304
 20
610.1011110973
 10
-61.9933716495
 20
610.2847034475
 10
-62.1951411184
 20
610.4482632218
 10
-62.412858174
 20
610.5905874044
 10
-62.644417869
 20
610.7101384204
 10
-62.8883027092
 20
610.8059093578
 10
-63.1425121207
 20
610.8767454502
 10
-63.4051039194
 20
610.9216594325
 10
-63.674105894
 20
610.9397794819
 10
-63.7181051939
 20
610.9401366617
  0
LINE
  5
548
100
AcDbEntity
  8
RUNDUNGEN
100
AcDbLine
 62
7
  6
CONTINUOUS
 10
-61.2029246883
 20
608.9526685127
 11
-61.202023539
 21
608.9489759467
  0
LINE
  5
549
100
AcDbEntity
  8
0
100
AcDbLine
 62
7
  6
CONTINUOUS
 10
-23.0219766259
 20
559.6295414486
 11
-23.0219766259
 21
558.6295414486
  0
LINE
  5
54A
100
AcDbEntity
  8
0
100
AcDbLine
 62
7
  6
CONTINUOUS
 10
-20.1594766259
 20
559.6295414486
 11
-20.1594766259
 21
558.6295414486
  0
LINE
  5
54B
100
AcDbEntity
  8
BEZUGSACHSEN
100
AcDbLine
 62
7
  6
CONTINUOUS
 10
-260.7254399106
 20
605.9399471982
 11
-261.0520612785
 21
605.7952758626
  0
LINE
  5
54C
100
AcDbEntity
  8
BEZUGSACHSEN
100
AcDbLine
 62
7
  6
CONTINUOUS
 10
-261.0520612785
 20
559.4638070346
 11
-260.7191930149
 21
559.3168108087
  0
LINE
  5
54D
100
AcDbEntity
  8
RUNDUNGEN
100
AcDbLine
 62
7
  6
CONTINUOUS
 10
-61.1521747602
 20
608.9041301627
 11
-61.1725998966
 21
608.9380845177
  0
LWPOLYLINE
  5
54E
100
AcDbEntity
  8
RUNDUNGEN
100
AcDbPolyline
 62
7
  6
CONTINUOUS
 90
3
 70
0
 10
-61.1699969183
 20
608.9336898118
 10
-61.1988753104
 20
608.9840181816
 10
-61.2250615757
 20
609.0339511723
  0
LINE
  5
54F
100
AcDbEntity
  8
0
100
AcDbLine
 62
7
  6
CONTINUOUS
 10
-14.5844766259
 20
559.6295414486
 11
-14.5844766259
 21
558.6295414486
  0
LINE
  5
550
100
AcDbEntity
  8
0
100
AcDbLine
 62
7
  6
CONTINUOUS
 10
-11.7219766259
 20
559.6295414486
 11
-11.7219766259
 21
558.6295414486
  0
LINE
  5
551
100
AcDbEntity
  8
BEZUGSACHSEN
100
AcDbLine
 62
7
  6
CONTINUOUS
 10
-260.3839342281
 20
606.0447757744
 11
-260.7222586015
 21
605.9409237327
  0
LWPOLYLINE
  5
552
100
AcDbEntity
  8
BEZUGSACHSEN
100
AcDbPolyline
 62
7
  6
CONTINUOUS
 90
3
 70
0
 10
-260.7254399106
 20
559.319135699
 10
-260.3839342281
 20
559.2143071228
 10
-260.032384646
 20
559.1508084721
  0
LINE
  5
553
100
AcDbEntity
  8
RUNDUNGEN
100
AcDbLine
 62
7
  6
CONTINUOUS
 10
-60.8748903926
 20
608.5096469261
 11
-60.9968828728
 21
608.6726379035
  0
LINE
  5
554
100
AcDbEntity
  8
RUNDUNGEN
100
AcDbLine
 62
7
  6
CONTINUOUS
 10
-60.9914035202
 20
608.6650452042
 11
-61.0877227592
 21
608.8035039098
  0
LINE
  5
555
100
AcDbEntity
  8
RUNDUNGEN
100
AcDbLine
 62
7
  6
CONTINUOUS
 10
-61.0835394298
 20
608.7972320413
 11
-61.155165833
 21
608.9090207045
  0
LINE
  5
556
100
AcDbEntity
  8
0
100
AcDbLine
 62
7
  6
CONTINUOUS
 10
-79.8680883885
 20
549.5337812271
 11
-76.7382728363
 21
551.72530167
  0
LINE
  5
557
100
AcDbEntity
  8
BEZUGSACHSEN
100
AcDbLine
 62
7
  6
CONTINUOUS
 10
563.7134313942
 20
559.1508084721
 11
564.0627976458
 21
559.2139127587
  0
LINE
  5
558
100
AcDbEntity
  8
RUNDUNGEN
100
AcDbLine
 62
7
  6
CONTINUOUS
 10
-76.1886944098
 20
611.483183321
 11
-76.5835049397
 21
611.7024059061
  0
LWPOLYLINE
  5
559
100
AcDbEntity
  8
RUNDUNGEN
100
AcDbPolyline
 62
7
  6
CONTINUOUS
 90
8
 70
0
 10
-80.0363812016
 20
614.0371573239
 10
-80.42017866
 20
614.257197068
 10
-80.8221941288
 20
614.4427164127
 10
-81.2392486434
 20
614.5923045858
 10
-81.668285081
 20
614.7048175068
 10
-82.1060696817
 20
614.779365674
 10
-82.5491981275
 20
614.815232097
 10
-82.7359705714
 20
614.8186875718
  0
LINE
  5
55A
100
AcDbEntity
  8
RUNDUNGEN
100
AcDbLine
 62
7
  6
CONTINUOUS
 10
-76.5688310666
 20
611.6934134077
 11
-76.7737205204
 21
611.8253973507
  0
LWPOLYLINE
  5
55B
100
AcDbEntity
  8
RUNDUNGEN
100
AcDbPolyline
 62
7
  6
CONTINUOUS
 90
8
 70
0
 10
-79.9041769434
 20
613.950464267
 10
-80.0564324583
 20
614.0497923011
 10
-80.4413841195
 20
614.2680783082
 10
-80.8443414492
 20
614.4517158103
 10
-81.262112126
 20
614.5993283661
 10
-81.6916151462
 20
614.7097956599
 10
-82.129624943
 20
614.7822621446
 10
-82.5727296378
 20
614.8160463881
  0
LINE
  5
55C
100
AcDbEntity
  8
RUNDUNGEN
100
AcDbLine
 62
7
  6
CONTINUOUS
 10
-76.7737043283
 20
611.8253764523
 11
-79.9041535697
 21
613.9504662763
  0
LINE
  5
55D
100
AcDbEntity
  8
RUNDUNGEN
100
AcDbLine
 62
7
  6
CONTINUOUS
 10
-75.7911194634
 20
611.3057185363
 11
-76.2042140775
 21
611.4909517869
  0
LWPOLYLINE
  5
55E
100
AcDbEntity
  8
RUNDUNGEN
100
AcDbPolyline
 62
7
  6
CONTINUOUS
 90
6
 70
0
 10
128.9191835105
 20
609.5963091168
 10
128.9224364921
 20
609.6044263693
 10
128.919929045
 20
609.5992808544
 10
128.9011270795
 20
609.5632507525
 10
128.8633901037
 20
609.4983387683
 10
128.8048987719
 20
609.4068396929
  0
LINE
  5
55F
100
AcDbEntity
  8
RUNDUNGEN
100
AcDbLine
 62
7
  6
CONTINUOUS
 10
128.8083086904
 20
609.4119667946
 11
128.7244570606
 21
609.2910835367
  0
LINE
  5
560
100
AcDbEntity
  8
RUNDUNGEN
100
AcDbLine
 62
7
  6
CONTINUOUS
 10
128.7288946662
 20
609.2972445509
 11
128.6210259033
 21
609.1528833706
  0
LINE
  5
561
100
AcDbEntity
  8
RUNDUNGEN
100
AcDbLine
 62
7
  6
CONTINUOUS
 10
128.6264665272
 20
609.1599216978
 11
128.4940862708
 21
608.9942060547
  0
LINE
  5
562
100
AcDbEntity
  8
RUNDUNGEN
100
AcDbLine
 62
7
  6
CONTINUOUS
 10
128.5004581979
 20
609.0019447354
 11
128.3433301354
 21
608.8168756467
  0
LINE
  5
563
100
AcDbEntity
  8
RUNDUNGEN
100
AcDbLine
 62
7
  6
CONTINUOUS
 10
124.7498174012
 20
605.7863977781
 11
124.5377791461
 21
605.5447937362
  0
LINE
  5
564
100
AcDbEntity
  8
RUNDUNGEN
100
AcDbLine
 62
7
  6
CONTINUOUS
 10
124.5377791461
 20
605.5447937362
 11
124.1716524657
 21
605.1328899146
  0
LINE
  5
565
100
AcDbEntity
  8
RUNDUNGEN
100
AcDbLine
 62
7
  6
CONTINUOUS
 10
128.3505919254
 20
608.8251898023
 11
128.1688913597
 21
608.6229080302
  0
LINE
  5
566
100
AcDbEntity
  8
RUNDUNGEN
100
AcDbLine
 62
7
  6
CONTINUOUS
 10
124.1777380075
 20
605.1397090201
 11
123.9394520857
 21
604.8750638439
  0
LINE
  5
567
100
AcDbEntity
  8
RUNDUNGEN
100
AcDbLine
 62
7
  6
CONTINUOUS
 10
123.9394544211
 20
604.8750664278
 11
123.8877349104
 21
604.8189639149
  0
LINE
  5
568
100
AcDbEntity
  8
RUNDUNGEN
100
AcDbLine
 62
7
  6
CONTINUOUS
 10
124.8212012265
 20
605.86267193
 11
124.7492423871
 21
605.7857381006
  0
LINE
  5
569
100
AcDbEntity
  8
RUNDUNGEN
100
AcDbLine
 62
7
  6
CONTINUOUS
 10
128.1770162896
 20
608.6317130935
 11
127.970778031
 21
608.4138973499
  0
LINE
  5
56A
100
AcDbEntity
  8
RUNDUNGEN
100
AcDbLine
 62
7
  6
CONTINUOUS
 10
123.897486325
 20
604.8293832711
 11
123.8335706094
 21
604.7624517547
  0
LINE
  5
56B
100
AcDbEntity
  8
RUNDUNGEN
100
AcDbLine
 62
7
  6
CONTINUOUS
 10
127.9796819973
 20
608.4230691944
 11
127.7494152648
 21
608.1917127903
  0
LINE
  5
56C
100
AcDbEntity
  8
RUNDUNGEN
100
AcDbLine
 62
7
  6
CONTINUOUS
 10
123.8431084098
 20
604.7722340878
 11
123.7801398455
 21
604.709015797
  0
LINE
  5
56D
100
AcDbEntity
  8
RUNDUNGEN
100
AcDbLine
 62
7
  6
CONTINUOUS
 10
127.7589890429
 20
608.2011066989
 11
127.5049076059
 21
607.9578121842
  0
LWPOLYLINE
  5
56E
100
AcDbEntity
  8
RUNDUNGEN
100
AcDbPolyline
 62
7
  6
CONTINUOUS
 90
3
 70
0
 10
123.7894304957
 20
604.7181383428
 10
123.7277572741
 20
604.6589530367
 10
123.6767617633
 20
604.6125417981
  0
LINE
  5
56F
100
AcDbEntity
  8
RUNDUNGEN
100
AcDbLine
 62
7
  6
CONTINUOUS
 10
127.5150952462
 20
607.967338766
 11
127.2377039543
 21
607.7139164908
  0
LINE
  5
570
100
AcDbEntity
  8
RUNDUNGEN
100
AcDbLine
 62
7
  6
CONTINUOUS
 10
124.9557973627
 20
605.9818722827
 11
124.8212012265
 21
605.86267193
  0
LINE
  5
571
100
AcDbEntity
  8
RUNDUNGEN
100
AcDbLine
 62
7
  6
CONTINUOUS
 10
127.2484624193
 20
607.7235180473
 11
126.9480773989
 21
607.4615459982
  0
LWPOLYLINE
  5
572
100
AcDbEntity
  8
RUNDUNGEN
100
AcDbPolyline
 62
7
  6
CONTINUOUS
 90
6
 70
0
 10
123.6767617633
 20
604.6125417981
 10
123.6277336851
 20
604.5702051463
 10
123.5812891702
 20
604.5323429949
 10
123.5381867566
 20
604.4993837767
 10
123.499399222
 20
604.4717329279
 10
123.466322789
 20
604.4499628031
  0
LINE
  5
573
100
AcDbEntity
  8
RUNDUNGEN
100
AcDbLine
 62
7
  6
CONTINUOUS
 10
126.9593323901
 20
607.4711427382
 11
126.6364948302
 21
607.202446487
  0
LINE
  5
574
100
AcDbEntity
  8
RUNDUNGEN
100
AcDbLine
 62
7
  6
CONTINUOUS
 10
126.6481979188
 20
607.2119607451
 11
126.3031371201
 21
606.9381658788
  0
LINE
  5
575
100
AcDbEntity
  8
RUNDUNGEN
100
AcDbLine
 62
7
  6
CONTINUOUS
 10
126.3152342109
 20
606.9475303164
 11
125.9484245774
 21
606.6705095226
  0
LINE
  5
576
100
AcDbEntity
  8
RUNDUNGEN
100
AcDbLine
 62
7
  6
CONTINUOUS
 10
125.9608487924
 20
606.6796611023
 11
125.5725901547
 21
606.4012735697
  0
LINE
  5
577
100
AcDbEntity
  8
RUNDUNGEN
100
AcDbLine
 62
7
  6
CONTINUOUS
 10
124.998945554
 20
606.0126904638
 11
124.9557973627
 21
605.9818722827
  0
LINE
  5
578
100
AcDbEntity
  8
RUNDUNGEN
100
AcDbLine
 62
7
  6
CONTINUOUS
 10
125.5852900299
 20
606.4101416327
 11
125.1761000403
 21
606.1325668377
  0
LWPOLYLINE
  5
579
100
AcDbEntity
  8
RUNDUNGEN
100
AcDbPolyline
 62
7
  6
CONTINUOUS
 90
5
 70
0
 10
125.0674474168
 20
606.0616101499
 10
125.0262826105
 20
606.0339691751
 10
124.8976384697
 20
605.9338347097
 10
124.7802236752
 20
605.8201751418
 10
124.74977196
 20
605.7863457449
  0
LINE
  5
57A
100
AcDbEntity
  8
RUNDUNGEN
100
AcDbLine
 62
7
  6
CONTINUOUS
 10
125.1890420709
 20
606.1410944045
 11
125.0677021435
 21
606.0617740767
  0
LINE
  5
57B
100
AcDbEntity
  8
RUNDUNGEN
100
AcDbLine
 62
7
  6
CONTINUOUS
 10
123.466322789
 20
604.4499628031
 11
123.4442471476
 21
604.4366149804
  0
LWPOLYLINE
  5
57C
100
AcDbEntity
  8
RUNDUNGEN
100
AcDbPolyline
 62
7
  6
CONTINUOUS
 90
3
 70
0
 10
123.4538081296
 20
604.442263743
 10
123.4403195353
 20
604.4343594414
 10
123.4252722722
 20
604.4261631844
  0
LINE
  5
57D
100
AcDbEntity
  8
RUNDUNGEN
100
AcDbLine
 62
7
  6
CONTINUOUS
 10
123.4251561545
 20
604.426115238
 11
123.4255973762
 21
604.4263417419
  0
LINE
  5
57E
100
AcDbEntity
  8
RUNDUNGEN
100
AcDbLine
 62
7
  6
CONTINUOUS
 10
123.4255973762
 20
604.4263417419
 11
123.1342437929
 21
604.2809596824
  0
LINE
  5
57F
100
AcDbEntity
  8
RUNDUNGEN
100
AcDbLine
 62
7
  6
CONTINUOUS
 10
123.1523714631
 20
604.2897608196
 11
122.6374448686
 21
604.0526033017
  0
LINE
  5
580
100
AcDbEntity
  8
RUNDUNGEN
100
AcDbLine
 62
7
  6
CONTINUOUS
 10
122.6560325321
 20
604.060697303
 11
122.1350204022
 21
603.8473871303
  0
LINE
  5
581
100
AcDbEntity
  8
RUNDUNGEN
100
AcDbLine
 62
7
  6
CONTINUOUS
 10
122.1540508375
 20
603.8546798833
 11
121.6274598786
 21
603.6670920521
  0
LINE
  5
582
100
AcDbEntity
  8
RUNDUNGEN
100
AcDbLine
 62
7
  6
CONTINUOUS
 10
121.6468959645
 20
603.6734867516
 11
121.1152979393
 21
603.5136435722
  0
LINE
  5
583
100
AcDbEntity
  8
RUNDUNGEN
100
AcDbLine
 62
7
  6
CONTINUOUS
 10
357.204023627
 20
603.5381294923
 11
356.6596965049
 21
603.4019695198
  0
LINE
  5
584
100
AcDbEntity
  8
BEZUGSACHSEN
100
AcDbLine
 62
7
  6
CONTINUOUS
 10
563.3568221384
 20
559.1295414486
 11
563.7123239738
 21
559.1507424292
  0
LINE
  5
585
100
AcDbEntity
  8
0
100
AcDbLine
 62
7
  6
CONTINUOUS
 10
164.8405233741
 20
537.6295414486
 11
158.8405233741
 21
537.6295414486
  0
LINE
  5
586
100
AcDbEntity
  8
0
100
AcDbLine
 62
7
  6
CONTINUOUS
 10
144.8405233741
 20
537.6295414486
 11
138.8405233741
 21
537.6295414486
  0
LINE
  5
587
100
AcDbEntity
  8
0
100
AcDbLine
 62
7
  6
CONTINUOUS
 10
158.8405233741
 20
539.6295414486
 11
144.8405233741
 21
539.6295414486
  0
LINE
  5
588
100
AcDbEntity
  8
0
100
AcDbLine
 62
7
  6
CONTINUOUS
 10
-137.6594766259
 20
547.6295414486
 11
-140.1594766259
 21
547.6295414486
  0
LINE
  5
589
100
AcDbEntity
  8
RUNDUNGEN
100
AcDbLine
 62
7
  6
CONTINUOUS
 10
-137.6594766259
 20
547.6295414486
 11
-140.1594766259
 21
547.6295414486
  0
LINE
  5
58A
100
AcDbEntity
  8
0
100
AcDbLine
 62
7
  6
CONTINUOUS
 10
-96.6594766259
 20
548.6295414486
 11
-82.7359705703
 21
548.6295414486
  0
LINE
  5
58B
100
AcDbEntity
  8
0
100
AcDbLine
 62
7
  6
CONTINUOUS
 10
126.5218955159
 20
552.1295414486
 11
133.8405233741
 21
552.1295414486
  0
LINE
  5
58C
100
AcDbEntity
  8
0
100
AcDbLine
 62
7
  6
CONTINUOUS
 10
169.8405233741
 20
552.1295414486
 11
177.1591512323
 21
552.1295414486
  0
LINE
  5
58D
100
AcDbEntity
  8
0
100
AcDbLine
 62
7
  6
CONTINUOUS
 10
380.1573041394
 20
552.1295414486
 11
400.9336320656
 21
552.1295414486
  0
LINE
  5
58E
100
AcDbEntity
  8
0
100
AcDbLine
 62
7
  6
CONTINUOUS
 10
-73.8703906545
 20
552.6295414486
 11
-65.3359072327
 21
552.6295414486
  0
LINE
  5
58F
100
AcDbEntity
  8
0
100
AcDbLine
 62
7
  6
CONTINUOUS
 10
114.0169539809
 20
552.6295414486
 11
124.7955028448
 21
552.6295414486
  0
LINE
  5
590
100
AcDbEntity
  8
0
100
AcDbLine
 62
7
  6
CONTINUOUS
 10
178.8855439034
 20
552.6295414486
 11
189.6640927696
 21
552.6295414486
  0
LINE
  5
591
100
AcDbEntity
  8
0
100
AcDbLine
 62
7
  6
CONTINUOUS
 10
369.0169539786
 20
552.6295414486
 11
378.8126325583
 21
552.6295414486
  0
LINE
  5
592
100
AcDbEntity
  8
BEZUGSACHSEN
100
AcDbLine
 62
7
  6
CONTINUOUS
 10
-260.0301784112
 20
559.1505452159
 11
-259.6757753897
 21
559.1295414486
  0
LINE
  5
593
100
AcDbEntity
  8
RUNDUNGEN
100
AcDbLine
 62
7
  6
CONTINUOUS
 10
-74.9565249038
 20
611.0539356183
 11
-75.3960810666
 21
611.1674053595
  0
LINE
  5
594
100
AcDbEntity
  8
RUNDUNGEN
100
AcDbLine
 62
7
  6
CONTINUOUS
 10
-75.3792616783
 20
611.1623012409
 11
-75.8073593185
 21
611.3121876817
  0
LINE
  5
595
100
AcDbEntity
  8
0
100
AcDbLine
 62
7
  6
CONTINUOUS
 10
125.1375229881
 20
552.5692340694
 11
126.1798753726
 21
552.1898488278
  0
LINE
  5
596
100
AcDbEntity
  8
0
100
AcDbLine
 62
7
  6
CONTINUOUS
 10
112.9150634112
 20
559.6295414486
 11
114.0237417074
 21
552.6296221763
  0
LINE
  5
597
100
AcDbEntity
  8
RUNDUNGEN
100
AcDbLine
 62
7
  6
CONTINUOUS
 10
133.8907281631
 20
572.8787482783
 11
133.9024821318
 21
572.7680157721
  0
LINE
  5
598
100
AcDbEntity
  8
RUNDUNGEN
100
AcDbLine
 62
7
  6
CONTINUOUS
 10
133.8865126605
 20
572.9215846452
 11
133.8964993279
 21
572.8228853906
  0
LINE
  5
599
100
AcDbEntity
  8
RUNDUNGEN
100
AcDbLine
 62
7
  6
CONTINUOUS
 10
133.8811376099
 20
572.9791397429
 11
133.8907281631
 21
572.8787482783
  0
LINE
  5
59A
100
AcDbEntity
  8
RUNDUNGEN
100
AcDbLine
 62
7
  6
CONTINUOUS
 10
133.8772607705
 20
573.0231501945
 11
133.8848000198
 21
572.9395562084
  0
LINE
  5
59B
100
AcDbEntity
  8
RUNDUNGEN
100
AcDbLine
 62
7
  6
CONTINUOUS
 10
133.8729258055
 20
573.0751791215
 11
133.8811376099
 21
572.9791397429
  0
LINE
  5
59C
100
AcDbEntity
  8
RUNDUNGEN
100
AcDbLine
 62
7
  6
CONTINUOUS
 10
133.8702650605
 20
573.1088570521
 11
133.8768714633
 21
573.0276531967
  0
LINE
  5
59D
100
AcDbEntity
  8
RUNDUNGEN
100
AcDbLine
 62
7
  6
CONTINUOUS
 10
133.8671507849
 20
573.1502442009
 11
133.8730400309
 21
573.0737284877
  0
LINE
  5
59E
100
AcDbEntity
  8
RUNDUNGEN
100
AcDbLine
 62
7
  6
CONTINUOUS
 10
133.8619281899
 20
573.2256735952
 11
133.8698345836
 21
573.1144499935
  0
LINE
  5
59F
100
AcDbEntity
  8
RUNDUNGEN
100
AcDbLine
 62
7
  6
CONTINUOUS
 10
133.8597740005
 20
573.2593544096
 11
133.8634659387
 21
573.2025478717
  0
LINE
  5
5A0
100
AcDbEntity
  8
RUNDUNGEN
100
AcDbLine
 62
7
  6
CONTINUOUS
 10
133.8568088899
 20
573.309055148
 11
133.8619281899
 21
573.2256735952
  0
LINE
  5
5A1
100
AcDbEntity
  8
RUNDUNGEN
100
AcDbLine
 62
7
  6
CONTINUOUS
 10
133.8573435557
 20
573.2997822881
 11
133.857234472
 21
573.301663753
  0
LINE
  5
5A2
100
AcDbEntity
  8
RUNDUNGEN
100
AcDbLine
 62
7
  6
CONTINUOUS
 10
133.8532097434
 20
573.3761012748
 11
133.8568088899
 21
573.309055148
  0
LINE
  5
5A3
100
AcDbEntity
  8
RUNDUNGEN
100
AcDbLine
 62
7
  6
CONTINUOUS
 10
133.850795285
 20
573.4265088853
 11
133.8542084545
 21
573.3565545327
  0
LINE
  5
5A4
100
AcDbEntity
  8
RUNDUNGEN
100
AcDbLine
 62
7
  6
CONTINUOUS
 10
133.8482316544
 20
573.486943816
 11
133.850795285
 21
573.4265088853
  0
LINE
  5
5A5
100
AcDbEntity
  8
RUNDUNGEN
100
AcDbLine
 62
7
  6
CONTINUOUS
 10
133.8459147963
 20
573.5512091869
 11
133.8484970418
 21
573.4806573452
  0
LINE
  5
5A6
100
AcDbEntity
  8
RUNDUNGEN
100
AcDbLine
 62
7
  6
CONTINUOUS
 10
133.8440711218
 20
573.6131177817
 11
133.8465812778
 21
573.5314718068
  0
LINE
  5
5A7
100
AcDbEntity
  8
RUNDUNGEN
100
AcDbLine
 62
7
  6
CONTINUOUS
 10
133.8425199158
 20
573.6796097088
 11
133.8443296434
 21
573.6044666597
  0
LINE
  5
5A8
100
AcDbEntity
  8
RUNDUNGEN
100
AcDbLine
 62
7
  6
CONTINUOUS
 10
133.8413840782
 20
573.7481409375
 11
133.8427469485
 21
573.6689159859
  0
LINE
  5
5A9
100
AcDbEntity
  8
RUNDUNGEN
100
AcDbLine
 62
7
  6
CONTINUOUS
 10
133.840770818
 20
573.811817803
 11
133.8415509356
 21
573.7361729461
  0
LINE
  5
5AA
100
AcDbEntity
  8
RUNDUNGEN
100
AcDbLine
 62
7
  6
CONTINUOUS
 10
133.8405200686
 20
573.8795925706
 11
133.8408309562
 21
573.8010781552
  0
LINE
  5
5AB
100
AcDbEntity
  8
RUNDUNGEN
100
AcDbLine
 62
7
  6
CONTINUOUS
 10
128.8405233741
 20
609.4608192668
 11
128.8405233741
 21
610.1294438416
  0
LINE
  5
5AC
100
AcDbEntity
  8
RUNDUNGEN
100
AcDbLine
 62
7
  6
CONTINUOUS
 10
133.8405233741
 20
542.6295516045
 11
133.8405233741
 21
622.6295313693
  0
LINE
  5
5AD
100
AcDbEntity
  8
RUNDUNGEN
100
AcDbLine
 62
7
  6
CONTINUOUS
 10
143.8405233741
 20
593.6295414486
 11
143.8405233741
 21
571.6295414486
  0
LINE
  5
5AE
100
AcDbEntity
  8
0
100
AcDbLine
 62
7
  6
CONTINUOUS
 10
144.8405233741
 20
537.6295739476
 11
144.8405233741
 21
561.2545414486
  0
LINE
  5
5AF
100
AcDbEntity
  8
RUNDUNGEN
100
AcDbLine
 62
7
  6
CONTINUOUS
 10
144.8405233741
 20
561.2545414486
 11
144.8405233741
 21
563.2100784431
  0
LINE
  5
5B0
100
AcDbEntity
  8
RUNDUNGEN
100
AcDbLine
 62
7
  6
CONTINUOUS
 10
144.8405233741
 20
602.0490044541
 11
144.8405233741
 21
604.0045414486
  0
LINE
  5
5B1
100
AcDbEntity
  8
0
100
AcDbLine
 62
7
  6
CONTINUOUS
 10
144.8405233741
 20
604.0045414486
 11
144.8405233741
 21
627.6295089495
  0
LINE
  5
5B2
100
AcDbEntity
  8
RUNDUNGEN
100
AcDbLine
 62
7
  6
CONTINUOUS
 10
133.8415831081
 20
591.5260257868
 11
133.8407915597
 21
591.4549849601
  0
LINE
  5
5B3
100
AcDbEntity
  8
RUNDUNGEN
100
AcDbLine
 62
7
  6
CONTINUOUS
 10
133.8437917209
 20
591.6352709826
 11
133.8415831081
 21
591.5260257868
  0
LINE
  5
5B4
100
AcDbEntity
  8
RUNDUNGEN
100
AcDbLine
 62
7
  6
CONTINUOUS
 10
133.844252206
 20
591.6528917009
 11
133.8427737058
 21
591.5921647619
  0
LINE
  5
5B5
100
AcDbEntity
  8
RUNDUNGEN
100
AcDbLine
 62
7
  6
CONTINUOUS
 10
133.8458949968
 20
591.7074436384
 11
133.8437917209
 21
591.6352709826
  0
LINE
  5
5B6
100
AcDbEntity
  8
RUNDUNGEN
100
AcDbLine
 62
7
  6
CONTINUOUS
 10
133.847519433
 20
591.7535758865
 11
133.8455854924
 21
591.6977423677
  0
LINE
  5
5B7
100
AcDbEntity
  8
RUNDUNGEN
100
AcDbLine
 62
7
  6
CONTINUOUS
 10
133.850913352
 20
591.8353132874
 11
133.847519433
 21
591.7535758865
  0
LINE
  5
5B8
100
AcDbEntity
  8
RUNDUNGEN
100
AcDbLine
 62
7
  6
CONTINUOUS
 10
133.8535989124
 20
591.8907711933
 11
133.8495289377
 21
591.8038700091
  0
LINE
  5
5B9
100
AcDbEntity
  8
RUNDUNGEN
100
AcDbLine
 62
7
  6
CONTINUOUS
 10
133.8554728973
 20
591.926148819
 11
133.8524014996
 21
591.8668231249
  0
LINE
  5
5BA
100
AcDbEntity
  8
RUNDUNGEN
100
AcDbLine
 62
7
  6
CONTINUOUS
 10
133.8579295208
 20
591.9693042079
 11
133.8549216545
 21
591.9159779362
  0
LINE
  5
5BB
100
AcDbEntity
  8
RUNDUNGEN
100
AcDbLine
 62
7
  6
CONTINUOUS
 10
133.8606863442
 20
592.0142540757
 11
133.8571929268
 21
591.9567094554
  0
LINE
  5
5BC
100
AcDbEntity
  8
RUNDUNGEN
100
AcDbLine
 62
7
  6
CONTINUOUS
 10
133.863495454
 20
592.0569739413
 11
133.8601067583
 21
592.005072753
  0
LINE
  5
5BD
100
AcDbEntity
  8
RUNDUNGEN
100
AcDbLine
 62
7
  6
CONTINUOUS
 10
133.86615012
 20
592.0950185689
 11
133.8628727649
 21
592.0477510291
  0
LINE
  5
5BE
100
AcDbEntity
  8
RUNDUNGEN
100
AcDbLine
 62
7
  6
CONTINUOUS
 10
133.8711078081
 20
592.1610801457
 11
133.86615012
 21
592.0950185689
  0
LWPOLYLINE
  5
5BF
100
AcDbEntity
  8
RUNDUNGEN
100
AcDbPolyline
 62
7
  6
CONTINUOUS
 90
11
 70
0
 10
133.9316816035
 20
592.7267899066
 10
133.9241417116
 20
592.6701154534
 10
133.916980993
 20
592.613841279
 10
133.9101843457
 20
592.5579043714
 10
133.903770342
 20
592.5025261313
 10
133.8977271586
 20
592.4476902892
 10
133.8921115659
 20
592.3940484365
 10
133.8869510275
 20
592.3420918852
 10
133.8822614874
 20
592.292290315
 10
133.8780441331
 20
592.2450372242
 10
133.8711078081
 20
592.1610801457
  0
LWPOLYLINE
  5
5C0
100
AcDbEntity
  8
RUNDUNGEN
100
AcDbPolyline
 62
7
  6
CONTINUOUS
 90
125
 70
0
 10
138.8793423358
 20
600.0621607537
 10
138.8064329531
 20
600.0200933947
 10
138.7339516245
 20
599.9774561912
 10
138.6619015183
 20
599.9342534209
 10
138.5902893307
 20
599.8904915537
 10
138.5191207615
 20
599.8461766144
 10
138.4484014174
 20
599.8013147086
 10
138.378136811
 20
599.7559120209
 10
138.3083323596
 20
599.7099748136
 10
138.2389933841
 20
599.6635094249
 10
138.1701251081
 20
599.6165222674
 10
138.1017326567
 20
599.5690198265
 10
138.0338210555
 20
599.5210086587
 10
137.9663952298
 20
599.4724953901
 10
137.8994600036
 20
599.4234867147
 10
137.8330200986
 20
599.3739893925
 10
137.7670801333
 20
599.3240102484
 10
137.7016446224
 20
599.2735561698
 10
137.6367179759
 20
599.2226341055
 10
137.5723044981
 20
599.1712510637
 10
137.508408387
 20
599.1194141103
 10
137.4450337339
 20
599.0671303673
 10
137.3821845222
 20
599.0144070108
 10
137.3198646271
 20
598.9612512696
 10
137.2580778147
 20
598.9076704234
 10
137.1968277419
 20
598.8536718007
 10
137.1361179553
 20
598.7992627776
 10
137.075951891
 20
598.7444507754
 10
137.0163328741
 20
598.6892432593
 10
136.9572641182
 20
598.6336477366
 10
136.8987487249
 20
598.5776717548
 10
136.8407896837
 20
598.5213228997
 10
136.7833898712
 20
598.464608794
 10
136.7265520512
 20
598.407537095
 10
136.6702788742
 20
598.3501154934
 10
136.6145728772
 20
598.292351711
 10
136.5594364834
 20
598.2342534995
 10
136.5048720024
 20
598.1758286381
 10
136.4508816292
 20
598.1170849321
 10
136.3974674451
 20
598.0580302111
 10
136.344631417
 20
597.9986723271
 10
136.2923753973
 20
597.939019153
 10
136.2407011242
 20
597.8790785805
 10
136.1896102214
 20
597.8188585186
 10
136.1391041986
 20
597.7583668918
 10
136.089184451
 20
597.6976116382
 10
136.0398522596
 20
597.6366007081
 10
135.9911087917
 20
597.575342062
 10
135.9429551004
 20
597.513843669
 10
135.8953921255
 20
597.452113505
 10
135.848420693
 20
597.3901595512
 10
135.8020415161
 20
597.3279897921
 10
135.756255195
 20
597.2656122142
 10
135.7110622172
 20
597.2030348042
 10
135.6664629582
 20
597.140265547
 10
135.6224576814
 20
597.0773124246
 10
135.5790465391
 20
597.0141834142
 10
135.5362295723
 20
596.9508864867
 10
135.4940067115
 20
596.8874296049
 10
135.4523777774
 20
596.8238207221
 10
135.4113424808
 20
596.7600677804
 10
135.3709004237
 20
596.6961787094
 10
135.3310510998
 20
596.6321614244
 10
135.2917938947
 20
596.5680238249
 10
135.253128087
 20
596.5037737933
 10
135.2150528493
 20
596.4394191942
 10
135.177567246
 20
596.3749678681
 10
135.1406702379
 20
596.3104276365
 10
135.1043606775
 20
596.2458062909
 10
135.0686373125
 20
596.1811115956
 10
135.0334987965
 20
596.116351305
 10
134.9989436787
 20
596.051533142
 10
134.9649704071
 20
595.9866648019
 10
134.9315773293
 20
595.92175395
 10
134.8987626932
 20
595.8568082199
 10
134.8665246476
 20
595.791835213
 10
134.8348612435
 20
595.7268424966
 10
134.8037704351
 20
595.661837603
 10
134.7732500804
 20
595.5968280281
 10
134.7432979423
 20
595.5318212304
 10
134.7139116896
 20
595.4668246294
 10
134.6850888983
 20
595.4018456049
 10
134.6568270522
 20
595.3368914956
 10
134.6291235442
 20
595.2719695981
 10
134.6019756771
 20
595.2070871658
 10
134.5753806653
 20
595.1422514079
 10
134.549335635
 20
595.0774694878
 10
134.5238376262
 20
595.0127485233
 10
134.4988835932
 20
594.9480955843
 10
134.4744704061
 20
594.8835176927
 10
134.450594852
 20
594.819021821
 10
134.4272536359
 20
594.7546148919
 10
134.404443382
 20
594.690303777
 10
134.3821606352
 20
594.626095296
 10
134.3604018619
 20
594.5619962163
 10
134.3391634515
 20
594.4980132518
 10
134.3184417179
 20
594.4341530627
 10
134.2982329001
 20
594.3704222539
 10
134.2785331644
 20
594.3068273765
 10
134.2593386046
 20
594.2433749238
 10
134.2406452449
 20
594.1800713361
 10
134.2224490391
 20
594.116922993
 10
134.204745875
 20
594.0539362235
 10
134.1875316041
 20
593.9911174119
 10
134.1708018865
 20
593.9284724184
 10
134.1545522577
 20
593.8660067705
 10
134.1387785936
 20
593.8037274821
 10
134.1234759931
 20
593.7416386681
 10
134.1086418688
 20
593.6797542087
 10
134.0942727489
 20
593.6180852508
 10
134.0803652015
 20
593.5566439306
 10
134.0669155373
 20
593.4954421399
 10
134.0539198276
 20
593.4344915614
 10
134.0413739679
 20
593.3738039366
 10
134.0292736155
 20
593.3133907456
 10
134.0176142685
 20
593.2532635652
 10
134.0063911739
 20
593.1934335745
 10
133.9955994445
 20
593.1339121274
 10
133.9852339204
 20
593.0747099678
 10
133.9752893363
 20
593.0158381079
 10
133.9657601433
 20
592.9573067538
 10
133.9566406986
 20
592.8991263666
 10
133.947925135
 20
592.8413068176
 10
133.9396074148
 20
592.78385763
 10
133.9316816035
 20
592.7267899066
  0
LINE
  5
5C1
100
AcDbEntity
  8
RUNDUNGEN
100
AcDbLine
 62
7
  6
CONTINUOUS
 10
356.6763234818
 20
603.4056266601
 11
356.13435242
 21
603.3030601335
  0
LINE
  5
5C2
100
AcDbEntity
  8
RUNDUNGEN
100
AcDbLine
 62
7
  6
CONTINUOUS
 10
356.1511262184
 20
603.3057123689
 11
355.6191682676
 21
603.237974862
  0
LWPOLYLINE
  5
5C3
100
AcDbEntity
  8
BEZUGSACHSEN
100
AcDbPolyline
 62
7
  6
CONTINUOUS
 90
81
 70
0
 10
159.9690137321
 20
563.8803648015
 10
160.6874510524
 20
563.9154565441
 10
161.3163162079
 20
563.9890158884
 10
161.855785343
 20
564.0846791955
 10
162.3040502205
 20
564.1877017857
 10
162.648904822
 20
564.2819482277
 10
162.9274315146
 20
564.3678716593
 10
163.1704748032
 20
564.4502074897
 10
163.3799778969
 20
564.5268295809
 10
163.5668715064
 20
564.5997072301
 10
163.733386793
 20
564.668317938
 10
163.8846327424
 20
564.7337101437
 10
164.0221625636
 20
564.7957664721
 10
164.1487125799
 20
564.8550968391
 10
164.2654577099
 20
564.9117619485
 10
164.3742880638
 20
564.9662868689
 10
164.4755638937
 20
565.0185288892
 10
164.5696939681
 20
565.0684062838
 10
164.6583200213
 20
565.116550814
 10
164.7425914473
 20
565.1634122039
 10
164.8242204505
 20
565.2098266815
 10
164.90539857
 20
565.2569989116
 10
164.9856419217
 20
565.3046382388
 10
165.0652189438
 20
565.3528905786
 10
165.1440417645
 20
565.401692664
 10
165.2221117271
 20
565.4510337421
 10
165.2994302798
 20
565.5009032335
 10
165.3759989714
 20
565.5512907317
 10
165.4518194474
 20
565.6021860025
 10
165.5268934459
 20
565.6535789824
 10
165.6012227934
 20
565.7054597785
 10
165.6748094012
 20
565.7578186669
 10
165.7476552615
 20
565.8106460918
 10
165.8197624436
 20
565.8639326645
 10
165.89113309
 20
565.9176691623
 10
165.9617694133
 20
565.971846527
 10
166.0316736922
 20
566.0264558643
 10
166.1008482681
 20
566.0814884419
 10
166.169295542
 20
566.136935689
 10
166.2370179707
 20
566.1927891941
 10
166.3040180638
 20
566.2490407044
 10
166.3702983806
 20
566.3056821242
 10
166.4358615263
 20
566.3627055135
 10
166.50071015
 20
566.4201030866
 10
166.5648469405
 20
566.4778672106
 10
166.6282746243
 20
566.5359904041
 10
166.690995962
 20
566.5944653358
 10
166.7530137459
 20
566.6532848225
 10
166.8143307969
 20
566.7124418285
 10
166.8749499621
 20
566.7719294629
 10
166.9348741118
 20
566.8317409792
 10
166.994106137
 20
566.891869773
 10
167.0526489472
 20
566.9523093805
 10
167.1105054671
 20
567.0130534774
 10
167.1676786349
 20
567.0740958767
 10
167.2241713996
 20
567.1354305273
 10
167.2799867185
 20
567.1970515125
 10
167.3351275552
 20
567.2589530483
 10
167.3895968773
 20
567.3211294817
 10
167.4433976538
 20
567.3835752889
 10
167.4965328536
 20
567.4462850741
 10
167.549005443
 20
567.5092535672
 10
167.6008183835
 20
567.5724756228
 10
167.6519746303
 20
567.6359462179
 10
167.7024771299
 20
567.6996604506
 10
167.7523288183
 20
567.7636135383
 10
167.8015326192
 20
567.8278008158
 10
167.850091442
 20
567.8922177341
 10
167.8980081803
 20
567.9568598583
 10
167.9452857099
 20
568.0217228657
 10
167.991926887
 20
568.0868025447
 10
168.037934547
 20
568.1520947928
 10
168.0833115023
 20
568.2175956144
 10
168.128060541
 20
568.28330112
 10
168.1721844254
 20
568.3492075239
 10
168.2156858904
 20
568.4153111425
 10
168.2585676418
 20
568.4816083926
 10
168.3008323554
 20
568.5480957902
 10
168.3424826749
 20
568.6147699478
 10
168.383521211
 20
568.6816275737
 10
168.428526639
 20
568.7564360584
  0
LINE
  5
5C4
100
AcDbEntity
  8
0
100
AcDbLine
 62
7
  6
CONTINUOUS
 10
353.4030233741
 20
558.6295414486
 11
344.0280233741
 21
558.6295414486
  0
LINE
  5
5C5
100
AcDbEntity
  8
0
100
AcDbLine
 62
7
  6
CONTINUOUS
 10
341.9446920276
 20
558.6295414486
 11
338.8196920276
 21
558.6295414486
  0
LINE
  5
5C6
100
AcDbEntity
  8
0
100
AcDbLine
 62
7
  6
CONTINUOUS
 10
336.7363547206
 20
558.6295414486
 11
326.8405233741
 21
558.6295414486
  0
LINE
  5
5C7
100
AcDbEntity
  8
0
100
AcDbLine
 62
7
  6
CONTINUOUS
 10
324.7571920276
 20
558.6295414486
 11
314.8613547206
 21
558.6295414486
  0
LINE
  5
5C8
100
AcDbEntity
  8
0
100
AcDbLine
 62
7
  6
CONTINUOUS
 10
312.7780233741
 20
558.6295414486
 11
303.4030233741
 21
558.6295414486
  0
LINE
  5
5C9
100
AcDbEntity
  8
0
100
AcDbLine
 62
7
  6
CONTINUOUS
 10
301.3196890474
 20
558.6295414486
 11
291.1634390474
 21
558.6295414486
  0
LINE
  5
5CA
100
AcDbEntity
  8
0
100
AcDbLine
 62
7
  6
CONTINUOUS
 10
289.0801077008
 20
558.6295414486
 11
285.4342733741
 21
558.6295414486
  0
LINE
  5
5CB
100
AcDbEntity
  8
0
100
AcDbLine
 62
7
  6
CONTINUOUS
 10
283.3509390474
 20
558.6295414486
 11
273.9759405375
 21
558.6295414486
  0
LINE
  5
5CC
100
AcDbEntity
  8
0
100
AcDbLine
 62
7
  6
CONTINUOUS
 10
271.8926062107
 20
558.6295414486
 11
261.7363565833
 21
558.6295414486
  0
LINE
  5
5CD
100
AcDbEntity
  8
0
100
AcDbLine
 62
7
  6
CONTINUOUS
 10
259.6530233741
 20
558.6295414486
 11
258.0905233741
 21
558.6295414486
  0
LINE
  5
5CE
100
AcDbEntity
  8
0
100
AcDbLine
 62
7
  6
CONTINUOUS
 10
237.8655233741
 20
558.6295414486
 11
226.8405233741
 21
558.6295414486
  0
LINE
  5
5CF
100
AcDbEntity
  8
0
100
AcDbLine
 62
7
  6
CONTINUOUS
 10
224.1405233741
 20
558.6295414486
 11
213.3405233741
 21
558.6295414486
  0
LINE
  5
5D0
100
AcDbEntity
  8
0
100
AcDbLine
 62
7
  6
CONTINUOUS
 10
211.5405233741
 20
558.6295414486
 11
199.8405233741
 21
558.6295414486
  0
LINE
  5
5D1
100
AcDbEntity
  8
0
100
AcDbLine
 62
7
  6
CONTINUOUS
 10
-11.7219766259
 20
558.6295414486
 11
-23.0219766259
 21
558.6295414486
  0
LINE
  5
5D2
100
AcDbEntity
  8
BEZUGSACHSEN
100
AcDbLine
 62
7
  6
CONTINUOUS
 10
563.3561809257
 20
559.1295414486
 11
504.8405233741
 21
559.1295414486
  0
LINE
  5
5D3
100
AcDbEntity
  8
BEZUGSACHSEN
100
AcDbLine
 62
7
  6
CONTINUOUS
 10
-259.6751341317
 20
559.1295414486
 11
-201.1594766259
 21
559.1295414486
  0
LINE
  5
5D4
100
AcDbEntity
  8
0
100
AcDbLine
 62
7
  6
CONTINUOUS
 10
-64.234016663
 20
559.6295414486
 11
112.9150634112
 21
559.6295414486
  0
LINE
  5
5D5
100
AcDbEntity
  8
0
100
AcDbLine
 62
7
  6
CONTINUOUS
 10
190.765983337
 20
559.6295414486
 11
367.9150634112
 21
559.6295414486
  0
LINE
  5
5D6
100
AcDbEntity
  8
RUNDUNGEN
100
AcDbLine
 62
7
  6
CONTINUOUS
 10
146.8405233741
 20
563.854549964
 11
156.8405233741
 21
563.854549964
  0
LINE
  5
5D7
100
AcDbEntity
  8
RUNDUNGEN
100
AcDbLine
 62
7
  6
CONTINUOUS
 10
143.8405232778
 20
563.8795414486
 11
143.9156236669
 21
563.8795414486
  0
LINE
  5
5D8
100
AcDbEntity
  8
BEZUGSACHSEN
100
AcDbLine
 62
7
  6
CONTINUOUS
 10
143.8405345766
 20
563.8795414486
 11
159.8405234704
 21
563.8795414486
  0
LINE
  5
5D9
100
AcDbEntity
  8
BEZUGSACHSEN
100
AcDbLine
 62
7
  6
CONTINUOUS
 10
154.9005126104
 20
566.6295414486
 11
148.8405233741
 21
566.6295414486
  0
LINE
  5
5DA
100
AcDbEntity
  8
0
100
AcDbLine
 62
7
  6
CONTINUOUS
 10
-99.6594766259
 20
566.6295414486
 11
-136.6594766259
 21
566.6295414486
  0
LINE
  5
5DB
100
AcDbEntity
  8
RUNDUNGEN
100
AcDbLine
 62
7
  6
CONTINUOUS
 10
148.7805341378
 20
566.6295414486
 11
154.8405233741
 21
566.6295414486
  0
LINE
  5
5DC
100
AcDbEntity
  8
0
100
AcDbLine
 62
7
  6
CONTINUOUS
 10
-142.6594766259
 20
566.6295414486
 11
-194.1594766259
 21
566.6295414486
  0
LINE
  5
5DD
100
AcDbEntity
  8
0
100
AcDbLine
 62
7
  6
CONTINUOUS
 10
404.9786358949
 20
566.6295414486
 11
497.8405233741
 21
566.6295414486
  0
LINE
  5
5DE
100
AcDbEntity
  8
RUNDUNGEN
100
AcDbLine
 62
7
  6
CONTINUOUS
 10
-87.5017427189
 20
614.8965528967
 11
-87.7565867299
 21
614.9299017861
  0
LINE
  5
5DF
100
AcDbEntity
  8
RUNDUNGEN
100
AcDbLine
 62
7
  6
CONTINUOUS
 10
-87.7387437849
 20
614.9273554967
 11
-87.9772387107
 21
614.9641326446
  0
LINE
  5
5E0
100
AcDbEntity
  8
RUNDUNGEN
100
AcDbLine
 62
7
  6
CONTINUOUS
 10
-74.5263845098
 20
610.9813375352
 11
-74.9737624214
 21
611.0576217982
  0
LINE
  5
5E1
100
AcDbEntity
  8
RUNDUNGEN
100
AcDbLine
 62
7
  6
CONTINUOUS
 10
-87.9608246944
 20
614.9614079439
 11
-88.1821262516
 21
615.0006863057
  0
LINE
  5
5E2
100
AcDbEntity
  8
RUNDUNGEN
100
AcDbLine
 62
7
  6
CONTINUOUS
 10
-88.1671394779
 20
614.9978479669
 11
-88.370694377
 21
615.0387630561
  0
LWPOLYLINE
  5
5E3
100
AcDbEntity
  8
RUNDUNGEN
100
AcDbPolyline
 62
7
  6
CONTINUOUS
 90
10
 70
0
 10
-88.3571222952
 20
615.0358713619
 10
-88.5304408548
 20
615.0746805036
 10
-88.6865728742
 20
615.1134218178
 10
-88.8253865493
 20
615.1513385433
 10
-88.9462811383
 20
615.1874863985
 10
-89.0490668469
 20
615.2209971506
 10
-89.1333424588
 20
615.2508924231
 10
-89.199243366
 20
615.2762792696
 10
-89.2463103448
 20
615.2959408961
 10
-89.2744530559
 20
615.3086861096
  0
LINE
  5
5E4
100
AcDbEntity
  8
RUNDUNGEN
100
AcDbLine
 62
7
  6
CONTINUOUS
 10
138.8187806794
 20
565.2318764517
 11
138.8794087231
 21
565.1969524942
  0
LINE
  5
5E5
100
AcDbEntity
  8
RUNDUNGEN
100
AcDbLine
 62
7
  6
CONTINUOUS
 10
138.7375191258
 20
565.2795093153
 11
138.8793380564
 21
565.1969250148
  0
LINE
  5
5E6
100
AcDbEntity
  8
RUNDUNGEN
100
AcDbLine
 62
7
  6
CONTINUOUS
 10
138.6984367668
 20
565.302889711
 11
138.7584556531
 21
565.2671900085
  0
LINE
  5
5E7
100
AcDbEntity
  8
RUNDUNGEN
100
AcDbLine
 62
7
  6
CONTINUOUS
 10
138.3114225765
 20
565.5471254512
 11
138.8794028459
 21
565.1969502737
  0
LINE
  5
5E8
100
AcDbEntity
  8
RUNDUNGEN
100
AcDbLine
 62
7
  6
CONTINUOUS
 10
138.549749016
 20
565.3938053857
 11
138.6089891744
 21
565.3571556498
  0
LINE
  5
5E9
100
AcDbEntity
  8
RUNDUNGEN
100
AcDbLine
 62
7
  6
CONTINUOUS
 10
138.4908255854
 20
565.4308289161
 11
138.549749016
 21
565.3938053857
  0
LINE
  5
5EA
100
AcDbEntity
  8
RUNDUNGEN
100
AcDbLine
 62
7
  6
CONTINUOUS
 10
138.4030406934
 20
565.4870571886
 11
138.4614835593
 21
565.4494797299
  0
LINE
  5
5EB
100
AcDbEntity
  8
RUNDUNGEN
100
AcDbLine
 62
7
  6
CONTINUOUS
 10
138.3449217873
 20
565.5249993785
 11
138.4030406934
 21
565.4870571886
  0
LINE
  5
5EC
100
AcDbEntity
  8
RUNDUNGEN
100
AcDbLine
 62
7
  6
CONTINUOUS
 10
138.2296670655
 20
565.6019632056
 11
138.2871296551
 21
565.5633026205
  0
LINE
  5
5ED
100
AcDbEntity
  8
RUNDUNGEN
100
AcDbLine
 62
7
  6
CONTINUOUS
 10
138.1725367415
 20
565.6409773955
 11
138.2296670655
 21
565.6019632056
  0
LINE
  5
5EE
100
AcDbEntity
  8
RUNDUNGEN
100
AcDbLine
 62
7
  6
CONTINUOUS
 10
138.0311820471
 20
565.7400351024
 11
138.0874700968
 21
565.7001534417
  0
LINE
  5
5EF
100
AcDbEntity
  8
RUNDUNGEN
100
AcDbLine
 62
7
  6
CONTINUOUS
 10
137.975235429
 20
565.7802570625
 11
138.0311820471
 21
565.7400351024
  0
LINE
  5
5F0
100
AcDbEntity
  8
RUNDUNGEN
100
AcDbLine
 62
7
  6
CONTINUOUS
 10
137.8368790261
 20
565.882275362
 11
137.8919611717
 21
565.8412196079
  0
LINE
  5
5F1
100
AcDbEntity
  8
RUNDUNGEN
100
AcDbLine
 62
7
  6
CONTINUOUS
 10
137.782146902
 20
565.9236577852
 11
137.8368790261
 21
565.882275362
  0
LINE
  5
5F2
100
AcDbEntity
  8
RUNDUNGEN
100
AcDbLine
 62
7
  6
CONTINUOUS
 10
137.7277671464
 20
565.9653629272
 11
137.782146902
 21
565.9236577852
  0
LINE
  5
5F3
100
AcDbEntity
  8
RUNDUNGEN
100
AcDbLine
 62
7
  6
CONTINUOUS
 10
137.6468632195
 20
566.0285170385
 11
137.7007101271
 21
565.9863352768
  0
LINE
  5
5F4
100
AcDbEntity
  8
RUNDUNGEN
100
AcDbLine
 62
7
  6
CONTINUOUS
 10
137.5933743366
 20
566.0710115407
 11
137.6468632195
 21
566.0285170385
  0
LINE
  5
5F5
100
AcDbEntity
  8
RUNDUNGEN
100
AcDbLine
 62
7
  6
CONTINUOUS
 10
137.540245656
 20
566.113814753
 11
137.5933743366
 21
566.0710115407
  0
LINE
  5
5F6
100
AcDbEntity
  8
RUNDUNGEN
100
AcDbLine
 62
7
  6
CONTINUOUS
 10
137.4350773666
 20
566.2003310784
 11
137.4874793061
 21
566.1569226233
  0
LINE
  5
5F7
100
AcDbEntity
  8
RUNDUNGEN
100
AcDbLine
 62
7
  6
CONTINUOUS
 10
137.3830418677
 20
566.2440360252
 11
137.4350773666
 21
566.2003310784
  0
LINE
  5
5F8
100
AcDbEntity
  8
RUNDUNGEN
100
AcDbLine
 62
7
  6
CONTINUOUS
 10
137.3313747902
 20
566.2880333507
 11
137.3830418677
 21
566.2440360252
  0
LINE
  5
5F9
100
AcDbEntity
  8
RUNDUNGEN
100
AcDbLine
 62
7
  6
CONTINUOUS
 10
137.229153575
 20
566.3768885923
 11
137.2800780655
 21
566.3323189232
  0
LINE
  5
5FA
100
AcDbEntity
  8
RUNDUNGEN
100
AcDbLine
 62
7
  6
CONTINUOUS
 10
137.1786031505
 20
566.4217381902
 11
137.229153575
 21
566.3768885923
  0
LINE
  5
5FB
100
AcDbEntity
  8
RUNDUNGEN
100
AcDbLine
 62
7
  6
CONTINUOUS
 10
137.1284285736
 20
566.4668635318
 11
137.1786031505
 21
566.4217381902
  0
LINE
  5
5FC
100
AcDbEntity
  8
RUNDUNGEN
100
AcDbLine
 62
7
  6
CONTINUOUS
 10
137.0292138385
 20
566.5579246244
 11
137.0786315759
 21
566.5122604156
  0
LINE
  5
5FD
100
AcDbEntity
  8
RUNDUNGEN
100
AcDbLine
 62
7
  6
CONTINUOUS
 10
136.9801769925
 20
566.6038519258
 11
137.0292138385
 21
566.5579246244
  0
LINE
  5
5FE
100
AcDbEntity
  8
RUNDUNGEN
100
AcDbLine
 62
7
  6
CONTINUOUS
 10
136.9315226184
 20
566.6500380728
 11
136.9801769925
 21
566.6038519258
  0
LINE
  5
5FF
100
AcDbEntity
  8
RUNDUNGEN
100
AcDbLine
 62
7
  6
CONTINUOUS
 10
136.8115699135
 20
566.7666078953
 11
136.859261525
 21
566.7197933044
  0
LINE
  5
600
100
AcDbEntity
  8
RUNDUNGEN
100
AcDbLine
 62
7
  6
CONTINUOUS
 10
136.7642659073
 20
566.8136663621
 11
136.8115699135
 21
566.7666078953
  0
LINE
  5
601
100
AcDbEntity
  8
RUNDUNGEN
100
AcDbLine
 62
7
  6
CONTINUOUS
 10
136.7173508588
 20
566.8609644005
 11
136.7642659073
 21
566.8136663621
  0
LINE
  5
602
100
AcDbEntity
  8
RUNDUNGEN
100
AcDbLine
 62
7
  6
CONTINUOUS
 10
136.6017733461
 20
566.9802292757
 11
136.6477104159
 21
566.9323512115
  0
LINE
  5
603
100
AcDbEntity
  8
RUNDUNGEN
100
AcDbLine
 62
7
  6
CONTINUOUS
 10
136.556229568
 20
567.0283317631
 11
136.6017733461
 21
566.9802292757
  0
LINE
  5
604
100
AcDbEntity
  8
RUNDUNGEN
100
AcDbLine
 62
7
  6
CONTINUOUS
 10
136.5110802054
 20
567.0766543243
 11
136.556229568
 21
567.0283317631
  0
LINE
  5
605
100
AcDbEntity
  8
RUNDUNGEN
100
AcDbLine
 62
7
  6
CONTINUOUS
 10
136.4219689671
 20
567.1739422319
 11
136.466326331
 21
567.1251926023
  0
LINE
  5
606
100
AcDbEntity
  8
RUNDUNGEN
100
AcDbLine
 62
7
  6
CONTINUOUS
 10
136.3780090846
 20
567.2228988414
 11
136.4219689671
 21
567.1739422319
  0
LINE
  5
607
100
AcDbEntity
  8
RUNDUNGEN
100
AcDbLine
 62
7
  6
CONTINUOUS
 10
136.334447604
 20
567.2720580526
 11
136.3780090846
 21
567.2228988414
  0
LINE
  5
608
100
AcDbEntity
  8
RUNDUNGEN
100
AcDbLine
 62
7
  6
CONTINUOUS
 10
136.2912853948
 20
567.3214154815
 11
136.334447604
 21
567.2720580526
  0
LINE
  5
609
100
AcDbEntity
  8
RUNDUNGEN
100
AcDbLine
 62
7
  6
CONTINUOUS
 10
136.227292492
 20
567.3958136813
 11
136.2698542748
 21
567.3461671564
  0
LINE
  5
60A
100
AcDbEntity
  8
RUNDUNGEN
100
AcDbLine
 62
7
  6
CONTINUOUS
 10
136.1851319325
 20
567.4456474436
 11
136.227292492
 21
567.3958136813
  0
LINE
  5
60B
100
AcDbEntity
  8
RUNDUNGEN
100
AcDbLine
 62
7
  6
CONTINUOUS
 10
136.1433732883
 20
567.495664044
 11
136.1851319325
 21
567.4456474436
  0
LINE
  5
60C
100
AcDbEntity
  8
RUNDUNGEN
100
AcDbLine
 62
7
  6
CONTINUOUS
 10
136.1020172011
 20
567.5458590808
 11
136.1433732883
 21
567.495664044
  0
LINE
  5
60D
100
AcDbEntity
  8
RUNDUNGEN
100
AcDbLine
 62
7
  6
CONTINUOUS
 10
136.0407391438
 20
567.6214765694
 11
136.081490303
 21
567.5710221366
  0
LINE
  5
60E
100
AcDbEntity
  8
RUNDUNGEN
100
AcDbLine
 62
7
  6
CONTINUOUS
 10
136.0003919249
 20
567.6720984249
 11
136.0407391438
 21
567.6214765694
  0
LINE
  5
60F
100
AcDbEntity
  8
RUNDUNGEN
100
AcDbLine
 62
7
  6
CONTINUOUS
 10
135.9604491117
 20
567.7228832957
 11
136.0003919249
 21
567.6720984249
  0
LINE
  5
610
100
AcDbEntity
  8
RUNDUNGEN
100
AcDbLine
 62
7
  6
CONTINUOUS
 10
135.9209111194
 20
567.7738267741
 11
135.9604491117
 21
567.7228832957
  0
LINE
  5
611
100
AcDbEntity
  8
RUNDUNGEN
100
AcDbLine
 62
7
  6
CONTINUOUS
 10
135.8623639557
 20
567.8505297401
 11
135.9012940472
 21
567.7993566138
  0
LINE
  5
612
100
AcDbEntity
  8
RUNDUNGEN
100
AcDbLine
 62
7
  6
CONTINUOUS
 10
135.8238395048
 20
567.9018504577
 11
135.8623639557
 21
567.8505297401
  0
LINE
  5
613
100
AcDbEntity
  8
RUNDUNGEN
100
AcDbLine
 62
7
  6
CONTINUOUS
 10
135.7857209356
 20
567.9533143629
 11
135.8238395048
 21
567.9018504577
  0
LINE
  5
614
100
AcDbEntity
  8
RUNDUNGEN
100
AcDbLine
 62
7
  6
CONTINUOUS
 10
135.6922013789
 20
568.082571694
 11
135.7293045148
 21
568.0307690697
  0
LINE
  5
615
100
AcDbEntity
  8
RUNDUNGEN
100
AcDbLine
 62
7
  6
CONTINUOUS
 10
135.6555045788
 20
568.1345021151
 11
135.6922013789
 21
568.082571694
  0
LINE
  5
616
100
AcDbEntity
  8
RUNDUNGEN
100
AcDbLine
 62
7
  6
CONTINUOUS
 10
135.6192141341
 20
568.1865559445
 11
135.6555045788
 21
568.1345021151
  0
LINE
  5
617
100
AcDbEntity
  8
RUNDUNGEN
100
AcDbLine
 62
7
  6
CONTINUOUS
 10
135.5302655148
 20
568.3172016762
 11
135.5655403057
 21
568.2648584917
  0
LINE
  5
618
100
AcDbEntity
  8
RUNDUNGEN
100
AcDbLine
 62
7
  6
CONTINUOUS
 10
135.4953967645
 20
568.3696529521
 11
135.5302655148
 21
568.3172016762
  0
LINE
  5
619
100
AcDbEntity
  8
RUNDUNGEN
100
AcDbLine
 62
7
  6
CONTINUOUS
 10
135.4609338565
 20
568.4222079575
 11
135.4953967645
 21
568.3696529521
  0
LINE
  5
61A
100
AcDbEntity
  8
RUNDUNGEN
100
AcDbLine
 62
7
  6
CONTINUOUS
 10
135.3932245354
 20
568.5276117476
 11
135.4268765447
 21
568.4748623381
  0
LINE
  5
61B
100
AcDbEntity
  8
RUNDUNGEN
100
AcDbLine
 62
7
  6
CONTINUOUS
 10
135.3599774873
 20
568.5804518481
 11
135.3932245354
 21
568.5276117476
  0
LINE
  5
61C
100
AcDbEntity
  8
RUNDUNGEN
100
AcDbLine
 62
7
  6
CONTINUOUS
 10
135.3271350123
 20
568.6333783106
 11
135.3599774873
 21
568.5804518481
  0
LWPOLYLINE
  5
61D
100
AcDbEntity
  8
RUNDUNGEN
100
AcDbPolyline
 62
7
  6
CONTINUOUS
 90
8
 70
0
 10
135.1513273584
 20
568.9299990434
 10
135.5007447683
 20
568.3615528742
 10
135.887292936
 20
567.8176740327
 10
136.3092508675
 20
567.3007840115
 10
136.7647399074
 20
566.8131841517
 10
137.2517321091
 20
566.3570453868
 10
137.7680592697
 20
565.9343985722
 10
138.3114225765
 20
565.5471254512
  0
LINE
  5
61E
100
AcDbEntity
  8
RUNDUNGEN
100
AcDbLine
 62
7
  6
CONTINUOUS
 10
135.2626619947
 20
568.7394730548
 11
135.2786289099
 21
568.7129204876
  0
LINE
  5
61F
100
AcDbEntity
  8
RUNDUNGEN
100
AcDbLine
 62
7
  6
CONTINUOUS
 10
135.1234859418
 20
568.9792080898
 11
135.1514895261
 21
568.9297352225
  0
LINE
  5
620
100
AcDbEntity
  8
RUNDUNGEN
100
AcDbLine
 62
7
  6
CONTINUOUS
 10
135.0936607025
 20
569.0326453329
 11
135.1234859418
 21
568.9792080898
  0
LINE
  5
621
100
AcDbEntity
  8
RUNDUNGEN
100
AcDbLine
 62
7
  6
CONTINUOUS
 10
135.0208432014
 20
569.1664479829
 11
135.0496714776
 21
569.1128936354
  0
LINE
  5
622
100
AcDbEntity
  8
RUNDUNGEN
100
AcDbLine
 62
7
  6
CONTINUOUS
 10
134.9924121938
 20
569.2200418157
 11
135.0208432014
 21
569.1664479829
  0
LINE
  5
623
100
AcDbEntity
  8
RUNDUNGEN
100
AcDbLine
 62
7
  6
CONTINUOUS
 10
134.9643775223
 20
569.2736709524
 11
134.9924121938
 21
569.2200418157
  0
LINE
  5
624
100
AcDbEntity
  8
RUNDUNGEN
100
AcDbLine
 62
7
  6
CONTINUOUS
 10
134.9230664992
 20
569.3541717427
 11
134.9505085094
 21
569.3004974571
  0
LINE
  5
625
100
AcDbEntity
  8
RUNDUNGEN
100
AcDbLine
 62
7
  6
CONTINUOUS
 10
134.896018305
 20
569.4078709464
 11
134.9230664992
 21
569.3541717427
  0
LINE
  5
626
100
AcDbEntity
  8
RUNDUNGEN
100
AcDbLine
 62
7
  6
CONTINUOUS
 10
134.8301135556
 20
569.5422009376
 11
134.8561820389
 21
569.4884574525
  0
LINE
  5
627
100
AcDbEntity
  8
RUNDUNGEN
100
AcDbLine
 62
7
  6
CONTINUOUS
 10
134.8044349148
 20
569.595954975
 11
134.8301135556
 21
569.5422009376
  0
LINE
  5
628
100
AcDbEntity
  8
RUNDUNGEN
100
AcDbLine
 62
7
  6
CONTINUOUS
 10
134.7419357078
 20
569.7303596033
 11
134.7666452086
 21
569.6765969294
  0
LINE
  5
629
100
AcDbEntity
  8
RUNDUNGEN
100
AcDbLine
 62
7
  6
CONTINUOUS
 10
134.7176115697
 20
569.7841186831
 11
134.7419357078
 21
569.7303596033
  0
LINE
  5
62A
100
AcDbEntity
  8
RUNDUNGEN
100
AcDbLine
 62
7
  6
CONTINUOUS
 10
134.6818449084
 20
569.8647418212
 11
134.7055935848
 21
569.8109956247
  0
LINE
  5
62B
100
AcDbEntity
  8
RUNDUNGEN
100
AcDbLine
 62
7
  6
CONTINUOUS
 10
134.6584780937
 20
569.9184744628
 11
134.6818449084
 21
569.8647418212
  0
LINE
  5
62C
100
AcDbEntity
  8
RUNDUNGEN
100
AcDbLine
 62
7
  6
CONTINUOUS
 10
134.6128841348
 20
570.0258833055
 11
134.6354916718
 21
569.9721896004
  0
LINE
  5
62D
100
AcDbEntity
  8
RUNDUNGEN
100
AcDbLine
 62
7
  6
CONTINUOUS
 10
134.5473191841
 20
570.186796857
 11
134.5687994936
 21
570.1331908093
  0
LINE
  5
62E
100
AcDbEntity
  8
RUNDUNGEN
100
AcDbLine
 62
7
  6
CONTINUOUS
 10
134.4952442713
 20
570.3206420419
 11
134.5157965825
 21
570.2671354837
  0
LINE
  5
62F
100
AcDbEntity
  8
RUNDUNGEN
100
AcDbLine
 62
7
  6
CONTINUOUS
 10
134.445470321
 20
570.4541970305
 11
134.465105566
 21
570.4008136245
  0
LINE
  5
630
100
AcDbEntity
  8
RUNDUNGEN
100
AcDbLine
 62
7
  6
CONTINUOUS
 10
134.4072888834
 20
570.5607927236
 11
134.4261987175
 21
570.5075246315
  0
LINE
  5
631
100
AcDbEntity
  8
RUNDUNGEN
100
AcDbLine
 62
7
  6
CONTINUOUS
 10
134.361584448
 20
570.6936785138
 11
134.3795982712
 21
570.6405752396
  0
LINE
  5
632
100
AcDbEntity
  8
RUNDUNGEN
100
AcDbLine
 62
7
  6
CONTINUOUS
 10
134.3266196346
 20
570.7996646273
 11
134.3439255764
 21
570.7467095074
  0
LINE
  5
633
100
AcDbEntity
  8
RUNDUNGEN
100
AcDbLine
 62
7
  6
CONTINUOUS
 10
134.2930582917
 20
570.9053330003
 11
134.3096645683
 21
570.8525403056
  0
LINE
  5
634
100
AcDbEntity
  8
RUNDUNGEN
100
AcDbLine
 62
7
  6
CONTINUOUS
 10
134.2608836095
 20
571.0106553992
 11
134.2767986881
 21
570.9580391949
  0
LINE
  5
635
100
AcDbEntity
  8
RUNDUNGEN
100
AcDbLine
 62
7
  6
CONTINUOUS
 10
134.2300782861
 20
571.1156040067
 11
134.2453108782
 21
571.063178149
  0
LINE
  5
636
100
AcDbEntity
  8
RUNDUNGEN
100
AcDbLine
 62
7
  6
CONTINUOUS
 10
134.2006245425
 20
571.2201514295
 11
134.2151835962
 21
571.1679295616
  0
LINE
  5
637
100
AcDbEntity
  8
RUNDUNGEN
100
AcDbLine
 62
7
  6
CONTINUOUS
 10
134.1522776109
 20
571.4020632123
 11
134.1656801897
 21
571.350230506
  0
LWPOLYLINE
  5
638
100
AcDbEntity
  8
RUNDUNGEN
100
AcDbPolyline
 62
7
  6
CONTINUOUS
 90
41
 70
0
 10
134.1180756724
 20
571.5397729803
 10
134.1392458212
 20
571.453486499
 10
134.161910499
 20
571.3645851848
 10
134.1862086836
 20
571.2728608129
 10
134.2122792384
 20
571.1781500831
 10
134.2402894942
 20
571.080231754
 10
134.2704033367
 20
570.9789461364
 10
134.3028465421
 20
570.8739803916
 10
134.3378399879
 20
570.7651054539
 10
134.3756695943
 20
570.6519613791
 10
134.4166130644
 20
570.5342952213
 10
134.4610579521
 20
570.4116293175
 10
134.5093667519
 20
570.2836644795
 10
134.5620924714
 20
570.1497204488
 10
134.6197664971
 20
570.0093324581
 10
134.6831181451
 20
569.8617266797
 10
134.7527774933
 20
569.706555404
 10
134.8299941422
 20
569.5423380723
 10
134.9160777279
 20
569.3678595788
 10
135.0122417472
 20
569.1824699417
 10
135.1205557089
 20
568.9843156531
 10
135.2405577181
 20
568.7764348913
 10
135.3724076052
 20
568.5605044722
 10
135.5157939578
 20
568.3387787967
 10
135.6703406024
 20
568.1133196827
 10
135.8355099683
 20
567.8861294871
 10
136.0105953284
 20
567.6591333644
 10
136.1947172535
 20
567.4341618266
 10
136.3868241079
 20
567.2129341518
 10
136.5856963315
 20
566.997043209
 10
136.7899541782
 20
566.7879422533
 10
136.9980685058
 20
566.5869342273
 10
137.2083741577
 20
566.3951640491
 10
137.4190854268
 20
566.213614318
 10
137.6283130722
 20
566.0431047853
 10
137.8340823481
 20
565.884295869
 10
138.0343515272
 20
565.7376963975
 10
138.2270304366
 20
565.6036756913
 10
138.4099985947
 20
565.4824800089
 10
138.5811226213
 20
565.374253308
 10
138.7375191258
 20
565.2795093153
  0
LINE
  5
639
100
AcDbEntity
  8
RUNDUNGEN
100
AcDbLine
 62
7
  6
CONTINUOUS
 10
134.098294721
 20
571.6235573793
 11
134.1201917796
 21
571.5311041389
  0
LINE
  5
63A
100
AcDbEntity
  8
RUNDUNGEN
100
AcDbLine
 62
7
  6
CONTINUOUS
 10
134.0959732535
 20
571.6337126863
 11
134.1079222296
 21
571.5824826867
  0
LINE
  5
63B
100
AcDbEntity
  8
RUNDUNGEN
100
AcDbLine
 62
7
  6
CONTINUOUS
 10
134.0786472798
 20
571.7102607299
 11
134.098294721
 21
571.6235573793
  0
LWPOLYLINE
  5
63C
100
AcDbEntity
  8
RUNDUNGEN
100
AcDbPolyline
 62
7
  6
CONTINUOUS
 90
5
 70
0
 10
134.0168911346
 20
572.0096146997
 10
134.0311089303
 20
571.9364034408
 10
134.0462849201
 20
571.8612968805
 10
134.0624907757
 20
571.7841851808
 10
134.0797970518
 20
571.7049879825
  0
LINE
  5
63D
100
AcDbEntity
  8
RUNDUNGEN
100
AcDbLine
 62
7
  6
CONTINUOUS
 10
134.0025478348
 20
572.0867112388
 11
134.0168911346
 21
572.0096146997
  0
LINE
  5
63E
100
AcDbEntity
  8
RUNDUNGEN
100
AcDbLine
 62
7
  6
CONTINUOUS
 10
133.9893783895
 20
572.1605460453
 11
134.003572235
 21
572.0810008079
  0
LINE
  5
63F
100
AcDbEntity
  8
RUNDUNGEN
100
AcDbLine
 62
7
  6
CONTINUOUS
 10
133.9768710222
 20
572.2338304119
 11
133.9910943385
 21
572.1506447226
  0
LINE
  5
640
100
AcDbEntity
  8
RUNDUNGEN
100
AcDbLine
 62
7
  6
CONTINUOUS
 10
133.9650153869
 20
572.3065365663
 11
133.9794039351
 21
572.2186260309
  0
LINE
  5
641
100
AcDbEntity
  8
RUNDUNGEN
100
AcDbLine
 62
7
  6
CONTINUOUS
 10
133.9574683405
 20
572.3546724527
 11
133.9684499255
 21
572.285031131
  0
LINE
  5
642
100
AcDbEntity
  8
RUNDUNGEN
100
AcDbLine
 62
7
  6
CONTINUOUS
 10
133.9466744223
 20
572.4263535731
 11
133.9581873684
 21
572.3499292695
  0
LINE
  5
643
100
AcDbEntity
  8
RUNDUNGEN
100
AcDbLine
 62
7
  6
CONTINUOUS
 10
133.9365019575
 20
572.4973831027
 11
133.9485732207
 21
572.4133962222
  0
LINE
  5
644
100
AcDbEntity
  8
RUNDUNGEN
100
AcDbLine
 62
7
  6
CONTINUOUS
 10
133.9300595057
 20
572.5443606687
 11
133.9395678372
 21
572.4755041577
  0
LINE
  5
645
100
AcDbEntity
  8
RUNDUNGEN
100
AcDbLine
 62
7
  6
CONTINUOUS
 10
133.9208951869
 20
572.6142437524
 11
133.9311340723
 21
572.5363263544
  0
LINE
  5
646
100
AcDbEntity
  8
RUNDUNGEN
100
AcDbLine
 62
7
  6
CONTINUOUS
 10
133.9151128641
 20
572.6604320493
 11
133.9232368648
 21
572.5959396657
  0
LINE
  5
647
100
AcDbEntity
  8
RUNDUNGEN
100
AcDbLine
 62
7
  6
CONTINUOUS
 10
133.9158362748
 20
572.6544808113
 11
133.9027790341
 21
572.7654332569
  0
LINE
  5
648
100
AcDbEntity
  8
RUNDUNGEN
100
AcDbLine
 62
7
  6
CONTINUOUS
 10
133.8983072761
 20
572.8060703387
 11
133.9095502985
 21
572.7066006133
  0
LINE
  5
649
100
AcDbEntity
  8
BEZUGSACHSEN
100
AcDbLine
 62
7
  6
CONTINUOUS
 10
169.8234051435
 20
591.9644179992
 11
169.8190948548
 21
592.0338527184
  0
LINE
  5
64A
100
AcDbEntity
  8
BEZUGSACHSEN
100
AcDbLine
 62
7
  6
CONTINUOUS
 10
169.8258354198
 20
591.921342092
 11
169.8222842684
 21
591.9832391911
  0
LINE
  5
64B
100
AcDbEntity
  8
BEZUGSACHSEN
100
AcDbLine
 62
7
  6
CONTINUOUS
 10
169.8288413322
 20
591.8627837759
 11
169.8248931144
 21
591.9384442622
  0
LWPOLYLINE
  5
64C
100
AcDbEntity
  8
BEZUGSACHSEN
100
AcDbPolyline
 62
7
  6
CONTINUOUS
 90
5
 70
0
 10
169.837392471
 20
591.6301089561
 10
169.8350581044
 20
591.7102826042
 10
169.8325020966
 20
591.7800766636
 10
169.8300133451
 20
591.8379355884
 10
169.8273082421
 20
591.8934906607
  0
LINE
  5
64D
100
AcDbEntity
  8
BEZUGSACHSEN
100
AcDbLine
 62
7
  6
CONTINUOUS
 10
169.8392495761
 20
591.5399354213
 11
169.837392471
 21
591.6301089561
  0
LINE
  5
64E
100
AcDbEntity
  8
BEZUGSACHSEN
100
AcDbLine
 62
7
  6
CONTINUOUS
 10
169.8403444778
 20
591.4421337913
 11
169.8392495761
 21
591.5399354213
  0
LINE
  5
64F
100
AcDbEntity
  8
0
100
AcDbLine
 62
7
  6
CONTINUOUS
 10
158.8405233741
 20
537.6295739476
 11
158.8405233741
 21
561.2545414486
  0
LINE
  5
650
100
AcDbEntity
  8
RUNDUNGEN
100
AcDbLine
 62
7
  6
CONTINUOUS
 10
158.8405233741
 20
561.2545414486
 11
158.8405233741
 21
563.2100784431
  0
LINE
  5
651
100
AcDbEntity
  8
RUNDUNGEN
100
AcDbLine
 62
7
  6
CONTINUOUS
 10
158.8405233741
 20
602.0490044541
 11
158.8405233741
 21
604.0045414486
  0
LINE
  5
652
100
AcDbEntity
  8
0
100
AcDbLine
 62
7
  6
CONTINUOUS
 10
158.8405233741
 20
604.0045414486
 11
158.8405233741
 21
627.6295089495
  0
LINE
  5
653
100
AcDbEntity
  8
BEZUGSACHSEN
100
AcDbLine
 62
7
  6
CONTINUOUS
 10
159.8405233741
 20
571.6291498991
 11
159.8405233741
 21
593.6295414486
  0
LINE
  5
654
100
AcDbEntity
  8
RUNDUNGEN
100
AcDbLine
 62
7
  6
CONTINUOUS
 10
174.8405233741
 20
610.1294438416
 11
174.8405233741
 21
609.461157163
  0
LINE
  5
655
100
AcDbEntity
  8
BEZUGSACHSEN
100
AcDbLine
 62
7
  6
CONTINUOUS
 10
169.8405233741
 20
542.6295516045
 11
169.8405233741
 21
622.6295313693
  0
LWPOLYLINE
  5
656
100
AcDbEntity
  8
BEZUGSACHSEN
100
AcDbPolyline
 62
7
  6
CONTINUOUS
 90
4
 70
0
 10
169.837513555
 20
573.6338565487
 10
169.8389581989
 20
573.7019709716
 10
169.8400052447
 20
573.7763057084
 10
169.8405233741
 20
573.8795413522
  0
LWPOLYLINE
  5
657
100
AcDbEntity
  8
BEZUGSACHSEN
100
AcDbPolyline
 62
7
  6
CONTINUOUS
 90
4
 70
0
 10
169.8321670478
 20
573.4707444305
 10
169.8339931871
 20
573.5180873094
 10
169.8358085306
 20
573.5722942455
 10
169.837513555
 20
573.6338565487
  0
LINE
  5
658
100
AcDbEntity
  8
BEZUGSACHSEN
100
AcDbLine
 62
7
  6
CONTINUOUS
 10
169.8288260035
 20
573.3959801412
 11
169.8321670478
 21
573.4707444305
  0
LINE
  5
659
100
AcDbEntity
  8
BEZUGSACHSEN
100
AcDbLine
 62
7
  6
CONTINUOUS
 10
169.8258680521
 20
573.338335428
 11
169.8299131538
 21
573.4189853752
  0
LINE
  5
65A
100
AcDbEntity
  8
BEZUGSACHSEN
100
AcDbLine
 62
7
  6
CONTINUOUS
 10
169.8226046752
 20
573.2811604471
 11
169.8261658338
 21
573.3438650111
  0
LINE
  5
65B
100
AcDbEntity
  8
BEZUGSACHSEN
100
AcDbLine
 62
7
  6
CONTINUOUS
 10
169.8198616675
 20
573.2370324296
 11
169.8231905186
 21
573.2910202486
  0
LINE
  5
65C
100
AcDbEntity
  8
BEZUGSACHSEN
100
AcDbLine
 62
7
  6
CONTINUOUS
 10
169.8169542242
 20
573.1933563396
 11
169.8202272777
 21
573.2427420466
  0
LINE
  5
65D
100
AcDbEntity
  8
BEZUGSACHSEN
100
AcDbLine
 62
7
  6
CONTINUOUS
 10
169.8123417797
 20
573.1292886072
 11
169.8169542242
 21
573.1933563396
  0
LWPOLYLINE
  5
65E
100
AcDbEntity
  8
BEZUGSACHSEN
100
AcDbPolyline
 62
7
  6
CONTINUOUS
 90
5
 70
0
 10
169.7919114904
 20
572.8946613942
 10
169.7970521843
 20
572.9480739488
 10
169.801660518
 20
572.9987300277
 10
169.8057391048
 20
573.0461491629
 10
169.8123417797
 20
573.1292886072
  0
LINE
  5
65F
100
AcDbEntity
  8
BEZUGSACHSEN
100
AcDbLine
 62
7
  6
CONTINUOUS
 10
169.7838380558
 20
572.8162944034
 11
169.7919114904
 21
572.8946613942
  0
LINE
  5
660
100
AcDbEntity
  8
BEZUGSACHSEN
100
AcDbLine
 62
7
  6
CONTINUOUS
 10
169.7781283461
 20
572.7641900749
 11
169.7862503736
 21
572.8390388079
  0
LINE
  5
661
100
AcDbEntity
  8
BEZUGSACHSEN
100
AcDbLine
 62
7
  6
CONTINUOUS
 10
169.7720628927
 20
572.7114129512
 11
169.7800905804
 21
572.7817470161
  0
LINE
  5
662
100
AcDbEntity
  8
BEZUGSACHSEN
100
AcDbLine
 62
7
  6
CONTINUOUS
 10
169.7656490721
 20
572.658115477
 11
169.773459801
 21
572.7232799524
  0
LINE
  5
663
100
AcDbEntity
  8
BEZUGSACHSEN
100
AcDbLine
 62
7
  6
CONTINUOUS
 10
169.7589572444
 20
572.6048367269
 11
169.7664217352
 21
572.6643351584
  0
LINE
  5
664
100
AcDbEntity
  8
BEZUGSACHSEN
100
AcDbLine
 62
7
  6
CONTINUOUS
 10
169.7480730898
 20
572.5229057261
 11
169.7589572444
 21
572.6048367269
  0
LINE
  5
665
100
AcDbEntity
  8
BEZUGSACHSEN
100
AcDbLine
 62
7
  6
CONTINUOUS
 10
169.7404097529
 20
572.4680699929
 11
169.7510783582
 21
572.5449552024
  0
LINE
  5
666
100
AcDbEntity
  8
BEZUGSACHSEN
100
AcDbLine
 62
7
  6
CONTINUOUS
 10
169.7323757042
 20
572.4128241639
 11
169.7427710865
 21
572.4846476241
  0
LINE
  5
667
100
AcDbEntity
  8
BEZUGSACHSEN
100
AcDbLine
 62
7
  6
CONTINUOUS
 10
169.7239651793
 20
572.3571813303
 11
169.7340282092
 21
572.4239252118
  0
LINE
  5
668
100
AcDbEntity
  8
BEZUGSACHSEN
100
AcDbLine
 62
7
  6
CONTINUOUS
 10
169.7152058993
 20
572.3012709972
 11
169.7248422355
 21
572.3627965079
  0
LINE
  5
669
100
AcDbEntity
  8
BEZUGSACHSEN
100
AcDbLine
 62
7
  6
CONTINUOUS
 10
169.7012557065
 20
572.2164237608
 11
169.7152058993
 21
572.3012709972
  0
LINE
  5
66A
100
AcDbEntity
  8
BEZUGSACHSEN
100
AcDbLine
 62
7
  6
CONTINUOUS
 10
169.6914849481
 20
572.159495294
 11
169.7051119429
 21
572.2393576244
  0
LINE
  5
66B
100
AcDbEntity
  8
BEZUGSACHSEN
100
AcDbLine
 62
7
  6
CONTINUOUS
 10
169.6813142319
 20
572.1022293964
 11
169.6945532086
 21
572.1770654176
  0
LINE
  5
66C
100
AcDbEntity
  8
BEZUGSACHSEN
100
AcDbLine
 62
7
  6
CONTINUOUS
 10
169.6707389154
 20
572.0446394398
 11
169.6835227625
 21
572.1144041595
  0
LINE
  5
66D
100
AcDbEntity
  8
BEZUGSACHSEN
100
AcDbLine
 62
7
  6
CONTINUOUS
 10
169.6600194988
 20
571.9880133933
 11
169.6720137333
 21
572.0513833868
  0
LINE
  5
66E
100
AcDbEntity
  8
BEZUGSACHSEN
100
AcDbLine
 62
7
  6
CONTINUOUS
 10
169.6425020205
 20
571.8993349156
 11
169.6600194988
 21
571.9880133933
  0
LINE
  5
66F
100
AcDbEntity
  8
BEZUGSACHSEN
100
AcDbLine
 62
7
  6
CONTINUOUS
 10
169.6304772458
 20
571.8407166357
 11
169.6475335214
 21
571.9243042735
  0
LINE
  5
670
100
AcDbEntity
  8
BEZUGSACHSEN
100
AcDbLine
 62
7
  6
CONTINUOUS
 10
169.6180297525
 20
571.7818349442
 11
169.634549495
 21
571.8602666628
  0
LINE
  5
671
100
AcDbEntity
  8
BEZUGSACHSEN
100
AcDbLine
 62
7
  6
CONTINUOUS
 10
169.6051561544
 20
571.7227034031
 11
169.621061226
 21
571.7959110888
  0
LWPOLYLINE
  5
672
100
AcDbEntity
  8
BEZUGSACHSEN
100
AcDbPolyline
 62
7
  6
CONTINUOUS
 90
3
 70
0
 10
169.577511922
 20
571.6010455963
 10
169.5925481789
 20
571.6662895723
 10
169.6070627356
 20
571.7312484443
  0
LINE
  5
673
100
AcDbEntity
  8
BEZUGSACHSEN
100
AcDbLine
 62
7
  6
CONTINUOUS
 10
169.5566997881
 20
571.5139717426
 11
169.577511922
 21
571.6010455963
  0
LINE
  5
674
100
AcDbEntity
  8
BEZUGSACHSEN
100
AcDbLine
 62
7
  6
CONTINUOUS
 10
169.5418733506
 20
571.4538842383
 11
169.5619484998
 21
571.5355276989
  0
LINE
  5
675
100
AcDbEntity
  8
BEZUGSACHSEN
100
AcDbLine
 62
7
  6
CONTINUOUS
 10
169.5266065777
 20
571.3936217857
 11
169.54585258
 21
571.4697469616
  0
LINE
  5
676
100
AcDbEntity
  8
BEZUGSACHSEN
100
AcDbLine
 62
7
  6
CONTINUOUS
 10
169.5108974747
 20
571.3331971518
 11
169.5292192883
 21
571.4037156467
  0
LINE
  5
677
100
AcDbEntity
  8
BEZUGSACHSEN
100
AcDbLine
 62
7
  6
CONTINUOUS
 10
169.4943176397
 20
571.2709339932
 11
169.5120428303
 21
571.3374417849
  0
LINE
  5
678
100
AcDbEntity
  8
BEZUGSACHSEN
100
AcDbLine
 62
7
  6
CONTINUOUS
 10
169.4696672385
 20
571.1814693079
 11
169.4943176397
 21
571.2709339932
  0
LINE
  5
679
100
AcDbEntity
  8
BEZUGSACHSEN
100
AcDbLine
 62
7
  6
CONTINUOUS
 10
169.4523824851
 20
571.1205254298
 11
169.4760388862
 21
571.2042032291
  0
LINE
  5
67A
100
AcDbEntity
  8
BEZUGSACHSEN
100
AcDbLine
 62
7
  6
CONTINUOUS
 10
169.4346393645
 20
571.0594450942
 11
169.4572016709
 21
571.1372596602
  0
LINE
  5
67B
100
AcDbEntity
  8
BEZUGSACHSEN
100
AcDbLine
 62
7
  6
CONTINUOUS
 10
169.416434336
 20
570.99823368
 11
169.4378015803
 21
571.0701146567
  0
LINE
  5
67C
100
AcDbEntity
  8
BEZUGSACHSEN
100
AcDbLine
 62
7
  6
CONTINUOUS
 10
169.3972957078
 20
570.9352649515
 11
169.4178343034
 21
571.0027793592
  0
LINE
  5
67D
100
AcDbEntity
  8
BEZUGSACHSEN
100
AcDbLine
 62
7
  6
CONTINUOUS
 10
169.3688781703
 20
570.8446674166
 11
169.3972957078
 21
570.9352649515
  0
LINE
  5
67E
100
AcDbEntity
  8
BEZUGSACHSEN
100
AcDbLine
 62
7
  6
CONTINUOUS
 10
169.349029367
 20
570.7830402918
 11
169.3761818465
 21
570.8675826697
  0
LINE
  5
67F
100
AcDbEntity
  8
BEZUGSACHSEN
100
AcDbLine
 62
7
  6
CONTINUOUS
 10
169.3287034029
 20
570.7213068957
 11
169.3544889571
 21
570.7997437915
  0
LINE
  5
680
100
AcDbEntity
  8
BEZUGSACHSEN
100
AcDbLine
 62
7
  6
CONTINUOUS
 10
169.3078970454
 20
570.659472872
 11
169.3322134667
 21
570.7317596399
  0
LWPOLYLINE
  5
681
100
AcDbEntity
  8
BEZUGSACHSEN
100
AcDbPolyline
 62
7
  6
CONTINUOUS
 90
3
 70
0
 10
169.2618585327
 20
570.5270493364
 10
169.2859013461
 20
570.595400997
 10
169.3093519928
 20
570.6636415755
  0
LINE
  5
682
100
AcDbEntity
  8
BEZUGSACHSEN
100
AcDbLine
 62
7
  6
CONTINUOUS
 10
169.237220756
 20
570.4585980566
 11
169.2648305163
 21
570.53552575
  0
LINE
  5
683
100
AcDbEntity
  8
BEZUGSACHSEN
100
AcDbLine
 62
7
  6
CONTINUOUS
 10
169.2119854188
 20
570.3900586479
 11
169.2425641793
 21
570.47342417
  0
LINE
  5
684
100
AcDbEntity
  8
BEZUGSACHSEN
100
AcDbLine
 62
7
  6
CONTINUOUS
 10
169.1727971882
 20
570.2866774077
 11
169.1965504105
 21
570.3489941059
  0
LWPOLYLINE
  5
685
100
AcDbEntity
  8
BEZUGSACHSEN
100
AcDbPolyline
 62
7
  6
CONTINUOUS
 90
4
 70
0
 10
169.1326711004
 20
570.1840268947
 10
169.1597126816
 20
570.2527615228
 10
169.1861501249
 20
570.3214426247
 10
169.2198051198
 20
570.4112449982
  0
LINE
  5
686
100
AcDbEntity
  8
BEZUGSACHSEN
100
AcDbLine
 62
7
  6
CONTINUOUS
 10
169.1050235994
 20
570.1152503076
 11
169.136226539
 21
570.1930920194
  0
LINE
  5
687
100
AcDbEntity
  8
BEZUGSACHSEN
100
AcDbLine
 62
7
  6
CONTINUOUS
 10
169.0767686045
 20
570.0464433385
 11
169.1112149346
 21
570.1306369655
  0
LINE
  5
688
100
AcDbEntity
  8
BEZUGSACHSEN
100
AcDbLine
 62
7
  6
CONTINUOUS
 10
169.0596651062
 20
570.0055986543
 11
169.0856953119
 21
570.0681371426
  0
LINE
  5
689
100
AcDbEntity
  8
BEZUGSACHSEN
100
AcDbLine
 62
7
  6
CONTINUOUS
 10
169.0464577521
 20
569.9743168289
 11
169.0767686045
 21
570.0464433385
  0
LWPOLYLINE
  5
68A
100
AcDbEntity
  8
BEZUGSACHSEN
100
AcDbPolyline
 62
7
  6
CONTINUOUS
 90
3
 70
0
 10
168.9883460604
 20
569.8399559935
 10
169.0184308835
 20
569.9087845943
 10
169.0479047506
 20
569.9776175717
  0
LINE
  5
68B
100
AcDbEntity
  8
BEZUGSACHSEN
100
AcDbLine
 62
7
  6
CONTINUOUS
 10
168.9576495513
 20
569.7711433514
 11
168.992339585
 21
569.8491236844
  0
LINE
  5
68C
100
AcDbEntity
  8
BEZUGSACHSEN
100
AcDbLine
 62
7
  6
CONTINUOUS
 10
168.9263408405
 20
569.702358243
 11
168.9645031446
 21
569.7864985018
  0
LINE
  5
68D
100
AcDbEntity
  8
BEZUGSACHSEN
100
AcDbLine
 62
7
  6
CONTINUOUS
 10
168.9072643101
 20
569.6612223025
 11
168.9361454447
 21
569.7238626032
  0
LINE
  5
68E
100
AcDbEntity
  8
BEZUGSACHSEN
100
AcDbLine
 62
7
  6
CONTINUOUS
 10
168.8926267949
 20
569.6299024844
 11
168.9263408405
 21
569.702358243
  0
LWPOLYLINE
  5
68F
100
AcDbEntity
  8
BEZUGSACHSEN
100
AcDbPolyline
 62
7
  6
CONTINUOUS
 90
3
 70
0
 10
168.8287395633
 20
569.4962836648
 10
168.861885824
 20
569.5649168623
 10
168.8944196266
 20
569.6336122309
  0
LINE
  5
690
100
AcDbEntity
  8
BEZUGSACHSEN
100
AcDbLine
 62
7
  6
CONTINUOUS
 10
168.7949811919
 20
569.4277241426
 11
168.8327578348
 21
569.5046440479
  0
LINE
  5
691
100
AcDbEntity
  8
BEZUGSACHSEN
100
AcDbLine
 62
7
  6
CONTINUOUS
 10
168.7606112748
 20
569.3592497726
 11
168.8020286146
 21
569.4420385715
  0
LINE
  5
692
100
AcDbEntity
  8
BEZUGSACHSEN
100
AcDbLine
 62
7
  6
CONTINUOUS
 10
168.7066401627
 20
569.2543948207
 11
168.7389715012
 21
569.3169074423
  0
LWPOLYLINE
  5
693
100
AcDbEntity
  8
BEZUGSACHSEN
100
AcDbPolyline
 62
7
  6
CONTINUOUS
 90
4
 70
0
 10
168.6538411664
 20
569.1544518519
 10
168.6900401522
 20
569.2226022365
 10
168.7256305947
 20
569.2908720005
 10
168.7707670906
 20
569.3794575362
  0
LINE
  5
694
100
AcDbEntity
  8
BEZUGSACHSEN
100
AcDbLine
 62
7
  6
CONTINUOUS
 10
168.6170350816
 20
569.0864321868
 11
168.6571351349
 21
569.1607105094
  0
LINE
  5
695
100
AcDbEntity
  8
BEZUGSACHSEN
100
AcDbLine
 62
7
  6
CONTINUOUS
 10
168.5796235331
 20
569.018554485
 11
168.6234575731
 21
569.0983203371
  0
LINE
  5
696
100
AcDbEntity
  8
BEZUGSACHSEN
100
AcDbLine
 62
7
  6
CONTINUOUS
 10
168.5416091377
 20
568.9508312881
 11
168.5892389911
 21
569.0359907263
  0
LWPOLYLINE
  5
697
100
AcDbEntity
  8
BEZUGSACHSEN
100
AcDbPolyline
 62
7
  6
CONTINUOUS
 90
4
 70
0
 10
168.4239505399
 20
568.7486654697
 10
168.4637733645
 20
568.815880806
 10
168.5029917008
 20
568.8832697367
 10
168.5544780639
 20
568.9737283359
  0
LINE
  5
698
100
AcDbEntity
  8
BEZUGSACHSEN
100
AcDbLine
 62
7
  6
CONTINUOUS
 10
168.1729380064
 20
568.3504392039
 11
168.5231129605
 21
568.9184190287
  0
LINE
  5
699
100
AcDbEntity
  8
BEZUGSACHSEN
100
AcDbLine
 62
7
  6
CONTINUOUS
 10
167.7856650809
 20
567.8070761892
 11
168.1729380064
 21
568.3504392039
  0
LINE
  5
69A
100
AcDbEntity
  8
BEZUGSACHSEN
100
AcDbLine
 62
7
  6
CONTINUOUS
 10
167.3624616217
 20
567.2901547358
 11
167.7853618663
 21
567.8067057666
  0
LWPOLYLINE
  5
69B
100
AcDbEntity
  8
BEZUGSACHSEN
100
AcDbPolyline
 62
7
  6
CONTINUOUS
 90
3
 70
0
 10
166.9062204588
 20
566.8031411836
 10
166.9068797014
 20
566.8037570119
 10
167.3624616217
 20
567.2901547358
  0
LINE
  5
69C
100
AcDbEntity
  8
BEZUGSACHSEN
100
AcDbLine
 62
7
  6
CONTINUOUS
 10
164.7900638876
 20
565.1903438458
 11
164.8146639388
 21
565.2054652159
  0
LINE
  5
69D
100
AcDbEntity
  8
BEZUGSACHSEN
100
AcDbLine
 62
7
  6
CONTINUOUS
 10
164.7900579938
 20
565.1903460562
 11
164.8399921498
 21
565.2190034268
  0
LINE
  5
69E
100
AcDbEntity
  8
RUNDUNGEN
100
AcDbLine
 62
7
  6
CONTINUOUS
 10
121.1351038261
 20
603.5190326084
 11
120.6017910558
 21
603.3894812661
  0
LINE
  5
69F
100
AcDbEntity
  8
RUNDUNGEN
100
AcDbLine
 62
7
  6
CONTINUOUS
 10
120.6218896638
 20
603.3937721391
 11
120.0887114352
 21
603.296005336
  0
LINE
  5
6A0
100
AcDbEntity
  8
RUNDUNGEN
100
AcDbLine
 62
7
  6
CONTINUOUS
 10
120.1089938664
 20
603.2991082276
 11
119.5811119526
 21
603.2344431886
  0
LINE
  5
6A1
100
AcDbEntity
  8
RUNDUNGEN
100
AcDbLine
 62
7
  6
CONTINUOUS
 10
355.6359250633
 20
603.2395912968
 11
355.1226375677
 21
603.2057062361
  0
LINE
  5
6A2
100
AcDbEntity
  8
RUNDUNGEN
100
AcDbLine
 62
7
  6
CONTINUOUS
 10
119.6014738545
 20
603.2363131294
 11
119.0841168664
 21
603.204461343
  0
LINE
  5
6A3
100
AcDbEntity
  8
RUNDUNGEN
100
AcDbLine
 62
7
  6
CONTINUOUS
 10
355.1392171211
 20
603.2062961421
 11
354.8405233747
 21
603.2008232413
  0
LINE
  5
6A4
100
AcDbEntity
  8
RUNDUNGEN
100
AcDbLine
 62
7
  6
CONTINUOUS
 10
119.1043990476
 20
603.2050929919
 11
118.8405233748
 21
603.2008229057
  0
LINE
  5
6A5
100
AcDbEntity
  8
0
100
AcDbLine
 62
7
  6
CONTINUOUS
 10
-99.6594766259
 20
590.6295414486
 11
-136.6594766259
 21
590.6295414486
  0
LINE
  5
6A6
100
AcDbEntity
  8
0
100
AcDbLine
 62
7
  6
CONTINUOUS
 10
-142.6594766259
 20
590.6295414486
 11
-195.1622572771
 21
590.6295414486
  0
LINE
  5
6A7
100
AcDbEntity
  8
0
100
AcDbLine
 62
7
  6
CONTINUOUS
 10
-99.6594766259
 20
596.4859479091
 11
-136.6594766259
 21
596.4859479091
  0
LINE
  5
6A8
100
AcDbEntity
  8
0
100
AcDbLine
 62
7
  6
CONTINUOUS
 10
-142.6594766259
 20
596.4859479091
 11
-183.1594766259
 21
596.4859479091
  0
LINE
  5
6A9
100
AcDbEntity
  8
0
100
AcDbLine
 62
7
  6
CONTINUOUS
 10
-99.6594766259
 20
598.6295414486
 11
-136.6594766259
 21
598.6295414486
  0
LINE
  5
6AA
100
AcDbEntity
  8
BEZUGSACHSEN
100
AcDbLine
 62
7
  6
CONTINUOUS
 10
148.8405233741
 20
598.6295414486
 11
154.8405233741
 21
598.6295414486
  0
LINE
  5
6AB
100
AcDbEntity
  8
0
100
AcDbLine
 62
7
  6
CONTINUOUS
 10
-142.6594766259
 20
598.6295414486
 11
-194.1594766259
 21
598.6295414486
  0
LINE
  5
6AC
100
AcDbEntity
  8
0
100
AcDbLine
 62
7
  6
CONTINUOUS
 10
404.9786358949
 20
598.6295414486
 11
497.8405233741
 21
598.6295414486
  0
LINE
  5
6AD
100
AcDbEntity
  8
RUNDUNGEN
100
AcDbLine
 62
7
  6
CONTINUOUS
 10
143.9156224551
 20
601.3795414486
 11
143.8412735752
 21
601.3795414486
  0
LINE
  5
6AE
100
AcDbEntity
  8
RUNDUNGEN
100
AcDbLine
 62
7
  6
CONTINUOUS
 10
146.8405233741
 20
601.4045329331
 11
156.8405233741
 21
601.4045329331
  0
LINE
  5
6AF
100
AcDbEntity
  8
RUNDUNGEN
100
AcDbLine
 62
7
  6
CONTINUOUS
 10
354.8405233741
 20
603.2008248394
 11
184.8405238962
 21
603.2008248394
  0
LINE
  5
6B0
100
AcDbEntity
  8
RUNDUNGEN
100
AcDbLine
 62
7
  6
CONTINUOUS
 10
-51.1594766259
 20
603.2008248394
 11
118.8405252695
 21
603.2008248394
  0
LINE
  5
6B1
100
AcDbEntity
  8
BEZUGSACHSEN
100
AcDbLine
 62
7
  6
CONTINUOUS
 10
563.3561808799
 20
606.1295414486
 11
504.8405233741
 21
606.1295414486
  0
LINE
  5
6B2
100
AcDbEntity
  8
RUNDUNGEN
100
AcDbLine
 62
7
  6
CONTINUOUS
 10
-259.6751341775
 20
606.1295414486
 11
-201.1594766259
 21
606.1295414486
  0
LINE
  5
6B3
100
AcDbEntity
  8
RUNDUNGEN
100
AcDbLine
 62
7
  6
CONTINUOUS
 10
-63.7178914143
 20
610.9401444493
 11
-73.8703906535
 21
610.9401444499
  0
LINE
  5
6B4
100
AcDbEntity
  8
0
100
AcDbLine
 62
7
  6
CONTINUOUS
 10
367.8405233741
 20
612.6295414486
 11
378.8126325583
 21
612.6295414486
  0
LINE
  5
6B5
100
AcDbEntity
  8
0
100
AcDbLine
 62
7
  6
CONTINUOUS
 10
131.8405233741
 20
613.1295414486
 11
133.8405233741
 21
613.1295414486
  0
LINE
  5
6B6
100
AcDbEntity
  8
0
100
AcDbLine
 62
7
  6
CONTINUOUS
 10
169.8405233741
 20
613.1295414486
 11
171.8405233741
 21
613.1295414486
  0
LINE
  5
6B7
100
AcDbEntity
  8
0
100
AcDbLine
 62
7
  6
CONTINUOUS
 10
380.1573041394
 20
613.1295414486
 11
400.9336320656
 21
613.1295414486
  0
LINE
  5
6B8
100
AcDbEntity
  8
RUNDUNGEN
100
AcDbLine
 62
7
  6
CONTINUOUS
 10
-82.7359705703
 20
614.8187016627
 11
-86.1594767505
 21
614.8187016627
  0
LINE
  5
6B9
100
AcDbEntity
  8
BEZUGSACHSEN
100
AcDbLine
 62
7
  6
CONTINUOUS
 10
159.8445963412
 20
601.3795406874
 11
143.9156224551
 21
601.3795414486
  0
LINE
  5
6BA
100
AcDbEntity
  8
RUNDUNGEN
100
AcDbLine
 62
7
  6
CONTINUOUS
 10
-86.1594767531
 20
614.8187022362
 11
-86.4533609267
 21
614.8223618323
  0
LINE
  5
6BB
100
AcDbEntity
  8
RUNDUNGEN
100
AcDbLine
 62
7
  6
CONTINUOUS
 10
184.8405238995
 20
603.2008204633
 11
184.5900855993
 21
603.2048759875
  0
LWPOLYLINE
  5
6BC
100
AcDbEntity
  8
RUNDUNGEN
100
AcDbPolyline
 62
7
  6
CONTINUOUS
 90
26
 70
0
 10
-51.1594766267
 20
603.200823233
 10
-51.4644877016
 20
603.2065292698
 10
-51.9591494227
 20
603.2400090595
 10
-52.4610673671
 20
603.3042840144
 10
-52.9664909554
 20
603.3993124199
 10
-53.4715217482
 20
603.5238177948
 10
-53.9746139987
 20
603.67638271
 10
-54.4728683566
 20
603.8546108207
 10
-54.9662819473
 20
604.0569132399
 10
-55.4545116378
 20
604.281581186
 10
-55.93642577
 20
604.5266469634
 10
-56.4123530356
 20
604.7909560159
 10
-56.8782704003
 20
605.070900791
 10
-57.3321619278
 20
605.3637864233
 10
-57.769767763
 20
605.6652326022
 10
-58.1879061195
 20
605.9712240861
 10
-58.5837085488
 20
606.2777882418
 10
-58.9548194597
 20
606.5811783788
 10
-59.2990390968
 20
606.8776038657
 10
-59.6146233668
 20
607.1635747773
 10
-59.9002749843
 20
607.4358550552
 10
-60.154687294
 20
607.6909836939
 10
-60.3790898471
 20
607.9279879709
 10
-60.5740572714
 20
608.1452786379
 10
-60.7411627932
 20
608.3423482735
 10
-60.8818165881
 20
608.5185904671
  0
LINE
  5
6BD
100
AcDbEntity
  8
RUNDUNGEN
100
AcDbLine
 62
7
  6
CONTINUOUS
 10
-73.8703906535
 20
610.9401522884
 11
-74.1098701479
 21
610.9456222965
  0
LINE
  5
6BE
100
AcDbEntity
  8
RUNDUNGEN
100
AcDbLine
 62
7
  6
CONTINUOUS
 10
-86.4289574932
 20
614.821778338
 11
-86.7360700465
 21
614.8328401371
  0
LWPOLYLINE
  5
6BF
100
AcDbEntity
  8
RUNDUNGEN
100
AcDbPolyline
 62
7
  6
CONTINUOUS
 90
10
 70
0
 10
184.5969828433
 20
603.2044600081
 10
184.1000250509
 20
603.2344320153
 10
183.5924528802
 20
603.2959858255
 10
183.0793300582
 20
603.3894701457
 10
182.5658018083
 20
603.5136266643
 10
182.0536294329
 20
603.6670823243
 10
181.5460773278
 20
603.8473642915
 10
181.0436634996
 20
604.0525791161
 10
180.5468521141
 20
604.280933153
 10
180.2554880722
 20
604.4263155754
  0
LINE
  5
6C0
100
AcDbEntity
  8
RUNDUNGEN
100
AcDbLine
 62
7
  6
CONTINUOUS
 10
-86.7128139914
 20
614.8317191201
 11
-87.0093726252
 21
614.8495375639
  0
LINE
  5
6C1
100
AcDbEntity
  8
RUNDUNGEN
100
AcDbLine
 62
7
  6
CONTINUOUS
 10
-86.987376338
 20
614.8479505919
 11
-87.2715128478
 21
614.8717979133
  0
LINE
  5
6C2
100
AcDbEntity
  8
RUNDUNGEN
100
AcDbLine
 62
7
  6
CONTINUOUS
 10
-74.0922532759
 20
610.944847257
 11
-74.5438865783
 21
610.9835753055
  0
LWPOLYLINE
  5
6C3
100
AcDbEntity
  8
BEZUGSACHSEN
100
AcDbPolyline
 62
7
  6
CONTINUOUS
 90
3
 70
0
 10
161.0882419611
 20
601.3014160528
 10
160.4673898017
 20
601.3598844117
 10
159.8445963412
 20
601.3795406874
  0
LINE
  5
6C4
100
AcDbEntity
  8
RUNDUNGEN
100
AcDbLine
 62
7
  6
CONTINUOUS
 10
-87.2508575984
 20
614.8698173487
 11
-87.5210037277
 21
614.8988507034
  0
LWPOLYLINE
  5
6C5
100
AcDbEntity
  8
BEZUGSACHSEN
100
AcDbPolyline
 62
7
  6
CONTINUOUS
 90
23
 70
0
 10
169.7701601915
 20
592.5638078363
 10
169.7089032588
 20
592.9967557955
 10
169.6190732152
 20
593.472482566
 10
169.4933283328
 20
593.9918078463
 10
169.3273786237
 20
594.5418657294
 10
169.1158303807
 20
595.117124902
 10
168.8619983699
 20
595.6939312392
 10
168.5757328664
 20
596.2475171672
 10
168.2552416906
 20
596.7826584273
 10
167.9021030653
 20
597.2966486436
 10
167.5174313153
 20
597.7878453042
 10
167.1024958457
 20
598.254500387
 10
166.6589791521
 20
598.6945928755
 10
166.1886253582
 20
599.106307317
 10
165.6933006614
 20
599.4879495225
 10
165.1749842775
 20
599.8379553085
 10
164.6357587062
 20
600.1548985231
 10
164.0777994218
 20
600.4374982734
 10
163.503364004
 20
600.6846253436
 10
162.9147808183
 20
600.8953077356
 10
162.3144373046
 20
601.0687353094
 10
161.7047679382
 20
601.2042634961
 10
161.0882419611
 20
601.3014160528
  0
LINE
  5
6C6
100
AcDbEntity
  8
0
100
AcDbLine
 62
7
  6
CONTINUOUS
 10
199.8405233741
 20
559.6295414486
 11
199.8405233741
 21
558.6295414486
  0
LINE
  5
6C7
100
AcDbEntity
  8
0
100
AcDbLine
 62
7
  6
CONTINUOUS
 10
210.6405233741
 20
559.6295414486
 11
210.6405233741
 21
558.6295414486
  0
LINE
  5
6C8
100
AcDbEntity
  8
0
100
AcDbLine
 62
7
  6
CONTINUOUS
 10
211.5405233741
 20
559.6295414486
 11
211.5405233741
 21
558.6295414486
  0
LINE
  5
6C9
100
AcDbEntity
  8
0
100
AcDbLine
 62
7
  6
CONTINUOUS
 10
190.765983337
 20
559.6295414486
 11
189.6573050408
 21
552.6296221768
  0
LINE
  5
6CA
100
AcDbEntity
  8
RUNDUNGEN
100
AcDbLine
 62
7
  6
CONTINUOUS
 10
358.7547894571
 20
604.1042956036
 11
358.2314219697
 21
603.8847089311
  0
LINE
  5
6CB
100
AcDbEntity
  8
RUNDUNGEN
100
AcDbLine
 62
7
  6
CONTINUOUS
 10
358.2472678748
 20
603.8909451154
 11
357.7136098059
 21
603.6957490101
  0
LINE
  5
6CC
100
AcDbEntity
  8
0
100
AcDbLine
 62
7
  6
CONTINUOUS
 10
177.5011713756
 20
552.1898488278
 11
178.5435237601
 21
552.5692340694
  0
LINE
  5
6CD
100
AcDbEntity
  8
RUNDUNGEN
100
AcDbLine
 62
7
  6
CONTINUOUS
 10
357.7297454232
 20
603.7012018753
 11
357.1876038826
 21
603.5335282254
  0
LINE
  5
6CE
100
AcDbEntity
  8
BEZUGSACHSEN
100
AcDbLine
 62
7
  6
CONTINUOUS
 10
-259.6757753902
 20
606.1295414486
 11
-260.0312772256
 21
606.108340468
  0
LWPOLYLINE
  5
6CF
100
AcDbEntity
  8
RUNDUNGEN
100
AcDbPolyline
 62
7
  6
CONTINUOUS
 90
8
 70
0
 10
-259.6757753897
 20
606.1295414486
 10
-260.0301784112
 20
606.1085376812
 10
-260.3796152685
 20
606.0458213674
 10
-260.7191930149
 20
605.9422720885
 10
-261.044158142
 20
605.7993406895
 10
-261.3499616276
 20
605.619029076
 10
-261.632322465
 20
605.4038624058
 10
-261.7625869282
 20
605.2849797299
  0
LINE
  5
6D0
100
AcDbEntity
  8
0
100
AcDbLine
 62
7
  6
CONTINUOUS
 10
-96.6594766259
 20
616.6295414486
 11
-91.1594766259
 21
616.6295414486
  0
LINE
  5
6D1
100
AcDbEntity
  8
0
100
AcDbLine
 62
7
  6
CONTINUOUS
 10
-137.6594766259
 20
617.6295414486
 11
-140.1594766259
 21
617.6295414486
  0
LINE
  5
6D2
100
AcDbEntity
  8
RUNDUNGEN
100
AcDbLine
 62
7
  6
CONTINUOUS
 10
-137.6594766259
 20
617.6295414486
 11
-140.1594766259
 21
617.6295414486
  0
LINE
  5
6D3
100
AcDbEntity
  8
0
100
AcDbLine
 62
7
  6
CONTINUOUS
 10
158.8405233741
 20
625.6295414486
 11
144.8405233741
 21
625.6295414486
  0
LINE
  5
6D4
100
AcDbEntity
  8
0
100
AcDbLine
 62
7
  6
CONTINUOUS
 10
164.8405233741
 20
627.6295414486
 11
158.8405233741
 21
627.6295414486
  0
LINE
  5
6D5
100
AcDbEntity
  8
0
100
AcDbLine
 62
7
  6
CONTINUOUS
 10
144.8405233741
 20
627.6295414486
 11
138.8405233741
 21
627.6295414486
  0
LINE
  5
6D6
100
AcDbEntity
  8
RUNDUNGEN
100
AcDbLine
 62
7
  6
CONTINUOUS
 10
563.7112251594
 20
606.1085376812
 11
563.3568221379
 21
606.1295414486
  0
LINE
  5
6D7
100
AcDbEntity
  8
RUNDUNGEN
100
AcDbLine
 62
7
  6
CONTINUOUS
 10
180.254612654
 20
604.4268480028
 11
180.2555224768
 21
604.4263827566
  0
LWPOLYLINE
  5
6D8
100
AcDbEntity
  8
RUNDUNGEN
100
AcDbPolyline
 62
7
  6
CONTINUOUS
 90
15
 70
0
 10
180.254612654
 20
604.4268480028
 10
180.2460472774
 20
604.4313744764
 10
180.2264770252
 20
604.4427037142
 10
180.1998300878
 20
604.4595634454
 10
180.1679094482
 20
604.4813206311
 10
180.1321118442
 20
604.5073967227
 10
180.0931731281
 20
604.537567997
 10
180.0518248167
 20
604.5714678959
 10
180.0084774769
 20
604.6088547264
 10
179.9635001051
 20
604.6494967551
 10
179.917308072
 20
604.6930949961
 10
179.8702944247
 20
604.7393376064
 10
179.8226388743
 20
604.788070948
 10
179.77449342
 20
604.8391388159
 10
179.7416015272
 20
604.8750611771
  0
LWPOLYLINE
  5
6D9
100
AcDbEntity
  8
RUNDUNGEN
100
AcDbPolyline
 62
7
  6
CONTINUOUS
 90
15
 70
0
 10
178.6137237915
 20
606.0615288291
 10
178.4919572392
 20
606.1411307689
 10
178.095691651
 20
606.4101913808
 10
177.720142146
 20
606.6797016592
 10
177.3657731576
 20
606.9475673267
 10
177.0327945575
 20
607.2120129241
 10
176.7216416137
 20
607.4712061775
 10
176.4325327152
 20
607.7235660825
 10
176.1659355257
 20
607.967363512
 10
175.9220509571
 20
608.2011159517
 10
175.7013645114
 20
608.4230680361
 10
175.5040253644
 20
608.631727459
 10
175.3304254652
 20
608.8252280668
 10
175.1805735871
 20
609.0019610081
 10
175.0545944297
 20
609.1599069351
  0
LINE
  5
6DA
100
AcDbEntity
  8
RUNDUNGEN
100
AcDbLine
 62
7
  6
CONTINUOUS
 10
178.7835503384
 20
605.9337184087
 11
178.6821875415
 21
606.0126330207
  0
LINE
  5
6DB
100
AcDbEntity
  8
RUNDUNGEN
100
AcDbLine
 62
7
  6
CONTINUOUS
 10
178.8879021363
 20
605.8326752528
 11
178.7835503384
 21
605.9337184087
  0
LWPOLYLINE
  5
6DC
100
AcDbEntity
  8
RUNDUNGEN
100
AcDbPolyline
 62
7
  6
CONTINUOUS
 90
4
 70
0
 10
178.9318072526
 20
605.7857347695
 10
178.8598292895
 20
605.8626889074
 10
178.725235465
 20
605.9818859228
 10
178.6137933709
 20
606.0614837455
  0
LINE
  5
6DD
100
AcDbEntity
  8
RUNDUNGEN
100
AcDbLine
 62
7
  6
CONTINUOUS
 10
179.7415946908
 20
604.8750638194
 11
179.5033002199
 21
605.1397185819
  0
LINE
  5
6DE
100
AcDbEntity
  8
RUNDUNGEN
100
AcDbLine
 62
7
  6
CONTINUOUS
 10
179.5093922211
 20
605.1328922384
 11
179.1432640749
 21
605.5447977212
  0
LINE
  5
6DF
100
AcDbEntity
  8
RUNDUNGEN
100
AcDbLine
 62
7
  6
CONTINUOUS
 10
179.1432640749
 20
605.5447977212
 11
178.9312916705
 21
605.7863465174
  0
LINE
  5
6E0
100
AcDbEntity
  8
RUNDUNGEN
100
AcDbLine
 62
7
  6
CONTINUOUS
 10
175.0600519153
 20
609.1528423984
 11
174.9521571064
 21
609.29724186
  0
LINE
  5
6E1
100
AcDbEntity
  8
RUNDUNGEN
100
AcDbLine
 62
7
  6
CONTINUOUS
 10
174.9566118278
 20
609.2910534854
 11
174.8727271205
 21
609.4119843947
  0
LWPOLYLINE
  5
6E2
100
AcDbEntity
  8
RUNDUNGEN
100
AcDbPolyline
 62
7
  6
CONTINUOUS
 90
4
 70
0
 10
174.8761624752
 20
609.4068205073
 10
174.815247514
 20
609.5023042116
 10
174.7784905447
 20
609.5658625226
 10
174.7662080921
 20
609.5890740578
  0
LINE
  5
6E3
100
AcDbEntity
  8
0
100
AcDbLine
 62
7
  6
CONTINUOUS
 10
213.3405233741
 20
559.6295414486
 11
213.3405233741
 21
558.6295414486
  0
LINE
  5
6E4
100
AcDbEntity
  8
0
100
AcDbLine
 62
7
  6
CONTINUOUS
 10
216.0405233741
 20
559.6295414486
 11
216.0405233741
 21
558.6295414486
  0
LINE
  5
6E5
100
AcDbEntity
  8
0
100
AcDbLine
 62
7
  6
CONTINUOUS
 10
221.4405233741
 20
559.6295414486
 11
221.4405233741
 21
558.6295414486
  0
LINE
  5
6E6
100
AcDbEntity
  8
0
100
AcDbLine
 62
7
  6
CONTINUOUS
 10
224.1405233741
 20
559.6295414486
 11
224.1405233741
 21
558.6295414486
  0
LINE
  5
6E7
100
AcDbEntity
  8
0
100
AcDbLine
 62
7
  6
CONTINUOUS
 10
226.8405233741
 20
559.6295414486
 11
226.8405233741
 21
558.6295414486
  0
LINE
  5
6E8
100
AcDbEntity
  8
0
100
AcDbLine
 62
7
  6
CONTINUOUS
 10
237.8655233741
 20
559.6295414486
 11
237.8655233741
 21
558.6295414486
  0
LINE
  5
6E9
100
AcDbEntity
  8
RUNDUNGEN
100
AcDbLine
 62
7
  6
CONTINUOUS
 10
360.1950841994
 20
604.8502680702
 11
359.7157814321
 21
604.5794371841
  0
LINE
  5
6EA
100
AcDbEntity
  8
RUNDUNGEN
100
AcDbLine
 62
7
  6
CONTINUOUS
 10
359.7306923176
 20
604.5875247409
 11
359.2347992026
 21
604.3301769105
  0
LINE
  5
6EB
100
AcDbEntity
  8
RUNDUNGEN
100
AcDbLine
 62
7
  6
CONTINUOUS
 10
359.2500128877
 20
604.3377170102
 11
358.7392492918
 21
604.0973760723
  0
LINE
  5
6EC
100
AcDbEntity
  8
0
100
AcDbLine
 62
7
  6
CONTINUOUS
 10
258.0905233741
 20
559.6295414486
 11
258.0905233741
 21
558.6295414486
  0
LINE
  5
6ED
100
AcDbEntity
  8
0
100
AcDbLine
 62
7
  6
CONTINUOUS
 10
259.6530233741
 20
559.6295414486
 11
259.6530233741
 21
558.6295414486
  0
LINE
  5
6EE
100
AcDbEntity
  8
0
100
AcDbLine
 62
7
  6
CONTINUOUS
 10
261.7363565833
 20
559.6295414486
 11
261.7363565833
 21
558.6295414486
  0
LINE
  5
6EF
100
AcDbEntity
  8
0
100
AcDbLine
 62
7
  6
CONTINUOUS
 10
261.9967733741
 20
559.6295414486
 11
261.9967733741
 21
558.6295414486
  0
LINE
  5
6F0
100
AcDbEntity
  8
0
100
AcDbLine
 62
7
  6
CONTINUOUS
 10
262.5176065833
 20
559.6295414486
 11
262.5176065833
 21
558.6295414486
  0
LINE
  5
6F1
100
AcDbEntity
  8
0
100
AcDbLine
 62
7
  6
CONTINUOUS
 10
263.5592733741
 20
559.6295414486
 11
263.5592733741
 21
558.6295414486
  0
LINE
  5
6F2
100
AcDbEntity
  8
0
100
AcDbLine
 62
7
  6
CONTINUOUS
 10
264.6009397924
 20
559.6295414486
 11
264.6009397924
 21
558.6295414486
  0
LINE
  5
6F3
100
AcDbEntity
  8
0
100
AcDbLine
 62
7
  6
CONTINUOUS
 10
265.9030233741
 20
559.6295414486
 11
265.9030233741
 21
558.6295414486
  0
LINE
  5
6F4
100
AcDbEntity
  8
0
100
AcDbLine
 62
7
  6
CONTINUOUS
 10
268.2467733741
 20
559.6295414486
 11
268.2467733741
 21
558.6295414486
  0
LINE
  5
6F5
100
AcDbEntity
  8
RUNDUNGEN
100
AcDbLine
 62
7
  6
CONTINUOUS
 10
362.5742370259
 20
606.529660842
 11
362.2181133279
 21
606.2407741414
  0
LINE
  5
6F6
100
AcDbEntity
  8
RUNDUNGEN
100
AcDbLine
 62
7
  6
CONTINUOUS
 10
362.2308979503
 20
606.2508988135
 11
361.8519927693
 21
605.9584685998
  0
LINE
  5
6F7
100
AcDbEntity
  8
RUNDUNGEN
100
AcDbLine
 62
7
  6
CONTINUOUS
 10
361.865208786
 20
605.968410315
 11
361.4642484504
 21
605.6747814861
  0
LINE
  5
6F8
100
AcDbEntity
  8
0
100
AcDbLine
 62
7
  6
CONTINUOUS
 10
379.3862089946
 20
612.8103894043
 11
379.583727703
 21
612.9486934929
  0
LINE
  5
6F9
100
AcDbEntity
  8
RUNDUNGEN
100
AcDbLine
 62
7
  6
CONTINUOUS
 10
361.4778574732
 20
605.6844769418
 11
361.0558354974
 21
605.3923171852
  0
LINE
  5
6FA
100
AcDbEntity
  8
RUNDUNGEN
100
AcDbLine
 62
7
  6
CONTINUOUS
 10
361.0697969897
 20
605.401702598
 11
360.6275287271
 21
605.1136459743
  0
LINE
  5
6FB
100
AcDbEntity
  8
RUNDUNGEN
100
AcDbLine
 62
7
  6
CONTINUOUS
 10
360.641808186
 20
605.1226525398
 11
360.1804871
 21
604.8416942557
  0
LINE
  5
6FC
100
AcDbEntity
  8
BEZUGSACHSEN
100
AcDbLine
 62
7
  6
CONTINUOUS
 10
-260.032384646
 20
606.108274425
 11
-260.3817508976
 21
606.0451701385
  0
LINE
  5
6FD
100
AcDbEntity
  8
RUNDUNGEN
100
AcDbLine
 62
7
  6
CONTINUOUS
 10
564.0606620167
 20
606.0458213674
 11
563.7123239738
 21
606.108340468
  0
LINE
  5
6FE
100
AcDbEntity
  8
0
100
AcDbLine
 62
7
  6
CONTINUOUS
 10
379.3862089946
 20
552.4486934929
 11
379.583727703
 21
552.3103894043
  0
LINE
  5
6FF
100
AcDbEntity
  8
0
100
AcDbLine
 62
7
  6
CONTINUOUS
 10
269.5488569558
 20
559.6295414486
 11
269.5488569558
 21
558.6295414486
  0
LINE
  5
700
100
AcDbEntity
  8
0
100
AcDbLine
 62
7
  6
CONTINUOUS
 10
270.5905233741
 20
559.6295414486
 11
270.5905233741
 21
558.6295414486
  0
LINE
  5
701
100
AcDbEntity
  8
0
100
AcDbLine
 62
7
  6
CONTINUOUS
 10
271.6321905375
 20
559.6295414486
 11
271.6321905375
 21
558.6295414486
  0
LINE
  5
702
100
AcDbEntity
  8
0
100
AcDbLine
 62
7
  6
CONTINUOUS
 10
271.8926062107
 20
559.6295414486
 11
271.8926062107
 21
558.6295414486
  0
LINE
  5
703
100
AcDbEntity
  8
0
100
AcDbLine
 62
7
  6
CONTINUOUS
 10
273.9759405375
 20
559.6295414486
 11
273.9759405375
 21
558.6295414486
  0
LINE
  5
704
100
AcDbEntity
  8
0
100
AcDbLine
 62
7
  6
CONTINUOUS
 10
283.3509390474
 20
559.6295414486
 11
283.3509390474
 21
558.6295414486
  0
LINE
  5
705
100
AcDbEntity
  8
0
100
AcDbLine
 62
7
  6
CONTINUOUS
 10
285.4342733741
 20
559.6295414486
 11
285.4342733741
 21
558.6295414486
  0
LINE
  5
706
100
AcDbEntity
  8
0
100
AcDbLine
 62
7
  6
CONTINUOUS
 10
289.0801077008
 20
559.6295414486
 11
289.0801077008
 21
558.6295414486
  0
LINE
  5
707
100
AcDbEntity
  8
0
100
AcDbLine
 62
7
  6
CONTINUOUS
 10
291.1634390474
 20
559.6295414486
 11
291.1634390474
 21
558.6295414486
  0
LINE
  5
708
100
AcDbEntity
  8
0
100
AcDbLine
 62
7
  6
CONTINUOUS
 10
291.4238577008
 20
559.6295414486
 11
291.4238577008
 21
558.6295414486
  0
LINE
  5
709
100
AcDbEntity
  8
0
100
AcDbLine
 62
7
  6
CONTINUOUS
 10
291.9446890474
 20
559.6295414486
 11
291.9446890474
 21
558.6295414486
  0
LINE
  5
70A
100
AcDbEntity
  8
0
100
AcDbLine
 62
7
  6
CONTINUOUS
 10
292.9863577008
 20
559.6295414486
 11
292.9863577008
 21
558.6295414486
  0
LINE
  5
70B
100
AcDbEntity
  8
0
100
AcDbLine
 62
7
  6
CONTINUOUS
 10
294.0280233741
 20
559.6295414486
 11
294.0280233741
 21
558.6295414486
  0
LINE
  5
70C
100
AcDbEntity
  8
0
100
AcDbLine
 62
7
  6
CONTINUOUS
 10
295.3301077008
 20
559.6295414486
 11
295.3301077008
 21
558.6295414486
  0
LINE
  5
70D
100
AcDbEntity
  8
0
100
AcDbLine
 62
7
  6
CONTINUOUS
 10
297.6738577008
 20
559.6295414486
 11
297.6738577008
 21
558.6295414486
  0
LINE
  5
70E
100
AcDbEntity
  8
RUNDUNGEN
100
AcDbLine
 62
7
  6
CONTINUOUS
 10
364.3075469319
 20
608.2058990619
 11
364.1251752988
 21
607.9991642693
  0
LINE
  5
70F
100
AcDbEntity
  8
RUNDUNGEN
100
AcDbLine
 62
7
  6
CONTINUOUS
 10
364.1333789417
 20
608.0082324027
 11
363.9260962977
 21
607.7849387791
  0
LINE
  5
710
100
AcDbEntity
  8
RUNDUNGEN
100
AcDbLine
 62
7
  6
CONTINUOUS
 10
363.9351259023
 20
607.7944326299
 11
363.7020486702
 21
607.5552941652
  0
LINE
  5
711
100
AcDbEntity
  8
RUNDUNGEN
100
AcDbLine
 62
7
  6
CONTINUOUS
 10
363.7118699146
 20
607.5651340415
 11
363.4532951004
 21
607.3121057375
  0
LINE
  5
712
100
AcDbEntity
  8
RUNDUNGEN
100
AcDbLine
 62
7
  6
CONTINUOUS
 10
363.4638405235
 20
607.3221910509
 11
363.1800529882
 21
607.0571212458
  0
LINE
  5
713
100
AcDbEntity
  8
RUNDUNGEN
100
AcDbLine
 62
7
  6
CONTINUOUS
 10
363.1912416897
 20
607.0673380493
 11
362.8827117982
 21
606.7921955656
  0
LINE
  5
714
100
AcDbEntity
  8
RUNDUNGEN
100
AcDbLine
 62
7
  6
CONTINUOUS
 10
362.8944895819
 20
606.8024562769
 11
362.5619278705
 21
606.5194296186
  0
LWPOLYLINE
  5
715
100
AcDbEntity
  8
BEZUGSACHSEN
100
AcDbPolyline
 62
7
  6
CONTINUOUS
 90
3
 70
0
 10
564.0606620167
 20
559.2132615297
 10
564.4002397631
 20
559.3168108087
 10
564.7331080267
 20
559.4638070346
  0
LINE
  5
716
100
AcDbEntity
  8
RUNDUNGEN
100
AcDbLine
 62
7
  6
CONTINUOUS
 10
564.4002397631
 20
605.9422720884
 11
564.0627976458
 21
606.0451701385
  0
LINE
  5
717
100
AcDbEntity
  8
0
100
AcDbLine
 62
7
  6
CONTINUOUS
 10
298.9759390474
 20
559.6295414486
 11
298.9759390474
 21
558.6295414486
  0
LINE
  5
718
100
AcDbEntity
  8
0
100
AcDbLine
 62
7
  6
CONTINUOUS
 10
300.0176077008
 20
559.6295414486
 11
300.0176077008
 21
558.6295414486
  0
LINE
  5
719
100
AcDbEntity
  8
0
100
AcDbLine
 62
7
  6
CONTINUOUS
 10
301.0592733741
 20
559.6295414486
 11
301.0592733741
 21
558.6295414486
  0
LINE
  5
71A
100
AcDbEntity
  8
0
100
AcDbLine
 62
7
  6
CONTINUOUS
 10
301.3196890474
 20
559.6295414486
 11
301.3196890474
 21
558.6295414486
  0
LINE
  5
71B
100
AcDbEntity
  8
0
100
AcDbLine
 62
7
  6
CONTINUOUS
 10
303.4030233741
 20
559.6295414486
 11
303.4030233741
 21
558.6295414486
  0
LINE
  5
71C
100
AcDbEntity
  8
0
100
AcDbLine
 62
7
  6
CONTINUOUS
 10
304.9655233741
 20
559.6295414486
 11
304.9655233741
 21
558.6295414486
  0
LINE
  5
71D
100
AcDbEntity
  8
0
100
AcDbLine
 62
7
  6
CONTINUOUS
 10
305.2259390474
 20
559.6295414486
 11
305.2259390474
 21
558.6295414486
  0
LINE
  5
71E
100
AcDbEntity
  8
0
100
AcDbLine
 62
7
  6
CONTINUOUS
 10
305.7467733741
 20
559.6295414486
 11
305.7467733741
 21
558.6295414486
  0
LINE
  5
71F
100
AcDbEntity
  8
0
100
AcDbLine
 62
7
  6
CONTINUOUS
 10
306.5280233741
 20
559.6295414486
 11
306.5280233741
 21
558.6295414486
  0
LINE
  5
720
100
AcDbEntity
  8
0
100
AcDbLine
 62
7
  6
CONTINUOUS
 10
307.5696890474
 20
559.6295414486
 11
307.5696890474
 21
558.6295414486
  0
LINE
  5
721
100
AcDbEntity
  8
0
100
AcDbLine
 62
7
  6
CONTINUOUS
 10
308.6113547206
 20
559.6295414486
 11
308.6113547206
 21
558.6295414486
  0
LINE
  5
722
100
AcDbEntity
  8
0
100
AcDbLine
 62
7
  6
CONTINUOUS
 10
309.6530233741
 20
559.6295414486
 11
309.6530233741
 21
558.6295414486
  0
LINE
  5
723
100
AcDbEntity
  8
0
100
AcDbLine
 62
7
  6
CONTINUOUS
 10
310.4342733741
 20
559.6295414486
 11
310.4342733741
 21
558.6295414486
  0
LINE
  5
724
100
AcDbEntity
  8
0
100
AcDbLine
 62
7
  6
CONTINUOUS
 10
310.9551047206
 20
559.6295414486
 11
310.9551047206
 21
558.6295414486
  0
LINE
  5
725
100
AcDbEntity
  8
0
100
AcDbLine
 62
7
  6
CONTINUOUS
 10
311.2155233741
 20
559.6295414486
 11
311.2155233741
 21
558.6295414486
  0
LINE
  5
726
100
AcDbEntity
  8
0
100
AcDbLine
 62
7
  6
CONTINUOUS
 10
312.7780233741
 20
559.6295414486
 11
312.7780233741
 21
558.6295414486
  0
LINE
  5
727
100
AcDbEntity
  8
0
100
AcDbLine
 62
7
  6
CONTINUOUS
 10
314.8613547206
 20
559.6295414486
 11
314.8613547206
 21
558.6295414486
  0
LINE
  5
728
100
AcDbEntity
  8
0
100
AcDbLine
 62
7
  6
CONTINUOUS
 10
321.1113547206
 20
559.6295414486
 11
321.1113547206
 21
558.6295414486
  0
LINE
  5
729
100
AcDbEntity
  8
0
100
AcDbLine
 62
7
  6
CONTINUOUS
 10
322.4134420276
 20
559.6295414486
 11
322.4134420276
 21
558.6295414486
  0
LINE
  5
72A
100
AcDbEntity
  8
0
100
AcDbLine
 62
7
  6
CONTINUOUS
 10
323.4551047206
 20
559.6295414486
 11
323.4551047206
 21
558.6295414486
  0
LINE
  5
72B
100
AcDbEntity
  8
0
100
AcDbLine
 62
7
  6
CONTINUOUS
 10
324.2363547206
 20
559.6295414486
 11
324.2363547206
 21
558.6295414486
  0
LINE
  5
72C
100
AcDbEntity
  8
0
100
AcDbLine
 62
7
  6
CONTINUOUS
 10
324.4967733741
 20
559.6295414486
 11
324.4967733741
 21
558.6295414486
  0
LINE
  5
72D
100
AcDbEntity
  8
0
100
AcDbLine
 62
7
  6
CONTINUOUS
 10
324.7571920276
 20
559.6295414486
 11
324.7571920276
 21
558.6295414486
  0
LINE
  5
72E
100
AcDbEntity
  8
RUNDUNGEN
100
AcDbLine
 62
7
  6
CONTINUOUS
 10
364.8825870164
 20
608.98886247
 11
364.8369570686
 21
608.9102479387
  0
LINE
  5
72F
100
AcDbEntity
  8
RUNDUNGEN
100
AcDbLine
 62
7
  6
CONTINUOUS
 10
364.8396458089
 20
608.9146743831
 11
364.7728082507
 21
608.8095714438
  0
LINE
  5
730
100
AcDbEntity
  8
RUNDUNGEN
100
AcDbLine
 62
7
  6
CONTINUOUS
 10
364.7764706517
 20
608.8151033967
 11
364.6923061669
 21
608.6927018402
  0
LINE
  5
731
100
AcDbEntity
  8
RUNDUNGEN
100
AcDbLine
 62
7
  6
CONTINUOUS
 10
364.6923061669
 20
608.6927018402
 11
364.5807793262
 21
608.5419104955
  0
LINE
  5
732
100
AcDbEntity
  8
RUNDUNGEN
100
AcDbLine
 62
7
  6
CONTINUOUS
 10
364.5863122542
 20
608.5491568671
 11
364.4518892623
 21
608.3786409961
  0
LINE
  5
733
100
AcDbEntity
  8
RUNDUNGEN
100
AcDbLine
 62
7
  6
CONTINUOUS
 10
364.4583481996
 20
608.3865951337
 11
364.3001962714
 21
608.1973389482
  0
LINE
  5
734
100
AcDbEntity
  8
0
100
AcDbLine
 62
7
  6
CONTINUOUS
 10
326.8405233741
 20
559.6295414486
 11
326.8405233741
 21
558.6295414486
  0
LINE
  5
735
100
AcDbEntity
  8
0
100
AcDbLine
 62
7
  6
CONTINUOUS
 10
336.7363547206
 20
559.6295414486
 11
336.7363547206
 21
558.6295414486
  0
LINE
  5
736
100
AcDbEntity
  8
0
100
AcDbLine
 62
7
  6
CONTINUOUS
 10
338.8196920276
 20
559.6295414486
 11
338.8196920276
 21
558.6295414486
  0
LINE
  5
737
100
AcDbEntity
  8
0
100
AcDbLine
 62
7
  6
CONTINUOUS
 10
340.3821920276
 20
559.6295414486
 11
340.3821920276
 21
558.6295414486
  0
LINE
  5
738
100
AcDbEntity
  8
0
100
AcDbLine
 62
7
  6
CONTINUOUS
 10
341.9446920276
 20
559.6295414486
 11
341.9446920276
 21
558.6295414486
  0
LINE
  5
739
100
AcDbEntity
  8
0
100
AcDbLine
 62
7
  6
CONTINUOUS
 10
344.0280233741
 20
559.6295414486
 11
344.0280233741
 21
558.6295414486
  0
LINE
  5
73A
100
AcDbEntity
  8
0
100
AcDbLine
 62
7
  6
CONTINUOUS
 10
344.2884420276
 20
559.6295414486
 11
344.2884420276
 21
558.6295414486
  0
LINE
  5
73B
100
AcDbEntity
  8
0
100
AcDbLine
 62
7
  6
CONTINUOUS
 10
344.8092733741
 20
559.6295414486
 11
344.8092733741
 21
558.6295414486
  0
LINE
  5
73C
100
AcDbEntity
  8
0
100
AcDbLine
 62
7
  6
CONTINUOUS
 10
345.5905233741
 20
559.6295414486
 11
345.5905233741
 21
558.6295414486
  0
LINE
  5
73D
100
AcDbEntity
  8
0
100
AcDbLine
 62
7
  6
CONTINUOUS
 10
346.8926047206
 20
559.6295414486
 11
346.8926047206
 21
558.6295414486
  0
LINE
  5
73E
100
AcDbEntity
  8
0
100
AcDbLine
 62
7
  6
CONTINUOUS
 10
348.1946920276
 20
559.6295414486
 11
348.1946920276
 21
558.6295414486
  0
LINE
  5
73F
100
AcDbEntity
  8
0
100
AcDbLine
 62
7
  6
CONTINUOUS
 10
349.2363547206
 20
559.6295414486
 11
349.2363547206
 21
558.6295414486
  0
LINE
  5
740
100
AcDbEntity
  8
0
100
AcDbLine
 62
7
  6
CONTINUOUS
 10
350.5384420276
 20
559.6295414486
 11
350.5384420276
 21
558.6295414486
  0
LINE
  5
741
100
AcDbEntity
  8
0
100
AcDbLine
 62
7
  6
CONTINUOUS
 10
351.8405233741
 20
559.6295414486
 11
351.8405233741
 21
558.6295414486
  0
LINE
  5
742
100
AcDbEntity
  8
0
100
AcDbLine
 62
7
  6
CONTINUOUS
 10
352.6217733741
 20
559.6295414486
 11
352.6217733741
 21
558.6295414486
  0
LINE
  5
743
100
AcDbEntity
  8
0
100
AcDbLine
 62
7
  6
CONTINUOUS
 10
352.8821920276
 20
559.6295414486
 11
352.8821920276
 21
558.6295414486
  0
LINE
  5
744
100
AcDbEntity
  8
0
100
AcDbLine
 62
7
  6
CONTINUOUS
 10
353.4030233741
 20
559.6295414486
 11
353.4030233741
 21
558.6295414486
  0
LWPOLYLINE
  5
745
100
AcDbEntity
  8
RUNDUNGEN
100
AcDbPolyline
 62
7
  6
CONTINUOUS
 90
4
 70
0
 10
364.9134325192
 20
609.0493845611
 10
364.9141996635
 20
609.0512729917
 10
364.9067874838
 20
609.0353327844
 10
364.8825870164
 20
608.98886247
  0
LINE
  5
746
100
AcDbEntity
  8
RUNDUNGEN
100
AcDbLine
 62
7
  6
CONTINUOUS
 10
564.7252048902
 20
605.7993406895
 11
564.4002397631
 21
605.9422720884
  0
LINE
  5
747
100
AcDbEntity
  8
RUNDUNGEN
100
AcDbLine
 62
7
  6
CONTINUOUS
 10
364.8405233741
 20
609.6294380915
 11
364.8405233741
 21
608.9161905232
  0
LINE
  5
748
100
AcDbEntity
  8
BEZUGSACHSEN
100
AcDbLine
 62
7
  6
CONTINUOUS
 10
564.7252048902
 20
559.4597422076
 11
565.0402155653
 21
559.6462694696
  0
LINE
  5
749
100
AcDbEntity
  8
RUNDUNGEN
100
AcDbLine
 62
7
  6
CONTINUOUS
 10
565.0310083758
 20
605.619029076
 11
564.7252048902
 21
605.7993406895
  0
LINE
  5
74A
100
AcDbEntity
  8
0
100
AcDbLine
 62
7
  6
CONTINUOUS
 10
367.9150634112
 20
559.6295414486
 11
369.0237417074
 21
552.6296221768
  0
LINE
  5
74B
100
AcDbEntity
  8
0
100
AcDbLine
 62
7
  6
CONTINUOUS
 10
403.9171977517
 20
610.4431268384
 11
404.9786358949
 21
600.3442174984
  0
LINE
  5
74C
100
AcDbEntity
  8
0
100
AcDbLine
 62
7
  6
CONTINUOUS
 10
404.9786358949
 20
600.3442174984
 11
404.9786358949
 21
564.9148653988
  0
LINE
  5
74D
100
AcDbEntity
  8
0
100
AcDbLine
 62
7
  6
CONTINUOUS
 10
403.9171977517
 20
554.8159560588
 11
404.9786358949
 21
564.9148653988
  0
LINE
  5
74E
100
AcDbEntity
  8
BEZUGSACHSEN
100
AcDbLine
 62
7
  6
CONTINUOUS
 10
565.0310083758
 20
559.6400538211
 11
565.3234561253
 21
559.8639357089
  0
LINE
  5
74F
100
AcDbEntity
  8
RUNDUNGEN
100
AcDbLine
 62
7
  6
CONTINUOUS
 10
565.3133692132
 20
605.4038624057
 11
565.0310083758
 21
605.619029076
  0
LWPOLYLINE
  5
750
100
AcDbEntity
  8
BEZUGSACHSEN
100
AcDbPolyline
 62
7
  6
CONTINUOUS
 90
10
 70
0
 10
565.4445850245
 20
559.9749735067
 10
566.030348805
 20
560.5533750349
 10
567.529415545
 20
562.145547224
 10
568.9208236101
 20
563.7952381492
 10
570.1974190006
 20
565.4932894776
 10
571.3545127278
 20
567.2296755531
 10
572.3887800721
 20
568.9921394981
 10
573.2993377746
 20
570.767812253
 10
574.0879854121
 20
572.5446518122
 10
574.6456973817
 20
573.9926238474
  0
LINE
  5
751
100
AcDbEntity
  8
BEZUGSACHSEN
100
AcDbLine
 62
7
  6
CONTINUOUS
 10
565.4431129284
 20
559.9735492396
 11
565.4436454617
 21
559.9740636029
  0
LINE
  5
752
100
AcDbEntity
  8
BEZUGSACHSEN
100
AcDbLine
 62
7
  6
CONTINUOUS
 10
565.3133692132
 20
559.8552204914
 11
565.4436336764
 21
559.9741031673
  0
LINE
  5
753
100
AcDbEntity
  8
RUNDUNGEN
100
AcDbLine
 62
7
  6
CONTINUOUS
 10
565.4436336764
 20
605.2849797299
 11
565.3133692132
 21
605.4038624057
  0
LWPOLYLINE
  5
754
100
AcDbEntity
  8
BEZUGSACHSEN
100
AcDbPolyline
 62
7
  6
CONTINUOUS
 90
8
 70
0
 10
565.4436336773
 20
605.2849797291
 10
565.3234561253
 20
605.3951471882
 10
565.0402155653
 20
605.6128134276
 10
564.7331080267
 20
605.7952758626
 10
564.4064866588
 20
605.9399471982
 10
564.0649809763
 20
606.0447757744
 10
563.7134313942
 20
606.108274425
 10
563.3568221384
 20
606.1295414486
  0
LINE
  5
755
100
AcDbEntity
  8
BEZUGSACHSEN
100
AcDbLine
 62
7
  6
CONTINUOUS
 10
565.4431129285
 20
605.2855336574
 11
565.4436454617
 21
605.2850192942
  0
LINE
  5
756
100
AcDbEntity
  8
RUNDUNGEN
100
AcDbLine
 62
7
  6
CONTINUOUS
 10
565.4431129284
 20
605.2855336575
 11
565.4436454617
 21
605.2850192942
  0
LINE
  5
757
100
AcDbEntity
  8
BEZUGSACHSEN
100
AcDbLine
 62
7
  6
CONTINUOUS
 10
501.8405233741
 20
562.1295414486
 11
501.8405233741
 21
603.1295414486
  0
LWPOLYLINE
  5
758
100
AcDbEntity
  8
BEZUGSACHSEN
100
AcDbPolyline
 62
7
  6
CONTINUOUS
 90
7
 70
0
 10
576.1522201032
 20
582.6295414486
 10
576.1216680007
 20
583.8776637958
 10
575.9964547508
 20
585.4443171321
 10
575.775033688
 20
587.0002009514
 10
575.458246028
 20
588.5394210653
 10
575.0472212219
 20
590.056365271
 10
574.645696353
 20
591.2664579524
  0
LWPOLYLINE
  5
759
100
AcDbEntity
  8
RUNDUNGEN
100
AcDbPolyline
 62
7
  6
CONTINUOUS
 90
7
 70
0
 10
576.1522201032
 20
582.6295414486
 10
576.1216680007
 20
583.8776637954
 10
575.9964547508
 20
585.4443171318
 10
575.775033688
 20
587.0002009511
 10
575.458246028
 20
588.5394210651
 10
575.0472212219
 20
590.0563652709
 10
574.645696353
 20
591.2664579524
  0
LWPOLYLINE
  5
75A
100
AcDbEntity
  8
BEZUGSACHSEN
100
AcDbPolyline
 62
7
  6
CONTINUOUS
 90
7
 70
0
 10
574.645696353
 20
573.9926249448
 10
575.0472212219
 20
575.2027176262
 10
575.458246028
 20
576.7196618318
 10
575.775033688
 20
578.2588819457
 10
575.9964547508
 20
579.8147657649
 10
576.1216680007
 20
581.3814191012
 10
576.1522201032
 20
582.6295414486
  0
LWPOLYLINE
  5
75B
100
AcDbEntity
  8
BEZUGSACHSEN
100
AcDbPolyline
 62
7
  6
CONTINUOUS
 90
10
 70
0
 10
574.6456973817
 20
591.2664590497
 10
574.0879854121
 20
592.714431085
 10
573.2993377746
 20
594.4912706442
 10
572.3887800721
 20
596.266943399
 10
571.3545127278
 20
598.029407344
 10
570.1974190006
 20
599.7657934195
 10
568.9208236101
 20
601.463844748
 10
567.529415545
 20
603.1135356732
 10
566.030348805
 20
604.7057078623
 10
565.4445850245
 20
605.2841093905
  0
LWPOLYLINE
  5
75C
100
AcDbEntity
  8
RUNDUNGEN
100
AcDbPolyline
 62
7
  6
CONTINUOUS
 90
10
 70
0
 10
574.6456973817
 20
591.2664590497
 10
574.0879854121
 20
592.714431085
 10
573.2993377746
 20
594.4912706442
 10
572.3887800721
 20
596.266943399
 10
571.3545127278
 20
598.029407344
 10
570.1974190006
 20
599.7657934195
 10
568.9208236101
 20
601.463844748
 10
567.529415545
 20
603.1135356732
 10
566.030348805
 20
604.7057078623
 10
565.4445850245
 20
605.2841093905
  0
LINE
  5
75D
100
AcDbEntity
  8
BEZUGSACHSEN
100
AcDbLine
 62
7
  6
CONTINUOUS
 10
1014.1492350999
 20
348.49274842
 11
1014.1492350999
 21
329.59274842
  0
LINE
  5
75E
100
AcDbEntity
  8
0
100
AcDbLine
 62
7
  6
CONTINUOUS
 10
1006.3239771286
 20
377.7211234808
 11
1000.8021593158
 21
372.0031137485
  0
LINE
  5
75F
100
AcDbEntity
  8
BEZUGSACHSEN
100
AcDbLine
 62
7
  6
CONTINUOUS
 10
1034.1492350999
 20
348.49274842
 11
1034.1492350999
 21
329.59274842
  0
LINE
  5
760
100
AcDbEntity
  8
0
100
AcDbLine
 62
7
  6
CONTINUOUS
 10
1041.5242350999
 20
319.04274842
 11
1041.5242350999
 21
313.04274842
  0
LINE
  5
761
100
AcDbEntity
  8
0
100
AcDbLine
 62
7
  6
CONTINUOUS
 10
1042.2742350999
 20
313.04274842
 11
1042.2742350999
 21
315.7235995219
  0
LINE
  5
762
100
AcDbEntity
  8
0
100
AcDbLine
 62
7
  6
CONTINUOUS
 10
1042.2742350999
 20
316.4895568774
 11
1042.2742350999
 21
318.4044506238
  0
LINE
  5
763
100
AcDbEntity
  8
0
100
AcDbLine
 62
7
  6
CONTINUOUS
 10
1045.3992349807
 20
317.6384932683
 11
1045.3992349807
 21
317.2555142329
  0
LINE
  5
764
100
AcDbEntity
  8
0
100
AcDbLine
 62
7
  6
CONTINUOUS
 10
1046.1492349807
 20
317.1278546736
 11
1046.1492349807
 21
317.6384932683
  0
LINE
  5
765
100
AcDbEntity
  8
0
100
AcDbLine
 62
7
  6
CONTINUOUS
 10
1047.2742349807
 20
319.04274842
 11
1047.2742349807
 21
315.0853015468
  0
LINE
  5
766
100
AcDbEntity
  8
0
100
AcDbLine
 62
7
  6
CONTINUOUS
 10
1048.0242353383
 20
315.0853015468
 11
1048.0242353383
 21
319.04274842
  0
LINE
  5
767
100
AcDbEntity
  8
0
100
AcDbLine
 62
7
  6
CONTINUOUS
 10
1051.0242353383
 20
319.04274842
 11
1051.0242353383
 21
315.0853015468
  0
LINE
  5
768
100
AcDbEntity
  8
0
100
AcDbLine
 62
7
  6
CONTINUOUS
 10
1051.7742353383
 20
315.0853015468
 11
1051.7742353383
 21
319.04274842
  0
LINE
  5
769
100
AcDbEntity
  8
0
100
AcDbLine
 62
7
  6
CONTINUOUS
 10
1052.7742350999
 20
319.04274842
 11
1052.7742350999
 21
313.04274842
  0
LINE
  5
76A
100
AcDbEntity
  8
0
100
AcDbLine
 62
7
  6
CONTINUOUS
 10
1053.5242350999
 20
313.8087058649
 11
1053.5242350999
 21
318.2767910645
  0
LINE
  5
76B
100
AcDbEntity
  8
0
100
AcDbLine
 62
7
  6
CONTINUOUS
 10
1057.0242346231
 20
317.0001951144
 11
1057.0242346231
 21
315.0853015468
  0
LINE
  5
76C
100
AcDbEntity
  8
0
100
AcDbLine
 62
7
  6
CONTINUOUS
 10
1051.6492350999
 20
314.4470037506
 11
1051.7742353383
 21
315.0853015468
  0
LINE
  5
76D
100
AcDbEntity
  8
0
100
AcDbLine
 62
7
  6
CONTINUOUS
 10
1057.6492350999
 20
314.4470037506
 11
1057.7742346231
 21
315.0853015468
  0
LINE
  5
76E
100
AcDbEntity
  8
0
100
AcDbLine
 62
7
  6
CONTINUOUS
 10
1051.0242353383
 20
315.0853015468
 11
1050.8992350999
 21
314.5746633098
  0
LINE
  5
76F
100
AcDbEntity
  8
0
100
AcDbLine
 62
7
  6
CONTINUOUS
 10
1057.0242346231
 20
315.0853015468
 11
1056.8992350999
 21
314.5746633098
  0
LINE
  5
770
100
AcDbEntity
  8
0
100
AcDbLine
 62
7
  6
CONTINUOUS
 10
1045.3992349807
 20
317.2555142329
 11
1045.2742350999
 21
316.8725355551
  0
LINE
  5
771
100
AcDbEntity
  8
0
100
AcDbLine
 62
7
  6
CONTINUOUS
 10
1046.0242350999
 20
316.7448759959
 11
1046.1492349807
 21
317.1278546736
  0
LINE
  5
772
100
AcDbEntity
  8
0
100
AcDbLine
 62
7
  6
CONTINUOUS
 10
1051.3992353383
 20
313.9363654242
 11
1051.6492350999
 21
314.4470037506
  0
LINE
  5
773
100
AcDbEntity
  8
0
100
AcDbLine
 62
7
  6
CONTINUOUS
 10
1057.3992346231
 20
313.9363654242
 11
1057.6492350999
 21
314.4470037506
  0
LINE
  5
774
100
AcDbEntity
  8
0
100
AcDbLine
 62
7
  6
CONTINUOUS
 10
1050.8992350999
 20
314.5746633098
 11
1050.6492353383
 21
314.1916846321
  0
LINE
  5
775
100
AcDbEntity
  8
0
100
AcDbLine
 62
7
  6
CONTINUOUS
 10
1056.8992350999
 20
314.5746633098
 11
1056.6492346231
 21
314.1916846321
  0
LINE
  5
776
100
AcDbEntity
  8
0
100
AcDbLine
 62
7
  6
CONTINUOUS
 10
1045.6492350999
 20
316.2342377589
 11
1046.0242350999
 21
316.7448759959
  0
LINE
  5
777
100
AcDbEntity
  8
0
100
AcDbLine
 62
7
  6
CONTINUOUS
 10
1057.7742346231
 20
315.0853015468
 11
1057.7742346231
 21
317.0001951144
  0
LINE
  5
778
100
AcDbEntity
  8
BEZUGSACHSEN
100
AcDbLine
 62
7
  6
CONTINUOUS
 10
1073.1492350999
 20
302.04274842
 11
1073.1492350999
 21
376.04274842
  0
LINE
  5
779
100
AcDbEntity
  8
0
100
AcDbLine
 62
7
  6
CONTINUOUS
 10
1045.2742350999
 20
316.8725355551
 11
1045.0242349807
 21
316.6172164366
  0
LINE
  5
77A
100
AcDbEntity
  8
0
100
AcDbLine
 62
7
  6
CONTINUOUS
 10
1050.8992350999
 20
313.4257271425
 11
1051.3992353383
 21
313.9363654242
  0
LINE
  5
77B
100
AcDbEntity
  8
0
100
AcDbLine
 62
7
  6
CONTINUOUS
 10
1056.8992350999
 20
313.4257271425
 11
1057.3992346231
 21
313.9363654242
  0
LINE
  5
77C
100
AcDbEntity
  8
0
100
AcDbLine
 62
7
  6
CONTINUOUS
 10
1048.1492348615
 20
314.5746633098
 11
1048.0242353383
 21
315.0853015468
  0
LINE
  5
77D
100
AcDbEntity
  8
0
100
AcDbLine
 62
7
  6
CONTINUOUS
 10
1047.2742349807
 20
315.0853015468
 11
1047.3992352191
 21
314.4470037506
  0
LINE
  5
77E
100
AcDbEntity
  8
0
100
AcDbLine
 62
7
  6
CONTINUOUS
 10
1057.7742346231
 20
317.0001951144
 11
1057.6492350999
 21
317.6384932683
  0
LINE
  5
77F
100
AcDbEntity
  8
0
100
AcDbLine
 62
7
  6
CONTINUOUS
 10
1046.2742352191
 20
313.04274842
 11
1045.1492352191
 21
315.9789186404
  0
LINE
  5
780
100
AcDbEntity
  8
0
100
AcDbLine
 62
7
  6
CONTINUOUS
 10
1044.3992350403
 20
315.7235995219
 11
1045.3992349807
 21
313.04274842
  0
LINE
  5
781
100
AcDbEntity
  8
0
100
AcDbLine
 62
7
  6
CONTINUOUS
 10
1045.2742350999
 20
318.021471946
 11
1045.3992349807
 21
317.6384932683
  0
LINE
  5
782
100
AcDbEntity
  8
0
100
AcDbLine
 62
7
  6
CONTINUOUS
 10
1046.1492349807
 20
317.6384932683
 11
1046.0242350999
 21
318.021471946
  0
LINE
  5
783
100
AcDbEntity
  8
0
100
AcDbLine
 62
7
  6
CONTINUOUS
 10
1056.8992350999
 20
317.5108333514
 11
1057.0242346231
 21
317.0001951144
  0
LINE
  5
784
100
AcDbEntity
  8
0
100
AcDbLine
 62
7
  6
CONTINUOUS
 10
1050.6492353383
 20
314.1916846321
 11
1050.2742353383
 21
313.9363654242
  0
LINE
  5
785
100
AcDbEntity
  8
0
100
AcDbLine
 62
7
  6
CONTINUOUS
 10
1056.6492346231
 20
314.1916846321
 11
1056.2742346231
 21
313.9363654242
  0
LINE
  5
786
100
AcDbEntity
  8
0
100
AcDbLine
 62
7
  6
CONTINUOUS
 10
1045.1492352191
 20
315.9789186404
 11
1045.6492350999
 21
316.2342377589
  0
LINE
  5
787
100
AcDbEntity
  8
0
100
AcDbLine
 62
7
  6
CONTINUOUS
 10
1047.3992352191
 20
314.4470037506
 11
1047.6492353383
 21
313.9363654242
  0
LINE
  5
788
100
AcDbEntity
  8
0
100
AcDbLine
 62
7
  6
CONTINUOUS
 10
1057.6492350999
 20
317.6384932683
 11
1057.3992346231
 21
318.1491315053
  0
LINE
  5
789
100
AcDbEntity
  8
0
100
AcDbLine
 62
7
  6
CONTINUOUS
 10
1170.0111225791
 20
321.3280723702
 11
1170.0111225791
 21
356.7574244698
  0
LINE
  5
78A
100
AcDbEntity
  8
RUNDUNGEN
100
AcDbLine
 62
7
  6
CONTINUOUS
 10
1170.0111225791
 20
356.7574244698
 11
1171.0725607223
 21
366.8563338098
  0
LINE
  5
78B
100
AcDbEntity
  8
0
100
AcDbLine
 62
7
  6
CONTINUOUS
 10
1223.1492350999
 20
342.3672164814
 11
1223.6700664464
 21
343.1650889129
  0
LINE
  5
78C
100
AcDbEntity
  8
0
100
AcDbLine
 62
7
  6
CONTINUOUS
 10
1222.8888164464
 20
344.2289186665
 11
1222.1075664464
 21
343.1650889129
  0
LINE
  5
78D
100
AcDbEntity
  8
0
100
AcDbLine
 62
7
  6
CONTINUOUS
 10
1050.3992348615
 20
313.1704079905
 11
1050.8992350999
 21
313.4257271425
  0
LINE
  5
78E
100
AcDbEntity
  8
0
100
AcDbLine
 62
7
  6
CONTINUOUS
 10
1056.3992355768
 20
313.1704079905
 11
1056.8992350999
 21
313.4257271425
  0
LINE
  5
78F
100
AcDbEntity
  8
0
100
AcDbLine
 62
7
  6
CONTINUOUS
 10
1048.3992353383
 20
314.1916846321
 11
1048.1492348615
 21
314.5746633098
  0
LINE
  5
790
100
AcDbEntity
  8
0
100
AcDbLine
 62
7
  6
CONTINUOUS
 10
1056.6492346231
 20
317.8938123868
 11
1056.8992350999
 21
317.5108333514
  0
LINE
  5
791
100
AcDbEntity
  8
RUNDUNGEN
100
AcDbLine
 62
7
  6
CONTINUOUS
 10
1171.0725607223
 20
311.2291630302
 11
1170.0111225791
 21
321.3280723702
  0
LINE
  5
792
100
AcDbEntity
  8
0
100
AcDbLine
 62
7
  6
CONTINUOUS
 10
1171.0725607223
 20
311.2291630302
 11
1170.0111225791
 21
321.3280723702
  0
LINE
  5
793
100
AcDbEntity
  8
0
100
AcDbLine
 62
7
  6
CONTINUOUS
 10
1207.0746950628
 20
319.7813881358
 11
1207.0746950628
 21
358.3041087043
  0
LINE
  5
794
100
AcDbEntity
  8
0
100
AcDbLine
 62
7
  6
CONTINUOUS
 10
1229.6596537534
 20
338.1118974672
 11
1229.3992350999
 21
336.5161529765
  0
LINE
  5
795
100
AcDbEntity
  8
0
100
AcDbLine
 62
7
  6
CONTINUOUS
 10
1222.8888164464
 20
341.569344236
 11
1223.1492350999
 21
342.3672164814
  0
LINE
  5
796
100
AcDbEntity
  8
0
100
AcDbLine
 62
7
  6
CONTINUOUS
 10
1229.3992350999
 20
340.7714719907
 11
1229.1388164464
 21
339.9735993729
  0
LINE
  5
797
100
AcDbEntity
  8
0
100
AcDbLine
 62
7
  6
CONTINUOUS
 10
1229.3992350999
 20
336.5161529765
 11
1229.1388164464
 21
335.7182799862
  0
LINE
  5
798
100
AcDbEntity
  8
0
100
AcDbLine
 62
7
  6
CONTINUOUS
 10
1222.1075664464
 20
343.1650889129
 11
1221.5867350999
 21
341.8353016511
  0
LINE
  5
799
100
AcDbEntity
  8
0
100
AcDbLine
 62
7
  6
CONTINUOUS
 10
1230.1804850999
 20
334.9204077409
 11
1230.7013164464
 21
336.2501955614
  0
LINE
  5
79A
100
AcDbEntity
  8
0
100
AcDbLine
 62
7
  6
CONTINUOUS
 10
1229.1388164464
 20
335.7182799862
 11
1228.6179850999
 21
334.9204077409
  0
LINE
  5
79B
100
AcDbEntity
  8
0
100
AcDbLine
 62
7
  6
CONTINUOUS
 10
1229.3992350999
 20
333.8565780804
 11
1230.1804850999
 21
334.9204077409
  0
LINE
  5
79C
100
AcDbEntity
  8
0
100
AcDbLine
 62
7
  6
CONTINUOUS
 10
1251.5346537534
 20
338.6438122974
 11
1250.7534037534
 21
337.579982637
  0
LINE
  5
79D
100
AcDbEntity
  8
0
100
AcDbLine
 62
7
  6
CONTINUOUS
 10
1236.1700664464
 20
336.7821103916
 11
1234.6075664464
 21
334.9204077409
  0
LINE
  5
79E
100
AcDbEntity
  8
0
100
AcDbLine
 62
7
  6
CONTINUOUS
 10
1234.6075664464
 20
332.79274842
 11
1236.1700664464
 21
334.6544503258
  0
LINE
  5
79F
100
AcDbEntity
  8
0
100
AcDbLine
 62
7
  6
CONTINUOUS
 10
1229.1388164464
 20
339.9735993729
 11
1228.6179850999
 21
339.4416845427
  0
LINE
  5
7A0
100
AcDbEntity
  8
0
100
AcDbLine
 62
7
  6
CONTINUOUS
 10
1252.3159037534
 20
337.3140252218
 11
1252.8367350999
 21
337.8459400521
  0
LINE
  5
7A1
100
AcDbEntity
  8
0
100
AcDbLine
 62
7
  6
CONTINUOUS
 10
1264.0346537534
 20
344.4948760816
 11
1262.9929850999
 21
343.431046328
  0
LINE
  5
7A2
100
AcDbEntity
  8
0
100
AcDbLine
 62
7
  6
CONTINUOUS
 10
1195.6035494794
 20
308.8619004643
 11
1195.406030771
 21
308.7235963757
  0
LINE
  5
7A3
100
AcDbEntity
  8
0
100
AcDbLine
 62
7
  6
CONTINUOUS
 10
1223.6700664464
 20
343.1650889129
 11
1224.4513164464
 21
343.6970037431
  0
LINE
  5
7A4
100
AcDbEntity
  8
0
100
AcDbLine
 62
7
  6
CONTINUOUS
 10
1228.6179850999
 20
339.4416845427
 11
1227.8367350999
 21
338.9097697125
  0
LINE
  5
7A5
100
AcDbEntity
  8
0
100
AcDbLine
 62
7
  6
CONTINUOUS
 10
1228.0971537534
 20
337.579982637
 11
1229.6596537534
 21
338.6438122974
  0
LINE
  5
7A6
100
AcDbEntity
  8
0
100
AcDbLine
 62
7
  6
CONTINUOUS
 10
1228.6179850999
 20
334.9204077409
 11
1227.8367350999
 21
334.3884929106
  0
LINE
  5
7A7
100
AcDbEntity
  8
0
100
AcDbLine
 62
7
  6
CONTINUOUS
 10
1224.1909037534
 20
345.0267909816
 11
1222.8888164464
 21
344.2289186665
  0
LINE
  5
7A8
100
AcDbEntity
  8
0
100
AcDbLine
 62
7
  6
CONTINUOUS
 10
1228.0971537534
 20
333.0587058351
 11
1229.3992350999
 21
333.8565780804
  0
LINE
  5
7A9
100
AcDbEntity
  8
0
100
AcDbLine
 62
7
  6
CONTINUOUS
 10
1045.0242349807
 20
316.6172164366
 11
1044.6492349807
 21
316.4895568774
  0
LINE
  5
7AA
100
AcDbEntity
  8
BEZUGSACHSEN
100
AcDbLine
 62
7
  6
CONTINUOUS
 10
1000.8021593158
 20
306.0823830916
 11
1006.3239771286
 21
300.3643733592
  0
LINE
  5
7AB
100
AcDbEntity
  8
0
100
AcDbLine
 62
7
  6
CONTINUOUS
 10
1046.0242350999
 20
318.021471946
 11
1045.6492350999
 21
318.532110183
  0
LINE
  5
7AC
100
AcDbEntity
  8
0
100
AcDbLine
 62
7
  6
CONTINUOUS
 10
1221.5867350999
 20
341.8353016511
 11
1221.5867350999
 21
340.5055142031
  0
LINE
  5
7AD
100
AcDbEntity
  8
0
100
AcDbLine
 62
7
  6
CONTINUOUS
 10
1222.8888164464
 20
340.7714719907
 11
1222.8888164464
 21
341.569344236
  0
LINE
  5
7AE
100
AcDbEntity
  8
0
100
AcDbLine
 62
7
  6
CONTINUOUS
 10
1229.3992350999
 20
341.569344236
 11
1229.3992350999
 21
340.7714719907
  0
LINE
  5
7AF
100
AcDbEntity
  8
0
100
AcDbLine
 62
7
  6
CONTINUOUS
 10
1229.6596537534
 20
338.6438122974
 11
1229.6596537534
 21
338.1118974672
  0
LINE
  5
7B0
100
AcDbEntity
  8
0
100
AcDbLine
 62
7
  6
CONTINUOUS
 10
1230.9617350999
 20
338.1118974672
 11
1230.9617350999
 21
339.9735993729
  0
LINE
  5
7B1
100
AcDbEntity
  8
0
100
AcDbLine
 62
7
  6
CONTINUOUS
 10
1233.0450664464
 20
345.29274842
 11
1233.0450664464
 21
332.79274842
  0
LINE
  5
7B2
100
AcDbEntity
  8
0
100
AcDbLine
 62
7
  6
CONTINUOUS
 10
1234.6075664464
 20
334.9204077409
 11
1234.6075664464
 21
345.29274842
  0
LINE
  5
7B3
100
AcDbEntity
  8
0
100
AcDbLine
 62
7
  6
CONTINUOUS
 10
1236.1700664464
 20
334.6544503258
 11
1236.1700664464
 21
336.7821103916
  0
LINE
  5
7B4
100
AcDbEntity
  8
0
100
AcDbLine
 62
7
  6
CONTINUOUS
 10
1238.2534037534
 20
334.1225354955
 11
1238.2534037534
 21
332.79274842
  0
LINE
  5
7B5
100
AcDbEntity
  8
0
100
AcDbLine
 62
7
  6
CONTINUOUS
 10
1242.4200664464
 20
345.29274842
 11
1242.4200664464
 21
334.1225354955
  0
LINE
  5
7B6
100
AcDbEntity
  8
0
100
AcDbLine
 62
7
  6
CONTINUOUS
 10
1230.7013164464
 20
336.2501955614
 11
1230.9617350999
 21
338.1118974672
  0
LINE
  5
7B7
100
AcDbEntity
  8
0
100
AcDbLine
 62
7
  6
CONTINUOUS
 10
1262.4721537534
 20
342.3672164814
 11
1262.2117350999
 21
341.0374294058
  0
LINE
  5
7B8
100
AcDbEntity
  8
0
100
AcDbLine
 62
7
  6
CONTINUOUS
 10
1263.7742350999
 20
341.0374294058
 11
1264.0346537534
 21
342.1012590662
  0
LINE
  5
7B9
100
AcDbEntity
  8
0
100
AcDbLine
 62
7
  6
CONTINUOUS
 10
1250.7534037534
 20
337.579982637
 11
1250.4929850999
 21
336.7821103916
  0
LINE
  5
7BA
100
AcDbEntity
  8
0
100
AcDbLine
 62
7
  6
CONTINUOUS
 10
1252.0554850999
 20
336.5161529765
 11
1252.3159037534
 21
337.3140252218
  0
LINE
  5
7BB
100
AcDbEntity
  8
0
100
AcDbLine
 62
7
  6
CONTINUOUS
 10
1275.2325694267
 20
342.1012590662
 11
1275.4929850999
 21
342.8991313116
  0
LINE
  5
7BC
100
AcDbEntity
  8
0
100
AcDbLine
 62
7
  6
CONTINUOUS
 10
1262.9929850999
 20
343.431046328
 11
1262.4721537534
 21
342.3672164814
  0
LINE
  5
7BD
100
AcDbEntity
  8
0
100
AcDbLine
 62
7
  6
CONTINUOUS
 10
1283.0450694267
 20
334.6544503258
 11
1283.5659007732
 21
335.7182799862
  0
LINE
  5
7BE
100
AcDbEntity
  8
0
100
AcDbLine
 62
7
  6
CONTINUOUS
 10
1264.0346537534
 20
342.1012590662
 11
1264.5554850999
 21
342.8991313116
  0
LINE
  5
7BF
100
AcDbEntity
  8
0
100
AcDbLine
 62
7
  6
CONTINUOUS
 10
1282.0034007732
 20
335.9842381463
 11
1281.4825694267
 21
335.186365156
  0
LINE
  5
7C0
100
AcDbEntity
  8
0
100
AcDbLine
 62
7
  6
CONTINUOUS
 10
1274.9721507732
 20
344.4948760816
 11
1273.9304850999
 21
343.431046328
  0
LINE
  5
7C1
100
AcDbEntity
  8
0
100
AcDbLine
 62
7
  6
CONTINUOUS
 10
1282.0034007732
 20
333.5906206653
 11
1283.0450694267
 21
334.6544503258
  0
LINE
  5
7C2
100
AcDbEntity
  8
0
100
AcDbLine
 62
7
  6
CONTINUOUS
 10
1304.3992350999
 20
344.4948760816
 11
1303.3575679366
 21
343.431046328
  0
LINE
  5
7C3
100
AcDbEntity
  8
0
100
AcDbLine
 62
7
  6
CONTINUOUS
 10
1264.5554850999
 20
342.8991313116
 11
1265.3367350999
 21
343.431046328
  0
LINE
  5
7C4
100
AcDbEntity
  8
0
100
AcDbLine
 62
7
  6
CONTINUOUS
 10
1275.4929850999
 20
342.8991313116
 11
1276.2742350999
 21
343.431046328
  0
LINE
  5
7C5
100
AcDbEntity
  8
0
100
AcDbLine
 62
7
  6
CONTINUOUS
 10
1281.4825694267
 20
335.186365156
 11
1280.7013194267
 21
334.6544503258
  0
LINE
  5
7C6
100
AcDbEntity
  8
0
100
AcDbLine
 62
7
  6
CONTINUOUS
 10
1304.9200686816
 20
342.8991313116
 11
1305.7013186816
 21
343.431046328
  0
LINE
  5
7C7
100
AcDbEntity
  8
0
100
AcDbLine
 62
7
  6
CONTINUOUS
 10
1252.5763164464
 20
339.1757271276
 11
1251.5346537534
 21
338.6438122974
  0
LINE
  5
7C8
100
AcDbEntity
  8
0
100
AcDbLine
 62
7
  6
CONTINUOUS
 10
1265.0763164464
 20
345.0267909816
 11
1264.0346537534
 21
344.4948760816
  0
LINE
  5
7C9
100
AcDbEntity
  8
0
100
AcDbLine
 62
7
  6
CONTINUOUS
 10
1276.0138194267
 20
345.0267909816
 11
1274.9721507732
 21
344.4948760816
  0
LINE
  5
7CA
100
AcDbEntity
  8
0
100
AcDbLine
 62
7
  6
CONTINUOUS
 10
1280.9617350999
 20
333.0587058351
 11
1282.0034007732
 21
333.5906206653
  0
LINE
  5
7CB
100
AcDbEntity
  8
0
100
AcDbLine
 62
7
  6
CONTINUOUS
 10
1305.4409015182
 20
345.0267909816
 11
1304.3992350999
 21
344.4948760816
  0
LINE
  5
7CC
100
AcDbEntity
  8
0
100
AcDbLine
 62
7
  6
CONTINUOUS
 10
1224.4513164464
 20
343.6970037431
 11
1225.2325664464
 21
343.9629611582
  0
LINE
  5
7CD
100
AcDbEntity
  8
0
100
AcDbLine
 62
7
  6
CONTINUOUS
 10
1227.8367350999
 20
338.9097697125
 11
1227.0554850999
 21
338.6438122974
  0
LINE
  5
7CE
100
AcDbEntity
  8
0
100
AcDbLine
 62
7
  6
CONTINUOUS
 10
1227.8367350999
 20
334.3884929106
 11
1227.0554850999
 21
334.1225354955
  0
LINE
  5
7CF
100
AcDbEntity
  8
0
100
AcDbLine
 62
7
  6
CONTINUOUS
 10
1252.8367350999
 20
337.8459400521
 11
1253.6179850999
 21
338.1118974672
  0
LINE
  5
7D0
100
AcDbEntity
  8
RUNDUNGEN
100
AcDbLine
 62
7
  6
CONTINUOUS
 10
1426.1492350999
 20
19.04274842
 11
1420.1492350999
 21
19.04274842
  0
LINE
  5
7D1
100
AcDbEntity
  8
0
100
AcDbLine
 62
7
  6
CONTINUOUS
 10
1047.6492353383
 20
313.9363654242
 11
1048.1492348615
 21
313.4257271425
  0
LINE
  5
7D2
100
AcDbEntity
  8
0
100
AcDbLine
 62
7
  6
CONTINUOUS
 10
1045.0242349807
 20
318.2767910645
 11
1045.2742350999
 21
318.021471946
  0
LINE
  5
7D3
100
AcDbEntity
  8
0
100
AcDbLine
 62
7
  6
CONTINUOUS
 10
1243.9825664464
 20
334.1225354955
 11
1243.9825664464
 21
345.29274842
  0
LINE
  5
7D4
100
AcDbEntity
  8
0
100
AcDbLine
 62
7
  6
CONTINUOUS
 10
1248.1492350999
 20
332.79274842
 11
1248.1492350999
 21
334.1225354955
  0
LINE
  5
7D5
100
AcDbEntity
  8
0
100
AcDbLine
 62
7
  6
CONTINUOUS
 10
1250.4929850999
 20
336.7821103916
 11
1250.4929850999
 21
335.7182799862
  0
LINE
  5
7D6
100
AcDbEntity
  8
0
100
AcDbLine
 62
7
  6
CONTINUOUS
 10
1252.0554850999
 20
335.7182799862
 11
1252.0554850999
 21
336.5161529765
  0
LINE
  5
7D7
100
AcDbEntity
  8
0
100
AcDbLine
 62
7
  6
CONTINUOUS
 10
1258.5659037534
 20
345.29274842
 11
1258.5659037534
 21
339.7076419578
  0
LINE
  5
7D8
100
AcDbEntity
  8
0
100
AcDbLine
 62
7
  6
CONTINUOUS
 10
1258.5659037534
 20
338.1118974672
 11
1258.5659037534
 21
334.1225354955
  0
LINE
  5
7D9
100
AcDbEntity
  8
0
100
AcDbLine
 62
7
  6
CONTINUOUS
 10
1260.1284037534
 20
332.79274842
 11
1260.1284037534
 21
345.29274842
  0
LINE
  5
7DA
100
AcDbEntity
  8
0
100
AcDbLine
 62
7
  6
CONTINUOUS
 10
1262.2117350999
 20
341.0374294058
 11
1262.2117350999
 21
332.79274842
  0
LINE
  5
7DB
100
AcDbEntity
  8
0
100
AcDbLine
 62
7
  6
CONTINUOUS
 10
1263.7742350999
 20
332.79274842
 11
1263.7742350999
 21
341.0374294058
  0
LINE
  5
7DC
100
AcDbEntity
  8
0
100
AcDbLine
 62
7
  6
CONTINUOUS
 10
1270.0242350999
 20
341.0374294058
 11
1270.0242350999
 21
332.79274842
  0
LINE
  5
7DD
100
AcDbEntity
  8
0
100
AcDbLine
 62
7
  6
CONTINUOUS
 10
1271.5867350999
 20
332.79274842
 11
1271.5867350999
 21
341.0374294058
  0
LINE
  5
7DE
100
AcDbEntity
  8
0
100
AcDbLine
 62
7
  6
CONTINUOUS
 10
1273.9304850999
 20
343.431046328
 11
1273.6700694267
 21
342.1012590662
  0
LINE
  5
7DF
100
AcDbEntity
  8
0
100
AcDbLine
 62
7
  6
CONTINUOUS
 10
1283.5659007732
 20
335.7182799862
 11
1283.8263194267
 21
337.0480678067
  0
LINE
  5
7E0
100
AcDbEntity
  8
0
100
AcDbLine
 62
7
  6
CONTINUOUS
 10
1282.2638194267
 20
337.0480678067
 11
1282.0034007732
 21
335.9842381463
  0
LINE
  5
7E1
100
AcDbEntity
  8
0
100
AcDbLine
 62
7
  6
CONTINUOUS
 10
1304.6596515182
 20
342.1012590662
 11
1304.9200686816
 21
342.8991313116
  0
LINE
  5
7E2
100
AcDbEntity
  8
0
100
AcDbLine
 62
7
  6
CONTINUOUS
 10
1312.4721518908
 20
334.6544503258
 11
1312.9929850999
 21
335.7182799862
  0
LINE
  5
7E3
100
AcDbEntity
  8
0
100
AcDbLine
 62
7
  6
CONTINUOUS
 10
1311.4304850999
 20
335.9842381463
 11
1310.9096518908
 21
335.186365156
  0
LINE
  5
7E4
100
AcDbEntity
  8
0
100
AcDbLine
 62
7
  6
CONTINUOUS
 10
1311.4304850999
 20
333.5906206653
 11
1312.4721518908
 21
334.6544503258
  0
LINE
  5
7E5
100
AcDbEntity
  8
0
100
AcDbLine
 62
7
  6
CONTINUOUS
 10
1310.9096518908
 20
335.186365156
 11
1310.1284015182
 21
334.6544503258
  0
LINE
  5
7E6
100
AcDbEntity
  8
0
100
AcDbLine
 62
7
  6
CONTINUOUS
 10
1310.3888186816
 20
333.0587058351
 11
1311.4304850999
 21
333.5906206653
  0
LINE
  5
7E7
100
AcDbEntity
  8
0
100
AcDbLine
 62
7
  6
CONTINUOUS
 10
1397.4885870984
 20
369.4824410408
 11
1396.4462347139
 21
369.1030557992
  0
LINE
  5
7E8
100
AcDbEntity
  8
0
100
AcDbLine
 62
7
  6
CONTINUOUS
 10
1057.3992346231
 20
318.1491315053
 11
1056.8992350999
 21
318.6597697423
  0
LINE
  5
7E9
100
AcDbEntity
  8
0
100
AcDbLine
 62
7
  6
CONTINUOUS
 10
1230.9617350999
 20
339.9735993729
 11
1230.7013164464
 21
341.8353016511
  0
LINE
  5
7EA
100
AcDbEntity
  8
0
100
AcDbLine
 62
7
  6
CONTINUOUS
 10
1282.2638194267
 20
341.0374294058
 11
1282.2638194267
 21
337.0480678067
  0
LINE
  5
7EB
100
AcDbEntity
  8
0
100
AcDbLine
 62
7
  6
CONTINUOUS
 10
1283.8263194267
 20
337.0480678067
 11
1283.8263194267
 21
341.0374294058
  0
LINE
  5
7EC
100
AcDbEntity
  8
0
100
AcDbLine
 62
7
  6
CONTINUOUS
 10
1285.9096507732
 20
340.7714719907
 11
1285.9096507732
 21
339.4416845427
  0
LINE
  5
7ED
100
AcDbEntity
  8
0
100
AcDbLine
 62
7
  6
CONTINUOUS
 10
1289.5554850999
 20
339.4416845427
 11
1289.5554850999
 21
340.7714719907
  0
LINE
  5
7EE
100
AcDbEntity
  8
0
100
AcDbLine
 62
7
  6
CONTINUOUS
 10
1291.6388194267
 20
345.29274842
 11
1291.6388194267
 21
343.6970037431
  0
LINE
  5
7EF
100
AcDbEntity
  8
0
100
AcDbLine
 62
7
  6
CONTINUOUS
 10
1291.6388194267
 20
334.3884929106
 11
1291.6388194267
 21
332.79274842
  0
LINE
  5
7F0
100
AcDbEntity
  8
0
100
AcDbLine
 62
7
  6
CONTINUOUS
 10
1292.6804850999
 20
339.4416845427
 11
1292.6804850999
 21
337.8459400521
  0
LINE
  5
7F1
100
AcDbEntity
  8
0
100
AcDbLine
 62
7
  6
CONTINUOUS
 10
1299.4513179366
 20
343.6970037431
 11
1299.4513179366
 21
339.4416845427
  0
LINE
  5
7F2
100
AcDbEntity
  8
0
100
AcDbLine
 62
7
  6
CONTINUOUS
 10
1299.4513179366
 20
337.8459400521
 11
1299.4513179366
 21
334.3884929106
  0
LINE
  5
7F3
100
AcDbEntity
  8
0
100
AcDbLine
 62
7
  6
CONTINUOUS
 10
1301.0138179366
 20
332.79274842
 11
1301.0138179366
 21
345.29274842
  0
LINE
  5
7F4
100
AcDbEntity
  8
0
100
AcDbLine
 62
7
  6
CONTINUOUS
 10
1303.3575679366
 20
343.431046328
 11
1303.0971522633
 21
342.1012590662
  0
LINE
  5
7F5
100
AcDbEntity
  8
0
100
AcDbLine
 62
7
  6
CONTINUOUS
 10
1312.9929850999
 20
335.7182799862
 11
1313.2534018908
 21
337.0480678067
  0
LINE
  5
7F6
100
AcDbEntity
  8
0
100
AcDbLine
 62
7
  6
CONTINUOUS
 10
1311.6909018908
 20
337.0480678067
 11
1311.4304850999
 21
335.9842381463
  0
LINE
  5
7F7
100
AcDbEntity
  8
0
100
AcDbLine
 62
7
  6
CONTINUOUS
 10
1045.6492350999
 20
318.532110183
 11
1045.1492352191
 21
318.9150888608
  0
LINE
  5
7F8
100
AcDbEntity
  8
0
100
AcDbLine
 62
7
  6
CONTINUOUS
 10
1221.5867350999
 20
340.5055142031
 11
1222.1075664464
 21
339.1757271276
  0
LINE
  5
7F9
100
AcDbEntity
  8
0
100
AcDbLine
 62
7
  6
CONTINUOUS
 10
1230.7013164464
 20
341.8353016511
 11
1230.1804850999
 21
343.1650889129
  0
LINE
  5
7FA
100
AcDbEntity
  8
0
100
AcDbLine
 62
7
  6
CONTINUOUS
 10
1222.1075664464
 20
335.7182799862
 11
1222.3679850999
 21
334.9204077409
  0
LINE
  5
7FB
100
AcDbEntity
  8
0
100
AcDbLine
 62
7
  6
CONTINUOUS
 10
1223.1492350999
 20
339.9735993729
 11
1222.8888164464
 21
340.7714719907
  0
LINE
  5
7FC
100
AcDbEntity
  8
0
100
AcDbLine
 62
7
  6
CONTINUOUS
 10
1229.1388164464
 20
342.3672164814
 11
1229.3992350999
 21
341.569344236
  0
LINE
  5
7FD
100
AcDbEntity
  8
0
100
AcDbLine
 62
7
  6
CONTINUOUS
 10
1250.4929850999
 20
335.7182799862
 11
1250.7534037534
 21
334.9204077409
  0
LINE
  5
7FE
100
AcDbEntity
  8
0
100
AcDbLine
 62
7
  6
CONTINUOUS
 10
1252.3159037534
 20
334.9204077409
 11
1252.0554850999
 21
335.7182799862
  0
LINE
  5
7FF
100
AcDbEntity
  8
0
100
AcDbLine
 62
7
  6
CONTINUOUS
 10
1271.5867350999
 20
341.0374294058
 11
1271.3263194267
 21
342.3672164814
  0
LINE
  5
800
100
AcDbEntity
  8
0
100
AcDbLine
 62
7
  6
CONTINUOUS
 10
1273.6700694267
 20
335.9842381463
 11
1273.9304850999
 21
334.6544503258
  0
LINE
  5
801
100
AcDbEntity
  8
0
100
AcDbLine
 62
7
  6
CONTINUOUS
 10
1311.6909018908
 20
341.0374294058
 11
1311.6909018908
 21
337.0480678067
  0
LINE
  5
802
100
AcDbEntity
  8
0
100
AcDbLine
 62
7
  6
CONTINUOUS
 10
1313.2534018908
 20
337.0480678067
 11
1313.2534018908
 21
341.0374294058
  0
LINE
  5
803
100
AcDbEntity
  8
0
100
AcDbLine
 62
7
  6
CONTINUOUS
 10
1315.3367350999
 20
345.29274842
 11
1315.3367350999
 21
332.79274842
  0
LINE
  5
804
100
AcDbEntity
  8
0
100
AcDbLine
 62
7
  6
CONTINUOUS
 10
1316.8992350999
 20
332.79274842
 11
1316.8992350999
 21
345.29274842
  0
LINE
  5
805
100
AcDbEntity
  8
0
100
AcDbLine
 62
7
  6
CONTINUOUS
 10
1449.8522354859
 20
308.9824410408
 11
1448.8098831015
 21
308.6030557992
  0
LINE
  5
806
100
AcDbEntity
  8
0
100
AcDbLine
 62
7
  6
CONTINUOUS
 10
1048.7742353383
 20
313.9363654242
 11
1048.3992353383
 21
314.1916846321
  0
LINE
  5
807
100
AcDbEntity
  8
0
100
AcDbLine
 62
7
  6
CONTINUOUS
 10
1056.2742346231
 20
318.1491315053
 11
1056.6492346231
 21
317.8938123868
  0
LINE
  5
808
100
AcDbEntity
  8
0
100
AcDbLine
 62
7
  6
CONTINUOUS
 10
1223.9304850999
 20
334.9204077409
 11
1223.4096537534
 21
335.7182799862
  0
LINE
  5
809
100
AcDbEntity
  8
0
100
AcDbLine
 62
7
  6
CONTINUOUS
 10
1250.2325664464
 20
345.29274842
 11
1252.5763164464
 21
339.1757271276
  0
LINE
  5
80A
100
AcDbEntity
  8
0
100
AcDbLine
 62
7
  6
CONTINUOUS
 10
1254.1388164464
 20
339.7076419578
 11
1252.0554850999
 21
345.29274842
  0
LINE
  5
80B
100
AcDbEntity
  8
0
100
AcDbLine
 62
7
  6
CONTINUOUS
 10
1275.4929850999
 20
335.186365156
 11
1275.2325694267
 21
335.9842381463
  0
LINE
  5
80C
100
AcDbEntity
  8
0
100
AcDbLine
 62
7
  6
CONTINUOUS
 10
1269.7638194267
 20
342.1012590662
 11
1270.0242350999
 21
341.0374294058
  0
LINE
  5
80D
100
AcDbEntity
  8
0
100
AcDbLine
 62
7
  6
CONTINUOUS
 10
1282.0034007732
 20
342.1012590662
 11
1282.2638194267
 21
341.0374294058
  0
LINE
  5
80E
100
AcDbEntity
  8
0
100
AcDbLine
 62
7
  6
CONTINUOUS
 10
1283.8263194267
 20
341.0374294058
 11
1283.5659007732
 21
342.3672164814
  0
LINE
  5
80F
100
AcDbEntity
  8
0
100
AcDbLine
 62
7
  6
CONTINUOUS
 10
1303.0971522633
 20
335.9842381463
 11
1303.3575679366
 21
334.6544503258
  0
LINE
  5
810
100
AcDbEntity
  8
0
100
AcDbLine
 62
7
  6
CONTINUOUS
 10
1337.1242350999
 20
340.84274842
 11
1337.1242350999
 21
337.24274842
  0
LINE
  5
811
100
AcDbEntity
  8
0
100
AcDbLine
 62
7
  6
CONTINUOUS
 10
1339.8242350999
 20
337.35524842
 11
1339.8242350999
 21
340.73024842
  0
LINE
  5
812
100
AcDbEntity
  8
0
100
AcDbLine
 62
7
  6
CONTINUOUS
 10
1345.4492350999
 20
343.54274842
 11
1345.4492350999
 21
335.89274842
  0
LINE
  5
813
100
AcDbEntity
  8
0
100
AcDbLine
 62
7
  6
CONTINUOUS
 10
1348.1492350999
 20
332.29274842
 11
1348.1492350999
 21
334.54274842
  0
LINE
  5
814
100
AcDbEntity
  8
0
100
AcDbLine
 62
7
  6
CONTINUOUS
 10
1348.1492350999
 20
335.89274842
 11
1348.1492350999
 21
345.79274842
  0
LINE
  5
815
100
AcDbEntity
  8
0
100
AcDbLine
 62
7
  6
CONTINUOUS
 10
1350.8492350999
 20
340.39274842
 11
1350.8492350999
 21
332.29274842
  0
LINE
  5
816
100
AcDbEntity
  8
0
100
AcDbLine
 62
7
  6
CONTINUOUS
 10
1353.5492350999
 20
332.29274842
 11
1353.5492350999
 21
340.39274842
  0
LINE
  5
817
100
AcDbEntity
  8
0
100
AcDbLine
 62
7
  6
CONTINUOUS
 10
1358.9492350999
 20
340.39274842
 11
1358.9492350999
 21
332.29274842
  0
LINE
  5
818
100
AcDbEntity
  8
0
100
AcDbLine
 62
7
  6
CONTINUOUS
 10
1361.6492350999
 20
332.29274842
 11
1361.6492350999
 21
340.39274842
  0
LINE
  5
819
100
AcDbEntity
  8
0
100
AcDbLine
 62
7
  6
CONTINUOUS
 10
1048.1492348615
 20
313.4257271425
 11
1048.6492350999
 21
313.1704079905
  0
LINE
  5
81A
100
AcDbEntity
  8
0
100
AcDbLine
 62
7
  6
CONTINUOUS
 10
1056.8992350999
 20
318.6597697423
 11
1056.3992355768
 21
318.9150888608
  0
LINE
  5
81B
100
AcDbEntity
  8
0
100
AcDbLine
 62
7
  6
CONTINUOUS
 10
1222.3679850999
 20
334.9204077409
 11
1223.1492350999
 21
333.8565780804
  0
LINE
  5
81C
100
AcDbEntity
  8
0
100
AcDbLine
 62
7
  6
CONTINUOUS
 10
1230.1804850999
 20
343.1650889129
 11
1229.3992350999
 21
344.2289186665
  0
LINE
  5
81D
100
AcDbEntity
  8
0
100
AcDbLine
 62
7
  6
CONTINUOUS
 10
1250.7534037534
 20
334.9204077409
 11
1251.5346537534
 21
333.8565780804
  0
LINE
  5
81E
100
AcDbEntity
  8
0
100
AcDbLine
 62
7
  6
CONTINUOUS
 10
1228.6179850999
 20
343.1650889129
 11
1229.1388164464
 21
342.3672164814
  0
LINE
  5
81F
100
AcDbEntity
  8
0
100
AcDbLine
 62
7
  6
CONTINUOUS
 10
1271.3263194267
 20
342.3672164814
 11
1270.8054850999
 21
343.431046328
  0
LINE
  5
820
100
AcDbEntity
  8
0
100
AcDbLine
 62
7
  6
CONTINUOUS
 10
1283.5659007732
 20
342.3672164814
 11
1283.0450694267
 21
343.431046328
  0
LINE
  5
821
100
AcDbEntity
  8
0
100
AcDbLine
 62
7
  6
CONTINUOUS
 10
1304.9200686816
 20
335.186365156
 11
1304.6596515182
 21
335.9842381463
  0
LINE
  5
822
100
AcDbEntity
  8
0
100
AcDbLine
 62
7
  6
CONTINUOUS
 10
1311.4304850999
 20
342.1012590662
 11
1311.6909018908
 21
341.0374294058
  0
LINE
  5
823
100
AcDbEntity
  8
0
100
AcDbLine
 62
7
  6
CONTINUOUS
 10
1313.2534018908
 20
341.0374294058
 11
1312.9929850999
 21
342.3672164814
  0
LINE
  5
824
100
AcDbEntity
  8
0
100
AcDbLine
 62
7
  6
CONTINUOUS
 10
1372.8992350999
 20
345.79274842
 11
1372.8992350999
 21
340.16774842
  0
LINE
  5
825
100
AcDbEntity
  8
0
100
AcDbLine
 62
7
  6
CONTINUOUS
 10
1372.8992350999
 20
337.91774842
 11
1372.8992350999
 21
335.89274842
  0
LINE
  5
826
100
AcDbEntity
  8
0
100
AcDbLine
 62
7
  6
CONTINUOUS
 10
1375.1492350999
 20
332.29274842
 11
1375.1492350999
 21
334.54274842
  0
LINE
  5
827
100
AcDbEntity
  8
0
100
AcDbLine
 62
7
  6
CONTINUOUS
 10
1375.1492350999
 20
335.89274842
 11
1375.1492350999
 21
345.79274842
  0
LINE
  5
828
100
AcDbEntity
  8
0
100
AcDbLine
 62
7
  6
CONTINUOUS
 10
1384.223775137
 20
319.7813881358
 11
1384.223775137
 21
358.3041087043
  0
LINE
  5
829
100
AcDbEntity
  8
0
100
AcDbLine
 62
7
  6
CONTINUOUS
 10
1801.2742352191
 20
361.4682804034
 11
1801.6492352191
 21
361.5959399627
  0
LINE
  5
82A
100
AcDbEntity
  8
0
100
AcDbLine
 62
7
  6
CONTINUOUS
 10
1222.1075664464
 20
339.1757271276
 11
1222.8888164464
 21
338.3778548823
  0
LINE
  5
82B
100
AcDbEntity
  8
0
100
AcDbLine
 62
7
  6
CONTINUOUS
 10
1223.6700664464
 20
339.4416845427
 11
1223.1492350999
 21
339.9735993729
  0
LINE
  5
82C
100
AcDbEntity
  8
0
100
AcDbLine
 62
7
  6
CONTINUOUS
 10
1252.8367350999
 20
334.3884929106
 11
1252.3159037534
 21
334.9204077409
  0
LINE
  5
82D
100
AcDbEntity
  8
0
100
AcDbLine
 62
7
  6
CONTINUOUS
 10
1269.2429850999
 20
342.8991313116
 11
1269.7638194267
 21
342.1012590662
  0
LINE
  5
82E
100
AcDbEntity
  8
0
100
AcDbLine
 62
7
  6
CONTINUOUS
 10
1281.4825694267
 20
342.8991313116
 11
1282.0034007732
 21
342.1012590662
  0
LINE
  5
82F
100
AcDbEntity
  8
0
100
AcDbLine
 62
7
  6
CONTINUOUS
 10
1312.9929850999
 20
342.3672164814
 11
1312.4721518908
 21
343.431046328
  0
LINE
  5
830
100
AcDbEntity
  8
BEZUGSACHSEN
100
AcDbLine
 62
7
  6
CONTINUOUS
 10
1405.1492350999
 20
379.0426695908
 11
1405.1492350999
 21
266.8436649347
  0
LINE
  5
831
100
AcDbEntity
  8
BEZUGSACHSEN
100
AcDbLine
 62
7
  6
CONTINUOUS
 10
1415.1492350999
 20
226.2416496542
 11
1415.1492350999
 21
24.04274842
  0
LINE
  5
832
100
AcDbEntity
  8
0
100
AcDbLine
 62
7
  6
CONTINUOUS
 10
1416.1492350999
 20
384.04274842
 11
1416.1492350999
 21
299.4433876297
  0
LINE
  5
833
100
AcDbEntity
  8
RUNDUNGEN
100
AcDbLine
 62
7
  6
CONTINUOUS
 10
1416.1492350999
 20
299.4433876297
 11
1416.1492350999
 21
297.54274842
  0
LINE
  5
834
100
AcDbEntity
  8
RUNDUNGEN
100
AcDbLine
 62
7
  6
CONTINUOUS
 10
1431.9187566701
 20
231.7360739157
 11
1440.3807366421
 21
261.3530038176
  0
LINE
  5
835
100
AcDbEntity
  8
0
100
AcDbLine
 62
7
  6
CONTINUOUS
 10
1654.8578468626
 20
372.1385086415
 11
1651.7280313103
 21
369.9469881986
  0
LINE
  5
836
100
AcDbEntity
  8
0
100
AcDbLine
 62
7
  6
CONTINUOUS
 10
1044.6492349807
 20
318.4044506238
 11
1045.0242349807
 21
318.2767910645
  0
LINE
  5
837
100
AcDbEntity
  8
0
100
AcDbLine
 62
7
  6
CONTINUOUS
 10
1224.7117350999
 20
334.3884929106
 11
1223.9304850999
 21
334.9204077409
  0
LINE
  5
838
100
AcDbEntity
  8
0
100
AcDbLine
 62
7
  6
CONTINUOUS
 10
1224.4513164464
 20
338.9097697125
 11
1223.6700664464
 21
339.4416845427
  0
LINE
  5
839
100
AcDbEntity
  8
0
100
AcDbLine
 62
7
  6
CONTINUOUS
 10
1251.5346537534
 20
333.8565780804
 11
1252.5763164464
 21
333.0587058351
  0
LINE
  5
83A
100
AcDbEntity
  8
0
100
AcDbLine
 62
7
  6
CONTINUOUS
 10
1273.9304850999
 20
334.6544503258
 11
1274.9721507732
 21
333.5906206653
  0
LINE
  5
83B
100
AcDbEntity
  8
0
100
AcDbLine
 62
7
  6
CONTINUOUS
 10
1270.8054850999
 20
343.431046328
 11
1269.7638194267
 21
344.4948760816
  0
LINE
  5
83C
100
AcDbEntity
  8
0
100
AcDbLine
 62
7
  6
CONTINUOUS
 10
1283.0450694267
 20
343.431046328
 11
1282.0034007732
 21
344.4948760816
  0
LINE
  5
83D
100
AcDbEntity
  8
0
100
AcDbLine
 62
7
  6
CONTINUOUS
 10
1310.9096518908
 20
342.8991313116
 11
1311.4304850999
 21
342.1012590662
  0
LINE
  5
83E
100
AcDbEntity
  8
BEZUGSACHSEN
100
AcDbLine
 62
7
  6
CONTINUOUS
 10
1414.3797135362
 20
231.7360738931
 11
1405.9177335578
 21
261.3530038176
  0
LINE
  5
83F
100
AcDbEntity
  8
0
100
AcDbLine
 62
7
  6
CONTINUOUS
 10
1430.1492350999
 20
384.04274842
 11
1430.1492350999
 21
299.4433876297
  0
LINE
  5
840
100
AcDbEntity
  8
RUNDUNGEN
100
AcDbLine
 62
7
  6
CONTINUOUS
 10
1430.1492350999
 20
299.4433876297
 11
1430.1492350999
 21
297.54274842
  0
LINE
  5
841
100
AcDbEntity
  8
RUNDUNGEN
100
AcDbLine
 62
7
  6
CONTINUOUS
 10
1431.1492350999
 20
226.2416496542
 11
1431.1492350999
 21
24.04274842
  0
LINE
  5
842
100
AcDbEntity
  8
RUNDUNGEN
100
AcDbLine
 62
7
  6
CONTINUOUS
 10
1441.1492350999
 20
379.0426695908
 11
1441.1492350999
 21
266.8436649347
  0
LINE
  5
843
100
AcDbEntity
  8
0
100
AcDbLine
 62
7
  6
CONTINUOUS
 10
1592.3617350999
 20
350.21774842
 11
1586.7117350999
 21
344.56774842
  0
LINE
  5
844
100
AcDbEntity
  8
0
100
AcDbLine
 62
7
  6
CONTINUOUS
 10
1789.8992346231
 20
364.9150888496
 11
1789.3992350999
 21
364.6597696976
  0
LINE
  5
845
100
AcDbEntity
  8
0
100
AcDbLine
 62
7
  6
CONTINUOUS
 10
1795.8992353383
 20
364.9150888496
 11
1795.3992350999
 21
364.6597696976
  0
LINE
  5
846
100
AcDbEntity
  8
0
100
AcDbLine
 62
7
  6
CONTINUOUS
 10
1801.1492349807
 20
362.1065781997
 11
1800.6492350999
 21
361.8512590812
  0
LINE
  5
847
100
AcDbEntity
  8
0
100
AcDbLine
 62
7
  6
CONTINUOUS
 10
1048.6492350999
 20
313.1704079905
 11
1049.2742348615
 21
313.04274842
  0
LINE
  5
848
100
AcDbEntity
  8
0
100
AcDbLine
 62
7
  6
CONTINUOUS
 10
1049.2742348615
 20
313.8087058649
 11
1048.7742353383
 21
313.9363654242
  0
LINE
  5
849
100
AcDbEntity
  8
0
100
AcDbLine
 62
7
  6
CONTINUOUS
 10
1055.7742350999
 20
318.2767910645
 11
1056.2742346231
 21
318.1491315053
  0
LINE
  5
84A
100
AcDbEntity
  8
0
100
AcDbLine
 62
7
  6
CONTINUOUS
 10
1223.1492350999
 20
333.8565780804
 11
1224.4513164464
 21
333.0587058351
  0
LINE
  5
84B
100
AcDbEntity
  8
0
100
AcDbLine
 62
7
  6
CONTINUOUS
 10
1222.8888164464
 20
338.3778548823
 11
1224.1909037534
 21
337.579982637
  0
LINE
  5
84C
100
AcDbEntity
  8
0
100
AcDbLine
 62
7
  6
CONTINUOUS
 10
1229.3992350999
 20
344.2289186665
 11
1228.0971537534
 21
345.0267909816
  0
LINE
  5
84D
100
AcDbEntity
  8
0
100
AcDbLine
 62
7
  6
CONTINUOUS
 10
1227.8367350999
 20
343.6970037431
 11
1228.6179850999
 21
343.1650889129
  0
LINE
  5
84E
100
AcDbEntity
  8
0
100
AcDbLine
 62
7
  6
CONTINUOUS
 10
1276.2742350999
 20
334.6544503258
 11
1275.4929850999
 21
335.186365156
  0
LINE
  5
84F
100
AcDbEntity
  8
0
100
AcDbLine
 62
7
  6
CONTINUOUS
 10
1268.4617350999
 20
343.431046328
 11
1269.2429850999
 21
342.8991313116
  0
LINE
  5
850
100
AcDbEntity
  8
0
100
AcDbLine
 62
7
  6
CONTINUOUS
 10
1195.6035494794
 20
369.2235963757
 11
1195.406030771
 21
369.3619004643
  0
LINE
  5
851
100
AcDbEntity
  8
RUNDUNGEN
100
AcDbLine
 62
7
  6
CONTINUOUS
 10
1195.6035494794
 20
369.2235963757
 11
1195.406030771
 21
369.3619004643
  0
LINE
  5
852
100
AcDbEntity
  8
0
100
AcDbLine
 62
7
  6
CONTINUOUS
 10
1303.3575679366
 20
334.6544503258
 11
1304.3992350999
 21
333.5906206653
  0
LINE
  5
853
100
AcDbEntity
  8
0
100
AcDbLine
 62
7
  6
CONTINUOUS
 10
1312.4721518908
 20
343.431046328
 11
1311.4304850999
 21
344.4948760816
  0
LINE
  5
854
100
AcDbEntity
  8
0
100
AcDbLine
 62
7
  6
CONTINUOUS
 10
1363.4492350999
 20
345.79274842
 11
1366.8529116911
 21
339.8974076315
  0
LINE
  5
855
100
AcDbEntity
  8
0
100
AcDbLine
 62
7
  6
CONTINUOUS
 10
1368.6453875226
 20
341.29274842
 11
1366.0473113113
 21
345.79274842
  0
LINE
  5
856
100
AcDbEntity
  8
0
100
AcDbLine
 62
7
  6
CONTINUOUS
 10
1462.0746950628
 20
319.7813881358
 11
1462.0746950628
 21
358.3041087043
  0
LINE
  5
857
100
AcDbEntity
  8
0
100
AcDbLine
 62
7
  6
CONTINUOUS
 10
1796.0242348615
 20
364.1491314159
 11
1796.5242350999
 21
364.2767909751
  0
LINE
  5
858
100
AcDbEntity
  8
0
100
AcDbLine
 62
7
  6
CONTINUOUS
 10
1045.1492352191
 20
318.9150888608
 11
1044.5242350999
 21
319.04274842
  0
LINE
  5
859
100
AcDbEntity
  8
0
100
AcDbLine
 62
7
  6
CONTINUOUS
 10
1056.3992355768
 20
318.9150888608
 11
1055.7742350999
 21
319.04274842
  0
LINE
  5
85A
100
AcDbEntity
  8
0
100
AcDbLine
 62
7
  6
CONTINUOUS
 10
1225.4929850999
 20
334.1225354955
 11
1224.7117350999
 21
334.3884929106
  0
LINE
  5
85B
100
AcDbEntity
  8
0
100
AcDbLine
 62
7
  6
CONTINUOUS
 10
1274.9721507732
 20
333.5906206653
 11
1276.0138194267
 21
333.0587058351
  0
LINE
  5
85C
100
AcDbEntity
  8
0
100
AcDbLine
 62
7
  6
CONTINUOUS
 10
1269.7638194267
 20
344.4948760816
 11
1268.7221507732
 21
345.0267909816
  0
LINE
  5
85D
100
AcDbEntity
  8
0
100
AcDbLine
 62
7
  6
CONTINUOUS
 10
1282.0034007732
 20
344.4948760816
 11
1280.9617350999
 21
345.0267909816
  0
LINE
  5
85E
100
AcDbEntity
  8
0
100
AcDbLine
 62
7
  6
CONTINUOUS
 10
1304.3992350999
 20
333.5906206653
 11
1305.4409015182
 21
333.0587058351
  0
LINE
  5
85F
100
AcDbEntity
  8
0
100
AcDbLine
 62
7
  6
CONTINUOUS
 10
1280.7013194267
 20
343.431046328
 11
1281.4825694267
 21
342.8991313116
  0
LINE
  5
860
100
AcDbEntity
  8
0
100
AcDbLine
 62
7
  6
CONTINUOUS
 10
1305.7013186816
 20
334.6544503258
 11
1304.9200686816
 21
335.186365156
  0
LINE
  5
861
100
AcDbEntity
  8
0
100
AcDbLine
 62
7
  6
CONTINUOUS
 10
1310.1284015182
 20
343.431046328
 11
1310.9096518908
 21
342.8991313116
  0
LINE
  5
862
100
AcDbEntity
  8
0
100
AcDbLine
 62
7
  6
CONTINUOUS
 10
1789.6492355768
 20
363.893812208
 11
1790.0242355768
 21
364.1491314159
  0
LINE
  5
863
100
AcDbEntity
  8
0
100
AcDbLine
 62
7
  6
CONTINUOUS
 10
1795.6492348615
 20
363.893812208
 11
1796.0242348615
 21
364.1491314159
  0
LINE
  5
864
100
AcDbEntity
  8
0
100
AcDbLine
 62
7
  6
CONTINUOUS
 10
1790.0242355768
 20
364.1491314159
 11
1790.5242350999
 21
364.2767909751
  0
LINE
  5
865
100
AcDbEntity
  8
0
100
AcDbLine
 62
7
  6
CONTINUOUS
 10
1796.5242350999
 20
365.04274842
 11
1795.8992353383
 21
364.9150888496
  0
LINE
  5
866
100
AcDbEntity
  8
0
100
AcDbLine
 62
7
  6
CONTINUOUS
 10
1790.5242350999
 20
365.04274842
 11
1789.8992346231
 21
364.9150888496
  0
LINE
  5
867
100
AcDbEntity
  8
RUNDUNGEN
100
AcDbLine
 62
7
  6
CONTINUOUS
 10
1428.1492350999
 20
295.54274842
 11
1418.1492350999
 21
295.54274842
  0
LINE
  5
868
100
AcDbEntity
  8
0
100
AcDbLine
 62
7
  6
CONTINUOUS
 10
1416.8263594444
 20
296.04274842
 11
1429.4721107555
 21
296.04274842
  0
LINE
  5
869
100
AcDbEntity
  8
BEZUGSACHSEN
100
AcDbLine
 62
7
  6
CONTINUOUS
 10
1014.1500338732
 20
297.04274842
 11
1068.1492350999
 21
297.04274842
  0
LINE
  5
86A
100
AcDbEntity
  8
BEZUGSACHSEN
100
AcDbLine
 62
7
  6
CONTINUOUS
 10
1778.1492350999
 20
297.04274842
 11
1832.1484363266
 21
297.04274842
  0
LINE
  5
86B
100
AcDbEntity
  8
0
100
AcDbLine
 62
7
  6
CONTINUOUS
 10
1831.5461613078
 20
297.04274842
 11
1832.1492350999
 21
297.04274842
  0
LINE
  5
86C
100
AcDbEntity
  8
0
100
AcDbLine
 62
7
  6
CONTINUOUS
 10
1224.4513164464
 20
333.0587058351
 11
1225.7534037534
 21
332.79274842
  0
LINE
  5
86D
100
AcDbEntity
  8
0
100
AcDbLine
 62
7
  6
CONTINUOUS
 10
1224.1909037534
 20
337.579982637
 11
1225.4929850999
 21
337.3140252218
  0
LINE
  5
86E
100
AcDbEntity
  8
0
100
AcDbLine
 62
7
  6
CONTINUOUS
 10
1252.5763164464
 20
333.0587058351
 11
1253.8784037534
 21
332.79274842
  0
LINE
  5
86F
100
AcDbEntity
  8
0
100
AcDbLine
 62
7
  6
CONTINUOUS
 10
1277.3159007732
 20
334.3884929106
 11
1276.2742350999
 21
334.6544503258
  0
LINE
  5
870
100
AcDbEntity
  8
0
100
AcDbLine
 62
7
  6
CONTINUOUS
 10
1225.2325664464
 20
338.6438122974
 11
1224.4513164464
 21
338.9097697125
  0
LINE
  5
871
100
AcDbEntity
  8
0
100
AcDbLine
 62
7
  6
CONTINUOUS
 10
1253.6179850999
 20
334.1225354955
 11
1252.8367350999
 21
334.3884929106
  0
LINE
  5
872
100
AcDbEntity
  8
0
100
AcDbLine
 62
7
  6
CONTINUOUS
 10
1227.0554850999
 20
343.9629611582
 11
1227.8367350999
 21
343.6970037431
  0
LINE
  5
873
100
AcDbEntity
  8
0
100
AcDbLine
 62
7
  6
CONTINUOUS
 10
1397.4885870984
 20
308.6030557992
 11
1396.4462347139
 21
308.9824410408
  0
LINE
  5
874
100
AcDbEntity
  8
0
100
AcDbLine
 62
7
  6
CONTINUOUS
 10
1311.4304850999
 20
344.4948760816
 11
1310.3888186816
 21
345.0267909816
  0
LINE
  5
875
100
AcDbEntity
  8
0
100
AcDbLine
 62
7
  6
CONTINUOUS
 10
1712.6492350999
 20
304.04274842
 11
1715.1492350999
 21
304.04274842
  0
LINE
  5
876
100
AcDbEntity
  8
0
100
AcDbLine
 62
7
  6
CONTINUOUS
 10
1671.6492350999
 20
305.04274842
 11
1657.7257290443
 21
305.04274842
  0
LINE
  5
877
100
AcDbEntity
  8
0
100
AcDbLine
 62
7
  6
CONTINUOUS
 10
1448.4678629581
 20
308.54274842
 11
1441.1492350999
 21
308.54274842
  0
LINE
  5
878
100
AcDbEntity
  8
0
100
AcDbLine
 62
7
  6
CONTINUOUS
 10
1405.1492350999
 20
308.54274842
 11
1397.8306072417
 21
308.54274842
  0
LINE
  5
879
100
AcDbEntity
  8
0
100
AcDbLine
 62
7
  6
CONTINUOUS
 10
1194.8324543346
 20
308.54274842
 11
1174.0561264084
 21
308.54274842
  0
LINE
  5
87A
100
AcDbEntity
  8
RUNDUNGEN
100
AcDbLine
 62
7
  6
CONTINUOUS
 10
1174.0561264084
 20
308.54274842
 11
1194.8324543346
 21
308.54274842
  0
LINE
  5
87B
100
AcDbEntity
  8
RUNDUNGEN
100
AcDbLine
 62
7
  6
CONTINUOUS
 10
1397.8306072417
 20
308.54274842
 11
1405.1492350999
 21
308.54274842
  0
LINE
  5
87C
100
AcDbEntity
  8
RUNDUNGEN
100
AcDbLine
 62
7
  6
CONTINUOUS
 10
1441.1492350999
 20
308.54274842
 11
1448.4678629581
 21
308.54274842
  0
LINE
  5
87D
100
AcDbEntity
  8
0
100
AcDbLine
 62
7
  6
CONTINUOUS
 10
1648.8601491286
 20
309.04274842
 11
1450.1942556293
 21
309.04274842
  0
LINE
  5
87E
100
AcDbEntity
  8
0
100
AcDbLine
 62
7
  6
CONTINUOUS
 10
1396.1042145706
 20
309.04274842
 11
1196.1771259158
 21
309.04274842
  0
LINE
  5
87F
100
AcDbEntity
  8
BEZUGSACHSEN
100
AcDbLine
 62
7
  6
CONTINUOUS
 10
1059.1492350999
 20
311.04274842
 11
1040.1492350999
 21
311.04274842
  0
LINE
  5
880
100
AcDbEntity
  8
BEZUGSACHSEN
100
AcDbLine
 62
7
  6
CONTINUOUS
 10
1787.1492350999
 20
311.04274842
 11
1806.1492350999
 21
311.04274842
  0
LINE
  5
881
100
AcDbEntity
  8
0
100
AcDbLine
 62
7
  6
CONTINUOUS
 10
1041.5242350999
 20
313.04274842
 11
1042.2742350999
 21
313.04274842
  0
LINE
  5
882
100
AcDbEntity
  8
0
100
AcDbLine
 62
7
  6
CONTINUOUS
 10
1045.3992349807
 20
313.04274842
 11
1046.2742352191
 21
313.04274842
  0
LINE
  5
883
100
AcDbEntity
  8
0
100
AcDbLine
 62
7
  6
CONTINUOUS
 10
1049.2742348615
 20
313.04274842
 11
1049.7742350999
 21
313.04274842
  0
LINE
  5
884
100
AcDbEntity
  8
0
100
AcDbLine
 62
7
  6
CONTINUOUS
 10
1052.7742350999
 20
313.04274842
 11
1055.7742350999
 21
313.04274842
  0
LINE
  5
885
100
AcDbEntity
  8
0
100
AcDbLine
 62
7
  6
CONTINUOUS
 10
1055.7742350999
 20
313.8087058649
 11
1053.5242350999
 21
313.8087058649
  0
LINE
  5
886
100
AcDbEntity
  8
0
100
AcDbLine
 62
7
  6
CONTINUOUS
 10
1049.7742350999
 20
313.8087058649
 11
1049.2742348615
 21
313.8087058649
  0
LINE
  5
887
100
AcDbEntity
  8
0
100
AcDbLine
 62
7
  6
CONTINUOUS
 10
1042.2742350999
 20
315.7235995219
 11
1044.3992350403
 21
315.7235995219
  0
LINE
  5
888
100
AcDbEntity
  8
0
100
AcDbLine
 62
7
  6
CONTINUOUS
 10
1044.6492349807
 20
316.4895568774
 11
1042.2742350999
 21
316.4895568774
  0
LINE
  5
889
100
AcDbEntity
  8
0
100
AcDbLine
 62
7
  6
CONTINUOUS
 10
1053.5242350999
 20
318.2767910645
 11
1055.7742350999
 21
318.2767910645
  0
LINE
  5
88A
100
AcDbEntity
  8
0
100
AcDbLine
 62
7
  6
CONTINUOUS
 10
1042.2742350999
 20
318.4044506238
 11
1044.6492349807
 21
318.4044506238
  0
LINE
  5
88B
100
AcDbEntity
  8
0
100
AcDbLine
 62
7
  6
CONTINUOUS
 10
1055.7742350999
 20
319.04274842
 11
1052.7742350999
 21
319.04274842
  0
LINE
  5
88C
100
AcDbEntity
  8
0
100
AcDbLine
 62
7
  6
CONTINUOUS
 10
1051.7742353383
 20
319.04274842
 11
1051.0242353383
 21
319.04274842
  0
LINE
  5
88D
100
AcDbEntity
  8
0
100
AcDbLine
 62
7
  6
CONTINUOUS
 10
1048.0242353383
 20
319.04274842
 11
1047.2742349807
 21
319.04274842
  0
LINE
  5
88E
100
AcDbEntity
  8
0
100
AcDbLine
 62
7
  6
CONTINUOUS
 10
1044.5242350999
 20
319.04274842
 11
1041.5242350999
 21
319.04274842
  0
LINE
  5
88F
100
AcDbEntity
  8
0
100
AcDbLine
 62
7
  6
CONTINUOUS
 10
1639.223775137
 20
319.7813881358
 11
1462.0746950628
 21
319.7813881358
  0
LINE
  5
890
100
AcDbEntity
  8
0
100
AcDbLine
 62
7
  6
CONTINUOUS
 10
1384.223775137
 20
319.7813881358
 11
1207.0746950628
 21
319.7813881358
  0
LINE
  5
891
100
AcDbEntity
  8
BEZUGSACHSEN
100
AcDbLine
 62
7
  6
CONTINUOUS
 10
1806.1492350999
 20
321.04274842
 11
1787.1492350999
 21
321.04274842
  0
LINE
  5
892
100
AcDbEntity
  8
BEZUGSACHSEN
100
AcDbLine
 62
7
  6
CONTINUOUS
 10
1040.1492350999
 20
321.04274842
 11
1059.1492350999
 21
321.04274842
  0
LINE
  5
893
100
AcDbEntity
  8
0
100
AcDbLine
 62
7
  6
CONTINUOUS
 10
1170.0111225791
 20
323.04274842
 11
1077.1492350999
 21
323.04274842
  0
LINE
  5
894
100
AcDbEntity
  8
RUNDUNGEN
100
AcDbLine
 62
7
  6
CONTINUOUS
 10
1170.0111225791
 20
323.04274842
 11
1077.1492350999
 21
323.04274842
  0
LINE
  5
895
100
AcDbEntity
  8
0
100
AcDbLine
 62
7
  6
CONTINUOUS
 10
1674.6492350999
 20
323.04274842
 11
1711.6492350999
 21
323.04274842
  0
LINE
  5
896
100
AcDbEntity
  8
0
100
AcDbLine
 62
7
  6
CONTINUOUS
 10
1717.6492350999
 20
323.04274842
 11
1769.1492350999
 21
323.04274842
  0
LINE
  5
897
100
AcDbEntity
  8
0
100
AcDbLine
 62
7
  6
CONTINUOUS
 10
1589.5742350999
 20
327.84274842
 11
1595.1492350999
 21
327.84274842
  0
LINE
  5
898
100
AcDbEntity
  8
0
100
AcDbLine
 62
7
  6
CONTINUOUS
 10
1276.0138194267
 20
333.0587058351
 11
1277.3159007732
 21
332.79274842
  0
LINE
  5
899
100
AcDbEntity
  8
0
100
AcDbLine
 62
7
  6
CONTINUOUS
 10
1228.0971537534
 20
345.0267909816
 11
1226.7950664464
 21
345.29274842
  0
LINE
  5
89A
100
AcDbEntity
  8
0
100
AcDbLine
 62
7
  6
CONTINUOUS
 10
1305.4409015182
 20
333.0587058351
 11
1306.7429850999
 21
332.79274842
  0
LINE
  5
89B
100
AcDbEntity
  8
0
100
AcDbLine
 62
7
  6
CONTINUOUS
 10
1268.7221507732
 20
345.0267909816
 11
1267.4200694267
 21
345.29274842
  0
LINE
  5
89C
100
AcDbEntity
  8
0
100
AcDbLine
 62
7
  6
CONTINUOUS
 10
1280.9617350999
 20
345.0267909816
 11
1279.6596507732
 21
345.29274842
  0
LINE
  5
89D
100
AcDbEntity
  8
0
100
AcDbLine
 62
7
  6
CONTINUOUS
 10
1310.3888186816
 20
345.0267909816
 11
1309.0867350999
 21
345.29274842
  0
LINE
  5
89E
100
AcDbEntity
  8
0
100
AcDbLine
 62
7
  6
CONTINUOUS
 10
1267.4200694267
 20
343.6970037431
 11
1268.4617350999
 21
343.431046328
  0
LINE
  5
89F
100
AcDbEntity
  8
0
100
AcDbLine
 62
7
  6
CONTINUOUS
 10
1306.7429850999
 20
334.3884929106
 11
1305.7013186816
 21
334.6544503258
  0
LINE
  5
8A0
100
AcDbEntity
  8
0
100
AcDbLine
 62
7
  6
CONTINUOUS
 10
1279.6596507732
 20
343.6970037431
 11
1280.7013194267
 21
343.431046328
  0
LINE
  5
8A1
100
AcDbEntity
  8
0
100
AcDbLine
 62
7
  6
CONTINUOUS
 10
1309.0867350999
 20
343.6970037431
 11
1310.1284015182
 21
343.431046328
  0
LINE
  5
8A2
100
AcDbEntity
  8
0
100
AcDbLine
 62
7
  6
CONTINUOUS
 10
1789.3992350999
 20
364.6597696976
 11
1788.8992355768
 21
364.1491314159
  0
LINE
  5
8A3
100
AcDbEntity
  8
0
100
AcDbLine
 62
7
  6
CONTINUOUS
 10
1795.3992350999
 20
364.6597696976
 11
1794.8992348615
 21
364.1491314159
  0
LINE
  5
8A4
100
AcDbEntity
  8
0
100
AcDbLine
 62
7
  6
CONTINUOUS
 10
1310.1284015182
 20
334.6544503258
 11
1309.0867350999
 21
334.3884929106
  0
LINE
  5
8A5
100
AcDbEntity
  8
0
100
AcDbLine
 62
7
  6
CONTINUOUS
 10
1309.0867350999
 20
332.79274842
 11
1310.3888186816
 21
333.0587058351
  0
LINE
  5
8A6
100
AcDbEntity
  8
0
100
AcDbLine
 62
7
  6
CONTINUOUS
 10
1279.6596507732
 20
332.79274842
 11
1280.9617350999
 21
333.0587058351
  0
LINE
  5
8A7
100
AcDbEntity
  8
BEZUGSACHSEN
100
AcDbLine
 62
7
  6
CONTINUOUS
 10
1006.9402359793
 20
329.59274842
 11
1044.8992350999
 21
329.59274842
  0
LINE
  5
8A8
100
AcDbEntity
  8
RUNDUNGEN
100
AcDbLine
 62
7
  6
CONTINUOUS
 10
1821.8492350999
 20
329.59274842
 11
1839.3582342205
 21
329.59274842
  0
LINE
  5
8A9
100
AcDbEntity
  8
BEZUGSACHSEN
100
AcDbLine
 62
7
  6
CONTINUOUS
 10
1801.3992350999
 20
329.59274842
 11
1839.3574492644
 21
329.59274842
  0
LINE
  5
8AA
100
AcDbEntity
  8
0
100
AcDbLine
 62
7
  6
CONTINUOUS
 10
1342.0742350999
 20
332.29274842
 11
1348.1492350999
 21
332.29274842
  0
LINE
  5
8AB
100
AcDbEntity
  8
0
100
AcDbLine
 62
7
  6
CONTINUOUS
 10
1350.8492350999
 20
332.29274842
 11
1353.5492350999
 21
332.29274842
  0
LINE
  5
8AC
100
AcDbEntity
  8
0
100
AcDbLine
 62
7
  6
CONTINUOUS
 10
1358.9492350999
 20
332.29274842
 11
1361.6492350999
 21
332.29274842
  0
LINE
  5
8AD
100
AcDbEntity
  8
0
100
AcDbLine
 62
7
  6
CONTINUOUS
 10
1368.2867350999
 20
332.29274842
 11
1375.1492350999
 21
332.29274842
  0
LINE
  5
8AE
100
AcDbEntity
  8
0
100
AcDbLine
 62
7
  6
CONTINUOUS
 10
1225.7534037534
 20
332.79274842
 11
1226.7950664464
 21
332.79274842
  0
LINE
  5
8AF
100
AcDbEntity
  8
0
100
AcDbLine
 62
7
  6
CONTINUOUS
 10
1233.0450664464
 20
332.79274842
 11
1234.6075664464
 21
332.79274842
  0
LINE
  5
8B0
100
AcDbEntity
  8
0
100
AcDbLine
 62
7
  6
CONTINUOUS
 10
1238.2534037534
 20
332.79274842
 11
1248.1492350999
 21
332.79274842
  0
LINE
  5
8B1
100
AcDbEntity
  8
0
100
AcDbLine
 62
7
  6
CONTINUOUS
 10
1253.8784037534
 20
332.79274842
 11
1260.1284037534
 21
332.79274842
  0
LINE
  5
8B2
100
AcDbEntity
  8
0
100
AcDbLine
 62
7
  6
CONTINUOUS
 10
1262.2117350999
 20
332.79274842
 11
1263.7742350999
 21
332.79274842
  0
LINE
  5
8B3
100
AcDbEntity
  8
0
100
AcDbLine
 62
7
  6
CONTINUOUS
 10
1270.0242350999
 20
332.79274842
 11
1271.5867350999
 21
332.79274842
  0
LINE
  5
8B4
100
AcDbEntity
  8
0
100
AcDbLine
 62
7
  6
CONTINUOUS
 10
1277.3159007732
 20
332.79274842
 11
1279.6596507732
 21
332.79274842
  0
LINE
  5
8B5
100
AcDbEntity
  8
0
100
AcDbLine
 62
7
  6
CONTINUOUS
 10
1291.6388194267
 20
332.79274842
 11
1301.0138179366
 21
332.79274842
  0
LINE
  5
8B6
100
AcDbEntity
  8
0
100
AcDbLine
 62
7
  6
CONTINUOUS
 10
1306.7429850999
 20
332.79274842
 11
1309.0867350999
 21
332.79274842
  0
LINE
  5
8B7
100
AcDbEntity
  8
0
100
AcDbLine
 62
7
  6
CONTINUOUS
 10
1315.3367350999
 20
332.79274842
 11
1316.8992350999
 21
332.79274842
  0
LINE
  5
8B8
100
AcDbEntity
  8
0
100
AcDbLine
 62
7
  6
CONTINUOUS
 10
1258.5659037534
 20
334.1225354955
 11
1253.6179850999
 21
334.1225354955
  0
LINE
  5
8B9
100
AcDbEntity
  8
0
100
AcDbLine
 62
7
  6
CONTINUOUS
 10
1248.1492350999
 20
334.1225354955
 11
1243.9825664464
 21
334.1225354955
  0
LINE
  5
8BA
100
AcDbEntity
  8
0
100
AcDbLine
 62
7
  6
CONTINUOUS
 10
1242.4200664464
 20
334.1225354955
 11
1238.2534037534
 21
334.1225354955
  0
LINE
  5
8BB
100
AcDbEntity
  8
0
100
AcDbLine
 62
7
  6
CONTINUOUS
 10
1227.0554850999
 20
334.1225354955
 11
1225.4929850999
 21
334.1225354955
  0
LINE
  5
8BC
100
AcDbEntity
  8
0
100
AcDbLine
 62
7
  6
CONTINUOUS
 10
1309.0867350999
 20
334.3884929106
 11
1306.7429850999
 21
334.3884929106
  0
LINE
  5
8BD
100
AcDbEntity
  8
0
100
AcDbLine
 62
7
  6
CONTINUOUS
 10
1299.4513179366
 20
334.3884929106
 11
1291.6388194267
 21
334.3884929106
  0
LINE
  5
8BE
100
AcDbEntity
  8
0
100
AcDbLine
 62
7
  6
CONTINUOUS
 10
1279.6596507732
 20
334.3884929106
 11
1277.3159007732
 21
334.3884929106
  0
LINE
  5
8BF
100
AcDbEntity
  8
0
100
AcDbLine
 62
7
  6
CONTINUOUS
 10
1375.1492350999
 20
334.54274842
 11
1369.1867350999
 21
334.54274842
  0
LINE
  5
8C0
100
AcDbEntity
  8
0
100
AcDbLine
 62
7
  6
CONTINUOUS
 10
1348.1492350999
 20
334.54274842
 11
1342.6367350999
 21
334.54274842
  0
LINE
  5
8C1
100
AcDbEntity
  8
0
100
AcDbLine
 62
7
  6
CONTINUOUS
 10
1223.4096537534
 20
335.7182799862
 11
1222.1075664464
 21
335.7182799862
  0
LINE
  5
8C2
100
AcDbEntity
  8
0
100
AcDbLine
 62
7
  6
CONTINUOUS
 10
1345.4492350999
 20
335.89274842
 11
1348.1492350999
 21
335.89274842
  0
LINE
  5
8C3
100
AcDbEntity
  8
0
100
AcDbLine
 62
7
  6
CONTINUOUS
 10
1372.8992350999
 20
335.89274842
 11
1375.1492350999
 21
335.89274842
  0
LINE
  5
8C4
100
AcDbEntity
  8
0
100
AcDbLine
 62
7
  6
CONTINUOUS
 10
1304.6596515182
 20
335.9842381463
 11
1303.0971522633
 21
335.9842381463
  0
LINE
  5
8C5
100
AcDbEntity
  8
0
100
AcDbLine
 62
7
  6
CONTINUOUS
 10
1275.2325694267
 20
335.9842381463
 11
1273.6700694267
 21
335.9842381463
  0
LINE
  5
8C6
100
AcDbEntity
  8
0
100
AcDbLine
 62
7
  6
CONTINUOUS
 10
1225.4929850999
 20
337.3140252218
 11
1226.7950664464
 21
337.3140252218
  0
LINE
  5
8C7
100
AcDbEntity
  8
0
100
AcDbLine
 62
7
  6
CONTINUOUS
 10
1292.6804850999
 20
337.8459400521
 11
1299.4513179366
 21
337.8459400521
  0
LINE
  5
8C8
100
AcDbEntity
  8
0
100
AcDbLine
 62
7
  6
CONTINUOUS
 10
1369.1867350999
 20
337.91774842
 11
1372.8992350999
 21
337.91774842
  0
LINE
  5
8C9
100
AcDbEntity
  8
0
100
AcDbLine
 62
7
  6
CONTINUOUS
 10
1253.6179850999
 20
338.1118974672
 11
1258.5659037534
 21
338.1118974672
  0
LINE
  5
8CA
100
AcDbEntity
  8
0
100
AcDbLine
 62
7
  6
CONTINUOUS
 10
1227.0554850999
 20
338.6438122974
 11
1225.2325664464
 21
338.6438122974
  0
LINE
  5
8CB
100
AcDbEntity
  8
0
100
AcDbLine
 62
7
  6
CONTINUOUS
 10
1299.4513179366
 20
339.4416845427
 11
1292.6804850999
 21
339.4416845427
  0
LINE
  5
8CC
100
AcDbEntity
  8
0
100
AcDbLine
 62
7
  6
CONTINUOUS
 10
1285.9096507732
 20
339.4416845427
 11
1289.5554850999
 21
339.4416845427
  0
LINE
  5
8CD
100
AcDbEntity
  8
0
100
AcDbLine
 62
7
  6
CONTINUOUS
 10
1258.5659037534
 20
339.7076419578
 11
1254.1388164464
 21
339.7076419578
  0
LINE
  5
8CE
100
AcDbEntity
  8
0
100
AcDbLine
 62
7
  6
CONTINUOUS
 10
1372.8992350999
 20
340.16774842
 11
1370.5939446811
 21
340.16774842
  0
LINE
  5
8CF
100
AcDbEntity
  8
0
100
AcDbLine
 62
7
  6
CONTINUOUS
 10
1289.5554850999
 20
340.7714719907
 11
1285.9096507732
 21
340.7714719907
  0
LINE
  5
8D0
100
AcDbEntity
  8
0
100
AcDbLine
 62
7
  6
CONTINUOUS
 10
1273.6700694267
 20
342.1012590662
 11
1275.2325694267
 21
342.1012590662
  0
LINE
  5
8D1
100
AcDbEntity
  8
0
100
AcDbLine
 62
7
  6
CONTINUOUS
 10
1303.0971522633
 20
342.1012590662
 11
1304.6596515182
 21
342.1012590662
  0
LINE
  5
8D2
100
AcDbEntity
  8
0
100
AcDbLine
 62
7
  6
CONTINUOUS
 10
1342.6367350999
 20
343.54274842
 11
1345.4492350999
 21
343.54274842
  0
LINE
  5
8D3
100
AcDbEntity
  8
0
100
AcDbLine
 62
7
  6
CONTINUOUS
 10
1266.3784037534
 20
343.6970037431
 11
1267.4200694267
 21
343.6970037431
  0
LINE
  5
8D4
100
AcDbEntity
  8
0
100
AcDbLine
 62
7
  6
CONTINUOUS
 10
1277.3159007732
 20
343.6970037431
 11
1279.6596507732
 21
343.6970037431
  0
LINE
  5
8D5
100
AcDbEntity
  8
0
100
AcDbLine
 62
7
  6
CONTINUOUS
 10
1291.6388194267
 20
343.6970037431
 11
1299.4513179366
 21
343.6970037431
  0
LINE
  5
8D6
100
AcDbEntity
  8
0
100
AcDbLine
 62
7
  6
CONTINUOUS
 10
1306.7429850999
 20
343.6970037431
 11
1309.0867350999
 21
343.6970037431
  0
LINE
  5
8D7
100
AcDbEntity
  8
0
100
AcDbLine
 62
7
  6
CONTINUOUS
 10
1225.2325664464
 20
343.9629611582
 11
1227.0554850999
 21
343.9629611582
  0
LINE
  5
8D8
100
AcDbEntity
  8
0
100
AcDbLine
 62
7
  6
CONTINUOUS
 10
1586.7117350999
 20
344.56774842
 11
1589.5742350999
 21
344.56774842
  0
LINE
  5
8D9
100
AcDbEntity
  8
0
100
AcDbLine
 62
7
  6
CONTINUOUS
 10
1595.1492350999
 20
344.56774842
 11
1598.0117350999
 21
344.56774842
  0
LINE
  5
8DA
100
AcDbEntity
  8
0
100
AcDbLine
 62
7
  6
CONTINUOUS
 10
1316.8992350999
 20
345.29274842
 11
1315.3367350999
 21
345.29274842
  0
LINE
  5
8DB
100
AcDbEntity
  8
0
100
AcDbLine
 62
7
  6
CONTINUOUS
 10
1309.0867350999
 20
345.29274842
 11
1306.7429850999
 21
345.29274842
  0
LINE
  5
8DC
100
AcDbEntity
  8
0
100
AcDbLine
 62
7
  6
CONTINUOUS
 10
1301.0138179366
 20
345.29274842
 11
1291.6388194267
 21
345.29274842
  0
LINE
  5
8DD
100
AcDbEntity
  8
0
100
AcDbLine
 62
7
  6
CONTINUOUS
 10
1279.6596507732
 20
345.29274842
 11
1277.3159007732
 21
345.29274842
  0
LINE
  5
8DE
100
AcDbEntity
  8
0
100
AcDbLine
 62
7
  6
CONTINUOUS
 10
1267.4200694267
 20
345.29274842
 11
1266.3784037534
 21
345.29274842
  0
LINE
  5
8DF
100
AcDbEntity
  8
0
100
AcDbLine
 62
7
  6
CONTINUOUS
 10
1260.1284037534
 20
345.29274842
 11
1258.5659037534
 21
345.29274842
  0
LINE
  5
8E0
100
AcDbEntity
  8
0
100
AcDbLine
 62
7
  6
CONTINUOUS
 10
1252.0554850999
 20
345.29274842
 11
1250.2325664464
 21
345.29274842
  0
LINE
  5
8E1
100
AcDbEntity
  8
0
100
AcDbLine
 62
7
  6
CONTINUOUS
 10
1243.9825664464
 20
345.29274842
 11
1242.4200664464
 21
345.29274842
  0
LINE
  5
8E2
100
AcDbEntity
  8
0
100
AcDbLine
 62
7
  6
CONTINUOUS
 10
1234.6075664464
 20
345.29274842
 11
1233.0450664464
 21
345.29274842
  0
LINE
  5
8E3
100
AcDbEntity
  8
0
100
AcDbLine
 62
7
  6
CONTINUOUS
 10
1226.7950664464
 20
345.29274842
 11
1225.4929850999
 21
345.29274842
  0
LINE
  5
8E4
100
AcDbEntity
  8
0
100
AcDbLine
 62
7
  6
CONTINUOUS
 10
1375.1492350999
 20
345.79274842
 11
1372.8992350999
 21
345.79274842
  0
LINE
  5
8E5
100
AcDbEntity
  8
0
100
AcDbLine
 62
7
  6
CONTINUOUS
 10
1366.0473113113
 20
345.79274842
 11
1363.4492350999
 21
345.79274842
  0
LINE
  5
8E6
100
AcDbEntity
  8
0
100
AcDbLine
 62
7
  6
CONTINUOUS
 10
1348.1492350999
 20
345.79274842
 11
1342.0742350999
 21
345.79274842
  0
LINE
  5
8E7
100
AcDbEntity
  8
0
100
AcDbLine
 62
7
  6
CONTINUOUS
 10
1674.6492350999
 20
347.04274842
 11
1711.6492350999
 21
347.04274842
  0
LINE
  5
8E8
100
AcDbEntity
  8
0
100
AcDbLine
 62
7
  6
CONTINUOUS
 10
1717.6492350999
 20
347.04274842
 11
1758.1492350999
 21
347.04274842
  0
LINE
  5
8E9
100
AcDbEntity
  8
RUNDUNGEN
100
AcDbLine
 62
7
  6
CONTINUOUS
 10
1024.4492350999
 20
348.49274842
 11
1006.9402359793
 21
348.49274842
  0
LINE
  5
8EA
100
AcDbEntity
  8
BEZUGSACHSEN
100
AcDbLine
 62
7
  6
CONTINUOUS
 10
1006.9410209355
 20
348.49274842
 11
1044.8992350999
 21
348.49274842
  0
LINE
  5
8EB
100
AcDbEntity
  8
BEZUGSACHSEN
100
AcDbLine
 62
7
  6
CONTINUOUS
 10
1801.3992350999
 20
348.49274842
 11
1839.3574492644
 21
348.49274842
  0
LINE
  5
8EC
100
AcDbEntity
  8
0
100
AcDbLine
 62
7
  6
CONTINUOUS
 10
1674.6492350999
 20
352.8991548806
 11
1711.6492350999
 21
352.8991548806
  0
LINE
  5
8ED
100
AcDbEntity
  8
0
100
AcDbLine
 62
7
  6
CONTINUOUS
 10
1717.6492350999
 20
352.8991548806
 11
1769.1492350999
 21
352.8991548806
  0
LINE
  5
8EE
100
AcDbEntity
  8
0
100
AcDbLine
 62
7
  6
CONTINUOUS
 10
1170.0111225791
 20
355.04274842
 11
1077.1492350999
 21
355.04274842
  0
LINE
  5
8EF
100
AcDbEntity
  8
RUNDUNGEN
100
AcDbLine
 62
7
  6
CONTINUOUS
 10
1170.0111225791
 20
355.04274842
 11
1077.1492350999
 21
355.04274842
  0
LINE
  5
8F0
100
AcDbEntity
  8
0
100
AcDbLine
 62
7
  6
CONTINUOUS
 10
1674.6492350999
 20
355.04274842
 11
1711.6492350999
 21
355.04274842
  0
LINE
  5
8F1
100
AcDbEntity
  8
0
100
AcDbLine
 62
7
  6
CONTINUOUS
 10
1717.6492350999
 20
355.04274842
 11
1769.1492350999
 21
355.04274842
  0
LINE
  5
8F2
100
AcDbEntity
  8
BEZUGSACHSEN
100
AcDbLine
 62
7
  6
CONTINUOUS
 10
1806.1492350999
 20
357.04274842
 11
1787.1492350999
 21
357.04274842
  0
LINE
  5
8F3
100
AcDbEntity
  8
BEZUGSACHSEN
100
AcDbLine
 62
7
  6
CONTINUOUS
 10
1040.1492350999
 20
357.04274842
 11
1059.1492350999
 21
357.04274842
  0
LINE
  5
8F4
100
AcDbEntity
  8
0
100
AcDbLine
 62
7
  6
CONTINUOUS
 10
1207.0746950628
 20
358.3041087043
 11
1384.223775137
 21
358.3041087043
  0
LINE
  5
8F5
100
AcDbEntity
  8
0
100
AcDbLine
 62
7
  6
CONTINUOUS
 10
1462.0746950628
 20
358.3041087043
 11
1639.223775137
 21
358.3041087043
  0
LINE
  5
8F6
100
AcDbEntity
  8
0
100
AcDbLine
 62
7
  6
CONTINUOUS
 10
1790.5242350999
 20
359.04274842
 11
1793.5242350999
 21
359.04274842
  0
LINE
  5
8F7
100
AcDbEntity
  8
0
100
AcDbLine
 62
7
  6
CONTINUOUS
 10
1794.5242348615
 20
359.04274842
 11
1795.2742348615
 21
359.04274842
  0
LINE
  5
8F8
100
AcDbEntity
  8
0
100
AcDbLine
 62
7
  6
CONTINUOUS
 10
1798.2742348615
 20
359.04274842
 11
1799.0242352191
 21
359.04274842
  0
LINE
  5
8F9
100
AcDbEntity
  8
0
100
AcDbLine
 62
7
  6
CONTINUOUS
 10
1801.7742350999
 20
359.04274842
 11
1804.7742350999
 21
359.04274842
  0
LINE
  5
8FA
100
AcDbEntity
  8
0
100
AcDbLine
 62
7
  6
CONTINUOUS
 10
1589.5742350999
 20
344.56774842
 11
1589.5742350999
 21
327.84274842
  0
LINE
  5
8FB
100
AcDbEntity
  8
0
100
AcDbLine
 62
7
  6
CONTINUOUS
 10
1595.1492350999
 20
327.84274842
 11
1595.1492350999
 21
344.56774842
  0
LINE
  5
8FC
100
AcDbEntity
  8
0
100
AcDbLine
 62
7
  6
CONTINUOUS
 10
1801.0242350999
 20
361.2129612849
 11
1801.2742352191
 21
361.4682804034
  0
LINE
  5
8FD
100
AcDbEntity
  8
0
100
AcDbLine
 62
7
  6
CONTINUOUS
 10
1280.7013194267
 20
334.6544503258
 11
1279.6596507732
 21
334.3884929106
  0
LINE
  5
8FE
100
AcDbEntity
  8
0
100
AcDbLine
 62
7
  6
CONTINUOUS
 10
1305.7013186816
 20
343.431046328
 11
1306.7429850999
 21
343.6970037431
  0
LINE
  5
8FF
100
AcDbEntity
  8
0
100
AcDbLine
 62
7
  6
CONTINUOUS
 10
1276.2742350999
 20
343.431046328
 11
1277.3159007732
 21
343.6970037431
  0
LINE
  5
900
100
AcDbEntity
  8
0
100
AcDbLine
 62
7
  6
CONTINUOUS
 10
1265.3367350999
 20
343.431046328
 11
1266.3784037534
 21
343.6970037431
  0
LINE
  5
901
100
AcDbEntity
  8
0
100
AcDbLine
 62
7
  6
CONTINUOUS
 10
1306.7429850999
 20
345.29274842
 11
1305.4409015182
 21
345.0267909816
  0
LINE
  5
902
100
AcDbEntity
  8
0
100
AcDbLine
 62
7
  6
CONTINUOUS
 10
1226.7950664464
 20
332.79274842
 11
1228.0971537534
 21
333.0587058351
  0
LINE
  5
903
100
AcDbEntity
  8
0
100
AcDbLine
 62
7
  6
CONTINUOUS
 10
1277.3159007732
 20
345.29274842
 11
1276.0138194267
 21
345.0267909816
  0
LINE
  5
904
100
AcDbEntity
  8
0
100
AcDbLine
 62
7
  6
CONTINUOUS
 10
1266.3784037534
 20
345.29274842
 11
1265.0763164464
 21
345.0267909816
  0
LINE
  5
905
100
AcDbEntity
  8
0
100
AcDbLine
 62
7
  6
CONTINUOUS
 10
1226.7950664464
 20
337.3140252218
 11
1228.0971537534
 21
337.579982637
  0
LINE
  5
906
100
AcDbEntity
  8
0
100
AcDbLine
 62
7
  6
CONTINUOUS
 10
1225.4929850999
 20
345.29274842
 11
1224.1909037534
 21
345.0267909816
  0
LINE
  5
907
100
AcDbEntity
  8
0
100
AcDbLine
 62
7
  6
CONTINUOUS
 10
1055.7742350999
 20
313.04274842
 11
1056.3992355768
 21
313.1704079905
  0
LINE
  5
908
100
AcDbEntity
  8
0
100
AcDbLine
 62
7
  6
CONTINUOUS
 10
1049.7742350999
 20
313.04274842
 11
1050.3992348615
 21
313.1704079905
  0
LINE
  5
909
100
AcDbEntity
  8
0
100
AcDbLine
 62
7
  6
CONTINUOUS
 10
1804.0242350999
 20
359.6810462163
 11
1801.6492352191
 21
359.6810462163
  0
LINE
  5
90A
100
AcDbEntity
  8
0
100
AcDbLine
 62
7
  6
CONTINUOUS
 10
1792.7742350999
 20
359.8087057755
 11
1790.5242350999
 21
359.8087057755
  0
LINE
  5
90B
100
AcDbEntity
  8
0
100
AcDbLine
 62
7
  6
CONTINUOUS
 10
1801.6492352191
 20
361.5959399627
 11
1804.0242350999
 21
361.5959399627
  0
LINE
  5
90C
100
AcDbEntity
  8
0
100
AcDbLine
 62
7
  6
CONTINUOUS
 10
1804.0242350999
 20
362.3618973182
 11
1801.8992351595
 21
362.3618973182
  0
LINE
  5
90D
100
AcDbEntity
  8
0
100
AcDbLine
 62
7
  6
CONTINUOUS
 10
1790.5242350999
 20
364.2767909751
 11
1792.7742350999
 21
364.2767909751
  0
LINE
  5
90E
100
AcDbEntity
  8
0
100
AcDbLine
 62
7
  6
CONTINUOUS
 10
1796.5242350999
 20
364.2767909751
 11
1797.0242353383
 21
364.2767909751
  0
LINE
  5
90F
100
AcDbEntity
  8
0
100
AcDbLine
 62
7
  6
CONTINUOUS
 10
1804.7742350999
 20
365.04274842
 11
1804.0242350999
 21
365.04274842
  0
LINE
  5
910
100
AcDbEntity
  8
0
100
AcDbLine
 62
7
  6
CONTINUOUS
 10
1800.8992352191
 20
365.04274842
 11
1800.0242349807
 21
365.04274842
  0
LINE
  5
911
100
AcDbEntity
  8
0
100
AcDbLine
 62
7
  6
CONTINUOUS
 10
1797.0242353383
 20
365.04274842
 11
1796.5242350999
 21
365.04274842
  0
LINE
  5
912
100
AcDbEntity
  8
0
100
AcDbLine
 62
7
  6
CONTINUOUS
 10
1793.5242350999
 20
365.04274842
 11
1790.5242350999
 21
365.04274842
  0
LINE
  5
913
100
AcDbEntity
  8
BEZUGSACHSEN
100
AcDbLine
 62
7
  6
CONTINUOUS
 10
1059.1492350999
 20
367.04274842
 11
1040.1492350999
 21
367.04274842
  0
LINE
  5
914
100
AcDbEntity
  8
BEZUGSACHSEN
100
AcDbLine
 62
7
  6
CONTINUOUS
 10
1787.1492350999
 20
367.04274842
 11
1806.1492350999
 21
367.04274842
  0
LINE
  5
915
100
AcDbEntity
  8
0
100
AcDbLine
 62
7
  6
CONTINUOUS
 10
1648.8601491286
 20
369.04274842
 11
1450.1942556293
 21
369.04274842
  0
LINE
  5
916
100
AcDbEntity
  8
RUNDUNGEN
100
AcDbLine
 62
7
  6
CONTINUOUS
 10
1396.1042145706
 20
369.04274842
 11
1196.1771259158
 21
369.04274842
  0
LINE
  5
917
100
AcDbEntity
  8
0
100
AcDbLine
 62
7
  6
CONTINUOUS
 10
1396.1042145706
 20
369.04274842
 11
1196.1771259158
 21
369.04274842
  0
LINE
  5
918
100
AcDbEntity
  8
0
100
AcDbLine
 62
7
  6
CONTINUOUS
 10
1448.4678629581
 20
369.54274842
 11
1441.1492350999
 21
369.54274842
  0
LINE
  5
919
100
AcDbEntity
  8
0
100
AcDbLine
 62
7
  6
CONTINUOUS
 10
1405.1492350999
 20
369.54274842
 11
1397.8306072417
 21
369.54274842
  0
LINE
  5
91A
100
AcDbEntity
  8
0
100
AcDbLine
 62
7
  6
CONTINUOUS
 10
1194.8324543346
 20
369.54274842
 11
1174.0561264084
 21
369.54274842
  0
LINE
  5
91B
100
AcDbEntity
  8
RUNDUNGEN
100
AcDbLine
 62
7
  6
CONTINUOUS
 10
1174.0561264084
 20
369.54274842
 11
1194.8324543346
 21
369.54274842
  0
LINE
  5
91C
100
AcDbEntity
  8
RUNDUNGEN
100
AcDbLine
 62
7
  6
CONTINUOUS
 10
1397.8306072417
 20
369.54274842
 11
1405.1492350999
 21
369.54274842
  0
LINE
  5
91D
100
AcDbEntity
  8
RUNDUNGEN
100
AcDbLine
 62
7
  6
CONTINUOUS
 10
1441.1492350999
 20
369.54274842
 11
1448.4678629581
 21
369.54274842
  0
LINE
  5
91E
100
AcDbEntity
  8
0
100
AcDbLine
 62
7
  6
CONTINUOUS
 10
1671.6492350999
 20
373.04274842
 11
1657.7257290443
 21
373.04274842
  0
LINE
  5
91F
100
AcDbEntity
  8
RUNDUNGEN
100
AcDbLine
 62
7
  6
CONTINUOUS
 10
1657.7257290443
 20
373.04274842
 11
1671.6492350999
 21
373.04274842
  0
LINE
  5
920
100
AcDbEntity
  8
0
100
AcDbLine
 62
7
  6
CONTINUOUS
 10
1712.6492350999
 20
374.04274842
 11
1715.1492350999
 21
374.04274842
  0
LINE
  5
921
100
AcDbEntity
  8
0
100
AcDbLine
 62
7
  6
CONTINUOUS
 10
1014.7523088921
 20
381.04274842
 11
1014.1492350999
 21
381.04274842
  0
LINE
  5
922
100
AcDbEntity
  8
BEZUGSACHSEN
100
AcDbLine
 62
7
  6
CONTINUOUS
 10
1014.1500338732
 20
381.04274842
 11
1068.1492350999
 21
381.04274842
  0
LINE
  5
923
100
AcDbEntity
  8
BEZUGSACHSEN
100
AcDbLine
 62
7
  6
CONTINUOUS
 10
1778.1492350999
 20
381.04274842
 11
1832.1484363266
 21
381.04274842
  0
LINE
  5
924
100
AcDbEntity
  8
0
100
AcDbLine
 62
7
  6
CONTINUOUS
 10
1416.1492350999
 20
382.04274842
 11
1430.1492350999
 21
382.04274842
  0
LINE
  5
925
100
AcDbEntity
  8
0
100
AcDbLine
 62
7
  6
CONTINUOUS
 10
1410.1492350999
 20
384.04274842
 11
1416.1492350999
 21
384.04274842
  0
LINE
  5
926
100
AcDbEntity
  8
0
100
AcDbLine
 62
7
  6
CONTINUOUS
 10
1430.1492350999
 20
384.04274842
 11
1436.1492350999
 21
384.04274842
  0
LINE
  5
927
100
AcDbEntity
  8
0
100
AcDbLine
 62
7
  6
CONTINUOUS
 10
1449.8522354859
 20
369.1030557992
 11
1448.8098831015
 21
369.4824410408
  0
LINE
  5
928
100
AcDbEntity
  8
0
100
AcDbLine
 62
7
  6
CONTINUOUS
 10
1639.223775137
 20
319.7813881358
 11
1639.223775137
 21
358.3041087043
  0
LINE
  5
929
100
AcDbEntity
  8
0
100
AcDbLine
 62
7
  6
CONTINUOUS
 10
1789.3992350999
 20
363.5108335302
 11
1789.6492355768
 21
363.893812208
  0
LINE
  5
92A
100
AcDbEntity
  8
0
100
AcDbLine
 62
7
  6
CONTINUOUS
 10
1800.6492350999
 20
361.8512590812
 11
1800.2742350999
 21
361.3406208442
  0
LINE
  5
92B
100
AcDbEntity
  8
0
100
AcDbLine
 62
7
  6
CONTINUOUS
 10
1056.2742346231
 20
313.9363654242
 11
1055.7742350999
 21
313.8087058649
  0
LINE
  5
92C
100
AcDbEntity
  8
0
100
AcDbLine
 62
7
  6
CONTINUOUS
 10
1050.2742353383
 20
313.9363654242
 11
1049.7742350999
 21
313.8087058649
  0
LINE
  5
92D
100
AcDbEntity
  8
0
100
AcDbLine
 62
7
  6
CONTINUOUS
 10
1654.8578468626
 20
305.9469881986
 11
1651.7280313103
 21
308.1385086415
  0
LINE
  5
92E
100
AcDbEntity
  8
0
100
AcDbLine
 62
7
  6
CONTINUOUS
 10
1795.3992350999
 20
363.5108335302
 11
1795.6492348615
 21
363.893812208
  0
LINE
  5
92F
100
AcDbEntity
  8
0
100
AcDbLine
 62
7
  6
CONTINUOUS
 10
1839.9744930713
 20
300.3643733592
 11
1845.4963108841
 21
306.0823830916
  0
LINE
  5
930
100
AcDbEntity
  8
0
100
AcDbLine
 62
7
  6
CONTINUOUS
 10
1789.8992346231
 20
359.1704079793
 11
1790.5242350999
 21
359.04274842
  0
LINE
  5
931
100
AcDbEntity
  8
0
100
AcDbLine
 62
7
  6
CONTINUOUS
 10
1801.1492349807
 20
359.1704079793
 11
1801.7742350999
 21
359.04274842
  0
LINE
  5
932
100
AcDbEntity
  8
0
100
AcDbLine
 62
7
  6
CONTINUOUS
 10
1797.6492350999
 20
364.9150888496
 11
1797.0242353383
 21
365.04274842
  0
LINE
  5
933
100
AcDbEntity
  8
0
100
AcDbLine
 62
7
  6
CONTINUOUS
 10
1790.5242350999
 20
359.8087057755
 11
1790.0242355768
 21
359.9363653348
  0
LINE
  5
934
100
AcDbEntity
  8
0
100
AcDbLine
 62
7
  6
CONTINUOUS
 10
1797.0242353383
 20
364.2767909751
 11
1797.5242348615
 21
364.1491314159
  0
LINE
  5
935
100
AcDbEntity
  8
0
100
AcDbLine
 62
7
  6
CONTINUOUS
 10
1598.0117350999
 20
344.56774842
 11
1592.3617350999
 21
350.21774842
  0
LINE
  5
936
100
AcDbEntity
  8
RUNDUNGEN
100
AcDbLine
 62
7
  6
CONTINUOUS
 10
1674.6492350999
 20
370.04274842
 11
1674.6492350999
 21
308.04274842
  0
LINE
  5
937
100
AcDbEntity
  8
0
100
AcDbLine
 62
7
  6
CONTINUOUS
 10
1788.8992355768
 20
364.1491314159
 11
1788.6492350999
 21
363.6384930895
  0
LINE
  5
938
100
AcDbEntity
  8
0
100
AcDbLine
 62
7
  6
CONTINUOUS
 10
1794.8992348615
 20
364.1491314159
 11
1794.6492350999
 21
363.6384930895
  0
LINE
  5
939
100
AcDbEntity
  8
0
100
AcDbLine
 62
7
  6
CONTINUOUS
 10
1801.6492352191
 20
359.6810462163
 11
1801.2742352191
 21
359.8087057755
  0
LINE
  5
93A
100
AcDbEntity
  8
RUNDUNGEN
100
AcDbLine
 62
7
  6
CONTINUOUS
 10
1711.6492350999
 20
373.04274842
 11
1711.6492350999
 21
305.04274842
  0
LINE
  5
93B
100
AcDbEntity
  8
RUNDUNGEN
100
AcDbLine
 62
7
  6
CONTINUOUS
 10
1717.6492350999
 20
371.5424835862
 11
1717.6492350999
 21
306.54274842
  0
LINE
  5
93C
100
AcDbEntity
  8
0
100
AcDbLine
 62
7
  6
CONTINUOUS
 10
1800.2742350999
 20
361.3406208442
 11
1800.1492352191
 21
360.9576421664
  0
LINE
  5
93D
100
AcDbEntity
  8
0
100
AcDbLine
 62
7
  6
CONTINUOUS
 10
1800.8992352191
 20
360.8299826072
 11
1801.0242350999
 21
361.2129612849
  0
LINE
  5
93E
100
AcDbEntity
  8
0
100
AcDbLine
 62
7
  6
CONTINUOUS
 10
1789.3992350999
 20
359.4257270978
 11
1789.8992346231
 21
359.1704079793
  0
LINE
  5
93F
100
AcDbEntity
  8
0
100
AcDbLine
 62
7
  6
CONTINUOUS
 10
1788.6492350999
 20
363.6384930895
 11
1788.5242355768
 21
363.0001952932
  0
LINE
  5
940
100
AcDbEntity
  8
0
100
AcDbLine
 62
7
  6
CONTINUOUS
 10
1794.6492350999
 20
363.6384930895
 11
1794.5242348615
 21
363.0001952932
  0
LINE
  5
941
100
AcDbEntity
  8
0
100
AcDbLine
 62
7
  6
CONTINUOUS
 10
1789.2742355768
 20
363.0001952932
 11
1789.3992350999
 21
363.5108335302
  0
LINE
  5
942
100
AcDbEntity
  8
0
100
AcDbLine
 62
7
  6
CONTINUOUS
 10
1795.2742348615
 20
363.0001952932
 11
1795.3992350999
 21
363.5108335302
  0
LINE
  5
943
100
AcDbEntity
  8
0
100
AcDbLine
 62
7
  6
CONTINUOUS
 10
1798.1492353383
 20
364.6597696976
 11
1797.6492350999
 21
364.9150888496
  0
LINE
  5
944
100
AcDbEntity
  8
0
100
AcDbLine
 62
7
  6
CONTINUOUS
 10
1790.0242355768
 20
359.9363653348
 11
1789.6492355768
 21
360.1916844533
  0
LINE
  5
945
100
AcDbEntity
  8
BEZUGSACHSEN
100
AcDbLine
 62
7
  6
CONTINUOUS
 10
1773.1492350999
 20
376.04274842
 11
1773.1492350999
 21
302.04274842
  0
LINE
  5
946
100
AcDbEntity
  8
0
100
AcDbLine
 62
7
  6
CONTINUOUS
 10
1788.5242355768
 20
363.0001952932
 11
1788.5242355768
 21
361.0853017257
  0
LINE
  5
947
100
AcDbEntity
  8
0
100
AcDbLine
 62
7
  6
CONTINUOUS
 10
1789.2742355768
 20
361.0853017257
 11
1789.2742355768
 21
363.0001952932
  0
LINE
  5
948
100
AcDbEntity
  8
0
100
AcDbLine
 62
7
  6
CONTINUOUS
 10
1792.7742350999
 20
364.2767909751
 11
1792.7742350999
 21
359.8087057755
  0
LINE
  5
949
100
AcDbEntity
  8
0
100
AcDbLine
 62
7
  6
CONTINUOUS
 10
1793.5242350999
 20
359.04274842
 11
1793.5242350999
 21
365.04274842
  0
LINE
  5
94A
100
AcDbEntity
  8
0
100
AcDbLine
 62
7
  6
CONTINUOUS
 10
1794.5242348615
 20
363.0001952932
 11
1794.5242348615
 21
359.04274842
  0
LINE
  5
94B
100
AcDbEntity
  8
0
100
AcDbLine
 62
7
  6
CONTINUOUS
 10
1795.2742348615
 20
359.04274842
 11
1795.2742348615
 21
363.0001952932
  0
LINE
  5
94C
100
AcDbEntity
  8
0
100
AcDbLine
 62
7
  6
CONTINUOUS
 10
1797.5242348615
 20
364.1491314159
 11
1797.8992348615
 21
363.893812208
  0
LINE
  5
94D
100
AcDbEntity
  8
0
100
AcDbLine
 62
7
  6
CONTINUOUS
 10
1800.6492350999
 20
359.553386657
 11
1801.1492349807
 21
359.1704079793
  0
LINE
  5
94E
100
AcDbEntity
  8
0
100
AcDbLine
 62
7
  6
CONTINUOUS
 10
1788.8992355768
 20
359.9363653348
 11
1789.3992350999
 21
359.4257270978
  0
LINE
  5
94F
100
AcDbEntity
  8
0
100
AcDbLine
 62
7
  6
CONTINUOUS
 10
1798.2742348615
 20
363.0001952932
 11
1798.2742348615
 21
359.04274842
  0
LINE
  5
950
100
AcDbEntity
  8
0
100
AcDbLine
 62
7
  6
CONTINUOUS
 10
1799.0242352191
 20
359.04274842
 11
1799.0242352191
 21
363.0001952932
  0
LINE
  5
951
100
AcDbEntity
  8
0
100
AcDbLine
 62
7
  6
CONTINUOUS
 10
1800.1492352191
 20
360.9576421664
 11
1800.1492352191
 21
360.4470035718
  0
LINE
  5
952
100
AcDbEntity
  8
0
100
AcDbLine
 62
7
  6
CONTINUOUS
 10
1800.8992352191
 20
360.4470035718
 11
1800.8992352191
 21
360.8299826072
  0
LINE
  5
953
100
AcDbEntity
  8
0
100
AcDbLine
 62
7
  6
CONTINUOUS
 10
1804.0242350999
 20
365.04274842
 11
1804.0242350999
 21
362.3618973182
  0
LINE
  5
954
100
AcDbEntity
  8
0
100
AcDbLine
 62
7
  6
CONTINUOUS
 10
1804.0242350999
 20
361.5959399627
 11
1804.0242350999
 21
359.6810462163
  0
LINE
  5
955
100
AcDbEntity
  8
0
100
AcDbLine
 62
7
  6
CONTINUOUS
 10
1804.7742350999
 20
359.04274842
 11
1804.7742350999
 21
365.04274842
  0
LINE
  5
956
100
AcDbEntity
  8
BEZUGSACHSEN
100
AcDbLine
 62
7
  6
CONTINUOUS
 10
1812.1492350999
 20
329.59274842
 11
1812.1492350999
 21
348.49274842
  0
LINE
  5
957
100
AcDbEntity
  8
0
100
AcDbLine
 62
7
  6
CONTINUOUS
 10
1801.2742352191
 20
359.8087057755
 11
1801.0242350999
 21
360.064024894
  0
LINE
  5
958
100
AcDbEntity
  8
0
100
AcDbLine
 62
7
  6
CONTINUOUS
 10
1798.6492348615
 20
364.1491314159
 11
1798.1492353383
 21
364.6597696976
  0
LINE
  5
959
100
AcDbEntity
  8
0
100
AcDbLine
 62
7
  6
CONTINUOUS
 10
1800.2742350999
 20
360.064024894
 11
1800.6492350999
 21
359.553386657
  0
LINE
  5
95A
100
AcDbEntity
  8
0
100
AcDbLine
 62
7
  6
CONTINUOUS
 10
1789.6492355768
 20
360.1916844533
 11
1789.3992350999
 21
360.5746634887
  0
LINE
  5
95B
100
AcDbEntity
  8
0
100
AcDbLine
 62
7
  6
CONTINUOUS
 10
1797.8992348615
 20
363.893812208
 11
1798.1492353383
 21
363.5108335302
  0
LINE
  5
95C
100
AcDbEntity
  8
0
100
AcDbLine
 62
7
  6
CONTINUOUS
 10
1788.6492350999
 20
360.4470035718
 11
1788.8992355768
 21
359.9363653348
  0
LINE
  5
95D
100
AcDbEntity
  8
0
100
AcDbLine
 62
7
  6
CONTINUOUS
 10
1789.3992350999
 20
360.5746634887
 11
1789.2742355768
 21
361.0853017257
  0
LINE
  5
95E
100
AcDbEntity
  8
0
100
AcDbLine
 62
7
  6
CONTINUOUS
 10
1798.1492353383
 20
363.5108335302
 11
1798.2742348615
 21
363.0001952932
  0
LINE
  5
95F
100
AcDbEntity
  8
0
100
AcDbLine
 62
7
  6
CONTINUOUS
 10
1788.5242355768
 20
361.0853017257
 11
1788.6492350999
 21
360.4470035718
  0
LINE
  5
960
100
AcDbEntity
  8
0
100
AcDbLine
 62
7
  6
CONTINUOUS
 10
1799.0242352191
 20
363.0001952932
 11
1798.8992349807
 21
363.6384930895
  0
LINE
  5
961
100
AcDbEntity
  8
BEZUGSACHSEN
100
AcDbLine
 62
7
  6
CONTINUOUS
 10
1832.1492350999
 20
329.59274842
 11
1832.1492350999
 21
348.49274842
  0
LINE
  5
962
100
AcDbEntity
  8
BEZUGSACHSEN
100
AcDbLine
 62
7
  6
CONTINUOUS
 10
1845.4963108841
 20
372.0031137485
 11
1839.9744930713
 21
377.7211234808
  0
LINE
  5
963
100
AcDbEntity
  8
0
100
AcDbLine
 62
7
  6
CONTINUOUS
 10
1798.8992349807
 20
363.6384930895
 11
1798.6492348615
 21
364.1491314159
  0
LINE
  5
964
100
AcDbEntity
  8
0
100
AcDbLine
 62
7
  6
CONTINUOUS
 10
1800.0242349807
 20
365.04274842
 11
1801.1492349807
 21
362.1065781997
  0
LINE
  5
965
100
AcDbEntity
  8
0
100
AcDbLine
 62
7
  6
CONTINUOUS
 10
1801.8992351595
 20
362.3618973182
 11
1800.8992352191
 21
365.04274842
  0
LINE
  5
966
100
AcDbEntity
  8
0
100
AcDbLine
 62
7
  6
CONTINUOUS
 10
1800.1492352191
 20
360.4470035718
 11
1800.2742350999
 21
360.064024894
  0
LINE
  5
967
100
AcDbEntity
  8
0
100
AcDbLine
 62
7
  6
CONTINUOUS
 10
1801.0242350999
 20
360.064024894
 11
1800.8992352191
 21
360.4470035718
  0
ARC
  5
968
100
AcDbEntity
  8
RUNDUNGEN
100
AcDbCircle
 62
7
  6
CONTINUOUS
 10
148.8405233741
 20
24.04274842
 40
5.0
100
AcDbArc
 50
180.0
 51
270.0
  0
ARC
  5
969
100
AcDbEntity
  8
BEZUGSACHSEN
100
AcDbCircle
 62
7
  6
CONTINUOUS
 10
-203.1594766259
 20
302.04274842
 40
5.0
100
AcDbArc
 50
270.0
 51
360.0
  0
ARC
  5
96A
100
AcDbEntity
  8
RUNDUNGEN
100
AcDbCircle
 62
7
  6
CONTINUOUS
 10
-203.1594766259
 20
302.04274842
 40
5.0
100
AcDbArc
 50
269.9999996772
 51
0.0000004487
  0
ARC
  5
96B
100
AcDbEntity
  8
BEZUGSACHSEN
100
AcDbCircle
 62
7
  6
CONTINUOUS
 10
-324.0844493214
 20
339.04274842
 40
58.0
100
AcDbArc
 50
11.7767230368
 51
25.6119086218
  0
ARC
  5
96C
100
AcDbEntity
  8
0
100
AcDbCircle
 62
7
  6
CONTINUOUS
 10
-324.0844493214
 20
339.04274842
 40
58.0
100
AcDbArc
 50
334.3880913782
 51
348.2232769632
  0
ARC
  5
96D
100
AcDbEntity
  8
0
100
AcDbCircle
 62
7
  6
CONTINUOUS
 10
-183.1594766259
 20
316.04274842
 40
15.0
100
AcDbArc
 50
90.0
 51
143.1478081776
  0
ARC
  5
96E
100
AcDbEntity
  8
BEZUGSACHSEN
100
AcDbCircle
 62
7
  6
CONTINUOUS
 10
-257.1594766259
 20
370.1643596979
 40
10.8783887221
100
AcDbArc
 50
90.0
 51
136.0
  0
ARC
  5
96F
100
AcDbEntity
  8
0
100
AcDbCircle
 62
7
  6
CONTINUOUS
 10
-257.1594766259
 20
307.9211371421
 40
10.8783887221
100
AcDbArc
 50
224.0
 51
270.0
  0
ARC
  5
970
100
AcDbEntity
  8
BEZUGSACHSEN
100
AcDbCircle
 62
7
  6
CONTINUOUS
 10
-226.4094766259
 20
339.04274842
 40
9.45
100
AcDbArc
 50
270.0
 51
90.0
  0
ARC
  5
971
100
AcDbEntity
  8
BEZUGSACHSEN
100
AcDbCircle
 62
7
  6
CONTINUOUS
 10
-265.4711734869
 20
310.9449916884
 40
6.9999999287
100
AcDbArc
 50
154.3880925402
 51
223.9999981977
  0
ARC
  5
972
100
AcDbEntity
  8
BEZUGSACHSEN
100
AcDbCircle
 62
7
  6
CONTINUOUS
 10
-265.4711734869
 20
367.1405051516
 40
6.9999999287
100
AcDbArc
 50
136.0000018023
 51
205.6119074598
  0
ARC
  5
973
100
AcDbEntity
  8
RUNDUNGEN
100
AcDbCircle
 62
7
  6
CONTINUOUS
 10
-212.1594766259
 20
316.04274842
 40
5.0
100
AcDbArc
 50
269.9999994283
 51
90.0000007416
  0
ARC
  5
974
100
AcDbEntity
  8
RUNDUNGEN
100
AcDbCircle
 62
7
  6
CONTINUOUS
 10
-231.1594766259
 20
316.04274842
 40
5.0
100
AcDbArc
 50
89.9999994283
 51
270.0000007416
  0
ARC
  5
975
100
AcDbEntity
  8
BEZUGSACHSEN
100
AcDbCircle
 62
7
  6
CONTINUOUS
 10
-203.1594766259
 20
376.04274842
 40
5.0
100
AcDbArc
 50
0.0
 51
90.0
  0
ARC
  5
976
100
AcDbEntity
  8
BEZUGSACHSEN
100
AcDbCircle
 62
7
  6
CONTINUOUS
 10
-212.1594766259
 20
362.04274842
 40
5.0
100
AcDbArc
 50
269.9999992584
 51
90.0000005717
  0
ARC
  5
977
100
AcDbEntity
  8
BEZUGSACHSEN
100
AcDbCircle
 62
7
  6
CONTINUOUS
 10
-231.1594766259
 20
362.04274842
 40
5.0
100
AcDbArc
 50
89.9999992584
 51
270.0000005717
  0
ARC
  5
978
100
AcDbEntity
  8
RUNDUNGEN
100
AcDbCircle
 62
7
  6
CONTINUOUS
 10
-194.1594766259
 20
319.04274842
 40
4.0
100
AcDbArc
 50
90.0
 51
179.9999999999
  0
ARC
  5
979
100
AcDbEntity
  8
RUNDUNGEN
100
AcDbCircle
 62
7
  6
CONTINUOUS
 10
-194.1594766259
 20
359.04274842
 40
4.0
100
AcDbArc
 50
180.0000000001
 51
270.0
  0
ARC
  5
97A
100
AcDbEntity
  8
BEZUGSACHSEN
100
AcDbCircle
 62
7
  6
CONTINUOUS
 10
-264.3684757465
 20
351.49274842
 40
3.0
100
AcDbArc
 50
191.7767230368
 51
270.0
  0
ARC
  5
97B
100
AcDbEntity
  8
RUNDUNGEN
100
AcDbCircle
 62
7
  6
CONTINUOUS
 10
-264.3684757465
 20
326.59274842
 40
3.0
100
AcDbArc
 50
90.0
 51
168.2232769632
  0
ARC
  5
97C
100
AcDbEntity
  8
RUNDUNGEN
100
AcDbCircle
 62
7
  6
CONTINUOUS
 10
-96.6594766259
 20
308.04274842
 40
3.0
100
AcDbArc
 50
180.0
 51
270.0
  0
ARC
  5
97D
100
AcDbEntity
  8
RUNDUNGEN
100
AcDbCircle
 62
7
  6
CONTINUOUS
 10
-96.6594766259
 20
370.04274842
 40
3.0
100
AcDbArc
 50
90.0
 51
180.0
  0
ARC
  5
97E
100
AcDbEntity
  8
RUNDUNGEN
100
AcDbCircle
 62
7
  6
CONTINUOUS
 10
-140.1594766259
 20
371.54274842
 40
2.5
100
AcDbArc
 50
90.0
 51
180.0
  0
ARC
  5
97F
100
AcDbEntity
  8
RUNDUNGEN
100
AcDbCircle
 62
7
  6
CONTINUOUS
 10
-140.1594766259
 20
306.54274842
 40
2.5
100
AcDbArc
 50
180.0
 51
270.0
  0
ARC
  5
980
100
AcDbEntity
  8
RUNDUNGEN
100
AcDbCircle
 62
7
  6
CONTINUOUS
 10
-137.6594766259
 20
373.04274842
 40
1.0
100
AcDbArc
 50
0.0
 51
90.0
  0
ARC
  5
981
100
AcDbEntity
  8
RUNDUNGEN
100
AcDbCircle
 62
7
  6
CONTINUOUS
 10
-137.6594766259
 20
305.04274842
 40
1.0
100
AcDbArc
 50
270.0
 51
360.0
  0
ARC
  5
982
100
AcDbEntity
  8
RUNDUNGEN
100
AcDbCircle
 62
7
  6
CONTINUOUS
 10
123.8405233741
 20
226.2416495272
 40
20.0
100
AcDbArc
 50
0.0000003896
 51
15.9454012874
  0
ARC
  5
983
100
AcDbEntity
  8
BEZUGSACHSEN
100
AcDbCircle
 62
7
  6
CONTINUOUS
 10
149.8405233741
 20
266.8438473128
 40
20.0
100
AcDbArc
 50
344.0652678424
 51
359.9994438242
  0
ARC
  5
984
100
AcDbEntity
  8
RUNDUNGEN
100
AcDbCircle
 62
7
  6
CONTINUOUS
 10
146.8405233741
 20
297.54274842
 40
2.0
100
AcDbArc
 50
180.0
 51
270.0
  0
ARC
  5
985
100
AcDbEntity
  8
RUNDUNGEN
100
AcDbCircle
 62
7
  6
CONTINUOUS
 10
-51.1594766259
 20
331.54274842
 40
10.0
100
AcDbArc
 50
180.0
 51
270.0020805752
  0
ARC
  5
986
100
AcDbEntity
  8
RUNDUNGEN
100
AcDbCircle
 62
7
  6
CONTINUOUS
 10
-51.1594766259
 20
346.54274842
 40
10.0
100
AcDbArc
 50
89.9980312385
 51
180.0
  0
ARC
  5
987
100
AcDbEntity
  8
RUNDUNGEN
100
AcDbCircle
 62
7
  6
CONTINUOUS
 10
118.8405233741
 20
346.54274842
 40
10.0
100
AcDbArc
 50
359.9986052441
 51
90.001967202
  0
ARC
  5
988
100
AcDbEntity
  8
RUNDUNGEN
100
AcDbCircle
 62
7
  6
CONTINUOUS
 10
118.8405233741
 20
331.54274842
 40
10.0
100
AcDbArc
 50
269.9979963934
 51
0.0014529978
  0
ARC
  5
989
100
AcDbEntity
  8
RUNDUNGEN
100
AcDbCircle
 62
7
  6
CONTINUOUS
 10
138.8405233741
 20
379.04274842
 40
5.0
100
AcDbArc
 50
90.0
 51
180.0
  0
ARC
  5
98A
100
AcDbEntity
  8
RUNDUNGEN
100
AcDbCircle
 62
7
  6
CONTINUOUS
 10
-82.7359705703
 20
368.04274842
 40
5.0
100
AcDbArc
 50
55.0
 51
90.0
  0
ARC
  5
98B
100
AcDbEntity
  8
RUNDUNGEN
100
AcDbCircle
 62
7
  6
CONTINUOUS
 10
-82.7359705703
 20
310.04274842
 40
5.0
100
AcDbArc
 50
270.0
 51
305.0
  0
ARC
  5
98C
100
AcDbEntity
  8
RUNDUNGEN
100
AcDbCircle
 62
7
  6
CONTINUOUS
 10
-73.8703906545
 20
374.04274842
 40
5.0
100
AcDbArc
 50
235.0
 51
270.0
  0
ARC
  5
98D
100
AcDbEntity
  8
RUNDUNGEN
100
AcDbCircle
 62
7
  6
CONTINUOUS
 10
-73.8703906545
 20
304.04274842
 40
5.0
100
AcDbArc
 50
90.0
 51
125.0
  0
ARC
  5
98E
100
AcDbEntity
  8
RUNDUNGEN
100
AcDbCircle
 62
7
  6
CONTINUOUS
 10
126.5218955159
 20
368.54274842
 40
1.0
100
AcDbArc
 50
90.0
 51
110.0
  0
ARC
  5
98F
100
AcDbEntity
  8
RUNDUNGEN
100
AcDbCircle
 62
7
  6
CONTINUOUS
 10
126.5218955159
 20
309.54274842
 40
1.0
100
AcDbArc
 50
250.0
 51
270.0
  0
ARC
  5
990
100
AcDbEntity
  8
RUNDUNGEN
100
AcDbCircle
 62
7
  6
CONTINUOUS
 10
124.7955028448
 20
370.04274842
 40
1.0
100
AcDbArc
 50
270.0
 51
290.0
  0
ARC
  5
991
100
AcDbEntity
  8
RUNDUNGEN
100
AcDbCircle
 62
7
  6
CONTINUOUS
 10
124.7955028448
 20
308.04274842
 40
1.0
100
AcDbArc
 50
70.0
 51
90.0
  0
ARC
  5
992
100
AcDbEntity
  8
BEZUGSACHSEN
100
AcDbCircle
 62
7
  6
CONTINUOUS
 10
154.8405233741
 20
24.04274842
 40
5.0
100
AcDbArc
 50
270.0
 51
360.0
  0
ARC
  5
993
100
AcDbEntity
  8
RUNDUNGEN
100
AcDbCircle
 62
7
  6
CONTINUOUS
 10
153.8405233741
 20
266.8438473128
 40
20.0
100
AcDbArc
 50
180.0005561758
 51
195.9347321576
  0
ARC
  5
994
100
AcDbEntity
  8
BEZUGSACHSEN
100
AcDbCircle
 62
7
  6
CONTINUOUS
 10
179.8405233741
 20
226.2416495272
 40
20.0
100
AcDbArc
 50
164.0545987126
 51
179.9999996104
  0
ARC
  5
995
100
AcDbEntity
  8
RUNDUNGEN
100
AcDbCircle
 62
7
  6
CONTINUOUS
 10
156.8405233741
 20
297.54274842
 40
2.0
100
AcDbArc
 50
270.0
 51
360.0
  0
ARC
  5
996
100
AcDbEntity
  8
RUNDUNGEN
100
AcDbCircle
 62
7
  6
CONTINUOUS
 10
354.8405233741
 20
346.54274842
 40
10.0
100
AcDbArc
 50
359.9986173747
 51
90.0012431731
  0
ARC
  5
997
100
AcDbEntity
  8
RUNDUNGEN
100
AcDbCircle
 62
7
  6
CONTINUOUS
 10
354.8405233741
 20
331.54274842
 40
10.0
100
AcDbArc
 50
269.9981881562
 51
0.0013938101
  0
ARC
  5
998
100
AcDbEntity
  8
RUNDUNGEN
100
AcDbCircle
 62
7
  6
CONTINUOUS
 10
184.8405233741
 20
331.54274842
 40
10.0
100
AcDbArc
 50
179.9985629636
 51
270.0014791705
  0
ARC
  5
999
100
AcDbEntity
  8
RUNDUNGEN
100
AcDbCircle
 62
7
  6
CONTINUOUS
 10
184.8405233741
 20
346.54274842
 40
10.0
100
AcDbArc
 50
89.9981041164
 51
180.0015136827
  0
ARC
  5
99A
100
AcDbEntity
  8
BEZUGSACHSEN
100
AcDbCircle
 62
7
  6
CONTINUOUS
 10
164.8405233741
 20
379.04274842
 40
5.0
100
AcDbArc
 50
0.0
 51
90.0
  0
ARC
  5
99B
100
AcDbEntity
  8
RUNDUNGEN
100
AcDbCircle
 62
7
  6
CONTINUOUS
 10
177.1591512323
 20
368.54274842
 40
1.0
100
AcDbArc
 50
70.0
 51
90.0
  0
ARC
  5
99C
100
AcDbEntity
  8
RUNDUNGEN
100
AcDbCircle
 62
7
  6
CONTINUOUS
 10
177.1591512323
 20
309.54274842
 40
1.0
100
AcDbArc
 50
270.0
 51
290.0
  0
ARC
  5
99D
100
AcDbEntity
  8
RUNDUNGEN
100
AcDbCircle
 62
7
  6
CONTINUOUS
 10
378.8126325583
 20
370.04274842
 40
1.0
100
AcDbArc
 50
270.0
 51
305.0
  0
ARC
  5
99E
100
AcDbEntity
  8
RUNDUNGEN
100
AcDbCircle
 62
7
  6
CONTINUOUS
 10
378.8126325583
 20
308.04274842
 40
1.0
100
AcDbArc
 50
55.0
 51
90.0
  0
ARC
  5
99F
100
AcDbEntity
  8
RUNDUNGEN
100
AcDbCircle
 62
7
  6
CONTINUOUS
 10
178.8855439034
 20
370.04274842
 40
1.0
100
AcDbArc
 50
250.0
 51
270.0
  0
ARC
  5
9A0
100
AcDbEntity
  8
RUNDUNGEN
100
AcDbCircle
 62
7
  6
CONTINUOUS
 10
178.8855439034
 20
308.04274842
 40
1.0
100
AcDbArc
 50
90.0
 51
110.0
  0
ARC
  5
9A1
100
AcDbEntity
  8
RUNDUNGEN
100
AcDbCircle
 62
7
  6
CONTINUOUS
 10
380.1573041394
 20
309.54274842
 40
1.0
100
AcDbArc
 50
235.0
 51
270.0
  0
ARC
  5
9A2
100
AcDbEntity
  8
RUNDUNGEN
100
AcDbCircle
 62
7
  6
CONTINUOUS
 10
380.1573041394
 20
368.54274842
 40
1.0
100
AcDbArc
 50
90.0
 51
125.0
  0
ARC
  5
9A3
100
AcDbEntity
  8
BEZUGSACHSEN
100
AcDbCircle
 62
7
  6
CONTINUOUS
 10
506.8405233741
 20
302.04274842
 40
5.0
100
AcDbArc
 50
180.0
 51
270.0
  0
ARC
  5
9A4
100
AcDbEntity
  8
RUNDUNGEN
100
AcDbCircle
 62
7
  6
CONTINUOUS
 10
497.8405233741
 20
319.04274842
 40
4.0
100
AcDbArc
 50
0.0000000001
 51
90.0
  0
ARC
  5
9A5
100
AcDbEntity
  8
RUNDUNGEN
100
AcDbCircle
 62
7
  6
CONTINUOUS
 10
400.9336320656
 20
311.54274842
 40
3.0
100
AcDbArc
 50
270.0
 51
354.0
  0
ARC
  5
9A6
100
AcDbEntity
  8
BEZUGSACHSEN
100
AcDbCircle
 62
7
  6
CONTINUOUS
 10
506.8405233741
 20
376.04274842
 40
5.0
100
AcDbArc
 50
90.0
 51
180.0
  0
ARC
  5
9A7
100
AcDbEntity
  8
RUNDUNGEN
100
AcDbCircle
 62
7
  6
CONTINUOUS
 10
506.8405233741
 20
376.04274842
 40
5.0
100
AcDbArc
 50
89.9999996772
 51
180.0000004487
  0
ARC
  5
9A8
100
AcDbEntity
  8
RUNDUNGEN
100
AcDbCircle
 62
7
  6
CONTINUOUS
 10
497.8405233741
 20
359.04274842
 40
4.0
100
AcDbArc
 50
270.0
 51
359.9999999999
  0
ARC
  5
9A9
100
AcDbEntity
  8
RUNDUNGEN
100
AcDbCircle
 62
7
  6
CONTINUOUS
 10
400.9336320656
 20
366.54274842
 40
3.0
100
AcDbArc
 50
6.0
 51
90.0
  0
ARC
  5
9AA
100
AcDbEntity
  8
BEZUGSACHSEN
100
AcDbCircle
 62
7
  6
CONTINUOUS
 10
627.7654960696
 20
339.04274842
 40
58.0
100
AcDbArc
 50
191.7767230368
 51
205.6119086218
  0
ARC
  5
9AB
100
AcDbEntity
  8
0
100
AcDbCircle
 62
7
  6
CONTINUOUS
 10
627.7654960696
 20
339.04274842
 40
58.0
100
AcDbArc
 50
154.3880913782
 51
168.2232769632
  0
ARC
  5
9AC
100
AcDbEntity
  8
BEZUGSACHSEN
100
AcDbCircle
 62
7
  6
CONTINUOUS
 10
560.8405233741
 20
307.9211371421
 40
10.8783887221
100
AcDbArc
 50
270.0
 51
316.0
  0
ARC
  5
9AD
100
AcDbEntity
  8
BEZUGSACHSEN
100
AcDbCircle
 62
7
  6
CONTINUOUS
 10
530.0905233741
 20
339.04274842
 40
9.45
100
AcDbArc
 50
90.0
 51
270.0
  0
ARC
  5
9AE
100
AcDbEntity
  8
BEZUGSACHSEN
100
AcDbCircle
 62
7
  6
CONTINUOUS
 10
569.1522202351
 20
310.9449916884
 40
6.9999999287
100
AcDbArc
 50
316.0000018023
 51
25.6119074598
  0
ARC
  5
9AF
100
AcDbEntity
  8
BEZUGSACHSEN
100
AcDbCircle
 62
7
  6
CONTINUOUS
 10
515.8405233741
 20
316.04274842
 40
5.0
100
AcDbArc
 50
89.9999992585
 51
270.0000005717
  0
ARC
  5
9B0
100
AcDbEntity
  8
BEZUGSACHSEN
100
AcDbCircle
 62
7
  6
CONTINUOUS
 10
534.8405233741
 20
316.04274842
 40
5.0
100
AcDbArc
 50
269.9999992584
 51
90.0000005717
  0
ARC
  5
9B1
100
AcDbEntity
  8
BEZUGSACHSEN
100
AcDbCircle
 62
7
  6
CONTINUOUS
 10
568.0495224947
 20
326.59274842
 40
3.0
100
AcDbArc
 50
11.7767230368
 51
90.0
  0
ARC
  5
9B2
100
AcDbEntity
  8
0
100
AcDbCircle
 62
7
  6
CONTINUOUS
 10
560.8405233741
 20
370.1643596979
 40
10.8783887221
100
AcDbArc
 50
44.0
 51
90.0
  0
ARC
  5
9B3
100
AcDbEntity
  8
BEZUGSACHSEN
100
AcDbCircle
 62
7
  6
CONTINUOUS
 10
569.1522202351
 20
367.1405051516
 40
6.9999999287
100
AcDbArc
 50
334.3880925402
 51
43.9999981977
  0
ARC
  5
9B4
100
AcDbEntity
  8
RUNDUNGEN
100
AcDbCircle
 62
7
  6
CONTINUOUS
 10
515.8405233741
 20
362.04274842
 40
5.0
100
AcDbArc
 50
89.9999994283
 51
270.0000007415
  0
ARC
  5
9B5
100
AcDbEntity
  8
RUNDUNGEN
100
AcDbCircle
 62
7
  6
CONTINUOUS
 10
534.8405233741
 20
362.04274842
 40
5.0
100
AcDbArc
 50
269.9999994283
 51
90.0000007416
  0
ARC
  5
9B6
100
AcDbEntity
  8
RUNDUNGEN
100
AcDbCircle
 62
7
  6
CONTINUOUS
 10
568.0495224947
 20
351.49274842
 40
3.0
100
AcDbArc
 50
270.0
 51
348.2232769632
  0
ARC
  5
9B7
100
AcDbEntity
  8
0
100
AcDbCircle
 62
7
  6
CONTINUOUS
 10
698.4060604492
 20
339.04274842
 40
58.0
100
AcDbArc
 50
338.4219716685
 51
348.2232769632
  0
ARC
  5
9B8
100
AcDbEntity
  8
BEZUGSACHSEN
100
AcDbCircle
 62
7
  6
CONTINUOUS
 10
698.4060604492
 20
339.04274842
 40
58.0
100
AcDbArc
 50
338.4219716685
 51
348.2232769632
  0
ARC
  5
9B9
100
AcDbEntity
  8
BEZUGSACHSEN
100
AcDbCircle
 62
7
  6
CONTINUOUS
 10
698.4060604492
 20
339.04274842
 40
58.0
100
AcDbArc
 50
11.7767230368
 51
21.5780283315
  0
ARC
  5
9BA
100
AcDbEntity
  8
RUNDUNGEN
100
AcDbCircle
 62
7
  6
CONTINUOUS
 10
739.6310331447
 20
228.2582430513
 40
20.0
100
AcDbArc
 50
359.9999854824
 51
4.4925753601
  0
ARC
  5
9BB
100
AcDbEntity
  8
RUNDUNGEN
100
AcDbCircle
 62
7
  6
CONTINUOUS
 10
774.3810331447
 20
264.8272537887
 40
20.0
100
AcDbArc
 50
355.5074216214
 51
360.0
  0
ARC
  5
9BC
100
AcDbEntity
  8
BEZUGSACHSEN
100
AcDbCircle
 62
7
  6
CONTINUOUS
 10
751.8810331447
 20
295.043458653
 40
5.0
100
AcDbArc
 50
0.0
 51
5.7308097657
  0
ARC
  5
9BD
100
AcDbEntity
  8
RUNDUNGEN
100
AcDbCircle
 62
7
  6
CONTINUOUS
 10
751.8810331447
 20
295.043458653
 40
5.0
100
AcDbArc
 50
0.0
 51
23.5865352848
  0
ARC
  5
9BE
100
AcDbEntity
  8
BEZUGSACHSEN
100
AcDbCircle
 62
7
  6
CONTINUOUS
 10
755.1310331447
 20
300.04274842
 40
3.0
100
AcDbArc
 50
180.0
 51
270.0
  0
ARC
  5
9BF
100
AcDbEntity
  8
0
100
AcDbCircle
 62
7
  6
CONTINUOUS
 10
750.6310331447
 20
339.04274842
 40
4.0
100
AcDbArc
 50
67.9291946185
 51
292.0708053815
  0
ARC
  5
9C0
100
AcDbEntity
  8
RUNDUNGEN
100
AcDbCircle
 62
7
  6
CONTINUOUS
 10
758.1220340241
 20
326.59274842
 40
3.0
100
AcDbArc
 50
90.0
 51
168.2232769605
  0
ARC
  5
9C1
100
AcDbEntity
  8
BEZUGSACHSEN
100
AcDbCircle
 62
7
  6
CONTINUOUS
 10
758.1220340241
 20
326.59274842
 40
3.0
100
AcDbArc
 50
90.0
 51
168.2232769632
  0
ARC
  5
9C2
100
AcDbEntity
  8
BEZUGSACHSEN
100
AcDbCircle
 62
7
  6
CONTINUOUS
 10
755.1310331447
 20
316.6089018329
 40
3.0
100
AcDbArc
 50
158.4219716685
 51
180.0
  0
ARC
  5
9C3
100
AcDbEntity
  8
BEZUGSACHSEN
100
AcDbCircle
 62
7
  6
CONTINUOUS
 10
755.1310331447
 20
326.59274842
 40
3.0
100
AcDbArc
 50
90.0
 51
180.0
  0
ARC
  5
9C4
100
AcDbEntity
  8
BEZUGSACHSEN
100
AcDbCircle
 62
7
  6
CONTINUOUS
 10
758.1220340241
 20
351.49274842
 40
3.0
100
AcDbArc
 50
191.7767230368
 51
270.0
  0
ARC
  5
9C5
100
AcDbEntity
  8
BEZUGSACHSEN
100
AcDbCircle
 62
7
  6
CONTINUOUS
 10
755.1310331447
 20
351.49274842
 40
3.0
100
AcDbArc
 50
180.0
 51
270.0
  0
ARC
  5
9C6
100
AcDbEntity
  8
BEZUGSACHSEN
100
AcDbCircle
 62
7
  6
CONTINUOUS
 10
755.1310331447
 20
361.4768647458
 40
3.0
100
AcDbArc
 50
180.0051516275
 51
201.5828184404
  0
ARC
  5
9C7
100
AcDbEntity
  8
BEZUGSACHSEN
100
AcDbCircle
 62
7
  6
CONTINUOUS
 10
755.1310331447
 20
378.04274842
 40
3.0
100
AcDbArc
 50
90.0
 51
180.0
  0
ARC
  5
9C8
100
AcDbEntity
  8
BEZUGSACHSEN
100
AcDbCircle
 62
7
  6
CONTINUOUS
 10
775.6310331447
 20
35.04274842
 40
16.0
100
AcDbArc
 50
180.0
 51
360.0
  0
ARC
  5
9C9
100
AcDbEntity
  8
RUNDUNGEN
100
AcDbCircle
 62
7
  6
CONTINUOUS
 10
775.6310331447
 20
35.04274842
 40
16.0
100
AcDbArc
 50
180.0
 51
360.0
  0
ARC
  5
9CA
100
AcDbEntity
  8
RUNDUNGEN
100
AcDbCircle
 62
7
  6
CONTINUOUS
 10
811.6310331447
 20
228.2582430513
 40
20.0
100
AcDbArc
 50
175.5074247107
 51
180.0000141297
  0
ARC
  5
9CB
100
AcDbEntity
  8
BEZUGSACHSEN
100
AcDbCircle
 62
7
  6
CONTINUOUS
 10
776.8810331447
 20
264.8272537887
 40
20.0
100
AcDbArc
 50
180.000079345
 51
184.4925777977
  0
ARC
  5
9CC
100
AcDbEntity
  8
RUNDUNGEN
100
AcDbCircle
 62
7
  6
CONTINUOUS
 10
776.8810331447
 20
264.8272537887
 40
20.0
100
AcDbArc
 50
180.000079345
 51
184.4925777977
  0
ARC
  5
9CD
100
AcDbEntity
  8
RUNDUNGEN
100
AcDbCircle
 62
7
  6
CONTINUOUS
 10
799.3810331447
 20
295.043458653
 40
5.0
100
AcDbArc
 50
156.4134647152
 51
180.0
  0
ARC
  5
9CE
100
AcDbEntity
  8
BEZUGSACHSEN
100
AcDbCircle
 62
7
  6
CONTINUOUS
 10
799.3810331447
 20
295.043458653
 40
5.0
100
AcDbArc
 50
174.2691902343
 51
180.0
  0
ARC
  5
9CF
100
AcDbEntity
  8
RUNDUNGEN
100
AcDbCircle
 62
7
  6
CONTINUOUS
 10
796.1310331447
 20
300.04274842
 40
3.0
100
AcDbArc
 50
270.0
 51
360.0
  0
ARC
  5
9D0
100
AcDbEntity
  8
RUNDUNGEN
100
AcDbCircle
 62
7
  6
CONTINUOUS
 10
775.6310331447
 20
339.04274842
 40
45.0
100
AcDbArc
 50
68.9624055579
 51
111.0375884694
  0
ARC
  5
9D1
100
AcDbEntity
  8
0
100
AcDbCircle
 62
7
  6
CONTINUOUS
 10
775.6310331447
 20
339.04274842
 40
45.0
100
AcDbArc
 50
121.4827763863
 51
238.5125126652
  0
ARC
  5
9D2
100
AcDbEntity
  8
RUNDUNGEN
100
AcDbCircle
 62
7
  6
CONTINUOUS
 10
775.6310331447
 20
339.04274842
 40
45.0
100
AcDbArc
 50
301.4847490362
 51
58.5169829483
  0
ARC
  5
9D3
100
AcDbEntity
  8
RUNDUNGEN
100
AcDbCircle
 62
7
  6
CONTINUOUS
 10
775.6310331447
 20
339.04274842
 40
45.0
100
AcDbArc
 50
121.4860999828
 51
238.5152509638
  0
ARC
  5
9D4
100
AcDbEntity
  8
RUNDUNGEN
100
AcDbCircle
 62
7
  6
CONTINUOUS
 10
775.6310331447
 20
339.04274842
 40
35.0
100
AcDbArc
 50
132.1976458532
 51
227.8023540144
  0
ARC
  5
9D5
100
AcDbEntity
  8
RUNDUNGEN
100
AcDbCircle
 62
7
  6
CONTINUOUS
 10
775.6310331447
 20
339.04274842
 40
35.0
100
AcDbArc
 50
312.1976459864
 51
47.8023541512
  0
ARC
  5
9D6
100
AcDbEntity
  8
0
100
AcDbCircle
 62
7
  6
CONTINUOUS
 10
800.6310331447
 20
339.04274842
 40
4.0
100
AcDbArc
 50
247.9291946185
 51
112.0708053815
  0
ARC
  5
9D7
100
AcDbEntity
  8
RUNDUNGEN
100
AcDbCircle
 62
7
  6
CONTINUOUS
 10
796.1310331447
 20
326.59274842
 40
3.0
100
AcDbArc
 50
0.0
 51
90.0
  0
ARC
  5
9D8
100
AcDbEntity
  8
RUNDUNGEN
100
AcDbCircle
 62
7
  6
CONTINUOUS
 10
796.1310331447
 20
316.6089018329
 40
3.0
100
AcDbArc
 50
0.0051516275
 51
21.5780283315
  0
ARC
  5
9D9
100
AcDbEntity
  8
RUNDUNGEN
100
AcDbCircle
 62
7
  6
CONTINUOUS
 10
793.1400322652
 20
326.59274842
 40
3.0
100
AcDbArc
 50
11.7767230368
 51
90.0
  0
ARC
  5
9DA
100
AcDbEntity
  8
BEZUGSACHSEN
100
AcDbCircle
 62
7
  6
CONTINUOUS
 10
793.1400322652
 20
351.49274842
 40
3.0
100
AcDbArc
 50
270.0
 51
348.2232769632
  0
ARC
  5
9DB
100
AcDbEntity
  8
BEZUGSACHSEN
100
AcDbCircle
 62
7
  6
CONTINUOUS
 10
796.1310331447
 20
378.04274842
 40
3.0
100
AcDbArc
 50
0.0
 51
90.0
  0
ARC
  5
9DC
100
AcDbEntity
  8
BEZUGSACHSEN
100
AcDbCircle
 62
7
  6
CONTINUOUS
 10
796.1310331447
 20
361.4765950072
 40
3.0
100
AcDbArc
 50
338.4219716685
 51
360.0
  0
ARC
  5
9DD
100
AcDbEntity
  8
BEZUGSACHSEN
100
AcDbCircle
 62
7
  6
CONTINUOUS
 10
796.1310331447
 20
351.49274842
 40
3.0
100
AcDbArc
 50
270.0
 51
360.0
  0
ARC
  5
9DE
100
AcDbEntity
  8
RUNDUNGEN
100
AcDbCircle
 62
7
  6
CONTINUOUS
 10
852.8560058402
 20
339.04274842
 40
58.0
100
AcDbArc
 50
191.7767230368
 51
201.5780283315
  0
ARC
  5
9DF
100
AcDbEntity
  8
BEZUGSACHSEN
100
AcDbCircle
 62
7
  6
CONTINUOUS
 10
852.8560058402
 20
339.04274842
 40
58.0
100
AcDbArc
 50
158.4219716685
 51
168.2232769632
  0
ARC
  5
9E0
100
AcDbEntity
  8
RUNDUNGEN
100
AcDbCircle
 62
7
  6
CONTINUOUS
 10
138.8405233741
 20
-154.3039309151
 40
5.0
100
AcDbArc
 50
180.0
 51
270.0
  0
ARC
  5
9E1
100
AcDbEntity
  8
RUNDUNGEN
100
AcDbCircle
 62
7
  6
CONTINUOUS
 10
-194.1594766259
 20
-134.3039309151
 40
4.0
100
AcDbArc
 50
90.0
 51
180.0
  0
ARC
  5
9E2
100
AcDbEntity
  8
BEZUGSACHSEN
100
AcDbCircle
 62
7
  6
CONTINUOUS
 10
-201.1594766259
 20
-134.8039309151
 40
3.0
100
AcDbArc
 50
270.0
 51
360.0
  0
ARC
  5
9E3
100
AcDbEntity
  8
RUNDUNGEN
100
AcDbCircle
 62
7
  6
CONTINUOUS
 10
-96.6594766259
 20
-145.3039309151
 40
3.0
100
AcDbArc
 50
180.0
 51
270.0
  0
ARC
  5
9E4
100
AcDbEntity
  8
RUNDUNGEN
100
AcDbCircle
 62
7
  6
CONTINUOUS
 10
-91.1594766259
 20
-145.3039309151
 40
3.0
100
AcDbArc
 50
270.0
 51
331.1704993571
  0
ARC
  5
9E5
100
AcDbEntity
  8
RUNDUNGEN
100
AcDbCircle
 62
7
  6
CONTINUOUS
 10
131.8405233741
 20
-141.8039309151
 40
3.0
100
AcDbArc
 50
180.0
 51
270.0
  0
ARC
  5
9E6
100
AcDbEntity
  8
RUNDUNGEN
100
AcDbCircle
 62
7
  6
CONTINUOUS
 10
-140.1594766259
 20
-146.8039309151
 40
2.5
100
AcDbArc
 50
180.0
 51
270.0
  0
ARC
  5
9E7
100
AcDbEntity
  8
RUNDUNGEN
100
AcDbCircle
 62
7
  6
CONTINUOUS
 10
-137.6594766259
 20
-148.3039309151
 40
1.0
100
AcDbArc
 50
270.0
 51
360.0
  0
ARC
  5
9E8
100
AcDbEntity
  8
RUNDUNGEN
100
AcDbCircle
 62
7
  6
CONTINUOUS
 10
138.8405233741
 20
-74.3039309151
 40
5.0
100
AcDbArc
 50
90.0
 51
180.0
  0
ARC
  5
9E9
100
AcDbEntity
  8
RUNDUNGEN
100
AcDbCircle
 62
7
  6
CONTINUOUS
 10
-82.7359705703
 20
-85.3039309151
 40
5.0
100
AcDbArc
 50
55.0
 51
90.0
  0
ARC
  5
9EA
100
AcDbEntity
  8
RUNDUNGEN
100
AcDbCircle
 62
7
  6
CONTINUOUS
 10
-73.8703906545
 20
-79.3039309151
 40
5.0
100
AcDbArc
 50
235.0
 51
270.0
  0
ARC
  5
9EB
100
AcDbEntity
  8
RUNDUNGEN
100
AcDbCircle
 62
7
  6
CONTINUOUS
 10
-194.1594766259
 20
-94.3039309151
 40
4.0
100
AcDbArc
 50
180.0
 51
270.0
  0
ARC
  5
9EC
100
AcDbEntity
  8
BEZUGSACHSEN
100
AcDbCircle
 62
7
  6
CONTINUOUS
 10
-201.1594766259
 20
-93.8039309151
 40
3.0
100
AcDbArc
 50
0.0
 51
90.0
  0
ARC
  5
9ED
100
AcDbEntity
  8
RUNDUNGEN
100
AcDbCircle
 62
7
  6
CONTINUOUS
 10
-96.6594766259
 20
-83.3039309151
 40
3.0
100
AcDbArc
 50
90.0
 51
180.0
  0
ARC
  5
9EE
100
AcDbEntity
  8
RUNDUNGEN
100
AcDbCircle
 62
7
  6
CONTINUOUS
 10
-140.1594766259
 20
-81.8039309151
 40
2.5
100
AcDbArc
 50
90.0
 51
180.0
  0
ARC
  5
9EF
100
AcDbEntity
  8
RUNDUNGEN
100
AcDbCircle
 62
7
  6
CONTINUOUS
 10
-137.6594766259
 20
-80.3039309151
 40
1.0
100
AcDbArc
 50
0.0
 51
90.0
  0
ARC
  5
9F0
100
AcDbEntity
  8
RUNDUNGEN
100
AcDbCircle
 62
7
  6
CONTINUOUS
 10
126.5218955159
 20
-84.8039309151
 40
1.0
100
AcDbArc
 50
90.0
 51
110.0
  0
ARC
  5
9F1
100
AcDbEntity
  8
RUNDUNGEN
100
AcDbCircle
 62
7
  6
CONTINUOUS
 10
124.7955028448
 20
-83.3039309151
 40
1.0
100
AcDbArc
 50
270.0
 51
290.0
  0
ARC
  5
9F2
100
AcDbEntity
  8
BEZUGSACHSEN
100
AcDbCircle
 62
7
  6
CONTINUOUS
 10
164.8405233741
 20
-154.3039309151
 40
5.0
100
AcDbArc
 50
270.0
 51
360.0
  0
ARC
  5
9F3
100
AcDbEntity
  8
RUNDUNGEN
100
AcDbCircle
 62
7
  6
CONTINUOUS
 10
497.8405233741
 20
-134.3039309151
 40
4.0
100
AcDbArc
 50
0.0
 51
90.0
  0
ARC
  5
9F4
100
AcDbEntity
  8
RUNDUNGEN
100
AcDbCircle
 62
7
  6
CONTINUOUS
 10
504.8405233741
 20
-134.8039309151
 40
3.0
100
AcDbArc
 50
180.0
 51
270.0
  0
ARC
  5
9F5
100
AcDbEntity
  8
RUNDUNGEN
100
AcDbCircle
 62
7
  6
CONTINUOUS
 10
400.9336320656
 20
-141.8039309151
 40
3.0
100
AcDbArc
 50
270.0
 51
354.0
  0
ARC
  5
9F6
100
AcDbEntity
  8
RUNDUNGEN
100
AcDbCircle
 62
7
  6
CONTINUOUS
 10
367.8405233741
 20
-141.3039309151
 40
3.0
100
AcDbArc
 50
180.0
 51
270.0
  0
ARC
  5
9F7
100
AcDbEntity
  8
RUNDUNGEN
100
AcDbCircle
 62
7
  6
CONTINUOUS
 10
171.8405233741
 20
-141.8039309151
 40
3.0
100
AcDbArc
 50
270.0
 51
360.0
  0
ARC
  5
9F8
100
AcDbEntity
  8
RUNDUNGEN
100
AcDbCircle
 62
7
  6
CONTINUOUS
 10
380.1573041394
 20
-143.8039309151
 40
1.0
100
AcDbArc
 50
235.0
 51
270.0
  0
ARC
  5
9F9
100
AcDbEntity
  8
RUNDUNGEN
100
AcDbCircle
 62
7
  6
CONTINUOUS
 10
378.8126325583
 20
-145.3039309151
 40
1.0
100
AcDbArc
 50
55.0
 51
90.0
  0
ARC
  5
9FA
100
AcDbEntity
  8
BEZUGSACHSEN
100
AcDbCircle
 62
7
  6
CONTINUOUS
 10
164.8405233741
 20
-74.3039309151
 40
5.0
100
AcDbArc
 50
0.0
 51
90.0
  0
ARC
  5
9FB
100
AcDbEntity
  8
RUNDUNGEN
100
AcDbCircle
 62
7
  6
CONTINUOUS
 10
497.8405233741
 20
-94.3039309151
 40
4.0
100
AcDbArc
 50
270.0
 51
360.0
  0
ARC
  5
9FC
100
AcDbEntity
  8
BEZUGSACHSEN
100
AcDbCircle
 62
7
  6
CONTINUOUS
 10
504.8405233741
 20
-93.8039309151
 40
3.0
100
AcDbArc
 50
90.0
 51
180.0
  0
ARC
  5
9FD
100
AcDbEntity
  8
RUNDUNGEN
100
AcDbCircle
 62
7
  6
CONTINUOUS
 10
400.9336320656
 20
-86.8039309151
 40
3.0
100
AcDbArc
 50
6.0
 51
90.0
  0
ARC
  5
9FE
100
AcDbEntity
  8
RUNDUNGEN
100
AcDbCircle
 62
7
  6
CONTINUOUS
 10
380.1573041394
 20
-84.8039309151
 40
1.0
100
AcDbArc
 50
90.0
 51
125.0
  0
ARC
  5
9FF
100
AcDbEntity
  8
RUNDUNGEN
100
AcDbCircle
 62
7
  6
CONTINUOUS
 10
177.1591512323
 20
-84.8039309151
 40
1.0
100
AcDbArc
 50
70.0
 51
90.0
  0
ARC
  5
A00
100
AcDbEntity
  8
RUNDUNGEN
100
AcDbCircle
 62
7
  6
CONTINUOUS
 10
378.8126325583
 20
-83.3039309151
 40
1.0
100
AcDbArc
 50
270.0
 51
305.0
  0
ARC
  5
A01
100
AcDbEntity
  8
RUNDUNGEN
100
AcDbCircle
 62
7
  6
CONTINUOUS
 10
178.8855439034
 20
-83.3039309151
 40
1.0
100
AcDbArc
 50
250.0
 51
270.0
  0
ARC
  5
A02
100
AcDbEntity
  8
RUNDUNGEN
100
AcDbCircle
 62
7
  6
CONTINUOUS
 10
-82.7359705703
 20
553.6295414486
 40
5.0
100
AcDbArc
 50
270.0
 51
305.0
  0
ARC
  5
A03
100
AcDbEntity
  8
RUNDUNGEN
100
AcDbCircle
 62
7
  6
CONTINUOUS
 10
-73.8703906545
 20
547.6295414486
 40
5.0
100
AcDbArc
 50
90.0
 51
125.0
  0
ARC
  5
A04
100
AcDbEntity
  8
RUNDUNGEN
100
AcDbCircle
 62
7
  6
CONTINUOUS
 10
-96.6594766259
 20
551.6295414486
 40
3.0
100
AcDbArc
 50
180.0
 51
270.0
  0
ARC
  5
A05
100
AcDbEntity
  8
RUNDUNGEN
100
AcDbCircle
 62
7
  6
CONTINUOUS
 10
-140.1594766259
 20
550.1295414486
 40
2.5
100
AcDbArc
 50
180.0
 51
270.0
  0
ARC
  5
A06
100
AcDbEntity
  8
RUNDUNGEN
100
AcDbCircle
 62
7
  6
CONTINUOUS
 10
-137.6594766259
 20
548.6295414486
 40
1.0
100
AcDbArc
 50
270.0
 51
360.0
  0
ARC
  5
A07
100
AcDbEntity
  8
RUNDUNGEN
100
AcDbCircle
 62
7
  6
CONTINUOUS
 10
-194.1594766259
 20
562.6295414486
 40
4.0
100
AcDbArc
 50
90.0
 51
180.0
  0
ARC
  5
A08
100
AcDbEntity
  8
BEZUGSACHSEN
100
AcDbCircle
 62
7
  6
CONTINUOUS
 10
-201.1594766259
 20
562.1295414486
 40
3.0
100
AcDbArc
 50
270.0
 51
360.0
  0
ARC
  5
A09
100
AcDbEntity
  8
RUNDUNGEN
100
AcDbCircle
 62
7
  6
CONTINUOUS
 10
138.8405233741
 20
542.6295414486
 40
5.0
100
AcDbArc
 50
180.0
 51
270.0
  0
ARC
  5
A0A
100
AcDbEntity
  8
RUNDUNGEN
100
AcDbCircle
 62
7
  6
CONTINUOUS
 10
126.5218955159
 20
553.1295414486
 40
1.0
100
AcDbArc
 50
250.0
 51
270.0
  0
ARC
  5
A0B
100
AcDbEntity
  8
RUNDUNGEN
100
AcDbCircle
 62
7
  6
CONTINUOUS
 10
124.7955028448
 20
551.6295414486
 40
1.0
100
AcDbArc
 50
70.0
 51
90.0
  0
ARC
  5
A0C
100
AcDbEntity
  8
RUNDUNGEN
100
AcDbCircle
 62
7
  6
CONTINUOUS
 10
143.8726145826
 20
573.8804799186
 40
10.0320912524
100
AcDbArc
 50
180.0053598372
 51
180.419511309
  0
ARC
  5
A0D
100
AcDbEntity
  8
RUNDUNGEN
100
AcDbCircle
 62
7
  6
CONTINUOUS
 10
143.8658210077
 20
573.8804245782
 40
10.0252974544
100
AcDbArc
 50
180.4194793168
 51
181.1901539624
  0
ARC
  5
A0E
100
AcDbEntity
  8
RUNDUNGEN
100
AcDbCircle
 62
7
  6
CONTINUOUS
 10
143.8551643658
 20
573.8801911409
 40
10.0146382629
100
AcDbArc
 50
181.1900850678
 51
182.7037809915
  0
ARC
  5
A0F
100
AcDbEntity
  8
RUNDUNGEN
100
AcDbCircle
 62
7
  6
CONTINUOUS
 10
143.842873419
 20
573.8872072123
 40
10.0080128358
100
AcDbArc
 50
251.6929364807
 51
254.7166914265
  0
ARC
  5
A10
100
AcDbEntity
  8
RUNDUNGEN
100
AcDbCircle
 62
7
  6
CONTINUOUS
 10
143.8464475176
 20
573.8798062114
 40
10.0059129477
100
AcDbArc
 50
182.8936571594
 51
183.3169261714
  0
ARC
  5
A11
100
AcDbEntity
  8
RUNDUNGEN
100
AcDbCircle
 62
7
  6
CONTINUOUS
 10
143.8405232778
 20
573.8795413522
 40
9.9999999037
100
AcDbArc
 50
180.0
 51
270.0
  0
ARC
  5
A12
100
AcDbEntity
  8
RUNDUNGEN
100
AcDbCircle
 62
7
  6
CONTINUOUS
 10
143.8388389917
 20
573.8727367385
 40
9.9929906786
100
AcDbArc
 50
254.7171354644
 51
255.0991663795
  0
ARC
  5
A13
100
AcDbEntity
  8
RUNDUNGEN
100
AcDbCircle
 62
7
  6
CONTINUOUS
 10
148.84041138
 20
571.6294294545
 40
4.9998880059
100
AcDbArc
 50
179.9987166137
 51
270.0012833863
  0
ARC
  5
A14
100
AcDbEntity
  8
RUNDUNGEN
100
AcDbCircle
 62
7
  6
CONTINUOUS
 10
143.8406362858
 20
591.3794296106
 40
10.000111838
100
AcDbArc
 50
90.0006474812
 51
179.5458706349
  0
ARC
  5
A15
100
AcDbEntity
  8
RUNDUNGEN
100
AcDbCircle
 62
7
  6
CONTINUOUS
 10
138.8405233741
 20
622.6295414486
 40
5.0
100
AcDbArc
 50
90.0
 51
180.0
  0
ARC
  5
A16
100
AcDbEntity
  8
RUNDUNGEN
100
AcDbCircle
 62
7
  6
CONTINUOUS
 10
148.8405233741
 20
593.6295414486
 40
5.0
100
AcDbArc
 50
90.0
 51
180.0
  0
ARC
  5
A17
100
AcDbEntity
  8
RUNDUNGEN
100
AcDbCircle
 62
7
  6
CONTINUOUS
 10
-194.1594766259
 20
602.6295414486
 40
4.0
100
AcDbArc
 50
180.0
 51
270.0
  0
ARC
  5
A18
100
AcDbEntity
  8
RUNDUNGEN
100
AcDbCircle
 62
7
  6
CONTINUOUS
 10
-201.1594766259
 20
603.1295414486
 40
3.0
100
AcDbArc
 50
0.0
 51
90.0
  0
ARC
  5
A19
100
AcDbEntity
  8
RUNDUNGEN
100
AcDbCircle
 62
7
  6
CONTINUOUS
 10
-96.6594766259
 20
613.6295414486
 40
3.0
100
AcDbArc
 50
90.0
 51
180.0
  0
ARC
  5
A1A
100
AcDbEntity
  8
RUNDUNGEN
100
AcDbCircle
 62
7
  6
CONTINUOUS
 10
-91.1594766259
 20
613.6295414486
 40
3.0
100
AcDbArc
 50
28.8262285764
 51
90.0
  0
ARC
  5
A1B
100
AcDbEntity
  8
RUNDUNGEN
100
AcDbCircle
 62
7
  6
CONTINUOUS
 10
131.8405233741
 20
610.1295414486
 40
3.0
100
AcDbArc
 50
90.0
 51
180.0
  0
ARC
  5
A1C
100
AcDbEntity
  8
RUNDUNGEN
100
AcDbCircle
 62
7
  6
CONTINUOUS
 10
-140.1594766259
 20
615.1295414486
 40
2.5
100
AcDbArc
 50
90.0
 51
180.0
  0
ARC
  5
A1D
100
AcDbEntity
  8
RUNDUNGEN
100
AcDbCircle
 62
7
  6
CONTINUOUS
 10
-137.6594766259
 20
616.6295414486
 40
1.0
100
AcDbArc
 50
0.0
 51
90.0
  0
ARC
  5
A1E
100
AcDbEntity
  8
BEZUGSACHSEN
100
AcDbCircle
 62
7
  6
CONTINUOUS
 10
159.8360397747
 20
573.8900028999
 40
10.0113577116
100
AcDbArc
 50
289.4754558708
 51
291.9883013176
  0
ARC
  5
A1F
100
AcDbEntity
  8
BEZUGSACHSEN
100
AcDbCircle
 62
7
  6
CONTINUOUS
 10
159.8395535526
 20
573.8859998438
 40
10.0065282666
100
AcDbArc
 50
277.7374664766
 51
278.4635726749
  0
ARC
  5
A20
100
AcDbEntity
  8
BEZUGSACHSEN
100
AcDbCircle
 62
7
  6
CONTINUOUS
 10
159.8403812215
 20
573.8846808922
 40
10.0051401572
100
AcDbArc
 50
270.8696705452
 51
271.4781605223
  0
ARC
  5
A21
100
AcDbEntity
  8
BEZUGSACHSEN
100
AcDbCircle
 62
7
  6
CONTINUOUS
 10
159.8390423859
 20
573.8841870948
 40
10.0048704768
100
AcDbArc
 50
285.3250386298
 51
288.307070696
  0
ARC
  5
A22
100
AcDbEntity
  8
BEZUGSACHSEN
100
AcDbCircle
 62
7
  6
CONTINUOUS
 10
159.8379021472
 20
573.8831733913
 40
10.0044536439
100
AcDbArc
 50
299.7470007745
 51
302.2436755349
  0
ARC
  5
A23
100
AcDbEntity
  8
BEZUGSACHSEN
100
AcDbCircle
 62
7
  6
CONTINUOUS
 10
159.8404882157
 20
573.8767779835
 40
9.9972365349
100
AcDbArc
 50
270.0001372951
 51
359.5817501162
  0
ARC
  5
A24
100
AcDbEntity
  8
BEZUGSACHSEN
100
AcDbCircle
 62
7
  6
CONTINUOUS
 10
159.8438819903
 20
573.8702967163
 40
9.9901644447
100
AcDbArc
 50
289.0101592041
 51
289.4707333919
  0
ARC
  5
A25
100
AcDbEntity
  8
BEZUGSACHSEN
100
AcDbCircle
 62
7
  6
CONTINUOUS
 10
164.8405233741
 20
542.6295414486
 40
5.0
100
AcDbArc
 50
270.0
 51
360.0
  0
ARC
  5
A26
100
AcDbEntity
  8
BEZUGSACHSEN
100
AcDbCircle
 62
7
  6
CONTINUOUS
 10
154.8406353682
 20
571.6294294545
 40
4.9998880059
100
AcDbArc
 50
269.9987166137
 51
0.0012833863
  0
ARC
  5
A27
100
AcDbEntity
  8
RUNDUNGEN
100
AcDbCircle
 62
7
  6
CONTINUOUS
 10
497.8405233741
 20
562.6295414486
 40
4.0
100
AcDbArc
 50
0.0
 51
90.0
  0
ARC
  5
A28
100
AcDbEntity
  8
BEZUGSACHSEN
100
AcDbCircle
 62
7
  6
CONTINUOUS
 10
504.8405233741
 20
562.1295414486
 40
3.0
100
AcDbArc
 50
180.0
 51
270.0
  0
ARC
  5
A29
100
AcDbEntity
  8
RUNDUNGEN
100
AcDbCircle
 62
7
  6
CONTINUOUS
 10
400.9336320656
 20
555.1295414486
 40
3.0
100
AcDbArc
 50
270.0
 51
354.0
  0
ARC
  5
A2A
100
AcDbEntity
  8
RUNDUNGEN
100
AcDbCircle
 62
7
  6
CONTINUOUS
 10
380.1573041394
 20
553.1295414486
 40
1.0
100
AcDbArc
 50
235.0
 51
270.0
  0
ARC
  5
A2B
100
AcDbEntity
  8
RUNDUNGEN
100
AcDbCircle
 62
7
  6
CONTINUOUS
 10
177.1591512323
 20
553.1295414486
 40
1.0
100
AcDbArc
 50
270.0
 51
290.0
  0
ARC
  5
A2C
100
AcDbEntity
  8
RUNDUNGEN
100
AcDbCircle
 62
7
  6
CONTINUOUS
 10
378.8126325583
 20
551.6295414486
 40
1.0
100
AcDbArc
 50
55.0
 51
90.0
  0
ARC
  5
A2D
100
AcDbEntity
  8
RUNDUNGEN
100
AcDbCircle
 62
7
  6
CONTINUOUS
 10
178.8855439034
 20
551.6295414486
 40
1.0
100
AcDbArc
 50
90.0
 51
110.0
  0
ARC
  5
A2E
100
AcDbEntity
  8
BEZUGSACHSEN
100
AcDbCircle
 62
7
  6
CONTINUOUS
 10
159.8404104618
 20
591.3794296085
 40
10.0001118401
100
AcDbArc
 50
0.4536590993
 51
89.9993525156
  0
ARC
  5
A2F
100
AcDbEntity
  8
BEZUGSACHSEN
100
AcDbCircle
 62
7
  6
CONTINUOUS
 10
154.8405233741
 20
593.6295414486
 40
5.0
100
AcDbArc
 50
0.0
 51
90.0
  0
ARC
  5
A30
100
AcDbEntity
  8
BEZUGSACHSEN
100
AcDbCircle
 62
7
  6
CONTINUOUS
 10
164.8405233741
 20
622.6295414486
 40
5.0
100
AcDbArc
 50
0.0
 51
90.0
  0
ARC
  5
A31
100
AcDbEntity
  8
RUNDUNGEN
100
AcDbCircle
 62
7
  6
CONTINUOUS
 10
497.8405233741
 20
602.6295414486
 40
4.0
100
AcDbArc
 50
270.0
 51
360.0
  0
ARC
  5
A32
100
AcDbEntity
  8
BEZUGSACHSEN
100
AcDbCircle
 62
7
  6
CONTINUOUS
 10
504.8405233741
 20
603.1295414486
 40
3.0
100
AcDbArc
 50
90.0
 51
180.0
  0
ARC
  5
A33
100
AcDbEntity
  8
RUNDUNGEN
100
AcDbCircle
 62
7
  6
CONTINUOUS
 10
400.9336320656
 20
610.1295414486
 40
3.0
100
AcDbArc
 50
6.0
 51
90.0
  0
ARC
  5
A34
100
AcDbEntity
  8
RUNDUNGEN
100
AcDbCircle
 62
7
  6
CONTINUOUS
 10
367.8405233741
 20
609.6295414486
 40
3.0
100
AcDbArc
 50
90.0
 51
180.0
  0
ARC
  5
A35
100
AcDbEntity
  8
RUNDUNGEN
100
AcDbCircle
 62
7
  6
CONTINUOUS
 10
171.8405233741
 20
610.1295414486
 40
3.0
100
AcDbArc
 50
0.0
 51
90.0
  0
ARC
  5
A36
100
AcDbEntity
  8
RUNDUNGEN
100
AcDbCircle
 62
7
  6
CONTINUOUS
 10
380.1573041394
 20
612.1295414486
 40
1.0
100
AcDbArc
 50
90.0
 51
125.0
  0
ARC
  5
A37
100
AcDbEntity
  8
RUNDUNGEN
100
AcDbCircle
 62
7
  6
CONTINUOUS
 10
378.8126325583
 20
613.6295414486
 40
1.0
100
AcDbArc
 50
270.0
 51
305.0
  0
ARC
  5
A38
100
AcDbEntity
  8
BEZUGSACHSEN
100
AcDbCircle
 62
7
  6
CONTINUOUS
 10
1420.1492350999
 20
24.04274842
 40
5.0
100
AcDbArc
 50
180.0
 51
270.0
  0
ARC
  5
A39
100
AcDbEntity
  8
BEZUGSACHSEN
100
AcDbCircle
 62
7
  6
CONTINUOUS
 10
1068.1492350999
 20
302.04274842
 40
5.0
100
AcDbArc
 50
270.0
 51
360.0
  0
ARC
  5
A3A
100
AcDbEntity
  8
BEZUGSACHSEN
100
AcDbCircle
 62
7
  6
CONTINUOUS
 10
947.2242624044
 20
339.04274842
 40
58.0
100
AcDbArc
 50
334.3880913782
 51
348.2232769632
  0
ARC
  5
A3B
100
AcDbEntity
  8
0
100
AcDbCircle
 62
7
  6
CONTINUOUS
 10
947.2242624044
 20
339.04274842
 40
58.0
100
AcDbArc
 50
11.7767230368
 51
25.6119086218
  0
ARC
  5
A3C
100
AcDbEntity
  8
BEZUGSACHSEN
100
AcDbCircle
 62
7
  6
CONTINUOUS
 10
1014.1492350999
 20
307.9211371421
 40
10.8783887221
100
AcDbArc
 50
224.0
 51
270.0
  0
ARC
  5
A3D
100
AcDbEntity
  8
BEZUGSACHSEN
100
AcDbCircle
 62
7
  6
CONTINUOUS
 10
1044.8992350999
 20
339.04274842
 40
9.45
100
AcDbArc
 50
270.0
 51
90.0
  0
ARC
  5
A3E
100
AcDbEntity
  8
BEZUGSACHSEN
100
AcDbCircle
 62
7
  6
CONTINUOUS
 10
1005.8375382389
 20
310.9449916884
 40
6.9999999287
100
AcDbArc
 50
154.3880925402
 51
223.9999981977
  0
ARC
  5
A3F
100
AcDbEntity
  8
BEZUGSACHSEN
100
AcDbCircle
 62
7
  6
CONTINUOUS
 10
1040.1492350999
 20
316.04274842
 40
5.0
100
AcDbArc
 50
89.9999994283
 51
270.0000007416
  0
ARC
  5
A40
100
AcDbEntity
  8
BEZUGSACHSEN
100
AcDbCircle
 62
7
  6
CONTINUOUS
 10
1059.1492350999
 20
316.04274842
 40
5.0
100
AcDbArc
 50
269.9999994283
 51
90.0000007416
  0
ARC
  5
A41
100
AcDbEntity
  8
BEZUGSACHSEN
100
AcDbCircle
 62
7
  6
CONTINUOUS
 10
1006.9402359793
 20
326.59274842
 40
3.0
100
AcDbArc
 50
90.0
 51
168.2232769632
  0
ARC
  5
A42
100
AcDbEntity
  8
0
100
AcDbCircle
 62
7
  6
CONTINUOUS
 10
1014.1492350999
 20
370.1643596979
 40
10.8783887221
100
AcDbArc
 50
90.0
 51
136.0
  0
ARC
  5
A43
100
AcDbEntity
  8
BEZUGSACHSEN
100
AcDbCircle
 62
7
  6
CONTINUOUS
 10
1005.8375382389
 20
367.1405051516
 40
6.9999999287
100
AcDbArc
 50
136.0000018023
 51
205.6119074598
  0
ARC
  5
A44
100
AcDbEntity
  8
BEZUGSACHSEN
100
AcDbCircle
 62
7
  6
CONTINUOUS
 10
1040.1492350999
 20
362.04274842
 40
5.0
100
AcDbArc
 50
89.9999992584
 51
270.0000005717
  0
ARC
  5
A45
100
AcDbEntity
  8
BEZUGSACHSEN
100
AcDbCircle
 62
7
  6
CONTINUOUS
 10
1059.1492350999
 20
362.04274842
 40
5.0
100
AcDbArc
 50
269.9999992584
 51
90.0000005717
  0
ARC
  5
A46
100
AcDbEntity
  8
RUNDUNGEN
100
AcDbCircle
 62
7
  6
CONTINUOUS
 10
1006.9402359793
 20
351.49274842
 40
3.0
100
AcDbArc
 50
191.7767230368
 51
270.0
  0
ARC
  5
A47
100
AcDbEntity
  8
RUNDUNGEN
100
AcDbCircle
 62
7
  6
CONTINUOUS
 10
1077.1492350999
 20
319.04274842
 40
4.0
100
AcDbArc
 50
90.0
 51
179.9999999999
  0
ARC
  5
A48
100
AcDbEntity
  8
RUNDUNGEN
100
AcDbCircle
 62
7
  6
CONTINUOUS
 10
1174.0561264084
 20
311.54274842
 40
3.0
100
AcDbArc
 50
186.0
 51
270.0
  0
ARC
  5
A49
100
AcDbEntity
  8
BEZUGSACHSEN
100
AcDbCircle
 62
7
  6
CONTINUOUS
 10
1068.1492350999
 20
376.04274842
 40
5.0
100
AcDbArc
 50
0.0
 51
90.0
  0
ARC
  5
A4A
100
AcDbEntity
  8
RUNDUNGEN
100
AcDbCircle
 62
7
  6
CONTINUOUS
 10
1077.1492350999
 20
359.04274842
 40
4.0
100
AcDbArc
 50
180.0000000001
 51
270.0
  0
ARC
  5
A4B
100
AcDbEntity
  8
RUNDUNGEN
100
AcDbCircle
 62
7
  6
CONTINUOUS
 10
1174.0561264084
 20
366.54274842
 40
3.0
100
AcDbArc
 50
90.0
 51
174.0
  0
ARC
  5
A4C
100
AcDbEntity
  8
RUNDUNGEN
100
AcDbCircle
 62
7
  6
CONTINUOUS
 10
1421.1492350999
 20
266.8438473128
 40
20.0
100
AcDbArc
 50
344.0546042507
 51
359.9994775251
  0
ARC
  5
A4D
100
AcDbEntity
  8
BEZUGSACHSEN
100
AcDbCircle
 62
7
  6
CONTINUOUS
 10
1395.1492350999
 20
226.2416495272
 40
20.0
100
AcDbArc
 50
0.0000003638
 51
15.945401355
  0
ARC
  5
A4E
100
AcDbEntity
  8
RUNDUNGEN
100
AcDbCircle
 62
7
  6
CONTINUOUS
 10
1418.1492350999
 20
297.54274842
 40
2.0
100
AcDbArc
 50
180.0
 51
270.0
  0
ARC
  5
A4F
100
AcDbEntity
  8
0
100
AcDbCircle
 62
7
  6
CONTINUOUS
 10
1356.2492350999
 20
340.39274842
 40
5.4
100
AcDbArc
 50
0.0
 51
180.0
  0
ARC
  5
A50
100
AcDbEntity
  8
BEZUGSACHSEN
100
AcDbCircle
 62
7
  6
CONTINUOUS
 10
1410.1492350999
 20
379.04274842
 40
5.0
100
AcDbArc
 50
90.0
 51
180.0
  0
ARC
  5
A51
100
AcDbEntity
  8
0
100
AcDbCircle
 62
7
  6
CONTINUOUS
 10
1342.0742350999
 20
337.24274842
 40
4.95
100
AcDbArc
 50
180.0
 51
270.0
  0
ARC
  5
A52
100
AcDbEntity
  8
0
100
AcDbCircle
 62
7
  6
CONTINUOUS
 10
1342.0742350999
 20
340.84274842
 40
4.95
100
AcDbArc
 50
90.0
 51
180.0
  0
ARC
  5
A53
100
AcDbEntity
  8
0
100
AcDbCircle
 62
7
  6
CONTINUOUS
 10
1368.2867350999
 20
336.23024842
 40
3.9375
100
AcDbArc
 50
111.3550126288
 51
270.0
  0
ARC
  5
A54
100
AcDbEntity
  8
0
100
AcDbCircle
 62
7
  6
CONTINUOUS
 10
1342.6367350999
 20
340.73024842
 40
2.8125
100
AcDbArc
 50
90.0
 51
180.0
  0
ARC
  5
A55
100
AcDbEntity
  8
0
100
AcDbCircle
 62
7
  6
CONTINUOUS
 10
1342.6367350999
 20
337.35524842
 40
2.8125
100
AcDbArc
 50
180.0
 51
270.0
  0
ARC
  5
A56
100
AcDbEntity
  8
0
100
AcDbCircle
 62
7
  6
CONTINUOUS
 10
1356.2492350999
 20
340.39274842
 40
2.7
100
AcDbArc
 50
0.0
 51
180.0
  0
ARC
  5
A57
100
AcDbEntity
  8
0
100
AcDbCircle
 62
7
  6
CONTINUOUS
 10
1370.5939446811
 20
342.41774842
 40
2.25
100
AcDbArc
 50
210.0
 51
270.0
  0
ARC
  5
A58
100
AcDbEntity
  8
0
100
AcDbCircle
 62
7
  6
CONTINUOUS
 10
1369.1867350999
 20
336.23024842
 40
1.6875
100
AcDbArc
 50
90.0
 51
270.0
  0
ARC
  5
A59
100
AcDbEntity
  8
RUNDUNGEN
100
AcDbCircle
 62
7
  6
CONTINUOUS
 10
1397.8306072417
 20
309.54274842
 40
1.0
100
AcDbArc
 50
250.0
 51
270.0
  0
ARC
  5
A5A
100
AcDbEntity
  8
RUNDUNGEN
100
AcDbCircle
 62
7
  6
CONTINUOUS
 10
1397.8306072417
 20
368.54274842
 40
1.0
100
AcDbArc
 50
90.0
 51
110.0
  0
ARC
  5
A5B
100
AcDbEntity
  8
RUNDUNGEN
100
AcDbCircle
 62
7
  6
CONTINUOUS
 10
1196.1771259158
 20
308.04274842
 40
1.0
100
AcDbArc
 50
90.0
 51
125.0
  0
ARC
  5
A5C
100
AcDbEntity
  8
RUNDUNGEN
100
AcDbCircle
 62
7
  6
CONTINUOUS
 10
1196.1771259158
 20
370.04274842
 40
1.0
100
AcDbArc
 50
235.0
 51
270.0
  0
ARC
  5
A5D
100
AcDbEntity
  8
RUNDUNGEN
100
AcDbCircle
 62
7
  6
CONTINUOUS
 10
1396.1042145706
 20
308.04274842
 40
1.0
100
AcDbArc
 50
70.0
 51
90.0
  0
ARC
  5
A5E
100
AcDbEntity
  8
RUNDUNGEN
100
AcDbCircle
 62
7
  6
CONTINUOUS
 10
1396.1042145706
 20
370.04274842
 40
1.0
100
AcDbArc
 50
270.0
 51
290.0
  0
ARC
  5
A5F
100
AcDbEntity
  8
RUNDUNGEN
100
AcDbCircle
 62
7
  6
CONTINUOUS
 10
1194.8324543346
 20
309.54274842
 40
1.0
100
AcDbArc
 50
270.0
 51
305.0
  0
ARC
  5
A60
100
AcDbEntity
  8
RUNDUNGEN
100
AcDbCircle
 62
7
  6
CONTINUOUS
 10
1194.8324543346
 20
368.54274842
 40
1.0
100
AcDbArc
 50
55.0
 51
90.0
  0
ARC
  5
A61
100
AcDbEntity
  8
RUNDUNGEN
100
AcDbCircle
 62
7
  6
CONTINUOUS
 10
1426.1492350999
 20
24.04274842
 40
5.0
100
AcDbArc
 50
270.0
 51
360.0
  0
ARC
  5
A62
100
AcDbEntity
  8
RUNDUNGEN
100
AcDbCircle
 62
7
  6
CONTINUOUS
 10
1451.1492350999
 20
226.2416495272
 40
20.0
100
AcDbArc
 50
164.054598645
 51
179.9999996362
  0
ARC
  5
A63
100
AcDbEntity
  8
BEZUGSACHSEN
100
AcDbCircle
 62
7
  6
CONTINUOUS
 10
1425.1492350999
 20
266.8438473128
 40
20.0
100
AcDbArc
 50
180.0005224749
 51
195.9453957493
  0
ARC
  5
A64
100
AcDbEntity
  8
RUNDUNGEN
100
AcDbCircle
 62
7
  6
CONTINUOUS
 10
1428.1492350999
 20
297.54274842
 40
2.0
100
AcDbArc
 50
270.0
 51
360.0
  0
ARC
  5
A65
100
AcDbEntity
  8
RUNDUNGEN
100
AcDbCircle
 62
7
  6
CONTINUOUS
 10
1436.1492350999
 20
379.04274842
 40
5.0
100
AcDbArc
 50
0.0
 51
90.0
  0
ARC
  5
A66
100
AcDbEntity
  8
RUNDUNGEN
100
AcDbCircle
 62
7
  6
CONTINUOUS
 10
1657.7257290443
 20
310.04274842
 40
5.0
100
AcDbArc
 50
235.0
 51
270.0
  0
ARC
  5
A67
100
AcDbEntity
  8
RUNDUNGEN
100
AcDbCircle
 62
7
  6
CONTINUOUS
 10
1657.7257290443
 20
368.04274842
 40
5.0
100
AcDbArc
 50
90.0
 51
125.0
  0
ARC
  5
A68
100
AcDbEntity
  8
RUNDUNGEN
100
AcDbCircle
 62
7
  6
CONTINUOUS
 10
1648.8601491286
 20
304.04274842
 40
5.0
100
AcDbArc
 50
55.0
 51
90.0
  0
ARC
  5
A69
100
AcDbEntity
  8
RUNDUNGEN
100
AcDbCircle
 62
7
  6
CONTINUOUS
 10
1648.8601491286
 20
374.04274842
 40
5.0
100
AcDbArc
 50
270.0
 51
305.0
  0
ARC
  5
A6A
100
AcDbEntity
  8
RUNDUNGEN
100
AcDbCircle
 62
7
  6
CONTINUOUS
 10
1448.4678629581
 20
309.54274842
 40
1.0
100
AcDbArc
 50
270.0
 51
290.0
  0
ARC
  5
A6B
100
AcDbEntity
  8
RUNDUNGEN
100
AcDbCircle
 62
7
  6
CONTINUOUS
 10
1448.4678629581
 20
368.54274842
 40
1.0
100
AcDbArc
 50
70.0
 51
90.0
  0
ARC
  5
A6C
100
AcDbEntity
  8
RUNDUNGEN
100
AcDbCircle
 62
7
  6
CONTINUOUS
 10
1450.1942556293
 20
308.04274842
 40
1.0
100
AcDbArc
 50
90.0
 51
110.0
  0
ARC
  5
A6D
100
AcDbEntity
  8
RUNDUNGEN
100
AcDbCircle
 62
7
  6
CONTINUOUS
 10
1450.1942556293
 20
370.04274842
 40
1.0
100
AcDbArc
 50
250.0
 51
270.0
  0
ARC
  5
A6E
100
AcDbEntity
  8
RUNDUNGEN
100
AcDbCircle
 62
7
  6
CONTINUOUS
 10
1778.1492350999
 20
302.04274842
 40
5.0
100
AcDbArc
 50
179.9999995513
 51
270.0000003228
  0
ARC
  5
A6F
100
AcDbEntity
  8
BEZUGSACHSEN
100
AcDbCircle
 62
7
  6
CONTINUOUS
 10
1778.1492350999
 20
302.04274842
 40
5.0
100
AcDbArc
 50
180.0
 51
270.0
  0
ARC
  5
A70
100
AcDbEntity
  8
BEZUGSACHSEN
100
AcDbCircle
 62
7
  6
CONTINUOUS
 10
1899.0742077954
 20
339.04274842
 40
58.0
100
AcDbArc
 50
154.3880913782
 51
168.2232769632
  0
ARC
  5
A71
100
AcDbEntity
  8
0
100
AcDbCircle
 62
7
  6
CONTINUOUS
 10
1899.0742077954
 20
339.04274842
 40
58.0
100
AcDbArc
 50
191.7767230368
 51
205.6119086218
  0
ARC
  5
A72
100
AcDbEntity
  8
0
100
AcDbCircle
 62
7
  6
CONTINUOUS
 10
1758.1492350999
 20
362.04274842
 40
15.0
100
AcDbArc
 50
270.0
 51
323.1478081776
  0
ARC
  5
A73
100
AcDbEntity
  8
BEZUGSACHSEN
100
AcDbCircle
 62
7
  6
CONTINUOUS
 10
1832.1492350999
 20
370.1643596979
 40
10.8783887221
100
AcDbArc
 50
44.0
 51
90.0
  0
ARC
  5
A74
100
AcDbEntity
  8
0
100
AcDbCircle
 62
7
  6
CONTINUOUS
 10
1832.1492350999
 20
307.9211371421
 40
10.8783887221
100
AcDbArc
 50
270.0
 51
316.0
  0
ARC
  5
A75
100
AcDbEntity
  8
BEZUGSACHSEN
100
AcDbCircle
 62
7
  6
CONTINUOUS
 10
1801.3992350999
 20
339.04274842
 40
9.45
100
AcDbArc
 50
90.0
 51
270.0
  0
ARC
  5
A76
100
AcDbEntity
  8
BEZUGSACHSEN
100
AcDbCircle
 62
7
  6
CONTINUOUS
 10
1840.4609319609
 20
310.9449916884
 40
6.9999999287
100
AcDbArc
 50
316.0000018023
 51
25.6119074598
  0
ARC
  5
A77
100
AcDbEntity
  8
BEZUGSACHSEN
100
AcDbCircle
 62
7
  6
CONTINUOUS
 10
1840.4609319609
 20
367.1405051516
 40
6.9999999287
100
AcDbArc
 50
334.3880925402
 51
43.9999981977
  0
ARC
  5
A78
100
AcDbEntity
  8
BEZUGSACHSEN
100
AcDbCircle
 62
7
  6
CONTINUOUS
 10
1778.1492350999
 20
376.04274842
 40
5.0
100
AcDbArc
 50
90.0
 51
180.0
  0
ARC
  5
A79
100
AcDbEntity
  8
BEZUGSACHSEN
100
AcDbCircle
 62
7
  6
CONTINUOUS
 10
1806.1492350999
 20
362.04274842
 40
5.0
100
AcDbArc
 50
269.9999994283
 51
90.0000007416
  0
ARC
  5
A7A
100
AcDbEntity
  8
BEZUGSACHSEN
100
AcDbCircle
 62
7
  6
CONTINUOUS
 10
1787.1492350999
 20
362.04274842
 40
5.0
100
AcDbArc
 50
89.9999994283
 51
270.0000007416
  0
ARC
  5
A7B
100
AcDbEntity
  8
BEZUGSACHSEN
100
AcDbCircle
 62
7
  6
CONTINUOUS
 10
1806.1492350999
 20
316.04274842
 40
5.0
100
AcDbArc
 50
269.9999992584
 51
90.0000005717
  0
ARC
  5
A7C
100
AcDbEntity
  8
BEZUGSACHSEN
100
AcDbCircle
 62
7
  6
CONTINUOUS
 10
1787.1492350999
 20
316.04274842
 40
5.0
100
AcDbArc
 50
89.9999992584
 51
270.0000005717
  0
ARC
  5
A7D
100
AcDbEntity
  8
RUNDUNGEN
100
AcDbCircle
 62
7
  6
CONTINUOUS
 10
1769.1492350999
 20
359.04274842
 40
4.0
100
AcDbArc
 50
270.0
 51
359.9999999999
  0
ARC
  5
A7E
100
AcDbEntity
  8
RUNDUNGEN
100
AcDbCircle
 62
7
  6
CONTINUOUS
 10
1769.1492350999
 20
319.04274842
 40
4.0
100
AcDbArc
 50
0.0000000001
 51
90.0
  0
ARC
  5
A7F
100
AcDbEntity
  8
BEZUGSACHSEN
100
AcDbCircle
 62
7
  6
CONTINUOUS
 10
1839.3582342205
 20
351.49274842
 40
3.0
100
AcDbArc
 50
270.0
 51
348.2232769632
  0
ARC
  5
A80
100
AcDbEntity
  8
RUNDUNGEN
100
AcDbCircle
 62
7
  6
CONTINUOUS
 10
1839.3582342205
 20
326.59274842
 40
3.0
100
AcDbArc
 50
11.7767230368
 51
90.0
  0
ARC
  5
A81
100
AcDbEntity
  8
RUNDUNGEN
100
AcDbCircle
 62
7
  6
CONTINUOUS
 10
1671.6492350999
 20
308.04274842
 40
3.0
100
AcDbArc
 50
270.0
 51
360.0
  0
ARC
  5
A82
100
AcDbEntity
  8
RUNDUNGEN
100
AcDbCircle
 62
7
  6
CONTINUOUS
 10
1671.6492350999
 20
370.04274842
 40
3.0
100
AcDbArc
 50
0.0
 51
90.0
  0
ARC
  5
A83
100
AcDbEntity
  8
RUNDUNGEN
100
AcDbCircle
 62
7
  6
CONTINUOUS
 10
1715.1492350999
 20
371.54274842
 40
2.5
100
AcDbArc
 50
0.0
 51
90.0
  0
ARC
  5
A84
100
AcDbEntity
  8
RUNDUNGEN
100
AcDbCircle
 62
7
  6
CONTINUOUS
 10
1715.1492350999
 20
306.54274842
 40
2.5
100
AcDbArc
 50
270.0
 51
360.0
  0
ARC
  5
A85
100
AcDbEntity
  8
RUNDUNGEN
100
AcDbCircle
 62
7
  6
CONTINUOUS
 10
1712.6492350999
 20
373.04274842
 40
1.0
100
AcDbArc
 50
90.0
 51
180.0
  0
ARC
  5
A86
100
AcDbEntity
  8
RUNDUNGEN
100
AcDbCircle
 62
7
  6
CONTINUOUS
 10
1712.6492350999
 20
305.04274842
 40
1.0
100
AcDbArc
 50
180.0
 51
270.0
  0
SPLINE
  5
A87
100
AcDbEntity
  8
0
100
AcDbSpline
 62
7
  6
CONTINUOUS
 70
0
 71
3
 72
8
 73
4
 74
0
 42
0.0000001
 43
0.0000001
 44
0.0000000001
 40
0.0
 40
0.0
 40
0.0
 40
0.0
 40
1.0
 40
1.0
 40
1.0
 40
1.0
 10
-194.1594766259
 20
325.1863419595
 30
0.0
 10
-194.4973238946
 20
325.1863419595
 30
0.0
 10
-194.8385022048
 20
325.1355976021
 30
0.0
 10
-195.1622572771
 20
325.0390396914
 30
0.0
  0
SPLINE
  5
A88
100
AcDbEntity
  8
0
100
AcDbSpline
 62
7
  6
CONTINUOUS
 70
0
 71
3
 72
9
 73
5
 74
0
 42
0.0000001
 43
0.0000001
 44
0.0000000001
 40
0.0
 40
0.0
 40
0.0
 40
0.0
 40
0.5000202674
 40
1.0
 40
1.0
 40
1.0
 40
1.0
 10
26.8405233741
 20
325.1863419595
 30
0.0
 10
27.6591644034
 20
326.1316271967
 30
0.0
 10
29.2731850593
 20
328.0421728275
 30
0.0
 10
30.8048998774
 20
330.0218064393
 30
0.0
 10
31.5268148751
 20
331.04274842
 30
0.0
  0
SPLINE
  5
A89
100
AcDbEntity
  8
RUNDUNGEN
100
AcDbSpline
 62
7
  6
CONTINUOUS
 70
0
 71
3
 72
19
 73
15
 74
0
 42
0.0000001
 43
0.0000001
 44
0.0000000001
 40
0.0
 40
0.0
 40
0.0
 40
0.0
 40
0.1890370314
 40
0.3718316677
 40
0.541300799
 40
0.6910520113
 40
0.8152425356
 40
0.8663584058
 40
0.9095016723
 40
0.944284957
 40
0.9706287191
 40
0.980699994
 40
0.9888033039
 40
1.0
 40
1.0
 40
1.0
 40
1.0
 10
766.6111915219
 20
261.3621533495
 30
0.0
 10
765.9879956019
 20
261.4238363635
 30
0.0
 10
764.7633128004
 20
261.5569122285
 30
0.0
 10
762.9845272796
 20
261.7848545191
 30
0.0
 10
761.3397522026
 20
262.0320210909
 30
0.0
 10
759.8930907846
 20
262.2877080691
 30
0.0
 10
758.8392933249
 20
262.5113631337
 30
0.0
 10
758.138364958
 20
262.6918663299
 30
0.0
 10
757.728485399
 20
262.8137606867
 30
0.0
 10
757.4030847255
 20
262.9305094318
 30
0.0
 10
757.1879630809
 20
263.0279360135
 30
0.0
 10
757.0620544323
 20
263.1064953295
 30
0.0
 10
756.9872940192
 20
263.1666150918
 30
0.0
 10
756.9453857721
 20
263.2237269907
 30
0.0
 10
756.9424793882
 20
263.2607053205
 30
0.0
  0
SPLINE
  5
A8A
100
AcDbEntity
  8
0
100
AcDbSpline
 62
7
  6
CONTINUOUS
 70
0
 71
3
 72
9
 73
5
 74
0
 42
0.0000001
 43
0.0000001
 44
0.0000000001
 40
0.0
 40
0.0
 40
0.0
 40
0.0
 40
0.2490870639
 40
1.0
 40
1.0
 40
1.0
 40
1.0
 10
-195.1622572771
 20
-106.3039309151
 30
0.0
 10
-195.0866161289
 20
-106.166764018
 30
0.0
 10
-194.7740438674
 20
-105.6209767252
 30
0.0
 10
-194.4289801149
 20
-105.0943069869
 30
0.0
 10
-194.1594766259
 20
-104.706546102
 30
0.0
  0
SPLINE
  5
A8B
100
AcDbEntity
  8
0
100
AcDbSpline
 62
7
  6
CONTINUOUS
 70
0
 71
3
 72
14
 73
10
 74
0
 42
0.0000001
 43
0.0000001
 44
0.0000000001
 40
0.0
 40
0.0
 40
0.0
 40
0.0
 40
0.1153178903
 40
0.2307142525
 40
0.3486808281
 40
0.4709095067
 40
0.5979464186
 40
0.7293232098
 40
1.0
 40
1.0
 40
1.0
 40
1.0
 10
-194.1594766259
 20
-104.706546102
 30
0.0
 10
-193.8904507087
 20
-104.319472346
 30
0.0
 10
-193.2868632983
 20
-103.5876719833
 30
0.0
 10
-192.1949461032
 20
-102.6606956252
 30
0.0
 10
-190.939347013
 20
-101.9162296874
 30
0.0
 10
-189.5466656337
 20
-101.3446476923
 30
0.0
 10
-188.0446462215
 20
-100.9272781993
 30
0.0
 10
-185.9132752911
 20
-100.54811203
 30
0.0
 10
-184.2659153561
 20
-100.4475244546
 30
0.0
 10
-183.1594766259
 20
-100.4475244546
 30
0.0
  0
SPLINE
  5
A8C
100
AcDbEntity
  8
RUNDUNGEN
100
AcDbSpline
 62
7
  6
CONTINUOUS
 70
0
 71
3
 72
14
 73
10
 74
0
 42
0.0000001
 43
0.0000001
 44
0.0000000001
 40
0.0
 40
0.0
 40
0.0
 40
0.0
 40
0.0829484179
 40
0.1632653194
 40
0.2547272471
 40
0.3668233926
 40
0.5016025054
 40
0.6560183007
 40
1.0
 40
1.0
 40
1.0
 40
1.0
 10
158.8405233741
 20
602.0490044541
 30
0.0
 10
158.8405233741
 20
601.9854914893
 30
0.0
 10
158.8223853661
 20
601.8580912246
 30
0.0
 10
158.7101647583
 20
601.6906789615
 30
0.0
 10
158.5220383472
 20
601.5732203351
 30
0.0
 10
158.2734051481
 20
601.4959628044
 30
0.0
 10
157.9693668184
 20
601.4475404187
 30
0.0
 10
157.4857875734
 20
601.4099878605
 30
0.0
 10
157.1039075123
 20
601.4045329331
 30
0.0
 10
156.8405233741
 20
601.4045329331
 30
0.0
  0
LINE
  5
A8D
100
AcDbEntity
  8
RUNDUNGEN
100
AcDbLine
 62
7
  6
CONTINUOUS
 10
133.8516747568
 20
573.4077769383
 11
133.8532925905
 21
573.3746839309
  0
LINE
  5
A8E
100
AcDbEntity
  8
RUNDUNGEN
100
AcDbLine
 62
7
  6
CONTINUOUS
 10
133.8572967992
 20
573.3008745743
 11
133.8591007659
 21
573.270545553
  0
LINE
  5
A8F
100
AcDbEntity
  8
RUNDUNGEN
100
AcDbLine
 62
7
  6
CONTINUOUS
 10
133.8591007659
 20
573.270545553
 11
133.8610860732
 21
573.2388304853
  0
LINE
  5
A90
100
AcDbEntity
  8
RUNDUNGEN
100
AcDbLine
 62
7
  6
CONTINUOUS
 10
133.8610860732
 20
573.2388304853
 11
133.8630402939
 21
573.2090811049
  0
LINE
  5
A91
100
AcDbEntity
  8
RUNDUNGEN
100
AcDbLine
 62
7
  6
CONTINUOUS
 10
133.8630402939
 20
573.2090811049
 11
133.8640245871
 21
573.194588249
  0
LINE
  5
A92
100
AcDbEntity
  8
RUNDUNGEN
100
AcDbLine
 62
7
  6
CONTINUOUS
 10
133.8640245871
 20
573.194588249
 11
133.864909384
 21
573.1818184445
  0
LINE
  5
A93
100
AcDbEntity
  8
BEZUGSACHSEN
100
AcDbLine
 62
7
  6
CONTINUOUS
 10
161.333862147
 20
563.9916757168
 11
161.3123202667
 21
563.9884462999
  0
LINE
  5
A94
100
AcDbEntity
  8
BEZUGSACHSEN
100
AcDbLine
 62
7
  6
CONTINUOUS
 10
164.8018224759
 20
565.197058743
 11
164.7900583603
 21
565.1903468865
  0
SPLINE
  5
A95
100
AcDbEntity
  8
RUNDUNGEN
100
AcDbSpline
 62
7
  6
CONTINUOUS
 70
0
 71
3
 72
14
 73
10
 74
0
 42
0.0000001
 43
0.0000001
 44
0.0000000001
 40
0.0
 40
0.0
 40
0.0
 40
0.0
 40
0.0829484334
 40
0.1632655963
 40
0.2547276686
 40
0.3668237695
 40
0.5016028931
 40
0.6560186519
 40
1.0
 40
1.0
 40
1.0
 40
1.0
 10
144.8405233741
 20
563.2100784431
 30
0.0
 10
144.8405233741
 20
563.2735914206
 30
0.0
 10
144.8586614401
 20
563.4009918923
 30
0.0
 10
144.9708823159
 20
563.5684044236
 30
0.0
 10
145.1590091434
 20
563.6858629368
 30
0.0
 10
145.4076424674
 20
563.7631203029
 30
0.0
 10
145.7116807683
 20
563.811542556
 30
0.0
 10
146.1952597305
 20
563.8490950693
 30
0.0
 10
146.5771395013
 20
563.854549964
 30
0.0
 10
146.8405233741
 20
563.854549964
 30
0.0
  0
SPLINE
  5
A96
100
AcDbEntity
  8
RUNDUNGEN
100
AcDbSpline
 62
7
  6
CONTINUOUS
 70
0
 71
3
 72
14
 73
10
 74
0
 42
0.0000001
 43
0.0000001
 44
0.0000000001
 40
0.0
 40
0.0
 40
0.0
 40
0.0
 40
0.3439813849
 40
0.4983971643
 40
0.6331762575
 40
0.7452723063
 40
0.8367343798
 40
0.9170515565
 40
1.0
 40
1.0
 40
1.0
 40
1.0
 10
146.8405233741
 20
601.4045329331
 30
0.0
 10
146.5771394727
 20
601.4045329331
 30
0.0
 10
146.1952596565
 20
601.4099878228
 30
0.0
 10
145.7116806754
 20
601.4475403598
 30
0.0
 10
145.4076424192
 20
601.4959626002
 30
0.0
 10
145.1590091593
 20
601.5732199567
 30
0.0
 10
144.9708823452
 20
601.6906784357
 30
0.0
 10
144.8586614465
 20
601.8580909782
 30
0.0
 10
144.8405233741
 20
601.9854914688
 30
0.0
 10
144.8405233741
 20
602.0490044541
 30
0.0
  0
SPLINE
  5
A97
100
AcDbEntity
  8
RUNDUNGEN
100
AcDbSpline
 62
7
  6
CONTINUOUS
 70
0
 71
3
 72
14
 73
10
 74
0
 42
0.0000001
 43
0.0000001
 44
0.0000000001
 40
0.0
 40
0.0
 40
0.0
 40
0.0
 40
0.3439816603
 40
0.4983974365
 40
0.6331765808
 40
0.7452727786
 40
0.8367347054
 40
0.9170515927
 40
1.0
 40
1.0
 40
1.0
 40
1.0
 10
156.8405233741
 20
563.854549964
 30
0.0
 10
157.103907482
 20
563.854549964
 30
0.0
 10
157.4857874971
 20
563.8490950319
 30
0.0
 10
157.9693667235
 20
563.8115424972
 30
0.0
 10
158.2734051001
 20
563.763120099
 30
0.0
 10
158.5220383643
 20
563.6858625577
 30
0.0
 10
158.7101647885
 20
563.5684038965
 30
0.0
 10
158.8223853728
 20
563.4009916448
 30
0.0
 10
158.8405233741
 20
563.2735913997
 30
0.0
 10
158.8405233741
 20
563.2100784431
 30
0.0
  0
SPLINE
  5
A98
100
AcDbEntity
  8
0
100
AcDbSpline
 62
7
  6
CONTINUOUS
 70
0
 71
3
 72
9
 73
5
 74
0
 42
0.0000001
 43
0.0000001
 44
0.0000000001
 40
0.0
 40
0.0
 40
0.0
 40
0.0
 40
0.2490870639
 40
1.0
 40
1.0
 40
1.0
 40
1.0
 10
-195.1622572771
 20
590.6295414486
 30
0.0
 10
-195.0866161289
 20
590.7667083457
 30
0.0
 10
-194.7740438674
 20
591.3124956385
 30
0.0
 10
-194.4289801149
 20
591.8391653767
 30
0.0
 10
-194.1594766259
 20
592.2269262617
 30
0.0
  0
SPLINE
  5
A99
100
AcDbEntity
  8
0
100
AcDbSpline
 62
7
  6
CONTINUOUS
 70
0
 71
3
 72
14
 73
10
 74
0
 42
0.0000001
 43
0.0000001
 44
0.0000000001
 40
0.0
 40
0.0
 40
0.0
 40
0.0
 40
0.1153182206
 40
0.2307135969
 40
0.3486815968
 40
0.4709109359
 40
0.597947844
 40
0.7293196719
 40
1.0
 40
1.0
 40
1.0
 40
1.0
 10
-194.1594766259
 20
592.2269262617
 30
0.0
 10
-193.8904497683
 20
592.6140013707
 30
0.0
 10
-193.2868713361
 20
593.3458060062
 30
0.0
 10
-192.1949538796
 20
594.2727895185
 30
0.0
 10
-190.9393475539
 20
595.017254529
 30
0.0
 10
-189.5466548099
 20
595.5888341003
 30
0.0
 10
-188.0446505052
 20
596.0061932978
 30
0.0
 10
-185.9132884278
 20
596.3853847046
 30
0.0
 10
-184.2659305168
 20
596.4859479091
 30
0.0
 10
-183.1594766259
 20
596.4859479091
 30
0.0
  0
SPLINE
  5
A9A
100
AcDbEntity
  8
0
100
AcDbSpline
 62
7
  6
CONTINUOUS
 70
0
 71
3
 72
8
 73
4
 74
0
 42
0.0000001
 43
0.0000001
 44
0.0000000001
 40
0.0
 40
0.0
 40
0.0
 40
0.0
 40
1.0
 40
1.0
 40
1.0
 40
1.0
 10
1769.1492350999
 20
352.8991548806
 30
0.0
 10
1769.4870823686
 20
352.8991548806
 30
0.0
 10
1769.8282606789
 20
352.9498992379
 30
0.0
 10
1770.1520157511
 20
353.0464571487
 30
0.0
  0
ELLIPSE
  5
A9B
100
AcDbEntity
  8
0
100
AcDbEllipse
 62
7
  6
CONTINUOUS
 10
1635.5809330095
 20
339.04274842
 30
0.0
 11
-0.0
 21
30.0
 31
0.0
 40
0.1583844403
 41
-2.2679594604
 42
-0.8736331932
  0
ELLIPSE
  5
A9C
100
AcDbEntity
  8
0
100
AcDbEllipse
 62
7
  6
CONTINUOUS
 10
1465.7175371903
 20
339.04274842
 30
0.0
 11
0.0
 21
30.0
 31
0.0
 40
0.1583844403
 41
0.8736331932
 42
2.2679594604
  0
ELLIPSE
  5
A9D
100
AcDbEntity
  8
0
100
AcDbEllipse
 62
7
  6
CONTINUOUS
 10
1380.5809330095
 20
339.04274842
 30
0.0
 11
-0.0
 21
30.0
 31
0.0
 40
0.1583844403
 41
-2.2679594604
 42
-0.8736331932
  0
ELLIPSE
  5
A9E
100
AcDbEntity
  8
0
100
AcDbEllipse
 62
7
  6
CONTINUOUS
 10
1210.7175371903
 20
339.04274842
 30
0.0
 11
0.0
 21
30.0
 31
0.0
 40
0.1583844403
 41
0.8736331932
 42
2.2679594604
  0
ENDSEC
  0
SECTION
  2
OBJECTS
  0
DICTIONARY
  5
C
100
AcDbDictionary
280
0
281
1
  3
ACAD_GROUP
350
D
  3
ACAD_MLINESTYLE
350
17
  3
ACAD_LAYOUT
350
1A
  3
ACAD_PLOTSETTINGS
350
19
  3
ACAD_PLOTSTYLENAME
350
E
  0
DICTIONARY
  5
D
102
{ACAD_REACTORS
330
C
102
}
100
AcDbDictionary
280
0
281
1
  0
ACDBDICTIONARYWDFLT
  5
E
102
{ACAD_REACTORS
330
C
102
}
100
AcDbDictionary
281
1
  3
Normal
350
F
100
AcDbDictionaryWithDefault
340
F
  0
DICTIONARY
  5
17
102
{ACAD_REACTORS
330
C
102
}
100
AcDbDictionary
280
0
281
1
  3
Standard
350
18
  0
DICTIONARY
  5
19
102
{ACAD_REACTORS
330
C
102
}
100
AcDbDictionary
281
1
  0
DICTIONARY
  5
1A
102
{ACAD_REACTORS
330
C
102
}
100
AcDbDictionary
281
1
  3
Model
350
A9F
  3
Layout1
350
AA0
  0
ACDBPLACEHOLDER
  5
F
102
{ACAD_REACTORS
330
E
102
}
  0
MLINESTYLE
  5
18
102
{ACAD_REACTORS
330
17
102
}
100
AcDbMlineStyle
  2
STANDARD
 70
0
  3

 62
256
 51
90.0
 52
90.0
 71
2
 49
0.5
 62
256
  6
BYLAYER
 49
-0.5
 62
256
  6
BYLAYER
  0
LAYOUT
  5
A9F
102
{ACAD_REACTORS
330
1A
102
}
100
AcDbPlotSettings
  1

  2
none_device
  4
ISO_A2_(594.00_x_420.00_MM)
  6

 40
0.0
 41
0.0
 42
0.0
 43
0.0
 44
594.0
 45
420.0
 46
0.0
 47
0.0
 48
0.0
 49
0.0
140
0.0
141
0.0
142
1.0
143
1.0
 70
1024
 72
1
 73
0
 74
0
  7

 75
0
147
1.0
148
0.0
149
0.0
100
AcDbLayout
  1
Model
 70
0
 71
0
 10
0.0
 20
0.0
 11
594.0
 21
420.0
 12
0.0
 22
0.0
 32
0.0
 14
0.0
 24
0.0
 34
0.0
 15
0.0
 25
0.0
 35
0.0
146
0.0
 13
0.0
 23
0.0
 33
0.0
 16
1.0
 26
0.0
 36
0.0
 17
0.0
 27
1.0
 37
0.0
 76
0
330
211
345
0
346
0
  0
LAYOUT
  5
AA0
102
{ACAD_REACTORS
330
1A
102
}
100
AcDbPlotSettings
  1

  2
none_device
  4
ISO_A2_(594.00_x_420.00_MM)
  6

 40
0.0
 41
0.0
 42
0.0
 43
0.0
 44
594.0
 45
420.0
 46
0.0
 47
0.0
 48
0.0
 49
0.0
140
0.0
141
0.0
142
1.0
143
1.0
 70
0
 72
1
 73
0
 74
0
  7

 75
0
147
1.0
148
0.0
149
0.0
100
AcDbLayout
  1
Layout1
 70
0
 71
1
 10
0.0
 20
0.0
 11
594.0
 21
420.0
 12
0.0
 22
0.0
 32
0.0
 14
0.0
 24
0.0
 34
0.0
 15
0.0
 25
0.0
 35
0.0
146
0.0
 13
0.0
 23
0.0
 33
0.0
 16
1.0
 26
0.0
 36
0.0
 17
0.0
 27
1.0
 37
0.0
 76
0
330
212
345
0
346
0
  0
ENDSEC
  0
EOF
