999
DXF file: ICE-CURT-13-GAKO-KPL_7902624_M34451-P-1.dxf
999
Pro/ENGINEER 2010140 by Parametric Technology Corporation
  0
SECTION
  2
HEADER
  9
$ACADVER
  1
AC1015
  9
$DWGCODEPAGE
  3
ANSI_1252
  9
$EXTMAX
 10
420.0
 20
297.0
 30
0.0
  9
$EXTMIN
 10
0.0
 20
0.0
 30
0.0
  9
$LIMMIN
 10
0.0
 20
0.0
  9
$LIMMAX
 10
420.0
 20
297.0
  9
$VIEWCTR
 10
210.0
 20
148.5
  9
$VIEWSIZE
 40
297.0
  9
$CLAYER
  8
0
  9
$LTSCALE
 40
23.1
  9
$CELTYPE
  6
BYLAYER
  9
$DIMSCALE
 40
1.0
  9
$DIMASZ
 40
3.5
  9
$DIMEXO
 40
2.625
  9
$DIMDLI
 40
15.96
  9
$DIMEXE
 40
7.56
  9
$DIMCEN
 40
3.78
  9
$DIMLFAC
 40
1.0
  9
$DIMBLK
  1
_FILLED
  9
$DIMTXT
 40
3.5
  9
$DIMTOL
 70
1
  9
$DIMLIM
 70
0
  9
$DIMTFAC
 40
1.0
  9
$DIMTP
 40
0.005
  9
$DIMTM
 40
0.005
  9
$PDMODE
 70
3
  9
$PDSIZE
 40
0.3125
  9
$HANDSEED
  5
9F8
  9
$TILEMODE
 70
1
  9
$MEASUREMENT
 70
1
  9
$INSUNITS
 70
4
  0
ENDSEC
  0
SECTION
  2
CLASSES
  0
CLASS
  1
ACDBDICTIONARYWDFLT
  2
AcDbDictionaryWithDefault
  3
AutoCAD 2000
 90
0
280
0
281
0
  0
CLASS
  1
ACDBPLACEHOLDER
  2
AcDbPlaceHolder
  3
AutoCAD 2000
 90
0
280
0
281
0
  0
CLASS
  1
LAYOUT
  2
AcDbLayout
  3
AutoCAD 2000
 90
0
280
0
281
0
  0
ENDSEC
  0
SECTION
  2
TABLES
  0
TABLE
  2
VPORT
  5
8
100
AcDbSymbolTable
 70
2
  0
VPORT
  5
1F4
100
AcDbSymbolTableRecord
100
AcDbViewportTableRecord
  2
*ACTIVE
 70
0
 10
0.0
 20
0.0
 11
1.0
 21
1.0
 12
210.0
 22
148.5
 13
0.0
 23
0.0
 14
1.0
 24
1.0
 15
0.0
 25
0.0
 16
0.0
 26
0.0
 36
1.0
 17
0.0
 27
0.0
 37
0.0
 40
297.0
 41
1.4141414141
 42
50.0
 43
0.0
 44
0.0
 50
0.0
 51
0.0
 71
0
 72
100
 73
1
 74
1
 75
0
 76
0
 77
0
 78
0
  0
ENDTAB
  0
TABLE
  2
LTYPE
  5
5
100
AcDbSymbolTable
 70
6
  0
LTYPE
  5
14
100
AcDbSymbolTableRecord
100
AcDbLinetypeTableRecord
  2
BYBLOCK
 70
0
  3

 72
65
 73
0
 40
0.0
  0
LTYPE
  5
15
100
AcDbSymbolTableRecord
100
AcDbLinetypeTableRecord
  2
BYLAYER
 70
0
  3

 72
65
 73
0
 40
0.0
  0
LTYPE
  5
16
100
AcDbSymbolTableRecord
100
AcDbLinetypeTableRecord
  2
CONTINUOUS
 70
64
  3
Solid line
 72
65
 73
0
 40
0.0
  0
LTYPE
  5
1F5
100
AcDbSymbolTableRecord
100
AcDbLinetypeTableRecord
  2
CENTER
 70
64
  3
____ _ ____ _ ____ _ ____ _ ____ _ ____ _ ____
 72
65
 73
4
 40
0.6
 49
0.375
 74
0
 49
-0.075
 74
0
 49
0.075
 74
0
 49
-0.075
 74
0
  0
LTYPE
  5
1F6
100
AcDbSymbolTableRecord
100
AcDbLinetypeTableRecord
  2
HIDDEN
 70
64
  3
- - - - - - - - - - - - - - - - - - - -
 72
65
 73
2
 40
0.2
 49
0.1
 74
0
 49
-0.1
 74
0
  0
LTYPE
  5
1F7
100
AcDbSymbolTableRecord
100
AcDbLinetypeTableRecord
  2
PHANTOM
 70
64
  3
_____ _ _ _____ _ _ _____ _ _ _____
 72
65
 73
6
 40
0.8
 49
0.45
 74
0
 49
-0.05
 74
0
 49
0.1
 74
0
 49
-0.05
 74
0
 49
0.1
 74
0
 49
-0.05
 74
0
  0
LTYPE
  5
1F8
100
AcDbSymbolTableRecord
100
AcDbLinetypeTableRecord
  2
DOT
 70
64
  3
. . . . . . . . . . . . . . . . . . . .
 72
65
 73
2
 40
0.2
 49
0.1
 74
0
 49
-0.1
 74
0
  0
LTYPE
  5
1F9
100
AcDbSymbolTableRecord
100
AcDbLinetypeTableRecord
  2
DASHED
 70
64
  3
- - - - - - - - - - - - - - - - - - - -
 72
65
 73
2
 40
0.2
 49
0.1
 74
0
 49
-0.1
 74
0
  0
ENDTAB
  0
TABLE
  2
LAYER
  5
2
100
AcDbSymbolTable
 70
36
  0
LAYER
  5
10
100
AcDbSymbolTableRecord
100
AcDbLayerTableRecord
  2
0
 70
0
 62
7
  6
CONTINUOUS
370
-3
390
F
  0
LAYER
  5
1FA
100
AcDbSymbolTableRecord
100
AcDbLayerTableRecord
  2
DEFAULT_1
 70
0
 62
7
  6
CENTER
370
-3
390
F
  0
LAYER
  5
1FB
100
AcDbSymbolTableRecord
100
AcDbLayerTableRecord
  2
DEFAULT_2
 70
0
 62
8
  6
HIDDEN
370
-3
390
F
  0
LAYER
  5
1FC
100
AcDbSymbolTableRecord
100
AcDbLayerTableRecord
  2
DEFAULT_3
 70
0
 62
7
  6
PHANTOM
370
-3
390
F
  0
LAYER
  5
1FD
100
AcDbSymbolTableRecord
100
AcDbLayerTableRecord
  2
AUSFORMSCHRAEGEN
 70
0
 62
7
  6
CONTINUOUS
370
-3
390
F
  0
LAYER
  5
1FE
100
AcDbSymbolTableRecord
100
AcDbLayerTableRecord
  2
BEZUGSACHSEN
 70
0
 62
7
  6
CONTINUOUS
370
-3
390
F
  0
LAYER
  5
1FF
100
AcDbSymbolTableRecord
100
AcDbLayerTableRecord
  2
BEZUGSEBENEN
 70
0
 62
7
  6
CONTINUOUS
370
-3
390
F
  0
LAYER
  5
200
100
AcDbSymbolTableRecord
100
AcDbLayerTableRecord
  2
BG_STARTBEZUEGE
 70
0
 62
7
  6
CONTINUOUS
370
-3
390
F
  0
LAYER
  5
201
100
AcDbSymbolTableRecord
100
AcDbLayerTableRecord
  2
BOHRUNGEN
 70
0
 62
7
  6
CONTINUOUS
370
-3
390
F
  0
LAYER
  5
202
100
AcDbSymbolTableRecord
100
AcDbLayerTableRecord
  2
FASEN
 70
0
 62
7
  6
CONTINUOUS
370
-3
390
F
  0
LAYER
  5
203
100
AcDbSymbolTableRecord
100
AcDbLayerTableRecord
  2
FLAECHEN
 70
0
 62
7
  6
CONTINUOUS
370
-3
390
F
  0
LAYER
  5
204
100
AcDbSymbolTableRecord
100
AcDbLayerTableRecord
  2
FLAECHENVERBUND
 70
0
 62
7
  6
CONTINUOUS
370
-3
390
F
  0
LAYER
  5
205
100
AcDbSymbolTableRecord
100
AcDbLayerTableRecord
  2
HILFEN
 70
0
 62
7
  6
CONTINUOUS
370
-3
390
F
  0
LAYER
  5
206
100
AcDbSymbolTableRecord
100
AcDbLayerTableRecord
  2
KONSTRUKTIONSELEMENTE
 70
0
 62
7
  6
CONTINUOUS
370
-3
390
F
  0
LAYER
  5
207
100
AcDbSymbolTableRecord
100
AcDbLayerTableRecord
  2
KURVEN
 70
0
 62
7
  6
CONTINUOUS
370
-3
390
F
  0
LAYER
  5
208
100
AcDbSymbolTableRecord
100
AcDbLayerTableRecord
  2
NORM
 70
0
 62
7
  6
CONTINUOUS
370
-3
390
F
  0
LAYER
  5
209
100
AcDbSymbolTableRecord
100
AcDbLayerTableRecord
  2
PLATZIERUNG
 70
0
 62
7
  6
CONTINUOUS
370
-3
390
F
  0
LAYER
  5
20A
100
AcDbSymbolTableRecord
100
AcDbLayerTableRecord
  2
RUNDUNGEN
 70
0
 62
7
  6
CONTINUOUS
370
-3
390
F
  0
LAYER
  5
20B
100
AcDbSymbolTableRecord
100
AcDbLayerTableRecord
  2
TEIL_STARTBEZUEGE
 70
0
 62
7
  6
CONTINUOUS
370
-3
390
F
  0
LAYER
  5
20C
100
AcDbSymbolTableRecord
100
AcDbLayerTableRecord
  2
T_STARTBEZUEGE
 70
0
 62
7
  6
CONTINUOUS
370
-3
390
F
  0
LAYER
  5
20D
100
AcDbSymbolTableRecord
100
AcDbLayerTableRecord
  2
ZEICHNUNGSBEMASSUNGEN
 70
0
 62
7
  6
CONTINUOUS
370
-3
390
F
  0
ENDTAB
  0
TABLE
  2
STYLE
  5
3
100
AcDbSymbolTable
 70
1
  0
STYLE
  5
11
100
AcDbSymbolTableRecord
100
AcDbTextStyleTableRecord
  2
STANDARD
 70
0
 40
0.0
 41
0.7
 50
0.0
 71
0
 42
0.2
  3
txt
  4

  0
STYLE
  5
20E
100
AcDbSymbolTableRecord
100
AcDbTextStyleTableRecord
  2
TEXTSTYLE_1
 70
0
 40
0.0
 41
0.8
 50
0.0
 71
0
 42
0.2
  3
gdt
  4

  0
ENDTAB
  0
TABLE
  2
VIEW
  5
6
100
AcDbSymbolTable
 70
0
  0
ENDTAB
  0
TABLE
  2
UCS
  5
7
100
AcDbSymbolTable
 70
0
  0
ENDTAB
  0
TABLE
  2
APPID
  5
9
100
AcDbSymbolTable
 70
1
  0
APPID
  5
20F
100
AcDbSymbolTableRecord
100
AcDbRegAppTableRecord
  2
ACAD
 70
0
  0
ENDTAB
  0
TABLE
  2
BLOCK_RECORD
  5
1
100
AcDbSymbolTable
 70
0
  0
BLOCK_RECORD
  5
210
100
AcDbSymbolTableRecord
100
AcDbBlockTableRecord
  2
*Model_Space
  0
BLOCK_RECORD
  5
211
100
AcDbSymbolTableRecord
100
AcDbBlockTableRecord
  2
*Paper_Space
  0
ENDTAB
  0
TABLE
  2
DIMSTYLE
  5
A
100
AcDbSymbolTable
 70
1
100
AcDbDimStyleTable
 71
0
  0
DIMSTYLE
105
212
100
AcDbSymbolTableRecord
100
AcDbDimStyleTableRecord
  2
STANDARD
 70
0
  3

  4

 40
1.0
 41
3.5
 42
0.0625
 43
0.38
 44
0.18
 45
0.0
 46
0.0
 47
0.005
 48
0.005
140
3.5
141
0.09
142
0.0
143
25.4
144
1.0
145
0.0
146
1.0
147
0.09
 71
1.0
 72
0.0
 73
0
 74
0
 75
0
 76
0
 77
1
 78
8
170
0
171
2
172
0
173
0
174
0
175
0
176
0
177
0
178
5
270
2
271
3
272
3
273
2
274
2
275
0
280
0
281
0
282
0
283
1
284
8
285
0
286
0
287
3
288
0
340
11
  0
ENDTAB
  0
ENDSEC
  0
SECTION
  2
BLOCKS
  0
BLOCK
  5
20
100
AcDbEntity
  8
0
100
AcDbBlockBegin
  2
*Model_Space
 70
0
 10
0.0
 20
0.0
 30
0.0
  3
*Model_Space
  1

  0
ENDBLK
  5
21
100
AcDbEntity
  8
0
100
AcDbBlockEnd
  0
BLOCK
  5
1C
100
AcDbEntity
  8
0
100
AcDbBlockBegin
  2
*Paper_Space
 70
0
 10
0.0
 20
0.0
 30
0.0
  3
*Paper_Space
  1

  0
ENDBLK
  5
1D
100
AcDbEntity
  8
0
100
AcDbBlockEnd
  0
ENDSEC
  0
SECTION
  2
ENTITIES
  0
MTEXT
  5
213
100
AcDbEntity
  8
0
100
AcDbMText
 62
5
  6
CONTINUOUS
  7
STANDARD
 71
1
 72
1
 10
162.2675065124
 20
104.6737525765
 30
0.0
 11
0.0
 21
1.0
 31
0.0
 44
0.9
  1
ICE-CURT 13 RUD
 40
8.0
 41
93.5238095238
  0
MTEXT
  5
214
100
AcDbEntity
  8
0
100
AcDbMText
 62
5
  6
CONTINUOUS
  7
STANDARD
 71
2
 72
1
 10
267.1538192985
 20
534.2446614112
 30
0.0
 11
1.0
 21
0.0
 31
0.0
 44
0.9
  1
ICE-CURT 13\PRUD
 40
8.0
 41
67.4285714286
  0
MTEXT
  5
215
100
AcDbEntity
  8
0
100
AcDbMText
 62
5
  6
CONTINUOUS
  7
STANDARD
 71
1
 72
1
 10
707.9043532263
 20
94.1696777226
 30
0.0
 11
0.0
 21
1.0
 31
0.0
 44
0.9
  1
ICE-CURT 13 RUD
 40
8.0
 41
93.5238095238
  0
MTEXT
  5
216
100
AcDbEntity
  8
0
100
AcDbMText
 62
5
  6
CONTINUOUS
  7
STANDARD
 71
1
 72
1
 10
1356.9975897448
 20
91.0629090809
 30
0.0
 11
0.0
 21
1.0
 31
0.0
 44
0.9
  1
ICE-CURT 13 RUD
 40
8.0
 41
93.5238095238
  0
MTEXT
  5
217
100
AcDbEntity
  8
0
100
AcDbMText
 62
5
  6
CONTINUOUS
  7
STANDARD
 71
2
 72
1
 10
263.0248528169
 20
-109.2819332289
 30
0.0
 11
1.0
 21
0.0
 31
0.0
 44
0.9
  1
ICE-CURT 13\PRUD
 40
8.0
 41
67.4285714286
  0
LINE
  5
218
100
AcDbEntity
  8
0
100
AcDbLine
 62
7
  6
CONTINUOUS
 10
0.0
 20
0.0
 11
0.0
 21
297.0
  0
LINE
  5
219
100
AcDbEntity
  8
0
100
AcDbLine
 62
7
  6
CONTINUOUS
 10
0.0
 20
0.0
 11
420.0
 21
0.0
  0
LINE
  5
21A
100
AcDbEntity
  8
0
100
AcDbLine
 62
7
  6
CONTINUOUS
 10
0.0
 20
297.0
 11
420.0
 21
297.0
  0
LINE
  5
21B
100
AcDbEntity
  8
0
100
AcDbLine
 62
7
  6
CONTINUOUS
 10
420.0
 20
0.0
 11
420.0
 21
297.0
  0
LINE
  5
21C
100
AcDbEntity
  8
0
100
AcDbLine
 62
7
  6
CONTINUOUS
 10
-190.7151770654
 20
365.3575387026
 11
-190.873510361
 21
365.0341344859
  0
LINE
  5
21D
100
AcDbEntity
  8
BEZUGSACHSEN
100
AcDbLine
 62
7
  6
CONTINUOUS
 10
-213.1383606302
 20
374.623496082
 11
-218.2930611686
 21
365.6952928517
  0
LINE
  5
21E
100
AcDbEntity
  8
BEZUGSACHSEN
100
AcDbLine
 62
7
  6
CONTINUOUS
 10
-218.561010361
 20
364.6952928517
 11
-218.561010361
 21
360.7569160566
  0
LINE
  5
21F
100
AcDbEntity
  8
0
100
AcDbLine
 62
7
  6
CONTINUOUS
 10
-218.561010361
 20
325.4900761074
 11
-218.561010361
 21
321.5516993123
  0
LINE
  5
220
100
AcDbEntity
  8
BEZUGSACHSEN
100
AcDbLine
 62
7
  6
CONTINUOUS
 10
-207.311010361
 20
335.373496082
 11
-207.311010361
 21
350.873496082
  0
LINE
  5
221
100
AcDbEntity
  8
0
100
AcDbLine
 62
7
  6
CONTINUOUS
 10
-190.873510361
 20
365.0341344859
 11
-190.9526770654
 21
364.6298789884
  0
LINE
  5
222
100
AcDbEntity
  8
0
100
AcDbLine
 62
7
  6
CONTINUOUS
 10
-187.9443435433
 20
362.689453518
 11
-187.8651771787
 21
363.0937088455
  0
LINE
  5
223
100
AcDbEntity
  8
0
100
AcDbLine
 62
7
  6
CONTINUOUS
 10
-181.9276767257
 20
365.0341344859
 11
-182.0068439963
 21
364.6298789884
  0
LINE
  5
224
100
AcDbEntity
  8
0
100
AcDbLine
 62
7
  6
CONTINUOUS
 10
-178.998510361
 20
362.689453518
 11
-178.9193439963
 21
363.0937088455
  0
LINE
  5
225
100
AcDbEntity
  8
0
100
AcDbLine
 62
7
  6
CONTINUOUS
 10
-175.5151776317
 20
363.0128577913
 11
-175.436010361
 21
363.4171130623
  0
LINE
  5
226
100
AcDbEntity
  8
0
100
AcDbLine
 62
7
  6
CONTINUOUS
 10
-190.4776770654
 20
364.6298789884
 11
-190.398510361
 21
364.9532832052
  0
LINE
  5
227
100
AcDbEntity
  8
0
100
AcDbLine
 62
7
  6
CONTINUOUS
 10
-181.5318439963
 20
364.6298789884
 11
-181.4526767257
 21
364.9532832052
  0
LINE
  5
228
100
AcDbEntity
  8
0
100
AcDbLine
 62
7
  6
CONTINUOUS
 10
-175.911010361
 20
363.4171130623
 11
-175.9901776317
 21
363.0937088455
  0
LINE
  5
229
100
AcDbEntity
  8
0
100
AcDbLine
 62
7
  6
CONTINUOUS
 10
-188.3401769522
 20
363.0937088455
 11
-188.4193437698
 21
362.851155683
  0
LINE
  5
22A
100
AcDbEntity
  8
0
100
AcDbLine
 62
7
  6
CONTINUOUS
 10
-179.3943439963
 20
363.0937088455
 11
-179.473510361
 21
362.851155683
  0
LINE
  5
22B
100
AcDbEntity
  8
0
100
AcDbLine
 62
7
  6
CONTINUOUS
 10
-172.348510361
 20
364.7915810968
 11
-172.4276776317
 21
364.5490279342
  0
LINE
  5
22C
100
AcDbEntity
  8
0
100
AcDbLine
 62
7
  6
CONTINUOUS
 10
-171.9526776317
 20
364.46817688
 11
-171.873510361
 21
364.7107300426
  0
LINE
  5
22D
100
AcDbEntity
  8
0
100
AcDbLine
 62
7
  6
CONTINUOUS
 10
-181.7693439963
 20
365.3575387026
 11
-181.9276767257
 21
365.0341344859
  0
LINE
  5
22E
100
AcDbEntity
  8
0
100
AcDbLine
 62
7
  6
CONTINUOUS
 10
-175.673510361
 20
362.689453518
 11
-175.5151776317
 21
363.0128577913
  0
LINE
  5
22F
100
AcDbEntity
  8
0
100
AcDbLine
 62
7
  6
CONTINUOUS
 10
-163.561010361
 20
364.872432151
 11
-163.7193430904
 21
364.5490279342
  0
LINE
  5
230
100
AcDbEntity
  8
0
100
AcDbLine
 62
7
  6
CONTINUOUS
 10
-163.4818430904
 20
363.0128577913
 11
-163.561010361
 21
362.851155683
  0
LINE
  5
231
100
AcDbEntity
  8
0
100
AcDbLine
 62
7
  6
CONTINUOUS
 10
-190.398510361
 20
364.9532832052
 11
-190.2401770654
 21
365.1958365943
  0
LINE
  5
232
100
AcDbEntity
  8
0
100
AcDbLine
 62
7
  6
CONTINUOUS
 10
-181.4526767257
 20
364.9532832052
 11
-181.2943439963
 21
365.1958365943
  0
LINE
  5
233
100
AcDbEntity
  8
0
100
AcDbLine
 62
7
  6
CONTINUOUS
 10
-175.9901776317
 20
363.0937088455
 11
-176.148510361
 21
362.851155683
  0
LINE
  5
234
100
AcDbEntity
  8
0
100
AcDbLine
 62
7
  6
CONTINUOUS
 10
-165.461010361
 20
365.0341344859
 11
-165.3026776317
 21
365.2766876485
  0
LINE
  5
235
100
AcDbEntity
  8
0
100
AcDbLine
 62
7
  6
CONTINUOUS
 10
-163.4026776317
 20
364.3064747717
 11
-163.2443430904
 21
364.5490279342
  0
LINE
  5
236
100
AcDbEntity
  8
0
100
AcDbLine
 62
7
  6
CONTINUOUS
 10
-172.1901776317
 20
364.1447726633
 11
-171.9526776317
 21
364.46817688
  0
LINE
  5
237
100
AcDbEntity
  8
0
100
AcDbLine
 62
7
  6
CONTINUOUS
 10
-190.398510361
 20
365.6809429194
 11
-190.7151770654
 21
365.3575387026
  0
LINE
  5
238
100
AcDbEntity
  8
0
100
AcDbLine
 62
7
  6
CONTINUOUS
 10
-188.261010361
 20
362.3660492729
 11
-187.9443435433
 21
362.689453518
  0
LINE
  5
239
100
AcDbEntity
  8
0
100
AcDbLine
 62
7
  6
CONTINUOUS
 10
-192.061010361
 20
365.923496082
 11
-192.061010361
 21
362.123496082
  0
LINE
  5
23A
100
AcDbEntity
  8
0
100
AcDbLine
 62
7
  6
CONTINUOUS
 10
-191.586010361
 20
362.123496082
 11
-191.586010361
 21
365.923496082
  0
LINE
  5
23B
100
AcDbEntity
  8
0
100
AcDbLine
 62
7
  6
CONTINUOUS
 10
-190.9526770654
 20
364.6298789884
 11
-190.9526770654
 21
363.4171130623
  0
LINE
  5
23C
100
AcDbEntity
  8
0
100
AcDbLine
 62
7
  6
CONTINUOUS
 10
-190.4776770654
 20
363.4171130623
 11
-190.4776770654
 21
364.6298789884
  0
LINE
  5
23D
100
AcDbEntity
  8
BEZUGSACHSEN
100
AcDbLine
 62
7
  6
CONTINUOUS
 10
-190.311010361
 20
335.373496082
 11
-190.311010361
 21
350.873496082
  0
LINE
  5
23E
100
AcDbEntity
  8
0
100
AcDbLine
 62
7
  6
CONTINUOUS
 10
-187.2318435433
 20
365.923496082
 11
-187.2318435433
 21
362.123496082
  0
LINE
  5
23F
100
AcDbEntity
  8
0
100
AcDbLine
 62
7
  6
CONTINUOUS
 10
-186.7568435433
 20
362.6086024638
 11
-186.7568435433
 21
363.9022195007
  0
LINE
  5
240
100
AcDbEntity
  8
0
100
AcDbLine
 62
7
  6
CONTINUOUS
 10
-186.7568435433
 20
364.3873258258
 11
-186.7568435433
 21
365.4383897568
  0
LINE
  5
241
100
AcDbEntity
  8
0
100
AcDbLine
 62
7
  6
CONTINUOUS
 10
-184.698510361
 20
363.9022195007
 11
-184.698510361
 21
364.3873258258
  0
LINE
  5
242
100
AcDbEntity
  8
0
100
AcDbLine
 62
7
  6
CONTINUOUS
 10
-184.3818439963
 20
362.123496082
 11
-184.3818439963
 21
362.6086024638
  0
LINE
  5
243
100
AcDbEntity
  8
0
100
AcDbLine
 62
7
  6
CONTINUOUS
 10
-184.3818439963
 20
365.4383897568
 11
-184.3818439963
 21
365.923496082
  0
LINE
  5
244
100
AcDbEntity
  8
0
100
AcDbLine
 62
7
  6
CONTINUOUS
 10
-183.748510361
 20
363.9022195007
 11
-183.748510361
 21
363.4979641165
  0
LINE
  5
245
100
AcDbEntity
  8
0
100
AcDbLine
 62
7
  6
CONTINUOUS
 10
-182.6401767257
 20
363.4979641165
 11
-182.6401767257
 21
363.9022195007
  0
LINE
  5
246
100
AcDbEntity
  8
0
100
AcDbLine
 62
7
  6
CONTINUOUS
 10
-182.0068439963
 20
364.6298789884
 11
-182.0068439963
 21
363.4171130623
  0
LINE
  5
247
100
AcDbEntity
  8
0
100
AcDbLine
 62
7
  6
CONTINUOUS
 10
-181.5318439963
 20
363.4171130623
 11
-181.5318439963
 21
364.6298789884
  0
LINE
  5
248
100
AcDbEntity
  8
0
100
AcDbLine
 62
7
  6
CONTINUOUS
 10
-178.286010361
 20
365.923496082
 11
-178.286010361
 21
363.4171130623
  0
LINE
  5
249
100
AcDbEntity
  8
0
100
AcDbLine
 62
7
  6
CONTINUOUS
 10
-177.811010361
 20
363.4171130623
 11
-177.811010361
 21
365.923496082
  0
LINE
  5
24A
100
AcDbEntity
  8
0
100
AcDbLine
 62
7
  6
CONTINUOUS
 10
-175.911010361
 20
365.923496082
 11
-175.911010361
 21
363.4171130623
  0
LINE
  5
24B
100
AcDbEntity
  8
0
100
AcDbLine
 62
7
  6
CONTINUOUS
 10
-175.436010361
 20
363.4171130623
 11
-175.436010361
 21
365.923496082
  0
LINE
  5
24C
100
AcDbEntity
  8
0
100
AcDbLine
 62
7
  6
CONTINUOUS
 10
-174.8026776317
 20
365.923496082
 11
-174.8026776317
 21
362.123496082
  0
LINE
  5
24D
100
AcDbEntity
  8
0
100
AcDbLine
 62
7
  6
CONTINUOUS
 10
-174.3276776317
 20
362.123496082
 11
-174.3276776317
 21
363.8213684465
  0
LINE
  5
24E
100
AcDbEntity
  8
0
100
AcDbLine
 62
7
  6
CONTINUOUS
 10
-174.3276776317
 20
364.3064747717
 11
-174.3276776317
 21
365.519240811
  0
LINE
  5
24F
100
AcDbEntity
  8
0
100
AcDbLine
 62
7
  6
CONTINUOUS
 10
-172.348510361
 20
365.0341344859
 11
-172.348510361
 21
364.7915810968
  0
LINE
  5
250
100
AcDbEntity
  8
0
100
AcDbLine
 62
7
  6
CONTINUOUS
 10
-171.873510361
 20
364.7107300426
 11
-171.873510361
 21
365.0341344859
  0
LINE
  5
251
100
AcDbEntity
  8
0
100
AcDbLine
 62
7
  6
CONTINUOUS
 10
-171.161010361
 20
365.923496082
 11
-171.161010361
 21
365.519240811
  0
LINE
  5
252
100
AcDbEntity
  8
0
100
AcDbLine
 62
7
  6
CONTINUOUS
 10
-169.8943430904
 20
365.519240811
 11
-169.8943430904
 21
362.123496082
  0
LINE
  5
253
100
AcDbEntity
  8
0
100
AcDbLine
 62
7
  6
CONTINUOUS
 10
-165.7776776317
 20
365.3575387026
 11
-165.8568430904
 21
365.0341344859
  0
LINE
  5
254
100
AcDbEntity
  8
0
100
AcDbLine
 62
7
  6
CONTINUOUS
 10
-163.2443430904
 20
364.5490279342
 11
-163.1651776317
 21
364.872432151
  0
LINE
  5
255
100
AcDbEntity
  8
0
100
AcDbLine
 62
7
  6
CONTINUOUS
 10
-163.1651776317
 20
362.7703045721
 11
-163.086010361
 21
363.0128577913
  0
LINE
  5
256
100
AcDbEntity
  8
0
100
AcDbLine
 62
7
  6
CONTINUOUS
 10
-163.323510361
 20
362.5277514096
 11
-163.1651776317
 21
362.7703045721
  0
LINE
  5
257
100
AcDbEntity
  8
0
100
AcDbLine
 62
7
  6
CONTINUOUS
 10
-167.0443430904
 20
365.923496082
 11
-167.5193430904
 21
365.3575387026
  0
LINE
  5
258
100
AcDbEntity
  8
0
100
AcDbLine
 62
7
  6
CONTINUOUS
 10
-167.5193430904
 20
364.7107300426
 11
-167.0443430904
 21
365.2766876485
  0
LINE
  5
259
100
AcDbEntity
  8
0
100
AcDbLine
 62
7
  6
CONTINUOUS
 10
-181.4526767257
 20
365.6809429194
 11
-181.7693439963
 21
365.3575387026
  0
LINE
  5
25A
100
AcDbEntity
  8
0
100
AcDbLine
 62
7
  6
CONTINUOUS
 10
-179.3151767257
 20
362.3660492729
 11
-178.998510361
 21
362.689453518
  0
LINE
  5
25B
100
AcDbEntity
  8
0
100
AcDbLine
 62
7
  6
CONTINUOUS
 10
-175.9901776317
 20
362.3660492729
 11
-175.673510361
 21
362.689453518
  0
LINE
  5
25C
100
AcDbEntity
  8
0
100
AcDbLine
 62
7
  6
CONTINUOUS
 10
-172.4276776317
 20
364.5490279342
 11
-172.586010361
 21
364.3873258258
  0
LINE
  5
25D
100
AcDbEntity
  8
0
100
AcDbLine
 62
7
  6
CONTINUOUS
 10
-165.461010361
 20
365.6809429194
 11
-165.7776776317
 21
365.3575387026
  0
LINE
  5
25E
100
AcDbEntity
  8
0
100
AcDbLine
 62
7
  6
CONTINUOUS
 10
-163.7193430904
 20
364.5490279342
 11
-163.8776776317
 21
364.3873258258
  0
LINE
  5
25F
100
AcDbEntity
  8
0
100
AcDbLine
 62
7
  6
CONTINUOUS
 10
-163.561010361
 20
362.851155683
 11
-163.7193430904
 21
362.689453518
  0
LINE
  5
260
100
AcDbEntity
  8
0
100
AcDbLine
 62
7
  6
CONTINUOUS
 10
-169.4193430904
 20
362.123496082
 11
-169.4193430904
 21
365.519240811
  0
LINE
  5
261
100
AcDbEntity
  8
0
100
AcDbLine
 62
7
  6
CONTINUOUS
 10
-168.1526776317
 20
365.519240811
 11
-168.1526776317
 21
365.923496082
  0
LINE
  5
262
100
AcDbEntity
  8
0
100
AcDbLine
 62
7
  6
CONTINUOUS
 10
-167.5193430904
 20
365.3575387026
 11
-167.5193430904
 21
364.7107300426
  0
LINE
  5
263
100
AcDbEntity
  8
0
100
AcDbLine
 62
7
  6
CONTINUOUS
 10
-167.0443430904
 20
365.2766876485
 11
-167.0443430904
 21
362.123496082
  0
LINE
  5
264
100
AcDbEntity
  8
0
100
AcDbLine
 62
7
  6
CONTINUOUS
 10
-166.5693430904
 20
362.123496082
 11
-166.5693430904
 21
365.923496082
  0
LINE
  5
265
100
AcDbEntity
  8
0
100
AcDbLine
 62
7
  6
CONTINUOUS
 10
-164.6693430904
 20
364.2256237175
 11
-164.6693430904
 21
363.9022195007
  0
LINE
  5
266
100
AcDbEntity
  8
0
100
AcDbLine
 62
7
  6
CONTINUOUS
 10
-163.561010361
 20
365.0341344859
 11
-163.561010361
 21
364.872432151
  0
LINE
  5
267
100
AcDbEntity
  8
0
100
AcDbLine
 62
7
  6
CONTINUOUS
 10
-163.4818430904
 20
363.3362620081
 11
-163.4818430904
 21
363.0128577913
  0
LINE
  5
268
100
AcDbEntity
  8
0
100
AcDbLine
 62
7
  6
CONTINUOUS
 10
-163.1651776317
 20
364.872432151
 11
-163.1651776317
 21
365.0341344859
  0
LINE
  5
269
100
AcDbEntity
  8
0
100
AcDbLine
 62
7
  6
CONTINUOUS
 10
-163.086010361
 20
363.0128577913
 11
-163.086010361
 21
363.3362620081
  0
LINE
  5
26A
100
AcDbEntity
  8
RUNDUNGEN
100
AcDbLine
 62
7
  6
CONTINUOUS
 10
-154.561010361
 20
315.623496082
 11
-154.561010361
 21
370.623496082
  0
LINE
  5
26B
100
AcDbEntity
  8
0
100
AcDbLine
 62
7
  6
CONTINUOUS
 10
-163.7193430904
 20
364.0639216091
 11
-163.4026776317
 21
364.3064747717
  0
LINE
  5
26C
100
AcDbEntity
  8
0
100
AcDbLine
 62
7
  6
CONTINUOUS
 10
-190.2401770654
 20
365.1958365943
 11
-190.0026769522
 21
365.3575387026
  0
LINE
  5
26D
100
AcDbEntity
  8
0
100
AcDbLine
 62
7
  6
CONTINUOUS
 10
-188.4193437698
 20
362.851155683
 11
-188.6568437698
 21
362.689453518
  0
LINE
  5
26E
100
AcDbEntity
  8
0
100
AcDbLine
 62
7
  6
CONTINUOUS
 10
-181.2943439963
 20
365.1958365943
 11
-181.0568439963
 21
365.3575387026
  0
LINE
  5
26F
100
AcDbEntity
  8
0
100
AcDbLine
 62
7
  6
CONTINUOUS
 10
-179.473510361
 20
362.851155683
 11
-179.711010361
 21
362.689453518
  0
LINE
  5
270
100
AcDbEntity
  8
0
100
AcDbLine
 62
7
  6
CONTINUOUS
 10
-176.148510361
 20
362.851155683
 11
-176.386010361
 21
362.689453518
  0
LINE
  5
271
100
AcDbEntity
  8
0
100
AcDbLine
 62
7
  6
CONTINUOUS
 10
-165.3026776317
 20
365.2766876485
 11
-165.0651776317
 21
365.4383897568
  0
LINE
  5
272
100
AcDbEntity
  8
0
100
AcDbLine
 62
7
  6
CONTINUOUS
 10
-163.561010361
 20
362.3660492729
 11
-163.323510361
 21
362.5277514096
  0
LINE
  5
273
100
AcDbEntity
  8
0
100
AcDbLine
 62
7
  6
CONTINUOUS
 10
-190.0818437698
 20
365.8426450278
 11
-190.398510361
 21
365.6809429194
  0
LINE
  5
274
100
AcDbEntity
  8
0
100
AcDbLine
 62
7
  6
CONTINUOUS
 10
-190.398510361
 20
363.0937088455
 11
-190.4776770654
 21
363.4171130623
  0
LINE
  5
275
100
AcDbEntity
  8
0
100
AcDbLine
 62
7
  6
CONTINUOUS
 10
-190.9526770654
 20
363.4171130623
 11
-190.873510361
 21
363.0128577913
  0
LINE
  5
276
100
AcDbEntity
  8
0
100
AcDbLine
 62
7
  6
CONTINUOUS
 10
-187.8651771787
 20
364.9532832052
 11
-187.9443435433
 21
365.3575387026
  0
LINE
  5
277
100
AcDbEntity
  8
0
100
AcDbLine
 62
7
  6
CONTINUOUS
 10
-182.0068439963
 20
363.4171130623
 11
-181.9276767257
 21
363.0128577913
  0
LINE
  5
278
100
AcDbEntity
  8
0
100
AcDbLine
 62
7
  6
CONTINUOUS
 10
-178.9193439963
 20
364.9532832052
 11
-178.998510361
 21
365.3575387026
  0
LINE
  5
279
100
AcDbEntity
  8
0
100
AcDbLine
 62
7
  6
CONTINUOUS
 10
-188.5776769522
 20
362.2043471433
 11
-188.261010361
 21
362.3660492729
  0
LINE
  5
27A
100
AcDbEntity
  8
0
100
AcDbLine
 62
7
  6
CONTINUOUS
 10
-181.136010361
 20
365.8426450278
 11
-181.4526767257
 21
365.6809429194
  0
LINE
  5
27B
100
AcDbEntity
  8
0
100
AcDbLine
 62
7
  6
CONTINUOUS
 10
-179.6318439963
 20
362.2043471433
 11
-179.3151767257
 21
362.3660492729
  0
LINE
  5
27C
100
AcDbEntity
  8
0
100
AcDbLine
 62
7
  6
CONTINUOUS
 10
-176.3068430904
 20
362.2043471433
 11
-175.9901776317
 21
362.3660492729
  0
LINE
  5
27D
100
AcDbEntity
  8
0
100
AcDbLine
 62
7
  6
CONTINUOUS
 10
-172.5068430904
 20
363.9830705549
 11
-172.1901776317
 21
364.1447726633
  0
LINE
  5
27E
100
AcDbEntity
  8
0
100
AcDbLine
 62
7
  6
CONTINUOUS
 10
-165.1443430904
 20
365.8426450278
 11
-165.461010361
 21
365.6809429194
  0
LINE
  5
27F
100
AcDbEntity
  8
0
100
AcDbLine
 62
7
  6
CONTINUOUS
 10
-163.7193430904
 20
362.689453518
 11
-163.8776776317
 21
362.6086024638
  0
LINE
  5
280
100
AcDbEntity
  8
0
100
AcDbLine
 62
7
  6
CONTINUOUS
 10
-163.8776776317
 20
362.2043471433
 11
-163.561010361
 21
362.3660492729
  0
LINE
  5
281
100
AcDbEntity
  8
0
100
AcDbLine
 62
7
  6
CONTINUOUS
 10
-188.4193437698
 20
365.1958365943
 11
-188.3401769522
 21
364.9532832052
  0
LINE
  5
282
100
AcDbEntity
  8
0
100
AcDbLine
 62
7
  6
CONTINUOUS
 10
-181.4526767257
 20
363.0937088455
 11
-181.5318439963
 21
363.4171130623
  0
LINE
  5
283
100
AcDbEntity
  8
0
100
AcDbLine
 62
7
  6
CONTINUOUS
 10
-177.7318439963
 20
363.0937088455
 11
-177.811010361
 21
363.4171130623
  0
LINE
  5
284
100
AcDbEntity
  8
0
100
AcDbLine
 62
7
  6
CONTINUOUS
 10
-163.086010361
 20
363.3362620081
 11
-163.1651776317
 21
363.6596663381
  0
LINE
  5
285
100
AcDbEntity
  8
0
100
AcDbLine
 62
7
  6
CONTINUOUS
 10
-163.1651776317
 20
365.0341344859
 11
-163.2443430904
 21
365.3575387026
  0
LINE
  5
286
100
AcDbEntity
  8
0
100
AcDbLine
 62
7
  6
CONTINUOUS
 10
-178.286010361
 20
363.4171130623
 11
-178.2068439963
 21
363.0128577913
  0
LINE
  5
287
100
AcDbEntity
  8
RUNDUNGEN
100
AcDbLine
 62
7
  6
CONTINUOUS
 10
-99.561010361
 20
315.123496082
 11
-99.561010361
 21
371.123496082
  0
LINE
  5
288
100
AcDbEntity
  8
RUNDUNGEN
100
AcDbLine
 62
7
  6
CONTINUOUS
 10
-93.561010361
 20
313.623496082
 11
-93.561010361
 21
372.623496082
  0
LINE
  5
289
100
AcDbEntity
  8
0
100
AcDbLine
 62
7
  6
CONTINUOUS
 10
-172.586010361
 20
364.3873258258
 11
-172.823510361
 21
364.3064747717
  0
LINE
  5
28A
100
AcDbEntity
  8
0
100
AcDbLine
 62
7
  6
CONTINUOUS
 10
-163.8776776317
 20
364.3873258258
 11
-164.3526776317
 21
364.2256237175
  0
LINE
  5
28B
100
AcDbEntity
  8
0
100
AcDbLine
 62
7
  6
CONTINUOUS
 10
-218.2930611686
 20
320.5516993123
 11
-213.1383606302
 21
311.623496082
  0
LINE
  5
28C
100
AcDbEntity
  8
0
100
AcDbLine
 62
7
  6
CONTINUOUS
 10
-171.7943430904
 20
362.123496082
 11
-172.5068430904
 21
363.9830705549
  0
LINE
  5
28D
100
AcDbEntity
  8
0
100
AcDbLine
 62
7
  6
CONTINUOUS
 10
-172.9818430904
 20
363.8213684465
 11
-172.348510361
 21
362.123496082
  0
LINE
  5
28E
100
AcDbEntity
  8
0
100
AcDbLine
 62
7
  6
CONTINUOUS
 10
-179.473510361
 20
365.1958365943
 11
-179.3943439963
 21
364.9532832052
  0
LINE
  5
28F
100
AcDbEntity
  8
0
100
AcDbLine
 62
7
  6
CONTINUOUS
 10
-172.4276776317
 20
365.2766876485
 11
-172.348510361
 21
365.0341344859
  0
LINE
  5
290
100
AcDbEntity
  8
0
100
AcDbLine
 62
7
  6
CONTINUOUS
 10
-171.873510361
 20
365.0341344859
 11
-171.9526776317
 21
365.2766876485
  0
LINE
  5
291
100
AcDbEntity
  8
0
100
AcDbLine
 62
7
  6
CONTINUOUS
 10
-165.936010361
 20
363.0128577913
 11
-165.8568430904
 21
362.7703045721
  0
LINE
  5
292
100
AcDbEntity
  8
0
100
AcDbLine
 62
7
  6
CONTINUOUS
 10
-190.873510361
 20
363.0128577913
 11
-190.7151770654
 21
362.689453518
  0
LINE
  5
293
100
AcDbEntity
  8
0
100
AcDbLine
 62
7
  6
CONTINUOUS
 10
-181.9276767257
 20
363.0128577913
 11
-181.7693439963
 21
362.689453518
  0
LINE
  5
294
100
AcDbEntity
  8
0
100
AcDbLine
 62
7
  6
CONTINUOUS
 10
-178.2068439963
 20
363.0128577913
 11
-178.048510361
 21
362.689453518
  0
LINE
  5
295
100
AcDbEntity
  8
0
100
AcDbLine
 62
7
  6
CONTINUOUS
 10
-165.461010361
 20
362.851155683
 11
-165.5401776317
 21
363.0128577913
  0
LINE
  5
296
100
AcDbEntity
  8
0
100
AcDbLine
 62
7
  6
CONTINUOUS
 10
-163.6401776317
 20
363.6596663381
 11
-163.4818430904
 21
363.3362620081
  0
LINE
  5
297
100
AcDbEntity
  8
RUNDUNGEN
100
AcDbLine
 62
7
  6
CONTINUOUS
 10
-45.561010361
 20
371.123496082
 11
-45.561010361
 21
315.123496082
  0
LINE
  5
298
100
AcDbEntity
  8
RUNDUNGEN
100
AcDbLine
 62
7
  6
CONTINUOUS
 10
-40.161010361
 20
340.3234874085
 11
-40.161010361
 21
345.9235048808
  0
LINE
  5
299
100
AcDbEntity
  8
0
100
AcDbLine
 62
7
  6
CONTINUOUS
 10
-27.9782338863
 20
314.9319756391
 11
-22.4326767852
 21
318.8150165249
  0
LINE
  5
29A
100
AcDbEntity
  8
0
100
AcDbLine
 62
7
  6
CONTINUOUS
 10
-190.2401770654
 20
362.851155683
 11
-190.398510361
 21
363.0937088455
  0
LINE
  5
29B
100
AcDbEntity
  8
0
100
AcDbLine
 62
7
  6
CONTINUOUS
 10
-181.2943439963
 20
362.851155683
 11
-181.4526767257
 21
363.0937088455
  0
LINE
  5
29C
100
AcDbEntity
  8
0
100
AcDbLine
 62
7
  6
CONTINUOUS
 10
-177.573510361
 20
362.851155683
 11
-177.7318439963
 21
363.0937088455
  0
LINE
  5
29D
100
AcDbEntity
  8
RUNDUNGEN
100
AcDbLine
 62
7
  6
CONTINUOUS
 10
-8.561010361
 20
335.9236070838
 11
-8.561010361
 21
350.3233710444
  0
LINE
  5
29E
100
AcDbEntity
  8
0
100
AcDbLine
 62
7
  6
CONTINUOUS
 10
51.438989639
 20
335.123496082
 11
47.438989639
 21
331.123496082
  0
LINE
  5
29F
100
AcDbEntity
  8
0
100
AcDbLine
 62
7
  6
CONTINUOUS
 10
65.438989639
 20
337.123496082
 11
63.438989639
 21
335.123496082
  0
LINE
  5
2A0
100
AcDbEntity
  8
0
100
AcDbLine
 62
7
  6
CONTINUOUS
 10
162.438989639
 20
23.123496082
 11
170.438989639
 21
23.123496082
  0
LINE
  5
2A1
100
AcDbEntity
  8
0
100
AcDbLine
 62
7
  6
CONTINUOUS
 10
-171.9526776317
 20
365.2766876485
 11
-172.1901776317
 21
365.6000918652
  0
LINE
  5
2A2
100
AcDbEntity
  8
0
100
AcDbLine
 62
7
  6
CONTINUOUS
 10
-165.8568430904
 20
362.7703045721
 11
-165.698510361
 21
362.5277514096
  0
LINE
  5
2A3
100
AcDbEntity
  8
0
100
AcDbLine
 62
7
  6
CONTINUOUS
 10
-163.1651776317
 20
363.6596663381
 11
-163.323510361
 21
363.9022195007
  0
LINE
  5
2A4
100
AcDbEntity
  8
0
100
AcDbLine
 62
7
  6
CONTINUOUS
 10
-163.7193430904
 20
365.2766876485
 11
-163.561010361
 21
365.0341344859
  0
LINE
  5
2A5
100
AcDbEntity
  8
0
100
AcDbLine
 62
7
  6
CONTINUOUS
 10
138.7502754518
 20
365.9250329781
 11
141.2145599548
 21
366.8219591859
  0
LINE
  5
2A6
100
AcDbEntity
  8
0
100
AcDbLine
 62
7
  6
CONTINUOUS
 10
-190.7151770654
 20
362.689453518
 11
-190.398510361
 21
362.3660492729
  0
LINE
  5
2A7
100
AcDbEntity
  8
0
100
AcDbLine
 62
7
  6
CONTINUOUS
 10
-187.9443435433
 20
365.3575387026
 11
-188.261010361
 21
365.6809429194
  0
LINE
  5
2A8
100
AcDbEntity
  8
0
100
AcDbLine
 62
7
  6
CONTINUOUS
 10
47.438989639
 20
331.123496082
 11
47.438989639
 21
332.4581315781
  0
LINE
  5
2A9
100
AcDbEntity
  8
0
100
AcDbLine
 62
7
  6
CONTINUOUS
 10
47.438989639
 20
337.623496082
 11
47.438989639
 21
355.123496082
  0
LINE
  5
2AA
100
AcDbEntity
  8
0
100
AcDbLine
 62
7
  6
CONTINUOUS
 10
51.438989639
 20
335.123496082
 11
51.438989639
 21
337.3140210627
  0
LINE
  5
2AB
100
AcDbEntity
  8
0
100
AcDbLine
 62
7
  6
CONTINUOUS
 10
51.438989639
 20
337.623496082
 11
51.438989639
 21
351.123496082
  0
LINE
  5
2AC
100
AcDbEntity
  8
0
100
AcDbLine
 62
7
  6
CONTINUOUS
 10
-181.7693439963
 20
362.689453518
 11
-181.4526767257
 21
362.3660492729
  0
LINE
  5
2AD
100
AcDbEntity
  8
0
100
AcDbLine
 62
7
  6
CONTINUOUS
 10
-178.048510361
 20
362.689453518
 11
-177.7318439963
 21
362.3660492729
  0
LINE
  5
2AE
100
AcDbEntity
  8
0
100
AcDbLine
 62
7
  6
CONTINUOUS
 10
-178.998510361
 20
365.3575387026
 11
-179.3151767257
 21
365.6809429194
  0
LINE
  5
2AF
100
AcDbEntity
  8
0
100
AcDbLine
 62
7
  6
CONTINUOUS
 10
-172.586010361
 20
365.4383897568
 11
-172.4276776317
 21
365.2766876485
  0
LINE
  5
2B0
100
AcDbEntity
  8
0
100
AcDbLine
 62
7
  6
CONTINUOUS
 10
-165.3026776317
 20
362.689453518
 11
-165.461010361
 21
362.851155683
  0
LINE
  5
2B1
100
AcDbEntity
  8
0
100
AcDbLine
 62
7
  6
CONTINUOUS
 10
-163.2443430904
 20
365.3575387026
 11
-163.561010361
 21
365.6809429194
  0
LINE
  5
2B2
100
AcDbEntity
  8
0
100
AcDbLine
 62
7
  6
CONTINUOUS
 10
63.438989639
 20
335.123496082
 11
63.438989639
 21
337.3140210627
  0
LINE
  5
2B3
100
AcDbEntity
  8
0
100
AcDbLine
 62
7
  6
CONTINUOUS
 10
63.438989639
 20
337.623496082
 11
63.438989639
 21
351.123496082
  0
LINE
  5
2B4
100
AcDbEntity
  8
0
100
AcDbLine
 62
7
  6
CONTINUOUS
 10
65.438989639
 20
337.123496082
 11
65.438989639
 21
349.123496082
  0
LINE
  5
2B5
100
AcDbEntity
  8
0
100
AcDbLine
 62
7
  6
CONTINUOUS
 10
191.6634193232
 20
319.4250329781
 11
194.1277038262
 21
320.3219591859
  0
LINE
  5
2B6
100
AcDbEntity
  8
0
100
AcDbLine
 62
7
  6
CONTINUOUS
 10
-190.0026769522
 20
362.689453518
 11
-190.2401770654
 21
362.851155683
  0
LINE
  5
2B7
100
AcDbEntity
  8
0
100
AcDbLine
 62
7
  6
CONTINUOUS
 10
-188.6568437698
 20
365.3575387026
 11
-188.4193437698
 21
365.1958365943
  0
LINE
  5
2B8
100
AcDbEntity
  8
0
100
AcDbLine
 62
7
  6
CONTINUOUS
 10
-181.0568439963
 20
362.689453518
 11
-181.2943439963
 21
362.851155683
  0
LINE
  5
2B9
100
AcDbEntity
  8
0
100
AcDbLine
 62
7
  6
CONTINUOUS
 10
-177.336010361
 20
362.689453518
 11
-177.573510361
 21
362.851155683
  0
LINE
  5
2BA
100
AcDbEntity
  8
0
100
AcDbLine
 62
7
  6
CONTINUOUS
 10
-179.711010361
 20
365.3575387026
 11
-179.473510361
 21
365.1958365943
  0
LINE
  5
2BB
100
AcDbEntity
  8
0
100
AcDbLine
 62
7
  6
CONTINUOUS
 10
-165.698510361
 20
362.5277514096
 11
-165.461010361
 21
362.3660492729
  0
LINE
  5
2BC
100
AcDbEntity
  8
0
100
AcDbLine
 62
7
  6
CONTINUOUS
 10
-172.1901776317
 20
365.6000918652
 11
-172.5068430904
 21
365.8426450278
  0
LINE
  5
2BD
100
AcDbEntity
  8
0
100
AcDbLine
 62
7
  6
CONTINUOUS
 10
279.438989639
 20
351.123496082
 11
277.438989639
 21
349.123496082
  0
LINE
  5
2BE
100
AcDbEntity
  8
0
100
AcDbLine
 62
7
  6
CONTINUOUS
 10
501.9389895198
 20
365.1979640986
 11
501.5639895198
 21
365.0703045394
  0
LINE
  5
2BF
100
AcDbEntity
  8
0
100
AcDbLine
 62
7
  6
CONTINUOUS
 10
-163.8776776317
 20
363.8213684465
 11
-163.6401776317
 21
363.6596663381
  0
LINE
  5
2C0
100
AcDbEntity
  8
0
100
AcDbLine
 62
7
  6
CONTINUOUS
 10
-163.9568430904
 20
365.4383897568
 11
-163.7193430904
 21
365.2766876485
  0
LINE
  5
2C1
100
AcDbEntity
  8
BEZUGSACHSEN
100
AcDbLine
 62
7
  6
CONTINUOUS
 10
148.438989639
 20
376.1234960778
 11
148.438989639
 21
272.5265611711
  0
LINE
  5
2C2
100
AcDbEntity
  8
BEZUGSACHSEN
100
AcDbLine
 62
7
  6
CONTINUOUS
 10
157.438989639
 20
233.7204311667
 11
157.438989639
 21
28.123496082
  0
LINE
  5
2C3
100
AcDbEntity
  8
BEZUGSACHSEN
100
AcDbLine
 62
7
  6
CONTINUOUS
 10
159.438989639
 20
308.623496082
 11
159.438989639
 21
381.1234155405
  0
LINE
  5
2C4
100
AcDbEntity
  8
RUNDUNGEN
100
AcDbLine
 62
7
  6
CONTINUOUS
 10
183.1737781956
 20
263.9061246041
 11
176.704201476
 21
242.340868872
  0
LINE
  5
2C5
100
AcDbEntity
  8
0
100
AcDbLine
 62
7
  6
CONTINUOUS
 10
295.438989639
 20
355.123496082
 11
291.438989639
 21
351.123496082
  0
LINE
  5
2C6
100
AcDbEntity
  8
0
100
AcDbLine
 62
7
  6
CONTINUOUS
 10
-190.398510361
 20
362.3660492729
 11
-190.0818437698
 21
362.2043471433
  0
LINE
  5
2C7
100
AcDbEntity
  8
0
100
AcDbLine
 62
7
  6
CONTINUOUS
 10
-188.261010361
 20
365.6809429194
 11
-188.5776769522
 21
365.8426450278
  0
LINE
  5
2C8
100
AcDbEntity
  8
0
100
AcDbLine
 62
7
  6
CONTINUOUS
 10
-181.4526767257
 20
362.3660492729
 11
-181.136010361
 21
362.2043471433
  0
LINE
  5
2C9
100
AcDbEntity
  8
0
100
AcDbLine
 62
7
  6
CONTINUOUS
 10
-177.7318439963
 20
362.3660492729
 11
-177.4151767257
 21
362.2043471433
  0
LINE
  5
2CA
100
AcDbEntity
  8
0
100
AcDbLine
 62
7
  6
CONTINUOUS
 10
-179.3151767257
 20
365.6809429194
 11
-179.6318439963
 21
365.8426450278
  0
LINE
  5
2CB
100
AcDbEntity
  8
0
100
AcDbLine
 62
7
  6
CONTINUOUS
 10
-165.461010361
 20
362.3660492729
 11
-165.1443430904
 21
362.2043471433
  0
LINE
  5
2CC
100
AcDbEntity
  8
0
100
AcDbLine
 62
7
  6
CONTINUOUS
 10
-165.1443430904
 20
362.6086024638
 11
-165.3026776317
 21
362.689453518
  0
LINE
  5
2CD
100
AcDbEntity
  8
0
100
AcDbLine
 62
7
  6
CONTINUOUS
 10
-163.561010361
 20
365.6809429194
 11
-163.8776776317
 21
365.8426450278
  0
LINE
  5
2CE
100
AcDbEntity
  8
BEZUGSACHSEN
100
AcDbLine
 62
7
  6
CONTINUOUS
 10
149.7042010824
 20
263.9061246041
 11
156.173777802
 21
242.340868872
  0
LINE
  5
2CF
100
AcDbEntity
  8
RUNDUNGEN
100
AcDbLine
 62
7
  6
CONTINUOUS
 10
173.438989639
 20
308.623496082
 11
173.438989639
 21
381.1234155405
  0
LINE
  5
2D0
100
AcDbEntity
  8
RUNDUNGEN
100
AcDbLine
 62
7
  6
CONTINUOUS
 10
175.438989639
 20
233.7204311667
 11
175.438989639
 21
28.123496082
  0
LINE
  5
2D1
100
AcDbEntity
  8
RUNDUNGEN
100
AcDbLine
 62
7
  6
CONTINUOUS
 10
184.438989639
 20
376.1234960778
 11
184.438989639
 21
272.5265611711
  0
LINE
  5
2D2
100
AcDbEntity
  8
0
100
AcDbLine
 62
7
  6
CONTINUOUS
 10
502.0639897582
 20
364.5596663024
 11
502.563989639
 21
364.8149854209
  0
LINE
  5
2D3
100
AcDbEntity
  8
0
100
AcDbLine
 62
7
  6
CONTINUOUS
 10
507.3139894006
 20
361.7511556524
 11
507.813989639
 21
362.0064748044
  0
LINE
  5
2D4
100
AcDbEntity
  8
0
100
AcDbLine
 62
7
  6
CONTINUOUS
 10
513.3139901158
 20
361.7511556524
 11
513.813989639
 21
362.0064748044
  0
LINE
  5
2D5
100
AcDbEntity
  8
0
100
AcDbLine
 62
7
  6
CONTINUOUS
 10
-163.323510361
 20
363.9022195007
 11
-163.7193430904
 21
364.0639216091
  0
LINE
  5
2D6
100
AcDbEntity
  8
0
100
AcDbLine
 62
7
  6
CONTINUOUS
 10
-27.9782338863
 20
371.3150165249
 11
-22.4326767852
 21
367.4319756391
  0
LINE
  5
2D7
100
AcDbEntity
  8
0
100
AcDbLine
 62
7
  6
CONTINUOUS
 10
51.438989639
 20
351.123496082
 11
47.438989639
 21
355.123496082
  0
LINE
  5
2D8
100
AcDbEntity
  8
0
100
AcDbLine
 62
7
  6
CONTINUOUS
 10
507.5639898774
 20
362.772432294
 11
507.1889898774
 21
362.5171130861
  0
LINE
  5
2D9
100
AcDbEntity
  8
0
100
AcDbLine
 62
7
  6
CONTINUOUS
 10
-172.823510361
 20
365.519240811
 11
-172.586010361
 21
365.4383897568
  0
LINE
  5
2DA
100
AcDbEntity
  8
0
100
AcDbLine
 62
7
  6
CONTINUOUS
 10
63.438989639
 20
351.123496082
 11
65.438989639
 21
349.123496082
  0
LINE
  5
2DB
100
AcDbEntity
  8
0
100
AcDbLine
 62
7
  6
CONTINUOUS
 10
513.5639891622
 20
362.772432294
 11
513.1889891622
 21
362.5171130861
  0
LINE
  5
2DC
100
AcDbEntity
  8
0
100
AcDbLine
 62
7
  6
CONTINUOUS
 10
513.1889891622
 20
362.5171130861
 11
512.688989639
 21
362.3894535269
  0
LINE
  5
2DD
100
AcDbEntity
  8
0
100
AcDbLine
 62
7
  6
CONTINUOUS
 10
507.1889898774
 20
362.5171130861
 11
506.688989639
 21
362.3894535269
  0
LINE
  5
2DE
100
AcDbEntity
  8
0
100
AcDbLine
 62
7
  6
CONTINUOUS
 10
512.688989639
 20
361.623496082
 11
513.3139901158
 21
361.7511556524
  0
LINE
  5
2DF
100
AcDbEntity
  8
0
100
AcDbLine
 62
7
  6
CONTINUOUS
 10
506.688989639
 20
361.623496082
 11
507.3139894006
 21
361.7511556524
  0
LINE
  5
2E0
100
AcDbEntity
  8
0
100
AcDbLine
 62
7
  6
CONTINUOUS
 10
-190.0818437698
 20
362.2043471433
 11
-189.686010361
 21
362.123496082
  0
LINE
  5
2E1
100
AcDbEntity
  8
0
100
AcDbLine
 62
7
  6
CONTINUOUS
 10
-181.136010361
 20
362.2043471433
 11
-180.7401767257
 21
362.123496082
  0
LINE
  5
2E2
100
AcDbEntity
  8
0
100
AcDbLine
 62
7
  6
CONTINUOUS
 10
-177.4151767257
 20
362.2043471433
 11
-177.0193439963
 21
362.123496082
  0
LINE
  5
2E3
100
AcDbEntity
  8
0
100
AcDbLine
 62
7
  6
CONTINUOUS
 10
-189.686010361
 20
362.6086024638
 11
-190.0026769522
 21
362.689453518
  0
LINE
  5
2E4
100
AcDbEntity
  8
0
100
AcDbLine
 62
7
  6
CONTINUOUS
 10
-180.7401767257
 20
362.6086024638
 11
-181.0568439963
 21
362.689453518
  0
LINE
  5
2E5
100
AcDbEntity
  8
0
100
AcDbLine
 62
7
  6
CONTINUOUS
 10
-188.973510361
 20
365.4383897568
 11
-188.6568437698
 21
365.3575387026
  0
LINE
  5
2E6
100
AcDbEntity
  8
0
100
AcDbLine
 62
7
  6
CONTINUOUS
 10
-177.0193439963
 20
362.6086024638
 11
-177.336010361
 21
362.689453518
  0
LINE
  5
2E7
100
AcDbEntity
  8
0
100
AcDbLine
 62
7
  6
CONTINUOUS
 10
-180.0276767257
 20
365.4383897568
 11
-179.711010361
 21
365.3575387026
  0
LINE
  5
2E8
100
AcDbEntity
  8
0
100
AcDbLine
 62
7
  6
CONTINUOUS
 10
-165.1443430904
 20
362.2043471433
 11
-164.8276776317
 21
362.123496082
  0
LINE
  5
2E9
100
AcDbEntity
  8
0
100
AcDbLine
 62
7
  6
CONTINUOUS
 10
277.438989639
 20
337.123496082
 11
277.438989639
 21
349.123496082
  0
LINE
  5
2EA
100
AcDbEntity
  8
0
100
AcDbLine
 62
7
  6
CONTINUOUS
 10
279.438989639
 20
335.123496082
 11
279.438989639
 21
351.123496082
  0
LINE
  5
2EB
100
AcDbEntity
  8
BEZUGSACHSEN
100
AcDbLine
 62
7
  6
CONTINUOUS
 10
170.438989639
 20
305.623496082
 11
162.438989639
 21
305.623496082
  0
LINE
  5
2EC
100
AcDbEntity
  8
0
100
AcDbLine
 62
7
  6
CONTINUOUS
 10
172.0973020342
 20
306.123496082
 11
160.7806772438
 21
306.123496082
  0
LINE
  5
2ED
100
AcDbEntity
  8
BEZUGSACHSEN
100
AcDbLine
 62
7
  6
CONTINUOUS
 10
160.7806772438
 20
306.123496082
 11
172.0973020342
 21
306.123496082
  0
LINE
  5
2EE
100
AcDbEntity
  8
RUNDUNGEN
100
AcDbLine
 62
7
  6
CONTINUOUS
 10
-211.406139162
 20
310.623496082
 11
-161.561010361
 21
310.623496082
  0
LINE
  5
2EF
100
AcDbEntity
  8
RUNDUNGEN
100
AcDbLine
 62
7
  6
CONTINUOUS
 10
494.438989639
 20
310.623496082
 11
544.28411844
 21
310.623496082
  0
LINE
  5
2F0
100
AcDbEntity
  8
0
100
AcDbLine
 62
7
  6
CONTINUOUS
 10
-97.561010361
 20
313.123496082
 11
-94.061010361
 21
313.123496082
  0
LINE
  5
2F1
100
AcDbEntity
  8
0
100
AcDbLine
 62
7
  6
CONTINUOUS
 10
-43.561010361
 20
313.123496082
 11
-33.7139982498
 21
313.123496082
  0
LINE
  5
2F2
100
AcDbEntity
  8
RUNDUNGEN
100
AcDbLine
 62
7
  6
CONTINUOUS
 10
513.438989639
 20
315.623496082
 11
499.438989639
 21
315.623496082
  0
LINE
  5
2F3
100
AcDbEntity
  8
RUNDUNGEN
100
AcDbLine
 62
7
  6
CONTINUOUS
 10
-166.561010361
 20
316.123496082
 11
-188.561010361
 21
316.123496082
  0
LINE
  5
2F4
100
AcDbEntity
  8
0
100
AcDbLine
 62
7
  6
CONTINUOUS
 10
378.438989639
 20
319.123496082
 11
355.3843667189
 21
319.123496082
  0
LINE
  5
2F5
100
AcDbEntity
  8
0
100
AcDbLine
 62
7
  6
CONTINUOUS
 10
189.9533186066
 20
319.123496082
 11
184.438989639
 21
319.123496082
  0
LINE
  5
2F6
100
AcDbEntity
  8
0
100
AcDbLine
 62
7
  6
CONTINUOUS
 10
148.438989639
 20
319.123496082
 11
142.9246606714
 21
319.123496082
  0
LINE
  5
2F7
100
AcDbEntity
  8
RUNDUNGEN
100
AcDbLine
 62
7
  6
CONTINUOUS
 10
142.9246606714
 20
319.123496082
 11
148.438989639
 21
319.123496082
  0
LINE
  5
2F8
100
AcDbEntity
  8
RUNDUNGEN
100
AcDbLine
 62
7
  6
CONTINUOUS
 10
184.438989639
 20
319.123496082
 11
189.9533186066
 21
319.123496082
  0
LINE
  5
2F9
100
AcDbEntity
  8
RUNDUNGEN
100
AcDbLine
 62
7
  6
CONTINUOUS
 10
355.3843667189
 20
319.123496082
 11
378.438989639
 21
319.123496082
  0
LINE
  5
2FA
100
AcDbEntity
  8
0
100
AcDbLine
 62
7
  6
CONTINUOUS
 10
-163.8776776317
 20
365.8426450278
 11
-164.4318430904
 21
365.923496082
  0
LINE
  5
2FB
100
AcDbEntity
  8
0
100
AcDbLine
 62
7
  6
CONTINUOUS
 10
-164.3526776317
 20
363.9022195007
 11
-163.8776776317
 21
363.8213684465
  0
LINE
  5
2FC
100
AcDbEntity
  8
0
100
AcDbLine
 62
7
  6
CONTINUOUS
 10
-188.5776769522
 20
365.8426450278
 11
-188.973510361
 21
365.923496082
  0
LINE
  5
2FD
100
AcDbEntity
  8
0
100
AcDbLine
 62
7
  6
CONTINUOUS
 10
-164.748510361
 20
362.5277514096
 11
-165.1443430904
 21
362.6086024638
  0
LINE
  5
2FE
100
AcDbEntity
  8
0
100
AcDbLine
 62
7
  6
CONTINUOUS
 10
-179.6318439963
 20
365.8426450278
 11
-180.0276767257
 21
365.923496082
  0
LINE
  5
2FF
100
AcDbEntity
  8
0
100
AcDbLine
 62
7
  6
CONTINUOUS
 10
-172.5068430904
 20
365.8426450278
 11
-172.9026776317
 21
365.923496082
  0
LINE
  5
300
100
AcDbEntity
  8
0
100
AcDbLine
 62
7
  6
CONTINUOUS
 10
-164.3526776317
 20
365.519240811
 11
-163.9568430904
 21
365.4383897568
  0
LINE
  5
301
100
AcDbEntity
  8
0
100
AcDbLine
 62
7
  6
CONTINUOUS
 10
138.7502754518
 20
320.3219591859
 11
141.2145599548
 21
319.4250329781
  0
LINE
  5
302
100
AcDbEntity
  8
0
100
AcDbLine
 62
7
  6
CONTINUOUS
 10
291.438989639
 20
335.123496082
 11
291.438989639
 21
351.123496082
  0
LINE
  5
303
100
AcDbEntity
  8
0
100
AcDbLine
 62
7
  6
CONTINUOUS
 10
295.438989639
 20
331.123496082
 11
295.438989639
 21
355.123496082
  0
LINE
  5
304
100
AcDbEntity
  8
0
100
AcDbLine
 62
7
  6
CONTINUOUS
 10
502.188989639
 20
365.4532832171
 11
501.9389895198
 21
365.1979640986
  0
LINE
  5
305
100
AcDbEntity
  8
0
100
AcDbLine
 62
7
  6
CONTINUOUS
 10
507.813989639
 20
362.0064748044
 11
508.3139898774
 21
362.5171130861
  0
LINE
  5
306
100
AcDbEntity
  8
0
100
AcDbLine
 62
7
  6
CONTINUOUS
 10
513.813989639
 20
362.0064748044
 11
514.3139891622
 21
362.5171130861
  0
LINE
  5
307
100
AcDbEntity
  8
0
100
AcDbLine
 62
7
  6
CONTINUOUS
 10
-16.6969124217
 20
320.623496082
 11
137.0401747351
 21
320.623496082
  0
LINE
  5
308
100
AcDbEntity
  8
0
100
AcDbLine
 62
7
  6
CONTINUOUS
 10
195.8378045428
 20
320.623496082
 11
349.5748916996
 21
320.623496082
  0
LINE
  5
309
100
AcDbEntity
  8
RUNDUNGEN
100
AcDbLine
 62
7
  6
CONTINUOUS
 10
499.438989639
 20
327.623496082
 11
513.438989639
 21
327.623496082
  0
LINE
  5
30A
100
AcDbEntity
  8
RUNDUNGEN
100
AcDbLine
 62
7
  6
CONTINUOUS
 10
-188.561010361
 20
328.123496082
 11
-166.561010361
 21
328.123496082
  0
LINE
  5
30B
100
AcDbEntity
  8
RUNDUNGEN
100
AcDbLine
 62
7
  6
CONTINUOUS
 10
335.4388939272
 20
329.923496082
 11
187.4389896391
 21
329.923496082
  0
LINE
  5
30C
100
AcDbEntity
  8
RUNDUNGEN
100
AcDbLine
 62
7
  6
CONTINUOUS
 10
145.4389738177
 20
329.923496082
 11
-2.5609147815
 21
329.923496082
  0
LINE
  5
30D
100
AcDbEntity
  8
0
100
AcDbLine
 62
7
  6
CONTINUOUS
 10
484.438989639
 20
331.123496082
 11
380.438989639
 21
331.123496082
  0
LINE
  5
30E
100
AcDbEntity
  8
0
100
AcDbLine
 62
7
  6
CONTINUOUS
 10
339.0377703064
 20
331.123496082
 11
295.438989639
 21
331.123496082
  0
LINE
  5
30F
100
AcDbEntity
  8
0
100
AcDbLine
 62
7
  6
CONTINUOUS
 10
47.438989639
 20
331.123496082
 11
-6.1592157951
 21
331.123496082
  0
LINE
  5
310
100
AcDbEntity
  8
0
100
AcDbLine
 62
7
  6
CONTINUOUS
 10
-45.561010361
 20
331.123496082
 11
-93.561010361
 21
331.123496082
  0
LINE
  5
311
100
AcDbEntity
  8
0
100
AcDbLine
 62
7
  6
CONTINUOUS
 10
-99.561010361
 20
331.123496082
 11
-151.561010361
 21
331.123496082
  0
LINE
  5
312
100
AcDbEntity
  8
0
100
AcDbLine
 62
7
  6
CONTINUOUS
 10
47.438989639
 20
332.4581315781
 11
-7.4580361708
 21
332.4581315781
  0
LINE
  5
313
100
AcDbEntity
  8
0
100
AcDbLine
 62
7
  6
CONTINUOUS
 10
-45.561010361
 20
332.4581315781
 11
-93.561010361
 21
332.4581315781
  0
LINE
  5
314
100
AcDbEntity
  8
0
100
AcDbLine
 62
7
  6
CONTINUOUS
 10
-99.561010361
 20
332.4581315781
 11
-151.561010361
 21
332.4581315781
  0
LINE
  5
315
100
AcDbEntity
  8
0
100
AcDbLine
 62
7
  6
CONTINUOUS
 10
291.438989639
 20
335.123496082
 11
279.438989639
 21
335.123496082
  0
LINE
  5
316
100
AcDbEntity
  8
0
100
AcDbLine
 62
7
  6
CONTINUOUS
 10
63.438989639
 20
335.123496082
 11
51.438989639
 21
335.123496082
  0
LINE
  5
317
100
AcDbEntity
  8
RUNDUNGEN
100
AcDbLine
 62
7
  6
CONTINUOUS
 10
544.2550426575
 20
335.373496082
 11
511.188989639
 21
335.373496082
  0
LINE
  5
318
100
AcDbEntity
  8
RUNDUNGEN
100
AcDbLine
 62
7
  6
CONTINUOUS
 10
-178.311010361
 20
335.373496082
 11
-211.3770633796
 21
335.373496082
  0
LINE
  5
319
100
AcDbEntity
  8
0
100
AcDbLine
 62
7
  6
CONTINUOUS
 10
63.438989639
 20
337.3140210627
 11
51.438989639
 21
337.3140210627
  0
LINE
  5
31A
100
AcDbEntity
  8
0
100
AcDbLine
 62
7
  6
CONTINUOUS
 10
63.6608150459
 20
337.623496082
 11
-8.561010361
 21
337.623496082
  0
LINE
  5
31B
100
AcDbEntity
  8
0
100
AcDbLine
 62
7
  6
CONTINUOUS
 10
-45.561010361
 20
337.623496082
 11
-93.561010361
 21
337.623496082
  0
LINE
  5
31C
100
AcDbEntity
  8
0
100
AcDbLine
 62
7
  6
CONTINUOUS
 10
-99.561010361
 20
337.623496082
 11
-144.561010361
 21
337.623496082
  0
LINE
  5
31D
100
AcDbEntity
  8
RUNDUNGEN
100
AcDbLine
 62
7
  6
CONTINUOUS
 10
-20.5173281526
 20
338.323496082
 11
-38.1610103611
 21
338.323496082
  0
LINE
  5
31E
100
AcDbEntity
  8
RUNDUNGEN
100
AcDbLine
 62
7
  6
CONTINUOUS
 10
-38.1610782393
 20
347.923496082
 11
-20.5173281526
 21
347.923496082
  0
LINE
  5
31F
100
AcDbEntity
  8
BEZUGSACHSEN
100
AcDbLine
 62
7
  6
CONTINUOUS
 10
544.2550426575
 20
350.873496082
 11
511.188989639
 21
350.873496082
  0
LINE
  5
320
100
AcDbEntity
  8
BEZUGSACHSEN
100
AcDbLine
 62
7
  6
CONTINUOUS
 10
-178.311010361
 20
350.873496082
 11
-211.3770633796
 21
350.873496082
  0
LINE
  5
321
100
AcDbEntity
  8
0
100
AcDbLine
 62
7
  6
CONTINUOUS
 10
291.438989639
 20
351.123496082
 11
279.438989639
 21
351.123496082
  0
LINE
  5
322
100
AcDbEntity
  8
0
100
AcDbLine
 62
7
  6
CONTINUOUS
 10
63.438989639
 20
351.123496082
 11
51.438989639
 21
351.123496082
  0
LINE
  5
323
100
AcDbEntity
  8
0
100
AcDbLine
 62
7
  6
CONTINUOUS
 10
484.438989639
 20
355.123496082
 11
380.438989639
 21
355.123496082
  0
LINE
  5
324
100
AcDbEntity
  8
0
100
AcDbLine
 62
7
  6
CONTINUOUS
 10
339.0378776624
 20
355.123496082
 11
295.438989639
 21
355.123496082
  0
LINE
  5
325
100
AcDbEntity
  8
0
100
AcDbLine
 62
7
  6
CONTINUOUS
 10
47.438989639
 20
355.123496082
 11
-6.1593144178
 21
355.123496082
  0
LINE
  5
326
100
AcDbEntity
  8
0
100
AcDbLine
 62
7
  6
CONTINUOUS
 10
-45.561010361
 20
355.123496082
 11
-93.561010361
 21
355.123496082
  0
LINE
  5
327
100
AcDbEntity
  8
0
100
AcDbLine
 62
7
  6
CONTINUOUS
 10
-99.561010361
 20
355.123496082
 11
-151.561010361
 21
355.123496082
  0
LINE
  5
328
100
AcDbEntity
  8
RUNDUNGEN
100
AcDbLine
 62
7
  6
CONTINUOUS
 10
-2.5610768686
 20
356.323496082
 11
145.4388299749
 21
356.323496082
  0
LINE
  5
329
100
AcDbEntity
  8
RUNDUNGEN
100
AcDbLine
 62
7
  6
CONTINUOUS
 10
187.438989639
 20
356.323496082
 11
335.4390552105
 21
356.323496082
  0
LINE
  5
32A
100
AcDbEntity
  8
BEZUGSACHSEN
100
AcDbLine
 62
7
  6
CONTINUOUS
 10
-188.561010361
 20
358.123496082
 11
-166.561010361
 21
358.123496082
  0
LINE
  5
32B
100
AcDbEntity
  8
BEZUGSACHSEN
100
AcDbLine
 62
7
  6
CONTINUOUS
 10
499.438989639
 20
358.623496082
 11
513.438989639
 21
358.623496082
  0
LINE
  5
32C
100
AcDbEntity
  8
0
100
AcDbLine
 62
7
  6
CONTINUOUS
 10
498.438989639
 20
361.623496082
 11
499.188989639
 21
361.623496082
  0
LINE
  5
32D
100
AcDbEntity
  8
0
100
AcDbLine
 62
7
  6
CONTINUOUS
 10
502.3139895198
 20
361.623496082
 11
503.1889897582
 21
361.623496082
  0
LINE
  5
32E
100
AcDbEntity
  8
0
100
AcDbLine
 62
7
  6
CONTINUOUS
 10
506.1889894006
 20
361.623496082
 11
506.688989639
 21
361.623496082
  0
LINE
  5
32F
100
AcDbEntity
  8
0
100
AcDbLine
 62
7
  6
CONTINUOUS
 10
509.688989639
 20
361.623496082
 11
512.688989639
 21
361.623496082
  0
LINE
  5
330
100
AcDbEntity
  8
0
100
AcDbLine
 62
7
  6
CONTINUOUS
 10
-192.061010361
 20
362.123496082
 11
-191.586010361
 21
362.123496082
  0
LINE
  5
331
100
AcDbEntity
  8
0
100
AcDbLine
 62
7
  6
CONTINUOUS
 10
-189.686010361
 20
362.123496082
 11
-188.973510361
 21
362.123496082
  0
LINE
  5
332
100
AcDbEntity
  8
0
100
AcDbLine
 62
7
  6
CONTINUOUS
 10
-187.2318435433
 20
362.123496082
 11
-184.3818439963
 21
362.123496082
  0
LINE
  5
333
100
AcDbEntity
  8
0
100
AcDbLine
 62
7
  6
CONTINUOUS
 10
-180.7401767257
 20
362.123496082
 11
-180.0276767257
 21
362.123496082
  0
LINE
  5
334
100
AcDbEntity
  8
0
100
AcDbLine
 62
7
  6
CONTINUOUS
 10
-177.0193439963
 20
362.123496082
 11
-176.7026776317
 21
362.123496082
  0
LINE
  5
335
100
AcDbEntity
  8
0
100
AcDbLine
 62
7
  6
CONTINUOUS
 10
-174.8026776317
 20
362.123496082
 11
-174.3276776317
 21
362.123496082
  0
LINE
  5
336
100
AcDbEntity
  8
0
100
AcDbLine
 62
7
  6
CONTINUOUS
 10
-172.348510361
 20
362.123496082
 11
-171.7943430904
 21
362.123496082
  0
LINE
  5
337
100
AcDbEntity
  8
0
100
AcDbLine
 62
7
  6
CONTINUOUS
 10
-169.8943430904
 20
362.123496082
 11
-169.4193430904
 21
362.123496082
  0
LINE
  5
338
100
AcDbEntity
  8
0
100
AcDbLine
 62
7
  6
CONTINUOUS
 10
-167.0443430904
 20
362.123496082
 11
-166.5693430904
 21
362.123496082
  0
LINE
  5
339
100
AcDbEntity
  8
0
100
AcDbLine
 62
7
  6
CONTINUOUS
 10
-164.8276776317
 20
362.123496082
 11
-164.1943430904
 21
362.123496082
  0
LINE
  5
33A
100
AcDbEntity
  8
0
100
AcDbLine
 62
7
  6
CONTINUOUS
 10
512.688989639
 20
362.3894535269
 11
510.438989639
 21
362.3894535269
  0
LINE
  5
33B
100
AcDbEntity
  8
0
100
AcDbLine
 62
7
  6
CONTINUOUS
 10
506.688989639
 20
362.3894535269
 11
506.1889894006
 21
362.3894535269
  0
LINE
  5
33C
100
AcDbEntity
  8
0
100
AcDbLine
 62
7
  6
CONTINUOUS
 10
-164.273510361
 20
362.5277514096
 11
-164.748510361
 21
362.5277514096
  0
LINE
  5
33D
100
AcDbEntity
  8
0
100
AcDbLine
 62
7
  6
CONTINUOUS
 10
-176.7026776317
 20
362.6086024638
 11
-177.0193439963
 21
362.6086024638
  0
LINE
  5
33E
100
AcDbEntity
  8
0
100
AcDbLine
 62
7
  6
CONTINUOUS
 10
-180.0276767257
 20
362.6086024638
 11
-180.7401767257
 21
362.6086024638
  0
LINE
  5
33F
100
AcDbEntity
  8
0
100
AcDbLine
 62
7
  6
CONTINUOUS
 10
-184.3818439963
 20
362.6086024638
 11
-186.7568435433
 21
362.6086024638
  0
LINE
  5
340
100
AcDbEntity
  8
0
100
AcDbLine
 62
7
  6
CONTINUOUS
 10
-188.973510361
 20
362.6086024638
 11
-189.686010361
 21
362.6086024638
  0
LINE
  5
341
100
AcDbEntity
  8
0
100
AcDbLine
 62
7
  6
CONTINUOUS
 10
-165.5401776317
 20
363.0128577913
 11
-165.936010361
 21
363.0128577913
  0
LINE
  5
342
100
AcDbEntity
  8
0
100
AcDbLine
 62
7
  6
CONTINUOUS
 10
-178.9193439963
 20
363.0937088455
 11
-179.3943439963
 21
363.0937088455
  0
LINE
  5
343
100
AcDbEntity
  8
0
100
AcDbLine
 62
7
  6
CONTINUOUS
 10
-187.8651771787
 20
363.0937088455
 11
-188.3401769522
 21
363.0937088455
  0
LINE
  5
344
100
AcDbEntity
  8
0
100
AcDbLine
 62
7
  6
CONTINUOUS
 10
-183.748510361
 20
363.4979641165
 11
-182.6401767257
 21
363.4979641165
  0
LINE
  5
345
100
AcDbEntity
  8
0
100
AcDbLine
 62
7
  6
CONTINUOUS
 10
-174.3276776317
 20
363.8213684465
 11
-172.9818430904
 21
363.8213684465
  0
LINE
  5
346
100
AcDbEntity
  8
0
100
AcDbLine
 62
7
  6
CONTINUOUS
 10
-186.7568435433
 20
363.9022195007
 11
-184.698510361
 21
363.9022195007
  0
LINE
  5
347
100
AcDbEntity
  8
0
100
AcDbLine
 62
7
  6
CONTINUOUS
 10
-164.6693430904
 20
363.9022195007
 11
-164.3526776317
 21
363.9022195007
  0
LINE
  5
348
100
AcDbEntity
  8
0
100
AcDbLine
 62
7
  6
CONTINUOUS
 10
-182.6401767257
 20
363.9022195007
 11
-183.748510361
 21
363.9022195007
  0
LINE
  5
349
100
AcDbEntity
  8
0
100
AcDbLine
 62
7
  6
CONTINUOUS
 10
-164.3526776317
 20
364.2256237175
 11
-164.6693430904
 21
364.2256237175
  0
LINE
  5
34A
100
AcDbEntity
  8
0
100
AcDbLine
 62
7
  6
CONTINUOUS
 10
499.188989639
 20
364.3043471839
 11
501.3139895794
 21
364.3043471839
  0
LINE
  5
34B
100
AcDbEntity
  8
0
100
AcDbLine
 62
7
  6
CONTINUOUS
 10
-172.823510361
 20
364.3064747717
 11
-174.3276776317
 21
364.3064747717
  0
LINE
  5
34C
100
AcDbEntity
  8
0
100
AcDbLine
 62
7
  6
CONTINUOUS
 10
-184.698510361
 20
364.3873258258
 11
-186.7568435433
 21
364.3873258258
  0
LINE
  5
34D
100
AcDbEntity
  8
0
100
AcDbLine
 62
7
  6
CONTINUOUS
 10
-188.3401769522
 20
364.9532832052
 11
-187.8651771787
 21
364.9532832052
  0
LINE
  5
34E
100
AcDbEntity
  8
0
100
AcDbLine
 62
7
  6
CONTINUOUS
 10
-179.3943439963
 20
364.9532832052
 11
-178.9193439963
 21
364.9532832052
  0
LINE
  5
34F
100
AcDbEntity
  8
0
100
AcDbLine
 62
7
  6
CONTINUOUS
 10
-165.8568430904
 20
365.0341344859
 11
-165.461010361
 21
365.0341344859
  0
LINE
  5
350
100
AcDbEntity
  8
0
100
AcDbLine
 62
7
  6
CONTINUOUS
 10
501.5639895198
 20
365.0703045394
 11
499.188989639
 21
365.0703045394
  0
LINE
  5
351
100
AcDbEntity
  8
0
100
AcDbLine
 62
7
  6
CONTINUOUS
 10
-189.686010361
 20
365.4383897568
 11
-188.973510361
 21
365.4383897568
  0
LINE
  5
352
100
AcDbEntity
  8
0
100
AcDbLine
 62
7
  6
CONTINUOUS
 10
-186.7568435433
 20
365.4383897568
 11
-184.3818439963
 21
365.4383897568
  0
LINE
  5
353
100
AcDbEntity
  8
0
100
AcDbLine
 62
7
  6
CONTINUOUS
 10
-180.7401767257
 20
365.4383897568
 11
-180.0276767257
 21
365.4383897568
  0
LINE
  5
354
100
AcDbEntity
  8
0
100
AcDbLine
 62
7
  6
CONTINUOUS
 10
-174.3276776317
 20
365.519240811
 11
-172.823510361
 21
365.519240811
  0
LINE
  5
355
100
AcDbEntity
  8
0
100
AcDbLine
 62
7
  6
CONTINUOUS
 10
-171.161010361
 20
365.519240811
 11
-169.8943430904
 21
365.519240811
  0
LINE
  5
356
100
AcDbEntity
  8
0
100
AcDbLine
 62
7
  6
CONTINUOUS
 10
-169.4193430904
 20
365.519240811
 11
-168.1526776317
 21
365.519240811
  0
LINE
  5
357
100
AcDbEntity
  8
0
100
AcDbLine
 62
7
  6
CONTINUOUS
 10
-164.6693430904
 20
365.519240811
 11
-164.3526776317
 21
365.519240811
  0
LINE
  5
358
100
AcDbEntity
  8
0
100
AcDbLine
 62
7
  6
CONTINUOUS
 10
-16.6969124217
 20
365.623496082
 11
137.0401747351
 21
365.623496082
  0
LINE
  5
359
100
AcDbEntity
  8
RUNDUNGEN
100
AcDbLine
 62
7
  6
CONTINUOUS
 10
195.8378045428
 20
365.623496082
 11
349.5748916996
 21
365.623496082
  0
LINE
  5
35A
100
AcDbEntity
  8
0
100
AcDbLine
 62
7
  6
CONTINUOUS
 10
195.8378045428
 20
365.623496082
 11
349.5748916996
 21
365.623496082
  0
LINE
  5
35B
100
AcDbEntity
  8
0
100
AcDbLine
 62
7
  6
CONTINUOUS
 10
-164.4318430904
 20
365.923496082
 11
-164.5901776317
 21
365.923496082
  0
LINE
  5
35C
100
AcDbEntity
  8
0
100
AcDbLine
 62
7
  6
CONTINUOUS
 10
-166.5693430904
 20
365.923496082
 11
-167.0443430904
 21
365.923496082
  0
LINE
  5
35D
100
AcDbEntity
  8
0
100
AcDbLine
 62
7
  6
CONTINUOUS
 10
-168.1526776317
 20
365.923496082
 11
-171.161010361
 21
365.923496082
  0
LINE
  5
35E
100
AcDbEntity
  8
0
100
AcDbLine
 62
7
  6
CONTINUOUS
 10
-172.9026776317
 20
365.923496082
 11
-174.8026776317
 21
365.923496082
  0
LINE
  5
35F
100
AcDbEntity
  8
0
100
AcDbLine
 62
7
  6
CONTINUOUS
 10
-175.436010361
 20
365.923496082
 11
-175.911010361
 21
365.923496082
  0
LINE
  5
360
100
AcDbEntity
  8
0
100
AcDbLine
 62
7
  6
CONTINUOUS
 10
-177.811010361
 20
365.923496082
 11
-178.286010361
 21
365.923496082
  0
LINE
  5
361
100
AcDbEntity
  8
0
100
AcDbLine
 62
7
  6
CONTINUOUS
 10
-180.0276767257
 20
365.923496082
 11
-180.7401767257
 21
365.923496082
  0
LINE
  5
362
100
AcDbEntity
  8
0
100
AcDbLine
 62
7
  6
CONTINUOUS
 10
-184.3818439963
 20
365.923496082
 11
-187.2318435433
 21
365.923496082
  0
LINE
  5
363
100
AcDbEntity
  8
0
100
AcDbLine
 62
7
  6
CONTINUOUS
 10
-188.973510361
 20
365.923496082
 11
-189.686010361
 21
365.923496082
  0
LINE
  5
364
100
AcDbEntity
  8
0
100
AcDbLine
 62
7
  6
CONTINUOUS
 10
-191.586010361
 20
365.923496082
 11
-192.061010361
 21
365.923496082
  0
LINE
  5
365
100
AcDbEntity
  8
0
100
AcDbLine
 62
7
  6
CONTINUOUS
 10
510.438989639
 20
366.8575387265
 11
512.688989639
 21
366.8575387265
  0
LINE
  5
366
100
AcDbEntity
  8
0
100
AcDbLine
 62
7
  6
CONTINUOUS
 10
499.188989639
 20
366.9851982857
 11
501.5639895198
 21
366.9851982857
  0
LINE
  5
367
100
AcDbEntity
  8
0
100
AcDbLine
 62
7
  6
CONTINUOUS
 10
378.438989639
 20
367.123496082
 11
355.3843667189
 21
367.123496082
  0
LINE
  5
368
100
AcDbEntity
  8
0
100
AcDbLine
 62
7
  6
CONTINUOUS
 10
189.9533186066
 20
367.123496082
 11
184.438989639
 21
367.123496082
  0
LINE
  5
369
100
AcDbEntity
  8
0
100
AcDbLine
 62
7
  6
CONTINUOUS
 10
148.438989639
 20
367.123496082
 11
142.9246606714
 21
367.123496082
  0
LINE
  5
36A
100
AcDbEntity
  8
RUNDUNGEN
100
AcDbLine
 62
7
  6
CONTINUOUS
 10
142.9246606714
 20
367.123496082
 11
148.438989639
 21
367.123496082
  0
LINE
  5
36B
100
AcDbEntity
  8
RUNDUNGEN
100
AcDbLine
 62
7
  6
CONTINUOUS
 10
184.438989639
 20
367.123496082
 11
189.9533186066
 21
367.123496082
  0
LINE
  5
36C
100
AcDbEntity
  8
RUNDUNGEN
100
AcDbLine
 62
7
  6
CONTINUOUS
 10
355.3843667189
 20
367.123496082
 11
378.438989639
 21
367.123496082
  0
LINE
  5
36D
100
AcDbEntity
  8
0
100
AcDbLine
 62
7
  6
CONTINUOUS
 10
512.688989639
 20
367.623496082
 11
509.688989639
 21
367.623496082
  0
LINE
  5
36E
100
AcDbEntity
  8
0
100
AcDbLine
 62
7
  6
CONTINUOUS
 10
508.6889898774
 20
367.623496082
 11
507.9389898774
 21
367.623496082
  0
LINE
  5
36F
100
AcDbEntity
  8
0
100
AcDbLine
 62
7
  6
CONTINUOUS
 10
504.9389898774
 20
367.623496082
 11
504.1889895198
 21
367.623496082
  0
LINE
  5
370
100
AcDbEntity
  8
0
100
AcDbLine
 62
7
  6
CONTINUOUS
 10
501.438989639
 20
367.623496082
 11
498.438989639
 21
367.623496082
  0
LINE
  5
371
100
AcDbEntity
  8
BEZUGSACHSEN
100
AcDbLine
 62
7
  6
CONTINUOUS
 10
-166.561010361
 20
370.123496082
 11
-188.561010361
 21
370.123496082
  0
LINE
  5
372
100
AcDbEntity
  8
BEZUGSACHSEN
100
AcDbLine
 62
7
  6
CONTINUOUS
 10
513.438989639
 20
370.623496082
 11
499.438989639
 21
370.623496082
  0
LINE
  5
373
100
AcDbEntity
  8
0
100
AcDbLine
 62
7
  6
CONTINUOUS
 10
-97.561010361
 20
373.123496082
 11
-94.061010361
 21
373.123496082
  0
LINE
  5
374
100
AcDbEntity
  8
0
100
AcDbLine
 62
7
  6
CONTINUOUS
 10
-43.561010361
 20
373.123496082
 11
-33.7139982498
 21
373.123496082
  0
LINE
  5
375
100
AcDbEntity
  8
RUNDUNGEN
100
AcDbLine
 62
7
  6
CONTINUOUS
 10
-33.7139982498
 20
373.123496082
 11
-43.561010361
 21
373.123496082
  0
LINE
  5
376
100
AcDbEntity
  8
RUNDUNGEN
100
AcDbLine
 62
7
  6
CONTINUOUS
 10
-94.061010361
 20
373.123496082
 11
-97.561010361
 21
373.123496082
  0
LINE
  5
377
100
AcDbEntity
  8
BEZUGSACHSEN
100
AcDbLine
 62
7
  6
CONTINUOUS
 10
-211.406139162
 20
375.623496082
 11
-161.561010361
 21
375.623496082
  0
LINE
  5
378
100
AcDbEntity
  8
BEZUGSACHSEN
100
AcDbLine
 62
7
  6
CONTINUOUS
 10
494.438989639
 20
375.623496082
 11
544.28411844
 21
375.623496082
  0
LINE
  5
379
100
AcDbEntity
  8
0
100
AcDbLine
 62
7
  6
CONTINUOUS
 10
191.6634193232
 20
366.8219591859
 11
194.1277038262
 21
365.9250329781
  0
LINE
  5
37A
100
AcDbEntity
  8
RUNDUNGEN
100
AcDbLine
 62
7
  6
CONTINUOUS
 10
341.438989639
 20
350.3233731264
 11
341.438989639
 21
335.9236053526
  0
LINE
  5
37B
100
AcDbEntity
  8
0
100
AcDbLine
 62
7
  6
CONTINUOUS
 10
507.813989639
 20
363.1554109718
 11
507.5639898774
 21
362.772432294
  0
LINE
  5
37C
100
AcDbEntity
  8
0
100
AcDbLine
 62
7
  6
CONTINUOUS
 10
502.563989639
 20
364.8149854209
 11
502.938989639
 21
365.3256236579
  0
LINE
  5
37D
100
AcDbEntity
  8
0
100
AcDbLine
 62
7
  6
CONTINUOUS
 10
173.438989639
 20
380.123496082
 11
159.438989639
 21
380.123496082
  0
LINE
  5
37E
100
AcDbEntity
  8
BEZUGSACHSEN
100
AcDbLine
 62
7
  6
CONTINUOUS
 10
173.438989639
 20
380.123496082
 11
159.438989639
 21
380.123496082
  0
LINE
  5
37F
100
AcDbEntity
  8
BEZUGSACHSEN
100
AcDbLine
 62
7
  6
CONTINUOUS
 10
153.438989639
 20
381.123496082
 11
159.438989639
 21
381.123496082
  0
LINE
  5
380
100
AcDbEntity
  8
0
100
AcDbLine
 62
7
  6
CONTINUOUS
 10
173.438989639
 20
381.123496082
 11
179.438989639
 21
381.123496082
  0
LINE
  5
381
100
AcDbEntity
  8
0
100
AcDbLine
 62
7
  6
CONTINUOUS
 10
277.438989639
 20
337.123496082
 11
279.438989639
 21
335.123496082
  0
LINE
  5
382
100
AcDbEntity
  8
0
100
AcDbLine
 62
7
  6
CONTINUOUS
 10
291.438989639
 20
335.123496082
 11
295.438989639
 21
331.123496082
  0
LINE
  5
383
100
AcDbEntity
  8
RUNDUNGEN
100
AcDbLine
 62
7
  6
CONTINUOUS
 10
380.438989639
 20
365.123496082
 11
380.438989639
 21
321.123496082
  0
LINE
  5
384
100
AcDbEntity
  8
0
100
AcDbLine
 62
7
  6
CONTINUOUS
 10
513.813989639
 20
363.1554109718
 11
513.5639891622
 21
362.772432294
  0
LINE
  5
385
100
AcDbEntity
  8
0
100
AcDbLine
 62
7
  6
CONTINUOUS
 10
-163.8776776317
 20
362.6086024638
 11
-164.273510361
 21
362.5277514096
  0
LINE
  5
386
100
AcDbEntity
  8
0
100
AcDbLine
 62
7
  6
CONTINUOUS
 10
-176.7026776317
 20
362.123496082
 11
-176.3068430904
 21
362.2043471433
  0
LINE
  5
387
100
AcDbEntity
  8
0
100
AcDbLine
 62
7
  6
CONTINUOUS
 10
-180.0276767257
 20
362.123496082
 11
-179.6318439963
 21
362.2043471433
  0
LINE
  5
388
100
AcDbEntity
  8
0
100
AcDbLine
 62
7
  6
CONTINUOUS
 10
-165.0651776317
 20
365.4383897568
 11
-164.6693430904
 21
365.519240811
  0
LINE
  5
389
100
AcDbEntity
  8
0
100
AcDbLine
 62
7
  6
CONTINUOUS
 10
-188.973510361
 20
362.123496082
 11
-188.5776769522
 21
362.2043471433
  0
LINE
  5
38A
100
AcDbEntity
  8
0
100
AcDbLine
 62
7
  6
CONTINUOUS
 10
-180.7401767257
 20
365.923496082
 11
-181.136010361
 21
365.8426450278
  0
LINE
  5
38B
100
AcDbEntity
  8
0
100
AcDbLine
 62
7
  6
CONTINUOUS
 10
-164.5901776317
 20
365.923496082
 11
-165.1443430904
 21
365.8426450278
  0
LINE
  5
38C
100
AcDbEntity
  8
0
100
AcDbLine
 62
7
  6
CONTINUOUS
 10
505.563989639
 20
361.7511556524
 11
506.1889894006
 21
361.623496082
  0
LINE
  5
38D
100
AcDbEntity
  8
0
100
AcDbLine
 62
7
  6
CONTINUOUS
 10
502.0639897582
 20
367.4958365227
 11
501.438989639
 21
367.623496082
  0
LINE
  5
38E
100
AcDbEntity
  8
0
100
AcDbLine
 62
7
  6
CONTINUOUS
 10
508.3139898774
 20
362.5171130861
 11
508.563989639
 21
363.0277514125
  0
LINE
  5
38F
100
AcDbEntity
  8
0
100
AcDbLine
 62
7
  6
CONTINUOUS
 10
514.3139891622
 20
362.5171130861
 11
514.563989639
 21
363.0277514125
  0
LINE
  5
390
100
AcDbEntity
  8
0
100
AcDbLine
 62
7
  6
CONTINUOUS
 10
-164.1943430904
 20
362.123496082
 11
-163.8776776317
 21
362.2043471433
  0
LINE
  5
391
100
AcDbEntity
  8
0
100
AcDbLine
 62
7
  6
CONTINUOUS
 10
-176.386010361
 20
362.689453518
 11
-176.7026776317
 21
362.6086024638
  0
LINE
  5
392
100
AcDbEntity
  8
0
100
AcDbLine
 62
7
  6
CONTINUOUS
 10
-179.711010361
 20
362.689453518
 11
-180.0276767257
 21
362.6086024638
  0
LINE
  5
393
100
AcDbEntity
  8
0
100
AcDbLine
 62
7
  6
CONTINUOUS
 10
-188.6568437698
 20
362.689453518
 11
-188.973510361
 21
362.6086024638
  0
LINE
  5
394
100
AcDbEntity
  8
0
100
AcDbLine
 62
7
  6
CONTINUOUS
 10
-181.0568439963
 20
365.3575387026
 11
-180.7401767257
 21
365.4383897568
  0
LINE
  5
395
100
AcDbEntity
  8
0
100
AcDbLine
 62
7
  6
CONTINUOUS
 10
-190.0026769522
 20
365.3575387026
 11
-189.686010361
 21
365.4383897568
  0
LINE
  5
396
100
AcDbEntity
  8
0
100
AcDbLine
 62
7
  6
CONTINUOUS
 10
-189.686010361
 20
365.923496082
 11
-190.0818437698
 21
365.8426450278
  0
LINE
  5
397
100
AcDbEntity
  8
0
100
AcDbLine
 62
7
  6
CONTINUOUS
 10
513.3139901158
 20
367.4958365227
 11
512.688989639
 21
367.623496082
  0
LINE
  5
398
100
AcDbEntity
  8
0
100
AcDbLine
 62
7
  6
CONTINUOUS
 10
506.1889894006
 20
362.3894535269
 11
505.6889898774
 21
362.5171130861
  0
LINE
  5
399
100
AcDbEntity
  8
0
100
AcDbLine
 62
7
  6
CONTINUOUS
 10
512.688989639
 20
366.8575387265
 11
513.1889891622
 21
366.7298791672
  0
LINE
  5
39A
100
AcDbEntity
  8
0
100
AcDbLine
 62
7
  6
CONTINUOUS
 10
502.3139895198
 20
365.8362618949
 11
502.188989639
 21
365.4532832171
  0
LINE
  5
39B
100
AcDbEntity
  8
0
100
AcDbLine
 62
7
  6
CONTINUOUS
 10
502.938989639
 20
365.3256236579
 11
503.0639895198
 21
365.7086023356
  0
LINE
  5
39C
100
AcDbEntity
  8
0
100
AcDbLine
 62
7
  6
CONTINUOUS
 10
551.1710404466
 20
320.5516993123
 11
546.0163399082
 21
311.623496082
  0
LINE
  5
39D
100
AcDbEntity
  8
0
100
AcDbLine
 62
7
  6
CONTINUOUS
 10
501.5639895198
 20
366.9851982857
 11
501.9389895198
 21
366.8575387265
  0
LINE
  5
39E
100
AcDbEntity
  8
0
100
AcDbLine
 62
7
  6
CONTINUOUS
 10
508.563989639
 20
363.0277514125
 11
508.6889898774
 21
363.6660492088
  0
LINE
  5
39F
100
AcDbEntity
  8
0
100
AcDbLine
 62
7
  6
CONTINUOUS
 10
514.563989639
 20
363.0277514125
 11
514.6889891622
 21
363.6660492088
  0
LINE
  5
3A0
100
AcDbEntity
  8
0
100
AcDbLine
 62
7
  6
CONTINUOUS
 10
507.9389898774
 20
363.6660492088
 11
507.813989639
 21
363.1554109718
  0
LINE
  5
3A1
100
AcDbEntity
  8
0
100
AcDbLine
 62
7
  6
CONTINUOUS
 10
513.9389891622
 20
363.6660492088
 11
513.813989639
 21
363.1554109718
  0
LINE
  5
3A2
100
AcDbEntity
  8
0
100
AcDbLine
 62
7
  6
CONTINUOUS
 10
505.0639894006
 20
362.0064748044
 11
505.563989639
 21
361.7511556524
  0
LINE
  5
3A3
100
AcDbEntity
  8
0
100
AcDbLine
 62
7
  6
CONTINUOUS
 10
513.813989639
 20
367.2405174042
 11
513.3139901158
 21
367.4958365227
  0
LINE
  5
3A4
100
AcDbEntity
  8
RUNDUNGEN
100
AcDbLine
 62
7
  6
CONTINUOUS
 10
487.438989639
 20
370.623496082
 11
487.438989639
 21
315.623496082
  0
LINE
  5
3A5
100
AcDbEntity
  8
0
100
AcDbLine
 62
7
  6
CONTINUOUS
 10
498.438989639
 20
367.623496082
 11
498.438989639
 21
361.623496082
  0
LINE
  5
3A6
100
AcDbEntity
  8
0
100
AcDbLine
 62
7
  6
CONTINUOUS
 10
499.188989639
 20
361.623496082
 11
499.188989639
 21
364.3043471839
  0
LINE
  5
3A7
100
AcDbEntity
  8
0
100
AcDbLine
 62
7
  6
CONTINUOUS
 10
499.188989639
 20
365.0703045394
 11
499.188989639
 21
366.9851982857
  0
LINE
  5
3A8
100
AcDbEntity
  8
0
100
AcDbLine
 62
7
  6
CONTINUOUS
 10
502.3139895198
 20
366.2192409302
 11
502.3139895198
 21
365.8362618949
  0
LINE
  5
3A9
100
AcDbEntity
  8
0
100
AcDbLine
 62
7
  6
CONTINUOUS
 10
503.0639895198
 20
365.7086023356
 11
503.0639895198
 21
366.2192409302
  0
LINE
  5
3AA
100
AcDbEntity
  8
0
100
AcDbLine
 62
7
  6
CONTINUOUS
 10
504.1889895198
 20
367.623496082
 11
504.1889895198
 21
363.6660492088
  0
LINE
  5
3AB
100
AcDbEntity
  8
0
100
AcDbLine
 62
7
  6
CONTINUOUS
 10
504.9389898774
 20
363.6660492088
 11
504.9389898774
 21
367.623496082
  0
LINE
  5
3AC
100
AcDbEntity
  8
0
100
AcDbLine
 62
7
  6
CONTINUOUS
 10
507.9389898774
 20
367.623496082
 11
507.9389898774
 21
363.6660492088
  0
LINE
  5
3AD
100
AcDbEntity
  8
0
100
AcDbLine
 62
7
  6
CONTINUOUS
 10
508.6889898774
 20
363.6660492088
 11
508.6889898774
 21
367.623496082
  0
LINE
  5
3AE
100
AcDbEntity
  8
0
100
AcDbLine
 62
7
  6
CONTINUOUS
 10
509.688989639
 20
367.623496082
 11
509.688989639
 21
361.623496082
  0
LINE
  5
3AF
100
AcDbEntity
  8
0
100
AcDbLine
 62
7
  6
CONTINUOUS
 10
505.6889898774
 20
362.5171130861
 11
505.3139898774
 21
362.772432294
  0
LINE
  5
3B0
100
AcDbEntity
  8
0
100
AcDbLine
 62
7
  6
CONTINUOUS
 10
513.1889891622
 20
366.7298791672
 11
513.5639891622
 21
366.4745600487
  0
LINE
  5
3B1
100
AcDbEntity
  8
0
100
AcDbLine
 62
7
  6
CONTINUOUS
 10
502.563989639
 20
367.112857845
 11
502.0639897582
 21
367.4958365227
  0
LINE
  5
3B2
100
AcDbEntity
  8
0
100
AcDbLine
 62
7
  6
CONTINUOUS
 10
510.438989639
 20
362.3894535269
 11
510.438989639
 21
366.8575387265
  0
LINE
  5
3B3
100
AcDbEntity
  8
0
100
AcDbLine
 62
7
  6
CONTINUOUS
 10
513.9389891622
 20
365.5809427764
 11
513.9389891622
 21
363.6660492088
  0
LINE
  5
3B4
100
AcDbEntity
  8
0
100
AcDbLine
 62
7
  6
CONTINUOUS
 10
514.6889891622
 20
363.6660492088
 11
514.6889891622
 21
365.5809427764
  0
LINE
  5
3B5
100
AcDbEntity
  8
BEZUGSACHSEN
100
AcDbLine
 62
7
  6
CONTINUOUS
 10
523.188989639
 20
335.373496082
 11
523.188989639
 21
350.873496082
  0
LINE
  5
3B6
100
AcDbEntity
  8
0
100
AcDbLine
 62
7
  6
CONTINUOUS
 10
504.5639898774
 20
362.5171130861
 11
505.0639894006
 21
362.0064748044
  0
LINE
  5
3B7
100
AcDbEntity
  8
0
100
AcDbLine
 62
7
  6
CONTINUOUS
 10
501.9389895198
 20
366.8575387265
 11
502.188989639
 21
366.602219608
  0
LINE
  5
3B8
100
AcDbEntity
  8
0
100
AcDbLine
 62
7
  6
CONTINUOUS
 10
514.3139891622
 20
366.7298791672
 11
513.813989639
 21
367.2405174042
  0
LINE
  5
3B9
100
AcDbEntity
  8
0
100
AcDbLine
 62
7
  6
CONTINUOUS
 10
502.938989639
 20
366.602219608
 11
502.563989639
 21
367.112857845
  0
LINE
  5
3BA
100
AcDbEntity
  8
0
100
AcDbLine
 62
7
  6
CONTINUOUS
 10
505.3139898774
 20
362.772432294
 11
505.0639894006
 21
363.1554109718
  0
LINE
  5
3BB
100
AcDbEntity
  8
0
100
AcDbLine
 62
7
  6
CONTINUOUS
 10
503.1889897582
 20
361.623496082
 11
502.0639897582
 21
364.5596663024
  0
LINE
  5
3BC
100
AcDbEntity
  8
0
100
AcDbLine
 62
7
  6
CONTINUOUS
 10
501.3139895794
 20
364.3043471839
 11
502.3139895198
 21
361.623496082
  0
LINE
  5
3BD
100
AcDbEntity
  8
0
100
AcDbLine
 62
7
  6
CONTINUOUS
 10
502.188989639
 20
366.602219608
 11
502.3139895198
 21
366.2192409302
  0
LINE
  5
3BE
100
AcDbEntity
  8
0
100
AcDbLine
 62
7
  6
CONTINUOUS
 10
503.0639895198
 20
366.2192409302
 11
502.938989639
 21
366.602219608
  0
LINE
  5
3BF
100
AcDbEntity
  8
0
100
AcDbLine
 62
7
  6
CONTINUOUS
 10
505.0639894006
 20
363.1554109718
 11
504.9389898774
 21
363.6660492088
  0
LINE
  5
3C0
100
AcDbEntity
  8
0
100
AcDbLine
 62
7
  6
CONTINUOUS
 10
504.1889895198
 20
363.6660492088
 11
504.3139897582
 21
363.0277514125
  0
LINE
  5
3C1
100
AcDbEntity
  8
BEZUGSACHSEN
100
AcDbLine
 62
7
  6
CONTINUOUS
 10
540.188989639
 20
335.373496082
 11
540.188989639
 21
350.873496082
  0
LINE
  5
3C2
100
AcDbEntity
  8
BEZUGSACHSEN
100
AcDbLine
 62
7
  6
CONTINUOUS
 10
551.438989639
 20
364.6952928517
 11
551.438989639
 21
360.7569160566
  0
LINE
  5
3C3
100
AcDbEntity
  8
0
100
AcDbLine
 62
7
  6
CONTINUOUS
 10
551.438989639
 20
325.4900761074
 11
551.438989639
 21
321.5516993123
  0
LINE
  5
3C4
100
AcDbEntity
  8
0
100
AcDbLine
 62
7
  6
CONTINUOUS
 10
513.5639891622
 20
366.4745600487
 11
513.813989639
 21
366.0915810134
  0
LINE
  5
3C5
100
AcDbEntity
  8
BEZUGSACHSEN
100
AcDbLine
 62
7
  6
CONTINUOUS
 10
546.0163399082
 20
374.623496082
 11
551.1710404466
 21
365.6952928517
  0
LINE
  5
3C6
100
AcDbEntity
  8
0
100
AcDbLine
 62
7
  6
CONTINUOUS
 10
504.3139897582
 20
363.0277514125
 11
504.5639898774
 21
362.5171130861
  0
LINE
  5
3C7
100
AcDbEntity
  8
0
100
AcDbLine
 62
7
  6
CONTINUOUS
 10
514.563989639
 20
366.2192409302
 11
514.3139891622
 21
366.7298791672
  0
LINE
  5
3C8
100
AcDbEntity
  8
0
100
AcDbLine
 62
7
  6
CONTINUOUS
 10
513.813989639
 20
366.0915810134
 11
513.9389891622
 21
365.5809427764
  0
LINE
  5
3C9
100
AcDbEntity
  8
0
100
AcDbLine
 62
7
  6
CONTINUOUS
 10
514.6889891622
 20
365.5809427764
 11
514.563989639
 21
366.2192409302
  0
LINE
  5
3CA
100
AcDbEntity
  8
RUNDUNGEN
100
AcDbLine
 62
7
  6
CONTINUOUS
 10
-154.561010361
 20
511.5837954899
 11
-154.561010361
 21
543.5837954899
  0
LINE
  5
3CB
100
AcDbEntity
  8
RUNDUNGEN
100
AcDbLine
 62
7
  6
CONTINUOUS
 10
-99.561010361
 20
555.5837954899
 11
-99.561010361
 21
499.5837954899
  0
LINE
  5
3CC
100
AcDbEntity
  8
RUNDUNGEN
100
AcDbLine
 62
7
  6
CONTINUOUS
 10
-93.561010361
 20
557.0837954899
 11
-93.561010361
 21
498.0837954899
  0
LINE
  5
3CD
100
AcDbEntity
  8
RUNDUNGEN
100
AcDbLine
 62
7
  6
CONTINUOUS
 10
-207.1367425614
 20
546.0484603641
 11
-212.8180614464
 21
540.7657793577
  0
LINE
  5
3CE
100
AcDbEntity
  8
RUNDUNGEN
100
AcDbLine
 62
7
  6
CONTINUOUS
 10
-212.8180614464
 20
514.4018116222
 11
-207.1367425614
 21
509.1191306157
  0
LINE
  5
3CF
100
AcDbEntity
  8
RUNDUNGEN
100
AcDbLine
 62
7
  6
CONTINUOUS
 10
-45.561010361
 20
555.5837051417
 11
-45.561010361
 21
499.5837954899
  0
LWPOLYLINE
  5
3D0
100
AcDbEntity
  8
RUNDUNGEN
100
AcDbPolyline
 62
7
  6
CONTINUOUS
 90
17
 70
0
 10
-8.5617113377
 20
545.997240669
 10
-8.5814256095
 20
546.2808536228
 10
-8.6284663918
 20
546.5624860946
 10
-8.7025213489
 20
546.839286642
 10
-8.8031431613
 20
547.1088027993
 10
-8.9293717593
 20
547.3681100451
 10
-9.0800525662
 20
547.6145549703
 10
-9.2537060577
 20
547.8456656501
 10
-9.4485730627
 20
548.0590710611
 10
-9.6628203387
 20
548.2528139744
 10
-9.8942459754
 20
548.4249332566
 10
-10.1407794718
 20
548.5739690179
 10
-10.399996641
 20
548.6984897282
 10
-10.6694205166
 20
548.797429411
 10
-10.9462462623
 20
548.8698631283
 10
-11.2281352155
 20
548.9153644607
 10
-11.509551284
 20
548.9334331492
  0
LWPOLYLINE
  5
3D1
100
AcDbEntity
  8
RUNDUNGEN
100
AcDbPolyline
 62
7
  6
CONTINUOUS
 90
17
 70
0
 10
-8.5613469649
 20
545.9770612786
 10
-8.5791016551
 20
546.2605380529
 10
-8.6241596607
 20
546.5422825117
 10
-8.6962511546
 20
546.8194283884
 10
-8.7949567413
 20
547.089531653
 10
-8.9193486731
 20
547.3496487211
 10
-9.0682948732
 20
547.5971120946
 10
-9.2403375403
 20
547.82942623
 10
-9.4337376345
 20
548.044203969
 10
-9.6466756531
 20
548.2394679704
 10
-9.8769672169
 20
548.4132359558
 10
-10.1225525919
 20
548.5640305596
 10
-10.3810254665
 20
548.6903939308
 10
-10.6499187375
 20
548.7912408858
 10
-10.9264365735
 20
548.8656119807
 10
-11.2082329802
 20
548.913058857
 10
-11.4928260682
 20
548.9332401037
  0
LINE
  5
3D2
100
AcDbEntity
  8
RUNDUNGEN
100
AcDbLine
 62
7
  6
CONTINUOUS
 10
-8.5610294945
 20
545.9340827931
 11
-8.5613469649
 21
545.9770612786
  0
LINE
  5
3D3
100
AcDbEntity
  8
RUNDUNGEN
100
AcDbLine
 62
7
  6
CONTINUOUS
 10
-8.561010361
 20
545.9037573281
 11
-8.561010361
 21
545.9340455677
  0
LINE
  5
3D4
100
AcDbEntity
  8
0
100
AcDbLine
 62
7
  6
CONTINUOUS
 10
0.438989639
 20
507.5837954899
 11
0.438989639
 21
505.0838618114
  0
LINE
  5
3D5
100
AcDbEntity
  8
RUNDUNGEN
100
AcDbLine
 62
7
  6
CONTINUOUS
 10
-8.5555493046
 20
545.9072248043
 11
-8.561010361
 21
545.9191513375
  0
LINE
  5
3D6
100
AcDbEntity
  8
0
100
AcDbLine
 62
7
  6
CONTINUOUS
 10
31.148989639
 20
507.5837954899
 11
31.148989639
 21
506.5837954899
  0
LINE
  5
3D7
100
AcDbEntity
  8
0
100
AcDbLine
 62
7
  6
CONTINUOUS
 10
33.438989639
 20
507.5837954899
 11
33.438989639
 21
506.5837954899
  0
LINE
  5
3D8
100
AcDbEntity
  8
0
100
AcDbLine
 62
7
  6
CONTINUOUS
 10
37.898989639
 20
507.5837954899
 11
37.898989639
 21
506.5837954899
  0
LINE
  5
3D9
100
AcDbEntity
  8
0
100
AcDbLine
 62
7
  6
CONTINUOUS
 10
40.188989639
 20
507.5837954899
 11
40.188989639
 21
506.5837954899
  0
LINE
  5
3DA
100
AcDbEntity
  8
RUNDUNGEN
100
AcDbLine
 62
7
  6
CONTINUOUS
 10
-8.3845368208
 20
545.5964179356
 11
-8.458916572
 21
545.7220918557
  0
LINE
  5
3DB
100
AcDbEntity
  8
RUNDUNGEN
100
AcDbLine
 62
7
  6
CONTINUOUS
 10
-8.458916572
 20
545.7220918557
 11
-8.5154499037
 21
545.8260439378
  0
LINE
  5
3DC
100
AcDbEntity
  8
RUNDUNGEN
100
AcDbLine
 62
7
  6
CONTINUOUS
 10
-8.5154499037
 20
545.8260439378
 11
-8.5555493046
 21
545.9072248043
  0
LINE
  5
3DD
100
AcDbEntity
  8
RUNDUNGEN
100
AcDbLine
 62
7
  6
CONTINUOUS
 10
-6.1086795679
 20
543.0935957407
 11
-6.3327643553
 21
543.2842734949
  0
LINE
  5
3DE
100
AcDbEntity
  8
RUNDUNGEN
100
AcDbLine
 62
7
  6
CONTINUOUS
 10
-6.3003480289
 20
543.2561239078
 11
-6.5110520921
 21
543.4425493705
  0
LINE
  5
3DF
100
AcDbEntity
  8
RUNDUNGEN
100
AcDbLine
 62
7
  6
CONTINUOUS
 10
-6.4877250038
 20
543.4215033198
 11
-6.6852468175
 21
543.6029705632
  0
LINE
  5
3E0
100
AcDbEntity
  8
RUNDUNGEN
100
AcDbLine
 62
7
  6
CONTINUOUS
 10
-6.6706463127
 20
543.5893019308
 11
-6.8551809661
 21
543.7651780378
  0
LINE
  5
3E1
100
AcDbEntity
  8
RUNDUNGEN
100
AcDbLine
 62
7
  6
CONTINUOUS
 10
-6.8488490905
 20
543.7590318308
 11
-7.0222949345
 21
543.9304660265
  0
LINE
  5
3E2
100
AcDbEntity
  8
RUNDUNGEN
100
AcDbLine
 62
7
  6
CONTINUOUS
 10
-7.0204476172
 20
543.9286068439
 11
-7.1904326745
 21
544.1029056332
  0
LINE
  5
3E3
100
AcDbEntity
  8
RUNDUNGEN
100
AcDbLine
 62
7
  6
CONTINUOUS
 10
-7.1814407871
 20
544.0935230573
 11
-7.3541600165
 21
544.2772067185
  0
LINE
  5
3E4
100
AcDbEntity
  8
RUNDUNGEN
100
AcDbLine
 62
7
  6
CONTINUOUS
 10
-7.3379881113
 20
544.2596948724
 11
-7.5136925985
 21
544.4536860696
  0
LWPOLYLINE
  5
3E5
100
AcDbEntity
  8
RUNDUNGEN
100
AcDbPolyline
 62
7
  6
CONTINUOUS
 90
11
 70
0
 10
-7.4907170439
 20
544.427835276
 10
-7.6691136515
 20
544.6326853032
 10
-7.8207963067
 20
544.8151088335
 10
-7.9659053966
 20
544.9980743305
 10
-8.1036043541
 20
545.1810507345
 10
-8.2278165979
 20
545.3561264609
 10
-8.334682242
 20
545.5170075723
 10
-8.4227841829
 20
545.6597911819
 10
-8.4908111129
 20
545.7795765002
 10
-8.5403245152
 20
545.8753867962
 10
-8.5539271515
 20
545.9037573281
  0
LWPOLYLINE
  5
3E6
100
AcDbEntity
  8
RUNDUNGEN
100
AcDbPolyline
 62
7
  6
CONTINUOUS
 90
7
 70
0
 10
-7.639820388
 20
544.5983694368
 10
-7.7848417661
 20
544.7711126252
 10
-7.9261672047
 20
544.9470559247
 10
-8.0596828504
 20
545.1215588564
 10
-8.1833212756
 20
545.2921356602
 10
-8.2926370474
 20
545.4523593396
 10
-8.3845368208
 20
545.5964179356
  0
LINE
  5
3E7
100
AcDbEntity
  8
0
100
AcDbLine
 62
7
  6
CONTINUOUS
 10
-27.9782338863
 20
499.392275047
 11
-22.4326767852
 21
503.2753159328
  0
LINE
  5
3E8
100
AcDbEntity
  8
RUNDUNGEN
100
AcDbLine
 62
7
  6
CONTINUOUS
 10
-28.3290302892
 20
555.1312343343
 11
-28.9057436918
 21
555.4822967073
  0
LINE
  5
3E9
100
AcDbEntity
  8
RUNDUNGEN
100
AcDbLine
 62
7
  6
CONTINUOUS
 10
-21.6233372891
 20
550.3077907171
 11
-22.0979568945
 21
550.6115000316
  0
LINE
  5
3EA
100
AcDbEntity
  8
RUNDUNGEN
100
AcDbLine
 62
7
  6
CONTINUOUS
 10
-27.9521312081
 20
554.8712507618
 11
-28.3430265883
 21
555.1404040798
  0
LINE
  5
3EB
100
AcDbEntity
  8
RUNDUNGEN
100
AcDbLine
 62
7
  6
CONTINUOUS
 10
-22.0850237813
 20
550.6027170053
 11
-22.396395623
 21
550.8223909956
  0
LINE
  5
3EC
100
AcDbEntity
  8
RUNDUNGEN
100
AcDbLine
 62
7
  6
CONTINUOUS
 10
-24.9711340595
 20
552.7054406384
 11
-27.9521281982
 21
554.8712549504
  0
LINE
  5
3ED
100
AcDbEntity
  8
RUNDUNGEN
100
AcDbLine
 62
7
  6
CONTINUOUS
 10
-22.3963974529
 20
550.8223885025
 11
-24.9711340595
 21
552.7054406384
  0
LINE
  5
3EE
100
AcDbEntity
  8
RUNDUNGEN
100
AcDbLine
 62
7
  6
CONTINUOUS
 10
-29.4736181103
 20
555.7781397608
 11
-30.0896555799
 21
556.0485916502
  0
LINE
  5
3EF
100
AcDbEntity
  8
RUNDUNGEN
100
AcDbLine
 62
7
  6
CONTINUOUS
 10
-28.8911239814
 20
555.4740505438
 11
-29.4887904723
 21
555.7854125173
  0
LINE
  5
3F0
100
AcDbEntity
  8
RUNDUNGEN
100
AcDbLine
 62
7
  6
CONTINUOUS
 10
-21.1498467087
 20
550.0405008046
 11
-21.636830744
 21
550.3159192195
  0
LINE
  5
3F1
100
AcDbEntity
  8
0
100
AcDbLine
 62
7
  6
CONTINUOUS
 10
132.438989639
 20
507.5837954899
 11
132.438989639
 21
505.0838618114
  0
LINE
  5
3F2
100
AcDbEntity
  8
RUNDUNGEN
100
AcDbLine
 62
7
  6
CONTINUOUS
 10
138.4661663949
 20
541.9996580324
 11
138.1923951348
 21
541.830226799
  0
LINE
  5
3F3
100
AcDbEntity
  8
RUNDUNGEN
100
AcDbLine
 62
7
  6
CONTINUOUS
 10
138.9124649274
 20
542.2726635041
 11
138.4577299923
 21
541.9944369216
  0
LINE
  5
3F4
100
AcDbEntity
  8
RUNDUNGEN
100
AcDbLine
 62
7
  6
CONTINUOUS
 10
139.3797639466
 20
542.55450216
 11
138.8987554143
 21
542.2643342739
  0
LWPOLYLINE
  5
3F5
100
AcDbEntity
  8
RUNDUNGEN
100
AcDbPolyline
 62
7
  6
CONTINUOUS
 90
9
 70
0
 10
138.1923952975
 20
541.8302265374
 10
138.0925411221
 20
541.7702371337
 10
137.9428679999
 20
541.6883332714
 10
137.7925832746
 20
541.6162257203
 10
137.6421029246
 20
541.5548687772
 10
137.492117053
 20
541.5053762929
 10
137.3405205902
 20
541.4682725625
 10
137.1938214682
 20
541.4459058851
 10
137.0401747346
 20
541.4378177785
  0
LINE
  5
3F6
100
AcDbEntity
  8
RUNDUNGEN
100
AcDbLine
 62
7
  6
CONTINUOUS
 10
139.8681839126
 20
542.8449627033
 11
139.3660286624
 21
542.5462742809
  0
LINE
  5
3F7
100
AcDbEntity
  8
RUNDUNGEN
100
AcDbLine
 62
7
  6
CONTINUOUS
 10
140.3778401124
 20
543.1438535315
 11
139.8544214224
 21
542.8368334092
  0
LINE
  5
3F8
100
AcDbEntity
  8
RUNDUNGEN
100
AcDbLine
 62
7
  6
CONTINUOUS
 10
148.438989639
 20
544.885963428
 11
148.2506774744
 21
544.7763072818
  0
LINE
  5
3F9
100
AcDbEntity
  8
RUNDUNGEN
100
AcDbLine
 62
7
  6
CONTINUOUS
 10
140.741460426
 20
543.3546279723
 11
140.3640491887
 21
543.1358198612
  0
LINE
  5
3FA
100
AcDbEntity
  8
RUNDUNGEN
100
AcDbLine
 62
7
  6
CONTINUOUS
 10
140.8922954439
 20
543.4378662588
 11
140.7414513343
 21
543.3545965513
  0
LINE
  5
3FB
100
AcDbEntity
  8
RUNDUNGEN
100
AcDbLine
 62
7
  6
CONTINUOUS
 10
148.2585940804
 20
544.780759999
 11
147.9950116082
 21
544.6386465819
  0
LINE
  5
3FC
100
AcDbEntity
  8
RUNDUNGEN
100
AcDbLine
 62
7
  6
CONTINUOUS
 10
148.0032977141
 20
544.6429208424
 11
147.7344460525
 21
544.5100731858
  0
LINE
  5
3FD
100
AcDbEntity
  8
RUNDUNGEN
100
AcDbLine
 62
7
  6
CONTINUOUS
 10
141.2000163961
 20
543.5856572539
 11
140.8830047368
 21
543.4327375569
  0
LINE
  5
3FE
100
AcDbEntity
  8
RUNDUNGEN
100
AcDbLine
 62
7
  6
CONTINUOUS
 10
147.7431131354
 20
544.514157571
 11
147.4692643229
 21
544.3915965636
  0
LINE
  5
3FF
100
AcDbEntity
  8
RUNDUNGEN
100
AcDbLine
 62
7
  6
CONTINUOUS
 10
147.4783100061
 20
544.3954389475
 11
147.199631953
 21
544.284406636
  0
LINE
  5
400
100
AcDbEntity
  8
RUNDUNGEN
100
AcDbLine
 62
7
  6
CONTINUOUS
 10
141.5146729743
 20
543.7081774338
 11
141.1853342259
 21
543.5792508702
  0
LINE
  5
401
100
AcDbEntity
  8
RUNDUNGEN
100
AcDbLine
 62
7
  6
CONTINUOUS
 10
141.8348968981
 20
543.8054333228
 11
141.4992347338
 21
543.7028069792
  0
LINE
  5
402
100
AcDbEntity
  8
BEZUGSACHSEN
100
AcDbLine
 62
7
  6
CONTINUOUS
 10
153.438989639
 20
489.5837954899
 11
159.438989639
 21
489.5837954899
  0
LINE
  5
403
100
AcDbEntity
  8
0
100
AcDbLine
 62
7
  6
CONTINUOUS
 10
173.438989639
 20
489.5837954899
 11
179.438989639
 21
489.5837954899
  0
LINE
  5
404
100
AcDbEntity
  8
0
100
AcDbLine
 62
7
  6
CONTINUOUS
 10
173.438989639
 20
490.5837954899
 11
159.438989639
 21
490.5837954899
  0
LINE
  5
405
100
AcDbEntity
  8
0
100
AcDbLine
 62
7
  6
CONTINUOUS
 10
-97.561010361
 20
497.5837954899
 11
-94.061010361
 21
497.5837954899
  0
LINE
  5
406
100
AcDbEntity
  8
0
100
AcDbLine
 62
7
  6
CONTINUOUS
 10
-43.561010361
 20
497.5837954899
 11
-33.7139982503
 21
497.5837954899
  0
LINE
  5
407
100
AcDbEntity
  8
0
100
AcDbLine
 62
7
  6
CONTINUOUS
 10
378.438989639
 20
503.5837954899
 11
355.3843667189
 21
503.5837954899
  0
LINE
  5
408
100
AcDbEntity
  8
0
100
AcDbLine
 62
7
  6
CONTINUOUS
 10
189.9533186066
 20
503.5837954899
 11
184.438989639
 21
503.5837954899
  0
LINE
  5
409
100
AcDbEntity
  8
0
100
AcDbLine
 62
7
  6
CONTINUOUS
 10
148.438989639
 20
503.5837954899
 11
142.9246606714
 21
503.5837954899
  0
LINE
  5
40A
100
AcDbEntity
  8
0
100
AcDbLine
 62
7
  6
CONTINUOUS
 10
-16.6969124217
 20
505.0837954899
 11
0.438989639
 21
505.0837954899
  0
LINE
  5
40B
100
AcDbEntity
  8
0
100
AcDbLine
 62
7
  6
CONTINUOUS
 10
132.438989639
 20
505.0837954899
 11
137.0401747351
 21
505.0837954899
  0
LINE
  5
40C
100
AcDbEntity
  8
0
100
AcDbLine
 62
7
  6
CONTINUOUS
 10
195.8378045428
 20
505.0837954899
 11
200.438989639
 21
505.0837954899
  0
LINE
  5
40D
100
AcDbEntity
  8
0
100
AcDbLine
 62
7
  6
CONTINUOUS
 10
332.438989639
 20
505.0837954899
 11
349.5748916996
 21
505.0837954899
  0
LINE
  5
40E
100
AcDbEntity
  8
RUNDUNGEN
100
AcDbLine
 62
7
  6
CONTINUOUS
 10
-18.9031810199
 20
549.1901317555
 11
-19.4799308961
 21
549.3467934037
  0
LINE
  5
40F
100
AcDbEntity
  8
RUNDUNGEN
100
AcDbLine
 62
7
  6
CONTINUOUS
 10
-30.6897676692
 20
556.265599937
 11
-31.3343946847
 21
556.4511716973
  0
LINE
  5
410
100
AcDbEntity
  8
RUNDUNGEN
100
AcDbLine
 62
7
  6
CONTINUOUS
 10
-19.4649927908
 20
549.3422181855
 11
-19.8486991664
 21
549.4687244947
  0
LINE
  5
411
100
AcDbEntity
  8
RUNDUNGEN
100
AcDbLine
 62
7
  6
CONTINUOUS
 10
-30.0740041915
 20
556.0423342604
 11
-30.7058153477
 21
556.2708048753
  0
LINE
  5
412
100
AcDbEntity
  8
0
100
AcDbLine
 62
7
  6
CONTINUOUS
 10
138.7502754518
 20
504.7822585939
 11
141.2145599548
 21
503.885332386
  0
LWPOLYLINE
  5
413
100
AcDbEntity
  8
RUNDUNGEN
100
AcDbPolyline
 62
7
  6
CONTINUOUS
 90
4
 70
0
 10
-19.8486966435
 20
549.4687316068
 10
-20.17362673
 20
549.5906074415
 10
-20.6661172264
 20
549.8013221161
 10
-21.1498467087
 20
550.0405008046
  0
LWPOLYLINE
  5
414
100
AcDbEntity
  8
BEZUGSACHSEN
100
AcDbPolyline
 62
7
  6
CONTINUOUS
 90
20
 70
0
 10
157.444754014
 20
516.3437632277
 10
157.478701706
 20
515.9548665146
 10
157.5433846418
 20
515.5673986682
 10
157.63886789
 20
515.1842082671
 10
157.7649384057
 20
514.8080533019
 10
157.921122399
 20
514.4416254395
 10
158.1066593372
 20
514.0876119304
 10
158.3205653045
 20
513.7485529794
 10
158.5616020995
 20
513.4269164233
 10
158.8282806745
 20
513.1250673391
 10
159.1188863556
 20
512.8452217638
 10
159.4314865963
 20
512.5894314557
 10
159.7639548252
 20
512.3595551776
 10
160.1139908479
 20
512.1572396511
 10
160.4791445018
 20
511.983901888
 10
160.8568412262
 20
511.8407143921
 10
161.2444091671
 20
511.7285934489
 10
161.6391074209
 20
511.6481906683
 10
162.0380611093
 20
511.5998954403
 10
162.4286258285
 20
511.5842026852
  0
LINE
  5
415
100
AcDbEntity
  8
BEZUGSACHSEN
100
AcDbLine
 62
7
  6
CONTINUOUS
 10
157.4389893471
 20
516.5837911092
 11
157.444754014
 21
516.3437632277
  0
LINE
  5
416
100
AcDbEntity
  8
BEZUGSACHSEN
100
AcDbLine
 62
7
  6
CONTINUOUS
 10
148.438989639
 20
560.583714682
 11
148.438989639
 21
494.583876264
  0
LINE
  5
417
100
AcDbEntity
  8
BEZUGSACHSEN
100
AcDbLine
 62
7
  6
CONTINUOUS
 10
157.438989639
 20
538.5837954899
 11
157.438989639
 21
516.5837954899
  0
LINE
  5
418
100
AcDbEntity
  8
BEZUGSACHSEN
100
AcDbLine
 62
7
  6
CONTINUOUS
 10
159.438989639
 20
489.5838691179
 11
159.438989639
 21
507.3306456591
  0
LINE
  5
419
100
AcDbEntity
  8
BEZUGSACHSEN
100
AcDbLine
 62
7
  6
CONTINUOUS
 10
159.438989639
 20
547.8369453208
 11
159.438989639
 21
565.583721862
  0
LWPOLYLINE
  5
41A
100
AcDbEntity
  8
BEZUGSACHSEN
100
AcDbPolyline
 62
7
  6
CONTINUOUS
 90
3
 70
0
 10
157.4791434465
 20
539.216198784
 10
157.444847525
 20
538.825765809
 10
157.4389893369
 20
538.5837998863
  0
LINE
  5
41B
100
AcDbEntity
  8
RUNDUNGEN
100
AcDbLine
 62
7
  6
CONTINUOUS
 10
147.2090852748
 20
544.2879231586
 11
146.9264716297
 21
544.1898595593
  0
LINE
  5
41C
100
AcDbEntity
  8
RUNDUNGEN
100
AcDbLine
 62
7
  6
CONTINUOUS
 10
146.9363062123
 20
544.1930193022
 11
146.6502315306
 21
544.1091729775
  0
LINE
  5
41D
100
AcDbEntity
  8
RUNDUNGEN
100
AcDbLine
 62
7
  6
CONTINUOUS
 10
335.7419324271
 20
541.45288047
 11
335.5335819231
 21
541.4392964748
  0
LINE
  5
41E
100
AcDbEntity
  8
0
100
AcDbLine
 62
7
  6
CONTINUOUS
 10
327.688989639
 20
506.5837954899
 11
320.188989639
 21
506.5837954899
  0
LINE
  5
41F
100
AcDbEntity
  8
0
100
AcDbLine
 62
7
  6
CONTINUOUS
 10
318.5223245618
 20
506.5837954899
 11
316.0223245618
 21
506.5837954899
  0
LINE
  5
420
100
AcDbEntity
  8
0
100
AcDbLine
 62
7
  6
CONTINUOUS
 10
314.3556547162
 20
506.5837954899
 11
306.438989639
 21
506.5837954899
  0
LINE
  5
421
100
AcDbEntity
  8
0
100
AcDbLine
 62
7
  6
CONTINUOUS
 10
304.7723245618
 20
506.5837954899
 11
296.8556547162
 21
506.5837954899
  0
LINE
  5
422
100
AcDbEntity
  8
0
100
AcDbLine
 62
7
  6
CONTINUOUS
 10
295.188989639
 20
506.5837954899
 11
287.688989639
 21
506.5837954899
  0
LINE
  5
423
100
AcDbEntity
  8
0
100
AcDbLine
 62
7
  6
CONTINUOUS
 10
286.0223221776
 20
506.5837954899
 11
277.8973221776
 21
506.5837954899
  0
LINE
  5
424
100
AcDbEntity
  8
0
100
AcDbLine
 62
7
  6
CONTINUOUS
 10
276.2306571004
 20
506.5837954899
 11
273.313989639
 21
506.5837954899
  0
LINE
  5
425
100
AcDbEntity
  8
0
100
AcDbLine
 62
7
  6
CONTINUOUS
 10
271.6473221776
 20
506.5837954899
 11
264.1473233697
 21
506.5837954899
  0
LINE
  5
426
100
AcDbEntity
  8
0
100
AcDbLine
 62
7
  6
CONTINUOUS
 10
262.4806559083
 20
506.5837954899
 11
254.3556562063
 21
506.5837954899
  0
LINE
  5
427
100
AcDbEntity
  8
0
100
AcDbLine
 62
7
  6
CONTINUOUS
 10
252.688989639
 20
506.5837954899
 11
251.438989639
 21
506.5837954899
  0
LINE
  5
428
100
AcDbEntity
  8
0
100
AcDbLine
 62
7
  6
CONTINUOUS
 10
236.858989639
 20
506.5837954899
 11
228.038989639
 21
506.5837954899
  0
LINE
  5
429
100
AcDbEntity
  8
0
100
AcDbLine
 62
7
  6
CONTINUOUS
 10
225.878989639
 20
506.5837954899
 11
217.238989639
 21
506.5837954899
  0
LINE
  5
42A
100
AcDbEntity
  8
0
100
AcDbLine
 62
7
  6
CONTINUOUS
 10
215.798989639
 20
506.5837954899
 11
206.438989639
 21
506.5837954899
  0
LINE
  5
42B
100
AcDbEntity
  8
0
100
AcDbLine
 62
7
  6
CONTINUOUS
 10
40.188989639
 20
506.5837954899
 11
31.148989639
 21
506.5837954899
  0
LINE
  5
42C
100
AcDbEntity
  8
BEZUGSACHSEN
100
AcDbLine
 62
7
  6
CONTINUOUS
 10
174.2930283961
 20
507.5837954899
 11
158.438989639
 21
507.5837954899
  0
LINE
  5
42D
100
AcDbEntity
  8
0
100
AcDbLine
 62
7
  6
CONTINUOUS
 10
0.438989639
 20
507.5837954899
 11
132.438989639
 21
507.5837954899
  0
LINE
  5
42E
100
AcDbEntity
  8
RUNDUNGEN
100
AcDbLine
 62
7
  6
CONTINUOUS
 10
158.5849508819
 20
507.5837954899
 11
174.438989639
 21
507.5837954899
  0
LINE
  5
42F
100
AcDbEntity
  8
0
100
AcDbLine
 62
7
  6
CONTINUOUS
 10
200.438989639
 20
507.5837954899
 11
332.438989639
 21
507.5837954899
  0
LINE
  5
430
100
AcDbEntity
  8
RUNDUNGEN
100
AcDbLine
 62
7
  6
CONTINUOUS
 10
-157.561010361
 20
508.5837954899
 11
-205.7748479964
 21
508.5837954899
  0
LINE
  5
431
100
AcDbEntity
  8
RUNDUNGEN
100
AcDbLine
 62
7
  6
CONTINUOUS
 10
490.438989639
 20
508.5837954899
 11
538.6528272744
 21
508.5837954899
  0
LINE
  5
432
100
AcDbEntity
  8
BEZUGSACHSEN
100
AcDbLine
 62
7
  6
CONTINUOUS
 10
162.438989639
 20
511.5837954899
 11
170.438989639
 21
511.5837954899
  0
LINE
  5
433
100
AcDbEntity
  8
0
100
AcDbLine
 62
7
  6
CONTINUOUS
 10
-45.561010361
 20
515.5837954899
 11
-93.561010361
 21
515.5837954899
  0
LINE
  5
434
100
AcDbEntity
  8
0
100
AcDbLine
 62
7
  6
CONTINUOUS
 10
-99.561010361
 20
515.5837954899
 11
-151.561010361
 21
515.5837954899
  0
LINE
  5
435
100
AcDbEntity
  8
0
100
AcDbLine
 62
7
  6
CONTINUOUS
 10
380.438989639
 20
515.5837954899
 11
484.438989639
 21
515.5837954899
  0
LWPOLYLINE
  5
436
100
AcDbEntity
  8
RUNDUNGEN
100
AcDbPolyline
 62
7
  6
CONTINUOUS
 90
17
 70
0
 10
-2.6650089575
 20
541.4396076746
 10
-2.884404999
 20
541.4549855039
 10
-3.1089898619
 20
541.4867228348
 10
-3.336881802
 20
541.5347094185
 10
-3.5636831619
 20
541.5973052568
 10
-3.78960736
 20
541.6734988177
 10
-4.0124106588
 20
541.7611968201
 10
-4.232714763
 20
541.8595198277
 10
-4.4511467251
 20
541.9677188717
 10
-4.667310032
 20
542.084720088
 10
-4.8815619855
 20
542.2100840617
 10
-5.0934486316
 20
542.3428554519
 10
-5.3031050447
 20
542.4825460016
 10
-5.5097677803
 20
542.6281811464
 10
-5.71313883
 20
542.7790358181
 10
-5.9128893052
 20
542.9343979452
 10
-6.1086795679
 20
543.0935957407
  0
LINE
  5
437
100
AcDbEntity
  8
RUNDUNGEN
100
AcDbLine
 62
7
  6
CONTINUOUS
 10
-39.8336204928
 20
556.8483887017
 11
-39.9862972729
 21
556.8687820508
  0
LWPOLYLINE
  5
438
100
AcDbEntity
  8
RUNDUNGEN
100
AcDbPolyline
 62
7
  6
CONTINUOUS
 90
17
 70
0
 10
-2.8734172193
 20
541.4538320925
 10
-3.0872310745
 20
541.4829690686
 10
-3.3042678375
 20
541.5268955634
 10
-3.5210247846
 20
541.5844464268
 10
-3.737247217
 20
541.6546683913
 10
-3.9502563892
 20
541.735507196
 10
-4.1609976564
 20
541.8263001159
 10
-4.3701921909
 20
541.9264162348
 10
-4.5773240045
 20
542.0348258904
 10
-4.7825258842
 20
542.1510113797
 10
-4.9856412601
 20
542.2742327975
 10
-5.1870119756
 20
542.4041751266
 10
-5.385875835
 20
542.5399411753
 10
-5.5819909726
 20
542.6809084499
 10
-5.7750085439
 20
542.8263944634
 10
-5.9645927933
 20
542.9757690627
 10
-6.1505623998
 20
543.1285447566
  0
LINE
  5
439
100
AcDbEntity
  8
RUNDUNGEN
100
AcDbLine
 62
7
  6
CONTINUOUS
 10
-17.7316591373
 20
548.9894476342
 11
-18.3404067337
 21
549.0748016818
  0
LINE
  5
43A
100
AcDbEntity
  8
RUNDUNGEN
100
AcDbLine
 62
7
  6
CONTINUOUS
 10
-39.9740890762
 20
556.8670745834
 11
-40.1187763808
 21
556.8882022655
  0
LINE
  5
43B
100
AcDbEntity
  8
RUNDUNGEN
100
AcDbLine
 62
7
  6
CONTINUOUS
 10
-31.9559149855
 20
556.5859352411
 11
-32.6174217221
 21
556.6837444246
  0
LINE
  5
43C
100
AcDbEntity
  8
RUNDUNGEN
100
AcDbLine
 62
7
  6
CONTINUOUS
 10
-40.1073981118
 20
556.8864690541
 11
-40.244075942
 21
556.9081313775
  0
LINE
  5
43D
100
AcDbEntity
  8
RUNDUNGEN
100
AcDbLine
 62
7
  6
CONTINUOUS
 10
-40.2335191537
 20
556.9063915639
 11
-40.3621606987
 21
556.9283880639
  0
LINE
  5
43E
100
AcDbEntity
  8
RUNDUNGEN
100
AcDbLine
 62
7
  6
CONTINUOUS
 10
-40.3524190425
 20
556.9266602195
 11
-40.472942304
 21
556.9487942798
  0
LINE
  5
43F
100
AcDbEntity
  8
RUNDUNGEN
100
AcDbLine
 62
7
  6
CONTINUOUS
 10
-40.4640022085
 20
556.9470943376
 11
-40.5763947604
 21
556.9691862882
  0
LINE
  5
440
100
AcDbEntity
  8
RUNDUNGEN
100
AcDbLine
 62
7
  6
CONTINUOUS
 10
-18.3247550039
 20
549.0720997675
 11
-18.9031810199
 21
549.1901317555
  0
LINE
  5
441
100
AcDbEntity
  8
RUNDUNGEN
100
AcDbLine
 62
7
  6
CONTINUOUS
 10
-40.5682366832
 20
556.9675284696
 11
-40.672353131
 21
556.9893695575
  0
LINE
  5
442
100
AcDbEntity
  8
RUNDUNGEN
100
AcDbLine
 62
7
  6
CONTINUOUS
 10
-31.3180374774
 20
556.4470489313
 11
-31.972493451
 21
556.5889546167
  0
LINE
  5
443
100
AcDbEntity
  8
RUNDUNGEN
100
AcDbLine
 62
7
  6
CONTINUOUS
 10
-40.6649627399
 20
556.9877687184
 11
-40.7585698591
 21
557.0086795323
  0
LWPOLYLINE
  5
444
100
AcDbEntity
  8
RUNDUNGEN
100
AcDbPolyline
 62
7
  6
CONTINUOUS
 90
9
 70
0
 10
-40.754105635
 20
557.0076361223
 10
-40.8354091554
 20
557.0269131235
 10
-40.9087682056
 20
557.0454064441
 10
-40.9736669481
 20
557.062799429
 10
-41.0297931336
 20
557.0787997118
 10
-41.0765126629
 20
557.0929904723
 10
-41.1136039212
 20
557.1050245962
 10
-41.1395378034
 20
557.1140363788
 10
-41.1523976994
 20
557.1188128049
  0
LWPOLYLINE
  5
445
100
AcDbEntity
  8
RUNDUNGEN
100
AcDbPolyline
 62
7
  6
CONTINUOUS
 90
20
 70
0
 10
175.4338823987
 20
538.8097407823
 10
175.4010896729
 20
539.1982637954
 10
175.3375676946
 20
539.5857654748
 10
175.2431832472
 20
539.969341239
 10
175.1180927762
 20
540.3461828335
 10
174.9627229694
 20
540.7135498803
 10
174.77780086
 20
541.0686969959
 10
174.5642836688
 20
541.4090332444
 10
174.3233943635
 20
541.7320362092
 10
174.0566190448
 20
542.0352846252
 10
173.7656797809
 20
542.3165092666
 10
173.4525271953
 20
542.5736087818
 10
173.1193150038
 20
542.804680885
 10
172.7683784836
 20
543.0080427345
 10
172.4022093346
 20
543.182249863
 10
172.0234284401
 20
543.3261119758
 10
171.6347569516
 20
543.43870537
 10
171.2389861441
 20
543.5193817911
 10
170.8390524848
 20
543.5677651042
 10
170.4389940357
 20
543.5837954899
  0
LINE
  5
446
100
AcDbEntity
  8
RUNDUNGEN
100
AcDbLine
 62
7
  6
CONTINUOUS
 10
175.4389899411
 20
538.5837998863
 11
175.4338823987
 21
538.8097407823
  0
LINE
  5
447
100
AcDbEntity
  8
RUNDUNGEN
100
AcDbLine
 62
7
  6
CONTINUOUS
 10
173.438989639
 20
489.5838691179
 11
173.438989639
 21
507.3306456591
  0
LINE
  5
448
100
AcDbEntity
  8
RUNDUNGEN
100
AcDbLine
 62
7
  6
CONTINUOUS
 10
173.438989639
 20
547.8369453208
 11
173.438989639
 21
565.583721862
  0
LINE
  5
449
100
AcDbEntity
  8
RUNDUNGEN
100
AcDbLine
 62
7
  6
CONTINUOUS
 10
175.438989639
 20
538.5837954899
 11
175.438989639
 21
516.5837954899
  0
LINE
  5
44A
100
AcDbEntity
  8
RUNDUNGEN
100
AcDbLine
 62
7
  6
CONTINUOUS
 10
184.438989639
 20
560.583714682
 11
184.438989639
 21
494.583876264
  0
LWPOLYLINE
  5
44B
100
AcDbEntity
  8
RUNDUNGEN
100
AcDbPolyline
 62
7
  6
CONTINUOUS
 90
3
 70
0
 10
175.4035330486
 20
515.9893911593
 10
175.4343118664
 20
516.367553471
 10
175.4389899309
 20
516.5837911092
  0
LWPOLYLINE
  5
44C
100
AcDbEntity
  8
RUNDUNGEN
100
AcDbPolyline
 62
7
  6
CONTINUOUS
 90
13
 70
0
 10
172.9000220856
 20
512.2314012192
 10
173.2394285423
 20
512.4416269903
 10
173.5597099981
 20
512.6772467146
 10
173.8590703827
 20
512.9364584915
 10
174.1358843458
 20
513.2173449565
 10
174.3887014775
 20
513.517886837
 10
174.6162599573
 20
513.835990623
 10
174.8174770167
 20
514.1694909887
 10
174.991461663
 20
514.5161845302
 10
175.1375135705
 20
514.8738575436
 10
175.2550746777
 20
515.2401669076
 10
175.3438020565
 20
515.6128034042
 10
175.4035330486
 20
515.9893911593
  0
LINE
  5
44D
100
AcDbEntity
  8
RUNDUNGEN
100
AcDbLine
 62
7
  6
CONTINUOUS
 10
146.6603738472
 20
544.1118607613
 11
146.373325468
 21
544.0439730775
  0
LINE
  5
44E
100
AcDbEntity
  8
RUNDUNGEN
100
AcDbLine
 62
7
  6
CONTINUOUS
 10
142.1585477201
 20
543.8772797797
 11
141.8188408688
 21
543.8011861954
  0
LINE
  5
44F
100
AcDbEntity
  8
RUNDUNGEN
100
AcDbLine
 62
7
  6
CONTINUOUS
 10
146.3837773702
 20
544.0461393345
 11
146.0964521565
 21
543.9949799993
  0
LINE
  5
450
100
AcDbEntity
  8
RUNDUNGEN
100
AcDbLine
 62
7
  6
CONTINUOUS
 10
142.483956984
 20
543.9235428171
 11
142.1420093102
 21
543.8742386927
  0
LINE
  5
451
100
AcDbEntity
  8
RUNDUNGEN
100
AcDbLine
 62
7
  6
CONTINUOUS
 10
146.1071215883
 20
543.996568059
 11
145.8240977457
 21
543.9631547973
  0
LINE
  5
452
100
AcDbEntity
  8
RUNDUNGEN
100
AcDbLine
 62
7
  6
CONTINUOUS
 10
142.8099064503
 20
543.9447555011
 11
142.4670684496
 21
543.9217667189
  0
LINE
  5
453
100
AcDbEntity
  8
RUNDUNGEN
100
AcDbLine
 62
7
  6
CONTINUOUS
 10
145.8350082892
 20
543.964102538
 11
145.5606301655
 21
543.9480836961
  0
LWPOLYLINE
  5
454
100
AcDbEntity
  8
BEZUGSACHSEN
100
AcDbPolyline
 62
7
  6
CONTINUOUS
 90
19
 70
0
 10
162.4167363144
 20
543.5829109508
 10
162.0382408581
 20
543.5677099973
 10
161.6395960502
 20
543.519479478
 10
161.245341265
 20
543.439226774
 10
160.8582920827
 20
543.3273603076
 10
160.4811438878
 20
543.184540449
 10
160.1165238105
 20
543.011680822
 10
159.7669646013
 20
542.8099402752
 10
159.4348795412
 20
542.5807119514
 10
159.1225387296
 20
542.3256095936
 10
158.8320470762
 20
542.0464512788
 10
158.565325109
 20
541.7452418062
 10
158.3240871304
 20
541.4241469783
 10
158.1098328225
 20
541.0854788464
 10
157.9238242182
 20
540.7316544949
 10
157.7670815013
 20
540.3651684901
 10
157.6404079445
 20
539.9886538756
 10
157.5443351362
 20
539.604759859
 10
157.4791434465
 20
539.216198784
  0
LINE
  5
455
100
AcDbEntity
  8
RUNDUNGEN
100
AcDbLine
 62
7
  6
CONTINUOUS
 10
142.9246607122
 20
543.9463433128
 11
142.7928262556
 21
543.9442574583
  0
LINE
  5
456
100
AcDbEntity
  8
RUNDUNGEN
100
AcDbLine
 62
7
  6
CONTINUOUS
 10
145.5716825492
 20
543.9484092706
 11
145.4389896414
 21
543.946411017
  0
LINE
  5
457
100
AcDbEntity
  8
0
100
AcDbLine
 62
7
  6
CONTINUOUS
 10
-45.561010361
 20
533.0837954899
 11
-93.561010361
 21
533.0837954899
  0
LINE
  5
458
100
AcDbEntity
  8
0
100
AcDbLine
 62
7
  6
CONTINUOUS
 10
-99.561010361
 20
533.0837954899
 11
-153.8906566976
 21
533.0837954899
  0
LINE
  5
459
100
AcDbEntity
  8
0
100
AcDbLine
 62
7
  6
CONTINUOUS
 10
-45.561010361
 20
538.2491599938
 11
-93.561010361
 21
538.2491599938
  0
LINE
  5
45A
100
AcDbEntity
  8
0
100
AcDbLine
 62
7
  6
CONTINUOUS
 10
-99.561010361
 20
538.2491599938
 11
-144.561010361
 21
538.2491599938
  0
LINE
  5
45B
100
AcDbEntity
  8
0
100
AcDbLine
 62
7
  6
CONTINUOUS
 10
-45.561010361
 20
539.5837954899
 11
-93.561010361
 21
539.5837954899
  0
LINE
  5
45C
100
AcDbEntity
  8
0
100
AcDbLine
 62
7
  6
CONTINUOUS
 10
-99.561010361
 20
539.5837954899
 11
-151.561010361
 21
539.5837954899
  0
LINE
  5
45D
100
AcDbEntity
  8
0
100
AcDbLine
 62
7
  6
CONTINUOUS
 10
380.438989639
 20
539.5837954899
 11
484.438989639
 21
539.5837954899
  0
LINE
  5
45E
100
AcDbEntity
  8
RUNDUNGEN
100
AcDbLine
 62
7
  6
CONTINUOUS
 10
335.438989639
 20
541.437826999
 11
195.8378070999
 21
541.437826999
  0
LINE
  5
45F
100
AcDbEntity
  8
RUNDUNGEN
100
AcDbLine
 62
7
  6
CONTINUOUS
 10
137.0401747351
 20
541.437826999
 11
-2.5610074076
 21
541.437826999
  0
LINE
  5
460
100
AcDbEntity
  8
RUNDUNGEN
100
AcDbLine
 62
7
  6
CONTINUOUS
 10
170.4741010536
 20
543.5837954899
 11
170.4389896313
 21
543.5837954899
  0
LINE
  5
461
100
AcDbEntity
  8
BEZUGSACHSEN
100
AcDbLine
 62
7
  6
CONTINUOUS
 10
162.4038782244
 20
543.5837954899
 11
170.438989639
 21
543.5837954899
  0
LINE
  5
462
100
AcDbEntity
  8
0
100
AcDbLine
 62
7
  6
CONTINUOUS
 10
162.438989639
 20
543.5837954899
 11
170.438989639
 21
543.5837954899
  0
LINE
  5
463
100
AcDbEntity
  8
RUNDUNGEN
100
AcDbLine
 62
7
  6
CONTINUOUS
 10
189.9533186066
 20
543.9464299607
 11
187.4389950106
 21
543.9464299607
  0
LINE
  5
464
100
AcDbEntity
  8
RUNDUNGEN
100
AcDbLine
 62
7
  6
CONTINUOUS
 10
145.438989639
 20
543.9464299607
 11
142.9246644848
 21
543.9464299607
  0
LINE
  5
465
100
AcDbEntity
  8
RUNDUNGEN
100
AcDbLine
 62
7
  6
CONTINUOUS
 10
-157.561010361
 20
546.5837954899
 11
-205.7748479964
 21
546.5837954899
  0
LINE
  5
466
100
AcDbEntity
  8
RUNDUNGEN
100
AcDbLine
 62
7
  6
CONTINUOUS
 10
490.438989639
 20
546.5837954899
 11
538.6528272744
 21
546.5837954899
  0
LINE
  5
467
100
AcDbEntity
  8
RUNDUNGEN
100
AcDbLine
 62
7
  6
CONTINUOUS
 10
174.438989639
 20
547.5837954899
 11
174.2930283961
 21
547.5837954899
  0
LINE
  5
468
100
AcDbEntity
  8
BEZUGSACHSEN
100
AcDbLine
 62
7
  6
CONTINUOUS
 10
158.438989639
 20
547.5837954899
 11
174.2930283961
 21
547.5837954899
  0
LINE
  5
469
100
AcDbEntity
  8
RUNDUNGEN
100
AcDbLine
 62
7
  6
CONTINUOUS
 10
-11.561010361
 20
548.9340454899
 11
-16.6969124225
 21
548.9340454899
  0
LINE
  5
46A
100
AcDbEntity
  8
0
100
AcDbLine
 62
7
  6
CONTINUOUS
 10
344.438989639
 20
550.0837954899
 11
349.5748916996
 21
550.0837954899
  0
LINE
  5
46B
100
AcDbEntity
  8
0
100
AcDbLine
 62
7
  6
CONTINUOUS
 10
378.438989639
 20
551.5837954899
 11
355.3843667189
 21
551.5837954899
  0
LINE
  5
46C
100
AcDbEntity
  8
RUNDUNGEN
100
AcDbLine
 62
7
  6
CONTINUOUS
 10
-33.7139982498
 20
556.7455332841
 11
-38.1610102468
 21
556.7455332841
  0
LINE
  5
46D
100
AcDbEntity
  8
RUNDUNGEN
100
AcDbLine
 62
7
  6
CONTINUOUS
 10
-38.1610102458
 20
556.7455309322
 11
-38.3157837569
 21
556.7463894403
  0
LINE
  5
46E
100
AcDbEntity
  8
RUNDUNGEN
100
AcDbLine
 62
7
  6
CONTINUOUS
 10
-11.4928260682
 20
548.9332401037
 11
-11.561010363
 21
548.9340270996
  0
LINE
  5
46F
100
AcDbEntity
  8
RUNDUNGEN
100
AcDbLine
 62
7
  6
CONTINUOUS
 10
187.438995044
 20
543.9464109507
 11
187.3174009955
 21
543.9480888979
  0
LINE
  5
470
100
AcDbEntity
  8
RUNDUNGEN
100
AcDbLine
 62
7
  6
CONTINUOUS
 10
187.3139017968
 20
543.9482887851
 11
187.3062499054
 21
543.9484033908
  0
LINE
  5
471
100
AcDbEntity
  8
RUNDUNGEN
100
AcDbLine
 62
7
  6
CONTINUOUS
 10
-2.5610103626
 20
541.4378057423
 11
-2.6650089575
 21
541.4396076746
  0
LINE
  5
472
100
AcDbEntity
  8
RUNDUNGEN
100
AcDbLine
 62
7
  6
CONTINUOUS
 10
-38.2957825933
 20
556.7461827388
 11
-38.505626861
 21
556.7497809146
  0
LINE
  5
473
100
AcDbEntity
  8
RUNDUNGEN
100
AcDbLine
 62
7
  6
CONTINUOUS
 10
-16.6969124226
 20
548.9340458591
 11
-17.1417746967
 21
548.944246409
  0
LINE
  5
474
100
AcDbEntity
  8
RUNDUNGEN
100
AcDbLine
 62
7
  6
CONTINUOUS
 10
-33.2496774139
 20
556.7344639663
 11
-33.71399825
 21
556.7455283502
  0
LINE
  5
475
100
AcDbEntity
  8
RUNDUNGEN
100
AcDbLine
 62
7
  6
CONTINUOUS
 10
-38.4862459281
 20
556.7493156573
 11
-38.6916980131
 21
556.7556316857
  0
LINE
  5
476
100
AcDbEntity
  8
RUNDUNGEN
100
AcDbLine
 62
7
  6
CONTINUOUS
 10
-38.6729968815
 20
556.754930391
 11
-38.8734095492
 21
556.7637643043
  0
LWPOLYLINE
  5
477
100
AcDbEntity
  8
RUNDUNGEN
100
AcDbPolyline
 62
7
  6
CONTINUOUS
 90
9
 70
0
 10
195.8378071003
 20
541.4378183048
 10
195.6970920457
 20
541.444609735
 10
195.5510304626
 20
541.4656248926
 10
195.4000337882
 20
541.5013398601
 10
195.2505620362
 20
541.5494922636
 10
195.1004628383
 20
541.6095805878
 10
194.9505766876
 20
541.6804348404
 10
194.8012679954
 20
541.7611146768
 10
194.6855838446
 20
541.8302265885
  0
LINE
  5
478
100
AcDbEntity
  8
RUNDUNGEN
100
AcDbLine
 62
7
  6
CONTINUOUS
 10
-38.8554389815
 20
556.7628528232
 11
-39.0502388116
 21
556.7740091498
  0
LINE
  5
479
100
AcDbEntity
  8
RUNDUNGEN
100
AcDbLine
 62
7
  6
CONTINUOUS
 10
187.3174009955
 20
543.9480888979
 11
187.0428875276
 21
543.9641203024
  0
LINE
  5
47A
100
AcDbEntity
  8
RUNDUNGEN
100
AcDbLine
 62
7
  6
CONTINUOUS
 10
-39.0330396249
 20
556.7729101782
 11
-39.2217108441
 21
556.7861873286
  0
LINE
  5
47B
100
AcDbEntity
  8
RUNDUNGEN
100
AcDbLine
 62
7
  6
CONTINUOUS
 10
-17.1260978856
 20
548.9435389902
 11
-17.7316591373
 21
548.9894476342
  0
LINE
  5
47C
100
AcDbEntity
  8
RUNDUNGEN
100
AcDbLine
 62
7
  6
CONTINUOUS
 10
-17.7395256407
 20
548.9905438875
 11
-17.7474176425
 21
548.991155145
  0
LINE
  5
47D
100
AcDbEntity
  8
RUNDUNGEN
100
AcDbLine
 62
7
  6
CONTINUOUS
 10
-32.6007058541
 20
556.6818407122
 11
-33.266443986
 21
556.7352480927
  0
LINE
  5
47E
100
AcDbEntity
  8
RUNDUNGEN
100
AcDbLine
 62
7
  6
CONTINUOUS
 10
-39.2053123927
 20
556.7849262924
 11
-39.3874098528
 21
556.800082416
  0
LINE
  5
47F
100
AcDbEntity
  8
RUNDUNGEN
100
AcDbLine
 62
7
  6
CONTINUOUS
 10
-39.3718346297
 20
556.7986862223
 11
-39.5469786943
 21
556.8154894377
  0
LINE
  5
480
100
AcDbEntity
  8
RUNDUNGEN
100
AcDbLine
 62
7
  6
CONTINUOUS
 10
-39.5322419688
 20
556.8139812551
 11
-39.700134653
 21
556.8322145782
  0
LINE
  5
481
100
AcDbEntity
  8
RUNDUNGEN
100
AcDbLine
 62
7
  6
CONTINUOUS
 10
187.0539712804
 20
543.9631369812
 11
186.7707289527
 21
543.9965798374
  0
LINE
  5
482
100
AcDbEntity
  8
RUNDUNGEN
100
AcDbLine
 62
7
  6
CONTINUOUS
 10
-39.6862433662
 20
556.8306176764
 11
-39.8466677423
 21
556.8500511693
  0
LINE
  5
483
100
AcDbEntity
  8
RUNDUNGEN
100
AcDbLine
 62
7
  6
CONTINUOUS
 10
186.7816657288
 20
543.9949663355
 11
186.4940987672
 21
544.0461646386
  0
LINE
  5
484
100
AcDbEntity
  8
RUNDUNGEN
100
AcDbLine
 62
7
  6
CONTINUOUS
 10
186.5047675343
 20
544.0439464055
 11
186.2174775476
 21
544.1118962418
  0
LINE
  5
485
100
AcDbEntity
  8
RUNDUNGEN
100
AcDbLine
 62
7
  6
CONTINUOUS
 10
186.2278853448
 20
544.1091345286
 11
185.9415537812
 21
544.19305134
  0
LINE
  5
486
100
AcDbEntity
  8
RUNDUNGEN
100
AcDbLine
 62
7
  6
CONTINUOUS
 10
185.9516365936
 20
544.1898252805
 11
185.6687259708
 21
544.2879967631
  0
LINE
  5
487
100
AcDbEntity
  8
RUNDUNGEN
100
AcDbLine
 62
7
  6
CONTINUOUS
 10
185.6785264638
 20
544.2843293151
 11
185.3994441666
 21
544.3955231005
  0
LINE
  5
488
100
AcDbEntity
  8
RUNDUNGEN
100
AcDbLine
 62
7
  6
CONTINUOUS
 10
185.4089538681
 20
544.3915064513
 11
185.1346185577
 21
544.5142749057
  0
LINE
  5
489
100
AcDbEntity
  8
RUNDUNGEN
100
AcDbLine
 62
7
  6
CONTINUOUS
 10
185.1437929464
 20
544.5099513222
 11
184.8744179225
 21
544.6430664597
  0
LINE
  5
48A
100
AcDbEntity
  8
RUNDUNGEN
100
AcDbLine
 62
7
  6
CONTINUOUS
 10
184.8832402513
 20
544.638496191
 11
184.6191326295
 21
544.7808921479
  0
LWPOLYLINE
  5
48B
100
AcDbEntity
  8
RUNDUNGEN
100
AcDbPolyline
 62
7
  6
CONTINUOUS
 90
9
 70
0
 10
192.1365063005
 20
543.3546084263
 10
191.9993841664
 20
543.4306078229
 10
191.6923973768
 20
543.5793603696
 10
191.3784115739
 20
543.7029211064
 10
191.0587733639
 20
543.8012857768
 10
190.735622449
 20
543.8743043537
 10
190.4106238233
 20
543.9217932158
 10
190.0849842526
 20
543.9442653567
 10
189.9533185675
 20
543.946347728
  0
LINE
  5
48C
100
AcDbEntity
  8
RUNDUNGEN
100
AcDbLine
 62
7
  6
CONTINUOUS
 10
192.5139495896
 20
543.1358085053
 11
192.1365178917
 21
543.3546285116
  0
LINE
  5
48D
100
AcDbEntity
  8
RUNDUNGEN
100
AcDbLine
 62
7
  6
CONTINUOUS
 10
184.62756663
 20
544.7761685987
 11
184.438989639
 21
544.8858874359
  0
LINE
  5
48E
100
AcDbEntity
  8
RUNDUNGEN
100
AcDbLine
 62
7
  6
CONTINUOUS
 10
193.0235897599
 20
542.8368145498
 11
192.5058703538
 21
543.1404925274
  0
LINE
  5
48F
100
AcDbEntity
  8
RUNDUNGEN
100
AcDbLine
 62
7
  6
CONTINUOUS
 10
193.5119866895
 20
542.5462526752
 11
193.0098279776
 21
542.8449434349
  0
LINE
  5
490
100
AcDbEntity
  8
RUNDUNGEN
100
AcDbLine
 62
7
  6
CONTINUOUS
 10
193.9792559262
 20
542.2643147802
 11
193.4982519101
 21
542.5544802593
  0
LINE
  5
491
100
AcDbEntity
  8
RUNDUNGEN
100
AcDbLine
 62
7
  6
CONTINUOUS
 10
194.4255180887
 20
541.991212453
 11
193.9655467339
 21
542.2726438261
  0
LINE
  5
492
100
AcDbEntity
  8
RUNDUNGEN
100
AcDbLine
 62
7
  6
CONTINUOUS
 10
194.6855841513
 20
541.8302268162
 11
194.4118330646
 21
541.999645602
  0
LINE
  5
493
100
AcDbEntity
  8
0
100
AcDbLine
 62
7
  6
CONTINUOUS
 10
200.438989639
 20
507.5837954899
 11
200.438989639
 21
505.0838618114
  0
LINE
  5
494
100
AcDbEntity
  8
0
100
AcDbLine
 62
7
  6
CONTINUOUS
 10
206.438989639
 20
507.5837954899
 11
206.438989639
 21
506.5837954899
  0
LINE
  5
495
100
AcDbEntity
  8
0
100
AcDbLine
 62
7
  6
CONTINUOUS
 10
215.078989639
 20
507.5837954899
 11
215.078989639
 21
506.5837954899
  0
LINE
  5
496
100
AcDbEntity
  8
0
100
AcDbLine
 62
7
  6
CONTINUOUS
 10
215.798989639
 20
507.5837954899
 11
215.798989639
 21
506.5837954899
  0
LINE
  5
497
100
AcDbEntity
  8
0
100
AcDbLine
 62
7
  6
CONTINUOUS
 10
217.238989639
 20
507.5837954899
 11
217.238989639
 21
506.5837954899
  0
LINE
  5
498
100
AcDbEntity
  8
0
100
AcDbLine
 62
7
  6
CONTINUOUS
 10
219.398989639
 20
507.5837954899
 11
219.398989639
 21
506.5837954899
  0
LINE
  5
499
100
AcDbEntity
  8
0
100
AcDbLine
 62
7
  6
CONTINUOUS
 10
191.6634193232
 20
503.885332386
 11
194.1277038262
 21
504.7822585939
  0
LINE
  5
49A
100
AcDbEntity
  8
0
100
AcDbLine
 62
7
  6
CONTINUOUS
 10
-97.561010361
 20
557.5837954899
 11
-94.061010361
 21
557.5837954899
  0
LINE
  5
49B
100
AcDbEntity
  8
0
100
AcDbLine
 62
7
  6
CONTINUOUS
 10
-43.561010361
 20
557.5837954899
 11
-42.161010361
 21
557.5837954899
  0
LINE
  5
49C
100
AcDbEntity
  8
0
100
AcDbLine
 62
7
  6
CONTINUOUS
 10
173.438989639
 20
564.5837954899
 11
159.438989639
 21
564.5837954899
  0
LINE
  5
49D
100
AcDbEntity
  8
BEZUGSACHSEN
100
AcDbLine
 62
7
  6
CONTINUOUS
 10
153.438989639
 20
565.5837954899
 11
159.438989639
 21
565.5837954899
  0
LINE
  5
49E
100
AcDbEntity
  8
0
100
AcDbLine
 62
7
  6
CONTINUOUS
 10
173.438989639
 20
565.5837954899
 11
179.438989639
 21
565.5837954899
  0
LINE
  5
49F
100
AcDbEntity
  8
0
100
AcDbLine
 62
7
  6
CONTINUOUS
 10
223.718989639
 20
507.5837954899
 11
223.718989639
 21
506.5837954899
  0
LINE
  5
4A0
100
AcDbEntity
  8
0
100
AcDbLine
 62
7
  6
CONTINUOUS
 10
225.878989639
 20
507.5837954899
 11
225.878989639
 21
506.5837954899
  0
LINE
  5
4A1
100
AcDbEntity
  8
0
100
AcDbLine
 62
7
  6
CONTINUOUS
 10
228.038989639
 20
507.5837954899
 11
228.038989639
 21
506.5837954899
  0
LINE
  5
4A2
100
AcDbEntity
  8
0
100
AcDbLine
 62
7
  6
CONTINUOUS
 10
236.858989639
 20
507.5837954899
 11
236.858989639
 21
506.5837954899
  0
LINE
  5
4A3
100
AcDbEntity
  8
0
100
AcDbLine
 62
7
  6
CONTINUOUS
 10
251.438989639
 20
507.5837954899
 11
251.438989639
 21
506.5837954899
  0
LINE
  5
4A4
100
AcDbEntity
  8
0
100
AcDbLine
 62
7
  6
CONTINUOUS
 10
252.688989639
 20
507.5837954899
 11
252.688989639
 21
506.5837954899
  0
LINE
  5
4A5
100
AcDbEntity
  8
0
100
AcDbLine
 62
7
  6
CONTINUOUS
 10
254.3556562063
 20
507.5837954899
 11
254.3556562063
 21
506.5837954899
  0
LINE
  5
4A6
100
AcDbEntity
  8
0
100
AcDbLine
 62
7
  6
CONTINUOUS
 10
254.563989639
 20
507.5837954899
 11
254.563989639
 21
506.5837954899
  0
LINE
  5
4A7
100
AcDbEntity
  8
0
100
AcDbLine
 62
7
  6
CONTINUOUS
 10
254.9806562063
 20
507.5837954899
 11
254.9806562063
 21
506.5837954899
  0
LINE
  5
4A8
100
AcDbEntity
  8
0
100
AcDbLine
 62
7
  6
CONTINUOUS
 10
255.813989639
 20
507.5837954899
 11
255.813989639
 21
506.5837954899
  0
LINE
  5
4A9
100
AcDbEntity
  8
0
100
AcDbLine
 62
7
  6
CONTINUOUS
 10
256.6473227736
 20
507.5837954899
 11
256.6473227736
 21
506.5837954899
  0
LINE
  5
4AA
100
AcDbEntity
  8
0
100
AcDbLine
 62
7
  6
CONTINUOUS
 10
257.688989639
 20
507.5837954899
 11
257.688989639
 21
506.5837954899
  0
LINE
  5
4AB
100
AcDbEntity
  8
0
100
AcDbLine
 62
7
  6
CONTINUOUS
 10
259.563989639
 20
507.5837954899
 11
259.563989639
 21
506.5837954899
  0
LINE
  5
4AC
100
AcDbEntity
  8
0
100
AcDbLine
 62
7
  6
CONTINUOUS
 10
260.6056565043
 20
507.5837954899
 11
260.6056565043
 21
506.5837954899
  0
LINE
  5
4AD
100
AcDbEntity
  8
0
100
AcDbLine
 62
7
  6
CONTINUOUS
 10
261.438989639
 20
507.5837954899
 11
261.438989639
 21
506.5837954899
  0
LINE
  5
4AE
100
AcDbEntity
  8
0
100
AcDbLine
 62
7
  6
CONTINUOUS
 10
262.2723233697
 20
507.5837954899
 11
262.2723233697
 21
506.5837954899
  0
LINE
  5
4AF
100
AcDbEntity
  8
0
100
AcDbLine
 62
7
  6
CONTINUOUS
 10
262.4806559083
 20
507.5837954899
 11
262.4806559083
 21
506.5837954899
  0
LINE
  5
4B0
100
AcDbEntity
  8
0
100
AcDbLine
 62
7
  6
CONTINUOUS
 10
264.1473233697
 20
507.5837954899
 11
264.1473233697
 21
506.5837954899
  0
LINE
  5
4B1
100
AcDbEntity
  8
0
100
AcDbLine
 62
7
  6
CONTINUOUS
 10
271.6473221776
 20
507.5837954899
 11
271.6473221776
 21
506.5837954899
  0
LINE
  5
4B2
100
AcDbEntity
  8
RUNDUNGEN
100
AcDbLine
 62
7
  6
CONTINUOUS
 10
339.5551900338
 20
543.5954420738
 11
339.3734744874
 21
543.4285013727
  0
LINE
  5
4B3
100
AcDbEntity
  8
RUNDUNGEN
100
AcDbLine
 62
7
  6
CONTINUOUS
 10
339.3809081215
 20
543.435208981
 11
339.1861905552
 21
543.2629332285
  0
LINE
  5
4B4
100
AcDbEntity
  8
RUNDUNGEN
100
AcDbLine
 62
7
  6
CONTINUOUS
 10
339.2025445678
 20
543.2771351322
 11
338.9946121711
 21
543.1002076488
  0
LWPOLYLINE
  5
4B5
100
AcDbEntity
  8
RUNDUNGEN
100
AcDbPolyline
 62
7
  6
CONTINUOUS
 90
18
 70
0
 10
339.020271889
 20
543.121618355
 10
338.7989103124
 20
542.9408025542
 10
338.5992500972
 20
542.7852226798
 10
338.3959749159
 20
542.6341402351
 10
338.1894173497
 20
542.4882668916
 10
337.9798659854
 20
542.3483199028
 10
337.7680722785
 20
542.2152642075
 10
337.5539180031
 20
542.0895906482
 10
337.3378571263
 20
541.9722556849
 10
337.1195268612
 20
541.8636936361
 10
336.899326865
 20
541.764963959
 10
336.6766326024
 20
541.6768213575
 10
336.4508336056
 20
541.6001359632
 10
336.2241379676
 20
541.5369854163
 10
335.9963433096
 20
541.4883907619
 10
335.7718011596
 20
541.4559935879
 10
335.553090598
 20
541.4399593379
 10
335.4389896368
 20
541.4378068227
  0
LWPOLYLINE
  5
4B6
100
AcDbEntity
  8
RUNDUNGEN
100
AcDbPolyline
 62
7
  6
CONTINUOUS
 90
16
 70
0
 10
338.8342299119
 20
542.9690611791
 10
338.6445694536
 20
542.8199115223
 10
338.4514772256
 20
542.6746608478
 10
338.2552862046
 20
542.5339410794
 10
338.0563408933
 20
542.3984364304
 10
337.8548891861
 20
542.2687728974
 10
337.6517014581
 20
542.1458535047
 10
337.4464244338
 20
542.0299933703
 10
337.2392149609
 20
541.9219334629
 10
337.0299410293
 20
541.8221951118
 10
336.8191160319
 20
541.7318171636
 10
336.6060202956
 20
541.6514296891
 10
336.3896973767
 20
541.5817042135
 10
336.1728598485
 20
541.5247072553
 10
335.9557543578
 20
541.4813773482
 10
335.7419324271
 20
541.45288047
  0
LINE
  5
4B7
100
AcDbEntity
  8
0
100
AcDbLine
 62
7
  6
CONTINUOUS
 10
273.313989639
 20
507.5837954899
 11
273.313989639
 21
506.5837954899
  0
LINE
  5
4B8
100
AcDbEntity
  8
0
100
AcDbLine
 62
7
  6
CONTINUOUS
 10
276.2306571004
 20
507.5837954899
 11
276.2306571004
 21
506.5837954899
  0
LINE
  5
4B9
100
AcDbEntity
  8
0
100
AcDbLine
 62
7
  6
CONTINUOUS
 10
277.8973221776
 20
507.5837954899
 11
277.8973221776
 21
506.5837954899
  0
LINE
  5
4BA
100
AcDbEntity
  8
0
100
AcDbLine
 62
7
  6
CONTINUOUS
 10
278.1056571004
 20
507.5837954899
 11
278.1056571004
 21
506.5837954899
  0
LINE
  5
4BB
100
AcDbEntity
  8
0
100
AcDbLine
 62
7
  6
CONTINUOUS
 10
278.5223221776
 20
507.5837954899
 11
278.5223221776
 21
506.5837954899
  0
LINE
  5
4BC
100
AcDbEntity
  8
0
100
AcDbLine
 62
7
  6
CONTINUOUS
 10
279.3556571004
 20
507.5837954899
 11
279.3556571004
 21
506.5837954899
  0
LINE
  5
4BD
100
AcDbEntity
  8
0
100
AcDbLine
 62
7
  6
CONTINUOUS
 10
280.188989639
 20
507.5837954899
 11
280.188989639
 21
506.5837954899
  0
LINE
  5
4BE
100
AcDbEntity
  8
0
100
AcDbLine
 62
7
  6
CONTINUOUS
 10
281.2306571004
 20
507.5837954899
 11
281.2306571004
 21
506.5837954899
  0
LINE
  5
4BF
100
AcDbEntity
  8
0
100
AcDbLine
 62
7
  6
CONTINUOUS
 10
283.1056571004
 20
507.5837954899
 11
283.1056571004
 21
506.5837954899
  0
LINE
  5
4C0
100
AcDbEntity
  8
0
100
AcDbLine
 62
7
  6
CONTINUOUS
 10
284.1473221776
 20
507.5837954899
 11
284.1473221776
 21
506.5837954899
  0
LINE
  5
4C1
100
AcDbEntity
  8
0
100
AcDbLine
 62
7
  6
CONTINUOUS
 10
284.9806571004
 20
507.5837954899
 11
284.9806571004
 21
506.5837954899
  0
LINE
  5
4C2
100
AcDbEntity
  8
0
100
AcDbLine
 62
7
  6
CONTINUOUS
 10
285.813989639
 20
507.5837954899
 11
285.813989639
 21
506.5837954899
  0
LINE
  5
4C3
100
AcDbEntity
  8
0
100
AcDbLine
 62
7
  6
CONTINUOUS
 10
286.0223221776
 20
507.5837954899
 11
286.0223221776
 21
506.5837954899
  0
LINE
  5
4C4
100
AcDbEntity
  8
0
100
AcDbLine
 62
7
  6
CONTINUOUS
 10
287.688989639
 20
507.5837954899
 11
287.688989639
 21
506.5837954899
  0
LINE
  5
4C5
100
AcDbEntity
  8
0
100
AcDbLine
 62
7
  6
CONTINUOUS
 10
288.938989639
 20
507.5837954899
 11
288.938989639
 21
506.5837954899
  0
LINE
  5
4C6
100
AcDbEntity
  8
0
100
AcDbLine
 62
7
  6
CONTINUOUS
 10
289.1473221776
 20
507.5837954899
 11
289.1473221776
 21
506.5837954899
  0
LINE
  5
4C7
100
AcDbEntity
  8
0
100
AcDbLine
 62
7
  6
CONTINUOUS
 10
289.563989639
 20
507.5837954899
 11
289.563989639
 21
506.5837954899
  0
LINE
  5
4C8
100
AcDbEntity
  8
0
100
AcDbLine
 62
7
  6
CONTINUOUS
 10
290.188989639
 20
507.5837954899
 11
290.188989639
 21
506.5837954899
  0
LINE
  5
4C9
100
AcDbEntity
  8
0
100
AcDbLine
 62
7
  6
CONTINUOUS
 10
291.0223221776
 20
507.5837954899
 11
291.0223221776
 21
506.5837954899
  0
LINE
  5
4CA
100
AcDbEntity
  8
0
100
AcDbLine
 62
7
  6
CONTINUOUS
 10
291.8556547162
 20
507.5837954899
 11
291.8556547162
 21
506.5837954899
  0
LINE
  5
4CB
100
AcDbEntity
  8
0
100
AcDbLine
 62
7
  6
CONTINUOUS
 10
292.688989639
 20
507.5837954899
 11
292.688989639
 21
506.5837954899
  0
LINE
  5
4CC
100
AcDbEntity
  8
0
100
AcDbLine
 62
7
  6
CONTINUOUS
 10
293.313989639
 20
507.5837954899
 11
293.313989639
 21
506.5837954899
  0
LINE
  5
4CD
100
AcDbEntity
  8
0
100
AcDbLine
 62
7
  6
CONTINUOUS
 10
293.7306547162
 20
507.5837954899
 11
293.7306547162
 21
506.5837954899
  0
LINE
  5
4CE
100
AcDbEntity
  8
0
100
AcDbLine
 62
7
  6
CONTINUOUS
 10
293.938989639
 20
507.5837954899
 11
293.938989639
 21
506.5837954899
  0
LINE
  5
4CF
100
AcDbEntity
  8
0
100
AcDbLine
 62
7
  6
CONTINUOUS
 10
295.188989639
 20
507.5837954899
 11
295.188989639
 21
506.5837954899
  0
LINE
  5
4D0
100
AcDbEntity
  8
0
100
AcDbLine
 62
7
  6
CONTINUOUS
 10
296.8556547162
 20
507.5837954899
 11
296.8556547162
 21
506.5837954899
  0
LINE
  5
4D1
100
AcDbEntity
  8
RUNDUNGEN
100
AcDbLine
 62
7
  6
CONTINUOUS
 10
340.3987261365
 20
544.4616533959
 11
340.2083839671
 21
544.2515060565
  0
LINE
  5
4D2
100
AcDbEntity
  8
RUNDUNGEN
100
AcDbLine
 62
7
  6
CONTINUOUS
 10
340.2393272826
 20
544.2850117861
 11
340.0517152545
 21
544.0854955507
  0
LINE
  5
4D3
100
AcDbEntity
  8
RUNDUNGEN
100
AcDbLine
 62
7
  6
CONTINUOUS
 10
340.0757347982
 20
544.1105625343
 11
339.8906022865
 21
543.9207382231
  0
LINE
  5
4D4
100
AcDbEntity
  8
RUNDUNGEN
100
AcDbLine
 62
7
  6
CONTINUOUS
 10
339.9077276221
 20
543.9379770811
 11
339.7252213354
 21
543.7574713769
  0
LINE
  5
4D5
100
AcDbEntity
  8
RUNDUNGEN
100
AcDbLine
 62
7
  6
CONTINUOUS
 10
339.734395935
 20
543.7663816663
 11
339.5562985433
 21
543.5964809737
  0
LINE
  5
4D6
100
AcDbEntity
  8
0
100
AcDbLine
 62
7
  6
CONTINUOUS
 10
301.8556547162
 20
507.5837954899
 11
301.8556547162
 21
506.5837954899
  0
LINE
  5
4D7
100
AcDbEntity
  8
0
100
AcDbLine
 62
7
  6
CONTINUOUS
 10
302.8973245618
 20
507.5837954899
 11
302.8973245618
 21
506.5837954899
  0
LINE
  5
4D8
100
AcDbEntity
  8
0
100
AcDbLine
 62
7
  6
CONTINUOUS
 10
303.7306547162
 20
507.5837954899
 11
303.7306547162
 21
506.5837954899
  0
LINE
  5
4D9
100
AcDbEntity
  8
0
100
AcDbLine
 62
7
  6
CONTINUOUS
 10
304.3556547162
 20
507.5837954899
 11
304.3556547162
 21
506.5837954899
  0
LINE
  5
4DA
100
AcDbEntity
  8
0
100
AcDbLine
 62
7
  6
CONTINUOUS
 10
304.563989639
 20
507.5837954899
 11
304.563989639
 21
506.5837954899
  0
LINE
  5
4DB
100
AcDbEntity
  8
0
100
AcDbLine
 62
7
  6
CONTINUOUS
 10
304.7723245618
 20
507.5837954899
 11
304.7723245618
 21
506.5837954899
  0
LINE
  5
4DC
100
AcDbEntity
  8
0
100
AcDbLine
 62
7
  6
CONTINUOUS
 10
306.438989639
 20
507.5837954899
 11
306.438989639
 21
506.5837954899
  0
LINE
  5
4DD
100
AcDbEntity
  8
0
100
AcDbLine
 62
7
  6
CONTINUOUS
 10
314.3556547162
 20
507.5837954899
 11
314.3556547162
 21
506.5837954899
  0
LINE
  5
4DE
100
AcDbEntity
  8
0
100
AcDbLine
 62
7
  6
CONTINUOUS
 10
316.0223245618
 20
507.5837954899
 11
316.0223245618
 21
506.5837954899
  0
LINE
  5
4DF
100
AcDbEntity
  8
0
100
AcDbLine
 62
7
  6
CONTINUOUS
 10
317.2723245618
 20
507.5837954899
 11
317.2723245618
 21
506.5837954899
  0
LINE
  5
4E0
100
AcDbEntity
  8
0
100
AcDbLine
 62
7
  6
CONTINUOUS
 10
318.5223245618
 20
507.5837954899
 11
318.5223245618
 21
506.5837954899
  0
LINE
  5
4E1
100
AcDbEntity
  8
0
100
AcDbLine
 62
7
  6
CONTINUOUS
 10
320.188989639
 20
507.5837954899
 11
320.188989639
 21
506.5837954899
  0
LINE
  5
4E2
100
AcDbEntity
  8
0
100
AcDbLine
 62
7
  6
CONTINUOUS
 10
320.3973245618
 20
507.5837954899
 11
320.3973245618
 21
506.5837954899
  0
LINE
  5
4E3
100
AcDbEntity
  8
0
100
AcDbLine
 62
7
  6
CONTINUOUS
 10
320.6056547162
 20
507.5837954899
 11
320.6056547162
 21
506.5837954899
  0
LINE
  5
4E4
100
AcDbEntity
  8
0
100
AcDbLine
 62
7
  6
CONTINUOUS
 10
321.438989639
 20
507.5837954899
 11
321.438989639
 21
506.5837954899
  0
LINE
  5
4E5
100
AcDbEntity
  8
0
100
AcDbLine
 62
7
  6
CONTINUOUS
 10
322.2723245618
 20
507.5837954899
 11
322.2723245618
 21
506.5837954899
  0
LINE
  5
4E6
100
AcDbEntity
  8
0
100
AcDbLine
 62
7
  6
CONTINUOUS
 10
323.7306547162
 20
507.5837954899
 11
323.7306547162
 21
506.5837954899
  0
LINE
  5
4E7
100
AcDbEntity
  8
0
100
AcDbLine
 62
7
  6
CONTINUOUS
 10
324.1473245618
 20
507.5837954899
 11
324.1473245618
 21
506.5837954899
  0
LWPOLYLINE
  5
4E8
100
AcDbEntity
  8
RUNDUNGEN
100
AcDbPolyline
 62
7
  6
CONTINUOUS
 90
13
 70
0
 10
341.4706668518
 20
545.9949727058
 10
341.4685338344
 20
545.9891178319
 10
341.4520280595
 20
545.9483652603
 10
341.4204514437
 20
545.8797908151
 10
341.3718357949
 20
545.7852117513
 10
341.3047092453
 20
545.6664702334
 10
341.2174696001
 20
545.5245277306
 10
341.111367403
 20
545.3642504035
 10
340.9877423721
 20
545.1894844166
 10
340.8504557091
 20
545.006582402
 10
340.7055699857
 20
544.8234799882
 10
340.5540081028
 20
544.6408279402
 10
340.3987261365
 20
544.4616533959
  0
LINE
  5
4E9
100
AcDbEntity
  8
RUNDUNGEN
100
AcDbLine
 62
7
  6
CONTINUOUS
 10
341.438989639
 20
545.9197064008
 11
341.4315997317
 21
545.9031065175
  0
LWPOLYLINE
  5
4EA
100
AcDbEntity
  8
RUNDUNGEN
100
AcDbPolyline
 62
7
  6
CONTINUOUS
 90
3
 70
0
 10
341.4315997317
 20
545.9031065175
 10
341.3906028962
 20
545.8206053232
 10
341.333144721
 20
545.7154966625
  0
LINE
  5
4EB
100
AcDbEntity
  8
RUNDUNGEN
100
AcDbLine
 62
7
  6
CONTINUOUS
 10
341.333144721
 20
545.7154966625
 11
341.2578486683
 21
545.5888410898
  0
LWPOLYLINE
  5
4EC
100
AcDbEntity
  8
RUNDUNGEN
100
AcDbPolyline
 62
7
  6
CONTINUOUS
 90
8
 70
0
 10
341.2578486683
 20
545.5888410898
 10
341.1651065069
 20
545.4440255886
 10
341.0550924355
 20
545.283326827
 10
340.9309262814
 20
545.1125335331
 10
340.7971104425
 20
544.938097792
 10
340.6556230726
 20
544.7623636717
 10
340.5104567806
 20
544.5898125154
 10
340.3612346449
 20
544.4194741127
  0
LINE
  5
4ED
100
AcDbEntity
  8
0
100
AcDbLine
 62
7
  6
CONTINUOUS
 10
325.6056547162
 20
507.5837954899
 11
325.6056547162
 21
506.5837954899
  0
LINE
  5
4EE
100
AcDbEntity
  8
0
100
AcDbLine
 62
7
  6
CONTINUOUS
 10
326.438989639
 20
507.5837954899
 11
326.438989639
 21
506.5837954899
  0
LINE
  5
4EF
100
AcDbEntity
  8
0
100
AcDbLine
 62
7
  6
CONTINUOUS
 10
327.2723245618
 20
507.5837954899
 11
327.2723245618
 21
506.5837954899
  0
LINE
  5
4F0
100
AcDbEntity
  8
0
100
AcDbLine
 62
7
  6
CONTINUOUS
 10
327.4806547162
 20
507.5837954899
 11
327.4806547162
 21
506.5837954899
  0
LINE
  5
4F1
100
AcDbEntity
  8
0
100
AcDbLine
 62
7
  6
CONTINUOUS
 10
327.688989639
 20
507.5837954899
 11
327.688989639
 21
506.5837954899
  0
LINE
  5
4F2
100
AcDbEntity
  8
0
100
AcDbLine
 62
7
  6
CONTINUOUS
 10
332.438989639
 20
507.5837954899
 11
332.438989639
 21
505.0838618114
  0
LINE
  5
4F3
100
AcDbEntity
  8
RUNDUNGEN
100
AcDbLine
 62
7
  6
CONTINUOUS
 10
341.438989639
 20
547.0837239197
 11
341.438989639
 21
545.9200499253
  0
LINE
  5
4F4
100
AcDbEntity
  8
RUNDUNGEN
100
AcDbLine
 62
7
  6
CONTINUOUS
 10
380.438989639
 20
549.5837010202
 11
380.438989639
 21
505.5838899597
  0
LINE
  5
4F5
100
AcDbEntity
  8
RUNDUNGEN
100
AcDbLine
 62
7
  6
CONTINUOUS
 10
540.0147218394
 20
509.1191306157
 11
545.6960407244
 21
514.4018116222
  0
LINE
  5
4F6
100
AcDbEntity
  8
RUNDUNGEN
100
AcDbLine
 62
7
  6
CONTINUOUS
 10
545.6960407244
 20
540.7657793577
 11
540.0147218394
 21
546.0484603641
  0
LINE
  5
4F7
100
AcDbEntity
  8
RUNDUNGEN
100
AcDbLine
 62
7
  6
CONTINUOUS
 10
487.438989639
 20
543.5837954899
 11
487.438989639
 21
511.5837954899
  0
LINE
  5
4F8
100
AcDbEntity
  8
BEZUGSACHSEN
100
AcDbLine
 62
7
  6
CONTINUOUS
 10
734.9380214117
 20
312.5340917516
 11
734.9380971192
 21
312.5341475522
  0
LINE
  5
4F9
100
AcDbEntity
  8
BEZUGSACHSEN
100
AcDbLine
 62
7
  6
CONTINUOUS
 10
692.3927704104
 20
270.1146853383
 11
692.3927704104
 21
306.6269209002
  0
LINE
  5
4FA
100
AcDbEntity
  8
RUNDUNGEN
100
AcDbLine
 62
7
  6
CONTINUOUS
 10
693.3927704104
 20
358.123496082
 11
693.3927704104
 21
353.8734973318
  0
LINE
  5
4FB
100
AcDbEntity
  8
RUNDUNGEN
100
AcDbLine
 62
7
  6
CONTINUOUS
 10
693.3927704104
 20
313.623496082
 11
693.3927704104
 21
332.3734948322
  0
LINE
  5
4FC
100
AcDbEntity
  8
BEZUGSACHSEN
100
AcDbLine
 62
7
  6
CONTINUOUS
 10
693.3927704104
 20
332.373496082
 11
693.3927704104
 21
372.623496082
  0
LINE
  5
4FD
100
AcDbEntity
  8
BEZUGSACHSEN
100
AcDbLine
 62
7
  6
CONTINUOUS
 10
696.3927704104
 20
39.123496082
 11
696.3927704104
 21
236.1323028792
  0
LINE
  5
4FE
100
AcDbEntity
  8
BEZUGSACHSEN
100
AcDbLine
 62
7
  6
CONTINUOUS
 10
696.1296078587
 20
240.0972152191
 11
692.6559341457
 21
266.149768067
  0
LINE
  5
4FF
100
AcDbEntity
  8
RUNDUNGEN
100
AcDbLine
 62
7
  6
CONTINUOUS
 10
692.7548603593
 20
265.4078214648
 11
692.6559341457
 21
266.149768067
  0
LINE
  5
500
100
AcDbEntity
  8
BEZUGSACHSEN
100
AcDbLine
 62
7
  6
CONTINUOUS
 10
703.8927704104
 20
335.373496082
 11
703.8927704104
 21
350.873496082
  0
LINE
  5
501
100
AcDbEntity
  8
BEZUGSACHSEN
100
AcDbLine
 62
7
  6
CONTINUOUS
 10
720.8927704104
 20
335.373496082
 11
720.8927704104
 21
350.873496082
  0
LINE
  5
502
100
AcDbEntity
  8
RUNDUNGEN
100
AcDbLine
 62
7
  6
CONTINUOUS
 10
732.1296066257
 20
266.1497676974
 11
732.0306804605
 21
265.4078214583
  0
LINE
  5
503
100
AcDbEntity
  8
BEZUGSACHSEN
100
AcDbLine
 62
7
  6
CONTINUOUS
 10
732.1296066257
 20
266.1497676974
 11
728.6559330238
 21
240.0972156826
  0
LINE
  5
504
100
AcDbEntity
  8
BEZUGSACHSEN
100
AcDbLine
 62
7
  6
CONTINUOUS
 10
731.3928318117
 20
357.8143427239
 11
731.3912665685
 21
358.0132933515
  0
LINE
  5
505
100
AcDbEntity
  8
RUNDUNGEN
100
AcDbLine
 62
7
  6
CONTINUOUS
 10
731.3929152569
 20
327.597686426
 11
731.3909282898
 21
328.0776725275
  0
LINE
  5
506
100
AcDbEntity
  8
BEZUGSACHSEN
100
AcDbLine
 62
7
  6
CONTINUOUS
 10
728.3927704104
 20
236.1323030041
 11
728.3927704104
 21
39.123496082
  0
LINE
  5
507
100
AcDbEntity
  8
RUNDUNGEN
100
AcDbLine
 62
7
  6
CONTINUOUS
 10
731.3927704104
 20
328.4248212406
 11
731.3927704104
 21
327.6607443325
  0
LINE
  5
508
100
AcDbEntity
  8
RUNDUNGEN
100
AcDbLine
 62
7
  6
CONTINUOUS
 10
731.3927704104
 20
313.623496082
 11
731.3927704104
 21
327.5979516599
  0
LINE
  5
509
100
AcDbEntity
  8
RUNDUNGEN
100
AcDbLine
 62
7
  6
CONTINUOUS
 10
731.3927704104
 20
353.873496082
 11
731.3927704104
 21
357.623496082
  0
LINE
  5
50A
100
AcDbEntity
  8
BEZUGSACHSEN
100
AcDbLine
 62
7
  6
CONTINUOUS
 10
731.3927704104
 20
332.373496082
 11
731.392728685
 21
357.8145343595
  0
LINE
  5
50B
100
AcDbEntity
  8
BEZUGSACHSEN
100
AcDbLine
 62
7
  6
CONTINUOUS
 10
732.3927704104
 20
306.6269209002
 11
732.3927704104
 21
270.1146853383
  0
LINE
  5
50C
100
AcDbEntity
  8
BEZUGSACHSEN
100
AcDbLine
 62
7
  6
CONTINUOUS
 10
731.3927704104
 20
357.8221709233
 11
731.3927704104
 21
372.623496082
  0
LINE
  5
50D
100
AcDbEntity
  8
RUNDUNGEN
100
AcDbLine
 62
7
  6
CONTINUOUS
 10
731.392728685
 20
328.4324578045
 11
731.3927704104
 21
332.3734968073
  0
LINE
  5
50E
100
AcDbEntity
  8
BEZUGSACHSEN
100
AcDbLine
 62
7
  6
CONTINUOUS
 10
731.391501842
 20
358.343854084
 11
731.3926578332
 21
358.5372381845
  0
LINE
  5
50F
100
AcDbEntity
  8
RUNDUNGEN
100
AcDbLine
 62
7
  6
CONTINUOUS
 10
731.3912665685
 20
328.2336988125
 11
731.3928318117
 21
328.4326494401
  0
LINE
  5
510
100
AcDbEntity
  8
BEZUGSACHSEN
100
AcDbLine
 62
7
  6
CONTINUOUS
 10
689.8474437206
 20
312.5341475381
 11
689.8475194095
 21
312.5340917512
  0
LINE
  5
511
100
AcDbEntity
  8
RUNDUNGEN
100
AcDbLine
 62
7
  6
CONTINUOUS
 10
696.3927704104
 20
310.623496082
 11
728.3927704104
 21
310.623496082
  0
LINE
  5
512
100
AcDbEntity
  8
RUNDUNGEN
100
AcDbLine
 62
7
  6
CONTINUOUS
 10
728.3927707511
 20
335.373496082
 11
696.3927702657
 21
335.373496082
  0
LINE
  5
513
100
AcDbEntity
  8
BEZUGSACHSEN
100
AcDbLine
 62
7
  6
CONTINUOUS
 10
728.3927707511
 20
350.873496082
 11
696.3927702657
 21
350.873496082
  0
LINE
  5
514
100
AcDbEntity
  8
BEZUGSACHSEN
100
AcDbLine
 62
7
  6
CONTINUOUS
 10
696.3927704104
 20
375.623496082
 11
728.3927704104
 21
375.623496082
  0
LINE
  5
515
100
AcDbEntity
  8
0
100
AcDbLine
 62
7
  6
CONTINUOUS
 10
1003.9179122553
 20
365.3575387026
 11
1003.7595789597
 21
365.0341344859
  0
LINE
  5
516
100
AcDbEntity
  8
BEZUGSACHSEN
100
AcDbLine
 62
7
  6
CONTINUOUS
 10
981.4947286905
 20
374.623496082
 11
976.3400281522
 21
365.6952928517
  0
LINE
  5
517
100
AcDbEntity
  8
BEZUGSACHSEN
100
AcDbLine
 62
7
  6
CONTINUOUS
 10
976.0720789597
 20
364.6952928517
 11
976.0720789597
 21
360.7569160566
  0
LINE
  5
518
100
AcDbEntity
  8
0
100
AcDbLine
 62
7
  6
CONTINUOUS
 10
976.0720789597
 20
325.4900761074
 11
976.0720789597
 21
321.5516993123
  0
LINE
  5
519
100
AcDbEntity
  8
BEZUGSACHSEN
100
AcDbLine
 62
7
  6
CONTINUOUS
 10
987.3220789597
 20
335.373496082
 11
987.3220789597
 21
350.873496082
  0
LINE
  5
51A
100
AcDbEntity
  8
0
100
AcDbLine
 62
7
  6
CONTINUOUS
 10
1003.7595789597
 20
365.0341344859
 11
1003.6804122553
 21
364.6298789884
  0
LINE
  5
51B
100
AcDbEntity
  8
0
100
AcDbLine
 62
7
  6
CONTINUOUS
 10
1006.6887457774
 20
362.689453518
 11
1006.7679121421
 21
363.0937088455
  0
LINE
  5
51C
100
AcDbEntity
  8
0
100
AcDbLine
 62
7
  6
CONTINUOUS
 10
1012.7054125951
 20
365.0341344859
 11
1012.6262453244
 21
364.6298789884
  0
LINE
  5
51D
100
AcDbEntity
  8
0
100
AcDbLine
 62
7
  6
CONTINUOUS
 10
1015.6345789597
 20
362.689453518
 11
1015.7137453244
 21
363.0937088455
  0
LINE
  5
51E
100
AcDbEntity
  8
0
100
AcDbLine
 62
7
  6
CONTINUOUS
 10
1019.1179116891
 20
363.0128577913
 11
1019.1970789597
 21
363.4171130623
  0
LINE
  5
51F
100
AcDbEntity
  8
0
100
AcDbLine
 62
7
  6
CONTINUOUS
 10
1004.1554122553
 20
364.6298789884
 11
1004.2345789597
 21
364.9532832052
  0
LINE
  5
520
100
AcDbEntity
  8
0
100
AcDbLine
 62
7
  6
CONTINUOUS
 10
1013.1012453244
 20
364.6298789884
 11
1013.1804125951
 21
364.9532832052
  0
LINE
  5
521
100
AcDbEntity
  8
0
100
AcDbLine
 62
7
  6
CONTINUOUS
 10
1018.7220789597
 20
363.4171130623
 11
1018.6429116891
 21
363.0937088455
  0
LINE
  5
522
100
AcDbEntity
  8
0
100
AcDbLine
 62
7
  6
CONTINUOUS
 10
1006.2929123686
 20
363.0937088455
 11
1006.2137455509
 21
362.851155683
  0
LINE
  5
523
100
AcDbEntity
  8
0
100
AcDbLine
 62
7
  6
CONTINUOUS
 10
1015.2387453244
 20
363.0937088455
 11
1015.1595789597
 21
362.851155683
  0
LINE
  5
524
100
AcDbEntity
  8
0
100
AcDbLine
 62
7
  6
CONTINUOUS
 10
1022.2845789597
 20
364.7915810968
 11
1022.2054116891
 21
364.5490279342
  0
LINE
  5
525
100
AcDbEntity
  8
0
100
AcDbLine
 62
7
  6
CONTINUOUS
 10
1022.6804116891
 20
364.46817688
 11
1022.7595789597
 21
364.7107300426
  0
LINE
  5
526
100
AcDbEntity
  8
0
100
AcDbLine
 62
7
  6
CONTINUOUS
 10
1012.8637453244
 20
365.3575387026
 11
1012.7054125951
 21
365.0341344859
  0
LINE
  5
527
100
AcDbEntity
  8
0
100
AcDbLine
 62
7
  6
CONTINUOUS
 10
1018.9595789597
 20
362.689453518
 11
1019.1179116891
 21
363.0128577913
  0
LINE
  5
528
100
AcDbEntity
  8
0
100
AcDbLine
 62
7
  6
CONTINUOUS
 10
1031.0720789597
 20
364.872432151
 11
1030.9137462304
 21
364.5490279342
  0
LINE
  5
529
100
AcDbEntity
  8
0
100
AcDbLine
 62
7
  6
CONTINUOUS
 10
1031.1512462304
 20
363.0128577913
 11
1031.0720789597
 21
362.851155683
  0
LINE
  5
52A
100
AcDbEntity
  8
0
100
AcDbLine
 62
7
  6
CONTINUOUS
 10
1004.2345789597
 20
364.9532832052
 11
1004.3929122553
 21
365.1958365943
  0
LINE
  5
52B
100
AcDbEntity
  8
0
100
AcDbLine
 62
7
  6
CONTINUOUS
 10
1013.1804125951
 20
364.9532832052
 11
1013.3387453244
 21
365.1958365943
  0
LINE
  5
52C
100
AcDbEntity
  8
0
100
AcDbLine
 62
7
  6
CONTINUOUS
 10
1018.6429116891
 20
363.0937088455
 11
1018.4845789597
 21
362.851155683
  0
LINE
  5
52D
100
AcDbEntity
  8
0
100
AcDbLine
 62
7
  6
CONTINUOUS
 10
1029.1720789597
 20
365.0341344859
 11
1029.3304116891
 21
365.2766876485
  0
LINE
  5
52E
100
AcDbEntity
  8
0
100
AcDbLine
 62
7
  6
CONTINUOUS
 10
1031.2304116891
 20
364.3064747717
 11
1031.3887462304
 21
364.5490279342
  0
LINE
  5
52F
100
AcDbEntity
  8
0
100
AcDbLine
 62
7
  6
CONTINUOUS
 10
1022.4429116891
 20
364.1447726633
 11
1022.6804116891
 21
364.46817688
  0
LINE
  5
530
100
AcDbEntity
  8
0
100
AcDbLine
 62
7
  6
CONTINUOUS
 10
1004.2345789597
 20
365.6809429194
 11
1003.9179122553
 21
365.3575387026
  0
LINE
  5
531
100
AcDbEntity
  8
0
100
AcDbLine
 62
7
  6
CONTINUOUS
 10
1006.3720789597
 20
362.3660492729
 11
1006.6887457774
 21
362.689453518
  0
LINE
  5
532
100
AcDbEntity
  8
0
100
AcDbLine
 62
7
  6
CONTINUOUS
 10
1002.5720789597
 20
365.923496082
 11
1002.5720789597
 21
362.123496082
  0
LINE
  5
533
100
AcDbEntity
  8
0
100
AcDbLine
 62
7
  6
CONTINUOUS
 10
1003.0470789597
 20
362.123496082
 11
1003.0470789597
 21
365.923496082
  0
LINE
  5
534
100
AcDbEntity
  8
0
100
AcDbLine
 62
7
  6
CONTINUOUS
 10
1003.6804122553
 20
364.6298789884
 11
1003.6804122553
 21
363.4171130623
  0
LINE
  5
535
100
AcDbEntity
  8
0
100
AcDbLine
 62
7
  6
CONTINUOUS
 10
1004.1554122553
 20
363.4171130623
 11
1004.1554122553
 21
364.6298789884
  0
LINE
  5
536
100
AcDbEntity
  8
BEZUGSACHSEN
100
AcDbLine
 62
7
  6
CONTINUOUS
 10
1004.3220789597
 20
335.373496082
 11
1004.3220789597
 21
350.873496082
  0
LINE
  5
537
100
AcDbEntity
  8
0
100
AcDbLine
 62
7
  6
CONTINUOUS
 10
1007.4012457774
 20
365.923496082
 11
1007.4012457774
 21
362.123496082
  0
LINE
  5
538
100
AcDbEntity
  8
0
100
AcDbLine
 62
7
  6
CONTINUOUS
 10
1007.8762457774
 20
362.6086024638
 11
1007.8762457774
 21
363.9022195007
  0
LINE
  5
539
100
AcDbEntity
  8
0
100
AcDbLine
 62
7
  6
CONTINUOUS
 10
1007.8762457774
 20
364.3873258258
 11
1007.8762457774
 21
365.4383897568
  0
LINE
  5
53A
100
AcDbEntity
  8
0
100
AcDbLine
 62
7
  6
CONTINUOUS
 10
1009.9345789597
 20
363.9022195007
 11
1009.9345789597
 21
364.3873258258
  0
LINE
  5
53B
100
AcDbEntity
  8
0
100
AcDbLine
 62
7
  6
CONTINUOUS
 10
1010.2512453244
 20
362.123496082
 11
1010.2512453244
 21
362.6086024638
  0
LINE
  5
53C
100
AcDbEntity
  8
0
100
AcDbLine
 62
7
  6
CONTINUOUS
 10
1010.2512453244
 20
365.4383897568
 11
1010.2512453244
 21
365.923496082
  0
LINE
  5
53D
100
AcDbEntity
  8
0
100
AcDbLine
 62
7
  6
CONTINUOUS
 10
1010.8845789597
 20
363.9022195007
 11
1010.8845789597
 21
363.4979641165
  0
LINE
  5
53E
100
AcDbEntity
  8
0
100
AcDbLine
 62
7
  6
CONTINUOUS
 10
1011.9929125951
 20
363.4979641165
 11
1011.9929125951
 21
363.9022195007
  0
LINE
  5
53F
100
AcDbEntity
  8
0
100
AcDbLine
 62
7
  6
CONTINUOUS
 10
1012.6262453244
 20
364.6298789884
 11
1012.6262453244
 21
363.4171130623
  0
LINE
  5
540
100
AcDbEntity
  8
0
100
AcDbLine
 62
7
  6
CONTINUOUS
 10
1013.1012453244
 20
363.4171130623
 11
1013.1012453244
 21
364.6298789884
  0
LINE
  5
541
100
AcDbEntity
  8
0
100
AcDbLine
 62
7
  6
CONTINUOUS
 10
1016.3470789597
 20
365.923496082
 11
1016.3470789597
 21
363.4171130623
  0
LINE
  5
542
100
AcDbEntity
  8
0
100
AcDbLine
 62
7
  6
CONTINUOUS
 10
1016.8220789597
 20
363.4171130623
 11
1016.8220789597
 21
365.923496082
  0
LINE
  5
543
100
AcDbEntity
  8
0
100
AcDbLine
 62
7
  6
CONTINUOUS
 10
1018.7220789597
 20
365.923496082
 11
1018.7220789597
 21
363.4171130623
  0
LINE
  5
544
100
AcDbEntity
  8
0
100
AcDbLine
 62
7
  6
CONTINUOUS
 10
1019.1970789597
 20
363.4171130623
 11
1019.1970789597
 21
365.923496082
  0
LINE
  5
545
100
AcDbEntity
  8
0
100
AcDbLine
 62
7
  6
CONTINUOUS
 10
1019.8304116891
 20
365.923496082
 11
1019.8304116891
 21
362.123496082
  0
LINE
  5
546
100
AcDbEntity
  8
0
100
AcDbLine
 62
7
  6
CONTINUOUS
 10
1020.3054116891
 20
362.123496082
 11
1020.3054116891
 21
363.8213684465
  0
LINE
  5
547
100
AcDbEntity
  8
0
100
AcDbLine
 62
7
  6
CONTINUOUS
 10
1020.3054116891
 20
364.3064747717
 11
1020.3054116891
 21
365.519240811
  0
LINE
  5
548
100
AcDbEntity
  8
0
100
AcDbLine
 62
7
  6
CONTINUOUS
 10
1022.2845789597
 20
365.0341344859
 11
1022.2845789597
 21
364.7915810968
  0
LINE
  5
549
100
AcDbEntity
  8
0
100
AcDbLine
 62
7
  6
CONTINUOUS
 10
1022.7595789597
 20
364.7107300426
 11
1022.7595789597
 21
365.0341344859
  0
LINE
  5
54A
100
AcDbEntity
  8
0
100
AcDbLine
 62
7
  6
CONTINUOUS
 10
1023.4720789597
 20
365.923496082
 11
1023.4720789597
 21
365.519240811
  0
LINE
  5
54B
100
AcDbEntity
  8
0
100
AcDbLine
 62
7
  6
CONTINUOUS
 10
1024.7387462304
 20
365.519240811
 11
1024.7387462304
 21
362.123496082
  0
LINE
  5
54C
100
AcDbEntity
  8
0
100
AcDbLine
 62
7
  6
CONTINUOUS
 10
1028.8554116891
 20
365.3575387026
 11
1028.7762462304
 21
365.0341344859
  0
LINE
  5
54D
100
AcDbEntity
  8
0
100
AcDbLine
 62
7
  6
CONTINUOUS
 10
1031.3887462304
 20
364.5490279342
 11
1031.4679116891
 21
364.872432151
  0
LINE
  5
54E
100
AcDbEntity
  8
0
100
AcDbLine
 62
7
  6
CONTINUOUS
 10
1031.4679116891
 20
362.7703045721
 11
1031.5470789597
 21
363.0128577913
  0
LINE
  5
54F
100
AcDbEntity
  8
0
100
AcDbLine
 62
7
  6
CONTINUOUS
 10
1031.3095789597
 20
362.5277514096
 11
1031.4679116891
 21
362.7703045721
  0
LINE
  5
550
100
AcDbEntity
  8
0
100
AcDbLine
 62
7
  6
CONTINUOUS
 10
1027.5887462304
 20
365.923496082
 11
1027.1137462304
 21
365.3575387026
  0
LINE
  5
551
100
AcDbEntity
  8
0
100
AcDbLine
 62
7
  6
CONTINUOUS
 10
1027.1137462304
 20
364.7107300426
 11
1027.5887462304
 21
365.2766876485
  0
LINE
  5
552
100
AcDbEntity
  8
0
100
AcDbLine
 62
7
  6
CONTINUOUS
 10
1013.1804125951
 20
365.6809429194
 11
1012.8637453244
 21
365.3575387026
  0
LINE
  5
553
100
AcDbEntity
  8
0
100
AcDbLine
 62
7
  6
CONTINUOUS
 10
1015.3179125951
 20
362.3660492729
 11
1015.6345789597
 21
362.689453518
  0
LINE
  5
554
100
AcDbEntity
  8
0
100
AcDbLine
 62
7
  6
CONTINUOUS
 10
1018.6429116891
 20
362.3660492729
 11
1018.9595789597
 21
362.689453518
  0
LINE
  5
555
100
AcDbEntity
  8
0
100
AcDbLine
 62
7
  6
CONTINUOUS
 10
1022.2054116891
 20
364.5490279342
 11
1022.0470789597
 21
364.3873258258
  0
LINE
  5
556
100
AcDbEntity
  8
0
100
AcDbLine
 62
7
  6
CONTINUOUS
 10
1029.1720789597
 20
365.6809429194
 11
1028.8554116891
 21
365.3575387026
  0
LINE
  5
557
100
AcDbEntity
  8
0
100
AcDbLine
 62
7
  6
CONTINUOUS
 10
1030.9137462304
 20
364.5490279342
 11
1030.7554116891
 21
364.3873258258
  0
LINE
  5
558
100
AcDbEntity
  8
0
100
AcDbLine
 62
7
  6
CONTINUOUS
 10
1031.0720789597
 20
362.851155683
 11
1030.9137462304
 21
362.689453518
  0
LINE
  5
559
100
AcDbEntity
  8
0
100
AcDbLine
 62
7
  6
CONTINUOUS
 10
1025.2137462304
 20
362.123496082
 11
1025.2137462304
 21
365.519240811
  0
LINE
  5
55A
100
AcDbEntity
  8
0
100
AcDbLine
 62
7
  6
CONTINUOUS
 10
1026.4804116891
 20
365.519240811
 11
1026.4804116891
 21
365.923496082
  0
LINE
  5
55B
100
AcDbEntity
  8
0
100
AcDbLine
 62
7
  6
CONTINUOUS
 10
1027.1137462304
 20
365.3575387026
 11
1027.1137462304
 21
364.7107300426
  0
LINE
  5
55C
100
AcDbEntity
  8
0
100
AcDbLine
 62
7
  6
CONTINUOUS
 10
1027.5887462304
 20
365.2766876485
 11
1027.5887462304
 21
362.123496082
  0
LINE
  5
55D
100
AcDbEntity
  8
0
100
AcDbLine
 62
7
  6
CONTINUOUS
 10
1028.0637462304
 20
362.123496082
 11
1028.0637462304
 21
365.923496082
  0
LINE
  5
55E
100
AcDbEntity
  8
0
100
AcDbLine
 62
7
  6
CONTINUOUS
 10
1029.9637462304
 20
364.2256237175
 11
1029.9637462304
 21
363.9022195007
  0
LINE
  5
55F
100
AcDbEntity
  8
0
100
AcDbLine
 62
7
  6
CONTINUOUS
 10
1031.0720789597
 20
365.0341344859
 11
1031.0720789597
 21
364.872432151
  0
LINE
  5
560
100
AcDbEntity
  8
0
100
AcDbLine
 62
7
  6
CONTINUOUS
 10
1031.1512462304
 20
363.3362620081
 11
1031.1512462304
 21
363.0128577913
  0
LINE
  5
561
100
AcDbEntity
  8
0
100
AcDbLine
 62
7
  6
CONTINUOUS
 10
1031.4679116891
 20
364.872432151
 11
1031.4679116891
 21
365.0341344859
  0
LINE
  5
562
100
AcDbEntity
  8
0
100
AcDbLine
 62
7
  6
CONTINUOUS
 10
1031.5470789597
 20
363.0128577913
 11
1031.5470789597
 21
363.3362620081
  0
LINE
  5
563
100
AcDbEntity
  8
RUNDUNGEN
100
AcDbLine
 62
7
  6
CONTINUOUS
 10
1040.0720789597
 20
315.623496082
 11
1040.0720789597
 21
370.623496082
  0
LINE
  5
564
100
AcDbEntity
  8
0
100
AcDbLine
 62
7
  6
CONTINUOUS
 10
1030.9137462304
 20
364.0639216091
 11
1031.2304116891
 21
364.3064747717
  0
LINE
  5
565
100
AcDbEntity
  8
0
100
AcDbLine
 62
7
  6
CONTINUOUS
 10
1004.3929122553
 20
365.1958365943
 11
1004.6304123686
 21
365.3575387026
  0
LINE
  5
566
100
AcDbEntity
  8
0
100
AcDbLine
 62
7
  6
CONTINUOUS
 10
1006.2137455509
 20
362.851155683
 11
1005.9762455509
 21
362.689453518
  0
LINE
  5
567
100
AcDbEntity
  8
0
100
AcDbLine
 62
7
  6
CONTINUOUS
 10
1013.3387453244
 20
365.1958365943
 11
1013.5762453244
 21
365.3575387026
  0
LINE
  5
568
100
AcDbEntity
  8
0
100
AcDbLine
 62
7
  6
CONTINUOUS
 10
1015.1595789597
 20
362.851155683
 11
1014.9220789597
 21
362.689453518
  0
LINE
  5
569
100
AcDbEntity
  8
0
100
AcDbLine
 62
7
  6
CONTINUOUS
 10
1018.4845789597
 20
362.851155683
 11
1018.2470789597
 21
362.689453518
  0
LINE
  5
56A
100
AcDbEntity
  8
0
100
AcDbLine
 62
7
  6
CONTINUOUS
 10
1029.3304116891
 20
365.2766876485
 11
1029.5679116891
 21
365.4383897568
  0
LINE
  5
56B
100
AcDbEntity
  8
0
100
AcDbLine
 62
7
  6
CONTINUOUS
 10
1031.0720789597
 20
362.3660492729
 11
1031.3095789597
 21
362.5277514096
  0
LINE
  5
56C
100
AcDbEntity
  8
0
100
AcDbLine
 62
7
  6
CONTINUOUS
 10
1004.5512455509
 20
365.8426450278
 11
1004.2345789597
 21
365.6809429194
  0
LINE
  5
56D
100
AcDbEntity
  8
0
100
AcDbLine
 62
7
  6
CONTINUOUS
 10
1004.2345789597
 20
363.0937088455
 11
1004.1554122553
 21
363.4171130623
  0
LINE
  5
56E
100
AcDbEntity
  8
0
100
AcDbLine
 62
7
  6
CONTINUOUS
 10
1003.6804122553
 20
363.4171130623
 11
1003.7595789597
 21
363.0128577913
  0
LINE
  5
56F
100
AcDbEntity
  8
0
100
AcDbLine
 62
7
  6
CONTINUOUS
 10
1006.7679121421
 20
364.9532832052
 11
1006.6887457774
 21
365.3575387026
  0
LINE
  5
570
100
AcDbEntity
  8
0
100
AcDbLine
 62
7
  6
CONTINUOUS
 10
1012.6262453244
 20
363.4171130623
 11
1012.7054125951
 21
363.0128577913
  0
LINE
  5
571
100
AcDbEntity
  8
0
100
AcDbLine
 62
7
  6
CONTINUOUS
 10
1015.7137453244
 20
364.9532832052
 11
1015.6345789597
 21
365.3575387026
  0
LINE
  5
572
100
AcDbEntity
  8
0
100
AcDbLine
 62
7
  6
CONTINUOUS
 10
1006.0554123686
 20
362.2043471433
 11
1006.3720789597
 21
362.3660492729
  0
LINE
  5
573
100
AcDbEntity
  8
0
100
AcDbLine
 62
7
  6
CONTINUOUS
 10
1013.4970789597
 20
365.8426450278
 11
1013.1804125951
 21
365.6809429194
  0
LINE
  5
574
100
AcDbEntity
  8
0
100
AcDbLine
 62
7
  6
CONTINUOUS
 10
1015.0012453244
 20
362.2043471433
 11
1015.3179125951
 21
362.3660492729
  0
LINE
  5
575
100
AcDbEntity
  8
0
100
AcDbLine
 62
7
  6
CONTINUOUS
 10
1018.3262462304
 20
362.2043471433
 11
1018.6429116891
 21
362.3660492729
  0
LINE
  5
576
100
AcDbEntity
  8
0
100
AcDbLine
 62
7
  6
CONTINUOUS
 10
1022.1262462304
 20
363.9830705549
 11
1022.4429116891
 21
364.1447726633
  0
LINE
  5
577
100
AcDbEntity
  8
0
100
AcDbLine
 62
7
  6
CONTINUOUS
 10
1029.4887462304
 20
365.8426450278
 11
1029.1720789597
 21
365.6809429194
  0
LINE
  5
578
100
AcDbEntity
  8
0
100
AcDbLine
 62
7
  6
CONTINUOUS
 10
1030.9137462304
 20
362.689453518
 11
1030.7554116891
 21
362.6086024638
  0
LINE
  5
579
100
AcDbEntity
  8
0
100
AcDbLine
 62
7
  6
CONTINUOUS
 10
1030.7554116891
 20
362.2043471433
 11
1031.0720789597
 21
362.3660492729
  0
LINE
  5
57A
100
AcDbEntity
  8
0
100
AcDbLine
 62
7
  6
CONTINUOUS
 10
1006.2137455509
 20
365.1958365943
 11
1006.2929123686
 21
364.9532832052
  0
LINE
  5
57B
100
AcDbEntity
  8
0
100
AcDbLine
 62
7
  6
CONTINUOUS
 10
1013.1804125951
 20
363.0937088455
 11
1013.1012453244
 21
363.4171130623
  0
LINE
  5
57C
100
AcDbEntity
  8
0
100
AcDbLine
 62
7
  6
CONTINUOUS
 10
1016.9012453244
 20
363.0937088455
 11
1016.8220789597
 21
363.4171130623
  0
LINE
  5
57D
100
AcDbEntity
  8
0
100
AcDbLine
 62
7
  6
CONTINUOUS
 10
1031.5470789597
 20
363.3362620081
 11
1031.4679116891
 21
363.6596663381
  0
LINE
  5
57E
100
AcDbEntity
  8
0
100
AcDbLine
 62
7
  6
CONTINUOUS
 10
1031.4679116891
 20
365.0341344859
 11
1031.3887462304
 21
365.3575387026
  0
LINE
  5
57F
100
AcDbEntity
  8
0
100
AcDbLine
 62
7
  6
CONTINUOUS
 10
1016.3470789597
 20
363.4171130623
 11
1016.4262453244
 21
363.0128577913
  0
LINE
  5
580
100
AcDbEntity
  8
0
100
AcDbLine
 62
7
  6
CONTINUOUS
 10
1022.0470789597
 20
364.3873258258
 11
1021.8095789597
 21
364.3064747717
  0
LINE
  5
581
100
AcDbEntity
  8
0
100
AcDbLine
 62
7
  6
CONTINUOUS
 10
1030.7554116891
 20
364.3873258258
 11
1030.2804116891
 21
364.2256237175
  0
LINE
  5
582
100
AcDbEntity
  8
0
100
AcDbLine
 62
7
  6
CONTINUOUS
 10
976.3400281522
 20
320.5516993123
 11
981.4947286905
 21
311.623496082
  0
LINE
  5
583
100
AcDbEntity
  8
0
100
AcDbLine
 62
7
  6
CONTINUOUS
 10
1022.8387462304
 20
362.123496082
 11
1022.1262462304
 21
363.9830705549
  0
LINE
  5
584
100
AcDbEntity
  8
0
100
AcDbLine
 62
7
  6
CONTINUOUS
 10
1021.6512462304
 20
363.8213684465
 11
1022.2845789597
 21
362.123496082
  0
LINE
  5
585
100
AcDbEntity
  8
0
100
AcDbLine
 62
7
  6
CONTINUOUS
 10
1015.1595789597
 20
365.1958365943
 11
1015.2387453244
 21
364.9532832052
  0
LINE
  5
586
100
AcDbEntity
  8
0
100
AcDbLine
 62
7
  6
CONTINUOUS
 10
1022.2054116891
 20
365.2766876485
 11
1022.2845789597
 21
365.0341344859
  0
LINE
  5
587
100
AcDbEntity
  8
0
100
AcDbLine
 62
7
  6
CONTINUOUS
 10
1022.7595789597
 20
365.0341344859
 11
1022.6804116891
 21
365.2766876485
  0
LINE
  5
588
100
AcDbEntity
  8
0
100
AcDbLine
 62
7
  6
CONTINUOUS
 10
1028.6970789597
 20
363.0128577913
 11
1028.7762462304
 21
362.7703045721
  0
LINE
  5
589
100
AcDbEntity
  8
0
100
AcDbLine
 62
7
  6
CONTINUOUS
 10
1003.7595789597
 20
363.0128577913
 11
1003.9179122553
 21
362.689453518
  0
LINE
  5
58A
100
AcDbEntity
  8
0
100
AcDbLine
 62
7
  6
CONTINUOUS
 10
1012.7054125951
 20
363.0128577913
 11
1012.8637453244
 21
362.689453518
  0
LINE
  5
58B
100
AcDbEntity
  8
0
100
AcDbLine
 62
7
  6
CONTINUOUS
 10
1016.4262453244
 20
363.0128577913
 11
1016.5845789597
 21
362.689453518
  0
LINE
  5
58C
100
AcDbEntity
  8
0
100
AcDbLine
 62
7
  6
CONTINUOUS
 10
1029.1720789597
 20
362.851155683
 11
1029.0929116891
 21
363.0128577913
  0
LINE
  5
58D
100
AcDbEntity
  8
0
100
AcDbLine
 62
7
  6
CONTINUOUS
 10
1030.9929116891
 20
363.6596663381
 11
1031.1512462304
 21
363.3362620081
  0
LINE
  5
58E
100
AcDbEntity
  8
RUNDUNGEN
100
AcDbLine
 62
7
  6
CONTINUOUS
 10
1147.0720789597
 20
365.123496082
 11
1147.0720789597
 21
321.123496082
  0
LINE
  5
58F
100
AcDbEntity
  8
0
100
AcDbLine
 62
7
  6
CONTINUOUS
 10
1200.0304138825
 20
346.4213684763
 11
1199.8220789597
 21
345.783070531
  0
LINE
  5
590
100
AcDbEntity
  8
0
100
AcDbLine
 62
7
  6
CONTINUOUS
 10
1200.8637440369
 20
345.783070531
 11
1201.0720789597
 21
346.2086023952
  0
LINE
  5
591
100
AcDbEntity
  8
0
100
AcDbLine
 62
7
  6
CONTINUOUS
 10
1201.0720789597
 20
340.8894537951
 11
1201.4887440369
 21
341.7405175234
  0
LINE
  5
592
100
AcDbEntity
  8
0
100
AcDbLine
 62
7
  6
CONTINUOUS
 10
1200.4470789597
 20
347.0596662726
 11
1200.0304138825
 21
346.4213684763
  0
LINE
  5
593
100
AcDbEntity
  8
0
100
AcDbLine
 62
7
  6
CONTINUOUS
 10
1200.6554138825
 20
342.3788153197
 11
1200.2387440369
 21
341.7405175234
  0
LINE
  5
594
100
AcDbEntity
  8
0
100
AcDbLine
 62
7
  6
CONTINUOUS
 10
1206.0720789597
 20
340.4639213349
 11
1205.6554138825
 21
339.8256235387
  0
LINE
  5
595
100
AcDbEntity
  8
0
100
AcDbLine
 62
7
  6
CONTINUOUS
 10
1211.4887440369
 20
341.3149856593
 11
1210.2387440369
 21
339.8256235387
  0
LINE
  5
596
100
AcDbEntity
  8
0
100
AcDbLine
 62
7
  6
CONTINUOUS
 10
1210.2387440369
 20
338.123496082
 11
1211.4887440369
 21
339.6128576066
  0
LINE
  5
597
100
AcDbEntity
  8
0
100
AcDbLine
 62
7
  6
CONTINUOUS
 10
1201.0720789597
 20
346.2086023952
 11
1201.4887440369
 21
346.6341344084
  0
LINE
  5
598
100
AcDbEntity
  8
0
100
AcDbLine
 62
7
  6
CONTINUOUS
 10
1201.4887440369
 20
341.7405175234
 11
1201.9054138825
 21
342.1660493876
  0
LINE
  5
599
100
AcDbEntity
  8
0
100
AcDbLine
 62
7
  6
CONTINUOUS
 10
1206.0720789597
 20
338.7617938782
 11
1206.9054138825
 21
339.6128576066
  0
LINE
  5
59A
100
AcDbEntity
  8
0
100
AcDbLine
 62
7
  6
CONTINUOUS
 10
1224.4054138825
 20
341.7405175234
 11
1224.8220789597
 21
342.1660493876
  0
LINE
  5
59B
100
AcDbEntity
  8
0
100
AcDbLine
 62
7
  6
CONTINUOUS
 10
1201.4887440369
 20
343.0171131159
 11
1200.6554138825
 21
342.3788153197
  0
LINE
  5
59C
100
AcDbEntity
  8
0
100
AcDbLine
 62
7
  6
CONTINUOUS
 10
1201.0720789597
 20
347.4851982112
 11
1200.4470789597
 21
347.0596662726
  0
LINE
  5
59D
100
AcDbEntity
  8
0
100
AcDbLine
 62
7
  6
CONTINUOUS
 10
1205.6554138825
 20
339.8256235387
 11
1205.0304138825
 21
339.4000916745
  0
LINE
  5
59E
100
AcDbEntity
  8
0
100
AcDbLine
 62
7
  6
CONTINUOUS
 10
1201.9054138825
 20
347.9107301313
 11
1201.0720789597
 21
347.4851982112
  0
LINE
  5
59F
100
AcDbEntity
  8
0
100
AcDbLine
 62
7
  6
CONTINUOUS
 10
1201.4887440369
 20
346.6341344084
 11
1201.9054138825
 21
346.8469003405
  0
LINE
  5
5A0
100
AcDbEntity
  8
0
100
AcDbLine
 62
7
  6
CONTINUOUS
 10
1004.3929122553
 20
362.851155683
 11
1004.2345789597
 21
363.0937088455
  0
LINE
  5
5A1
100
AcDbEntity
  8
0
100
AcDbLine
 62
7
  6
CONTINUOUS
 10
1013.3387453244
 20
362.851155683
 11
1013.1804125951
 21
363.0937088455
  0
LINE
  5
5A2
100
AcDbEntity
  8
0
100
AcDbLine
 62
7
  6
CONTINUOUS
 10
1017.0595789597
 20
362.851155683
 11
1016.9012453244
 21
363.0937088455
  0
LINE
  5
5A3
100
AcDbEntity
  8
0
100
AcDbLine
 62
7
  6
CONTINUOUS
 10
1200.2387440369
 20
341.7405175234
 11
1200.0304138825
 21
340.8894537951
  0
LINE
  5
5A4
100
AcDbEntity
  8
0
100
AcDbLine
 62
7
  6
CONTINUOUS
 10
1206.9054138825
 20
339.6128576066
 11
1207.1137440369
 21
340.4639213349
  0
LINE
  5
5A5
100
AcDbEntity
  8
0
100
AcDbLine
 62
7
  6
CONTINUOUS
 10
1223.1554138825
 20
341.9532834555
 11
1222.9470789597
 21
341.3149856593
  0
LINE
  5
5A6
100
AcDbEntity
  8
0
100
AcDbLine
 62
7
  6
CONTINUOUS
 10
1224.1970789597
 20
341.1022197272
 11
1224.4054138825
 21
341.7405175234
  0
LINE
  5
5A7
100
AcDbEntity
  8
0
100
AcDbLine
 62
7
  6
CONTINUOUS
 10
1232.9470789597
 20
346.6341344084
 11
1232.5304138825
 21
345.783070531
  0
LINE
  5
5A8
100
AcDbEntity
  8
0
100
AcDbLine
 62
7
  6
CONTINUOUS
 10
1233.7804138825
 20
345.570304599
 11
1234.1970789597
 21
346.2086023952
  0
LINE
  5
5A9
100
AcDbEntity
  8
0
100
AcDbLine
 62
7
  6
CONTINUOUS
 10
1248.1554114983
 20
340.676687863
 11
1247.7387464211
 21
340.0383894707
  0
LINE
  5
5AA
100
AcDbEntity
  8
0
100
AcDbLine
 62
7
  6
CONTINUOUS
 10
1223.7804138825
 20
342.8043471839
 11
1223.1554138825
 21
341.9532834555
  0
LINE
  5
5AB
100
AcDbEntity
  8
0
100
AcDbLine
 62
7
  6
CONTINUOUS
 10
1233.7804138825
 20
347.4851982112
 11
1232.9470789597
 21
346.6341344084
  0
LINE
  5
5AC
100
AcDbEntity
  8
0
100
AcDbLine
 62
7
  6
CONTINUOUS
 10
1242.5304114983
 20
347.4851982112
 11
1241.6970789597
 21
346.6341344084
  0
LINE
  5
5AD
100
AcDbEntity
  8
0
100
AcDbLine
 62
7
  6
CONTINUOUS
 10
1248.1554114983
 20
338.7617938782
 11
1248.9887464211
 21
339.6128576066
  0
LINE
  5
5AE
100
AcDbEntity
  8
0
100
AcDbLine
 62
7
  6
CONTINUOUS
 10
1266.0720789597
 20
347.4851982112
 11
1265.238745229
 21
346.6341344084
  0
LINE
  5
5AF
100
AcDbEntity
  8
0
100
AcDbLine
 62
7
  6
CONTINUOUS
 10
1234.1970789597
 20
346.2086023952
 11
1234.8220789597
 21
346.6341344084
  0
LINE
  5
5B0
100
AcDbEntity
  8
0
100
AcDbLine
 62
7
  6
CONTINUOUS
 10
1242.9470789597
 20
346.2086023952
 11
1243.5720789597
 21
346.6341344084
  0
LINE
  5
5B1
100
AcDbEntity
  8
0
100
AcDbLine
 62
7
  6
CONTINUOUS
 10
1247.7387464211
 20
340.0383894707
 11
1247.1137464211
 21
339.6128576066
  0
LINE
  5
5B2
100
AcDbEntity
  8
0
100
AcDbLine
 62
7
  6
CONTINUOUS
 10
1266.4887458251
 20
346.2086023952
 11
1267.1137458251
 21
346.6341344084
  0
LINE
  5
5B3
100
AcDbEntity
  8
0
100
AcDbLine
 62
7
  6
CONTINUOUS
 10
1205.2387440369
 20
338.3362620141
 11
1206.0720789597
 21
338.7617938782
  0
LINE
  5
5B4
100
AcDbEntity
  8
0
100
AcDbLine
 62
7
  6
CONTINUOUS
 10
1224.6137440369
 20
343.229879048
 11
1223.7804138825
 21
342.8043471839
  0
LINE
  5
5B5
100
AcDbEntity
  8
0
100
AcDbLine
 62
7
  6
CONTINUOUS
 10
1234.6137440369
 20
347.9107301313
 11
1233.7804138825
 21
347.4851982112
  0
LINE
  5
5B6
100
AcDbEntity
  8
0
100
AcDbLine
 62
7
  6
CONTINUOUS
 10
1243.3637464211
 20
347.9107301313
 11
1242.5304114983
 21
347.4851982112
  0
LINE
  5
5B7
100
AcDbEntity
  8
0
100
AcDbLine
 62
7
  6
CONTINUOUS
 10
1247.3220789597
 20
338.3362620141
 11
1248.1554114983
 21
338.7617938782
  0
LINE
  5
5B8
100
AcDbEntity
  8
0
100
AcDbLine
 62
7
  6
CONTINUOUS
 10
1266.9054120944
 20
347.9107301313
 11
1266.0720789597
 21
347.4851982112
  0
LINE
  5
5B9
100
AcDbEntity
  8
0
100
AcDbLine
 62
7
  6
CONTINUOUS
 10
1201.9054138825
 20
342.1660493876
 11
1203.1554138825
 21
342.5915812518
  0
LINE
  5
5BA
100
AcDbEntity
  8
0
100
AcDbLine
 62
7
  6
CONTINUOUS
 10
1224.8220789597
 20
342.1660493876
 11
1225.4470789597
 21
342.3788153197
  0
LINE
  5
5BB
100
AcDbEntity
  8
0
100
AcDbLine
 62
7
  6
CONTINUOUS
 10
1365.0720789597
 20
23.123496082
 11
1357.0720789597
 21
23.123496082
  0
LINE
  5
5BC
100
AcDbEntity
  8
0
100
AcDbLine
 62
7
  6
CONTINUOUS
 10
1022.6804116891
 20
365.2766876485
 11
1022.4429116891
 21
365.6000918652
  0
LINE
  5
5BD
100
AcDbEntity
  8
0
100
AcDbLine
 62
7
  6
CONTINUOUS
 10
1028.7762462304
 20
362.7703045721
 11
1028.9345789597
 21
362.5277514096
  0
LINE
  5
5BE
100
AcDbEntity
  8
0
100
AcDbLine
 62
7
  6
CONTINUOUS
 10
1031.4679116891
 20
363.6596663381
 11
1031.3095789597
 21
363.9022195007
  0
LINE
  5
5BF
100
AcDbEntity
  8
0
100
AcDbLine
 62
7
  6
CONTINUOUS
 10
1030.9137462304
 20
365.2766876485
 11
1031.0720789597
 21
365.0341344859
  0
LINE
  5
5C0
100
AcDbEntity
  8
0
100
AcDbLine
 62
7
  6
CONTINUOUS
 10
1195.0720789597
 20
332.8157320179
 11
1195.0720789597
 21
353.431260146
  0
LINE
  5
5C1
100
AcDbEntity
  8
0
100
AcDbLine
 62
7
  6
CONTINUOUS
 10
1199.8220789597
 20
345.783070531
 11
1199.8220789597
 21
344.9320068027
  0
LINE
  5
5C2
100
AcDbEntity
  8
0
100
AcDbLine
 62
7
  6
CONTINUOUS
 10
1200.0304138825
 20
340.8894537951
 11
1200.0304138825
 21
340.4639213349
  0
LINE
  5
5C3
100
AcDbEntity
  8
0
100
AcDbLine
 62
7
  6
CONTINUOUS
 10
1200.8637440369
 20
344.9320068027
 11
1200.8637440369
 21
345.783070531
  0
LINE
  5
5C4
100
AcDbEntity
  8
0
100
AcDbLine
 62
7
  6
CONTINUOUS
 10
1201.0720789597
 20
340.4639213349
 11
1201.0720789597
 21
340.8894537951
  0
LINE
  5
5C5
100
AcDbEntity
  8
0
100
AcDbLine
 62
7
  6
CONTINUOUS
 10
1203.9887440369
 20
342.5915812518
 11
1203.9887440369
 21
343.4426449801
  0
LINE
  5
5C6
100
AcDbEntity
  8
0
100
AcDbLine
 62
7
  6
CONTINUOUS
 10
1208.9887440369
 20
348.123496082
 11
1208.9887440369
 21
338.123496082
  0
LINE
  5
5C7
100
AcDbEntity
  8
0
100
AcDbLine
 62
7
  6
CONTINUOUS
 10
1210.2387440369
 20
339.8256235387
 11
1210.2387440369
 21
348.123496082
  0
LINE
  5
5C8
100
AcDbEntity
  8
0
100
AcDbLine
 62
7
  6
CONTINUOUS
 10
1211.4887440369
 20
339.6128576066
 11
1211.4887440369
 21
341.3149856593
  0
LINE
  5
5C9
100
AcDbEntity
  8
0
100
AcDbLine
 62
7
  6
CONTINUOUS
 10
1213.1554138825
 20
339.1873257424
 11
1213.1554138825
 21
338.123496082
  0
LINE
  5
5CA
100
AcDbEntity
  8
0
100
AcDbLine
 62
7
  6
CONTINUOUS
 10
1216.4887440369
 20
348.123496082
 11
1216.4887440369
 21
339.1873257424
  0
LINE
  5
5CB
100
AcDbEntity
  8
0
100
AcDbLine
 62
7
  6
CONTINUOUS
 10
1217.7387440369
 20
339.1873257424
 11
1217.7387440369
 21
348.123496082
  0
LINE
  5
5CC
100
AcDbEntity
  8
0
100
AcDbLine
 62
7
  6
CONTINUOUS
 10
1221.0720789597
 20
338.123496082
 11
1221.0720789597
 21
339.1873257424
  0
LINE
  5
5CD
100
AcDbEntity
  8
0
100
AcDbLine
 62
7
  6
CONTINUOUS
 10
1222.9470789597
 20
341.3149856593
 11
1222.9470789597
 21
340.4639213349
  0
LINE
  5
5CE
100
AcDbEntity
  8
0
100
AcDbLine
 62
7
  6
CONTINUOUS
 10
1232.5304138825
 20
345.783070531
 11
1232.3220789597
 21
344.7192408706
  0
LINE
  5
5CF
100
AcDbEntity
  8
0
100
AcDbLine
 62
7
  6
CONTINUOUS
 10
1241.6970789597
 20
346.6341344084
 11
1241.4887464211
 21
345.570304599
  0
LINE
  5
5D0
100
AcDbEntity
  8
0
100
AcDbLine
 62
7
  6
CONTINUOUS
 10
1233.5720789597
 20
344.7192408706
 11
1233.7804138825
 21
345.570304599
  0
LINE
  5
5D1
100
AcDbEntity
  8
0
100
AcDbLine
 62
7
  6
CONTINUOUS
 10
1248.3637464211
 20
341.5277515914
 11
1248.1554114983
 21
340.676687863
  0
LINE
  5
5D2
100
AcDbEntity
  8
0
100
AcDbLine
 62
7
  6
CONTINUOUS
 10
1242.7387464211
 20
345.570304599
 11
1242.9470789597
 21
346.2086023952
  0
LINE
  5
5D3
100
AcDbEntity
  8
0
100
AcDbLine
 62
7
  6
CONTINUOUS
 10
1248.9887464211
 20
339.6128576066
 11
1249.4054114983
 21
340.4639213349
  0
LINE
  5
5D4
100
AcDbEntity
  8
0
100
AcDbLine
 62
7
  6
CONTINUOUS
 10
1272.5304123924
 20
339.6128576066
 11
1272.9470789597
 21
340.4639213349
  0
LINE
  5
5D5
100
AcDbEntity
  8
0
100
AcDbLine
 62
7
  6
CONTINUOUS
 10
1271.6970789597
 20
340.676687863
 11
1271.2804123924
 21
340.0383894707
  0
LINE
  5
5D6
100
AcDbEntity
  8
0
100
AcDbLine
 62
7
  6
CONTINUOUS
 10
1271.6970789597
 20
338.7617938782
 11
1272.5304123924
 21
339.6128576066
  0
LINE
  5
5D7
100
AcDbEntity
  8
0
100
AcDbLine
 62
7
  6
CONTINUOUS
 10
1271.2804123924
 20
340.0383894707
 11
1270.6554120944
 21
339.6128576066
  0
LINE
  5
5D8
100
AcDbEntity
  8
0
100
AcDbLine
 62
7
  6
CONTINUOUS
 10
1270.8637458251
 20
338.3362620141
 11
1271.6970789597
 21
338.7617938782
  0
LINE
  5
5D9
100
AcDbEntity
  8
0
100
AcDbLine
 62
7
  6
CONTINUOUS
 10
1335.8476492755
 20
366.8219591859
 11
1333.3833647725
 21
365.9250329781
  0
LINE
  5
5DA
100
AcDbEntity
  8
0
100
AcDbLine
 62
7
  6
CONTINUOUS
 10
1003.9179122553
 20
362.689453518
 11
1004.2345789597
 21
362.3660492729
  0
LINE
  5
5DB
100
AcDbEntity
  8
0
100
AcDbLine
 62
7
  6
CONTINUOUS
 10
1006.6887457774
 20
365.3575387026
 11
1006.3720789597
 21
365.6809429194
  0
LINE
  5
5DC
100
AcDbEntity
  8
0
100
AcDbLine
 62
7
  6
CONTINUOUS
 10
1224.1970789597
 20
340.4639213349
 11
1224.1970789597
 21
341.1022197272
  0
LINE
  5
5DD
100
AcDbEntity
  8
0
100
AcDbLine
 62
7
  6
CONTINUOUS
 10
1229.4054138825
 20
348.123496082
 11
1229.4054138825
 21
343.6554109122
  0
LINE
  5
5DE
100
AcDbEntity
  8
0
100
AcDbLine
 62
7
  6
CONTINUOUS
 10
1229.4054138825
 20
342.3788153197
 11
1229.4054138825
 21
339.1873257424
  0
LINE
  5
5DF
100
AcDbEntity
  8
0
100
AcDbLine
 62
7
  6
CONTINUOUS
 10
1230.6554138825
 20
338.123496082
 11
1230.6554138825
 21
348.123496082
  0
LINE
  5
5E0
100
AcDbEntity
  8
0
100
AcDbLine
 62
7
  6
CONTINUOUS
 10
1232.3220789597
 20
344.7192408706
 11
1232.3220789597
 21
338.123496082
  0
LINE
  5
5E1
100
AcDbEntity
  8
0
100
AcDbLine
 62
7
  6
CONTINUOUS
 10
1233.5720789597
 20
338.123496082
 11
1233.5720789597
 21
344.7192408706
  0
LINE
  5
5E2
100
AcDbEntity
  8
0
100
AcDbLine
 62
7
  6
CONTINUOUS
 10
1238.5720789597
 20
344.7192408706
 11
1238.5720789597
 21
338.123496082
  0
LINE
  5
5E3
100
AcDbEntity
  8
0
100
AcDbLine
 62
7
  6
CONTINUOUS
 10
1239.8220789597
 20
338.123496082
 11
1239.8220789597
 21
344.7192408706
  0
LINE
  5
5E4
100
AcDbEntity
  8
0
100
AcDbLine
 62
7
  6
CONTINUOUS
 10
1248.3637464211
 20
344.7192408706
 11
1248.3637464211
 21
341.5277515914
  0
LINE
  5
5E5
100
AcDbEntity
  8
0
100
AcDbLine
 62
7
  6
CONTINUOUS
 10
1249.6137464211
 20
341.5277515914
 11
1249.6137464211
 21
344.7192408706
  0
LINE
  5
5E6
100
AcDbEntity
  8
0
100
AcDbLine
 62
7
  6
CONTINUOUS
 10
1251.2804114983
 20
344.5064749385
 11
1251.2804114983
 21
343.4426449801
  0
LINE
  5
5E7
100
AcDbEntity
  8
0
100
AcDbLine
 62
7
  6
CONTINUOUS
 10
1249.4054114983
 20
340.4639213349
 11
1249.6137464211
 21
341.5277515914
  0
LINE
  5
5E8
100
AcDbEntity
  8
0
100
AcDbLine
 62
7
  6
CONTINUOUS
 10
1265.238745229
 20
346.6341344084
 11
1265.0304126904
 21
345.570304599
  0
LINE
  5
5E9
100
AcDbEntity
  8
0
100
AcDbLine
 62
7
  6
CONTINUOUS
 10
1272.9470789597
 20
340.4639213349
 11
1273.1554123924
 21
341.5277515914
  0
LINE
  5
5EA
100
AcDbEntity
  8
0
100
AcDbLine
 62
7
  6
CONTINUOUS
 10
1271.9054123924
 20
341.5277515914
 11
1271.6970789597
 21
340.676687863
  0
LINE
  5
5EB
100
AcDbEntity
  8
0
100
AcDbLine
 62
7
  6
CONTINUOUS
 10
1266.2804120944
 20
345.570304599
 11
1266.4887458251
 21
346.2086023952
  0
LINE
  5
5EC
100
AcDbEntity
  8
0
100
AcDbLine
 62
7
  6
CONTINUOUS
 10
1012.8637453244
 20
362.689453518
 11
1013.1804125951
 21
362.3660492729
  0
LINE
  5
5ED
100
AcDbEntity
  8
0
100
AcDbLine
 62
7
  6
CONTINUOUS
 10
1016.5845789597
 20
362.689453518
 11
1016.9012453244
 21
362.3660492729
  0
LINE
  5
5EE
100
AcDbEntity
  8
0
100
AcDbLine
 62
7
  6
CONTINUOUS
 10
1015.6345789597
 20
365.3575387026
 11
1015.3179125951
 21
365.6809429194
  0
LINE
  5
5EF
100
AcDbEntity
  8
0
100
AcDbLine
 62
7
  6
CONTINUOUS
 10
1022.0470789597
 20
365.4383897568
 11
1022.2054116891
 21
365.2766876485
  0
LINE
  5
5F0
100
AcDbEntity
  8
0
100
AcDbLine
 62
7
  6
CONTINUOUS
 10
1029.3304116891
 20
362.689453518
 11
1029.1720789597
 21
362.851155683
  0
LINE
  5
5F1
100
AcDbEntity
  8
0
100
AcDbLine
 62
7
  6
CONTINUOUS
 10
1031.3887462304
 20
365.3575387026
 11
1031.0720789597
 21
365.6809429194
  0
LINE
  5
5F2
100
AcDbEntity
  8
0
100
AcDbLine
 62
7
  6
CONTINUOUS
 10
1200.0304138825
 20
340.4639213349
 11
1200.2387440369
 21
339.6128576066
  0
LINE
  5
5F3
100
AcDbEntity
  8
0
100
AcDbLine
 62
7
  6
CONTINUOUS
 10
1199.8220789597
 20
344.9320068027
 11
1200.0304138825
 21
344.0809427764
  0
LINE
  5
5F4
100
AcDbEntity
  8
0
100
AcDbLine
 62
7
  6
CONTINUOUS
 10
1254.1970789597
 20
343.4426449801
 11
1254.1970789597
 21
344.5064749385
  0
LINE
  5
5F5
100
AcDbEntity
  8
0
100
AcDbLine
 62
7
  6
CONTINUOUS
 10
1255.8637464211
 20
348.123496082
 11
1255.8637464211
 21
346.8469003405
  0
LINE
  5
5F6
100
AcDbEntity
  8
0
100
AcDbLine
 62
7
  6
CONTINUOUS
 10
1255.8637464211
 20
339.4000916745
 11
1255.8637464211
 21
338.123496082
  0
LINE
  5
5F7
100
AcDbEntity
  8
0
100
AcDbLine
 62
7
  6
CONTINUOUS
 10
1256.6970789597
 20
343.4426449801
 11
1256.6970789597
 21
342.1660493876
  0
LINE
  5
5F8
100
AcDbEntity
  8
0
100
AcDbLine
 62
7
  6
CONTINUOUS
 10
1262.113745229
 20
346.8469003405
 11
1262.113745229
 21
343.4426449801
  0
LINE
  5
5F9
100
AcDbEntity
  8
0
100
AcDbLine
 62
7
  6
CONTINUOUS
 10
1262.113745229
 20
342.1660493876
 11
1262.113745229
 21
339.4000916745
  0
LINE
  5
5FA
100
AcDbEntity
  8
0
100
AcDbLine
 62
7
  6
CONTINUOUS
 10
1263.363745229
 20
338.123496082
 11
1263.363745229
 21
348.123496082
  0
LINE
  5
5FB
100
AcDbEntity
  8
0
100
AcDbLine
 62
7
  6
CONTINUOUS
 10
1271.9054123924
 20
344.7192408706
 11
1271.9054123924
 21
341.5277515914
  0
LINE
  5
5FC
100
AcDbEntity
  8
0
100
AcDbLine
 62
7
  6
CONTINUOUS
 10
1273.1554123924
 20
341.5277515914
 11
1273.1554123924
 21
344.7192408706
  0
LINE
  5
5FD
100
AcDbEntity
  8
0
100
AcDbLine
 62
7
  6
CONTINUOUS
 10
1274.8220789597
 20
348.123496082
 11
1274.8220789597
 21
338.123496082
  0
LINE
  5
5FE
100
AcDbEntity
  8
0
100
AcDbLine
 62
7
  6
CONTINUOUS
 10
1276.0720789597
 20
338.123496082
 11
1276.0720789597
 21
348.123496082
  0
LINE
  5
5FF
100
AcDbEntity
  8
0
100
AcDbLine
 62
7
  6
CONTINUOUS
 10
1388.7607931469
 20
320.3219591859
 11
1386.2965086439
 21
319.4250329781
  0
LINE
  5
600
100
AcDbEntity
  8
0
100
AcDbLine
 62
7
  6
CONTINUOUS
 10
1207.3220789597
 20
345.783070531
 11
1207.1137440369
 21
346.4213684763
  0
LINE
  5
601
100
AcDbEntity
  8
0
100
AcDbLine
 62
7
  6
CONTINUOUS
 10
1222.9470789597
 20
340.4639213349
 11
1223.1554138825
 21
339.8256235387
  0
LINE
  5
602
100
AcDbEntity
  8
0
100
AcDbLine
 62
7
  6
CONTINUOUS
 10
1224.4054138825
 20
339.8256235387
 11
1224.1970789597
 21
340.4639213349
  0
LINE
  5
603
100
AcDbEntity
  8
0
100
AcDbLine
 62
7
  6
CONTINUOUS
 10
1238.3637464211
 20
345.570304599
 11
1238.5720789597
 21
344.7192408706
  0
LINE
  5
604
100
AcDbEntity
  8
0
100
AcDbLine
 62
7
  6
CONTINUOUS
 10
1239.8220789597
 20
344.7192408706
 11
1239.6137464211
 21
345.783070531
  0
LINE
  5
605
100
AcDbEntity
  8
0
100
AcDbLine
 62
7
  6
CONTINUOUS
 10
1241.4887464211
 20
340.676687863
 11
1241.6970789597
 21
339.6128576066
  0
LINE
  5
606
100
AcDbEntity
  8
0
100
AcDbLine
 62
7
  6
CONTINUOUS
 10
1249.6137464211
 20
344.7192408706
 11
1249.4054114983
 21
345.783070531
  0
LINE
  5
607
100
AcDbEntity
  8
0
100
AcDbLine
 62
7
  6
CONTINUOUS
 10
1290.6520789597
 20
344.563496082
 11
1290.6520789597
 21
341.683496082
  0
LINE
  5
608
100
AcDbEntity
  8
0
100
AcDbLine
 62
7
  6
CONTINUOUS
 10
1292.8120789597
 20
341.773496082
 11
1292.8120789597
 21
344.473496082
  0
LINE
  5
609
100
AcDbEntity
  8
0
100
AcDbLine
 62
7
  6
CONTINUOUS
 10
1297.3120789597
 20
346.723496082
 11
1297.3120789597
 21
340.603496082
  0
LINE
  5
60A
100
AcDbEntity
  8
0
100
AcDbLine
 62
7
  6
CONTINUOUS
 10
1299.4720789597
 20
337.723496082
 11
1299.4720789597
 21
339.523496082
  0
LINE
  5
60B
100
AcDbEntity
  8
0
100
AcDbLine
 62
7
  6
CONTINUOUS
 10
1299.4720789597
 20
340.603496082
 11
1299.4720789597
 21
348.523496082
  0
LINE
  5
60C
100
AcDbEntity
  8
0
100
AcDbLine
 62
7
  6
CONTINUOUS
 10
1301.6320789597
 20
344.203496082
 11
1301.6320789597
 21
337.723496082
  0
LINE
  5
60D
100
AcDbEntity
  8
0
100
AcDbLine
 62
7
  6
CONTINUOUS
 10
1303.7920789597
 20
337.723496082
 11
1303.7920789597
 21
344.203496082
  0
LINE
  5
60E
100
AcDbEntity
  8
0
100
AcDbLine
 62
7
  6
CONTINUOUS
 10
1308.1120789597
 20
344.203496082
 11
1308.1120789597
 21
337.723496082
  0
LINE
  5
60F
100
AcDbEntity
  8
0
100
AcDbLine
 62
7
  6
CONTINUOUS
 10
1004.6304123686
 20
362.689453518
 11
1004.3929122553
 21
362.851155683
  0
LINE
  5
610
100
AcDbEntity
  8
0
100
AcDbLine
 62
7
  6
CONTINUOUS
 10
1005.9762455509
 20
365.3575387026
 11
1006.2137455509
 21
365.1958365943
  0
LINE
  5
611
100
AcDbEntity
  8
0
100
AcDbLine
 62
7
  6
CONTINUOUS
 10
1013.5762453244
 20
362.689453518
 11
1013.3387453244
 21
362.851155683
  0
LINE
  5
612
100
AcDbEntity
  8
0
100
AcDbLine
 62
7
  6
CONTINUOUS
 10
1017.2970789597
 20
362.689453518
 11
1017.0595789597
 21
362.851155683
  0
LINE
  5
613
100
AcDbEntity
  8
0
100
AcDbLine
 62
7
  6
CONTINUOUS
 10
1014.9220789597
 20
365.3575387026
 11
1015.1595789597
 21
365.1958365943
  0
LINE
  5
614
100
AcDbEntity
  8
0
100
AcDbLine
 62
7
  6
CONTINUOUS
 10
1028.9345789597
 20
362.5277514096
 11
1029.1720789597
 21
362.3660492729
  0
LINE
  5
615
100
AcDbEntity
  8
0
100
AcDbLine
 62
7
  6
CONTINUOUS
 10
1022.4429116891
 20
365.6000918652
 11
1022.1262462304
 21
365.8426450278
  0
LINE
  5
616
100
AcDbEntity
  8
0
100
AcDbLine
 62
7
  6
CONTINUOUS
 10
1201.4887440369
 20
339.8256235387
 11
1201.0720789597
 21
340.4639213349
  0
LINE
  5
617
100
AcDbEntity
  8
0
100
AcDbLine
 62
7
  6
CONTINUOUS
 10
1200.0304138825
 20
344.0809427764
 11
1200.4470789597
 21
343.4426449801
  0
LINE
  5
618
100
AcDbEntity
  8
0
100
AcDbLine
 62
7
  6
CONTINUOUS
 10
1201.2804138825
 20
344.0809427764
 11
1200.8637440369
 21
344.9320068027
  0
LINE
  5
619
100
AcDbEntity
  8
0
100
AcDbLine
 62
7
  6
CONTINUOUS
 10
1206.0720789597
 20
346.2086023952
 11
1206.2804138825
 21
345.783070531
  0
LINE
  5
61A
100
AcDbEntity
  8
0
100
AcDbLine
 62
7
  6
CONTINUOUS
 10
1222.7387440369
 20
348.123496082
 11
1224.6137440369
 21
343.229879048
  0
LINE
  5
61B
100
AcDbEntity
  8
0
100
AcDbLine
 62
7
  6
CONTINUOUS
 10
1225.8637440369
 20
343.6554109122
 11
1224.1970789597
 21
348.123496082
  0
LINE
  5
61C
100
AcDbEntity
  8
0
100
AcDbLine
 62
7
  6
CONTINUOUS
 10
1242.9470789597
 20
340.0383894707
 11
1242.7387464211
 21
340.676687863
  0
LINE
  5
61D
100
AcDbEntity
  8
0
100
AcDbLine
 62
7
  6
CONTINUOUS
 10
1248.1554114983
 20
345.570304599
 11
1248.3637464211
 21
344.7192408706
  0
LINE
  5
61E
100
AcDbEntity
  8
0
100
AcDbLine
 62
7
  6
CONTINUOUS
 10
1265.0304126904
 20
340.676687863
 11
1265.238745229
 21
339.6128576066
  0
LINE
  5
61F
100
AcDbEntity
  8
0
100
AcDbLine
 62
7
  6
CONTINUOUS
 10
1273.1554123924
 20
344.7192408706
 11
1272.9470789597
 21
345.783070531
  0
LINE
  5
620
100
AcDbEntity
  8
0
100
AcDbLine
 62
7
  6
CONTINUOUS
 10
1310.2720789597
 20
337.723496082
 11
1310.2720789597
 21
344.203496082
  0
LINE
  5
621
100
AcDbEntity
  8
0
100
AcDbLine
 62
7
  6
CONTINUOUS
 10
1319.2720789597
 20
348.523496082
 11
1319.2720789597
 21
344.023496082
  0
LINE
  5
622
100
AcDbEntity
  8
0
100
AcDbLine
 62
7
  6
CONTINUOUS
 10
1319.2720789597
 20
342.223496082
 11
1319.2720789597
 21
340.603496082
  0
LINE
  5
623
100
AcDbEntity
  8
0
100
AcDbLine
 62
7
  6
CONTINUOUS
 10
1321.0720789597
 20
337.723496082
 11
1321.0720789597
 21
339.523496082
  0
LINE
  5
624
100
AcDbEntity
  8
0
100
AcDbLine
 62
7
  6
CONTINUOUS
 10
1321.0720789597
 20
340.603496082
 11
1321.0720789597
 21
348.523496082
  0
LINE
  5
625
100
AcDbEntity
  8
0
100
AcDbLine
 62
7
  6
CONTINUOUS
 10
1327.0720789597
 20
332.8157320179
 11
1327.0720789597
 21
353.431260146
  0
LINE
  5
626
100
AcDbEntity
  8
0
100
AcDbLine
 62
7
  6
CONTINUOUS
 10
1555.489302485
 20
371.3150165249
 11
1549.9437453839
 21
367.4319756391
  0
LINE
  5
627
100
AcDbEntity
  8
0
100
AcDbLine
 62
7
  6
CONTINUOUS
 10
1696.5720788405
 20
365.1979640986
 11
1696.1970788405
 21
365.0703045394
  0
LINE
  5
628
100
AcDbEntity
  8
0
100
AcDbLine
 62
7
  6
CONTINUOUS
 10
1030.7554116891
 20
363.8213684465
 11
1030.9929116891
 21
363.6596663381
  0
LINE
  5
629
100
AcDbEntity
  8
0
100
AcDbLine
 62
7
  6
CONTINUOUS
 10
1030.6762462304
 20
365.4383897568
 11
1030.9137462304
 21
365.2766876485
  0
LINE
  5
62A
100
AcDbEntity
  8
0
100
AcDbLine
 62
7
  6
CONTINUOUS
 10
1223.1554138825
 20
339.8256235387
 11
1223.7804138825
 21
338.9745598103
  0
LINE
  5
62B
100
AcDbEntity
  8
0
100
AcDbLine
 62
7
  6
CONTINUOUS
 10
1207.1137440369
 20
346.4213684763
 11
1206.6970789597
 21
347.0596662726
  0
LINE
  5
62C
100
AcDbEntity
  8
0
100
AcDbLine
 62
7
  6
CONTINUOUS
 10
1239.6137464211
 20
345.783070531
 11
1239.1970789597
 21
346.6341344084
  0
LINE
  5
62D
100
AcDbEntity
  8
0
100
AcDbLine
 62
7
  6
CONTINUOUS
 10
1249.4054114983
 20
345.783070531
 11
1248.9887464211
 21
346.6341344084
  0
LINE
  5
62E
100
AcDbEntity
  8
0
100
AcDbLine
 62
7
  6
CONTINUOUS
 10
1266.4887458251
 20
340.0383894707
 11
1266.2804120944
 21
340.676687863
  0
LINE
  5
62F
100
AcDbEntity
  8
0
100
AcDbLine
 62
7
  6
CONTINUOUS
 10
1271.6970789597
 20
345.570304599
 11
1271.9054123924
 21
344.7192408706
  0
LINE
  5
630
100
AcDbEntity
  8
RUNDUNGEN
100
AcDbLine
 62
7
  6
CONTINUOUS
 10
1343.0720789597
 20
272.5265611711
 11
1343.0720789597
 21
376.1234960778
  0
LINE
  5
631
100
AcDbEntity
  8
RUNDUNGEN
100
AcDbLine
 62
7
  6
CONTINUOUS
 10
1352.0720789597
 20
28.123496082
 11
1352.0720789597
 21
233.7204311697
  0
LINE
  5
632
100
AcDbEntity
  8
RUNDUNGEN
100
AcDbLine
 62
7
  6
CONTINUOUS
 10
1354.0720789597
 20
308.623496082
 11
1354.0720789597
 21
381.1234155405
  0
LINE
  5
633
100
AcDbEntity
  8
BEZUGSACHSEN
100
AcDbLine
 62
7
  6
CONTINUOUS
 10
1377.8068675164
 20
263.9061246041
 11
1371.3372907967
 21
242.340868872
  0
LINE
  5
634
100
AcDbEntity
  8
0
100
AcDbLine
 62
7
  6
CONTINUOUS
 10
1491.8420789597
 20
352.063496082
 11
1487.3220789597
 21
347.543496082
  0
LINE
  5
635
100
AcDbEntity
  8
0
100
AcDbLine
 62
7
  6
CONTINUOUS
 10
1004.2345789597
 20
362.3660492729
 11
1004.5512455509
 21
362.2043471433
  0
LINE
  5
636
100
AcDbEntity
  8
0
100
AcDbLine
 62
7
  6
CONTINUOUS
 10
1006.3720789597
 20
365.6809429194
 11
1006.0554123686
 21
365.8426450278
  0
LINE
  5
637
100
AcDbEntity
  8
0
100
AcDbLine
 62
7
  6
CONTINUOUS
 10
1013.1804125951
 20
362.3660492729
 11
1013.4970789597
 21
362.2043471433
  0
LINE
  5
638
100
AcDbEntity
  8
0
100
AcDbLine
 62
7
  6
CONTINUOUS
 10
1016.9012453244
 20
362.3660492729
 11
1017.2179125951
 21
362.2043471433
  0
LINE
  5
639
100
AcDbEntity
  8
0
100
AcDbLine
 62
7
  6
CONTINUOUS
 10
1015.3179125951
 20
365.6809429194
 11
1015.0012453244
 21
365.8426450278
  0
LINE
  5
63A
100
AcDbEntity
  8
0
100
AcDbLine
 62
7
  6
CONTINUOUS
 10
1029.1720789597
 20
362.3660492729
 11
1029.4887462304
 21
362.2043471433
  0
LINE
  5
63B
100
AcDbEntity
  8
0
100
AcDbLine
 62
7
  6
CONTINUOUS
 10
1029.4887462304
 20
362.6086024638
 11
1029.3304116891
 21
362.689453518
  0
LINE
  5
63C
100
AcDbEntity
  8
0
100
AcDbLine
 62
7
  6
CONTINUOUS
 10
1031.0720789597
 20
365.6809429194
 11
1030.7554116891
 21
365.8426450278
  0
LINE
  5
63D
100
AcDbEntity
  8
0
100
AcDbLine
 62
7
  6
CONTINUOUS
 10
1200.2387440369
 20
339.6128576066
 11
1201.0720789597
 21
338.7617938782
  0
LINE
  5
63E
100
AcDbEntity
  8
0
100
AcDbLine
 62
7
  6
CONTINUOUS
 10
1205.6554138825
 20
346.6341344084
 11
1206.0720789597
 21
346.2086023952
  0
LINE
  5
63F
100
AcDbEntity
  8
0
100
AcDbLine
 62
7
  6
CONTINUOUS
 10
1224.8220789597
 20
339.4000916745
 11
1224.4054138825
 21
339.8256235387
  0
LINE
  5
640
100
AcDbEntity
  8
0
100
AcDbLine
 62
7
  6
CONTINUOUS
 10
1237.9470789597
 20
346.2086023952
 11
1238.3637464211
 21
345.570304599
  0
LINE
  5
641
100
AcDbEntity
  8
0
100
AcDbLine
 62
7
  6
CONTINUOUS
 10
1247.7387464211
 20
346.2086023952
 11
1248.1554114983
 21
345.570304599
  0
LINE
  5
642
100
AcDbEntity
  8
0
100
AcDbLine
 62
7
  6
CONTINUOUS
 10
1271.2804123924
 20
346.2086023952
 11
1271.6970789597
 21
345.570304599
  0
LINE
  5
643
100
AcDbEntity
  8
0
100
AcDbLine
 62
7
  6
CONTINUOUS
 10
1272.9470789597
 20
345.783070531
 11
1272.5304123924
 21
346.6341344084
  0
LINE
  5
644
100
AcDbEntity
  8
RUNDUNGEN
100
AcDbLine
 62
7
  6
CONTINUOUS
 10
1350.8068671453
 20
242.3408687968
 11
1344.3372904031
 21
263.9061246041
  0
LINE
  5
645
100
AcDbEntity
  8
BEZUGSACHSEN
100
AcDbLine
 62
7
  6
CONTINUOUS
 10
1368.0720789597
 20
308.623496082
 11
1368.0720789597
 21
381.1234155405
  0
LINE
  5
646
100
AcDbEntity
  8
BEZUGSACHSEN
100
AcDbLine
 62
7
  6
CONTINUOUS
 10
1370.0720789597
 20
28.123496082
 11
1370.0720789597
 21
233.7204311697
  0
LINE
  5
647
100
AcDbEntity
  8
BEZUGSACHSEN
100
AcDbLine
 62
7
  6
CONTINUOUS
 10
1379.0720789597
 20
272.5265611711
 11
1379.0720789597
 21
376.123496082
  0
LINE
  5
648
100
AcDbEntity
  8
0
100
AcDbLine
 62
7
  6
CONTINUOUS
 10
1696.6970790789
 20
364.5596663024
 11
1697.1970789597
 21
364.8149854209
  0
LINE
  5
649
100
AcDbEntity
  8
0
100
AcDbLine
 62
7
  6
CONTINUOUS
 10
1701.9470787213
 20
361.7511556524
 11
1702.4470789597
 21
362.0064748044
  0
LINE
  5
64A
100
AcDbEntity
  8
0
100
AcDbLine
 62
7
  6
CONTINUOUS
 10
1707.9470794366
 20
361.7511556524
 11
1708.4470789597
 21
362.0064748044
  0
LINE
  5
64B
100
AcDbEntity
  8
0
100
AcDbLine
 62
7
  6
CONTINUOUS
 10
1031.3095789597
 20
363.9022195007
 11
1030.9137462304
 21
364.0639216091
  0
LINE
  5
64C
100
AcDbEntity
  8
0
100
AcDbLine
 62
7
  6
CONTINUOUS
 10
1202.1137440369
 20
339.4000916745
 11
1201.4887440369
 21
339.8256235387
  0
LINE
  5
64D
100
AcDbEntity
  8
0
100
AcDbLine
 62
7
  6
CONTINUOUS
 10
1201.9054138825
 20
343.6554109122
 11
1201.2804138825
 21
344.0809427764
  0
LINE
  5
64E
100
AcDbEntity
  8
0
100
AcDbLine
 62
7
  6
CONTINUOUS
 10
1223.7804138825
 20
338.9745598103
 11
1224.6137440369
 21
338.3362620141
  0
LINE
  5
64F
100
AcDbEntity
  8
0
100
AcDbLine
 62
7
  6
CONTINUOUS
 10
1241.6970789597
 20
339.6128576066
 11
1242.5304114983
 21
338.7617938782
  0
LINE
  5
650
100
AcDbEntity
  8
0
100
AcDbLine
 62
7
  6
CONTINUOUS
 10
1239.1970789597
 20
346.6341344084
 11
1238.3637464211
 21
347.4851982112
  0
LINE
  5
651
100
AcDbEntity
  8
0
100
AcDbLine
 62
7
  6
CONTINUOUS
 10
1248.9887464211
 20
346.6341344084
 11
1248.1554114983
 21
347.4851982112
  0
LINE
  5
652
100
AcDbEntity
  8
0
100
AcDbLine
 62
7
  6
CONTINUOUS
 10
1265.238745229
 20
339.6128576066
 11
1266.0720789597
 21
338.7617938782
  0
LINE
  5
653
100
AcDbEntity
  8
0
100
AcDbLine
 62
7
  6
CONTINUOUS
 10
1311.7120789597
 20
348.523496082
 11
1314.4350202327
 21
343.8072234512
  0
LINE
  5
654
100
AcDbEntity
  8
0
100
AcDbLine
 62
7
  6
CONTINUOUS
 10
1395.0720789597
 20
332.8157320179
 11
1395.0720789597
 21
353.431260146
  0
LINE
  5
655
100
AcDbEntity
  8
0
100
AcDbLine
 62
7
  6
CONTINUOUS
 10
1702.1970791981
 20
362.772432294
 11
1701.8220791981
 21
362.5171130861
  0
LINE
  5
656
100
AcDbEntity
  8
0
100
AcDbLine
 62
7
  6
CONTINUOUS
 10
1021.8095789597
 20
365.519240811
 11
1022.0470789597
 21
365.4383897568
  0
LINE
  5
657
100
AcDbEntity
  8
0
100
AcDbLine
 62
7
  6
CONTINUOUS
 10
1201.0720789597
 20
338.7617938782
 11
1201.9054138825
 21
338.3362620141
  0
LINE
  5
658
100
AcDbEntity
  8
0
100
AcDbLine
 62
7
  6
CONTINUOUS
 10
1205.2387440369
 20
346.8469003405
 11
1205.6554138825
 21
346.6341344084
  0
LINE
  5
659
100
AcDbEntity
  8
0
100
AcDbLine
 62
7
  6
CONTINUOUS
 10
1206.0720789597
 20
347.4851982112
 11
1205.2387440369
 21
347.9107301313
  0
LINE
  5
65A
100
AcDbEntity
  8
0
100
AcDbLine
 62
7
  6
CONTINUOUS
 10
1206.6970789597
 20
347.0596662726
 11
1206.0720789597
 21
347.4851982112
  0
LINE
  5
65B
100
AcDbEntity
  8
0
100
AcDbLine
 62
7
  6
CONTINUOUS
 10
1243.5720789597
 20
339.6128576066
 11
1242.9470789597
 21
340.0383894707
  0
LINE
  5
65C
100
AcDbEntity
  8
0
100
AcDbLine
 62
7
  6
CONTINUOUS
 10
1237.3220789597
 20
346.6341344084
 11
1237.9470789597
 21
346.2086023952
  0
LINE
  5
65D
100
AcDbEntity
  8
0
100
AcDbLine
 62
7
  6
CONTINUOUS
 10
1247.1137464211
 20
346.6341344084
 11
1247.7387464211
 21
346.2086023952
  0
LINE
  5
65E
100
AcDbEntity
  8
0
100
AcDbLine
 62
7
  6
CONTINUOUS
 10
1272.5304123924
 20
346.6341344084
 11
1271.6970789597
 21
347.4851982112
  0
LINE
  5
65F
100
AcDbEntity
  8
0
100
AcDbLine
 62
7
  6
CONTINUOUS
 10
1315.8690008979
 20
344.923496082
 11
1313.7905399288
 21
348.523496082
  0
LINE
  5
660
100
AcDbEntity
  8
0
100
AcDbLine
 62
7
  6
CONTINUOUS
 10
1708.1970784829
 20
362.772432294
 11
1707.8220784829
 21
362.5171130861
  0
LINE
  5
661
100
AcDbEntity
  8
0
100
AcDbLine
 62
7
  6
CONTINUOUS
 10
1707.8220784829
 20
362.5171130861
 11
1707.3220789597
 21
362.3894535269
  0
LINE
  5
662
100
AcDbEntity
  8
0
100
AcDbLine
 62
7
  6
CONTINUOUS
 10
1701.8220791981
 20
362.5171130861
 11
1701.3220789597
 21
362.3894535269
  0
LINE
  5
663
100
AcDbEntity
  8
0
100
AcDbLine
 62
7
  6
CONTINUOUS
 10
1707.3220789597
 20
361.623496082
 11
1707.9470794366
 21
361.7511556524
  0
LINE
  5
664
100
AcDbEntity
  8
0
100
AcDbLine
 62
7
  6
CONTINUOUS
 10
1701.3220789597
 20
361.623496082
 11
1701.9470787213
 21
361.7511556524
  0
LINE
  5
665
100
AcDbEntity
  8
0
100
AcDbLine
 62
7
  6
CONTINUOUS
 10
1004.5512455509
 20
362.2043471433
 11
1004.9470789597
 21
362.123496082
  0
LINE
  5
666
100
AcDbEntity
  8
0
100
AcDbLine
 62
7
  6
CONTINUOUS
 10
1013.4970789597
 20
362.2043471433
 11
1013.8929125951
 21
362.123496082
  0
LINE
  5
667
100
AcDbEntity
  8
0
100
AcDbLine
 62
7
  6
CONTINUOUS
 10
1017.2179125951
 20
362.2043471433
 11
1017.6137453244
 21
362.123496082
  0
LINE
  5
668
100
AcDbEntity
  8
0
100
AcDbLine
 62
7
  6
CONTINUOUS
 10
1004.9470789597
 20
362.6086024638
 11
1004.6304123686
 21
362.689453518
  0
LINE
  5
669
100
AcDbEntity
  8
0
100
AcDbLine
 62
7
  6
CONTINUOUS
 10
1013.8929125951
 20
362.6086024638
 11
1013.5762453244
 21
362.689453518
  0
LINE
  5
66A
100
AcDbEntity
  8
0
100
AcDbLine
 62
7
  6
CONTINUOUS
 10
1005.6595789597
 20
365.4383897568
 11
1005.9762455509
 21
365.3575387026
  0
LINE
  5
66B
100
AcDbEntity
  8
0
100
AcDbLine
 62
7
  6
CONTINUOUS
 10
1017.6137453244
 20
362.6086024638
 11
1017.2970789597
 21
362.689453518
  0
LINE
  5
66C
100
AcDbEntity
  8
0
100
AcDbLine
 62
7
  6
CONTINUOUS
 10
1014.6054125951
 20
365.4383897568
 11
1014.9220789597
 21
365.3575387026
  0
LINE
  5
66D
100
AcDbEntity
  8
0
100
AcDbLine
 62
7
  6
CONTINUOUS
 10
1029.4887462304
 20
362.2043471433
 11
1029.8054116891
 21
362.123496082
  0
LINE
  5
66E
100
AcDbEntity
  8
0
100
AcDbLine
 62
7
  6
CONTINUOUS
 10
1225.4470789597
 20
339.1873257424
 11
1224.8220789597
 21
339.4000916745
  0
LINE
  5
66F
100
AcDbEntity
  8
0
100
AcDbLine
 62
7
  6
CONTINUOUS
 10
1200.4470789597
 20
343.4426449801
 11
1201.4887440369
 21
343.0171131159
  0
LINE
  5
670
100
AcDbEntity
  8
0
100
AcDbLine
 62
7
  6
CONTINUOUS
 10
1242.5304114983
 20
338.7617938782
 11
1243.3637464211
 21
338.3362620141
  0
LINE
  5
671
100
AcDbEntity
  8
0
100
AcDbLine
 62
7
  6
CONTINUOUS
 10
1238.3637464211
 20
347.4851982112
 11
1237.5304114983
 21
347.9107301313
  0
LINE
  5
672
100
AcDbEntity
  8
0
100
AcDbLine
 62
7
  6
CONTINUOUS
 10
1248.1554114983
 20
347.4851982112
 11
1247.3220789597
 21
347.9107301313
  0
LINE
  5
673
100
AcDbEntity
  8
0
100
AcDbLine
 62
7
  6
CONTINUOUS
 10
1266.0720789597
 20
338.7617938782
 11
1266.9054120944
 21
338.3362620141
  0
LINE
  5
674
100
AcDbEntity
  8
0
100
AcDbLine
 62
7
  6
CONTINUOUS
 10
1267.1137458251
 20
339.6128576066
 11
1266.4887458251
 21
340.0383894707
  0
LINE
  5
675
100
AcDbEntity
  8
0
100
AcDbLine
 62
7
  6
CONTINUOUS
 10
1270.6554120944
 20
346.6341344084
 11
1271.2804123924
 21
346.2086023952
  0
LINE
  5
676
100
AcDbEntity
  8
BEZUGSACHSEN
100
AcDbLine
 62
7
  6
CONTINUOUS
 10
1365.0720789597
 20
305.623496082
 11
1357.0720789597
 21
305.623496082
  0
LINE
  5
677
100
AcDbEntity
  8
BEZUGSACHSEN
100
AcDbLine
 62
7
  6
CONTINUOUS
 10
1366.7303913549
 20
306.123496082
 11
1355.4137665645
 21
306.123496082
  0
LINE
  5
678
100
AcDbEntity
  8
0
100
AcDbLine
 62
7
  6
CONTINUOUS
 10
1355.4137665645
 20
306.123496082
 11
1366.7303913549
 21
306.123496082
  0
LINE
  5
679
100
AcDbEntity
  8
RUNDUNGEN
100
AcDbLine
 62
7
  6
CONTINUOUS
 10
983.2267794981
 20
310.623496082
 11
1033.0720789597
 21
310.623496082
  0
LINE
  5
67A
100
AcDbEntity
  8
RUNDUNGEN
100
AcDbLine
 62
7
  6
CONTINUOUS
 10
1689.0720789597
 20
310.623496082
 11
1738.9172077607
 21
310.623496082
  0
LINE
  5
67B
100
AcDbEntity
  8
0
100
AcDbLine
 62
7
  6
CONTINUOUS
 10
1625.0720789597
 20
313.123496082
 11
1621.5720789597
 21
313.123496082
  0
LINE
  5
67C
100
AcDbEntity
  8
0
100
AcDbLine
 62
7
  6
CONTINUOUS
 10
1571.0720789597
 20
313.123496082
 11
1561.2250668485
 21
313.123496082
  0
LINE
  5
67D
100
AcDbEntity
  8
RUNDUNGEN
100
AcDbLine
 62
7
  6
CONTINUOUS
 10
1708.0720789597
 20
315.623496082
 11
1694.0720789597
 21
315.623496082
  0
LINE
  5
67E
100
AcDbEntity
  8
RUNDUNGEN
100
AcDbLine
 62
7
  6
CONTINUOUS
 10
1028.0720789597
 20
316.123496082
 11
1006.0720789597
 21
316.123496082
  0
LINE
  5
67F
100
AcDbEntity
  8
RUNDUNGEN
100
AcDbLine
 62
7
  6
CONTINUOUS
 10
1384.5864079273
 20
319.123496082
 11
1379.0720789597
 21
319.123496082
  0
LINE
  5
680
100
AcDbEntity
  8
RUNDUNGEN
100
AcDbLine
 62
7
  6
CONTINUOUS
 10
1343.0720789597
 20
319.123496082
 11
1337.5577499921
 21
319.123496082
  0
LINE
  5
681
100
AcDbEntity
  8
RUNDUNGEN
100
AcDbLine
 62
7
  6
CONTINUOUS
 10
1172.1267018798
 20
319.123496082
 11
1149.0720789597
 21
319.123496082
  0
LINE
  5
682
100
AcDbEntity
  8
0
100
AcDbLine
 62
7
  6
CONTINUOUS
 10
1149.0720789597
 20
319.123496082
 11
1172.1267018798
 21
319.123496082
  0
LINE
  5
683
100
AcDbEntity
  8
0
100
AcDbLine
 62
7
  6
CONTINUOUS
 10
1337.5577499921
 20
319.123496082
 11
1343.0720789597
 21
319.123496082
  0
LINE
  5
684
100
AcDbEntity
  8
0
100
AcDbLine
 62
7
  6
CONTINUOUS
 10
1379.0720789597
 20
319.123496082
 11
1384.5864079273
 21
319.123496082
  0
LINE
  5
685
100
AcDbEntity
  8
0
100
AcDbLine
 62
7
  6
CONTINUOUS
 10
1201.9054138825
 20
338.3362620141
 11
1203.3637440369
 21
338.123496082
  0
LINE
  5
686
100
AcDbEntity
  8
0
100
AcDbLine
 62
7
  6
CONTINUOUS
 10
1030.7554116891
 20
365.8426450278
 11
1030.2012462304
 21
365.923496082
  0
LINE
  5
687
100
AcDbEntity
  8
0
100
AcDbLine
 62
7
  6
CONTINUOUS
 10
1030.2804116891
 20
363.9022195007
 11
1030.7554116891
 21
363.8213684465
  0
LINE
  5
688
100
AcDbEntity
  8
0
100
AcDbLine
 62
7
  6
CONTINUOUS
 10
1203.1554138825
 20
343.4426449801
 11
1201.9054138825
 21
343.6554109122
  0
LINE
  5
689
100
AcDbEntity
  8
0
100
AcDbLine
 62
7
  6
CONTINUOUS
 10
1006.0554123686
 20
365.8426450278
 11
1005.6595789597
 21
365.923496082
  0
LINE
  5
68A
100
AcDbEntity
  8
0
100
AcDbLine
 62
7
  6
CONTINUOUS
 10
1029.8845789597
 20
362.5277514096
 11
1029.4887462304
 21
362.6086024638
  0
LINE
  5
68B
100
AcDbEntity
  8
0
100
AcDbLine
 62
7
  6
CONTINUOUS
 10
1015.0012453244
 20
365.8426450278
 11
1014.6054125951
 21
365.923496082
  0
LINE
  5
68C
100
AcDbEntity
  8
0
100
AcDbLine
 62
7
  6
CONTINUOUS
 10
1022.1262462304
 20
365.8426450278
 11
1021.7304116891
 21
365.923496082
  0
LINE
  5
68D
100
AcDbEntity
  8
0
100
AcDbLine
 62
7
  6
CONTINUOUS
 10
1030.2804116891
 20
365.519240811
 11
1030.6762462304
 21
365.4383897568
  0
LINE
  5
68E
100
AcDbEntity
  8
0
100
AcDbLine
 62
7
  6
CONTINUOUS
 10
1203.1554138825
 20
339.1873257424
 11
1202.1137440369
 21
339.4000916745
  0
LINE
  5
68F
100
AcDbEntity
  8
0
100
AcDbLine
 62
7
  6
CONTINUOUS
 10
1224.6137440369
 20
338.3362620141
 11
1225.6554138825
 21
338.123496082
  0
LINE
  5
690
100
AcDbEntity
  8
0
100
AcDbLine
 62
7
  6
CONTINUOUS
 10
1243.3637464211
 20
338.3362620141
 11
1244.4054114983
 21
338.123496082
  0
LINE
  5
691
100
AcDbEntity
  8
0
100
AcDbLine
 62
7
  6
CONTINUOUS
 10
1204.1970789597
 20
347.0596662726
 11
1205.2387440369
 21
346.8469003405
  0
LINE
  5
692
100
AcDbEntity
  8
0
100
AcDbLine
 62
7
  6
CONTINUOUS
 10
1266.9054120944
 20
338.3362620141
 11
1267.9470789597
 21
338.123496082
  0
LINE
  5
693
100
AcDbEntity
  8
0
100
AcDbLine
 62
7
  6
CONTINUOUS
 10
1205.2387440369
 20
347.9107301313
 11
1204.4054138825
 21
348.123496082
  0
LINE
  5
694
100
AcDbEntity
  8
0
100
AcDbLine
 62
7
  6
CONTINUOUS
 10
1244.4054114983
 20
339.4000916745
 11
1243.5720789597
 21
339.6128576066
  0
LINE
  5
695
100
AcDbEntity
  8
0
100
AcDbLine
 62
7
  6
CONTINUOUS
 10
1236.4887464211
 20
346.8469003405
 11
1237.3220789597
 21
346.6341344084
  0
LINE
  5
696
100
AcDbEntity
  8
0
100
AcDbLine
 62
7
  6
CONTINUOUS
 10
1267.9470789597
 20
339.4000916745
 11
1267.1137458251
 21
339.6128576066
  0
LINE
  5
697
100
AcDbEntity
  8
0
100
AcDbLine
 62
7
  6
CONTINUOUS
 10
1246.2804114983
 20
346.8469003405
 11
1247.1137464211
 21
346.6341344084
  0
LINE
  5
698
100
AcDbEntity
  8
0
100
AcDbLine
 62
7
  6
CONTINUOUS
 10
1335.8476492755
 20
319.4250329781
 11
1333.3833647725
 21
320.3219591859
  0
LINE
  5
699
100
AcDbEntity
  8
0
100
AcDbLine
 62
7
  6
CONTINUOUS
 10
1271.6970789597
 20
347.4851982112
 11
1270.8637458251
 21
347.9107301313
  0
LINE
  5
69A
100
AcDbEntity
  8
0
100
AcDbLine
 62
7
  6
CONTINUOUS
 10
1489.6120789597
 20
347.543496082
 11
1489.6120789597
 21
334.163496082
  0
LINE
  5
69B
100
AcDbEntity
  8
0
100
AcDbLine
 62
7
  6
CONTINUOUS
 10
1494.0720789597
 20
334.163496082
 11
1494.0720789597
 21
347.543496082
  0
LINE
  5
69C
100
AcDbEntity
  8
0
100
AcDbLine
 62
7
  6
CONTINUOUS
 10
1696.8220789597
 20
365.4532832171
 11
1696.5720788405
 21
365.1979640986
  0
LINE
  5
69D
100
AcDbEntity
  8
0
100
AcDbLine
 62
7
  6
CONTINUOUS
 10
1702.4470789597
 20
362.0064748044
 11
1702.9470791981
 21
362.5171130861
  0
LINE
  5
69E
100
AcDbEntity
  8
0
100
AcDbLine
 62
7
  6
CONTINUOUS
 10
1708.4470789597
 20
362.0064748044
 11
1708.9470784829
 21
362.5171130861
  0
LINE
  5
69F
100
AcDbEntity
  8
0
100
AcDbLine
 62
7
  6
CONTINUOUS
 10
1544.2079810204
 20
320.623496082
 11
1390.4708938636
 21
320.623496082
  0
LINE
  5
6A0
100
AcDbEntity
  8
0
100
AcDbLine
 62
7
  6
CONTINUOUS
 10
1331.6732640559
 20
320.623496082
 11
1177.9361768991
 21
320.623496082
  0
LINE
  5
6A1
100
AcDbEntity
  8
RUNDUNGEN
100
AcDbLine
 62
7
  6
CONTINUOUS
 10
1694.0720789597
 20
327.623496082
 11
1708.0720789597
 21
327.623496082
  0
LINE
  5
6A2
100
AcDbEntity
  8
RUNDUNGEN
100
AcDbLine
 62
7
  6
CONTINUOUS
 10
1006.0720789597
 20
328.123496082
 11
1028.0720789597
 21
328.123496082
  0
LINE
  5
6A3
100
AcDbEntity
  8
0
100
AcDbLine
 62
7
  6
CONTINUOUS
 10
1147.0720789597
 20
331.123496082
 11
1043.0720789597
 21
331.123496082
  0
LINE
  5
6A4
100
AcDbEntity
  8
0
100
AcDbLine
 62
7
  6
CONTINUOUS
 10
1573.0720789597
 20
331.123496082
 11
1621.0720789597
 21
331.123496082
  0
LINE
  5
6A5
100
AcDbEntity
  8
0
100
AcDbLine
 62
7
  6
CONTINUOUS
 10
1627.0720789597
 20
331.123496082
 11
1679.0720789597
 21
331.123496082
  0
LINE
  5
6A6
100
AcDbEntity
  8
0
100
AcDbLine
 62
7
  6
CONTINUOUS
 10
1527.0720789597
 20
332.8157320179
 11
1395.0720789597
 21
332.8157320179
  0
LINE
  5
6A7
100
AcDbEntity
  8
0
100
AcDbLine
 62
7
  6
CONTINUOUS
 10
1327.0720789597
 20
332.8157320179
 11
1195.0720789597
 21
332.8157320179
  0
LINE
  5
6A8
100
AcDbEntity
  8
0
100
AcDbLine
 62
7
  6
CONTINUOUS
 10
1489.6120789597
 20
334.163496082
 11
1494.0720789597
 21
334.163496082
  0
LINE
  5
6A9
100
AcDbEntity
  8
RUNDUNGEN
100
AcDbLine
 62
7
  6
CONTINUOUS
 10
1738.8881319783
 20
335.373496082
 11
1705.8220789597
 21
335.373496082
  0
LINE
  5
6AA
100
AcDbEntity
  8
RUNDUNGEN
100
AcDbLine
 62
7
  6
CONTINUOUS
 10
1016.3220789597
 20
335.373496082
 11
983.2560259412
 21
335.373496082
  0
LINE
  5
6AB
100
AcDbEntity
  8
0
100
AcDbLine
 62
7
  6
CONTINUOUS
 10
1294.6120789597
 20
337.723496082
 11
1299.4720789597
 21
337.723496082
  0
LINE
  5
6AC
100
AcDbEntity
  8
0
100
AcDbLine
 62
7
  6
CONTINUOUS
 10
1301.6320789597
 20
337.723496082
 11
1303.7920789597
 21
337.723496082
  0
LINE
  5
6AD
100
AcDbEntity
  8
0
100
AcDbLine
 62
7
  6
CONTINUOUS
 10
1308.1120789597
 20
337.723496082
 11
1310.2720789597
 21
337.723496082
  0
LINE
  5
6AE
100
AcDbEntity
  8
0
100
AcDbLine
 62
7
  6
CONTINUOUS
 10
1315.5820789597
 20
337.723496082
 11
1321.0720789597
 21
337.723496082
  0
LINE
  5
6AF
100
AcDbEntity
  8
0
100
AcDbLine
 62
7
  6
CONTINUOUS
 10
1203.3637440369
 20
338.123496082
 11
1203.7804138825
 21
338.123496082
  0
LINE
  5
6B0
100
AcDbEntity
  8
0
100
AcDbLine
 62
7
  6
CONTINUOUS
 10
1208.9887440369
 20
338.123496082
 11
1210.2387440369
 21
338.123496082
  0
LINE
  5
6B1
100
AcDbEntity
  8
0
100
AcDbLine
 62
7
  6
CONTINUOUS
 10
1213.1554138825
 20
338.123496082
 11
1221.0720789597
 21
338.123496082
  0
LINE
  5
6B2
100
AcDbEntity
  8
0
100
AcDbLine
 62
7
  6
CONTINUOUS
 10
1225.6554138825
 20
338.123496082
 11
1230.6554138825
 21
338.123496082
  0
LINE
  5
6B3
100
AcDbEntity
  8
0
100
AcDbLine
 62
7
  6
CONTINUOUS
 10
1232.3220789597
 20
338.123496082
 11
1233.5720789597
 21
338.123496082
  0
LINE
  5
6B4
100
AcDbEntity
  8
0
100
AcDbLine
 62
7
  6
CONTINUOUS
 10
1238.5720789597
 20
338.123496082
 11
1239.8220789597
 21
338.123496082
  0
LINE
  5
6B5
100
AcDbEntity
  8
0
100
AcDbLine
 62
7
  6
CONTINUOUS
 10
1244.4054114983
 20
338.123496082
 11
1246.2804114983
 21
338.123496082
  0
LINE
  5
6B6
100
AcDbEntity
  8
0
100
AcDbLine
 62
7
  6
CONTINUOUS
 10
1255.8637464211
 20
338.123496082
 11
1263.363745229
 21
338.123496082
  0
LINE
  5
6B7
100
AcDbEntity
  8
0
100
AcDbLine
 62
7
  6
CONTINUOUS
 10
1267.9470789597
 20
338.123496082
 11
1269.8220789597
 21
338.123496082
  0
LINE
  5
6B8
100
AcDbEntity
  8
0
100
AcDbLine
 62
7
  6
CONTINUOUS
 10
1274.8220789597
 20
338.123496082
 11
1276.0720789597
 21
338.123496082
  0
LINE
  5
6B9
100
AcDbEntity
  8
0
100
AcDbLine
 62
7
  6
CONTINUOUS
 10
1229.4054138825
 20
339.1873257424
 11
1225.4470789597
 21
339.1873257424
  0
LINE
  5
6BA
100
AcDbEntity
  8
0
100
AcDbLine
 62
7
  6
CONTINUOUS
 10
1221.0720789597
 20
339.1873257424
 11
1217.7387440369
 21
339.1873257424
  0
LINE
  5
6BB
100
AcDbEntity
  8
0
100
AcDbLine
 62
7
  6
CONTINUOUS
 10
1216.4887440369
 20
339.1873257424
 11
1213.1554138825
 21
339.1873257424
  0
LINE
  5
6BC
100
AcDbEntity
  8
0
100
AcDbLine
 62
7
  6
CONTINUOUS
 10
1203.9887440369
 20
339.1873257424
 11
1203.1554138825
 21
339.1873257424
  0
LINE
  5
6BD
100
AcDbEntity
  8
0
100
AcDbLine
 62
7
  6
CONTINUOUS
 10
1269.8220789597
 20
339.4000916745
 11
1267.9470789597
 21
339.4000916745
  0
LINE
  5
6BE
100
AcDbEntity
  8
0
100
AcDbLine
 62
7
  6
CONTINUOUS
 10
1262.113745229
 20
339.4000916745
 11
1255.8637464211
 21
339.4000916745
  0
LINE
  5
6BF
100
AcDbEntity
  8
0
100
AcDbLine
 62
7
  6
CONTINUOUS
 10
1246.2804114983
 20
339.4000916745
 11
1244.4054114983
 21
339.4000916745
  0
LINE
  5
6C0
100
AcDbEntity
  8
0
100
AcDbLine
 62
7
  6
CONTINUOUS
 10
1321.0720789597
 20
339.523496082
 11
1316.3020789597
 21
339.523496082
  0
LINE
  5
6C1
100
AcDbEntity
  8
0
100
AcDbLine
 62
7
  6
CONTINUOUS
 10
1299.4720789597
 20
339.523496082
 11
1295.0620789597
 21
339.523496082
  0
LINE
  5
6C2
100
AcDbEntity
  8
0
100
AcDbLine
 62
7
  6
CONTINUOUS
 10
1207.1137440369
 20
340.4639213349
 11
1206.0720789597
 21
340.4639213349
  0
LINE
  5
6C3
100
AcDbEntity
  8
0
100
AcDbLine
 62
7
  6
CONTINUOUS
 10
1297.3120789597
 20
340.603496082
 11
1299.4720789597
 21
340.603496082
  0
LINE
  5
6C4
100
AcDbEntity
  8
0
100
AcDbLine
 62
7
  6
CONTINUOUS
 10
1319.2720789597
 20
340.603496082
 11
1321.0720789597
 21
340.603496082
  0
LINE
  5
6C5
100
AcDbEntity
  8
0
100
AcDbLine
 62
7
  6
CONTINUOUS
 10
1266.2804120944
 20
340.676687863
 11
1265.0304126904
 21
340.676687863
  0
LINE
  5
6C6
100
AcDbEntity
  8
0
100
AcDbLine
 62
7
  6
CONTINUOUS
 10
1242.7387464211
 20
340.676687863
 11
1241.4887464211
 21
340.676687863
  0
LINE
  5
6C7
100
AcDbEntity
  8
0
100
AcDbLine
 62
7
  6
CONTINUOUS
 10
1256.6970789597
 20
342.1660493876
 11
1262.113745229
 21
342.1660493876
  0
LINE
  5
6C8
100
AcDbEntity
  8
0
100
AcDbLine
 62
7
  6
CONTINUOUS
 10
1316.3020789597
 20
342.223496082
 11
1319.2720789597
 21
342.223496082
  0
LINE
  5
6C9
100
AcDbEntity
  8
0
100
AcDbLine
 62
7
  6
CONTINUOUS
 10
1225.4470789597
 20
342.3788153197
 11
1229.4054138825
 21
342.3788153197
  0
LINE
  5
6CA
100
AcDbEntity
  8
0
100
AcDbLine
 62
7
  6
CONTINUOUS
 10
1203.1554138825
 20
342.5915812518
 11
1203.9887440369
 21
342.5915812518
  0
LINE
  5
6CB
100
AcDbEntity
  8
0
100
AcDbLine
 62
7
  6
CONTINUOUS
 10
1262.113745229
 20
343.4426449801
 11
1256.6970789597
 21
343.4426449801
  0
LINE
  5
6CC
100
AcDbEntity
  8
0
100
AcDbLine
 62
7
  6
CONTINUOUS
 10
1203.9887440369
 20
343.4426449801
 11
1203.1554138825
 21
343.4426449801
  0
LINE
  5
6CD
100
AcDbEntity
  8
0
100
AcDbLine
 62
7
  6
CONTINUOUS
 10
1251.2804114983
 20
343.4426449801
 11
1254.1970789597
 21
343.4426449801
  0
LINE
  5
6CE
100
AcDbEntity
  8
0
100
AcDbLine
 62
7
  6
CONTINUOUS
 10
1229.4054138825
 20
343.6554109122
 11
1225.8637440369
 21
343.6554109122
  0
LINE
  5
6CF
100
AcDbEntity
  8
0
100
AcDbLine
 62
7
  6
CONTINUOUS
 10
1319.2720789597
 20
344.023496082
 11
1317.4278466247
 21
344.023496082
  0
LINE
  5
6D0
100
AcDbEntity
  8
0
100
AcDbLine
 62
7
  6
CONTINUOUS
 10
1254.1970789597
 20
344.5064749385
 11
1251.2804114983
 21
344.5064749385
  0
LINE
  5
6D1
100
AcDbEntity
  8
0
100
AcDbLine
 62
7
  6
CONTINUOUS
 10
1241.4887464211
 20
345.570304599
 11
1242.7387464211
 21
345.570304599
  0
LINE
  5
6D2
100
AcDbEntity
  8
0
100
AcDbLine
 62
7
  6
CONTINUOUS
 10
1265.0304126904
 20
345.570304599
 11
1266.2804120944
 21
345.570304599
  0
LINE
  5
6D3
100
AcDbEntity
  8
0
100
AcDbLine
 62
7
  6
CONTINUOUS
 10
1206.2804138825
 20
345.783070531
 11
1207.3220789597
 21
345.783070531
  0
LINE
  5
6D4
100
AcDbEntity
  8
0
100
AcDbLine
 62
7
  6
CONTINUOUS
 10
1295.0620789597
 20
346.723496082
 11
1297.3120789597
 21
346.723496082
  0
LINE
  5
6D5
100
AcDbEntity
  8
0
100
AcDbLine
 62
7
  6
CONTINUOUS
 10
1235.6554138825
 20
346.8469003405
 11
1236.4887464211
 21
346.8469003405
  0
LINE
  5
6D6
100
AcDbEntity
  8
0
100
AcDbLine
 62
7
  6
CONTINUOUS
 10
1244.4054114983
 20
346.8469003405
 11
1246.2804114983
 21
346.8469003405
  0
LINE
  5
6D7
100
AcDbEntity
  8
0
100
AcDbLine
 62
7
  6
CONTINUOUS
 10
1255.8637464211
 20
346.8469003405
 11
1262.113745229
 21
346.8469003405
  0
LINE
  5
6D8
100
AcDbEntity
  8
0
100
AcDbLine
 62
7
  6
CONTINUOUS
 10
1267.9470789597
 20
346.8469003405
 11
1269.8220789597
 21
346.8469003405
  0
LINE
  5
6D9
100
AcDbEntity
  8
0
100
AcDbLine
 62
7
  6
CONTINUOUS
 10
1202.9470789597
 20
347.0596662726
 11
1204.1970789597
 21
347.0596662726
  0
LINE
  5
6DA
100
AcDbEntity
  8
0
100
AcDbLine
 62
7
  6
CONTINUOUS
 10
1237.5304114983
 20
347.9107301313
 11
1236.4887464211
 21
348.123496082
  0
LINE
  5
6DB
100
AcDbEntity
  8
0
100
AcDbLine
 62
7
  6
CONTINUOUS
 10
1247.3220789597
 20
347.9107301313
 11
1246.2804114983
 21
348.123496082
  0
LINE
  5
6DC
100
AcDbEntity
  8
0
100
AcDbLine
 62
7
  6
CONTINUOUS
 10
1270.8637458251
 20
347.9107301313
 11
1269.8220789597
 21
348.123496082
  0
LINE
  5
6DD
100
AcDbEntity
  8
0
100
AcDbLine
 62
7
  6
CONTINUOUS
 10
1269.8220789597
 20
346.8469003405
 11
1270.6554120944
 21
346.6341344084
  0
LINE
  5
6DE
100
AcDbEntity
  8
0
100
AcDbLine
 62
7
  6
CONTINUOUS
 10
1527.0720789597
 20
332.8157320179
 11
1527.0720789597
 21
353.431260146
  0
LINE
  5
6DF
100
AcDbEntity
  8
0
100
AcDbLine
 62
7
  6
CONTINUOUS
 10
1270.6554120944
 20
339.6128576066
 11
1269.8220789597
 21
339.4000916745
  0
LINE
  5
6E0
100
AcDbEntity
  8
0
100
AcDbLine
 62
7
  6
CONTINUOUS
 10
1247.1137464211
 20
339.6128576066
 11
1246.2804114983
 21
339.4000916745
  0
LINE
  5
6E1
100
AcDbEntity
  8
0
100
AcDbLine
 62
7
  6
CONTINUOUS
 10
1267.1137458251
 20
346.6341344084
 11
1267.9470789597
 21
346.8469003405
  0
LINE
  5
6E2
100
AcDbEntity
  8
0
100
AcDbLine
 62
7
  6
CONTINUOUS
 10
1243.5720789597
 20
346.6341344084
 11
1244.4054114983
 21
346.8469003405
  0
LINE
  5
6E3
100
AcDbEntity
  8
0
100
AcDbLine
 62
7
  6
CONTINUOUS
 10
1234.8220789597
 20
346.6341344084
 11
1235.6554138825
 21
346.8469003405
  0
LINE
  5
6E4
100
AcDbEntity
  8
0
100
AcDbLine
 62
7
  6
CONTINUOUS
 10
1269.8220789597
 20
338.123496082
 11
1270.8637458251
 21
338.3362620141
  0
LINE
  5
6E5
100
AcDbEntity
  8
0
100
AcDbLine
 62
7
  6
CONTINUOUS
 10
1246.2804114983
 20
338.123496082
 11
1247.3220789597
 21
338.3362620141
  0
LINE
  5
6E6
100
AcDbEntity
  8
0
100
AcDbLine
 62
7
  6
CONTINUOUS
 10
1267.9470789597
 20
348.123496082
 11
1266.9054120944
 21
347.9107301313
  0
LINE
  5
6E7
100
AcDbEntity
  8
0
100
AcDbLine
 62
7
  6
CONTINUOUS
 10
1205.0304138825
 20
339.4000916745
 11
1203.9887440369
 21
339.1873257424
  0
LINE
  5
6E8
100
AcDbEntity
  8
0
100
AcDbLine
 62
7
  6
CONTINUOUS
 10
1244.4054114983
 20
348.123496082
 11
1243.3637464211
 21
347.9107301313
  0
LINE
  5
6E9
100
AcDbEntity
  8
0
100
AcDbLine
 62
7
  6
CONTINUOUS
 10
1235.6554138825
 20
348.123496082
 11
1234.6137440369
 21
347.9107301313
  0
LINE
  5
6EA
100
AcDbEntity
  8
0
100
AcDbLine
 62
7
  6
CONTINUOUS
 10
1203.7804138825
 20
338.123496082
 11
1205.2387440369
 21
338.3362620141
  0
LINE
  5
6EB
100
AcDbEntity
  8
0
100
AcDbLine
 62
7
  6
CONTINUOUS
 10
1487.3220789597
 20
347.543496082
 11
1489.6120789597
 21
347.543496082
  0
LINE
  5
6EC
100
AcDbEntity
  8
0
100
AcDbLine
 62
7
  6
CONTINUOUS
 10
1494.0720789597
 20
347.543496082
 11
1496.3620789597
 21
347.543496082
  0
LINE
  5
6ED
100
AcDbEntity
  8
0
100
AcDbLine
 62
7
  6
CONTINUOUS
 10
1276.0720789597
 20
348.123496082
 11
1274.8220789597
 21
348.123496082
  0
LINE
  5
6EE
100
AcDbEntity
  8
0
100
AcDbLine
 62
7
  6
CONTINUOUS
 10
1269.8220789597
 20
348.123496082
 11
1267.9470789597
 21
348.123496082
  0
LINE
  5
6EF
100
AcDbEntity
  8
0
100
AcDbLine
 62
7
  6
CONTINUOUS
 10
1263.363745229
 20
348.123496082
 11
1255.8637464211
 21
348.123496082
  0
LINE
  5
6F0
100
AcDbEntity
  8
0
100
AcDbLine
 62
7
  6
CONTINUOUS
 10
1246.2804114983
 20
348.123496082
 11
1244.4054114983
 21
348.123496082
  0
LINE
  5
6F1
100
AcDbEntity
  8
0
100
AcDbLine
 62
7
  6
CONTINUOUS
 10
1236.4887464211
 20
348.123496082
 11
1235.6554138825
 21
348.123496082
  0
LINE
  5
6F2
100
AcDbEntity
  8
0
100
AcDbLine
 62
7
  6
CONTINUOUS
 10
1230.6554138825
 20
348.123496082
 11
1229.4054138825
 21
348.123496082
  0
LINE
  5
6F3
100
AcDbEntity
  8
0
100
AcDbLine
 62
7
  6
CONTINUOUS
 10
1224.1970789597
 20
348.123496082
 11
1222.7387440369
 21
348.123496082
  0
LINE
  5
6F4
100
AcDbEntity
  8
0
100
AcDbLine
 62
7
  6
CONTINUOUS
 10
1217.7387440369
 20
348.123496082
 11
1216.4887440369
 21
348.123496082
  0
LINE
  5
6F5
100
AcDbEntity
  8
0
100
AcDbLine
 62
7
  6
CONTINUOUS
 10
1210.2387440369
 20
348.123496082
 11
1208.9887440369
 21
348.123496082
  0
LINE
  5
6F6
100
AcDbEntity
  8
0
100
AcDbLine
 62
7
  6
CONTINUOUS
 10
1204.4054138825
 20
348.123496082
 11
1202.7387440369
 21
348.123496082
  0
LINE
  5
6F7
100
AcDbEntity
  8
0
100
AcDbLine
 62
7
  6
CONTINUOUS
 10
1321.0720789597
 20
348.523496082
 11
1319.2720789597
 21
348.523496082
  0
LINE
  5
6F8
100
AcDbEntity
  8
0
100
AcDbLine
 62
7
  6
CONTINUOUS
 10
1313.7905399288
 20
348.523496082
 11
1311.7120789597
 21
348.523496082
  0
LINE
  5
6F9
100
AcDbEntity
  8
0
100
AcDbLine
 62
7
  6
CONTINUOUS
 10
1299.4720789597
 20
348.523496082
 11
1294.6120789597
 21
348.523496082
  0
LINE
  5
6FA
100
AcDbEntity
  8
0
100
AcDbLine
 62
7
  6
CONTINUOUS
 10
1573.0720789597
 20
348.623496082
 11
1621.0720789597
 21
348.623496082
  0
LINE
  5
6FB
100
AcDbEntity
  8
0
100
AcDbLine
 62
7
  6
CONTINUOUS
 10
1627.0720789597
 20
348.623496082
 11
1672.0720789597
 21
348.623496082
  0
LINE
  5
6FC
100
AcDbEntity
  8
BEZUGSACHSEN
100
AcDbLine
 62
7
  6
CONTINUOUS
 10
1738.8881319783
 20
350.873496082
 11
1705.8220789597
 21
350.873496082
  0
LINE
  5
6FD
100
AcDbEntity
  8
BEZUGSACHSEN
100
AcDbLine
 62
7
  6
CONTINUOUS
 10
1016.3220789597
 20
350.873496082
 11
983.2560259412
 21
350.873496082
  0
LINE
  5
6FE
100
AcDbEntity
  8
0
100
AcDbLine
 62
7
  6
CONTINUOUS
 10
1195.0720789597
 20
353.431260146
 11
1327.0720789597
 21
353.431260146
  0
LINE
  5
6FF
100
AcDbEntity
  8
0
100
AcDbLine
 62
7
  6
CONTINUOUS
 10
1395.0720789597
 20
353.431260146
 11
1527.0720789597
 21
353.431260146
  0
LINE
  5
700
100
AcDbEntity
  8
0
100
AcDbLine
 62
7
  6
CONTINUOUS
 10
1573.0720789597
 20
353.7888605858
 11
1621.0720789597
 21
353.7888605858
  0
LINE
  5
701
100
AcDbEntity
  8
0
100
AcDbLine
 62
7
  6
CONTINUOUS
 10
1627.0720789597
 20
353.7888605858
 11
1679.0720789597
 21
353.7888605858
  0
LINE
  5
702
100
AcDbEntity
  8
0
100
AcDbLine
 62
7
  6
CONTINUOUS
 10
1147.0720789597
 20
355.123496082
 11
1043.0720789597
 21
355.123496082
  0
LINE
  5
703
100
AcDbEntity
  8
0
100
AcDbLine
 62
7
  6
CONTINUOUS
 10
1573.0720789597
 20
355.123496082
 11
1621.0720789597
 21
355.123496082
  0
LINE
  5
704
100
AcDbEntity
  8
0
100
AcDbLine
 62
7
  6
CONTINUOUS
 10
1627.0720789597
 20
355.123496082
 11
1679.0720789597
 21
355.123496082
  0
LINE
  5
705
100
AcDbEntity
  8
BEZUGSACHSEN
100
AcDbLine
 62
7
  6
CONTINUOUS
 10
1006.0720789597
 20
358.123496082
 11
1028.0720789597
 21
358.123496082
  0
LINE
  5
706
100
AcDbEntity
  8
BEZUGSACHSEN
100
AcDbLine
 62
7
  6
CONTINUOUS
 10
1694.0720789597
 20
358.623496082
 11
1708.0720789597
 21
358.623496082
  0
LINE
  5
707
100
AcDbEntity
  8
0
100
AcDbLine
 62
7
  6
CONTINUOUS
 10
1693.0720789597
 20
361.623496082
 11
1693.8220789597
 21
361.623496082
  0
LINE
  5
708
100
AcDbEntity
  8
0
100
AcDbLine
 62
7
  6
CONTINUOUS
 10
1696.9470788405
 20
361.623496082
 11
1697.8220790789
 21
361.623496082
  0
LINE
  5
709
100
AcDbEntity
  8
0
100
AcDbLine
 62
7
  6
CONTINUOUS
 10
1700.8220787213
 20
361.623496082
 11
1701.3220789597
 21
361.623496082
  0
LINE
  5
70A
100
AcDbEntity
  8
0
100
AcDbLine
 62
7
  6
CONTINUOUS
 10
1704.3220789597
 20
361.623496082
 11
1707.3220789597
 21
361.623496082
  0
LINE
  5
70B
100
AcDbEntity
  8
0
100
AcDbLine
 62
7
  6
CONTINUOUS
 10
1002.5720789597
 20
362.123496082
 11
1003.0470789597
 21
362.123496082
  0
LINE
  5
70C
100
AcDbEntity
  8
0
100
AcDbLine
 62
7
  6
CONTINUOUS
 10
1004.9470789597
 20
362.123496082
 11
1005.6595789597
 21
362.123496082
  0
LINE
  5
70D
100
AcDbEntity
  8
0
100
AcDbLine
 62
7
  6
CONTINUOUS
 10
1007.4012457774
 20
362.123496082
 11
1010.2512453244
 21
362.123496082
  0
LINE
  5
70E
100
AcDbEntity
  8
0
100
AcDbLine
 62
7
  6
CONTINUOUS
 10
1013.8929125951
 20
362.123496082
 11
1014.6054125951
 21
362.123496082
  0
LINE
  5
70F
100
AcDbEntity
  8
0
100
AcDbLine
 62
7
  6
CONTINUOUS
 10
1017.6137453244
 20
362.123496082
 11
1017.9304116891
 21
362.123496082
  0
LINE
  5
710
100
AcDbEntity
  8
0
100
AcDbLine
 62
7
  6
CONTINUOUS
 10
1019.8304116891
 20
362.123496082
 11
1020.3054116891
 21
362.123496082
  0
LINE
  5
711
100
AcDbEntity
  8
0
100
AcDbLine
 62
7
  6
CONTINUOUS
 10
1022.2845789597
 20
362.123496082
 11
1022.8387462304
 21
362.123496082
  0
LINE
  5
712
100
AcDbEntity
  8
0
100
AcDbLine
 62
7
  6
CONTINUOUS
 10
1024.7387462304
 20
362.123496082
 11
1025.2137462304
 21
362.123496082
  0
LINE
  5
713
100
AcDbEntity
  8
0
100
AcDbLine
 62
7
  6
CONTINUOUS
 10
1027.5887462304
 20
362.123496082
 11
1028.0637462304
 21
362.123496082
  0
LINE
  5
714
100
AcDbEntity
  8
0
100
AcDbLine
 62
7
  6
CONTINUOUS
 10
1029.8054116891
 20
362.123496082
 11
1030.4387462304
 21
362.123496082
  0
LINE
  5
715
100
AcDbEntity
  8
0
100
AcDbLine
 62
7
  6
CONTINUOUS
 10
1707.3220789597
 20
362.3894535269
 11
1705.0720789597
 21
362.3894535269
  0
LINE
  5
716
100
AcDbEntity
  8
0
100
AcDbLine
 62
7
  6
CONTINUOUS
 10
1701.3220789597
 20
362.3894535269
 11
1700.8220787213
 21
362.3894535269
  0
LINE
  5
717
100
AcDbEntity
  8
0
100
AcDbLine
 62
7
  6
CONTINUOUS
 10
1030.3595789597
 20
362.5277514096
 11
1029.8845789597
 21
362.5277514096
  0
LINE
  5
718
100
AcDbEntity
  8
0
100
AcDbLine
 62
7
  6
CONTINUOUS
 10
1017.9304116891
 20
362.6086024638
 11
1017.6137453244
 21
362.6086024638
  0
LINE
  5
719
100
AcDbEntity
  8
0
100
AcDbLine
 62
7
  6
CONTINUOUS
 10
1014.6054125951
 20
362.6086024638
 11
1013.8929125951
 21
362.6086024638
  0
LINE
  5
71A
100
AcDbEntity
  8
0
100
AcDbLine
 62
7
  6
CONTINUOUS
 10
1010.2512453244
 20
362.6086024638
 11
1007.8762457774
 21
362.6086024638
  0
LINE
  5
71B
100
AcDbEntity
  8
0
100
AcDbLine
 62
7
  6
CONTINUOUS
 10
1005.6595789597
 20
362.6086024638
 11
1004.9470789597
 21
362.6086024638
  0
LINE
  5
71C
100
AcDbEntity
  8
0
100
AcDbLine
 62
7
  6
CONTINUOUS
 10
1029.0929116891
 20
363.0128577913
 11
1028.6970789597
 21
363.0128577913
  0
LINE
  5
71D
100
AcDbEntity
  8
0
100
AcDbLine
 62
7
  6
CONTINUOUS
 10
1015.7137453244
 20
363.0937088455
 11
1015.2387453244
 21
363.0937088455
  0
LINE
  5
71E
100
AcDbEntity
  8
0
100
AcDbLine
 62
7
  6
CONTINUOUS
 10
1006.7679121421
 20
363.0937088455
 11
1006.2929123686
 21
363.0937088455
  0
LINE
  5
71F
100
AcDbEntity
  8
0
100
AcDbLine
 62
7
  6
CONTINUOUS
 10
1010.8845789597
 20
363.4979641165
 11
1011.9929125951
 21
363.4979641165
  0
LINE
  5
720
100
AcDbEntity
  8
0
100
AcDbLine
 62
7
  6
CONTINUOUS
 10
1020.3054116891
 20
363.8213684465
 11
1021.6512462304
 21
363.8213684465
  0
LINE
  5
721
100
AcDbEntity
  8
0
100
AcDbLine
 62
7
  6
CONTINUOUS
 10
1011.9929125951
 20
363.9022195007
 11
1010.8845789597
 21
363.9022195007
  0
LINE
  5
722
100
AcDbEntity
  8
0
100
AcDbLine
 62
7
  6
CONTINUOUS
 10
1007.8762457774
 20
363.9022195007
 11
1009.9345789597
 21
363.9022195007
  0
LINE
  5
723
100
AcDbEntity
  8
0
100
AcDbLine
 62
7
  6
CONTINUOUS
 10
1029.9637462304
 20
363.9022195007
 11
1030.2804116891
 21
363.9022195007
  0
LINE
  5
724
100
AcDbEntity
  8
0
100
AcDbLine
 62
7
  6
CONTINUOUS
 10
1030.2804116891
 20
364.2256237175
 11
1029.9637462304
 21
364.2256237175
  0
LINE
  5
725
100
AcDbEntity
  8
0
100
AcDbLine
 62
7
  6
CONTINUOUS
 10
1693.8220789597
 20
364.3043471839
 11
1695.9470789001
 21
364.3043471839
  0
LINE
  5
726
100
AcDbEntity
  8
0
100
AcDbLine
 62
7
  6
CONTINUOUS
 10
1021.8095789597
 20
364.3064747717
 11
1020.3054116891
 21
364.3064747717
  0
LINE
  5
727
100
AcDbEntity
  8
0
100
AcDbLine
 62
7
  6
CONTINUOUS
 10
1009.9345789597
 20
364.3873258258
 11
1007.8762457774
 21
364.3873258258
  0
LINE
  5
728
100
AcDbEntity
  8
0
100
AcDbLine
 62
7
  6
CONTINUOUS
 10
1006.2929123686
 20
364.9532832052
 11
1006.7679121421
 21
364.9532832052
  0
LINE
  5
729
100
AcDbEntity
  8
0
100
AcDbLine
 62
7
  6
CONTINUOUS
 10
1015.2387453244
 20
364.9532832052
 11
1015.7137453244
 21
364.9532832052
  0
LINE
  5
72A
100
AcDbEntity
  8
0
100
AcDbLine
 62
7
  6
CONTINUOUS
 10
1028.7762462304
 20
365.0341344859
 11
1029.1720789597
 21
365.0341344859
  0
LINE
  5
72B
100
AcDbEntity
  8
0
100
AcDbLine
 62
7
  6
CONTINUOUS
 10
1696.1970788405
 20
365.0703045394
 11
1693.8220789597
 21
365.0703045394
  0
LINE
  5
72C
100
AcDbEntity
  8
0
100
AcDbLine
 62
7
  6
CONTINUOUS
 10
1004.9470789597
 20
365.4383897568
 11
1005.6595789597
 21
365.4383897568
  0
LINE
  5
72D
100
AcDbEntity
  8
0
100
AcDbLine
 62
7
  6
CONTINUOUS
 10
1007.8762457774
 20
365.4383897568
 11
1010.2512453244
 21
365.4383897568
  0
LINE
  5
72E
100
AcDbEntity
  8
0
100
AcDbLine
 62
7
  6
CONTINUOUS
 10
1013.8929125951
 20
365.4383897568
 11
1014.6054125951
 21
365.4383897568
  0
LINE
  5
72F
100
AcDbEntity
  8
0
100
AcDbLine
 62
7
  6
CONTINUOUS
 10
1020.3054116891
 20
365.519240811
 11
1021.8095789597
 21
365.519240811
  0
LINE
  5
730
100
AcDbEntity
  8
0
100
AcDbLine
 62
7
  6
CONTINUOUS
 10
1023.4720789597
 20
365.519240811
 11
1024.7387462304
 21
365.519240811
  0
LINE
  5
731
100
AcDbEntity
  8
0
100
AcDbLine
 62
7
  6
CONTINUOUS
 10
1025.2137462304
 20
365.519240811
 11
1026.4804116891
 21
365.519240811
  0
LINE
  5
732
100
AcDbEntity
  8
0
100
AcDbLine
 62
7
  6
CONTINUOUS
 10
1029.9637462304
 20
365.519240811
 11
1030.2804116891
 21
365.519240811
  0
LINE
  5
733
100
AcDbEntity
  8
0
100
AcDbLine
 62
7
  6
CONTINUOUS
 10
1544.2079810204
 20
365.623496082
 11
1390.4708938636
 21
365.623496082
  0
LINE
  5
734
100
AcDbEntity
  8
0
100
AcDbLine
 62
7
  6
CONTINUOUS
 10
1331.6732640559
 20
365.623496082
 11
1177.9361768991
 21
365.623496082
  0
LINE
  5
735
100
AcDbEntity
  8
RUNDUNGEN
100
AcDbLine
 62
7
  6
CONTINUOUS
 10
1331.6732640559
 20
365.623496082
 11
1177.9361768991
 21
365.623496082
  0
LINE
  5
736
100
AcDbEntity
  8
0
100
AcDbLine
 62
7
  6
CONTINUOUS
 10
1030.2012462304
 20
365.923496082
 11
1030.0429116891
 21
365.923496082
  0
LINE
  5
737
100
AcDbEntity
  8
0
100
AcDbLine
 62
7
  6
CONTINUOUS
 10
1028.0637462304
 20
365.923496082
 11
1027.5887462304
 21
365.923496082
  0
LINE
  5
738
100
AcDbEntity
  8
0
100
AcDbLine
 62
7
  6
CONTINUOUS
 10
1026.4804116891
 20
365.923496082
 11
1023.4720789597
 21
365.923496082
  0
LINE
  5
739
100
AcDbEntity
  8
0
100
AcDbLine
 62
7
  6
CONTINUOUS
 10
1021.7304116891
 20
365.923496082
 11
1019.8304116891
 21
365.923496082
  0
LINE
  5
73A
100
AcDbEntity
  8
0
100
AcDbLine
 62
7
  6
CONTINUOUS
 10
1019.1970789597
 20
365.923496082
 11
1018.7220789597
 21
365.923496082
  0
LINE
  5
73B
100
AcDbEntity
  8
0
100
AcDbLine
 62
7
  6
CONTINUOUS
 10
1016.8220789597
 20
365.923496082
 11
1016.3470789597
 21
365.923496082
  0
LINE
  5
73C
100
AcDbEntity
  8
0
100
AcDbLine
 62
7
  6
CONTINUOUS
 10
1014.6054125951
 20
365.923496082
 11
1013.8929125951
 21
365.923496082
  0
LINE
  5
73D
100
AcDbEntity
  8
0
100
AcDbLine
 62
7
  6
CONTINUOUS
 10
1010.2512453244
 20
365.923496082
 11
1007.4012457774
 21
365.923496082
  0
LINE
  5
73E
100
AcDbEntity
  8
0
100
AcDbLine
 62
7
  6
CONTINUOUS
 10
1005.6595789597
 20
365.923496082
 11
1004.9470789597
 21
365.923496082
  0
LINE
  5
73F
100
AcDbEntity
  8
0
100
AcDbLine
 62
7
  6
CONTINUOUS
 10
1003.0470789597
 20
365.923496082
 11
1002.5720789597
 21
365.923496082
  0
LINE
  5
740
100
AcDbEntity
  8
0
100
AcDbLine
 62
7
  6
CONTINUOUS
 10
1705.0720789597
 20
366.8575387265
 11
1707.3220789597
 21
366.8575387265
  0
LINE
  5
741
100
AcDbEntity
  8
0
100
AcDbLine
 62
7
  6
CONTINUOUS
 10
1693.8220789597
 20
366.9851982857
 11
1696.1970788405
 21
366.9851982857
  0
LINE
  5
742
100
AcDbEntity
  8
RUNDUNGEN
100
AcDbLine
 62
7
  6
CONTINUOUS
 10
1384.5864079273
 20
367.123496082
 11
1379.0720789597
 21
367.123496082
  0
LINE
  5
743
100
AcDbEntity
  8
RUNDUNGEN
100
AcDbLine
 62
7
  6
CONTINUOUS
 10
1343.0720789597
 20
367.123496082
 11
1337.5577499921
 21
367.123496082
  0
LINE
  5
744
100
AcDbEntity
  8
RUNDUNGEN
100
AcDbLine
 62
7
  6
CONTINUOUS
 10
1172.1267018798
 20
367.123496082
 11
1149.0720789597
 21
367.123496082
  0
LINE
  5
745
100
AcDbEntity
  8
0
100
AcDbLine
 62
7
  6
CONTINUOUS
 10
1149.0720789597
 20
367.123496082
 11
1172.1267018798
 21
367.123496082
  0
LINE
  5
746
100
AcDbEntity
  8
0
100
AcDbLine
 62
7
  6
CONTINUOUS
 10
1337.5577499921
 20
367.123496082
 11
1343.0720789597
 21
367.123496082
  0
LINE
  5
747
100
AcDbEntity
  8
0
100
AcDbLine
 62
7
  6
CONTINUOUS
 10
1379.0720789597
 20
367.123496082
 11
1384.5864079273
 21
367.123496082
  0
LINE
  5
748
100
AcDbEntity
  8
0
100
AcDbLine
 62
7
  6
CONTINUOUS
 10
1707.3220789597
 20
367.623496082
 11
1704.3220789597
 21
367.623496082
  0
LINE
  5
749
100
AcDbEntity
  8
0
100
AcDbLine
 62
7
  6
CONTINUOUS
 10
1703.3220791981
 20
367.623496082
 11
1702.5720791981
 21
367.623496082
  0
LINE
  5
74A
100
AcDbEntity
  8
0
100
AcDbLine
 62
7
  6
CONTINUOUS
 10
1699.5720791981
 20
367.623496082
 11
1698.8220788405
 21
367.623496082
  0
LINE
  5
74B
100
AcDbEntity
  8
0
100
AcDbLine
 62
7
  6
CONTINUOUS
 10
1696.0720789597
 20
367.623496082
 11
1693.0720789597
 21
367.623496082
  0
LINE
  5
74C
100
AcDbEntity
  8
BEZUGSACHSEN
100
AcDbLine
 62
7
  6
CONTINUOUS
 10
1028.0720789597
 20
370.123496082
 11
1006.0720789597
 21
370.123496082
  0
LINE
  5
74D
100
AcDbEntity
  8
BEZUGSACHSEN
100
AcDbLine
 62
7
  6
CONTINUOUS
 10
1708.0720789597
 20
370.623496082
 11
1694.0720789597
 21
370.623496082
  0
LINE
  5
74E
100
AcDbEntity
  8
0
100
AcDbLine
 62
7
  6
CONTINUOUS
 10
1625.0720789597
 20
373.123496082
 11
1621.5720789597
 21
373.123496082
  0
LINE
  5
74F
100
AcDbEntity
  8
0
100
AcDbLine
 62
7
  6
CONTINUOUS
 10
1571.0720789597
 20
373.123496082
 11
1561.2250668485
 21
373.123496082
  0
LINE
  5
750
100
AcDbEntity
  8
RUNDUNGEN
100
AcDbLine
 62
7
  6
CONTINUOUS
 10
1561.2250668485
 20
373.123496082
 11
1571.0720789597
 21
373.123496082
  0
LINE
  5
751
100
AcDbEntity
  8
RUNDUNGEN
100
AcDbLine
 62
7
  6
CONTINUOUS
 10
1621.5720789597
 20
373.123496082
 11
1625.0720789597
 21
373.123496082
  0
LINE
  5
752
100
AcDbEntity
  8
BEZUGSACHSEN
100
AcDbLine
 62
7
  6
CONTINUOUS
 10
983.2267794981
 20
375.623496082
 11
1033.0720789597
 21
375.623496082
  0
LINE
  5
753
100
AcDbEntity
  8
BEZUGSACHSEN
100
AcDbLine
 62
7
  6
CONTINUOUS
 10
1689.0720789597
 20
375.623496082
 11
1738.9172077607
 21
375.623496082
  0
LINE
  5
754
100
AcDbEntity
  8
0
100
AcDbLine
 62
7
  6
CONTINUOUS
 10
1388.7607931469
 20
365.9250329781
 11
1386.2965086439
 21
366.8219591859
  0
LINE
  5
755
100
AcDbEntity
  8
0
100
AcDbLine
 62
7
  6
CONTINUOUS
 10
1702.4470789597
 20
363.1554109718
 11
1702.1970791981
 21
362.772432294
  0
LINE
  5
756
100
AcDbEntity
  8
0
100
AcDbLine
 62
7
  6
CONTINUOUS
 10
1697.1970789597
 20
364.8149854209
 11
1697.5720789597
 21
365.3256236579
  0
LINE
  5
757
100
AcDbEntity
  8
0
100
AcDbLine
 62
7
  6
CONTINUOUS
 10
1202.7387440369
 20
348.123496082
 11
1201.9054138825
 21
347.9107301313
  0
LINE
  5
758
100
AcDbEntity
  8
0
100
AcDbLine
 62
7
  6
CONTINUOUS
 10
1201.9054138825
 20
346.8469003405
 11
1202.9470789597
 21
347.0596662726
  0
LINE
  5
759
100
AcDbEntity
  8
0
100
AcDbLine
 62
7
  6
CONTINUOUS
 10
1354.0720789597
 20
380.123496082
 11
1368.0720789597
 21
380.123496082
  0
LINE
  5
75A
100
AcDbEntity
  8
BEZUGSACHSEN
100
AcDbLine
 62
7
  6
CONTINUOUS
 10
1354.0720789597
 20
380.123496082
 11
1368.0720789597
 21
380.123496082
  0
LINE
  5
75B
100
AcDbEntity
  8
BEZUGSACHSEN
100
AcDbLine
 62
7
  6
CONTINUOUS
 10
1374.0720789597
 20
381.123496082
 11
1368.0720789597
 21
381.123496082
  0
LINE
  5
75C
100
AcDbEntity
  8
0
100
AcDbLine
 62
7
  6
CONTINUOUS
 10
1354.0720789597
 20
381.123496082
 11
1348.0720789597
 21
381.123496082
  0
LINE
  5
75D
100
AcDbEntity
  8
0
100
AcDbLine
 62
7
  6
CONTINUOUS
 10
1496.3620789597
 20
347.543496082
 11
1491.8420789597
 21
352.063496082
  0
LINE
  5
75E
100
AcDbEntity
  8
RUNDUNGEN
100
AcDbLine
 62
7
  6
CONTINUOUS
 10
1573.0720789597
 20
315.123496082
 11
1573.0720789597
 21
371.123496082
  0
LINE
  5
75F
100
AcDbEntity
  8
0
100
AcDbLine
 62
7
  6
CONTINUOUS
 10
1708.4470789597
 20
363.1554109718
 11
1708.1970784829
 21
362.772432294
  0
LINE
  5
760
100
AcDbEntity
  8
0
100
AcDbLine
 62
7
  6
CONTINUOUS
 10
1030.7554116891
 20
362.6086024638
 11
1030.3595789597
 21
362.5277514096
  0
LINE
  5
761
100
AcDbEntity
  8
0
100
AcDbLine
 62
7
  6
CONTINUOUS
 10
1017.9304116891
 20
362.123496082
 11
1018.3262462304
 21
362.2043471433
  0
LINE
  5
762
100
AcDbEntity
  8
0
100
AcDbLine
 62
7
  6
CONTINUOUS
 10
1014.6054125951
 20
362.123496082
 11
1015.0012453244
 21
362.2043471433
  0
LINE
  5
763
100
AcDbEntity
  8
0
100
AcDbLine
 62
7
  6
CONTINUOUS
 10
1029.5679116891
 20
365.4383897568
 11
1029.9637462304
 21
365.519240811
  0
LINE
  5
764
100
AcDbEntity
  8
0
100
AcDbLine
 62
7
  6
CONTINUOUS
 10
1005.6595789597
 20
362.123496082
 11
1006.0554123686
 21
362.2043471433
  0
LINE
  5
765
100
AcDbEntity
  8
0
100
AcDbLine
 62
7
  6
CONTINUOUS
 10
1013.8929125951
 20
365.923496082
 11
1013.4970789597
 21
365.8426450278
  0
LINE
  5
766
100
AcDbEntity
  8
0
100
AcDbLine
 62
7
  6
CONTINUOUS
 10
1030.0429116891
 20
365.923496082
 11
1029.4887462304
 21
365.8426450278
  0
LINE
  5
767
100
AcDbEntity
  8
0
100
AcDbLine
 62
7
  6
CONTINUOUS
 10
1700.1970789597
 20
361.7511556524
 11
1700.8220787213
 21
361.623496082
  0
LINE
  5
768
100
AcDbEntity
  8
0
100
AcDbLine
 62
7
  6
CONTINUOUS
 10
1696.6970790789
 20
367.4958365227
 11
1696.0720789597
 21
367.623496082
  0
LINE
  5
769
100
AcDbEntity
  8
0
100
AcDbLine
 62
7
  6
CONTINUOUS
 10
1555.489302485
 20
314.9319756391
 11
1549.9437453839
 21
318.8150165249
  0
LINE
  5
76A
100
AcDbEntity
  8
0
100
AcDbLine
 62
7
  6
CONTINUOUS
 10
1702.9470791981
 20
362.5171130861
 11
1703.1970789597
 21
363.0277514125
  0
LINE
  5
76B
100
AcDbEntity
  8
0
100
AcDbLine
 62
7
  6
CONTINUOUS
 10
1708.9470784829
 20
362.5171130861
 11
1709.1970789597
 21
363.0277514125
  0
LINE
  5
76C
100
AcDbEntity
  8
0
100
AcDbLine
 62
7
  6
CONTINUOUS
 10
1030.4387462304
 20
362.123496082
 11
1030.7554116891
 21
362.2043471433
  0
LINE
  5
76D
100
AcDbEntity
  8
0
100
AcDbLine
 62
7
  6
CONTINUOUS
 10
1018.2470789597
 20
362.689453518
 11
1017.9304116891
 21
362.6086024638
  0
LINE
  5
76E
100
AcDbEntity
  8
0
100
AcDbLine
 62
7
  6
CONTINUOUS
 10
1014.9220789597
 20
362.689453518
 11
1014.6054125951
 21
362.6086024638
  0
LINE
  5
76F
100
AcDbEntity
  8
0
100
AcDbLine
 62
7
  6
CONTINUOUS
 10
1005.9762455509
 20
362.689453518
 11
1005.6595789597
 21
362.6086024638
  0
LINE
  5
770
100
AcDbEntity
  8
0
100
AcDbLine
 62
7
  6
CONTINUOUS
 10
1013.5762453244
 20
365.3575387026
 11
1013.8929125951
 21
365.4383897568
  0
LINE
  5
771
100
AcDbEntity
  8
0
100
AcDbLine
 62
7
  6
CONTINUOUS
 10
1004.6304123686
 20
365.3575387026
 11
1004.9470789597
 21
365.4383897568
  0
LINE
  5
772
100
AcDbEntity
  8
0
100
AcDbLine
 62
7
  6
CONTINUOUS
 10
1004.9470789597
 20
365.923496082
 11
1004.5512455509
 21
365.8426450278
  0
LINE
  5
773
100
AcDbEntity
  8
0
100
AcDbLine
 62
7
  6
CONTINUOUS
 10
1707.9470794366
 20
367.4958365227
 11
1707.3220789597
 21
367.623496082
  0
LINE
  5
774
100
AcDbEntity
  8
0
100
AcDbLine
 62
7
  6
CONTINUOUS
 10
1700.8220787213
 20
362.3894535269
 11
1700.3220791981
 21
362.5171130861
  0
LINE
  5
775
100
AcDbEntity
  8
0
100
AcDbLine
 62
7
  6
CONTINUOUS
 10
1707.3220789597
 20
366.8575387265
 11
1707.8220784829
 21
366.7298791672
  0
LINE
  5
776
100
AcDbEntity
  8
RUNDUNGEN
100
AcDbLine
 62
7
  6
CONTINUOUS
 10
1621.0720789597
 20
372.623496082
 11
1621.0720789597
 21
313.623496082
  0
LINE
  5
777
100
AcDbEntity
  8
RUNDUNGEN
100
AcDbLine
 62
7
  6
CONTINUOUS
 10
1627.0720789597
 20
371.123496082
 11
1627.0720789597
 21
315.123496082
  0
LINE
  5
778
100
AcDbEntity
  8
0
100
AcDbLine
 62
7
  6
CONTINUOUS
 10
1696.9470788405
 20
365.8362618949
 11
1696.8220789597
 21
365.4532832171
  0
LINE
  5
779
100
AcDbEntity
  8
0
100
AcDbLine
 62
7
  6
CONTINUOUS
 10
1697.5720789597
 20
365.3256236579
 11
1697.6970788405
 21
365.7086023356
  0
LINE
  5
77A
100
AcDbEntity
  8
0
100
AcDbLine
 62
7
  6
CONTINUOUS
 10
1745.8041297673
 20
320.5516993123
 11
1740.6494292289
 21
311.623496082
  0
LINE
  5
77B
100
AcDbEntity
  8
0
100
AcDbLine
 62
7
  6
CONTINUOUS
 10
1696.1970788405
 20
366.9851982857
 11
1696.5720788405
 21
366.8575387265
  0
LINE
  5
77C
100
AcDbEntity
  8
0
100
AcDbLine
 62
7
  6
CONTINUOUS
 10
1703.1970789597
 20
363.0277514125
 11
1703.3220791981
 21
363.6660492088
  0
LINE
  5
77D
100
AcDbEntity
  8
0
100
AcDbLine
 62
7
  6
CONTINUOUS
 10
1709.1970789597
 20
363.0277514125
 11
1709.3220784829
 21
363.6660492088
  0
LINE
  5
77E
100
AcDbEntity
  8
0
100
AcDbLine
 62
7
  6
CONTINUOUS
 10
1702.5720791981
 20
363.6660492088
 11
1702.4470789597
 21
363.1554109718
  0
LINE
  5
77F
100
AcDbEntity
  8
0
100
AcDbLine
 62
7
  6
CONTINUOUS
 10
1708.5720784829
 20
363.6660492088
 11
1708.4470789597
 21
363.1554109718
  0
LINE
  5
780
100
AcDbEntity
  8
0
100
AcDbLine
 62
7
  6
CONTINUOUS
 10
1699.6970787213
 20
362.0064748044
 11
1700.1970789597
 21
361.7511556524
  0
LINE
  5
781
100
AcDbEntity
  8
0
100
AcDbLine
 62
7
  6
CONTINUOUS
 10
1708.4470789597
 20
367.2405174042
 11
1707.9470794366
 21
367.4958365227
  0
LINE
  5
782
100
AcDbEntity
  8
RUNDUNGEN
100
AcDbLine
 62
7
  6
CONTINUOUS
 10
1682.0720789597
 20
370.623496082
 11
1682.0720789597
 21
315.623496082
  0
LINE
  5
783
100
AcDbEntity
  8
0
100
AcDbLine
 62
7
  6
CONTINUOUS
 10
1693.0720789597
 20
367.623496082
 11
1693.0720789597
 21
361.623496082
  0
LINE
  5
784
100
AcDbEntity
  8
0
100
AcDbLine
 62
7
  6
CONTINUOUS
 10
1693.8220789597
 20
361.623496082
 11
1693.8220789597
 21
364.3043471839
  0
LINE
  5
785
100
AcDbEntity
  8
0
100
AcDbLine
 62
7
  6
CONTINUOUS
 10
1693.8220789597
 20
365.0703045394
 11
1693.8220789597
 21
366.9851982857
  0
LINE
  5
786
100
AcDbEntity
  8
0
100
AcDbLine
 62
7
  6
CONTINUOUS
 10
1696.9470788405
 20
366.2192409302
 11
1696.9470788405
 21
365.8362618949
  0
LINE
  5
787
100
AcDbEntity
  8
0
100
AcDbLine
 62
7
  6
CONTINUOUS
 10
1697.6970788405
 20
365.7086023356
 11
1697.6970788405
 21
366.2192409302
  0
LINE
  5
788
100
AcDbEntity
  8
0
100
AcDbLine
 62
7
  6
CONTINUOUS
 10
1698.8220788405
 20
367.623496082
 11
1698.8220788405
 21
363.6660492088
  0
LINE
  5
789
100
AcDbEntity
  8
0
100
AcDbLine
 62
7
  6
CONTINUOUS
 10
1699.5720791981
 20
363.6660492088
 11
1699.5720791981
 21
367.623496082
  0
LINE
  5
78A
100
AcDbEntity
  8
0
100
AcDbLine
 62
7
  6
CONTINUOUS
 10
1702.5720791981
 20
367.623496082
 11
1702.5720791981
 21
363.6660492088
  0
LINE
  5
78B
100
AcDbEntity
  8
0
100
AcDbLine
 62
7
  6
CONTINUOUS
 10
1703.3220791981
 20
363.6660492088
 11
1703.3220791981
 21
367.623496082
  0
LINE
  5
78C
100
AcDbEntity
  8
0
100
AcDbLine
 62
7
  6
CONTINUOUS
 10
1704.3220789597
 20
367.623496082
 11
1704.3220789597
 21
361.623496082
  0
LINE
  5
78D
100
AcDbEntity
  8
0
100
AcDbLine
 62
7
  6
CONTINUOUS
 10
1700.3220791981
 20
362.5171130861
 11
1699.9470791981
 21
362.772432294
  0
LINE
  5
78E
100
AcDbEntity
  8
0
100
AcDbLine
 62
7
  6
CONTINUOUS
 10
1707.8220784829
 20
366.7298791672
 11
1708.1970784829
 21
366.4745600487
  0
LINE
  5
78F
100
AcDbEntity
  8
0
100
AcDbLine
 62
7
  6
CONTINUOUS
 10
1697.1970789597
 20
367.112857845
 11
1696.6970790789
 21
367.4958365227
  0
LINE
  5
790
100
AcDbEntity
  8
0
100
AcDbLine
 62
7
  6
CONTINUOUS
 10
1705.0720789597
 20
362.3894535269
 11
1705.0720789597
 21
366.8575387265
  0
LINE
  5
791
100
AcDbEntity
  8
0
100
AcDbLine
 62
7
  6
CONTINUOUS
 10
1708.5720784829
 20
365.5809427764
 11
1708.5720784829
 21
363.6660492088
  0
LINE
  5
792
100
AcDbEntity
  8
0
100
AcDbLine
 62
7
  6
CONTINUOUS
 10
1709.3220784829
 20
363.6660492088
 11
1709.3220784829
 21
365.5809427764
  0
LINE
  5
793
100
AcDbEntity
  8
BEZUGSACHSEN
100
AcDbLine
 62
7
  6
CONTINUOUS
 10
1717.8220789597
 20
335.373496082
 11
1717.8220789597
 21
350.873496082
  0
LINE
  5
794
100
AcDbEntity
  8
0
100
AcDbLine
 62
7
  6
CONTINUOUS
 10
1699.1970791981
 20
362.5171130861
 11
1699.6970787213
 21
362.0064748044
  0
LINE
  5
795
100
AcDbEntity
  8
0
100
AcDbLine
 62
7
  6
CONTINUOUS
 10
1696.5720788405
 20
366.8575387265
 11
1696.8220789597
 21
366.602219608
  0
LINE
  5
796
100
AcDbEntity
  8
0
100
AcDbLine
 62
7
  6
CONTINUOUS
 10
1708.9470784829
 20
366.7298791672
 11
1708.4470789597
 21
367.2405174042
  0
LINE
  5
797
100
AcDbEntity
  8
0
100
AcDbLine
 62
7
  6
CONTINUOUS
 10
1697.5720789597
 20
366.602219608
 11
1697.1970789597
 21
367.112857845
  0
LINE
  5
798
100
AcDbEntity
  8
0
100
AcDbLine
 62
7
  6
CONTINUOUS
 10
1699.9470791981
 20
362.772432294
 11
1699.6970787213
 21
363.1554109718
  0
LINE
  5
799
100
AcDbEntity
  8
0
100
AcDbLine
 62
7
  6
CONTINUOUS
 10
1697.8220790789
 20
361.623496082
 11
1696.6970790789
 21
364.5596663024
  0
LINE
  5
79A
100
AcDbEntity
  8
0
100
AcDbLine
 62
7
  6
CONTINUOUS
 10
1695.9470789001
 20
364.3043471839
 11
1696.9470788405
 21
361.623496082
  0
LINE
  5
79B
100
AcDbEntity
  8
0
100
AcDbLine
 62
7
  6
CONTINUOUS
 10
1696.8220789597
 20
366.602219608
 11
1696.9470788405
 21
366.2192409302
  0
LINE
  5
79C
100
AcDbEntity
  8
0
100
AcDbLine
 62
7
  6
CONTINUOUS
 10
1697.6970788405
 20
366.2192409302
 11
1697.5720789597
 21
366.602219608
  0
LINE
  5
79D
100
AcDbEntity
  8
0
100
AcDbLine
 62
7
  6
CONTINUOUS
 10
1699.6970787213
 20
363.1554109718
 11
1699.5720791981
 21
363.6660492088
  0
LINE
  5
79E
100
AcDbEntity
  8
0
100
AcDbLine
 62
7
  6
CONTINUOUS
 10
1698.8220788405
 20
363.6660492088
 11
1698.9470790789
 21
363.0277514125
  0
LINE
  5
79F
100
AcDbEntity
  8
BEZUGSACHSEN
100
AcDbLine
 62
7
  6
CONTINUOUS
 10
1734.8220789597
 20
335.373496082
 11
1734.8220789597
 21
350.873496082
  0
LINE
  5
7A0
100
AcDbEntity
  8
BEZUGSACHSEN
100
AcDbLine
 62
7
  6
CONTINUOUS
 10
1746.0720789597
 20
364.6952928517
 11
1746.0720789597
 21
360.7569160566
  0
LINE
  5
7A1
100
AcDbEntity
  8
0
100
AcDbLine
 62
7
  6
CONTINUOUS
 10
1746.0720789597
 20
325.4900761074
 11
1746.0720789597
 21
321.5516993123
  0
LINE
  5
7A2
100
AcDbEntity
  8
0
100
AcDbLine
 62
7
  6
CONTINUOUS
 10
1708.1970784829
 20
366.4745600487
 11
1708.4470789597
 21
366.0915810134
  0
LINE
  5
7A3
100
AcDbEntity
  8
BEZUGSACHSEN
100
AcDbLine
 62
7
  6
CONTINUOUS
 10
1740.6494292289
 20
374.623496082
 11
1745.8041297673
 21
365.6952928517
  0
LINE
  5
7A4
100
AcDbEntity
  8
0
100
AcDbLine
 62
7
  6
CONTINUOUS
 10
1698.9470790789
 20
363.0277514125
 11
1699.1970791981
 21
362.5171130861
  0
LINE
  5
7A5
100
AcDbEntity
  8
0
100
AcDbLine
 62
7
  6
CONTINUOUS
 10
1709.1970789597
 20
366.2192409302
 11
1708.9470784829
 21
366.7298791672
  0
LINE
  5
7A6
100
AcDbEntity
  8
0
100
AcDbLine
 62
7
  6
CONTINUOUS
 10
1708.4470789597
 20
366.0915810134
 11
1708.5720784829
 21
365.5809427764
  0
LINE
  5
7A7
100
AcDbEntity
  8
0
100
AcDbLine
 62
7
  6
CONTINUOUS
 10
1709.3220784829
 20
365.5809427764
 11
1709.1970789597
 21
366.2192409302
  0
LINE
  5
7A8
100
AcDbEntity
  8
RUNDUNGEN
100
AcDbLine
 62
7
  6
CONTINUOUS
 10
-154.561010361
 20
-137.702847436
 11
-154.561010361
 21
-105.702847436
  0
LINE
  5
7A9
100
AcDbEntity
  8
RUNDUNGEN
100
AcDbLine
 62
7
  6
CONTINUOUS
 10
-99.561010361
 20
-149.7025192316
 11
-99.561010361
 21
-93.7031756404
  0
LINE
  5
7AA
100
AcDbEntity
  8
RUNDUNGEN
100
AcDbLine
 62
7
  6
CONTINUOUS
 10
-93.561010361
 20
-151.2025016219
 11
-93.561010361
 21
-92.2031932501
  0
LINE
  5
7AB
100
AcDbEntity
  8
BEZUGSACHSEN
100
AcDbLine
 62
7
  6
CONTINUOUS
 10
-212.8180614464
 20
-108.5208635682
 11
-207.1367425614
 21
-103.2381825618
  0
LINE
  5
7AC
100
AcDbEntity
  8
BEZUGSACHSEN
100
AcDbLine
 62
7
  6
CONTINUOUS
 10
-207.1367425614
 20
-140.1675123102
 11
-212.8180614464
 21
-134.8848313038
  0
LINE
  5
7AD
100
AcDbEntity
  8
RUNDUNGEN
100
AcDbLine
 62
7
  6
CONTINUOUS
 10
-45.561010361
 20
-93.7029377842
 11
-45.561010361
 21
-149.702847436
  0
LINE
  5
7AE
100
AcDbEntity
  8
RUNDUNGEN
100
AcDbLine
 62
7
  6
CONTINUOUS
 10
-8.561010361
 20
-140.0530975132
 11
-8.561010361
 21
-140.0386300486
  0
LINE
  5
7AF
100
AcDbEntity
  8
0
100
AcDbLine
 62
7
  6
CONTINUOUS
 10
0.438989639
 20
-99.2029137575
 11
0.438989639
 21
-101.702847436
  0
LWPOLYLINE
  5
7B0
100
AcDbEntity
  8
RUNDUNGEN
100
AcDbPolyline
 62
7
  6
CONTINUOUS
 90
3
 70
0
 10
-8.5814256095
 20
-140.3999055688
 10
-8.5617113377
 20
-140.1162926151
 10
-8.5610294897
 20
-140.0531372251
  0
LWPOLYLINE
  5
7B1
100
AcDbEntity
  8
RUNDUNGEN
100
AcDbPolyline
 62
7
  6
CONTINUOUS
 90
13
 70
0
 10
-8.5939046042
 20
-140.1175092102
 10
-8.5926986874
 20
-140.1140522531
 10
-8.5806763685
 20
-140.0831159571
 10
-8.5555493046
 20
-140.0262767503
 10
-8.5154499037
 20
-139.9450958839
 10
-8.458916572
 20
-139.8411438017
 10
-8.3845368208
 20
-139.7154698817
 10
-8.2926370474
 20
-139.5714112856
 10
-8.1833212756
 20
-139.4111876062
 10
-8.0596828504
 20
-139.2406108024
 10
-7.9261672047
 20
-139.0661078707
 10
-7.7848417661
 20
-138.8901645712
 10
-7.639820388
 20
-138.7174213828
  0
LINE
  5
7B2
100
AcDbEntity
  8
0
100
AcDbLine
 62
7
  6
CONTINUOUS
 10
31.148989639
 20
-101.702847436
 11
31.148989639
 21
-100.702847436
  0
LINE
  5
7B3
100
AcDbEntity
  8
0
100
AcDbLine
 62
7
  6
CONTINUOUS
 10
35.668989639
 20
-101.702847436
 11
35.668989639
 21
-100.702847436
  0
LINE
  5
7B4
100
AcDbEntity
  8
0
100
AcDbLine
 62
7
  6
CONTINUOUS
 10
40.188989639
 20
-101.702847436
 11
40.188989639
 21
-100.702847436
  0
LWPOLYLINE
  5
7B5
100
AcDbEntity
  8
RUNDUNGEN
100
AcDbPolyline
 62
7
  6
CONTINUOUS
 90
3
 70
0
 10
-8.4908111129
 20
-139.8986284463
 10
-8.4227841829
 20
-139.7788431279
 10
-8.334682242
 20
-139.6360595183
  0
LWPOLYLINE
  5
7B6
100
AcDbEntity
  8
RUNDUNGEN
100
AcDbPolyline
 62
7
  6
CONTINUOUS
 90
6
 70
0
 10
-8.334682242
 20
-139.6360595183
 10
-8.2278165979
 20
-139.4751784069
 10
-8.1036043541
 20
-139.3001026805
 10
-7.9659053966
 20
-139.1171262766
 10
-7.8207963067
 20
-138.9341607795
 10
-7.6691136515
 20
-138.7517372493
  0
LINE
  5
7B7
100
AcDbEntity
  8
RUNDUNGEN
100
AcDbLine
 62
7
  6
CONTINUOUS
 10
-7.6691136515
 20
-138.7517372493
 11
-7.4907170439
 21
-138.546887222
  0
LINE
  5
7B8
100
AcDbEntity
  8
RUNDUNGEN
100
AcDbLine
 62
7
  6
CONTINUOUS
 10
-7.5136925985
 20
-138.5727380156
 11
-7.3379881113
 21
-138.3787468185
  0
LINE
  5
7B9
100
AcDbEntity
  8
RUNDUNGEN
100
AcDbLine
 62
7
  6
CONTINUOUS
 10
-7.3541600165
 20
-138.3962586645
 11
-7.1814407871
 21
-138.2125750034
  0
LINE
  5
7BA
100
AcDbEntity
  8
RUNDUNGEN
100
AcDbLine
 62
7
  6
CONTINUOUS
 10
-7.1904326745
 20
-138.2219575793
 11
-7.0222949345
 21
-138.0495179726
  0
LINE
  5
7BB
100
AcDbEntity
  8
RUNDUNGEN
100
AcDbLine
 62
7
  6
CONTINUOUS
 10
-7.0204476172
 20
-138.0476587899
 11
-6.8488490905
 21
-137.8780837769
  0
LINE
  5
7BC
100
AcDbEntity
  8
RUNDUNGEN
100
AcDbLine
 62
7
  6
CONTINUOUS
 10
-6.8551809661
 20
-137.8842299838
 11
-6.6706463127
 21
-137.7083538768
  0
LINE
  5
7BD
100
AcDbEntity
  8
RUNDUNGEN
100
AcDbLine
 62
7
  6
CONTINUOUS
 10
-6.6852468175
 20
-137.7220225093
 11
-6.4877250038
 21
-137.5405552658
  0
LINE
  5
7BE
100
AcDbEntity
  8
RUNDUNGEN
100
AcDbLine
 62
7
  6
CONTINUOUS
 10
-6.5110520921
 20
-137.5616013165
 11
-6.3003480289
 21
-137.3751758539
  0
LWPOLYLINE
  5
7BF
100
AcDbEntity
  8
RUNDUNGEN
100
AcDbPolyline
 62
7
  6
CONTINUOUS
 90
18
 70
0
 10
-6.3327643553
 20
-137.403325441
 10
-6.1086795679
 20
-137.2126476868
 10
-5.9128893052
 20
-137.0534498912
 10
-5.71313883
 20
-136.8980877642
 10
-5.5097677803
 20
-136.7472330924
 10
-5.3031050447
 20
-136.6015979477
 10
-5.0934486316
 20
-136.461907398
 10
-4.8815619855
 20
-136.3291360077
 10
-4.667310032
 20
-136.203772034
 10
-4.4511467251
 20
-136.0867708177
 10
-4.232714763
 20
-135.9785717737
 10
-4.0124106588
 20
-135.8802487662
 10
-3.78960736
 20
-135.7925507638
 10
-3.5636831619
 20
-135.7163572029
 10
-3.336881802
 20
-135.6537613645
 10
-3.1089898619
 20
-135.6057747809
 10
-2.884404999
 20
-135.5740374499
 10
-2.6657760959
 20
-135.5586729043
  0
LWPOLYLINE
  5
7C0
100
AcDbEntity
  8
RUNDUNGEN
100
AcDbPolyline
 62
7
  6
CONTINUOUS
 90
17
 70
0
 10
-6.1505623998
 20
-137.2475967026
 10
-5.9645927933
 20
-137.0948210088
 10
-5.7750085439
 20
-136.9454464095
 10
-5.5819909726
 20
-136.7999603959
 10
-5.385875835
 20
-136.6589931214
 10
-5.1870119756
 20
-136.5232270727
 10
-4.9856412601
 20
-136.3932847436
 10
-4.7825258842
 20
-136.2700633257
 10
-4.5773240045
 20
-136.1538778364
 10
-4.3701921909
 20
-136.0454681808
 10
-4.1609976564
 20
-135.945352062
 10
-3.9502563892
 20
-135.8545591421
 10
-3.737247217
 20
-135.7737203374
 10
-3.5210247846
 20
-135.7034983728
 10
-3.3042678375
 20
-135.6459475095
 10
-3.0872310745
 20
-135.6020210146
 10
-2.8734172193
 20
-135.5728840386
  0
LINE
  5
7C1
100
AcDbEntity
  8
RUNDUNGEN
100
AcDbLine
 62
7
  6
CONTINUOUS
 10
-24.984044155
 20
-146.8339028658
 11
-22.3963974594
 21
-144.9414404532
  0
LINE
  5
7C2
100
AcDbEntity
  8
RUNDUNGEN
100
AcDbLine
 62
7
  6
CONTINUOUS
 10
-27.9521281824
 20
-148.9903068851
 11
-24.984044155
 21
-146.8339028658
  0
LWPOLYLINE
  5
7C3
100
AcDbEntity
  8
RUNDUNGEN
100
AcDbPolyline
 62
7
  6
CONTINUOUS
 90
3
 70
0
 10
-22.3963952861
 20
-144.9414434142
 10
-22.0979568945
 20
-144.7305519776
 10
-21.636830744
 20
-144.4349711655
  0
LINE
  5
7C4
100
AcDbEntity
  8
RUNDUNGEN
100
AcDbLine
 62
7
  6
CONTINUOUS
 10
-28.3430265883
 20
-149.2594560258
 11
-27.9521312081
 21
-148.9903027078
  0
LINE
  5
7C5
100
AcDbEntity
  8
RUNDUNGEN
100
AcDbLine
 62
7
  6
CONTINUOUS
 10
-28.9057436918
 20
-149.6013486533
 11
-28.3290302892
 21
-149.2502862803
  0
LINE
  5
7C6
100
AcDbEntity
  8
0
100
AcDbLine
 62
7
  6
CONTINUOUS
 10
-27.9782338863
 20
-93.5113269931
 11
-22.4326767852
 21
-97.3943678789
  0
LINE
  5
7C7
100
AcDbEntity
  8
RUNDUNGEN
100
AcDbLine
 62
7
  6
CONTINUOUS
 10
-21.636830744
 20
-144.4349711655
 11
-21.1498467087
 21
-144.1595527507
  0
LINE
  5
7C8
100
AcDbEntity
  8
RUNDUNGEN
100
AcDbLine
 62
7
  6
CONTINUOUS
 10
-29.4887904723
 20
-149.9044644634
 11
-28.8911239814
 21
-149.5931024899
  0
LINE
  5
7C9
100
AcDbEntity
  8
RUNDUNGEN
100
AcDbLine
 62
7
  6
CONTINUOUS
 10
-21.1637712244
 20
-144.1669319405
 11
-20.6661172264
 21
-143.9203740622
  0
LINE
  5
7CA
100
AcDbEntity
  8
RUNDUNGEN
100
AcDbLine
 62
7
  6
CONTINUOUS
 10
-41.1438641586
 20
-151.2339682925
 11
-41.1534864471
 21
-151.2382316633
  0
LINE
  5
7CB
100
AcDbEntity
  8
RUNDUNGEN
100
AcDbLine
 62
7
  6
CONTINUOUS
 10
-30.0896555799
 20
-150.1676435962
 11
-29.4736181103
 21
-149.8971917068
  0
LINE
  5
7CC
100
AcDbEntity
  8
RUNDUNGEN
100
AcDbLine
 62
7
  6
CONTINUOUS
 10
-20.6803659955
 20
-143.9269513352
 11
-20.1792817519
 21
-143.7120789186
  0
LINE
  5
7CD
100
AcDbEntity
  8
0
100
AcDbLine
 62
7
  6
CONTINUOUS
 10
132.438989639
 20
-99.2029137575
 11
132.438989639
 21
-101.702847436
  0
LWPOLYLINE
  5
7CE
100
AcDbEntity
  8
RUNDUNGEN
100
AcDbPolyline
 62
7
  6
CONTINUOUS
 90
9
 70
0
 10
-41.1546048982
 20
-151.2387246153
 10
-41.1437865775
 20
-151.2346345637
 10
-41.1212871405
 20
-151.2266828715
 10
-41.0877578968
 20
-151.2156068364
 10
-41.0443018852
 20
-151.2021623976
 10
-40.9911334166
 20
-151.1867250279
 10
-40.9288834157
 20
-151.1697367205
 10
-40.8578184058
 20
-151.1514954339
 10
-40.7784522938
 20
-151.1323374927
  0
LINE
  5
7CF
100
AcDbEntity
  8
RUNDUNGEN
100
AcDbLine
 62
7
  6
CONTINUOUS
 10
-20.1880889312
 20
-143.7153901402
 11
-19.848694045
 21
-143.5877883707
  0
LINE
  5
7D0
100
AcDbEntity
  8
0
100
AcDbLine
 62
7
  6
CONTINUOUS
 10
138.7502754518
 20
-98.9013105399
 11
141.2145599548
 21
-98.0043843321
  0
LINE
  5
7D1
100
AcDbEntity
  8
RUNDUNGEN
100
AcDbLine
 62
7
  6
CONTINUOUS
 10
-30.7058153477
 20
-150.3898568213
 11
-30.0740041915
 21
-150.1613862064
  0
LINE
  5
7D2
100
AcDbEntity
  8
RUNDUNGEN
100
AcDbLine
 62
7
  6
CONTINUOUS
 10
-19.8486976365
 20
-143.587778245
 11
-19.4799308961
 21
-143.4658453498
  0
LINE
  5
7D3
100
AcDbEntity
  8
RUNDUNGEN
100
AcDbLine
 62
7
  6
CONTINUOUS
 10
-31.3343946847
 20
-150.5702236433
 11
-30.6897676692
 21
-150.384651883
  0
LINE
  5
7D4
100
AcDbEntity
  8
RUNDUNGEN
100
AcDbLine
 62
7
  6
CONTINUOUS
 10
-38.6927298898
 20
-150.8747230655
 11
-38.4867146549
 21
-150.8683785362
  0
LINE
  5
7D5
100
AcDbEntity
  8
RUNDUNGEN
100
AcDbLine
 62
7
  6
CONTINUOUS
 10
-33.71399825
 20
-150.8645802963
 11
-33.2496774139
 21
-150.8535159123
  0
LINE
  5
7D6
100
AcDbEntity
  8
RUNDUNGEN
100
AcDbLine
 62
7
  6
CONTINUOUS
 10
-38.5056590382
 20
-150.8688336557
 11
-38.2955745997
 21
-150.8652326853
  0
LINE
  5
7D7
100
AcDbEntity
  8
RUNDUNGEN
100
AcDbLine
 62
7
  6
CONTINUOUS
 10
-38.3152653703
 20
-150.8654356685
 11
-38.161010361
 21
-150.8645828591
  0
LINE
  5
7D8
100
AcDbEntity
  8
BEZUGSACHSEN
100
AcDbLine
 62
7
  6
CONTINUOUS
 10
153.438989639
 20
-159.702847436
 11
159.438989639
 21
-159.702847436
  0
LINE
  5
7D9
100
AcDbEntity
  8
0
100
AcDbLine
 62
7
  6
CONTINUOUS
 10
173.438989639
 20
-159.702847436
 11
179.438989639
 21
-159.702847436
  0
LINE
  5
7DA
100
AcDbEntity
  8
0
100
AcDbLine
 62
7
  6
CONTINUOUS
 10
173.438989639
 20
-158.702847436
 11
159.438989639
 21
-158.702847436
  0
LINE
  5
7DB
100
AcDbEntity
  8
0
100
AcDbLine
 62
7
  6
CONTINUOUS
 10
-97.561010361
 20
-151.702847436
 11
-94.061010361
 21
-151.702847436
  0
LINE
  5
7DC
100
AcDbEntity
  8
0
100
AcDbLine
 62
7
  6
CONTINUOUS
 10
-43.561010361
 20
-151.702847436
 11
-42.161010361
 21
-151.702847436
  0
LINE
  5
7DD
100
AcDbEntity
  8
RUNDUNGEN
100
AcDbLine
 62
7
  6
CONTINUOUS
 10
-38.161010361
 20
-150.8645852302
 11
-33.7139982487
 21
-150.8645852302
  0
LINE
  5
7DE
100
AcDbEntity
  8
0
100
AcDbLine
 62
7
  6
CONTINUOUS
 10
378.438989639
 20
-145.702847436
 11
355.3843667189
 21
-145.702847436
  0
LINE
  5
7DF
100
AcDbEntity
  8
0
100
AcDbLine
 62
7
  6
CONTINUOUS
 10
344.438989639
 20
-144.202847436
 11
349.5748916996
 21
-144.202847436
  0
LWPOLYLINE
  5
7E0
100
AcDbEntity
  8
RUNDUNGEN
100
AcDbPolyline
 62
7
  6
CONTINUOUS
 90
9
 70
0
 10
140.7414718216
 20
-137.4736601716
 10
140.8784589572
 20
-137.5495865514
 10
141.1853342259
 20
-137.6983028163
 10
141.4992347338
 20
-137.8218589253
 10
141.8188408688
 20
-137.9202381414
 10
142.1420093102
 20
-137.9932906388
 10
142.4670684496
 20
-138.0408186649
 10
142.7928262556
 20
-138.0633094043
 10
142.9246607122
 20
-138.0653952589
  0
LINE
  5
7E1
100
AcDbEntity
  8
RUNDUNGEN
100
AcDbLine
 62
7
  6
CONTINUOUS
 10
140.3640491887
 20
-137.2548718072
 11
140.741460426
 21
-137.4736799183
  0
LINE
  5
7E2
100
AcDbEntity
  8
RUNDUNGEN
100
AcDbLine
 62
7
  6
CONTINUOUS
 10
139.8544214224
 20
-136.9558853553
 11
140.3721289529
 21
-137.259556135
  0
LINE
  5
7E3
100
AcDbEntity
  8
RUNDUNGEN
100
AcDbLine
 62
7
  6
CONTINUOUS
 10
139.3660286624
 20
-136.665326227
 11
139.8681839126
 21
-136.9640146494
  0
LINE
  5
7E4
100
AcDbEntity
  8
RUNDUNGEN
100
AcDbLine
 62
7
  6
CONTINUOUS
 10
138.8987554143
 20
-136.3833862199
 11
139.3797639466
 21
-136.6735541061
  0
LINE
  5
7E5
100
AcDbEntity
  8
RUNDUNGEN
100
AcDbLine
 62
7
  6
CONTINUOUS
 10
138.4524812207
 20
-136.1102767409
 11
138.9124649274
 21
-136.3917154501
  0
LINE
  5
7E6
100
AcDbEntity
  8
RUNDUNGEN
100
AcDbLine
 62
7
  6
CONTINUOUS
 10
138.1923951348
 20
-135.949278745
 11
138.4661663949
 21
-136.1187099785
  0
LINE
  5
7E7
100
AcDbEntity
  8
BEZUGSACHSEN
100
AcDbLine
 62
7
  6
CONTINUOUS
 10
148.438989639
 20
-88.70292821
 11
148.438989639
 21
-154.702766628
  0
LINE
  5
7E8
100
AcDbEntity
  8
BEZUGSACHSEN
100
AcDbLine
 62
7
  6
CONTINUOUS
 10
159.438989639
 20
-83.702921064
 11
159.438989639
 21
-159.702773808
  0
LINE
  5
7E9
100
AcDbEntity
  8
RUNDUNGEN
100
AcDbLine
 62
7
  6
CONTINUOUS
 10
186.2174775476
 20
-138.2309481879
 11
186.5047675343
 21
-138.1629983515
  0
LINE
  5
7EA
100
AcDbEntity
  8
RUNDUNGEN
100
AcDbLine
 62
7
  6
CONTINUOUS
 10
190.7190806671
 20
-137.9963961411
 11
191.0587733639
 21
-137.9203377229
  0
LINE
  5
7EB
100
AcDbEntity
  8
RUNDUNGEN
100
AcDbLine
 62
7
  6
CONTINUOUS
 10
186.4940987672
 20
-138.1652165847
 11
186.7816657288
 21
-138.1140182815
  0
LINE
  5
7EC
100
AcDbEntity
  8
RUNDUNGEN
100
AcDbLine
 62
7
  6
CONTINUOUS
 10
-32.6174217221
 20
-150.8027963706
 11
-31.9559149855
 21
-150.7049871871
  0
LINE
  5
7ED
100
AcDbEntity
  8
RUNDUNGEN
100
AcDbLine
 62
7
  6
CONTINUOUS
 10
-40.1353996505
 20
-151.0098089252
 11
-39.9902138608
 21
-150.9883846652
  0
LINE
  5
7EE
100
AcDbEntity
  8
RUNDUNGEN
100
AcDbLine
 62
7
  6
CONTINUOUS
 10
190.3937327839
 20
-138.0426205838
 11
190.735622449
 21
-137.9933562998
  0
LINE
  5
7EF
100
AcDbEntity
  8
RUNDUNGEN
100
AcDbLine
 62
7
  6
CONTINUOUS
 10
-40.001543
 20
-150.9899854518
 11
-39.8481199469
 21
-150.9692890628
  0
LINE
  5
7F0
100
AcDbEntity
  8
RUNDUNGEN
100
AcDbLine
 62
7
  6
CONTINUOUS
 10
-39.8602918233
 20
-150.9708548461
 11
-39.6989205159
 21
-150.9511263212
  0
LINE
  5
7F1
100
AcDbEntity
  8
RUNDUNGEN
100
AcDbLine
 62
7
  6
CONTINUOUS
 10
186.7707289527
 20
-138.1156317834
 11
187.0539712804
 21
-138.0821889272
  0
LINE
  5
7F2
100
AcDbEntity
  8
RUNDUNGEN
100
AcDbLine
 62
7
  6
CONTINUOUS
 10
-39.7119480143
 20
-150.9526372549
 11
-39.5429558404
 21
-150.9341279242
  0
LINE
  5
7F3
100
AcDbEntity
  8
RUNDUNGEN
100
AcDbLine
 62
7
  6
CONTINUOUS
 10
-39.5568497203
 20
-150.9355614167
 11
-39.3805220239
 21
-150.9185145783
  0
LINE
  5
7F4
100
AcDbEntity
  8
RUNDUNGEN
100
AcDbLine
 62
7
  6
CONTINUOUS
 10
-39.3952863478
 20
-150.9198476237
 11
-39.2119886247
 21
-150.9044891845
  0
LINE
  5
7F5
100
AcDbEntity
  8
RUNDUNGEN
100
AcDbLine
 62
7
  6
CONTINUOUS
 10
-33.266443986
 20
-150.8543000387
 11
-32.6007058541
 21
-150.8008926583
  0
LWPOLYLINE
  5
7F6
100
AcDbEntity
  8
RUNDUNGEN
100
AcDbPolyline
 62
7
  6
CONTINUOUS
 90
3
 70
0
 10
-17.7474176425
 20
-143.1102070911
 10
-17.1417746967
 20
-143.063298355
 10
-16.6969124217
 20
-143.0530976881
  0
LINE
  5
7F7
100
AcDbEntity
  8
RUNDUNGEN
100
AcDbLine
 62
7
  6
CONTINUOUS
 10
-17.1326776623
 20
-143.0630897605
 11
-17.1260978856
 21
-143.0625909363
  0
LINE
  5
7F8
100
AcDbEntity
  8
RUNDUNGEN
100
AcDbLine
 62
7
  6
CONTINUOUS
 10
-39.2276207911
 20
-150.9056987764
 11
-39.0378036923
 21
-150.8922643058
  0
LINE
  5
7F9
100
AcDbEntity
  8
RUNDUNGEN
100
AcDbLine
 62
7
  6
CONTINUOUS
 10
190.0679029879
 20
-138.0638150337
 11
190.4106238233
 21
-138.0408451619
  0
LWPOLYLINE
  5
7FA
100
AcDbEntity
  8
RUNDUNGEN
100
AcDbPolyline
 62
7
  6
CONTINUOUS
 90
16
 70
0
 10
-11.5125981127
 20
-143.0526807209
 10
-11.2281352155
 20
-143.0344164068
 10
-10.9462462623
 20
-142.9889150744
 10
-10.6694205166
 20
-142.916481357
 10
-10.399996641
 20
-142.8175416742
 10
-10.1407794718
 20
-142.6930209639
 10
-9.8942459754
 20
-142.5439852026
 10
-9.6628203387
 20
-142.3718659205
 10
-9.4485730627
 20
-142.1781230072
 10
-9.2537060577
 20
-141.9647175961
 10
-9.0800525662
 20
-141.7336069163
 10
-8.9293717593
 20
-141.4871619912
 10
-8.8031431613
 20
-141.2278547454
 10
-8.7025213489
 20
-140.9583385881
 10
-8.6284663918
 20
-140.6815380407
 10
-8.5814256095
 20
-140.3999055688
  0
LINE
  5
7FB
100
AcDbEntity
  8
RUNDUNGEN
100
AcDbLine
 62
7
  6
CONTINUOUS
 10
187.0428875276
 20
-138.0831722485
 11
187.3139017968
 21
-138.0673407311
  0
LINE
  5
7FC
100
AcDbEntity
  8
RUNDUNGEN
100
AcDbLine
 62
7
  6
CONTINUOUS
 10
-39.0542951439
 20
-150.8933235204
 11
-38.8584741325
 21
-150.8820570411
  0
LINE
  5
7FD
100
AcDbEntity
  8
RUNDUNGEN
100
AcDbLine
 62
7
  6
CONTINUOUS
 10
-38.8758105238
 20
-150.8829398209
 11
-38.6745729118
 21
-150.8740404648
  0
LINE
  5
7FE
100
AcDbEntity
  8
RUNDUNGEN
100
AcDbLine
 62
7
  6
CONTINUOUS
 10
-2.6649659339
 20
-135.5586566842
 11
-2.5610103626
 21
-135.5568576883
  0
LINE
  5
7FF
100
AcDbEntity
  8
RUNDUNGEN
100
AcDbLine
 62
7
  6
CONTINUOUS
 10
189.9533185675
 20
-138.065399674
 11
190.0849842526
 21
-138.0633173027
  0
LINE
  5
800
100
AcDbEntity
  8
RUNDUNGEN
100
AcDbLine
 62
7
  6
CONTINUOUS
 10
187.3062499054
 20
-138.0674553369
 11
187.4389896404
 21
-138.0654672357
  0
LWPOLYLINE
  5
801
100
AcDbEntity
  8
RUNDUNGEN
100
AcDbPolyline
 62
7
  6
CONTINUOUS
 90
18
 70
0
 10
-11.561010363
 20
-143.0530790456
 10
-11.4928260682
 20
-143.0522920497
 10
-11.2082329802
 20
-143.032110803
 10
-10.9264365735
 20
-142.9846639267
 10
-10.6499187375
 20
-142.9102928318
 10
-10.3810254665
 20
-142.8094458768
 10
-10.1225525919
 20
-142.6830825056
 10
-9.8769672169
 20
-142.5322879018
 10
-9.6466756531
 20
-142.3585199164
 10
-9.4337376345
 20
-142.163255915
 10
-9.2403375403
 20
-141.948478176
 10
-9.0682948732
 20
-141.7161640407
 10
-8.9193486731
 20
-141.4687006672
 10
-8.7949567413
 20
-141.208583599
 10
-8.6962511546
 20
-140.9384803345
 10
-8.6241596607
 20
-140.6613344577
 10
-8.5791016551
 20
-140.3795899989
 10
-8.5628090166
 20
-140.1194567861
  0
LINE
  5
802
100
AcDbEntity
  8
RUNDUNGEN
100
AcDbLine
 62
7
  6
CONTINUOUS
 10
-16.6969124217
 20
-143.053097436
 11
-11.561010384
 21
-143.053097436
  0
LINE
  5
803
100
AcDbEntity
  8
BEZUGSACHSEN
100
AcDbLine
 62
7
  6
CONTINUOUS
 10
538.6528272744
 20
-140.702847436
 11
494.438989639
 21
-140.702847436
  0
LINE
  5
804
100
AcDbEntity
  8
RUNDUNGEN
100
AcDbLine
 62
7
  6
CONTINUOUS
 10
-161.561010361
 20
-140.702847436
 11
-157.561010361
 21
-140.702847436
  0
LINE
  5
805
100
AcDbEntity
  8
BEZUGSACHSEN
100
AcDbLine
 62
7
  6
CONTINUOUS
 10
-157.561010361
 20
-140.702847436
 11
-205.7748479964
 21
-140.702847436
  0
LINE
  5
806
100
AcDbEntity
  8
RUNDUNGEN
100
AcDbLine
 62
7
  6
CONTINUOUS
 10
490.438989639
 20
-140.702847436
 11
494.438989639
 21
-140.702847436
  0
LINE
  5
807
100
AcDbEntity
  8
RUNDUNGEN
100
AcDbLine
 62
7
  6
CONTINUOUS
 10
142.9246606714
 20
-138.0654819068
 11
145.4389893738
 21
-138.0654819068
  0
LINE
  5
808
100
AcDbEntity
  8
RUNDUNGEN
100
AcDbLine
 62
7
  6
CONTINUOUS
 10
187.438989639
 20
-138.0654819068
 11
189.9533145601
 21
-138.0654819068
  0
LINE
  5
809
100
AcDbEntity
  8
RUNDUNGEN
100
AcDbLine
 62
7
  6
CONTINUOUS
 10
-2.561010361
 20
-135.5568789451
 11
137.0401713442
 21
-135.5568789451
  0
LINE
  5
80A
100
AcDbEntity
  8
RUNDUNGEN
100
AcDbLine
 62
7
  6
CONTINUOUS
 10
195.8378045428
 20
-135.5568789451
 11
335.4389786681
 21
-135.5568789451
  0
LINE
  5
80B
100
AcDbEntity
  8
0
100
AcDbLine
 62
7
  6
CONTINUOUS
 10
-45.561010361
 20
-133.702847436
 11
-93.561010361
 21
-133.702847436
  0
LINE
  5
80C
100
AcDbEntity
  8
0
100
AcDbLine
 62
7
  6
CONTINUOUS
 10
-99.561010361
 20
-133.702847436
 11
-151.561010361
 21
-133.702847436
  0
LINE
  5
80D
100
AcDbEntity
  8
0
100
AcDbLine
 62
7
  6
CONTINUOUS
 10
380.438989639
 20
-133.702847436
 11
484.438989639
 21
-133.702847436
  0
LWPOLYLINE
  5
80E
100
AcDbEntity
  8
RUNDUNGEN
100
AcDbPolyline
 62
7
  6
CONTINUOUS
 90
13
 70
0
 10
145.4389893714
 20
-138.0654671362
 10
145.5606301655
 20
-138.0671356422
 10
145.8240977457
 20
-138.0822067434
 10
146.0964521565
 20
-138.1140319453
 10
146.373325468
 20
-138.1630250236
 10
146.6502315306
 20
-138.2282249236
 10
146.9264716297
 20
-138.3089115054
 10
147.199631953
 20
-138.403458582
 10
147.4692643229
 20
-138.5106485097
 10
147.7344460525
 20
-138.6291251319
 10
147.9950116082
 20
-138.7576985279
 10
148.2506774744
 20
-138.8953592279
 10
148.438989639
 20
-139.0049397315
  0
LWPOLYLINE
  5
80F
100
AcDbEntity
  8
RUNDUNGEN
100
AcDbPolyline
 62
7
  6
CONTINUOUS
 90
38
 70
0
 10
335.4389786669
 20
-135.5568575587
 10
335.5335819231
 20
-135.5583484208
 10
335.7419324271
 20
-135.5719324161
 10
335.9557543578
 20
-135.6004292943
 10
336.1728598485
 20
-135.6437592014
 10
336.3896973767
 20
-135.7007561596
 10
336.6060202956
 20
-135.7704816351
 10
336.8191160319
 20
-135.8508691096
 10
337.0299410293
 20
-135.9412470578
 10
337.2392149609
 20
-136.0409854089
 10
337.4464244338
 20
-136.1490453163
 10
337.6517014581
 20
-136.2649054508
 10
337.8548891861
 20
-136.3878248434
 10
338.0563408933
 20
-136.5174883765
 10
338.2552862046
 20
-136.6529930254
 10
338.4514772256
 20
-136.7937127939
 10
338.6445694536
 20
-136.9389634684
 10
338.8342299119
 20
-137.0881131252
 10
339.020271889
 20
-137.2406703011
 10
339.2025445678
 20
-137.3961870783
 10
339.3809081215
 20
-137.554260927
 10
339.5551900338
 20
-137.7144940199
 10
339.7252213354
 20
-137.8765233229
 10
339.8906022865
 20
-138.0397901691
 10
340.0517152545
 20
-138.2045474968
 10
340.2083839671
 20
-138.3705580026
 10
340.3612346449
 20
-138.5385260588
 10
340.5104567806
 20
-138.7088644615
 10
340.6556230726
 20
-138.8814156177
 10
340.7971104425
 20
-139.057149738
 10
340.9309262814
 20
-139.2315854792
 10
341.0550924355
 20
-139.4023787731
 10
341.1651065069
 20
-139.5630775347
 10
341.2578486683
 20
-139.7078930359
 10
341.333144721
 20
-139.8345486085
 10
341.3906028962
 20
-139.9396572692
 10
341.4315997317
 20
-140.0221584636
 10
341.4421889348
 20
-140.0451286604
  0
LWPOLYLINE
  5
810
100
AcDbEntity
  8
RUNDUNGEN
100
AcDbPolyline
 62
7
  6
CONTINUOUS
 90
9
 70
0
 10
137.0401713438
 20
-135.5568700126
 10
137.1808836532
 20
-135.5636610911
 10
137.3269419635
 20
-135.5846758865
 10
137.4779418701
 20
-135.6203905788
 10
137.6274136726
 20
-135.6685430334
 10
137.7775121015
 20
-135.7286306278
 10
137.9273985967
 20
-135.7994846571
 10
138.0767077614
 20
-135.880164621
 10
138.1923954179
 20
-135.9492785487
  0
LINE
  5
811
100
AcDbEntity
  8
RUNDUNGEN
100
AcDbLine
 62
7
  6
CONTINUOUS
 10
173.438989639
 20
-83.702921064
 11
173.438989639
 21
-159.702773808
  0
LINE
  5
812
100
AcDbEntity
  8
RUNDUNGEN
100
AcDbLine
 62
7
  6
CONTINUOUS
 10
184.438989639
 20
-88.70292821
 11
184.438989639
 21
-154.702766628
  0
LINE
  5
813
100
AcDbEntity
  8
RUNDUNGEN
100
AcDbLine
 62
7
  6
CONTINUOUS
 10
194.4118330646
 20
-136.1186975481
 11
194.6855841513
 21
-135.9492787622
  0
LINE
  5
814
100
AcDbEntity
  8
RUNDUNGEN
100
AcDbLine
 62
7
  6
CONTINUOUS
 10
193.9655467339
 20
-136.3916957722
 11
194.420269416
 21
-136.1134764677
  0
LINE
  5
815
100
AcDbEntity
  8
RUNDUNGEN
100
AcDbLine
 62
7
  6
CONTINUOUS
 10
193.4982519101
 20
-136.6735322054
 11
193.9792559262
 21
-136.3833667263
  0
LWPOLYLINE
  5
816
100
AcDbEntity
  8
RUNDUNGEN
100
AcDbPolyline
 62
7
  6
CONTINUOUS
 90
9
 70
0
 10
194.685583968
 20
-135.9492784674
 10
194.7854336766
 20
-135.889291686
 10
194.9351059652
 20
-135.8073880619
 10
195.0853905156
 20
-135.7352800372
 10
195.2358723913
 20
-135.6739221057
 10
195.3858588307
 20
-135.6244294532
 10
195.5374525368
 20
-135.587325294
 10
195.6841545788
 20
-135.564958585
 10
195.8378045435
 20
-135.5568699541
  0
LINE
  5
817
100
AcDbEntity
  8
RUNDUNGEN
100
AcDbLine
 62
7
  6
CONTINUOUS
 10
193.0098279776
 20
-136.963995381
 11
193.5119866895
 21
-136.6653046212
  0
LINE
  5
818
100
AcDbEntity
  8
RUNDUNGEN
100
AcDbLine
 62
7
  6
CONTINUOUS
 10
192.5001595932
 20
-137.2628935846
 11
193.0235897599
 21
-136.9558664959
  0
LINE
  5
819
100
AcDbEntity
  8
RUNDUNGEN
100
AcDbLine
 62
7
  6
CONTINUOUS
 10
184.438989639
 20
-139.0050152229
 11
184.62756663
 21
-138.8952205448
  0
LINE
  5
81A
100
AcDbEntity
  8
RUNDUNGEN
100
AcDbLine
 62
7
  6
CONTINUOUS
 10
192.1365392694
 20
-137.4736681245
 11
192.5139495896
 21
-137.2548604513
  0
LINE
  5
81B
100
AcDbEntity
  8
RUNDUNGEN
100
AcDbLine
 62
7
  6
CONTINUOUS
 10
191.9855461218
 20
-137.5569917566
 11
192.1365277449
 21
-137.4736481464
  0
LINE
  5
81C
100
AcDbEntity
  8
RUNDUNGEN
100
AcDbLine
 62
7
  6
CONTINUOUS
 10
184.6191326295
 20
-138.899944094
 11
184.8832402513
 21
-138.7575481371
  0
LINE
  5
81D
100
AcDbEntity
  8
RUNDUNGEN
100
AcDbLine
 62
7
  6
CONTINUOUS
 10
184.8744179225
 20
-138.7621184057
 11
185.1437929464
 21
-138.6290032683
  0
LINE
  5
81E
100
AcDbEntity
  8
RUNDUNGEN
100
AcDbLine
 62
7
  6
CONTINUOUS
 10
191.6777122041
 20
-137.7048187809
 11
191.9948363246
 21
-137.5518634567
  0
LINE
  5
81F
100
AcDbEntity
  8
RUNDUNGEN
100
AcDbLine
 62
7
  6
CONTINUOUS
 10
185.1346185577
 20
-138.6333268518
 11
185.4089538681
 21
-138.5105583974
  0
LINE
  5
820
100
AcDbEntity
  8
RUNDUNGEN
100
AcDbLine
 62
7
  6
CONTINUOUS
 10
185.3994441666
 20
-138.5145750466
 11
185.6785264638
 21
-138.4033812612
  0
LINE
  5
821
100
AcDbEntity
  8
RUNDUNGEN
100
AcDbLine
 62
7
  6
CONTINUOUS
 10
191.362969979
 20
-137.8273434084
 11
191.6923973768
 21
-137.6984123156
  0
LINE
  5
822
100
AcDbEntity
  8
RUNDUNGEN
100
AcDbLine
 62
7
  6
CONTINUOUS
 10
185.6687259708
 20
-138.4070487092
 11
185.9516365936
 21
-138.3088772265
  0
LINE
  5
823
100
AcDbEntity
  8
RUNDUNGEN
100
AcDbLine
 62
7
  6
CONTINUOUS
 10
191.042714315
 20
-137.9245843511
 11
191.3784115739
 21
-137.8219730524
  0
LINE
  5
824
100
AcDbEntity
  8
RUNDUNGEN
100
AcDbLine
 62
7
  6
CONTINUOUS
 10
185.9415537812
 20
-138.312103286
 11
186.2278853448
 21
-138.2281864746
  0
LINE
  5
825
100
AcDbEntity
  8
RUNDUNGEN
100
AcDbLine
 62
7
  6
CONTINUOUS
 10
-19.4799308961
 20
-143.4658453498
 11
-18.9031810199
 21
-143.3091837016
  0
LINE
  5
826
100
AcDbEntity
  8
RUNDUNGEN
100
AcDbLine
 62
7
  6
CONTINUOUS
 10
-40.7784522938
 20
-151.1323374927
 11
-40.684267641
 21
-151.1110193388
  0
LINE
  5
827
100
AcDbEntity
  8
RUNDUNGEN
100
AcDbLine
 62
7
  6
CONTINUOUS
 10
-31.972493451
 20
-150.7080065628
 11
-31.3180374774
 21
-150.5661008774
  0
LINE
  5
828
100
AcDbEntity
  8
RUNDUNGEN
100
AcDbLine
 62
7
  6
CONTINUOUS
 10
-40.6908578974
 20
-151.1124654257
 11
-40.5879389534
 21
-151.0905992643
  0
LINE
  5
829
100
AcDbEntity
  8
RUNDUNGEN
100
AcDbLine
 62
7
  6
CONTINUOUS
 10
-18.9185596601
 20
-143.312842415
 11
-18.3404067337
 21
-143.1938536279
  0
LINE
  5
82A
100
AcDbEntity
  8
RUNDUNGEN
100
AcDbLine
 62
7
  6
CONTINUOUS
 10
-40.5952751551
 20
-151.0921089391
 11
-40.4836981533
 21
-151.0699041925
  0
LINE
  5
82B
100
AcDbEntity
  8
RUNDUNGEN
100
AcDbLine
 62
7
  6
CONTINUOUS
 10
-40.4917981572
 20
-151.0714632972
 11
-40.3717363941
 21
-151.0491486219
  0
LINE
  5
82C
100
AcDbEntity
  8
RUNDUNGEN
100
AcDbLine
 62
7
  6
CONTINUOUS
 10
-40.3806221736
 20
-151.0507432931
 11
-40.2520963577
 21
-151.0285127735
  0
LINE
  5
82D
100
AcDbEntity
  8
RUNDUNGEN
100
AcDbLine
 62
7
  6
CONTINUOUS
 10
-40.2617848925
 20
-151.0301275453
 11
-40.1248976836
 21
-151.0081918504
  0
LINE
  5
82E
100
AcDbEntity
  8
RUNDUNGEN
100
AcDbLine
 62
7
  6
CONTINUOUS
 10
-18.3404067337
 20
-143.1938536279
 11
-17.7316591373
 21
-143.1084995802
  0
LINE
  5
82F
100
AcDbEntity
  8
0
100
AcDbLine
 62
7
  6
CONTINUOUS
 10
-45.561010361
 20
-116.202847436
 11
-93.561010361
 21
-116.202847436
  0
LINE
  5
830
100
AcDbEntity
  8
0
100
AcDbLine
 62
7
  6
CONTINUOUS
 10
-99.561010361
 20
-116.202847436
 11
-153.8906566976
 21
-116.202847436
  0
LINE
  5
831
100
AcDbEntity
  8
0
100
AcDbLine
 62
7
  6
CONTINUOUS
 10
-45.561010361
 20
-111.0374829321
 11
-93.561010361
 21
-111.0374829321
  0
LINE
  5
832
100
AcDbEntity
  8
0
100
AcDbLine
 62
7
  6
CONTINUOUS
 10
-99.561010361
 20
-111.0374829321
 11
-144.561010361
 21
-111.0374829321
  0
LINE
  5
833
100
AcDbEntity
  8
0
100
AcDbLine
 62
7
  6
CONTINUOUS
 10
-45.561010361
 20
-109.702847436
 11
-93.561010361
 21
-109.702847436
  0
LINE
  5
834
100
AcDbEntity
  8
0
100
AcDbLine
 62
7
  6
CONTINUOUS
 10
-99.561010361
 20
-109.702847436
 11
-151.561010361
 21
-109.702847436
  0
LINE
  5
835
100
AcDbEntity
  8
0
100
AcDbLine
 62
7
  6
CONTINUOUS
 10
380.438989639
 20
-109.702847436
 11
484.438989639
 21
-109.702847436
  0
LINE
  5
836
100
AcDbEntity
  8
RUNDUNGEN
100
AcDbLine
 62
7
  6
CONTINUOUS
 10
494.438989639
 20
-102.702847436
 11
490.438989639
 21
-102.702847436
  0
LINE
  5
837
100
AcDbEntity
  8
BEZUGSACHSEN
100
AcDbLine
 62
7
  6
CONTINUOUS
 10
-205.7748479964
 20
-102.702847436
 11
-161.561010361
 21
-102.702847436
  0
LINE
  5
838
100
AcDbEntity
  8
RUNDUNGEN
100
AcDbLine
 62
7
  6
CONTINUOUS
 10
-157.561010361
 20
-102.702847436
 11
-161.561010361
 21
-102.702847436
  0
LINE
  5
839
100
AcDbEntity
  8
BEZUGSACHSEN
100
AcDbLine
 62
7
  6
CONTINUOUS
 10
490.438989639
 20
-102.702847436
 11
538.6528272744
 21
-102.702847436
  0
LINE
  5
83A
100
AcDbEntity
  8
0
100
AcDbLine
 62
7
  6
CONTINUOUS
 10
332.438989639
 20
-101.702847436
 11
200.438989639
 21
-101.702847436
  0
LINE
  5
83B
100
AcDbEntity
  8
0
100
AcDbLine
 62
7
  6
CONTINUOUS
 10
132.438989639
 20
-101.702847436
 11
0.438989639
 21
-101.702847436
  0
LINE
  5
83C
100
AcDbEntity
  8
0
100
AcDbLine
 62
7
  6
CONTINUOUS
 10
31.148989639
 20
-100.702847436
 11
40.188989639
 21
-100.702847436
  0
LINE
  5
83D
100
AcDbEntity
  8
0
100
AcDbLine
 62
7
  6
CONTINUOUS
 10
206.438989639
 20
-100.702847436
 11
215.798989639
 21
-100.702847436
  0
LINE
  5
83E
100
AcDbEntity
  8
0
100
AcDbLine
 62
7
  6
CONTINUOUS
 10
217.238989639
 20
-100.702847436
 11
225.878989639
 21
-100.702847436
  0
LINE
  5
83F
100
AcDbEntity
  8
0
100
AcDbLine
 62
7
  6
CONTINUOUS
 10
228.038989639
 20
-100.702847436
 11
236.858989639
 21
-100.702847436
  0
LINE
  5
840
100
AcDbEntity
  8
0
100
AcDbLine
 62
7
  6
CONTINUOUS
 10
251.438989639
 20
-100.702847436
 11
252.688989639
 21
-100.702847436
  0
LINE
  5
841
100
AcDbEntity
  8
0
100
AcDbLine
 62
7
  6
CONTINUOUS
 10
254.3556562063
 20
-100.702847436
 11
262.4806559083
 21
-100.702847436
  0
LINE
  5
842
100
AcDbEntity
  8
0
100
AcDbLine
 62
7
  6
CONTINUOUS
 10
264.1473233697
 20
-100.702847436
 11
271.6473221776
 21
-100.702847436
  0
LINE
  5
843
100
AcDbEntity
  8
0
100
AcDbLine
 62
7
  6
CONTINUOUS
 10
273.313989639
 20
-100.702847436
 11
276.2306571004
 21
-100.702847436
  0
LINE
  5
844
100
AcDbEntity
  8
0
100
AcDbLine
 62
7
  6
CONTINUOUS
 10
277.8973221776
 20
-100.702847436
 11
286.0223221776
 21
-100.702847436
  0
LINE
  5
845
100
AcDbEntity
  8
0
100
AcDbLine
 62
7
  6
CONTINUOUS
 10
287.688989639
 20
-100.702847436
 11
295.188989639
 21
-100.702847436
  0
LINE
  5
846
100
AcDbEntity
  8
0
100
AcDbLine
 62
7
  6
CONTINUOUS
 10
296.8556547162
 20
-100.702847436
 11
304.7723245618
 21
-100.702847436
  0
LINE
  5
847
100
AcDbEntity
  8
0
100
AcDbLine
 62
7
  6
CONTINUOUS
 10
306.438989639
 20
-100.702847436
 11
314.3556547162
 21
-100.702847436
  0
LINE
  5
848
100
AcDbEntity
  8
0
100
AcDbLine
 62
7
  6
CONTINUOUS
 10
316.0223245618
 20
-100.702847436
 11
318.5223245618
 21
-100.702847436
  0
LINE
  5
849
100
AcDbEntity
  8
0
100
AcDbLine
 62
7
  6
CONTINUOUS
 10
320.188989639
 20
-100.702847436
 11
327.688989639
 21
-100.702847436
  0
LINE
  5
84A
100
AcDbEntity
  8
0
100
AcDbLine
 62
7
  6
CONTINUOUS
 10
-16.6969124217
 20
-99.202847436
 11
0.438989639
 21
-99.202847436
  0
LINE
  5
84B
100
AcDbEntity
  8
0
100
AcDbLine
 62
7
  6
CONTINUOUS
 10
132.438989639
 20
-99.202847436
 11
137.0401747351
 21
-99.202847436
  0
LINE
  5
84C
100
AcDbEntity
  8
0
100
AcDbLine
 62
7
  6
CONTINUOUS
 10
195.8378045428
 20
-99.202847436
 11
200.438989639
 21
-99.202847436
  0
LINE
  5
84D
100
AcDbEntity
  8
0
100
AcDbLine
 62
7
  6
CONTINUOUS
 10
332.438989639
 20
-99.202847436
 11
349.5748916996
 21
-99.202847436
  0
LINE
  5
84E
100
AcDbEntity
  8
0
100
AcDbLine
 62
7
  6
CONTINUOUS
 10
378.438989639
 20
-97.702847436
 11
355.3843667189
 21
-97.702847436
  0
LINE
  5
84F
100
AcDbEntity
  8
0
100
AcDbLine
 62
7
  6
CONTINUOUS
 10
189.9533186066
 20
-97.702847436
 11
184.438989639
 21
-97.702847436
  0
LINE
  5
850
100
AcDbEntity
  8
0
100
AcDbLine
 62
7
  6
CONTINUOUS
 10
148.438989639
 20
-97.702847436
 11
142.9246606714
 21
-97.702847436
  0
LINE
  5
851
100
AcDbEntity
  8
0
100
AcDbLine
 62
7
  6
CONTINUOUS
 10
200.438989639
 20
-99.2029137575
 11
200.438989639
 21
-101.702847436
  0
LINE
  5
852
100
AcDbEntity
  8
0
100
AcDbLine
 62
7
  6
CONTINUOUS
 10
206.438989639
 20
-101.702847436
 11
206.438989639
 21
-100.702847436
  0
LINE
  5
853
100
AcDbEntity
  8
0
100
AcDbLine
 62
7
  6
CONTINUOUS
 10
208.238989639
 20
-101.702847436
 11
208.238989639
 21
-100.702847436
  0
LINE
  5
854
100
AcDbEntity
  8
0
100
AcDbLine
 62
7
  6
CONTINUOUS
 10
213.7205286699
 20
-101.702847436
 11
213.7205286699
 21
-100.702847436
  0
LINE
  5
855
100
AcDbEntity
  8
0
100
AcDbLine
 62
7
  6
CONTINUOUS
 10
215.798989639
 20
-101.702847436
 11
215.798989639
 21
-100.702847436
  0
LINE
  5
856
100
AcDbEntity
  8
0
100
AcDbLine
 62
7
  6
CONTINUOUS
 10
217.238989639
 20
-101.702847436
 11
217.238989639
 21
-100.702847436
  0
LINE
  5
857
100
AcDbEntity
  8
0
100
AcDbLine
 62
7
  6
CONTINUOUS
 10
-97.561010361
 20
-91.702847436
 11
-94.061010361
 21
-91.702847436
  0
LINE
  5
858
100
AcDbEntity
  8
0
100
AcDbLine
 62
7
  6
CONTINUOUS
 10
-43.561010361
 20
-91.702847436
 11
-33.7139982503
 21
-91.702847436
  0
LINE
  5
859
100
AcDbEntity
  8
0
100
AcDbLine
 62
7
  6
CONTINUOUS
 10
173.438989639
 20
-84.702847436
 11
159.438989639
 21
-84.702847436
  0
LINE
  5
85A
100
AcDbEntity
  8
BEZUGSACHSEN
100
AcDbLine
 62
7
  6
CONTINUOUS
 10
153.438989639
 20
-83.702847436
 11
159.438989639
 21
-83.702847436
  0
LINE
  5
85B
100
AcDbEntity
  8
0
100
AcDbLine
 62
7
  6
CONTINUOUS
 10
173.438989639
 20
-83.702847436
 11
179.438989639
 21
-83.702847436
  0
LINE
  5
85C
100
AcDbEntity
  8
0
100
AcDbLine
 62
7
  6
CONTINUOUS
 10
191.6634193232
 20
-98.0043843321
 11
194.1277038262
 21
-98.9013105399
  0
LINE
  5
85D
100
AcDbEntity
  8
0
100
AcDbLine
 62
7
  6
CONTINUOUS
 10
225.878989639
 20
-101.702847436
 11
225.878989639
 21
-100.702847436
  0
LINE
  5
85E
100
AcDbEntity
  8
0
100
AcDbLine
 62
7
  6
CONTINUOUS
 10
228.038989639
 20
-101.702847436
 11
228.038989639
 21
-100.702847436
  0
LINE
  5
85F
100
AcDbEntity
  8
0
100
AcDbLine
 62
7
  6
CONTINUOUS
 10
236.858989639
 20
-101.702847436
 11
236.858989639
 21
-100.702847436
  0
LINE
  5
860
100
AcDbEntity
  8
0
100
AcDbLine
 62
7
  6
CONTINUOUS
 10
251.438989639
 20
-101.702847436
 11
251.438989639
 21
-100.702847436
  0
LINE
  5
861
100
AcDbEntity
  8
0
100
AcDbLine
 62
7
  6
CONTINUOUS
 10
252.688989639
 20
-101.702847436
 11
252.688989639
 21
-100.702847436
  0
LINE
  5
862
100
AcDbEntity
  8
0
100
AcDbLine
 62
7
  6
CONTINUOUS
 10
254.3556562063
 20
-101.702847436
 11
254.3556562063
 21
-100.702847436
  0
LINE
  5
863
100
AcDbEntity
  8
0
100
AcDbLine
 62
7
  6
CONTINUOUS
 10
254.563989639
 20
-101.702847436
 11
254.563989639
 21
-100.702847436
  0
LINE
  5
864
100
AcDbEntity
  8
0
100
AcDbLine
 62
7
  6
CONTINUOUS
 10
254.9806562063
 20
-101.702847436
 11
254.9806562063
 21
-100.702847436
  0
LINE
  5
865
100
AcDbEntity
  8
0
100
AcDbLine
 62
7
  6
CONTINUOUS
 10
255.813989639
 20
-101.702847436
 11
255.813989639
 21
-100.702847436
  0
LINE
  5
866
100
AcDbEntity
  8
0
100
AcDbLine
 62
7
  6
CONTINUOUS
 10
256.6473227736
 20
-101.702847436
 11
256.6473227736
 21
-100.702847436
  0
LINE
  5
867
100
AcDbEntity
  8
0
100
AcDbLine
 62
7
  6
CONTINUOUS
 10
257.688989639
 20
-101.702847436
 11
257.688989639
 21
-100.702847436
  0
LINE
  5
868
100
AcDbEntity
  8
0
100
AcDbLine
 62
7
  6
CONTINUOUS
 10
259.563989639
 20
-101.702847436
 11
259.563989639
 21
-100.702847436
  0
LINE
  5
869
100
AcDbEntity
  8
0
100
AcDbLine
 62
7
  6
CONTINUOUS
 10
260.6056565043
 20
-101.702847436
 11
260.6056565043
 21
-100.702847436
  0
LINE
  5
86A
100
AcDbEntity
  8
0
100
AcDbLine
 62
7
  6
CONTINUOUS
 10
261.438989639
 20
-101.702847436
 11
261.438989639
 21
-100.702847436
  0
LINE
  5
86B
100
AcDbEntity
  8
0
100
AcDbLine
 62
7
  6
CONTINUOUS
 10
262.2723233697
 20
-101.702847436
 11
262.2723233697
 21
-100.702847436
  0
LINE
  5
86C
100
AcDbEntity
  8
0
100
AcDbLine
 62
7
  6
CONTINUOUS
 10
262.4806559083
 20
-101.702847436
 11
262.4806559083
 21
-100.702847436
  0
LINE
  5
86D
100
AcDbEntity
  8
0
100
AcDbLine
 62
7
  6
CONTINUOUS
 10
264.1473233697
 20
-101.702847436
 11
264.1473233697
 21
-100.702847436
  0
LINE
  5
86E
100
AcDbEntity
  8
0
100
AcDbLine
 62
7
  6
CONTINUOUS
 10
271.6473221776
 20
-101.702847436
 11
271.6473221776
 21
-100.702847436
  0
LINE
  5
86F
100
AcDbEntity
  8
0
100
AcDbLine
 62
7
  6
CONTINUOUS
 10
273.313989639
 20
-101.702847436
 11
273.313989639
 21
-100.702847436
  0
LINE
  5
870
100
AcDbEntity
  8
0
100
AcDbLine
 62
7
  6
CONTINUOUS
 10
276.2306571004
 20
-101.702847436
 11
276.2306571004
 21
-100.702847436
  0
LINE
  5
871
100
AcDbEntity
  8
0
100
AcDbLine
 62
7
  6
CONTINUOUS
 10
277.8973221776
 20
-101.702847436
 11
277.8973221776
 21
-100.702847436
  0
LINE
  5
872
100
AcDbEntity
  8
0
100
AcDbLine
 62
7
  6
CONTINUOUS
 10
278.1056571004
 20
-101.702847436
 11
278.1056571004
 21
-100.702847436
  0
LINE
  5
873
100
AcDbEntity
  8
0
100
AcDbLine
 62
7
  6
CONTINUOUS
 10
278.5223221776
 20
-101.702847436
 11
278.5223221776
 21
-100.702847436
  0
LINE
  5
874
100
AcDbEntity
  8
0
100
AcDbLine
 62
7
  6
CONTINUOUS
 10
279.3556571004
 20
-101.702847436
 11
279.3556571004
 21
-100.702847436
  0
LINE
  5
875
100
AcDbEntity
  8
0
100
AcDbLine
 62
7
  6
CONTINUOUS
 10
280.188989639
 20
-101.702847436
 11
280.188989639
 21
-100.702847436
  0
LINE
  5
876
100
AcDbEntity
  8
0
100
AcDbLine
 62
7
  6
CONTINUOUS
 10
281.2306571004
 20
-101.702847436
 11
281.2306571004
 21
-100.702847436
  0
LINE
  5
877
100
AcDbEntity
  8
0
100
AcDbLine
 62
7
  6
CONTINUOUS
 10
283.1056571004
 20
-101.702847436
 11
283.1056571004
 21
-100.702847436
  0
LINE
  5
878
100
AcDbEntity
  8
0
100
AcDbLine
 62
7
  6
CONTINUOUS
 10
284.1473221776
 20
-101.702847436
 11
284.1473221776
 21
-100.702847436
  0
LINE
  5
879
100
AcDbEntity
  8
0
100
AcDbLine
 62
7
  6
CONTINUOUS
 10
284.9806571004
 20
-101.702847436
 11
284.9806571004
 21
-100.702847436
  0
LINE
  5
87A
100
AcDbEntity
  8
0
100
AcDbLine
 62
7
  6
CONTINUOUS
 10
285.813989639
 20
-101.702847436
 11
285.813989639
 21
-100.702847436
  0
LINE
  5
87B
100
AcDbEntity
  8
0
100
AcDbLine
 62
7
  6
CONTINUOUS
 10
286.0223221776
 20
-101.702847436
 11
286.0223221776
 21
-100.702847436
  0
LINE
  5
87C
100
AcDbEntity
  8
0
100
AcDbLine
 62
7
  6
CONTINUOUS
 10
287.688989639
 20
-101.702847436
 11
287.688989639
 21
-100.702847436
  0
LINE
  5
87D
100
AcDbEntity
  8
0
100
AcDbLine
 62
7
  6
CONTINUOUS
 10
287.8973221776
 20
-101.702847436
 11
287.8973221776
 21
-100.702847436
  0
LINE
  5
87E
100
AcDbEntity
  8
0
100
AcDbLine
 62
7
  6
CONTINUOUS
 10
288.313989639
 20
-101.702847436
 11
288.313989639
 21
-100.702847436
  0
LINE
  5
87F
100
AcDbEntity
  8
0
100
AcDbLine
 62
7
  6
CONTINUOUS
 10
289.1473221776
 20
-101.702847436
 11
289.1473221776
 21
-100.702847436
  0
LINE
  5
880
100
AcDbEntity
  8
0
100
AcDbLine
 62
7
  6
CONTINUOUS
 10
289.9806571004
 20
-101.702847436
 11
289.9806571004
 21
-100.702847436
  0
LINE
  5
881
100
AcDbEntity
  8
0
100
AcDbLine
 62
7
  6
CONTINUOUS
 10
291.0223221776
 20
-101.702847436
 11
291.0223221776
 21
-100.702847436
  0
LINE
  5
882
100
AcDbEntity
  8
0
100
AcDbLine
 62
7
  6
CONTINUOUS
 10
291.8556547162
 20
-101.702847436
 11
291.8556547162
 21
-100.702847436
  0
LINE
  5
883
100
AcDbEntity
  8
0
100
AcDbLine
 62
7
  6
CONTINUOUS
 10
292.8973245618
 20
-101.702847436
 11
292.8973245618
 21
-100.702847436
  0
LINE
  5
884
100
AcDbEntity
  8
0
100
AcDbLine
 62
7
  6
CONTINUOUS
 10
293.7306547162
 20
-101.702847436
 11
293.7306547162
 21
-100.702847436
  0
LINE
  5
885
100
AcDbEntity
  8
0
100
AcDbLine
 62
7
  6
CONTINUOUS
 10
294.563989639
 20
-101.702847436
 11
294.563989639
 21
-100.702847436
  0
LINE
  5
886
100
AcDbEntity
  8
0
100
AcDbLine
 62
7
  6
CONTINUOUS
 10
294.9806547162
 20
-101.702847436
 11
294.9806547162
 21
-100.702847436
  0
LINE
  5
887
100
AcDbEntity
  8
0
100
AcDbLine
 62
7
  6
CONTINUOUS
 10
295.188989639
 20
-101.702847436
 11
295.188989639
 21
-100.702847436
  0
LINE
  5
888
100
AcDbEntity
  8
0
100
AcDbLine
 62
7
  6
CONTINUOUS
 10
296.8556547162
 20
-101.702847436
 11
296.8556547162
 21
-100.702847436
  0
LINE
  5
889
100
AcDbEntity
  8
0
100
AcDbLine
 62
7
  6
CONTINUOUS
 10
298.1056547162
 20
-101.702847436
 11
298.1056547162
 21
-100.702847436
  0
LINE
  5
88A
100
AcDbEntity
  8
0
100
AcDbLine
 62
7
  6
CONTINUOUS
 10
301.6473245618
 20
-101.702847436
 11
301.6473245618
 21
-100.702847436
  0
LINE
  5
88B
100
AcDbEntity
  8
0
100
AcDbLine
 62
7
  6
CONTINUOUS
 10
303.313989639
 20
-101.702847436
 11
303.313989639
 21
-100.702847436
  0
LINE
  5
88C
100
AcDbEntity
  8
0
100
AcDbLine
 62
7
  6
CONTINUOUS
 10
304.7723245618
 20
-101.702847436
 11
304.7723245618
 21
-100.702847436
  0
LINE
  5
88D
100
AcDbEntity
  8
0
100
AcDbLine
 62
7
  6
CONTINUOUS
 10
306.438989639
 20
-101.702847436
 11
306.438989639
 21
-100.702847436
  0
LINE
  5
88E
100
AcDbEntity
  8
0
100
AcDbLine
 62
7
  6
CONTINUOUS
 10
309.7723245618
 20
-101.702847436
 11
309.7723245618
 21
-100.702847436
  0
LINE
  5
88F
100
AcDbEntity
  8
0
100
AcDbLine
 62
7
  6
CONTINUOUS
 10
311.0223245618
 20
-101.702847436
 11
311.0223245618
 21
-100.702847436
  0
LINE
  5
890
100
AcDbEntity
  8
0
100
AcDbLine
 62
7
  6
CONTINUOUS
 10
314.3556547162
 20
-101.702847436
 11
314.3556547162
 21
-100.702847436
  0
LINE
  5
891
100
AcDbEntity
  8
0
100
AcDbLine
 62
7
  6
CONTINUOUS
 10
316.0223245618
 20
-101.702847436
 11
316.0223245618
 21
-100.702847436
  0
LINE
  5
892
100
AcDbEntity
  8
0
100
AcDbLine
 62
7
  6
CONTINUOUS
 10
317.2723245618
 20
-101.702847436
 11
317.2723245618
 21
-100.702847436
  0
LINE
  5
893
100
AcDbEntity
  8
0
100
AcDbLine
 62
7
  6
CONTINUOUS
 10
318.5223245618
 20
-101.702847436
 11
318.5223245618
 21
-100.702847436
  0
LINE
  5
894
100
AcDbEntity
  8
0
100
AcDbLine
 62
7
  6
CONTINUOUS
 10
320.188989639
 20
-101.702847436
 11
320.188989639
 21
-100.702847436
  0
LINE
  5
895
100
AcDbEntity
  8
0
100
AcDbLine
 62
7
  6
CONTINUOUS
 10
320.3973245618
 20
-101.702847436
 11
320.3973245618
 21
-100.702847436
  0
LINE
  5
896
100
AcDbEntity
  8
0
100
AcDbLine
 62
7
  6
CONTINUOUS
 10
320.813989639
 20
-101.702847436
 11
320.813989639
 21
-100.702847436
  0
LINE
  5
897
100
AcDbEntity
  8
0
100
AcDbLine
 62
7
  6
CONTINUOUS
 10
321.438989639
 20
-101.702847436
 11
321.438989639
 21
-100.702847436
  0
LINE
  5
898
100
AcDbEntity
  8
0
100
AcDbLine
 62
7
  6
CONTINUOUS
 10
322.2723245618
 20
-101.702847436
 11
322.2723245618
 21
-100.702847436
  0
LINE
  5
899
100
AcDbEntity
  8
0
100
AcDbLine
 62
7
  6
CONTINUOUS
 10
323.1056547162
 20
-101.702847436
 11
323.1056547162
 21
-100.702847436
  0
LWPOLYLINE
  5
89A
100
AcDbEntity
  8
RUNDUNGEN
100
AcDbPolyline
 62
7
  6
CONTINUOUS
 90
3
 70
0
 10
341.2174696001
 20
-139.6435796767
 10
341.3047092453
 20
-139.7855221794
 10
341.3718357949
 20
-139.9042636974
  0
LINE
  5
89B
100
AcDbEntity
  8
0
100
AcDbLine
 62
7
  6
CONTINUOUS
 10
324.7723245618
 20
-101.702847436
 11
324.7723245618
 21
-100.702847436
  0
LINE
  5
89C
100
AcDbEntity
  8
0
100
AcDbLine
 62
7
  6
CONTINUOUS
 10
325.6056547162
 20
-101.702847436
 11
325.6056547162
 21
-100.702847436
  0
LINE
  5
89D
100
AcDbEntity
  8
0
100
AcDbLine
 62
7
  6
CONTINUOUS
 10
326.438989639
 20
-101.702847436
 11
326.438989639
 21
-100.702847436
  0
LINE
  5
89E
100
AcDbEntity
  8
0
100
AcDbLine
 62
7
  6
CONTINUOUS
 10
327.063989639
 20
-101.702847436
 11
327.063989639
 21
-100.702847436
  0
LINE
  5
89F
100
AcDbEntity
  8
0
100
AcDbLine
 62
7
  6
CONTINUOUS
 10
327.4806547162
 20
-101.702847436
 11
327.4806547162
 21
-100.702847436
  0
LINE
  5
8A0
100
AcDbEntity
  8
0
100
AcDbLine
 62
7
  6
CONTINUOUS
 10
327.688989639
 20
-101.702847436
 11
327.688989639
 21
-100.702847436
  0
LINE
  5
8A1
100
AcDbEntity
  8
0
100
AcDbLine
 62
7
  6
CONTINUOUS
 10
332.438989639
 20
-99.2029137575
 11
332.438989639
 21
-101.702847436
  0
LINE
  5
8A2
100
AcDbEntity
  8
RUNDUNGEN
100
AcDbLine
 62
7
  6
CONTINUOUS
 10
341.438989639
 20
-140.0381887185
 11
341.438989639
 21
-141.202847436
  0
LINE
  5
8A3
100
AcDbEntity
  8
RUNDUNGEN
100
AcDbLine
 62
7
  6
CONTINUOUS
 10
380.438989639
 20
-143.702847436
 11
380.438989639
 21
-99.702847436
  0
LINE
  5
8A4
100
AcDbEntity
  8
BEZUGSACHSEN
100
AcDbLine
 62
7
  6
CONTINUOUS
 10
545.6960407244
 20
-134.8848313038
 11
540.0147218394
 21
-140.1675123102
  0
LINE
  5
8A5
100
AcDbEntity
  8
BEZUGSACHSEN
100
AcDbLine
 62
7
  6
CONTINUOUS
 10
540.0147218394
 20
-103.2381825618
 11
545.6960407244
 21
-108.5208635682
  0
LINE
  5
8A6
100
AcDbEntity
  8
RUNDUNGEN
100
AcDbLine
 62
7
  6
CONTINUOUS
 10
487.438989639
 20
-105.702847436
 11
487.438989639
 21
-137.702847436
  0
ARC
  5
8A7
100
AcDbEntity
  8
BEZUGSACHSEN
100
AcDbCircle
 62
7
  6
CONTINUOUS
 10
162.438989639
 20
28.123496082
 40
5.0
100
AcDbArc
 50
180.0
 51
270.0
  0
ARC
  5
8A8
100
AcDbEntity
  8
0
100
AcDbCircle
 62
7
  6
CONTINUOUS
 10
-144.561010361
 20
327.623496082
 40
10.0
100
AcDbArc
 50
90.0
 51
158.9017665198
  0
ARC
  5
8A9
100
AcDbEntity
  8
RUNDUNGEN
100
AcDbCircle
 62
7
  6
CONTINUOUS
 10
-161.561010361
 20
318.623496082
 40
8.0
100
AcDbArc
 50
269.9999999921
 51
323.1301023542
  0
ARC
  5
8AA
100
AcDbEntity
  8
RUNDUNGEN
100
AcDbCircle
 62
7
  6
CONTINUOUS
 10
-166.561010361
 20
322.123496082
 40
6.0
100
AcDbArc
 50
269.9999999755
 51
90.0000000426
  0
ARC
  5
8AB
100
AcDbEntity
  8
RUNDUNGEN
100
AcDbCircle
 62
7
  6
CONTINUOUS
 10
-188.561010361
 20
322.123496082
 40
6.0
100
AcDbArc
 50
89.9999999755
 51
270.0000000426
  0
ARC
  5
8AC
100
AcDbEntity
  8
0
100
AcDbCircle
 62
7
  6
CONTINUOUS
 10
-151.561010361
 20
328.123496082
 40
3.0
100
AcDbArc
 50
90.0
 51
174.6670371752
  0
ARC
  5
8AD
100
AcDbEntity
  8
RUNDUNGEN
100
AcDbCircle
 62
7
  6
CONTINUOUS
 10
-211.3770633796
 20
332.373496082
 40
3.0
100
AcDbArc
 50
90.0
 51
158.241843614
  0
ARC
  5
8AE
100
AcDbEntity
  8
RUNDUNGEN
100
AcDbCircle
 62
7
  6
CONTINUOUS
 10
-157.561010361
 20
315.623496082
 40
3.0
100
AcDbArc
 50
323.1301023542
 51
360.0
  0
ARC
  5
8AF
100
AcDbEntity
  8
RUNDUNGEN
100
AcDbCircle
 62
7
  6
CONTINUOUS
 10
-216.561010361
 20
321.5516993123
 40
2.0
100
AcDbArc
 50
180.0
 51
210.0
  0
ARC
  5
8B0
100
AcDbEntity
  8
RUNDUNGEN
100
AcDbCircle
 62
7
  6
CONTINUOUS
 10
-216.561010361
 20
325.4900761074
 40
2.0
100
AcDbArc
 50
140.967213277
 51
180.0
  0
ARC
  5
8B1
100
AcDbEntity
  8
RUNDUNGEN
100
AcDbCircle
 62
7
  6
CONTINUOUS
 10
-211.4063098226
 20
312.623496082
 40
2.0
100
AcDbArc
 50
210.0
 51
270.0
  0
ARC
  5
8B2
100
AcDbEntity
  8
BEZUGSACHSEN
100
AcDbCircle
 62
7
  6
CONTINUOUS
 10
-238.311010361
 20
343.123496082
 40
26.0
100
AcDbArc
 50
21.758156386
 51
39.032786723
  0
ARC
  5
8B3
100
AcDbEntity
  8
0
100
AcDbCircle
 62
7
  6
CONTINUOUS
 10
-238.311010361
 20
343.123496082
 40
26.0
100
AcDbArc
 50
320.967213277
 51
338.241843614
  0
ARC
  5
8B4
100
AcDbEntity
  8
BEZUGSACHSEN
100
AcDbCircle
 62
7
  6
CONTINUOUS
 10
-211.3770633796
 20
353.873496082
 40
3.0
100
AcDbArc
 50
201.758156386
 51
270.0
  0
ARC
  5
8B5
100
AcDbEntity
  8
BEZUGSACHSEN
100
AcDbCircle
 62
7
  6
CONTINUOUS
 10
-216.561010361
 20
364.6952928517
 40
2.0
100
AcDbArc
 50
150.0
 51
180.0
  0
ARC
  5
8B6
100
AcDbEntity
  8
BEZUGSACHSEN
100
AcDbCircle
 62
7
  6
CONTINUOUS
 10
-216.561010361
 20
360.7569160566
 40
2.0
100
AcDbArc
 50
180.0
 51
219.032786723
  0
ARC
  5
8B7
100
AcDbEntity
  8
BEZUGSACHSEN
100
AcDbCircle
 62
7
  6
CONTINUOUS
 10
-211.4063098226
 20
373.623496082
 40
2.0
100
AcDbArc
 50
90.0
 51
150.0
  0
ARC
  5
8B8
100
AcDbEntity
  8
RUNDUNGEN
100
AcDbCircle
 62
7
  6
CONTINUOUS
 10
-178.311010361
 20
343.123496082
 40
7.75
100
AcDbArc
 50
269.9999999994
 51
90.0000000006
  0
ARC
  5
8B9
100
AcDbEntity
  8
BEZUGSACHSEN
100
AcDbCircle
 62
7
  6
CONTINUOUS
 10
-178.311010361
 20
343.123496082
 40
7.75
100
AcDbArc
 50
270.0
 51
90.0
  0
ARC
  5
8BA
100
AcDbEntity
  8
0
100
AcDbCircle
 62
7
  6
CONTINUOUS
 10
-151.561010361
 20
358.123496082
 40
3.0
100
AcDbArc
 50
180.0
 51
270.0
  0
ARC
  5
8BB
100
AcDbEntity
  8
RUNDUNGEN
100
AcDbCircle
 62
7
  6
CONTINUOUS
 10
-161.561010361
 20
367.623496082
 40
8.0
100
AcDbArc
 50
36.8698976458
 51
90.0
  0
ARC
  5
8BC
100
AcDbEntity
  8
BEZUGSACHSEN
100
AcDbCircle
 62
7
  6
CONTINUOUS
 10
-188.561010361
 20
364.123496082
 40
6.0
100
AcDbArc
 50
89.9999999574
 51
270.0000000245
  0
ARC
  5
8BD
100
AcDbEntity
  8
BEZUGSACHSEN
100
AcDbCircle
 62
7
  6
CONTINUOUS
 10
-166.561010361
 20
364.123496082
 40
6.0
100
AcDbArc
 50
269.9999999574
 51
90.0000000245
  0
ARC
  5
8BE
100
AcDbEntity
  8
RUNDUNGEN
100
AcDbCircle
 62
7
  6
CONTINUOUS
 10
-157.561010361
 20
370.623496082
 40
3.0
100
AcDbArc
 50
0.0
 51
36.8698976458
  0
ARC
  5
8BF
100
AcDbEntity
  8
RUNDUNGEN
100
AcDbCircle
 62
7
  6
CONTINUOUS
 10
-97.561010361
 20
315.123496082
 40
2.0
100
AcDbArc
 50
180.0
 51
270.0
  0
ARC
  5
8C0
100
AcDbEntity
  8
RUNDUNGEN
100
AcDbCircle
 62
7
  6
CONTINUOUS
 10
-43.561010361
 20
315.123496082
 40
2.0
100
AcDbArc
 50
180.0
 51
270.0
  0
ARC
  5
8C1
100
AcDbEntity
  8
RUNDUNGEN
100
AcDbCircle
 62
7
  6
CONTINUOUS
 10
-38.161010361
 20
340.323496082
 40
2.0
100
AcDbArc
 50
180.0002484777
 51
269.9980634912
  0
ARC
  5
8C2
100
AcDbEntity
  8
RUNDUNGEN
100
AcDbCircle
 62
7
  6
CONTINUOUS
 10
-94.061010361
 20
313.623496082
 40
0.5
100
AcDbArc
 50
270.0
 51
360.0
  0
ARC
  5
8C3
100
AcDbEntity
  8
RUNDUNGEN
100
AcDbCircle
 62
7
  6
CONTINUOUS
 10
-97.561010361
 20
371.123496082
 40
2.0
100
AcDbArc
 50
90.0
 51
180.0
  0
ARC
  5
8C4
100
AcDbEntity
  8
RUNDUNGEN
100
AcDbCircle
 62
7
  6
CONTINUOUS
 10
-43.561010361
 20
371.123496082
 40
2.0
100
AcDbArc
 50
90.0
 51
180.0
  0
ARC
  5
8C5
100
AcDbEntity
  8
RUNDUNGEN
100
AcDbCircle
 62
7
  6
CONTINUOUS
 10
-38.161010361
 20
345.923496082
 40
2.0
100
AcDbArc
 50
90.0019445695
 51
179.999747933
  0
ARC
  5
8C6
100
AcDbEntity
  8
RUNDUNGEN
100
AcDbCircle
 62
7
  6
CONTINUOUS
 10
-94.061010361
 20
372.623496082
 40
0.5
100
AcDbArc
 50
0.0
 51
90.0
  0
ARC
  5
8C7
100
AcDbEntity
  8
RUNDUNGEN
100
AcDbCircle
 62
7
  6
CONTINUOUS
 10
154.438989639
 20
272.5265611711
 40
30.0
100
AcDbArc
 50
343.300755766
 51
360.0
  0
ARC
  5
8C8
100
AcDbEntity
  8
BEZUGSACHSEN
100
AcDbCircle
 62
7
  6
CONTINUOUS
 10
127.438989639
 20
233.7204309929
 40
30.0
100
AcDbArc
 50
0.0000003319
 51
16.6992468503
  0
ARC
  5
8C9
100
AcDbEntity
  8
0
100
AcDbCircle
 62
7
  6
CONTINUOUS
 10
38.9969886286
 20
355.0677883372
 40
30.2093969789
100
AcDbArc
 50
324.0067297639
 51
324.728899765
  0
ARC
  5
8CA
100
AcDbEntity
  8
RUNDUNGEN
100
AcDbCircle
 62
7
  6
CONTINUOUS
 10
-33.7139982498
 20
363.123496082
 40
10.0
100
AcDbArc
 50
55.0
 51
90.0
  0
ARC
  5
8CB
100
AcDbEntity
  8
RUNDUNGEN
100
AcDbCircle
 62
7
  6
CONTINUOUS
 10
-33.7139982498
 20
323.123496082
 40
10.0
100
AcDbArc
 50
270.0
 51
305.0
  0
ARC
  5
8CC
100
AcDbEntity
  8
RUNDUNGEN
100
AcDbCircle
 62
7
  6
CONTINUOUS
 10
-16.6969124217
 20
375.623496082
 40
10.0
100
AcDbArc
 50
235.0
 51
270.0
  0
ARC
  5
8CD
100
AcDbEntity
  8
RUNDUNGEN
100
AcDbCircle
 62
7
  6
CONTINUOUS
 10
-16.6969124217
 20
310.623496082
 40
10.0
100
AcDbArc
 50
90.0
 51
125.0
  0
ARC
  5
8CE
100
AcDbEntity
  8
RUNDUNGEN
100
AcDbCircle
 62
7
  6
CONTINUOUS
 10
-2.561010361
 20
350.323496082
 40
6.0
100
AcDbArc
 50
90.0006351013
 51
180.0011940247
  0
ARC
  5
8CF
100
AcDbEntity
  8
RUNDUNGEN
100
AcDbCircle
 62
7
  6
CONTINUOUS
 10
-2.561010361
 20
335.923496082
 40
6.0
100
AcDbArc
 50
179.9989400076
 51
270.0009127168
  0
ARC
  5
8D0
100
AcDbEntity
  8
RUNDUNGEN
100
AcDbCircle
 62
7
  6
CONTINUOUS
 10
145.438989639
 20
350.323496082
 40
6.0
100
AcDbArc
 50
60.0023692481
 51
90.0015246793
  0
ARC
  5
8D1
100
AcDbEntity
  8
RUNDUNGEN
100
AcDbCircle
 62
7
  6
CONTINUOUS
 10
145.438989639
 20
335.923496082
 40
6.0
100
AcDbArc
 50
269.9998489178
 51
299.9978728424
  0
ARC
  5
8D2
100
AcDbEntity
  8
BEZUGSACHSEN
100
AcDbCircle
 62
7
  6
CONTINUOUS
 10
153.438989639
 20
376.123496082
 40
5.0
100
AcDbArc
 50
90.0
 51
180.0
  0
ARC
  5
8D3
100
AcDbEntity
  8
RUNDUNGEN
100
AcDbCircle
 62
7
  6
CONTINUOUS
 10
142.9246606714
 20
362.123496082
 40
5.0
100
AcDbArc
 50
90.0
 51
110.0
  0
ARC
  5
8D4
100
AcDbEntity
  8
RUNDUNGEN
100
AcDbCircle
 62
7
  6
CONTINUOUS
 10
142.9246606714
 20
324.123496082
 40
5.0
100
AcDbArc
 50
250.0
 51
270.0
  0
ARC
  5
8D5
100
AcDbEntity
  8
RUNDUNGEN
100
AcDbCircle
 62
7
  6
CONTINUOUS
 10
137.0401747351
 20
370.623496082
 40
5.0
100
AcDbArc
 50
270.0
 51
290.0
  0
ARC
  5
8D6
100
AcDbEntity
  8
RUNDUNGEN
100
AcDbCircle
 62
7
  6
CONTINUOUS
 10
137.0401747351
 20
315.623496082
 40
5.0
100
AcDbArc
 50
70.0
 51
90.0
  0
ARC
  5
8D7
100
AcDbEntity
  8
BEZUGSACHSEN
100
AcDbCircle
 62
7
  6
CONTINUOUS
 10
162.438989639
 20
308.623496082
 40
3.0
100
AcDbArc
 50
180.0
 51
270.0
  0
ARC
  5
8D8
100
AcDbEntity
  8
RUNDUNGEN
100
AcDbCircle
 62
7
  6
CONTINUOUS
 10
170.438989639
 20
28.123496082
 40
5.0
100
AcDbArc
 50
270.0
 51
360.0
  0
ARC
  5
8D9
100
AcDbEntity
  8
RUNDUNGEN
100
AcDbCircle
 62
7
  6
CONTINUOUS
 10
205.438989639
 20
233.7204309929
 40
30.0
100
AcDbArc
 50
163.3007531497
 51
179.9999996681
  0
ARC
  5
8DA
100
AcDbEntity
  8
BEZUGSACHSEN
100
AcDbCircle
 62
7
  6
CONTINUOUS
 10
178.438989639
 20
272.5265611711
 40
30.0
100
AcDbArc
 50
180.0
 51
196.699244234
  0
ARC
  5
8DB
100
AcDbEntity
  8
RUNDUNGEN
100
AcDbCircle
 62
7
  6
CONTINUOUS
 10
349.5748916996
 20
310.623496082
 40
10.0
100
AcDbArc
 50
61.0449756281
 51
90.0
  0
ARC
  5
8DC
100
AcDbEntity
  8
RUNDUNGEN
100
AcDbCircle
 62
7
  6
CONTINUOUS
 10
349.5748916996
 20
375.623496082
 40
10.0
100
AcDbArc
 50
270.0
 51
298.9550243719
  0
ARC
  5
8DD
100
AcDbEntity
  8
0
100
AcDbCircle
 62
7
  6
CONTINUOUS
 10
349.5748916996
 20
375.623496082
 40
10.0
100
AcDbArc
 50
270.0
 51
298.9550243719
  0
ARC
  5
8DE
100
AcDbEntity
  8
0
100
AcDbCircle
 62
7
  6
CONTINUOUS
 10
349.5748916996
 20
310.623496082
 40
10.0
100
AcDbArc
 50
61.0449756281
 51
90.0
  0
ARC
  5
8DF
100
AcDbEntity
  8
RUNDUNGEN
100
AcDbCircle
 62
7
  6
CONTINUOUS
 10
335.438989639
 20
350.323496082
 40
6.0
100
AcDbArc
 50
359.9988258568
 51
89.9993738383
  0
ARC
  5
8E0
100
AcDbEntity
  8
RUNDUNGEN
100
AcDbCircle
 62
7
  6
CONTINUOUS
 10
335.438989639
 20
335.923496082
 40
6.0
100
AcDbArc
 50
269.99908602
 51
0.0010434606
  0
ARC
  5
8E1
100
AcDbEntity
  8
RUNDUNGEN
100
AcDbCircle
 62
7
  6
CONTINUOUS
 10
187.438989639
 20
350.323496082
 40
6.0
100
AcDbArc
 50
89.9984805542
 51
119.9976307536
  0
ARC
  5
8E2
100
AcDbEntity
  8
RUNDUNGEN
100
AcDbCircle
 62
7
  6
CONTINUOUS
 10
187.438989639
 20
335.923496082
 40
6.0
100
AcDbArc
 50
240.0021271576
 51
270.000156154
  0
ARC
  5
8E3
100
AcDbEntity
  8
RUNDUNGEN
100
AcDbCircle
 62
7
  6
CONTINUOUS
 10
179.438989639
 20
376.123496082
 40
5.0
100
AcDbArc
 50
0.0
 51
90.0
  0
ARC
  5
8E4
100
AcDbEntity
  8
RUNDUNGEN
100
AcDbCircle
 62
7
  6
CONTINUOUS
 10
189.9533186066
 20
362.123496082
 40
5.0
100
AcDbArc
 50
70.0
 51
90.0
  0
ARC
  5
8E5
100
AcDbEntity
  8
RUNDUNGEN
100
AcDbCircle
 62
7
  6
CONTINUOUS
 10
189.9533186066
 20
324.123496082
 40
5.0
100
AcDbArc
 50
270.0
 51
290.0
  0
ARC
  5
8E6
100
AcDbEntity
  8
RUNDUNGEN
100
AcDbCircle
 62
7
  6
CONTINUOUS
 10
195.8378045428
 20
370.623496082
 40
5.0
100
AcDbArc
 50
250.0
 51
270.0
  0
ARC
  5
8E7
100
AcDbEntity
  8
RUNDUNGEN
100
AcDbCircle
 62
7
  6
CONTINUOUS
 10
195.8378045428
 20
315.623496082
 40
5.0
100
AcDbArc
 50
90.0
 51
110.0
  0
ARC
  5
8E8
100
AcDbEntity
  8
RUNDUNGEN
100
AcDbCircle
 62
7
  6
CONTINUOUS
 10
170.438989639
 20
308.623496082
 40
3.0
100
AcDbArc
 50
270.0
 51
360.0
  0
ARC
  5
8E9
100
AcDbEntity
  8
RUNDUNGEN
100
AcDbCircle
 62
7
  6
CONTINUOUS
 10
355.3843667189
 20
321.123496082
 40
2.0
100
AcDbArc
 50
241.0449756281
 51
270.0
  0
ARC
  5
8EA
100
AcDbEntity
  8
RUNDUNGEN
100
AcDbCircle
 62
7
  6
CONTINUOUS
 10
355.3843667189
 20
365.123496082
 40
2.0
100
AcDbArc
 50
90.0
 51
118.9550243719
  0
ARC
  5
8EB
100
AcDbEntity
  8
RUNDUNGEN
100
AcDbCircle
 62
7
  6
CONTINUOUS
 10
378.438989639
 20
321.123496082
 40
2.0
100
AcDbArc
 50
270.0
 51
360.0
  0
ARC
  5
8EC
100
AcDbEntity
  8
RUNDUNGEN
100
AcDbCircle
 62
7
  6
CONTINUOUS
 10
378.438989639
 20
365.123496082
 40
2.0
100
AcDbArc
 50
0.0
 51
90.0
  0
ARC
  5
8ED
100
AcDbEntity
  8
RUNDUNGEN
100
AcDbCircle
 62
7
  6
CONTINUOUS
 10
494.438989639
 20
318.623496082
 40
8.0
100
AcDbArc
 50
216.8698976458
 51
270.0
  0
ARC
  5
8EE
100
AcDbEntity
  8
RUNDUNGEN
100
AcDbCircle
 62
7
  6
CONTINUOUS
 10
499.438989639
 20
321.623496082
 40
6.0
100
AcDbArc
 50
89.9999999755
 51
270.0000000426
  0
ARC
  5
8EF
100
AcDbEntity
  8
RUNDUNGEN
100
AcDbCircle
 62
7
  6
CONTINUOUS
 10
513.438989639
 20
321.623496082
 40
6.0
100
AcDbArc
 50
269.9999999755
 51
90.0000000426
  0
ARC
  5
8F0
100
AcDbEntity
  8
0
100
AcDbCircle
 62
7
  6
CONTINUOUS
 10
484.438989639
 20
328.123496082
 40
3.0
100
AcDbArc
 50
0.0
 51
90.0
  0
ARC
  5
8F1
100
AcDbEntity
  8
RUNDUNGEN
100
AcDbCircle
 62
7
  6
CONTINUOUS
 10
544.2550426575
 20
332.373496082
 40
3.0
100
AcDbArc
 50
21.758156386
 51
90.0
  0
ARC
  5
8F2
100
AcDbEntity
  8
RUNDUNGEN
100
AcDbCircle
 62
7
  6
CONTINUOUS
 10
490.438989639
 20
315.623496082
 40
3.0
100
AcDbArc
 50
180.0
 51
216.8698976458
  0
ARC
  5
8F3
100
AcDbEntity
  8
RUNDUNGEN
100
AcDbCircle
 62
7
  6
CONTINUOUS
 10
549.438989639
 20
321.5516993123
 40
2.0
100
AcDbArc
 50
330.0
 51
360.0
  0
ARC
  5
8F4
100
AcDbEntity
  8
RUNDUNGEN
100
AcDbCircle
 62
7
  6
CONTINUOUS
 10
549.438989639
 20
325.4900761074
 40
2.0
100
AcDbArc
 50
0.0
 51
39.032786723
  0
ARC
  5
8F5
100
AcDbEntity
  8
RUNDUNGEN
100
AcDbCircle
 62
7
  6
CONTINUOUS
 10
544.2842891006
 20
312.623496082
 40
2.0
100
AcDbArc
 50
270.0
 51
330.0
  0
ARC
  5
8F6
100
AcDbEntity
  8
BEZUGSACHSEN
100
AcDbCircle
 62
7
  6
CONTINUOUS
 10
571.188989639
 20
343.123496082
 40
26.0
100
AcDbArc
 50
140.967213277
 51
158.241843614
  0
ARC
  5
8F7
100
AcDbEntity
  8
0
100
AcDbCircle
 62
7
  6
CONTINUOUS
 10
571.188989639
 20
343.123496082
 40
26.0
100
AcDbArc
 50
201.758156386
 51
219.032786723
  0
ARC
  5
8F8
100
AcDbEntity
  8
RUNDUNGEN
100
AcDbCircle
 62
7
  6
CONTINUOUS
 10
494.438989639
 20
367.623496082
 40
8.0
100
AcDbArc
 50
90.0
 51
143.1301023542
  0
ARC
  5
8F9
100
AcDbEntity
  8
BEZUGSACHSEN
100
AcDbCircle
 62
7
  6
CONTINUOUS
 10
511.188989639
 20
343.123496082
 40
7.75
100
AcDbArc
 50
90.0
 51
270.0
  0
ARC
  5
8FA
100
AcDbEntity
  8
BEZUGSACHSEN
100
AcDbCircle
 62
7
  6
CONTINUOUS
 10
513.438989639
 20
364.623496082
 40
6.0
100
AcDbArc
 50
269.9999999574
 51
90.0000000245
  0
ARC
  5
8FB
100
AcDbEntity
  8
BEZUGSACHSEN
100
AcDbCircle
 62
7
  6
CONTINUOUS
 10
499.438989639
 20
364.623496082
 40
6.0
100
AcDbArc
 50
89.9999999574
 51
270.0000000245
  0
ARC
  5
8FC
100
AcDbEntity
  8
0
100
AcDbCircle
 62
7
  6
CONTINUOUS
 10
484.438989639
 20
358.123496082
 40
3.0
100
AcDbArc
 50
270.0
 51
360.0
  0
ARC
  5
8FD
100
AcDbEntity
  8
BEZUGSACHSEN
100
AcDbCircle
 62
7
  6
CONTINUOUS
 10
544.2550426575
 20
353.873496082
 40
3.0
100
AcDbArc
 50
270.0
 51
338.241843614
  0
ARC
  5
8FE
100
AcDbEntity
  8
RUNDUNGEN
100
AcDbCircle
 62
7
  6
CONTINUOUS
 10
490.438989639
 20
370.623496082
 40
3.0
100
AcDbArc
 50
143.1301023542
 51
180.0
  0
ARC
  5
8FF
100
AcDbEntity
  8
BEZUGSACHSEN
100
AcDbCircle
 62
7
  6
CONTINUOUS
 10
549.438989639
 20
364.6952928517
 40
2.0
100
AcDbArc
 50
0.0
 51
30.0
  0
ARC
  5
900
100
AcDbEntity
  8
BEZUGSACHSEN
100
AcDbCircle
 62
7
  6
CONTINUOUS
 10
549.438989639
 20
360.7569160566
 40
2.0
100
AcDbArc
 50
320.967213277
 51
360.0
  0
ARC
  5
901
100
AcDbEntity
  8
BEZUGSACHSEN
100
AcDbCircle
 62
7
  6
CONTINUOUS
 10
544.2842891006
 20
373.623496082
 40
2.0
100
AcDbArc
 50
30.0
 51
90.0
  0
ARC
  5
902
100
AcDbEntity
  8
BEZUGSACHSEN
100
AcDbCircle
 62
7
  6
CONTINUOUS
 10
158.438989639
 20
517.5837954899
 40
10.0
100
AcDbArc
 50
180.0
 51
270.0
  0
ARC
  5
903
100
AcDbEntity
  8
RUNDUNGEN
100
AcDbCircle
 62
7
  6
CONTINUOUS
 10
-33.7139982498
 20
507.5837954899
 40
10.0
100
AcDbArc
 50
270.0
 51
305.0
  0
ARC
  5
904
100
AcDbEntity
  8
RUNDUNGEN
100
AcDbCircle
 62
7
  6
CONTINUOUS
 10
-16.6969124217
 20
495.0837954899
 40
10.0
100
AcDbArc
 50
90.0
 51
125.0
  0
ARC
  5
905
100
AcDbEntity
  8
BEZUGSACHSEN
100
AcDbCircle
 62
7
  6
CONTINUOUS
 10
153.438989639
 20
494.5837954899
 40
5.0
100
AcDbArc
 50
180.0
 51
270.0
  0
ARC
  5
906
100
AcDbEntity
  8
BEZUGSACHSEN
100
AcDbCircle
 62
7
  6
CONTINUOUS
 10
162.438989639
 20
516.5837954899
 40
5.0
100
AcDbArc
 50
180.0
 51
270.0
  0
ARC
  5
907
100
AcDbEntity
  8
RUNDUNGEN
100
AcDbCircle
 62
7
  6
CONTINUOUS
 10
142.9246606714
 20
508.5837954899
 40
5.0
100
AcDbArc
 50
250.0
 51
270.0
  0
ARC
  5
908
100
AcDbEntity
  8
RUNDUNGEN
100
AcDbCircle
 62
7
  6
CONTINUOUS
 10
137.0401747351
 20
500.0837954899
 40
5.0
100
AcDbArc
 50
70.0
 51
90.0
  0
ARC
  5
909
100
AcDbEntity
  8
0
100
AcDbCircle
 62
7
  6
CONTINUOUS
 10
-151.561010361
 20
512.5837954899
 40
3.0
100
AcDbArc
 50
90.0
 51
180.0
  0
ARC
  5
90A
100
AcDbEntity
  8
RUNDUNGEN
100
AcDbCircle
 62
7
  6
CONTINUOUS
 10
-157.561010361
 20
511.5837954899
 40
3.0
100
AcDbArc
 50
270.0
 51
360.0
  0
ARC
  5
90B
100
AcDbEntity
  8
RUNDUNGEN
100
AcDbCircle
 62
7
  6
CONTINUOUS
 10
-97.561010361
 20
499.5837954899
 40
2.0
100
AcDbArc
 50
180.0
 51
270.0
  0
ARC
  5
90C
100
AcDbEntity
  8
RUNDUNGEN
100
AcDbCircle
 62
7
  6
CONTINUOUS
 10
-205.7748479964
 20
510.5837954899
 40
2.0
100
AcDbArc
 50
227.0822885386
 51
270.0
  0
ARC
  5
90D
100
AcDbEntity
  8
RUNDUNGEN
100
AcDbCircle
 62
7
  6
CONTINUOUS
 10
-43.561010361
 20
499.5837954899
 40
2.0
100
AcDbArc
 50
180.0
 51
270.0
  0
ARC
  5
90E
100
AcDbEntity
  8
RUNDUNGEN
100
AcDbCircle
 62
7
  6
CONTINUOUS
 10
-94.061010361
 20
498.0837954899
 40
0.5
100
AcDbArc
 50
270.0
 51
360.0
  0
ARC
  5
90F
100
AcDbEntity
  8
RUNDUNGEN
100
AcDbCircle
 62
7
  6
CONTINUOUS
 10
-200.561010361
 20
527.5837954899
 40
18.0
100
AcDbArc
 50
132.9177114614
 51
227.0822885386
  0
ARC
  5
910
100
AcDbEntity
  8
BEZUGSACHSEN
100
AcDbCircle
 62
7
  6
CONTINUOUS
 10
-200.561010361
 20
527.5837954899
 40
18.0
100
AcDbArc
 50
202.3417371886
 51
203.3372088591
  0
ARC
  5
911
100
AcDbEntity
  8
BEZUGSACHSEN
100
AcDbCircle
 62
7
  6
CONTINUOUS
 10
-200.561010361
 20
527.5837954899
 40
18.0
100
AcDbArc
 50
138.2201467797
 51
142.4077974495
  0
ARC
  5
912
100
AcDbEntity
  8
BEZUGSACHSEN
100
AcDbCircle
 62
7
  6
CONTINUOUS
 10
-200.561010361
 20
527.5837954899
 40
18.0
100
AcDbArc
 50
146.5822959602
 51
152.1021925007
  0
ARC
  5
913
100
AcDbEntity
  8
BEZUGSACHSEN
100
AcDbCircle
 62
7
  6
CONTINUOUS
 10
-200.561010361
 20
527.5837954899
 40
18.0
100
AcDbArc
 50
156.0638100459
 51
200.6848175905
  0
ARC
  5
914
100
AcDbEntity
  8
0
100
AcDbCircle
 62
7
  6
CONTINUOUS
 10
-151.561010361
 20
542.5837954899
 40
3.0
100
AcDbArc
 50
180.0
 51
270.0
  0
ARC
  5
915
100
AcDbEntity
  8
RUNDUNGEN
100
AcDbCircle
 62
7
  6
CONTINUOUS
 10
-157.561010361
 20
543.5837954899
 40
3.0
100
AcDbArc
 50
0.0
 51
90.0
  0
ARC
  5
916
100
AcDbEntity
  8
RUNDUNGEN
100
AcDbCircle
 62
7
  6
CONTINUOUS
 10
-97.561010361
 20
555.5837954899
 40
2.0
100
AcDbArc
 50
90.0
 51
180.0
  0
ARC
  5
917
100
AcDbEntity
  8
RUNDUNGEN
100
AcDbCircle
 62
7
  6
CONTINUOUS
 10
-205.7748479964
 20
544.5837954899
 40
2.0
100
AcDbArc
 50
90.0
 51
132.9177114614
  0
ARC
  5
918
100
AcDbEntity
  8
BEZUGSACHSEN
100
AcDbCircle
 62
7
  6
CONTINUOUS
 10
-205.7748479964
 20
544.5837954899
 40
2.0
100
AcDbArc
 50
90.0
 51
132.9177114614
  0
ARC
  5
919
100
AcDbEntity
  8
RUNDUNGEN
100
AcDbCircle
 62
7
  6
CONTINUOUS
 10
-43.561010361
 20
555.5837954899
 40
2.0
100
AcDbArc
 50
90.0
 51
180.0
  0
ARC
  5
91A
100
AcDbEntity
  8
RUNDUNGEN
100
AcDbCircle
 62
7
  6
CONTINUOUS
 10
-42.161010361
 20
555.5837954899
 40
2.0
100
AcDbArc
 50
45.4562426261
 51
90.0
  0
ARC
  5
91B
100
AcDbEntity
  8
RUNDUNGEN
100
AcDbCircle
 62
7
  6
CONTINUOUS
 10
-94.061010361
 20
557.0837954899
 40
0.5
100
AcDbArc
 50
0.0
 51
90.0
  0
ARC
  5
91C
100
AcDbEntity
  8
BEZUGSACHSEN
100
AcDbCircle
 62
7
  6
CONTINUOUS
 10
158.438989639
 20
537.5837954899
 40
10.0
100
AcDbArc
 50
90.0
 51
180.0
  0
ARC
  5
91D
100
AcDbEntity
  8
BEZUGSACHSEN
100
AcDbCircle
 62
7
  6
CONTINUOUS
 10
162.4388432679
 20
538.5839404746
 40
4.9998548387
100
AcDbArc
 50
90.0
 51
180.0016615381
  0
ARC
  5
91E
100
AcDbEntity
  8
BEZUGSACHSEN
100
AcDbCircle
 62
7
  6
CONTINUOUS
 10
153.438989639
 20
560.5837954899
 40
5.0
100
AcDbArc
 50
90.0
 51
180.0
  0
ARC
  5
91F
100
AcDbEntity
  8
RUNDUNGEN
100
AcDbCircle
 62
7
  6
CONTINUOUS
 10
174.438989639
 20
517.5837954899
 40
10.0
100
AcDbArc
 50
270.0
 51
360.0
  0
ARC
  5
920
100
AcDbEntity
  8
0
100
AcDbCircle
 62
7
  6
CONTINUOUS
 10
349.5748916996
 20
495.0837954899
 40
10.0
100
AcDbArc
 50
61.0449756281
 51
90.0
  0
ARC
  5
921
100
AcDbEntity
  8
RUNDUNGEN
100
AcDbCircle
 62
7
  6
CONTINUOUS
 10
179.438989639
 20
494.5837954899
 40
5.0
100
AcDbArc
 50
270.0
 51
360.0
  0
ARC
  5
922
100
AcDbEntity
  8
RUNDUNGEN
100
AcDbCircle
 62
7
  6
CONTINUOUS
 10
170.438989639
 20
516.5837954899
 40
5.0
100
AcDbArc
 50
270.0
 51
360.0
  0
ARC
  5
923
100
AcDbEntity
  8
RUNDUNGEN
100
AcDbCircle
 62
7
  6
CONTINUOUS
 10
189.9533186066
 20
508.5837954899
 40
5.0
100
AcDbArc
 50
270.0
 51
290.0
  0
ARC
  5
924
100
AcDbEntity
  8
RUNDUNGEN
100
AcDbCircle
 62
7
  6
CONTINUOUS
 10
195.8378045428
 20
500.0837954899
 40
5.0
100
AcDbArc
 50
90.0
 51
110.0
  0
ARC
  5
925
100
AcDbEntity
  8
0
100
AcDbCircle
 62
7
  6
CONTINUOUS
 10
484.438989639
 20
512.5837954899
 40
3.0
100
AcDbArc
 50
0.0
 51
90.0
  0
ARC
  5
926
100
AcDbEntity
  8
RUNDUNGEN
100
AcDbCircle
 62
7
  6
CONTINUOUS
 10
490.438989639
 20
511.5837954899
 40
3.0
100
AcDbArc
 50
180.0
 51
270.0
  0
ARC
  5
927
100
AcDbEntity
  8
RUNDUNGEN
100
AcDbCircle
 62
7
  6
CONTINUOUS
 10
538.6528272744
 20
510.5837954899
 40
2.0
100
AcDbArc
 50
270.0
 51
312.9177114614
  0
ARC
  5
928
100
AcDbEntity
  8
BEZUGSACHSEN
100
AcDbCircle
 62
7
  6
CONTINUOUS
 10
538.6528272744
 20
510.5837954899
 40
2.0
100
AcDbArc
 50
270.0
 51
277.1491605823
  0
ARC
  5
929
100
AcDbEntity
  8
BEZUGSACHSEN
100
AcDbCircle
 62
7
  6
CONTINUOUS
 10
538.6528272744
 20
510.5837954899
 40
2.0
100
AcDbArc
 50
291.4563825553
 51
301.1233016945
  0
ARC
  5
92A
100
AcDbEntity
  8
RUNDUNGEN
100
AcDbCircle
 62
7
  6
CONTINUOUS
 10
378.438989639
 20
505.5837954899
 40
2.0
100
AcDbArc
 50
270.0
 51
360.0
  0
ARC
  5
92B
100
AcDbEntity
  8
RUNDUNGEN
100
AcDbCircle
 62
7
  6
CONTINUOUS
 10
355.3843667189
 20
505.5837954899
 40
2.0
100
AcDbArc
 50
241.0449756281
 51
270.0
  0
ARC
  5
92C
100
AcDbEntity
  8
RUNDUNGEN
100
AcDbCircle
 62
7
  6
CONTINUOUS
 10
174.438989639
 20
537.5837954899
 40
10.0
100
AcDbArc
 50
0.0
 51
90.0
  0
ARC
  5
92D
100
AcDbEntity
  8
RUNDUNGEN
100
AcDbCircle
 62
7
  6
CONTINUOUS
 10
170.4391357687
 20
538.5839404098
 40
4.99985508
100
AcDbArc
 50
359.9983392047
 51
90.0016746595
  0
ARC
  5
92E
100
AcDbEntity
  8
0
100
AcDbCircle
 62
7
  6
CONTINUOUS
 10
349.5748916996
 20
560.0837954899
 40
10.0
100
AcDbArc
 50
270.0
 51
298.9550243719
  0
ARC
  5
92F
100
AcDbEntity
  8
RUNDUNGEN
100
AcDbCircle
 62
7
  6
CONTINUOUS
 10
179.438989639
 20
560.5837954899
 40
5.0
100
AcDbArc
 50
0.0
 51
90.0
  0
ARC
  5
930
100
AcDbEntity
  8
RUNDUNGEN
100
AcDbCircle
 62
7
  6
CONTINUOUS
 10
344.438989639
 20
547.0837954899
 40
3.0
100
AcDbArc
 50
90.0
 51
180.0
  0
ARC
  5
931
100
AcDbEntity
  8
0
100
AcDbCircle
 62
7
  6
CONTINUOUS
 10
484.438989639
 20
542.5837954899
 40
3.0
100
AcDbArc
 50
270.0
 51
360.0
  0
ARC
  5
932
100
AcDbEntity
  8
RUNDUNGEN
100
AcDbCircle
 62
7
  6
CONTINUOUS
 10
490.438989639
 20
543.5837954899
 40
3.0
100
AcDbArc
 50
90.0
 51
180.0
  0
ARC
  5
933
100
AcDbEntity
  8
RUNDUNGEN
100
AcDbCircle
 62
7
  6
CONTINUOUS
 10
533.438989639
 20
527.5837954899
 40
18.0
100
AcDbArc
 50
312.9177114614
 51
47.0822885386
  0
ARC
  5
934
100
AcDbEntity
  8
BEZUGSACHSEN
100
AcDbCircle
 62
7
  6
CONTINUOUS
 10
533.438989639
 20
527.5837954899
 40
18.0
100
AcDbArc
 50
339.3149198247
 51
340.826768647
  0
ARC
  5
935
100
AcDbEntity
  8
BEZUGSACHSEN
100
AcDbCircle
 62
7
  6
CONTINUOUS
 10
533.438989639
 20
527.5837954899
 40
18.0
100
AcDbArc
 50
19.1732310427
 51
42.8782235743
  0
ARC
  5
936
100
AcDbEntity
  8
BEZUGSACHSEN
100
AcDbCircle
 62
7
  6
CONTINUOUS
 10
533.438989639
 20
527.5837954899
 40
18.0
100
AcDbArc
 50
322.0682653701
 51
322.4077974495
  0
ARC
  5
937
100
AcDbEntity
  8
BEZUGSACHSEN
100
AcDbCircle
 62
7
  6
CONTINUOUS
 10
533.438989639
 20
527.5837954899
 40
18.0
100
AcDbArc
 50
327.5013490716
 51
336.0570110568
  0
ARC
  5
938
100
AcDbEntity
  8
BEZUGSACHSEN
100
AcDbCircle
 62
7
  6
CONTINUOUS
 10
533.438989639
 20
527.5837954899
 40
18.0
100
AcDbArc
 50
336.4588553194
 51
337.6585684204
  0
ARC
  5
939
100
AcDbEntity
  8
RUNDUNGEN
100
AcDbCircle
 62
7
  6
CONTINUOUS
 10
538.6528272744
 20
544.5837954899
 40
2.0
100
AcDbArc
 50
47.0822885386
 51
90.0
  0
ARC
  5
93A
100
AcDbEntity
  8
BEZUGSACHSEN
100
AcDbCircle
 62
7
  6
CONTINUOUS
 10
538.6528472655
 20
544.5837769015
 40
2.0
100
AcDbArc
 50
47.0830705669
 51
90.0005726993
  0
ARC
  5
93B
100
AcDbEntity
  8
RUNDUNGEN
100
AcDbCircle
 62
7
  6
CONTINUOUS
 10
378.438989639
 20
549.5837954899
 40
2.0
100
AcDbArc
 50
0.0
 51
90.0
  0
ARC
  5
93C
100
AcDbEntity
  8
RUNDUNGEN
100
AcDbCircle
 62
7
  6
CONTINUOUS
 10
355.3843667189
 20
549.5837954899
 40
2.0
100
AcDbArc
 50
90.0
 51
118.9550243719
  0
ARC
  5
93D
100
AcDbEntity
  8
BEZUGSACHSEN
100
AcDbCircle
 62
7
  6
CONTINUOUS
 10
666.3927704104
 20
236.1323068257
 40
30.0
100
AcDbArc
 50
359.9999924628
 51
7.594637185
  0
ARC
  5
93E
100
AcDbEntity
  8
BEZUGSACHSEN
100
AcDbCircle
 62
7
  6
CONTINUOUS
 10
702.3927704104
 20
270.1146853383
 40
30.0
100
AcDbArc
 50
352.4053449973
 51
360.0
  0
ARC
  5
93F
100
AcDbEntity
  8
RUNDUNGEN
100
AcDbCircle
 62
7
  6
CONTINUOUS
 10
684.3927704104
 20
306.6269209002
 40
8.0
100
AcDbArc
 50
14.452180753
 51
52.5047502354
  0
ARC
  5
940
100
AcDbEntity
  8
BEZUGSACHSEN
100
AcDbCircle
 62
7
  6
CONTINUOUS
 10
684.392776718
 20
306.6269133957
 40
7.9999971966
100
AcDbArc
 50
0.0000537469
 51
52.5048187932
  0
CIRCLE
  5
941
100
AcDbEntity
  8
BEZUGSACHSEN
100
AcDbCircle
 62
7
  6
CONTINUOUS
 10
689.3927704104
 20
343.123496082
 40
3.5
  0
ARC
  5
942
100
AcDbEntity
  8
RUNDUNGEN
100
AcDbCircle
 62
7
  6
CONTINUOUS
 10
696.3927704104
 20
332.373496082
 40
3.0
100
AcDbArc
 50
90.0000027633
 51
180.0000238688
  0
ARC
  5
943
100
AcDbEntity
  8
RUNDUNGEN
100
AcDbCircle
 62
7
  6
CONTINUOUS
 10
696.3927704104
 20
313.623496082
 40
3.0
100
AcDbArc
 50
180.0
 51
270.0
  0
ARC
  5
944
100
AcDbEntity
  8
BEZUGSACHSEN
100
AcDbCircle
 62
7
  6
CONTINUOUS
 10
696.3927704104
 20
353.873496082
 40
3.0
100
AcDbArc
 50
179.9999761312
 51
269.9999972367
  0
ARC
  5
945
100
AcDbEntity
  8
BEZUGSACHSEN
100
AcDbCircle
 62
7
  6
CONTINUOUS
 10
696.3927704104
 20
372.623496082
 40
3.0
100
AcDbArc
 50
90.0
 51
180.0
  0
ARC
  5
946
100
AcDbEntity
  8
BEZUGSACHSEN
100
AcDbCircle
 62
7
  6
CONTINUOUS
 10
712.3927704104
 20
39.123496082
 40
16.0
100
AcDbArc
 50
180.0
 51
360.0
  0
ARC
  5
947
100
AcDbEntity
  8
BEZUGSACHSEN
100
AcDbCircle
 62
7
  6
CONTINUOUS
 10
722.3927704104
 20
270.1146853383
 40
30.0
100
AcDbArc
 50
180.0
 51
187.5946542905
  0
ARC
  5
948
100
AcDbEntity
  8
RUNDUNGEN
100
AcDbCircle
 62
7
  6
CONTINUOUS
 10
712.3927704104
 20
343.123496082
 40
38.0
100
AcDbArc
 50
53.6752564444
 51
127.4438380312
  0
ARC
  5
949
100
AcDbEntity
  8
BEZUGSACHSEN
100
AcDbCircle
 62
7
  6
CONTINUOUS
 10
712.3927704104
 20
343.123496082
 40
38.0
100
AcDbArc
 50
306.3912536195
 51
233.6087139216
  0
ARC
  5
94A
100
AcDbEntity
  8
RUNDUNGEN
100
AcDbCircle
 62
7
  6
CONTINUOUS
 10
712.3927704104
 20
343.123496082
 40
30.0
100
AcDbArc
 50
129.3156838258
 51
230.6843161726
  0
ARC
  5
94B
100
AcDbEntity
  8
RUNDUNGEN
100
AcDbCircle
 62
7
  6
CONTINUOUS
 10
712.3927704104
 20
343.123496082
 40
30.0
100
AcDbArc
 50
309.3156838258
 51
50.6843161726
  0
ARC
  5
94C
100
AcDbEntity
  8
BEZUGSACHSEN
100
AcDbCircle
 62
7
  6
CONTINUOUS
 10
712.3927704104
 20
343.123496082
 40
24.05
100
AcDbArc
 50
351.8566877952
 51
8.1433122048
  0
ARC
  5
94D
100
AcDbEntity
  8
RUNDUNGEN
100
AcDbCircle
 62
7
  6
CONTINUOUS
 10
712.3927704104
 20
343.123496082
 40
24.0
100
AcDbArc
 50
351.8214463506
 51
8.1785536499
  0
ARC
  5
94E
100
AcDbEntity
  8
RUNDUNGEN
100
AcDbCircle
 62
7
  6
CONTINUOUS
 10
728.3927704104
 20
332.373496082
 40
3.0
100
AcDbArc
 50
0.0000138532
 51
89.9999934918
  0
ARC
  5
94F
100
AcDbEntity
  8
RUNDUNGEN
100
AcDbCircle
 62
7
  6
CONTINUOUS
 10
728.3927704104
 20
313.623496082
 40
3.0
100
AcDbArc
 50
270.0
 51
360.0
  0
ARC
  5
950
100
AcDbEntity
  8
BEZUGSACHSEN
100
AcDbCircle
 62
7
  6
CONTINUOUS
 10
728.3927704104
 20
353.873496082
 40
3.0
100
AcDbArc
 50
270.0000065082
 51
359.9999861468
  0
ARC
  5
951
100
AcDbEntity
  8
BEZUGSACHSEN
100
AcDbCircle
 62
7
  6
CONTINUOUS
 10
728.3927704104
 20
372.623496082
 40
3.0
100
AcDbArc
 50
0.0
 51
90.0
  0
ARC
  5
952
100
AcDbEntity
  8
BEZUGSACHSEN
100
AcDbCircle
 62
7
  6
CONTINUOUS
 10
758.3927704104
 20
236.1323068257
 40
30.0
100
AcDbArc
 50
172.4053619219
 51
180.0000072987
  0
ARC
  5
953
100
AcDbEntity
  8
BEZUGSACHSEN
100
AcDbCircle
 62
7
  6
CONTINUOUS
 10
740.3927704104
 20
306.6269209002
 40
8.0
100
AcDbArc
 50
127.4952497646
 51
180.0
  0
ARC
  5
954
100
AcDbEntity
  8
RUNDUNGEN
100
AcDbCircle
 62
7
  6
CONTINUOUS
 10
740.3927704104
 20
306.6269209002
 40
8.0
100
AcDbArc
 50
162.7807264374
 51
165.547819247
  0
ARC
  5
955
100
AcDbEntity
  8
RUNDUNGEN
100
AcDbCircle
 62
7
  6
CONTINUOUS
 10
740.3927704104
 20
306.6269209002
 40
8.0
100
AcDbArc
 50
127.4952497646
 51
132.7227926316
  0
CIRCLE
  5
956
100
AcDbEntity
  8
BEZUGSACHSEN
100
AcDbCircle
 62
7
  6
CONTINUOUS
 10
735.3927704104
 20
343.123496082
 40
3.5
  0
ARC
  5
957
100
AcDbEntity
  8
RUNDUNGEN
100
AcDbCircle
 62
7
  6
CONTINUOUS
 10
1357.0720789597
 20
28.123496082
 40
5.0
100
AcDbArc
 50
180.0
 51
270.0
  0
ARC
  5
958
100
AcDbEntity
  8
RUNDUNGEN
100
AcDbCircle
 62
7
  6
CONTINUOUS
 10
1033.0720789597
 20
318.623496082
 40
8.0
100
AcDbArc
 50
270.0
 51
323.1301023542
  0
ARC
  5
959
100
AcDbEntity
  8
RUNDUNGEN
100
AcDbCircle
 62
7
  6
CONTINUOUS
 10
1028.0720789597
 20
322.123496082
 40
6.0
100
AcDbArc
 50
269.9999999755
 51
90.0000000426
  0
ARC
  5
95A
100
AcDbEntity
  8
RUNDUNGEN
100
AcDbCircle
 62
7
  6
CONTINUOUS
 10
1006.0720789597
 20
322.123496082
 40
6.0
100
AcDbArc
 50
89.9999999755
 51
270.0000000426
  0
ARC
  5
95B
100
AcDbEntity
  8
0
100
AcDbCircle
 62
7
  6
CONTINUOUS
 10
1043.0720789597
 20
328.123496082
 40
3.0
100
AcDbArc
 50
90.0
 51
180.0
  0
ARC
  5
95C
100
AcDbEntity
  8
RUNDUNGEN
100
AcDbCircle
 62
7
  6
CONTINUOUS
 10
983.2560259412
 20
332.373496082
 40
3.0
100
AcDbArc
 50
90.0
 51
158.241843614
  0
ARC
  5
95D
100
AcDbEntity
  8
RUNDUNGEN
100
AcDbCircle
 62
7
  6
CONTINUOUS
 10
1037.0720789597
 20
315.623496082
 40
3.0
100
AcDbArc
 50
323.1301023542
 51
360.0
  0
ARC
  5
95E
100
AcDbEntity
  8
RUNDUNGEN
100
AcDbCircle
 62
7
  6
CONTINUOUS
 10
978.0720789597
 20
321.5516993123
 40
2.0
100
AcDbArc
 50
180.0
 51
210.0
  0
ARC
  5
95F
100
AcDbEntity
  8
RUNDUNGEN
100
AcDbCircle
 62
7
  6
CONTINUOUS
 10
978.0720789597
 20
325.4900761074
 40
2.0
100
AcDbArc
 50
140.967213277
 51
180.0
  0
ARC
  5
960
100
AcDbEntity
  8
RUNDUNGEN
100
AcDbCircle
 62
7
  6
CONTINUOUS
 10
983.2267794981
 20
312.623496082
 40
2.0
100
AcDbArc
 50
210.0
 51
270.0
  0
ARC
  5
961
100
AcDbEntity
  8
BEZUGSACHSEN
100
AcDbCircle
 62
7
  6
CONTINUOUS
 10
956.3220789597
 20
343.123496082
 40
26.0
100
AcDbArc
 50
21.758156386
 51
39.032786723
  0
ARC
  5
962
100
AcDbEntity
  8
0
100
AcDbCircle
 62
7
  6
CONTINUOUS
 10
956.3220789597
 20
343.123496082
 40
26.0
100
AcDbArc
 50
320.967213277
 51
338.241843614
  0
ARC
  5
963
100
AcDbEntity
  8
RUNDUNGEN
100
AcDbCircle
 62
7
  6
CONTINUOUS
 10
1033.0720789597
 20
367.623496082
 40
8.0
100
AcDbArc
 50
36.8698976458
 51
90.0
  0
ARC
  5
964
100
AcDbEntity
  8
RUNDUNGEN
100
AcDbCircle
 62
7
  6
CONTINUOUS
 10
1016.3220789597
 20
343.123496082
 40
7.75
100
AcDbArc
 50
269.9999999994
 51
90.0000000006
  0
ARC
  5
965
100
AcDbEntity
  8
BEZUGSACHSEN
100
AcDbCircle
 62
7
  6
CONTINUOUS
 10
1016.3220789597
 20
343.123496082
 40
7.75
100
AcDbArc
 50
270.0
 51
90.0
  0
ARC
  5
966
100
AcDbEntity
  8
BEZUGSACHSEN
100
AcDbCircle
 62
7
  6
CONTINUOUS
 10
1006.0720789597
 20
364.123496082
 40
6.0
100
AcDbArc
 50
89.9999999574
 51
270.0000000245
  0
ARC
  5
967
100
AcDbEntity
  8
BEZUGSACHSEN
100
AcDbCircle
 62
7
  6
CONTINUOUS
 10
1028.0720789597
 20
364.123496082
 40
6.0
100
AcDbArc
 50
269.9999999574
 51
90.0000000245
  0
ARC
  5
968
100
AcDbEntity
  8
0
100
AcDbCircle
 62
7
  6
CONTINUOUS
 10
1043.0720789597
 20
358.123496082
 40
3.0
100
AcDbArc
 50
180.0
 51
270.0
  0
ARC
  5
969
100
AcDbEntity
  8
BEZUGSACHSEN
100
AcDbCircle
 62
7
  6
CONTINUOUS
 10
983.2560259412
 20
353.873496082
 40
3.0
100
AcDbArc
 50
201.758156386
 51
270.0
  0
ARC
  5
96A
100
AcDbEntity
  8
RUNDUNGEN
100
AcDbCircle
 62
7
  6
CONTINUOUS
 10
1037.0720789597
 20
370.623496082
 40
3.0
100
AcDbArc
 50
0.0
 51
36.8698976458
  0
ARC
  5
96B
100
AcDbEntity
  8
BEZUGSACHSEN
100
AcDbCircle
 62
7
  6
CONTINUOUS
 10
978.0720789597
 20
364.6952928517
 40
2.0
100
AcDbArc
 50
150.0
 51
180.0
  0
ARC
  5
96C
100
AcDbEntity
  8
BEZUGSACHSEN
100
AcDbCircle
 62
7
  6
CONTINUOUS
 10
978.0720789597
 20
360.7569160566
 40
2.0
100
AcDbArc
 50
180.0
 51
219.032786723
  0
ARC
  5
96D
100
AcDbEntity
  8
BEZUGSACHSEN
100
AcDbCircle
 62
7
  6
CONTINUOUS
 10
983.2267794981
 20
373.623496082
 40
2.0
100
AcDbArc
 50
90.0
 51
150.0
  0
ARC
  5
96E
100
AcDbEntity
  8
RUNDUNGEN
100
AcDbCircle
 62
7
  6
CONTINUOUS
 10
1149.0720789597
 20
321.123496082
 40
2.0
100
AcDbArc
 50
180.0
 51
270.0
  0
ARC
  5
96F
100
AcDbEntity
  8
RUNDUNGEN
100
AcDbCircle
 62
7
  6
CONTINUOUS
 10
1149.0720789597
 20
365.123496082
 40
2.0
100
AcDbArc
 50
90.0
 51
180.0
  0
ARC
  5
970
100
AcDbEntity
  8
RUNDUNGEN
100
AcDbCircle
 62
7
  6
CONTINUOUS
 10
1322.0720789597
 20
233.7204309929
 40
30.0
100
AcDbArc
 50
0.0000003378
 51
16.6992467003
  0
ARC
  5
971
100
AcDbEntity
  8
BEZUGSACHSEN
100
AcDbCircle
 62
7
  6
CONTINUOUS
 10
1349.0720789597
 20
272.5265611711
 40
30.0
100
AcDbArc
 50
343.300755766
 51
360.0
  0
ARC
  5
972
100
AcDbEntity
  8
0
100
AcDbCircle
 62
7
  6
CONTINUOUS
 10
1177.9361768991
 20
375.623496082
 40
10.0
100
AcDbArc
 50
241.0449756281
 51
270.0
  0
ARC
  5
973
100
AcDbEntity
  8
0
100
AcDbCircle
 62
7
  6
CONTINUOUS
 10
1177.9361768991
 20
310.623496082
 40
10.0
100
AcDbArc
 50
90.0
 51
118.9550243719
  0
ARC
  5
974
100
AcDbEntity
  8
RUNDUNGEN
100
AcDbCircle
 62
7
  6
CONTINUOUS
 10
1177.9361768991
 20
310.623496082
 40
10.0
100
AcDbArc
 50
90.0
 51
118.9550243719
  0
ARC
  5
975
100
AcDbEntity
  8
RUNDUNGEN
100
AcDbCircle
 62
7
  6
CONTINUOUS
 10
1177.9361768991
 20
375.623496082
 40
10.0
100
AcDbArc
 50
241.0449756281
 51
270.0
  0
ARC
  5
976
100
AcDbEntity
  8
RUNDUNGEN
100
AcDbCircle
 62
7
  6
CONTINUOUS
 10
1348.0720789597
 20
376.123496082
 40
5.0
100
AcDbArc
 50
90.0
 51
180.0
  0
ARC
  5
977
100
AcDbEntity
  8
RUNDUNGEN
100
AcDbCircle
 62
7
  6
CONTINUOUS
 10
1337.5577499921
 20
324.123496082
 40
5.0
100
AcDbArc
 50
250.0
 51
270.0
  0
ARC
  5
978
100
AcDbEntity
  8
RUNDUNGEN
100
AcDbCircle
 62
7
  6
CONTINUOUS
 10
1337.5577499921
 20
362.123496082
 40
5.0
100
AcDbArc
 50
90.0
 51
110.0
  0
ARC
  5
979
100
AcDbEntity
  8
RUNDUNGEN
100
AcDbCircle
 62
7
  6
CONTINUOUS
 10
1331.6732640559
 20
315.623496082
 40
5.0
100
AcDbArc
 50
70.0
 51
90.0
  0
ARC
  5
97A
100
AcDbEntity
  8
RUNDUNGEN
100
AcDbCircle
 62
7
  6
CONTINUOUS
 10
1331.6732640559
 20
370.623496082
 40
5.0
100
AcDbArc
 50
270.0
 51
290.0
  0
ARC
  5
97B
100
AcDbEntity
  8
0
100
AcDbCircle
 62
7
  6
CONTINUOUS
 10
1305.9520789597
 20
344.203496082
 40
4.32
100
AcDbArc
 50
0.0
 51
180.0
  0
ARC
  5
97C
100
AcDbEntity
  8
0
100
AcDbCircle
 62
7
  6
CONTINUOUS
 10
1294.6120789597
 20
344.563496082
 40
3.96
100
AcDbArc
 50
90.0
 51
180.0
  0
ARC
  5
97D
100
AcDbEntity
  8
0
100
AcDbCircle
 62
7
  6
CONTINUOUS
 10
1294.6120789597
 20
341.683496082
 40
3.96
100
AcDbArc
 50
180.0
 51
270.0
  0
ARC
  5
97E
100
AcDbEntity
  8
0
100
AcDbCircle
 62
7
  6
CONTINUOUS
 10
1315.5820789597
 20
340.873496082
 40
3.15
100
AcDbArc
 50
111.3550126288
 51
270.0
  0
ARC
  5
97F
100
AcDbEntity
  8
RUNDUNGEN
100
AcDbCircle
 62
7
  6
CONTINUOUS
 10
1357.0720789597
 20
308.623496082
 40
3.0
100
AcDbArc
 50
180.0
 51
270.0
  0
ARC
  5
980
100
AcDbEntity
  8
0
100
AcDbCircle
 62
7
  6
CONTINUOUS
 10
1295.0620789597
 20
341.773496082
 40
2.25
100
AcDbArc
 50
180.0
 51
270.0
  0
ARC
  5
981
100
AcDbEntity
  8
0
100
AcDbCircle
 62
7
  6
CONTINUOUS
 10
1295.0620789597
 20
344.473496082
 40
2.25
100
AcDbArc
 50
90.0
 51
180.0
  0
ARC
  5
982
100
AcDbEntity
  8
0
100
AcDbCircle
 62
7
  6
CONTINUOUS
 10
1305.9520789597
 20
344.203496082
 40
2.16
100
AcDbArc
 50
0.0
 51
180.0
  0
ARC
  5
983
100
AcDbEntity
  8
RUNDUNGEN
100
AcDbCircle
 62
7
  6
CONTINUOUS
 10
1172.1267018798
 20
321.123496082
 40
2.0
100
AcDbArc
 50
270.0
 51
298.9550243719
  0
ARC
  5
984
100
AcDbEntity
  8
RUNDUNGEN
100
AcDbCircle
 62
7
  6
CONTINUOUS
 10
1172.1267018798
 20
365.123496082
 40
2.0
100
AcDbArc
 50
61.0449756281
 51
90.0
  0
ARC
  5
985
100
AcDbEntity
  8
0
100
AcDbCircle
 62
7
  6
CONTINUOUS
 10
1317.4278466247
 20
345.823496082
 40
1.8
100
AcDbArc
 50
210.0
 51
270.0
  0
ARC
  5
986
100
AcDbEntity
  8
0
100
AcDbCircle
 62
7
  6
CONTINUOUS
 10
1316.3020789597
 20
340.873496082
 40
1.35
100
AcDbArc
 50
90.0
 51
270.0
  0
ARC
  5
987
100
AcDbEntity
  8
BEZUGSACHSEN
100
AcDbCircle
 62
7
  6
CONTINUOUS
 10
1365.0720789597
 20
28.123496082
 40
5.0
100
AcDbArc
 50
270.0
 51
360.0
  0
ARC
  5
988
100
AcDbEntity
  8
RUNDUNGEN
100
AcDbCircle
 62
7
  6
CONTINUOUS
 10
1373.0720789597
 20
272.5265611711
 40
30.0
100
AcDbArc
 50
180.0
 51
196.699244234
  0
ARC
  5
989
100
AcDbEntity
  8
BEZUGSACHSEN
100
AcDbCircle
 62
7
  6
CONTINUOUS
 10
1400.0720789597
 20
233.7204309929
 40
30.0
100
AcDbArc
 50
163.3007532997
 51
179.9999996622
  0
ARC
  5
98A
100
AcDbEntity
  8
RUNDUNGEN
100
AcDbCircle
 62
7
  6
CONTINUOUS
 10
1561.2250668485
 20
323.123496082
 40
10.0
100
AcDbArc
 50
235.0
 51
270.0
  0
ARC
  5
98B
100
AcDbEntity
  8
RUNDUNGEN
100
AcDbCircle
 62
7
  6
CONTINUOUS
 10
1561.2250668485
 20
363.123496082
 40
10.0
100
AcDbArc
 50
90.0
 51
125.0
  0
ARC
  5
98C
100
AcDbEntity
  8
RUNDUNGEN
100
AcDbCircle
 62
7
  6
CONTINUOUS
 10
1544.2079810204
 20
310.623496082
 40
10.0
100
AcDbArc
 50
55.0
 51
90.0
  0
ARC
  5
98D
100
AcDbEntity
  8
RUNDUNGEN
100
AcDbCircle
 62
7
  6
CONTINUOUS
 10
1544.2079810204
 20
375.623496082
 40
10.0
100
AcDbArc
 50
270.0
 51
305.0
  0
ARC
  5
98E
100
AcDbEntity
  8
BEZUGSACHSEN
100
AcDbCircle
 62
7
  6
CONTINUOUS
 10
1374.0720789597
 20
376.123496082
 40
5.0
100
AcDbArc
 50
0.0
 51
90.0
  0
ARC
  5
98F
100
AcDbEntity
  8
RUNDUNGEN
100
AcDbCircle
 62
7
  6
CONTINUOUS
 10
1384.5864079273
 20
324.123496082
 40
5.0
100
AcDbArc
 50
270.0
 51
290.0
  0
ARC
  5
990
100
AcDbEntity
  8
RUNDUNGEN
100
AcDbCircle
 62
7
  6
CONTINUOUS
 10
1384.5864079273
 20
362.123496082
 40
5.0
100
AcDbArc
 50
70.0
 51
90.0
  0
ARC
  5
991
100
AcDbEntity
  8
RUNDUNGEN
100
AcDbCircle
 62
7
  6
CONTINUOUS
 10
1390.4708938636
 20
315.623496082
 40
5.0
100
AcDbArc
 50
90.0
 51
110.0
  0
ARC
  5
992
100
AcDbEntity
  8
RUNDUNGEN
100
AcDbCircle
 62
7
  6
CONTINUOUS
 10
1390.4708938636
 20
370.623496082
 40
5.0
100
AcDbArc
 50
250.0
 51
270.0
  0
ARC
  5
993
100
AcDbEntity
  8
BEZUGSACHSEN
100
AcDbCircle
 62
7
  6
CONTINUOUS
 10
1365.0720789597
 20
308.623496082
 40
3.0
100
AcDbArc
 50
270.0
 51
360.0
  0
ARC
  5
994
100
AcDbEntity
  8
RUNDUNGEN
100
AcDbCircle
 62
7
  6
CONTINUOUS
 10
1625.0720789597
 20
315.123496082
 40
2.0
100
AcDbArc
 50
270.0
 51
360.0
  0
ARC
  5
995
100
AcDbEntity
  8
RUNDUNGEN
100
AcDbCircle
 62
7
  6
CONTINUOUS
 10
1571.0720789597
 20
315.123496082
 40
2.0
100
AcDbArc
 50
270.0
 51
360.0
  0
ARC
  5
996
100
AcDbEntity
  8
RUNDUNGEN
100
AcDbCircle
 62
7
  6
CONTINUOUS
 10
1621.5720789597
 20
313.623496082
 40
0.5
100
AcDbArc
 50
180.0
 51
270.0
  0
ARC
  5
997
100
AcDbEntity
  8
RUNDUNGEN
100
AcDbCircle
 62
7
  6
CONTINUOUS
 10
1625.0720789597
 20
371.123496082
 40
2.0
100
AcDbArc
 50
0.0
 51
90.0
  0
ARC
  5
998
100
AcDbEntity
  8
RUNDUNGEN
100
AcDbCircle
 62
7
  6
CONTINUOUS
 10
1571.0720789597
 20
371.123496082
 40
2.0
100
AcDbArc
 50
0.0
 51
90.0
  0
ARC
  5
999
100
AcDbEntity
  8
RUNDUNGEN
100
AcDbCircle
 62
7
  6
CONTINUOUS
 10
1621.5720789597
 20
372.623496082
 40
0.5
100
AcDbArc
 50
90.0
 51
180.0
  0
ARC
  5
99A
100
AcDbEntity
  8
RUNDUNGEN
100
AcDbCircle
 62
7
  6
CONTINUOUS
 10
1689.0720789597
 20
318.623496082
 40
8.0
100
AcDbArc
 50
216.8698976458
 51
270.0
  0
ARC
  5
99B
100
AcDbEntity
  8
RUNDUNGEN
100
AcDbCircle
 62
7
  6
CONTINUOUS
 10
1694.0720789597
 20
321.623496082
 40
6.0
100
AcDbArc
 50
89.9999999755
 51
270.0000000426
  0
ARC
  5
99C
100
AcDbEntity
  8
RUNDUNGEN
100
AcDbCircle
 62
7
  6
CONTINUOUS
 10
1708.0720789597
 20
321.623496082
 40
6.0
100
AcDbArc
 50
269.9999999755
 51
90.0000000426
  0
ARC
  5
99D
100
AcDbEntity
  8
0
100
AcDbCircle
 62
7
  6
CONTINUOUS
 10
1679.0720789597
 20
328.123496082
 40
3.0
100
AcDbArc
 50
0.0
 51
90.0
  0
ARC
  5
99E
100
AcDbEntity
  8
RUNDUNGEN
100
AcDbCircle
 62
7
  6
CONTINUOUS
 10
1738.8881319783
 20
332.373496082
 40
3.0
100
AcDbArc
 50
21.758156386
 51
90.0
  0
ARC
  5
99F
100
AcDbEntity
  8
RUNDUNGEN
100
AcDbCircle
 62
7
  6
CONTINUOUS
 10
1685.0720789597
 20
315.623496082
 40
3.0
100
AcDbArc
 50
180.0
 51
216.8698976458
  0
ARC
  5
9A0
100
AcDbEntity
  8
RUNDUNGEN
100
AcDbCircle
 62
7
  6
CONTINUOUS
 10
1744.0720789597
 20
321.5516993123
 40
2.0
100
AcDbArc
 50
330.0
 51
360.0
  0
ARC
  5
9A1
100
AcDbEntity
  8
RUNDUNGEN
100
AcDbCircle
 62
7
  6
CONTINUOUS
 10
1744.0720789597
 20
325.4900761074
 40
2.0
100
AcDbArc
 50
0.0
 51
39.0327867229
  0
ARC
  5
9A2
100
AcDbEntity
  8
RUNDUNGEN
100
AcDbCircle
 62
7
  6
CONTINUOUS
 10
1738.9173784213
 20
312.623496082
 40
2.0
100
AcDbArc
 50
270.0
 51
330.0
  0
ARC
  5
9A3
100
AcDbEntity
  8
BEZUGSACHSEN
100
AcDbCircle
 62
7
  6
CONTINUOUS
 10
1765.8220789597
 20
343.123496082
 40
26.0
100
AcDbArc
 50
140.967213277
 51
158.241843614
  0
ARC
  5
9A4
100
AcDbEntity
  8
0
100
AcDbCircle
 62
7
  6
CONTINUOUS
 10
1765.8220789597
 20
343.123496082
 40
26.0
100
AcDbArc
 50
201.758156386
 51
219.032786723
  0
ARC
  5
9A5
100
AcDbEntity
  8
0
100
AcDbCircle
 62
7
  6
CONTINUOUS
 10
1672.0720789597
 20
358.623496082
 40
10.0
100
AcDbArc
 50
270.0
 51
338.9017665198
  0
ARC
  5
9A6
100
AcDbEntity
  8
RUNDUNGEN
100
AcDbCircle
 62
7
  6
CONTINUOUS
 10
1689.0720789597
 20
367.623496082
 40
8.0
100
AcDbArc
 50
90.0
 51
143.1301023542
  0
ARC
  5
9A7
100
AcDbEntity
  8
BEZUGSACHSEN
100
AcDbCircle
 62
7
  6
CONTINUOUS
 10
1705.8220789597
 20
343.123496082
 40
7.75
100
AcDbArc
 50
90.0
 51
270.0
  0
ARC
  5
9A8
100
AcDbEntity
  8
BEZUGSACHSEN
100
AcDbCircle
 62
7
  6
CONTINUOUS
 10
1708.0720789597
 20
364.623496082
 40
6.0
100
AcDbArc
 50
269.9999999574
 51
90.0000000245
  0
ARC
  5
9A9
100
AcDbEntity
  8
BEZUGSACHSEN
100
AcDbCircle
 62
7
  6
CONTINUOUS
 10
1694.0720789597
 20
364.623496082
 40
6.0
100
AcDbArc
 50
89.9999999574
 51
270.0000000245
  0
ARC
  5
9AA
100
AcDbEntity
  8
0
100
AcDbCircle
 62
7
  6
CONTINUOUS
 10
1679.0720789597
 20
358.123496082
 40
3.0
100
AcDbArc
 50
270.0
 51
354.6670371752
  0
ARC
  5
9AB
100
AcDbEntity
  8
BEZUGSACHSEN
100
AcDbCircle
 62
7
  6
CONTINUOUS
 10
1738.8881319783
 20
353.873496082
 40
3.0
100
AcDbArc
 50
270.0
 51
338.241843614
  0
ARC
  5
9AC
100
AcDbEntity
  8
RUNDUNGEN
100
AcDbCircle
 62
7
  6
CONTINUOUS
 10
1685.0720789597
 20
370.623496082
 40
3.0
100
AcDbArc
 50
143.1301023542
 51
180.0
  0
ARC
  5
9AD
100
AcDbEntity
  8
BEZUGSACHSEN
100
AcDbCircle
 62
7
  6
CONTINUOUS
 10
1744.0720789597
 20
364.6952928517
 40
2.0
100
AcDbArc
 50
0.0
 51
30.0
  0
ARC
  5
9AE
100
AcDbEntity
  8
BEZUGSACHSEN
100
AcDbCircle
 62
7
  6
CONTINUOUS
 10
1744.0720789597
 20
360.7569160566
 40
2.0
100
AcDbArc
 50
320.9672132771
 51
360.0
  0
ARC
  5
9AF
100
AcDbEntity
  8
BEZUGSACHSEN
100
AcDbCircle
 62
7
  6
CONTINUOUS
 10
1738.9173784213
 20
373.623496082
 40
2.0
100
AcDbArc
 50
30.0
 51
90.0
  0
ARC
  5
9B0
100
AcDbEntity
  8
BEZUGSACHSEN
100
AcDbCircle
 62
7
  6
CONTINUOUS
 10
153.438989639
 20
-154.702847436
 40
5.0
100
AcDbArc
 50
180.0
 51
270.0
  0
ARC
  5
9B1
100
AcDbEntity
  8
0
100
AcDbCircle
 62
7
  6
CONTINUOUS
 10
-151.561010361
 20
-136.702847436
 40
3.0
100
AcDbArc
 50
90.0
 51
180.0
  0
ARC
  5
9B2
100
AcDbEntity
  8
RUNDUNGEN
100
AcDbCircle
 62
7
  6
CONTINUOUS
 10
-157.561010361
 20
-137.702847436
 40
3.0
100
AcDbArc
 50
270.0
 51
360.0
  0
ARC
  5
9B3
100
AcDbEntity
  8
RUNDUNGEN
100
AcDbCircle
 62
7
  6
CONTINUOUS
 10
-97.561010361
 20
-149.702847436
 40
2.0
100
AcDbArc
 50
180.0
 51
270.0
  0
ARC
  5
9B4
100
AcDbEntity
  8
RUNDUNGEN
100
AcDbCircle
 62
7
  6
CONTINUOUS
 10
-205.7748479964
 20
-138.702847436
 40
2.0
100
AcDbArc
 50
234.2341970082
 51
270.0
  0
ARC
  5
9B5
100
AcDbEntity
  8
BEZUGSACHSEN
100
AcDbCircle
 62
7
  6
CONTINUOUS
 10
-205.7748479964
 20
-138.702847436
 40
2.0
100
AcDbArc
 50
227.0822885386
 51
270.0
  0
ARC
  5
9B6
100
AcDbEntity
  8
RUNDUNGEN
100
AcDbCircle
 62
7
  6
CONTINUOUS
 10
-43.561010361
 20
-149.702847436
 40
2.0
100
AcDbArc
 50
180.0
 51
270.0
  0
ARC
  5
9B7
100
AcDbEntity
  8
RUNDUNGEN
100
AcDbCircle
 62
7
  6
CONTINUOUS
 10
-42.161010361
 20
-149.702847436
 40
2.0
100
AcDbArc
 50
270.0
 51
314.5391971747
  0
ARC
  5
9B8
100
AcDbEntity
  8
RUNDUNGEN
100
AcDbCircle
 62
7
  6
CONTINUOUS
 10
-94.061010361
 20
-151.202847436
 40
0.5
100
AcDbArc
 50
270.0
 51
360.0
  0
ARC
  5
9B9
100
AcDbEntity
  8
RUNDUNGEN
100
AcDbCircle
 62
7
  6
CONTINUOUS
 10
-200.561010361
 20
-121.702847436
 40
18.0
100
AcDbArc
 50
151.9690072546
 51
156.4588552965
  0
ARC
  5
9BA
100
AcDbEntity
  8
RUNDUNGEN
100
AcDbCircle
 62
7
  6
CONTINUOUS
 10
-200.561010361
 20
-121.702847436
 40
18.0
100
AcDbArc
 50
217.5922025505
 51
221.7902640696
  0
ARC
  5
9BB
100
AcDbEntity
  8
RUNDUNGEN
100
AcDbCircle
 62
7
  6
CONTINUOUS
 10
-200.561010361
 20
-121.702847436
 40
18.0
100
AcDbArc
 50
203.0
 51
213.4264828817
  0
ARC
  5
9BC
100
AcDbEntity
  8
RUNDUNGEN
100
AcDbCircle
 62
7
  6
CONTINUOUS
 10
-200.561010361
 20
-121.702847436
 40
18.0
100
AcDbArc
 50
146.7283792772
 51
151.4517400719
  0
ARC
  5
9BD
100
AcDbEntity
  8
RUNDUNGEN
100
AcDbCircle
 62
7
  6
CONTINUOUS
 10
-200.561010361
 20
-121.702847436
 40
18.0
100
AcDbArc
 50
156.6138249707
 51
200.6850801753
  0
ARC
  5
9BE
100
AcDbEntity
  8
BEZUGSACHSEN
100
AcDbCircle
 62
7
  6
CONTINUOUS
 10
-200.561010361
 20
-121.702847436
 40
18.0
100
AcDbArc
 50
132.9177114614
 51
227.0822885386
  0
ARC
  5
9BF
100
AcDbEntity
  8
0
100
AcDbCircle
 62
7
  6
CONTINUOUS
 10
-151.561010361
 20
-106.702847436
 40
3.0
100
AcDbArc
 50
180.0
 51
270.0
  0
ARC
  5
9C0
100
AcDbEntity
  8
RUNDUNGEN
100
AcDbCircle
 62
7
  6
CONTINUOUS
 10
-157.561010361
 20
-105.702847436
 40
3.0
100
AcDbArc
 50
0.0
 51
90.0
  0
ARC
  5
9C1
100
AcDbEntity
  8
RUNDUNGEN
100
AcDbCircle
 62
7
  6
CONTINUOUS
 10
-33.7139982498
 20
-101.702847436
 40
10.0
100
AcDbArc
 50
55.0
 51
90.0
  0
ARC
  5
9C2
100
AcDbEntity
  8
RUNDUNGEN
100
AcDbCircle
 62
7
  6
CONTINUOUS
 10
-97.561010361
 20
-93.702847436
 40
2.0
100
AcDbArc
 50
90.0
 51
180.0
  0
ARC
  5
9C3
100
AcDbEntity
  8
RUNDUNGEN
100
AcDbCircle
 62
7
  6
CONTINUOUS
 10
-205.7748679876
 20
-104.7028660244
 40
2.0
100
AcDbArc
 50
125.7651037204
 51
132.9169294331
  0
ARC
  5
9C4
100
AcDbEntity
  8
RUNDUNGEN
100
AcDbCircle
 62
7
  6
CONTINUOUS
 10
-205.7748479964
 20
-104.702847436
 40
2.0
100
AcDbArc
 50
100.2385975599
 51
109.0259913447
  0
ARC
  5
9C5
100
AcDbEntity
  8
RUNDUNGEN
100
AcDbCircle
 62
7
  6
CONTINUOUS
 10
-205.7748479964
 20
-104.702847436
 40
2.0
100
AcDbArc
 50
111.456527332
 51
120.8449711213
  0
ARC
  5
9C6
100
AcDbEntity
  8
BEZUGSACHSEN
100
AcDbCircle
 62
7
  6
CONTINUOUS
 10
-205.7748479964
 20
-104.702847436
 40
2.0
100
AcDbArc
 50
90.0
 51
132.9177114614
  0
ARC
  5
9C7
100
AcDbEntity
  8
RUNDUNGEN
100
AcDbCircle
 62
7
  6
CONTINUOUS
 10
-43.561010361
 20
-93.702847436
 40
2.0
100
AcDbArc
 50
90.0
 51
180.0
  0
ARC
  5
9C8
100
AcDbEntity
  8
RUNDUNGEN
100
AcDbCircle
 62
7
  6
CONTINUOUS
 10
-94.061010361
 20
-92.202847436
 40
0.5
100
AcDbArc
 50
0.0
 51
90.0
  0
ARC
  5
9C9
100
AcDbEntity
  8
RUNDUNGEN
100
AcDbCircle
 62
7
  6
CONTINUOUS
 10
-16.6969124217
 20
-89.202847436
 40
10.0
100
AcDbArc
 50
235.0
 51
270.0
  0
ARC
  5
9CA
100
AcDbEntity
  8
BEZUGSACHSEN
100
AcDbCircle
 62
7
  6
CONTINUOUS
 10
153.438989639
 20
-88.702847436
 40
5.0
100
AcDbArc
 50
90.0
 51
180.0
  0
ARC
  5
9CB
100
AcDbEntity
  8
RUNDUNGEN
100
AcDbCircle
 62
7
  6
CONTINUOUS
 10
142.9246606714
 20
-102.702847436
 40
5.0
100
AcDbArc
 50
90.0
 51
110.0
  0
ARC
  5
9CC
100
AcDbEntity
  8
RUNDUNGEN
100
AcDbCircle
 62
7
  6
CONTINUOUS
 10
137.0401747351
 20
-94.202847436
 40
5.0
100
AcDbArc
 50
270.0
 51
290.0
  0
ARC
  5
9CD
100
AcDbEntity
  8
0
100
AcDbCircle
 62
7
  6
CONTINUOUS
 10
349.5748916996
 20
-154.202847436
 40
10.0
100
AcDbArc
 50
61.0449756281
 51
90.0
  0
ARC
  5
9CE
100
AcDbEntity
  8
RUNDUNGEN
100
AcDbCircle
 62
7
  6
CONTINUOUS
 10
179.438989639
 20
-154.702847436
 40
5.0
100
AcDbArc
 50
270.0
 51
360.0
  0
ARC
  5
9CF
100
AcDbEntity
  8
0
100
AcDbCircle
 62
7
  6
CONTINUOUS
 10
484.438989639
 20
-136.702847436
 40
3.0
100
AcDbArc
 50
0.0
 51
90.0
  0
ARC
  5
9D0
100
AcDbEntity
  8
RUNDUNGEN
100
AcDbCircle
 62
7
  6
CONTINUOUS
 10
490.438989639
 20
-137.702847436
 40
3.0
100
AcDbArc
 50
180.0
 51
270.0
  0
ARC
  5
9D1
100
AcDbEntity
  8
RUNDUNGEN
100
AcDbCircle
 62
7
  6
CONTINUOUS
 10
344.438989639
 20
-141.202847436
 40
3.0
100
AcDbArc
 50
180.0
 51
270.0
  0
ARC
  5
9D2
100
AcDbEntity
  8
RUNDUNGEN
100
AcDbCircle
 62
7
  6
CONTINUOUS
 10
538.6528272744
 20
-138.702847436
 40
2.0
100
AcDbArc
 50
270.0
 51
284.3010772261
  0
ARC
  5
9D3
100
AcDbEntity
  8
RUNDUNGEN
100
AcDbCircle
 62
7
  6
CONTINUOUS
 10
538.6528272744
 20
-138.702847436
 40
2.0
100
AcDbArc
 50
289.0259913438
 51
312.9169294331
  0
ARC
  5
9D4
100
AcDbEntity
  8
BEZUGSACHSEN
100
AcDbCircle
 62
7
  6
CONTINUOUS
 10
538.6528472655
 20
-138.7028288475
 40
2.0
100
AcDbArc
 50
270.0
 51
312.9169294331
  0
ARC
  5
9D5
100
AcDbEntity
  8
RUNDUNGEN
100
AcDbCircle
 62
7
  6
CONTINUOUS
 10
378.438989639
 20
-143.702847436
 40
2.0
100
AcDbArc
 50
270.0
 51
360.0
  0
ARC
  5
9D6
100
AcDbEntity
  8
RUNDUNGEN
100
AcDbCircle
 62
7
  6
CONTINUOUS
 10
355.3843667189
 20
-143.702847436
 40
2.0
100
AcDbArc
 50
241.0449756281
 51
270.0
  0
ARC
  5
9D7
100
AcDbEntity
  8
0
100
AcDbCircle
 62
7
  6
CONTINUOUS
 10
349.5748916996
 20
-89.202847436
 40
10.0
100
AcDbArc
 50
270.0
 51
298.9550243719
  0
ARC
  5
9D8
100
AcDbEntity
  8
RUNDUNGEN
100
AcDbCircle
 62
7
  6
CONTINUOUS
 10
179.438989639
 20
-88.702847436
 40
5.0
100
AcDbArc
 50
0.0
 51
90.0
  0
ARC
  5
9D9
100
AcDbEntity
  8
RUNDUNGEN
100
AcDbCircle
 62
7
  6
CONTINUOUS
 10
189.9533186066
 20
-102.702847436
 40
5.0
100
AcDbArc
 50
70.0
 51
90.0
  0
ARC
  5
9DA
100
AcDbEntity
  8
RUNDUNGEN
100
AcDbCircle
 62
7
  6
CONTINUOUS
 10
195.8378045428
 20
-94.202847436
 40
5.0
100
AcDbArc
 50
250.0
 51
270.0
  0
ARC
  5
9DB
100
AcDbEntity
  8
RUNDUNGEN
100
AcDbCircle
 62
7
  6
CONTINUOUS
 10
355.3843667189
 20
-99.702847436
 40
2.0
100
AcDbArc
 50
90.0
 51
118.9550243719
  0
ARC
  5
9DC
100
AcDbEntity
  8
RUNDUNGEN
100
AcDbCircle
 62
7
  6
CONTINUOUS
 10
533.438989639
 20
-121.702847436
 40
18.0
100
AcDbArc
 50
331.9690072546
 51
336.2061324684
  0
ARC
  5
9DD
100
AcDbEntity
  8
RUNDUNGEN
100
AcDbCircle
 62
7
  6
CONTINUOUS
 10
533.438989639
 20
-121.702847436
 40
18.0
100
AcDbArc
 50
37.937802721
 51
41.7902640695
  0
ARC
  5
9DE
100
AcDbEntity
  8
RUNDUNGEN
100
AcDbCircle
 62
7
  6
CONTINUOUS
 10
533.438989639
 20
-121.702847436
 40
18.0
100
AcDbArc
 50
28.3815869788
 51
33.4177040398
  0
ARC
  5
9DF
100
AcDbEntity
  8
RUNDUNGEN
100
AcDbCircle
 62
7
  6
CONTINUOUS
 10
533.438989639
 20
-121.702847436
 40
18.0
100
AcDbArc
 50
336.4588552965
 51
336.6627911409
  0
ARC
  5
9E0
100
AcDbEntity
  8
RUNDUNGEN
100
AcDbCircle
 62
7
  6
CONTINUOUS
 10
533.438989639
 20
-121.702847436
 40
18.0
100
AcDbArc
 50
326.7283792772
 51
331.4517400719
  0
ARC
  5
9E1
100
AcDbEntity
  8
RUNDUNGEN
100
AcDbCircle
 62
7
  6
CONTINUOUS
 10
533.438989639
 20
-121.702847436
 40
18.0
100
AcDbArc
 50
19.1727613248
 51
23.2991534751
  0
ARC
  5
9E2
100
AcDbEntity
  8
RUNDUNGEN
100
AcDbCircle
 62
7
  6
CONTINUOUS
 10
533.438989639
 20
-121.702847436
 40
18.0
100
AcDbArc
 50
337.0000000018
 51
339.3149211985
  0
ARC
  5
9E3
100
AcDbEntity
  8
BEZUGSACHSEN
100
AcDbCircle
 62
7
  6
CONTINUOUS
 10
533.438989639
 20
-121.702847436
 40
18.0
100
AcDbArc
 50
312.9177114614
 51
47.0822885386
  0
ARC
  5
9E4
100
AcDbEntity
  8
0
100
AcDbCircle
 62
7
  6
CONTINUOUS
 10
484.438989639
 20
-106.702847436
 40
3.0
100
AcDbArc
 50
270.0
 51
360.0
  0
ARC
  5
9E5
100
AcDbEntity
  8
RUNDUNGEN
100
AcDbCircle
 62
7
  6
CONTINUOUS
 10
490.438989639
 20
-105.702847436
 40
3.0
100
AcDbArc
 50
90.0
 51
180.0
  0
ARC
  5
9E6
100
AcDbEntity
  8
RUNDUNGEN
100
AcDbCircle
 62
7
  6
CONTINUOUS
 10
538.6528272744
 20
-104.702847436
 40
2.0
100
AcDbArc
 50
54.2341970082
 51
79.753514678
  0
ARC
  5
9E7
100
AcDbEntity
  8
BEZUGSACHSEN
100
AcDbCircle
 62
7
  6
CONTINUOUS
 10
538.6528272744
 20
-104.702847436
 40
2.0
100
AcDbArc
 50
47.0822885386
 51
90.0
  0
ARC
  5
9E8
100
AcDbEntity
  8
RUNDUNGEN
100
AcDbCircle
 62
7
  6
CONTINUOUS
 10
378.438989639
 20
-99.702847436
 40
2.0
100
AcDbArc
 50
0.0
 51
90.0
  0
SPLINE
  5
9E9
100
AcDbEntity
  8
0
100
AcDbSpline
 62
7
  6
CONTINUOUS
 70
0
 71
3
 72
10
 73
6
 74
0
 42
0.0000001
 43
0.0000001
 44
0.0000000001
 40
0.0
 40
0.0
 40
0.0
 40
0.0
 40
0.4999958744
 40
0.7499994063
 40
1.0
 40
1.0
 40
1.0
 40
1.0
 10
47.438989639
 20
332.4581315781
 30
0.0
 10
48.135783072
 20
333.2421198979
 30
0.0
 10
49.1685340967
 20
334.429569311
 30
0.0
 10
50.4939781167
 20
336.0557917791
 30
0.0
 10
51.1308264157
 20
336.8896615848
 30
0.0
 10
51.438989639
 20
337.3140210627
 30
0.0
  0
SPLINE
  5
9EA
100
AcDbEntity
  8
0
100
AcDbSpline
 62
7
  6
CONTINUOUS
 70
0
 71
3
 72
11
 73
7
 74
0
 42
0.0000001
 43
0.0000001
 44
0.0000000001
 40
0.0
 40
0.0
 40
0.0
 40
0.0
 40
0.2499935578
 40
0.4999667288
 40
0.7499622608
 40
1.0
 40
1.0
 40
1.0
 40
1.0
 10
-151.561010361
 20
332.4581315781
 30
0.0
 10
-151.7884881389
 20
332.4581315781
 30
0.0
 10
-152.245493487
 20
332.3990120457
 30
0.0
 10
-152.8852229517
 20
332.1432900332
 30
0.0
 10
-153.4472450637
 20
331.7461826243
 30
0.0
 10
-153.7557338619
 20
331.4063711122
 30
0.0
 10
-153.8906566976
 20
331.2231765171
 30
0.0
  0
SPLINE
  5
9EB
100
AcDbEntity
  8
BEZUGSACHSEN
100
AcDbSpline
 62
7
  6
CONTINUOUS
 70
0
 71
3
 72
13
 73
9
 74
0
 42
0.0000001
 43
0.0000001
 44
0.0000000001
 40
0.0
 40
0.0
 40
0.0
 40
0.0
 40
0.0750424738
 40
0.1503313867
 40
0.2369690992
 40
0.3426036696
 40
0.6233070075
 40
1.0
 40
1.0
 40
1.0
 40
1.0
 10
159.438989639
 20
507.3306456591
 30
0.0
 10
159.438989639
 20
507.3523805495
 30
0.0
 10
159.4465382422
 20
507.3966721558
 30
0.0
 10
159.4865238824
 20
507.4547328354
 30
0.0
 10
159.5511914564
 20
507.4995070441
 30
0.0
 10
159.67970121
 20
507.5490335101
 30
0.0
 10
159.9006015061
 20
507.579260167
 30
0.0
 10
160.0907598336
 20
507.5837954899
 30
0.0
 10
160.1998631255
 20
507.5837954899
 30
0.0
  0
SPLINE
  5
9EC
100
AcDbEntity
  8
RUNDUNGEN
100
AcDbSpline
 62
7
  6
CONTINUOUS
 70
0
 71
3
 72
13
 73
9
 74
0
 42
0.0000001
 43
0.0000001
 44
0.0000000001
 40
0.0
 40
0.0
 40
0.0
 40
0.0
 40
0.3766929925
 40
0.6573963304
 40
0.7630309008
 40
0.8496686133
 40
0.9249575262
 40
1.0
 40
1.0
 40
1.0
 40
1.0
 10
172.6781161525
 20
547.5837954899
 30
0.0
 10
172.7872194443
 20
547.5837954899
 30
0.0
 10
172.9773777719
 20
547.5883308129
 30
0.0
 10
173.198278068
 20
547.6185574698
 30
0.0
 10
173.3267878216
 20
547.6680839358
 30
0.0
 10
173.3914553955
 20
547.7128581444
 30
0.0
 10
173.4314410358
 20
547.7709188241
 30
0.0
 10
173.438989639
 20
547.8152104303
 30
0.0
 10
173.438989639
 20
547.8369453208
 30
0.0
  0
SPLINE
  5
9ED
100
AcDbEntity
  8
BEZUGSACHSEN
100
AcDbSpline
 62
7
  6
CONTINUOUS
 70
0
 71
3
 72
13
 73
9
 74
0
 42
0.0000001
 43
0.0000001
 44
0.0000000001
 40
0.0
 40
0.0
 40
0.0
 40
0.0
 40
0.3766929925
 40
0.6573963304
 40
0.7630309008
 40
0.8496686133
 40
0.9249575262
 40
1.0
 40
1.0
 40
1.0
 40
1.0
 10
160.1998631255
 20
547.5837954899
 30
0.0
 10
160.0907598336
 20
547.5837954899
 30
0.0
 10
159.9006015061
 20
547.5883308129
 30
0.0
 10
159.67970121
 20
547.6185574698
 30
0.0
 10
159.5511914564
 20
547.6680839358
 30
0.0
 10
159.4865238824
 20
547.7128581444
 30
0.0
 10
159.4465382422
 20
547.7709188241
 30
0.0
 10
159.438989639
 20
547.8152104303
 30
0.0
 10
159.438989639
 20
547.8369453208
 30
0.0
  0
SPLINE
  5
9EE
100
AcDbEntity
  8
RUNDUNGEN
100
AcDbSpline
 62
7
  6
CONTINUOUS
 70
0
 71
3
 72
13
 73
9
 74
0
 42
0.0000001
 43
0.0000001
 44
0.0000000001
 40
0.0
 40
0.0
 40
0.0
 40
0.0
 40
0.0750424738
 40
0.1503313867
 40
0.2369690992
 40
0.3426036696
 40
0.6233070075
 40
1.0
 40
1.0
 40
1.0
 40
1.0
 10
173.438989639
 20
507.3306456591
 30
0.0
 10
173.438989639
 20
507.3523805495
 30
0.0
 10
173.4314410358
 20
507.3966721558
 30
0.0
 10
173.3914553955
 20
507.4547328354
 30
0.0
 10
173.3267878216
 20
507.4995070441
 30
0.0
 10
173.198278068
 20
507.5490335101
 30
0.0
 10
172.9773777719
 20
507.579260167
 30
0.0
 10
172.7872194443
 20
507.5837954899
 30
0.0
 10
172.6781161525
 20
507.5837954899
 30
0.0
  0
SPLINE
  5
9EF
100
AcDbEntity
  8
0
100
AcDbSpline
 62
7
  6
CONTINUOUS
 70
0
 71
3
 72
13
 73
9
 74
0
 42
0.0000001
 43
0.0000001
 44
0.0000000001
 40
0.0
 40
0.0
 40
0.0
 40
0.0
 40
0.111880749
 40
0.2265932405
 40
0.3454902873
 40
0.4691461362
 40
0.7292257113
 40
1.0
 40
1.0
 40
1.0
 40
1.0
 10
-151.561010361
 20
536.1939221606
 30
0.0
 10
-151.3594331127
 20
536.3857346974
 30
0.0
 10
-150.9203912984
 20
536.7430933922
 30
0.0
 10
-150.1798006253
 20
537.1838758041
 30
0.0
 10
-149.3623960067
 20
537.5375897483
 30
0.0
 10
-148.1665829337
 20
537.9083361312
 30
0.0
 10
-146.5555165367
 20
538.1824329309
 30
0.0
 10
-145.2344425781
 20
538.2491599938
 30
0.0
 10
-144.561010361
 20
538.2491599938
 30
0.0
  0
SPLINE
  5
9F0
100
AcDbEntity
  8
0
100
AcDbSpline
 62
7
  6
CONTINUOUS
 70
0
 71
3
 72
11
 73
7
 74
0
 42
0.0000001
 43
0.0000001
 44
0.0000000001
 40
0.0
 40
0.0
 40
0.0
 40
0.0
 40
0.2438009988
 40
0.4848311829
 40
0.7343999251
 40
1.0
 40
1.0
 40
1.0
 40
1.0
 10
-153.8906566976
 20
533.0837954899
 30
0.0
 10
-153.7788633294
 20
533.3822898138
 30
0.0
 10
-153.5094038223
 20
533.9598279031
 30
0.0
 10
-152.9629214388
 20
534.7536540033
 30
0.0
 10
-152.2990983734
 20
535.4886358328
 30
0.0
 10
-151.8125648207
 20
535.9545533852
 30
0.0
 10
-151.561010361
 20
536.1939221606
 30
0.0
  0
SPLINE
  5
9F1
100
AcDbEntity
  8
RUNDUNGEN
100
AcDbSpline
 62
7
  6
CONTINUOUS
 70
0
 71
3
 72
9
 73
5
 74
0
 42
0.0000001
 43
0.0000001
 44
0.0000000001
 40
0.0
 40
0.0
 40
0.0
 40
0.0
 40
0.6143062949
 40
1.0
 40
1.0
 40
1.0
 40
1.0
 10
731.3927705189
 20
327.5979619752
 30
0.0
 10
731.392783467
 20
327.7688314754
 30
0.0
 10
731.3882121863
 20
328.0469805181
 30
0.0
 10
731.3922615118
 20
328.3251194871
 30
0.0
 10
731.3927310179
 20
328.4323992923
 30
0.0
  0
SPLINE
  5
9F2
100
AcDbEntity
  8
BEZUGSACHSEN
100
AcDbSpline
 62
7
  6
CONTINUOUS
 70
0
 71
3
 72
9
 73
5
 74
0
 42
0.0000001
 43
0.0000001
 44
0.0000000001
 40
0.0
 40
0.0
 40
0.0
 40
0.0
 40
0.6143062949
 40
1.0
 40
1.0
 40
1.0
 40
1.0
 10
731.3927705189
 20
358.6490301888
 30
0.0
 10
731.392783467
 20
358.4781606886
 30
0.0
 10
731.3882121863
 20
358.2000116459
 30
0.0
 10
731.3922615118
 20
357.9218726769
 30
0.0
 10
731.3927310179
 20
357.8145928717
 30
0.0
  0
SPLINE
  5
9F3
100
AcDbEntity
  8
0
100
AcDbSpline
 62
7
  6
CONTINUOUS
 70
0
 71
3
 72
11
 73
7
 74
0
 42
0.0000001
 43
0.0000001
 44
0.0000000001
 40
0.0
 40
0.0
 40
0.0
 40
0.0
 40
0.2499935578
 40
0.4999667288
 40
0.7499622608
 40
1.0
 40
1.0
 40
1.0
 40
1.0
 10
1679.0720789597
 20
353.7888605858
 30
0.0
 10
1679.2995567376
 20
353.7888605858
 30
0.0
 10
1679.7565620858
 20
353.8479801183
 30
0.0
 10
1680.3962915505
 20
354.1037021308
 30
0.0
 10
1680.9583136624
 20
354.5008095397
 30
0.0
 10
1681.2668024606
 20
354.8406210518
 30
0.0
 10
1681.4017252963
 20
355.0238156469
 30
0.0
  0
SPLINE
  5
9F4
100
AcDbEntity
  8
0
100
AcDbSpline
 62
7
  6
CONTINUOUS
 70
0
 71
3
 72
11
 73
7
 74
0
 42
0.0000001
 43
0.0000001
 44
0.0000000001
 40
0.0
 40
0.0
 40
0.0
 40
0.0
 40
0.2438009988
 40
0.4848311829
 40
0.7343999251
 40
1.0
 40
1.0
 40
1.0
 40
1.0
 10
-153.8906566976
 20
-116.202847436
 30
0.0
 10
-153.7788633294
 20
-115.9043531121
 30
0.0
 10
-153.5094038223
 20
-115.3268150228
 30
0.0
 10
-152.9629214388
 20
-114.5329889226
 30
0.0
 10
-152.2990983734
 20
-113.7980070931
 30
0.0
 10
-151.8125648207
 20
-113.3320895407
 30
0.0
 10
-151.561010361
 20
-113.0927207653
 30
0.0
  0
SPLINE
  5
9F5
100
AcDbEntity
  8
0
100
AcDbSpline
 62
7
  6
CONTINUOUS
 70
0
 71
3
 72
13
 73
9
 74
0
 42
0.0000001
 43
0.0000001
 44
0.0000000001
 40
0.0
 40
0.0
 40
0.0
 40
0.0
 40
0.1118808972
 40
0.226593417
 40
0.3454902981
 40
0.4691454458
 40
0.7292244987
 40
1.0
 40
1.0
 40
1.0
 40
1.0
 10
-151.561010361
 20
-113.0927207653
 30
0.0
 10
-151.3594328449
 20
-112.9009079737
 30
0.0
 10
-150.920390492
 20
-112.5435492374
 30
0.0
 10
-150.1797998833
 20
-112.1027666899
 30
0.0
 10
-149.3623971198
 20
-111.7490536798
 30
0.0
 10
-148.166587471
 20
-111.3783080638
 30
0.0
 10
-146.5555213568
 20
-111.1042096578
 30
0.0
 10
-145.2344455966
 20
-111.0374829321
 30
0.0
 10
-144.561010361
 20
-111.0374829321
 30
0.0
  0
ENDSEC
  0
SECTION
  2
OBJECTS
  0
DICTIONARY
  5
C
100
AcDbDictionary
280
0
281
1
  3
ACAD_GROUP
350
D
  3
ACAD_MLINESTYLE
350
17
  3
ACAD_LAYOUT
350
1A
  3
ACAD_PLOTSETTINGS
350
19
  3
ACAD_PLOTSTYLENAME
350
E
  0
DICTIONARY
  5
D
102
{ACAD_REACTORS
330
C
102
}
100
AcDbDictionary
280
0
281
1
  0
ACDBDICTIONARYWDFLT
  5
E
102
{ACAD_REACTORS
330
C
102
}
100
AcDbDictionary
281
1
  3
Normal
350
F
100
AcDbDictionaryWithDefault
340
F
  0
DICTIONARY
  5
17
102
{ACAD_REACTORS
330
C
102
}
100
AcDbDictionary
280
0
281
1
  3
Standard
350
18
  0
DICTIONARY
  5
19
102
{ACAD_REACTORS
330
C
102
}
100
AcDbDictionary
281
1
  0
DICTIONARY
  5
1A
102
{ACAD_REACTORS
330
C
102
}
100
AcDbDictionary
281
1
  3
Model
350
9F6
  3
Layout1
350
9F7
  0
ACDBPLACEHOLDER
  5
F
102
{ACAD_REACTORS
330
E
102
}
  0
MLINESTYLE
  5
18
102
{ACAD_REACTORS
330
17
102
}
100
AcDbMlineStyle
  2
STANDARD
 70
0
  3

 62
256
 51
90.0
 52
90.0
 71
2
 49
0.5
 62
256
  6
BYLAYER
 49
-0.5
 62
256
  6
BYLAYER
  0
LAYOUT
  5
9F6
102
{ACAD_REACTORS
330
1A
102
}
100
AcDbPlotSettings
  1

  2
none_device
  4
ISO_A3_(420.00_x_297.00_MM)
  6

 40
0.0
 41
0.0
 42
0.0
 43
0.0
 44
420.0
 45
297.0
 46
0.0
 47
0.0
 48
0.0
 49
0.0
140
0.0
141
0.0
142
1.0
143
1.0
 70
1024
 72
1
 73
0
 74
0
  7

 75
0
147
1.0
148
0.0
149
0.0
100
AcDbLayout
  1
Model
 70
0
 71
0
 10
0.0
 20
0.0
 11
420.0
 21
297.0
 12
0.0
 22
0.0
 32
0.0
 14
0.0
 24
0.0
 34
0.0
 15
0.0
 25
0.0
 35
0.0
146
0.0
 13
0.0
 23
0.0
 33
0.0
 16
1.0
 26
0.0
 36
0.0
 17
0.0
 27
1.0
 37
0.0
 76
0
330
210
345
0
346
0
  0
LAYOUT
  5
9F7
102
{ACAD_REACTORS
330
1A
102
}
100
AcDbPlotSettings
  1

  2
none_device
  4
ISO_A3_(420.00_x_297.00_MM)
  6

 40
0.0
 41
0.0
 42
0.0
 43
0.0
 44
420.0
 45
297.0
 46
0.0
 47
0.0
 48
0.0
 49
0.0
140
0.0
141
0.0
142
1.0
143
1.0
 70
0
 72
1
 73
0
 74
0
  7

 75
0
147
1.0
148
0.0
149
0.0
100
AcDbLayout
  1
Layout1
 70
0
 71
1
 10
0.0
 20
0.0
 11
420.0
 21
297.0
 12
0.0
 22
0.0
 32
0.0
 14
0.0
 24
0.0
 34
0.0
 15
0.0
 25
0.0
 35
0.0
146
0.0
 13
0.0
 23
0.0
 33
0.0
 16
1.0
 26
0.0
 36
0.0
 17
0.0
 27
1.0
 37
0.0
 76
0
330
211
345
0
346
0
  0
ENDSEC
  0
EOF
