999
DXF file: 001-m34258-p-2.dxf
999
Pro/ENGINEER 2010140 by Parametric Technology Corporation
  0
SECTION
  2
HEADER
  9
$ACADVER
  1
AC1015
  9
$DWGCODEPAGE
  3
ANSI_1252
  9
$EXTMAX
 10
594.0
 20
420.0
 30
0.0
  9
$EXTMIN
 10
0.0
 20
0.0
 30
0.0
  9
$LIMMIN
 10
0.0
 20
0.0
  9
$LIMMAX
 10
594.0
 20
420.0
  9
$VIEWCTR
 10
297.0
 20
210.0
  9
$VIEWSIZE
 40
420.0
  9
$CLAYER
  8
0
  9
$LTSCALE
 40
32.67
  9
$CELTYPE
  6
BYLAYER
  9
$DIMSCALE
 40
1.0
  9
$DIMASZ
 40
3.5
  9
$DIMEXO
 40
3.7125
  9
$DIMDLI
 40
22.572
  9
$DIMEXE
 40
10.692
  9
$DIMCEN
 40
5.346
  9
$DIMLFAC
 40
1.0
  9
$DIMBLK
  1
_FILLED
  9
$DIMTXT
 40
3.5
  9
$DIMTOL
 70
1
  9
$DIMLIM
 70
0
  9
$DIMTFAC
 40
1.0
  9
$DIMTP
 40
0.005
  9
$DIMTM
 40
0.005
  9
$PDMODE
 70
3
  9
$PDSIZE
 40
0.3125
  9
$HANDSEED
  5
809
  9
$TILEMODE
 70
1
  9
$MEASUREMENT
 70
1
  9
$INSUNITS
 70
4
  0
ENDSEC
  0
SECTION
  2
CLASSES
  0
CLASS
  1
ACDBDICTIONARYWDFLT
  2
AcDbDictionaryWithDefault
  3
AutoCAD 2000
 90
0
280
0
281
0
  0
CLASS
  1
ACDBPLACEHOLDER
  2
AcDbPlaceHolder
  3
AutoCAD 2000
 90
0
280
0
281
0
  0
CLASS
  1
LAYOUT
  2
AcDbLayout
  3
AutoCAD 2000
 90
0
280
0
281
0
  0
ENDSEC
  0
SECTION
  2
TABLES
  0
TABLE
  2
VPORT
  5
8
100
AcDbSymbolTable
 70
2
  0
VPORT
  5
1F4
100
AcDbSymbolTableRecord
100
AcDbViewportTableRecord
  2
*ACTIVE
 70
0
 10
0.0
 20
0.0
 11
1.0
 21
1.0
 12
297.0
 22
210.0
 13
0.0
 23
0.0
 14
1.0
 24
1.0
 15
0.0
 25
0.0
 16
0.0
 26
0.0
 36
1.0
 17
0.0
 27
0.0
 37
0.0
 40
420.0
 41
1.4142857143
 42
50.0
 43
0.0
 44
0.0
 50
0.0
 51
0.0
 71
0
 72
100
 73
1
 74
1
 75
0
 76
0
 77
0
 78
0
  0
ENDTAB
  0
TABLE
  2
LTYPE
  5
5
100
AcDbSymbolTable
 70
6
  0
LTYPE
  5
14
100
AcDbSymbolTableRecord
100
AcDbLinetypeTableRecord
  2
BYBLOCK
 70
0
  3

 72
65
 73
0
 40
0.0
  0
LTYPE
  5
15
100
AcDbSymbolTableRecord
100
AcDbLinetypeTableRecord
  2
BYLAYER
 70
0
  3

 72
65
 73
0
 40
0.0
  0
LTYPE
  5
16
100
AcDbSymbolTableRecord
100
AcDbLinetypeTableRecord
  2
CONTINUOUS
 70
64
  3
Solid line
 72
65
 73
0
 40
0.0
  0
LTYPE
  5
1F5
100
AcDbSymbolTableRecord
100
AcDbLinetypeTableRecord
  2
CENTER
 70
64
  3
____ _ ____ _ ____ _ ____ _ ____ _ ____ _ ____
 72
65
 73
4
 40
0.6
 49
0.375
 74
0
 49
-0.075
 74
0
 49
0.075
 74
0
 49
-0.075
 74
0
  0
LTYPE
  5
1F6
100
AcDbSymbolTableRecord
100
AcDbLinetypeTableRecord
  2
HIDDEN
 70
64
  3
- - - - - - - - - - - - - - - - - - - -
 72
65
 73
2
 40
0.2
 49
0.1
 74
0
 49
-0.1
 74
0
  0
LTYPE
  5
1F7
100
AcDbSymbolTableRecord
100
AcDbLinetypeTableRecord
  2
PHANTOM
 70
64
  3
_____ _ _ _____ _ _ _____ _ _ _____
 72
65
 73
6
 40
0.8
 49
0.45
 74
0
 49
-0.05
 74
0
 49
0.1
 74
0
 49
-0.05
 74
0
 49
0.1
 74
0
 49
-0.05
 74
0
  0
LTYPE
  5
1F8
100
AcDbSymbolTableRecord
100
AcDbLinetypeTableRecord
  2
DOT
 70
64
  3
. . . . . . . . . . . . . . . . . . . .
 72
65
 73
2
 40
0.2
 49
0.1
 74
0
 49
-0.1
 74
0
  0
LTYPE
  5
1F9
100
AcDbSymbolTableRecord
100
AcDbLinetypeTableRecord
  2
DASHED
 70
64
  3
- - - - - - - - - - - - - - - - - - - -
 72
65
 73
2
 40
0.2
 49
0.1
 74
0
 49
-0.1
 74
0
  0
ENDTAB
  0
TABLE
  2
LAYER
  5
2
100
AcDbSymbolTable
 70
36
  0
LAYER
  5
10
100
AcDbSymbolTableRecord
100
AcDbLayerTableRecord
  2
0
 70
0
 62
7
  6
CONTINUOUS
370
-3
390
F
  0
LAYER
  5
1FA
100
AcDbSymbolTableRecord
100
AcDbLayerTableRecord
  2
DEFAULT_1
 70
0
 62
7
  6
CENTER
370
-3
390
F
  0
LAYER
  5
1FB
100
AcDbSymbolTableRecord
100
AcDbLayerTableRecord
  2
DEFAULT_2
 70
0
 62
8
  6
HIDDEN
370
-3
390
F
  0
LAYER
  5
1FC
100
AcDbSymbolTableRecord
100
AcDbLayerTableRecord
  2
DEFAULT_3
 70
0
 62
7
  6
PHANTOM
370
-3
390
F
  0
LAYER
  5
1FD
100
AcDbSymbolTableRecord
100
AcDbLayerTableRecord
  2
AUSFORMSCHRAEGEN
 70
0
 62
7
  6
CONTINUOUS
370
-3
390
F
  0
LAYER
  5
1FE
100
AcDbSymbolTableRecord
100
AcDbLayerTableRecord
  2
BEZUGSACHSEN
 70
0
 62
7
  6
CONTINUOUS
370
-3
390
F
  0
LAYER
  5
1FF
100
AcDbSymbolTableRecord
100
AcDbLayerTableRecord
  2
BEZUGSEBENEN
 70
0
 62
7
  6
CONTINUOUS
370
-3
390
F
  0
LAYER
  5
200
100
AcDbSymbolTableRecord
100
AcDbLayerTableRecord
  2
BG_STARTBEZUEGE
 70
0
 62
7
  6
CONTINUOUS
370
-3
390
F
  0
LAYER
  5
201
100
AcDbSymbolTableRecord
100
AcDbLayerTableRecord
  2
FASEN
 70
0
 62
7
  6
CONTINUOUS
370
-3
390
F
  0
LAYER
  5
202
100
AcDbSymbolTableRecord
100
AcDbLayerTableRecord
  2
FLAECHEN
 70
0
 62
7
  6
CONTINUOUS
370
-3
390
F
  0
LAYER
  5
203
100
AcDbSymbolTableRecord
100
AcDbLayerTableRecord
  2
FLAECHENVERBUND
 70
0
 62
7
  6
CONTINUOUS
370
-3
390
F
  0
LAYER
  5
204
100
AcDbSymbolTableRecord
100
AcDbLayerTableRecord
  2
HILFEN
 70
0
 62
7
  6
CONTINUOUS
370
-3
390
F
  0
LAYER
  5
205
100
AcDbSymbolTableRecord
100
AcDbLayerTableRecord
  2
KONSTRUKTIONSELEMENTE
 70
0
 62
7
  6
CONTINUOUS
370
-3
390
F
  0
LAYER
  5
206
100
AcDbSymbolTableRecord
100
AcDbLayerTableRecord
  2
KURVEN
 70
0
 62
7
  6
CONTINUOUS
370
-3
390
F
  0
LAYER
  5
207
100
AcDbSymbolTableRecord
100
AcDbLayerTableRecord
  2
NORM
 70
0
 62
7
  6
CONTINUOUS
370
-3
390
F
  0
LAYER
  5
208
100
AcDbSymbolTableRecord
100
AcDbLayerTableRecord
  2
PLATZIERUNG
 70
0
 62
7
  6
CONTINUOUS
370
-3
390
F
  0
LAYER
  5
209
100
AcDbSymbolTableRecord
100
AcDbLayerTableRecord
  2
RUNDUNGEN
 70
0
 62
7
  6
CONTINUOUS
370
-3
390
F
  0
LAYER
  5
20A
100
AcDbSymbolTableRecord
100
AcDbLayerTableRecord
  2
TEIL_STARTBEZUEGE
 70
0
 62
7
  6
CONTINUOUS
370
-3
390
F
  0
LAYER
  5
20B
100
AcDbSymbolTableRecord
100
AcDbLayerTableRecord
  2
ZEICHNUNGSBEMASSUNGEN
 70
0
 62
7
  6
CONTINUOUS
370
-3
390
F
  0
ENDTAB
  0
TABLE
  2
STYLE
  5
3
100
AcDbSymbolTable
 70
1
  0
STYLE
  5
11
100
AcDbSymbolTableRecord
100
AcDbTextStyleTableRecord
  2
STANDARD
 70
0
 40
0.0
 41
0.7
 50
0.0
 71
0
 42
0.2
  3
txt
  4

  0
STYLE
  5
20C
100
AcDbSymbolTableRecord
100
AcDbTextStyleTableRecord
  2
TEXTSTYLE_1
 70
0
 40
0.0
 41
0.8
 50
0.0
 71
0
 42
0.2
  3
gdt
  4

  0
ENDTAB
  0
TABLE
  2
VIEW
  5
6
100
AcDbSymbolTable
 70
0
  0
ENDTAB
  0
TABLE
  2
UCS
  5
7
100
AcDbSymbolTable
 70
0
  0
ENDTAB
  0
TABLE
  2
APPID
  5
9
100
AcDbSymbolTable
 70
1
  0
APPID
  5
20D
100
AcDbSymbolTableRecord
100
AcDbRegAppTableRecord
  2
ACAD
 70
0
  0
ENDTAB
  0
TABLE
  2
BLOCK_RECORD
  5
1
100
AcDbSymbolTable
 70
0
  0
BLOCK_RECORD
  5
20E
100
AcDbSymbolTableRecord
100
AcDbBlockTableRecord
  2
*Model_Space
  0
BLOCK_RECORD
  5
20F
100
AcDbSymbolTableRecord
100
AcDbBlockTableRecord
  2
*Paper_Space
  0
ENDTAB
  0
TABLE
  2
DIMSTYLE
  5
A
100
AcDbSymbolTable
 70
1
100
AcDbDimStyleTable
 71
0
  0
DIMSTYLE
105
210
100
AcDbSymbolTableRecord
100
AcDbDimStyleTableRecord
  2
STANDARD
 70
0
  3

  4

 40
1.0
 41
3.5
 42
0.0625
 43
0.38
 44
0.18
 45
0.0
 46
0.0
 47
0.005
 48
0.005
140
3.5
141
0.09
142
0.0
143
25.4
144
1.0
145
0.0
146
1.0
147
0.09
 71
1.0
 72
0.0
 73
0
 74
0
 75
0
 76
0
 77
1
 78
8
170
0
171
2
172
0
173
0
174
0
175
0
176
0
177
0
178
5
270
2
271
3
272
3
273
2
274
2
275
0
280
0
281
0
282
0
283
1
284
8
285
0
286
0
287
3
288
0
340
11
  0
ENDTAB
  0
ENDSEC
  0
SECTION
  2
BLOCKS
  0
BLOCK
  5
20
100
AcDbEntity
  8
0
100
AcDbBlockBegin
  2
*Model_Space
 70
0
 10
0.0
 20
0.0
 30
0.0
  3
*Model_Space
  1

  0
ENDBLK
  5
21
100
AcDbEntity
  8
0
100
AcDbBlockEnd
  0
BLOCK
  5
1C
100
AcDbEntity
  8
0
100
AcDbBlockBegin
  2
*Paper_Space
 70
0
 10
0.0
 20
0.0
 30
0.0
  3
*Paper_Space
  1

  0
ENDBLK
  5
1D
100
AcDbEntity
  8
0
100
AcDbBlockEnd
  0
ENDSEC
  0
SECTION
  2
ENTITIES
  0
MTEXT
  5
211
100
AcDbEntity
  8
0
100
AcDbMText
 62
5
  6
CONTINUOUS
  7
STANDARD
 71
1
 72
1
 10
205.1802122986
 20
107.0485781461
 30
0.0
 11
0.0
 21
1.0
 31
0.0
 44
0.9
  1
ICE-CURT 10 RUD
 40
8.0
 41
94.0952380952
  0
MTEXT
  5
212
100
AcDbEntity
  8
0
100
AcDbMText
 62
5
  6
CONTINUOUS
  7
STANDARD
 71
1
 72
1
 10
549.2914675096
 20
112.1864316039
 30
0.0
 11
0.0
 21
1.0
 31
0.0
 44
0.9
  1
ICE-CURT 10 RUD
 40
8.0
 41
94.0952380952
  0
MTEXT
  5
213
100
AcDbEntity
  8
0
100
AcDbMText
 62
5
  6
CONTINUOUS
  7
STANDARD
 71
2
 72
1
 10
274.7042620527
 20
-59.9062064591
 30
0.0
 11
1.0
 21
0.0
 31
0.0
 44
0.9
  1
ICE-CURT 10\PRUD
 40
8.0
 41
68.0
  0
MTEXT
  5
214
100
AcDbEntity
  8
0
100
AcDbMText
 62
5
  6
CONTINUOUS
  7
STANDARD
 71
2
 72
1
 10
274.716353327
 20
481.5674872761
 30
0.0
 11
1.0
 21
0.0
 31
0.0
 44
0.9
  1
ICE-CURT 10\PRUD
 40
8.0
 41
68.0
  0
MTEXT
  5
215
100
AcDbEntity
  8
0
100
AcDbMText
 62
5
  6
CONTINUOUS
  7
STANDARD
 71
1
 72
1
 10
885.2631053321
 20
119.5526430388
 30
0.0
 11
0.0
 21
1.0
 31
0.0
 44
0.9
  1
ICE-CURT 10 RUD
 40
8.0
 41
94.0952380952
  0
LINE
  5
216
100
AcDbEntity
  8
0
100
AcDbLine
 62
7
  6
CONTINUOUS
 10
0.0
 20
0.0
 11
0.0
 21
420.0
  0
LINE
  5
217
100
AcDbEntity
  8
0
100
AcDbLine
 62
7
  6
CONTINUOUS
 10
0.0
 20
0.0
 11
594.0
 21
0.0
  0
LINE
  5
218
100
AcDbEntity
  8
0
100
AcDbLine
 62
7
  6
CONTINUOUS
 10
0.0
 20
420.0
 11
594.0
 21
420.0
  0
LINE
  5
219
100
AcDbEntity
  8
0
100
AcDbLine
 62
7
  6
CONTINUOUS
 10
594.0
 20
0.0
 11
594.0
 21
420.0
  0
LINE
  5
21A
100
AcDbEntity
  8
KONSTRUKTIONSELEMENTE
100
AcDbLine
 62
7
  6
CONTINUOUS
 10
-27.3355842761
 20
382.8841029325
 11
-24.1601581768
 21
388.3841022722
  0
LINE
  5
21B
100
AcDbEntity
  8
0
100
AcDbLine
 62
7
  6
CONTINUOUS
 10
-28.0054576384
 20
346.3841016055
 11
-28.0054576384
 21
348.3841023545
  0
LINE
  5
21C
100
AcDbEntity
  8
KONSTRUKTIONSELEMENTE
100
AcDbLine
 62
7
  6
CONTINUOUS
 10
-28.0054576384
 20
378.3841021899
 11
-28.0054576384
 21
380.384102939
  0
LINE
  5
21D
100
AcDbEntity
  8
0
100
AcDbLine
 62
7
  6
CONTINUOUS
 10
-19.5054576384
 20
369.4841022722
 11
-19.5054576384
 21
357.2841022722
  0
LINE
  5
21E
100
AcDbEntity
  8
0
100
AcDbLine
 62
7
  6
CONTINUOUS
 10
-6.5054576384
 20
369.4841022722
 11
-6.5054576384
 21
357.2841022722
  0
LINE
  5
21F
100
AcDbEntity
  8
0
100
AcDbLine
 62
7
  6
CONTINUOUS
 10
-4.0979488975
 20
349.3555632336
 11
-4.0979488975
 21
348.3555632336
  0
LINE
  5
220
100
AcDbEntity
  8
0
100
AcDbLine
 62
7
  6
CONTINUOUS
 10
-4.0979488975
 20
347.7555632336
 11
-4.0979488975
 21
343.3555632336
  0
LINE
  5
221
100
AcDbEntity
  8
0
100
AcDbLine
 62
7
  6
CONTINUOUS
 10
-3.0979488975
 20
343.3555632336
 11
-3.0979488975
 21
345.8555632336
  0
LINE
  5
222
100
AcDbEntity
  8
0
100
AcDbLine
 62
7
  6
CONTINUOUS
 10
-3.0979488975
 20
346.8555632336
 11
-3.0979488975
 21
347.7555632336
  0
LINE
  5
223
100
AcDbEntity
  8
0
100
AcDbLine
 62
7
  6
CONTINUOUS
 10
1.9020511025
 20
349.3555632336
 11
1.9020511025
 21
345.7555632336
  0
LINE
  5
224
100
AcDbEntity
  8
0
100
AcDbLine
 62
7
  6
CONTINUOUS
 10
3.1020511025
 20
345.7555632336
 11
3.1020511025
 21
349.3555632336
  0
LINE
  5
225
100
AcDbEntity
  8
0
100
AcDbLine
 62
7
  6
CONTINUOUS
 10
5.5020511025
 20
349.3555632336
 11
5.5020511025
 21
345.7555632336
  0
LINE
  5
226
100
AcDbEntity
  8
0
100
AcDbLine
 62
7
  6
CONTINUOUS
 10
6.7020511025
 20
345.7555632336
 11
6.7020511025
 21
349.3555632336
  0
LINE
  5
227
100
AcDbEntity
  8
0
100
AcDbLine
 62
7
  6
CONTINUOUS
 10
7.9020511025
 20
349.3555632336
 11
7.9020511025
 21
348.3555632336
  0
LINE
  5
228
100
AcDbEntity
  8
0
100
AcDbLine
 62
7
  6
CONTINUOUS
 10
7.9020511025
 20
347.7555632336
 11
7.9020511025
 21
343.3555632336
  0
LINE
  5
229
100
AcDbEntity
  8
0
100
AcDbLine
 62
7
  6
CONTINUOUS
 10
9.1020511025
 20
344.3555632336
 11
9.1020511025
 21
347.7555632336
  0
LINE
  5
22A
100
AcDbEntity
  8
0
100
AcDbLine
 62
7
  6
CONTINUOUS
 10
11.6020511025
 20
347.1055632336
 11
11.6020511025
 21
345.6055632336
  0
LINE
  5
22B
100
AcDbEntity
  8
0
100
AcDbLine
 62
7
  6
CONTINUOUS
 10
12.8020511025
 20
345.5555632336
 11
12.8020511025
 21
347.1555632336
  0
LINE
  5
22C
100
AcDbEntity
  8
RUNDUNGEN
100
AcDbLine
 62
7
  6
CONTINUOUS
 10
20.9945423616
 20
346.3841022722
 11
20.9945423616
 21
358.3649987297
  0
LINE
  5
22D
100
AcDbEntity
  8
RUNDUNGEN
100
AcDbLine
 62
7
  6
CONTINUOUS
 10
20.9945423616
 20
368.4031618655
 11
20.9945423616
 21
380.3841022722
  0
LINE
  5
22E
100
AcDbEntity
  8
BEZUGSACHSEN
100
AcDbLine
 62
7
  6
CONTINUOUS
 10
209.4945423616
 20
43.3841022722
 11
207.4945423616
 21
43.3841022722
  0
LINE
  5
22F
100
AcDbEntity
  8
RUNDUNGEN
100
AcDbLine
 62
7
  6
CONTINUOUS
 10
43.9945423616
 20
387.3841022194
 11
43.9945423616
 21
339.384102325
  0
LINE
  5
230
100
AcDbEntity
  8
RUNDUNGEN
100
AcDbLine
 62
7
  6
CONTINUOUS
 10
50.9945423616
 20
337.8841022722
 11
50.9945423616
 21
388.8841022722
  0
LINE
  5
231
100
AcDbEntity
  8
0
100
AcDbLine
 62
7
  6
CONTINUOUS
 10
84.9226903683
 20
339.3841022722
 11
90.7720421647
 21
343.4798624936
  0
LINE
  5
232
100
AcDbEntity
  8
0
100
AcDbLine
 62
7
  6
CONTINUOUS
 10
184.3309738479
 20
382.5047170306
 11
185.0419399072
 21
382.7634875138
  0
LINE
  5
233
100
AcDbEntity
  8
RUNDUNGEN
100
AcDbLine
 62
7
  6
CONTINUOUS
 10
70.9945423616
 20
386.3841022722
 11
70.9945423616
 21
340.3841022722
  0
LINE
  5
234
100
AcDbEntity
  8
KONSTRUKTIONSELEMENTE
100
AcDbLine
 62
7
  6
CONTINUOUS
 10
152.9945423616
 20
355.3841022722
 11
150.9945423616
 21
353.3841022722
  0
LINE
  5
235
100
AcDbEntity
  8
0
100
AcDbLine
 62
7
  6
CONTINUOUS
 10
-24.1601581768
 20
338.3841022722
 11
-27.3355842762
 21
343.884101612
  0
LINE
  5
236
100
AcDbEntity
  8
RUNDUNGEN
100
AcDbLine
 62
7
  6
CONTINUOUS
 10
75.4945423616
 20
356.2383236615
 11
75.4945423616
 21
370.5298808829
  0
LINE
  5
237
100
AcDbEntity
  8
RUNDUNGEN
100
AcDbLine
 62
7
  6
CONTINUOUS
 10
84.9226903683
 20
387.3841022722
 11
84.9226903683
 21
370.5298808829
  0
LINE
  5
238
100
AcDbEntity
  8
RUNDUNGEN
100
AcDbLine
 62
7
  6
CONTINUOUS
 10
84.9226903683
 20
356.2383236615
 11
84.9226903683
 21
339.3841022722
  0
LINE
  5
239
100
AcDbEntity
  8
FASEN
100
AcDbLine
 62
7
  6
CONTINUOUS
 10
163.9945423616
 20
355.8841022722
 11
163.4945423616
 21
355.3841022722
  0
LINE
  5
23A
100
AcDbEntity
  8
0
100
AcDbLine
 62
7
  6
CONTINUOUS
 10
-1.2073499742
 20
345.3555632336
 11
-0.0526494359
 21
343.3555632336
  0
LINE
  5
23B
100
AcDbEntity
  8
0
100
AcDbLine
 62
7
  6
CONTINUOUS
 10
1.1020511025
 20
343.3555632336
 11
-0.4106940491
 21
345.9757146952
  0
LINE
  5
23C
100
AcDbEntity
  8
RUNDUNGEN
100
AcDbLine
 62
7
  6
CONTINUOUS
 10
97.4945423616
 20
368.3843276552
 11
97.4945423616
 21
358.3840481874
  0
LINE
  5
23D
100
AcDbEntity
  8
0
100
AcDbLine
 62
7
  6
CONTINUOUS
 10
231.947144816
 20
344.0047170306
 11
232.6581108752
 21
344.2634875138
  0
LINE
  5
23E
100
AcDbEntity
  8
0
100
AcDbLine
 62
7
  6
CONTINUOUS
 10
150.9945423616
 20
354.7238482344
 11
150.9945423616
 21
353.3841022722
  0
LINE
  5
23F
100
AcDbEntity
  8
0
100
AcDbLine
 62
7
  6
CONTINUOUS
 10
150.9945423616
 20
358.3841022722
 11
150.9945423616
 21
373.3841022722
  0
LINE
  5
240
100
AcDbEntity
  8
FASEN
100
AcDbLine
 62
7
  6
CONTINUOUS
 10
265.9945423616
 20
370.8841022722
 11
266.4945423616
 21
371.3841022722
  0
LINE
  5
241
100
AcDbEntity
  8
0
100
AcDbLine
 62
7
  6
CONTINUOUS
 10
278.9945423616
 20
373.3841022722
 11
276.9945423616
 21
371.3841022722
  0
LINE
  5
242
100
AcDbEntity
  8
0
100
AcDbLine
 62
7
  6
CONTINUOUS
 10
152.9945423616
 20
355.3841022728
 11
152.9945423616
 21
357.1391042738
  0
LINE
  5
243
100
AcDbEntity
  8
0
100
AcDbLine
 62
7
  6
CONTINUOUS
 10
152.9945423616
 20
358.3841022722
 11
152.9945423616
 21
371.3841022716
  0
LINE
  5
244
100
AcDbEntity
  8
0
100
AcDbLine
 62
7
  6
CONTINUOUS
 10
163.4945423616
 20
355.3841022722
 11
163.4945423616
 21
357.1391042738
  0
LINE
  5
245
100
AcDbEntity
  8
0
100
AcDbLine
 62
7
  6
CONTINUOUS
 10
163.4945423616
 20
358.3841022722
 11
163.4945423616
 21
371.3841022722
  0
LINE
  5
246
100
AcDbEntity
  8
0
100
AcDbLine
 62
7
  6
CONTINUOUS
 10
163.9945423616
 20
355.8844374498
 11
163.9945423616
 21
370.8837670946
  0
LINE
  5
247
100
AcDbEntity
  8
RUNDUNGEN
100
AcDbLine
 62
7
  6
CONTINUOUS
 10
190.4945423616
 20
299.9731833339
 11
190.4945423616
 21
389.384023203
  0
LINE
  5
248
100
AcDbEntity
  8
RUNDUNGEN
100
AcDbLine
 62
7
  6
CONTINUOUS
 10
199.4945423616
 20
266.2950212105
 11
199.4945423616
 21
51.3841022722
  0
LINE
  5
249
100
AcDbEntity
  8
0
100
AcDbLine
 62
7
  6
CONTINUOUS
 10
201.4945423616
 20
335.3841022722
 11
201.4945423616
 21
394.3841022722
  0
LINE
  5
24A
100
AcDbEntity
  8
BEZUGSACHSEN
100
AcDbLine
 62
7
  6
CONTINUOUS
 10
226.0448046621
 20
296.8599911797
 11
217.9410041694
 21
269.3971117322
  0
LINE
  5
24B
100
AcDbEntity
  8
0
100
AcDbLine
 62
7
  6
CONTINUOUS
 10
215.4945423616
 20
335.3841022722
 11
215.4945423616
 21
394.3841022722
  0
LINE
  5
24C
100
AcDbEntity
  8
BEZUGSACHSEN
100
AcDbLine
 62
7
  6
CONTINUOUS
 10
217.4945423616
 20
266.2950212105
 11
217.4945423616
 21
51.3841022722
  0
LINE
  5
24D
100
AcDbEntity
  8
BEZUGSACHSEN
100
AcDbLine
 62
7
  6
CONTINUOUS
 10
226.4945423616
 20
299.9731833339
 11
226.4945423616
 21
389.3841022722
  0
LINE
  5
24E
100
AcDbEntity
  8
RUNDUNGEN
100
AcDbLine
 62
7
  6
CONTINUOUS
 10
190.944280061
 20
296.8599911797
 11
199.0480786254
 21
269.3971182669
  0
LINE
  5
24F
100
AcDbEntity
  8
FASEN
100
AcDbLine
 62
7
  6
CONTINUOUS
 10
265.9945423616
 20
355.8841022722
 11
265.9945423616
 21
370.8841022722
  0
LINE
  5
250
100
AcDbEntity
  8
FASEN
100
AcDbLine
 62
7
  6
CONTINUOUS
 10
266.4945423616
 20
355.3841022722
 11
266.4945423616
 21
371.3841022722
  0
LINE
  5
251
100
AcDbEntity
  8
0
100
AcDbLine
 62
7
  6
CONTINUOUS
 10
276.9945423616
 20
355.3841022722
 11
276.9945423616
 21
371.3841022722
  0
LINE
  5
252
100
AcDbEntity
  8
0
100
AcDbLine
 62
7
  6
CONTINUOUS
 10
278.9945423616
 20
353.3841022722
 11
278.9945423616
 21
373.3841022722
  0
LINE
  5
253
100
AcDbEntity
  8
0
100
AcDbLine
 62
7
  6
CONTINUOUS
 10
84.9226903683
 20
387.3841022722
 11
90.7720421647
 21
383.2883420508
  0
LINE
  5
254
100
AcDbEntity
  8
KONSTRUKTIONSELEMENTE
100
AcDbLine
 62
7
  6
CONTINUOUS
 10
152.9945423616
 20
371.3841022722
 11
150.9945423616
 21
373.3841022722
  0
LINE
  5
255
100
AcDbEntity
  8
FASEN
100
AcDbLine
 62
7
  6
CONTINUOUS
 10
163.9945423616
 20
370.8841022722
 11
163.4945423616
 21
371.3841022722
  0
LINE
  5
256
100
AcDbEntity
  8
RUNDUNGEN
100
AcDbLine
 62
7
  6
CONTINUOUS
 10
319.4945423616
 20
368.3839203664
 11
319.4945423616
 21
358.3842886335
  0
LINE
  5
257
100
AcDbEntity
  8
0
100
AcDbLine
 62
7
  6
CONTINUOUS
 10
325.5286098485
 20
382.8841022722
 11
325.5286098485
 21
343.8841022722
  0
LINE
  5
258
100
AcDbEntity
  8
0
100
AcDbLine
 62
7
  6
CONTINUOUS
 10
203.4945423616
 20
333.3841022722
 11
213.4945423616
 21
333.3841022722
  0
LINE
  5
259
100
AcDbEntity
  8
0
100
AcDbLine
 62
7
  6
CONTINUOUS
 10
214.8174180171
 20
333.8841022722
 11
202.171666706
 21
333.8841022722
  0
LINE
  5
25A
100
AcDbEntity
  8
RUNDUNGEN
100
AcDbLine
 62
7
  6
CONTINUOUS
 10
-20.6960565617
 20
336.3841022722
 11
10.9945423616
 21
336.3841022722
  0
LINE
  5
25B
100
AcDbEntity
  8
RUNDUNGEN
100
AcDbLine
 62
7
  6
CONTINUOUS
 10
406.9945423616
 20
336.3841022722
 11
438.6851412848
 21
336.3841022722
  0
LINE
  5
25C
100
AcDbEntity
  8
BEZUGSACHSEN
100
AcDbLine
 62
7
  6
CONTINUOUS
 10
45.9945423616
 20
337.3841022722
 11
50.4945423616
 21
337.3841022722
  0
LINE
  5
25D
100
AcDbEntity
  8
RUNDUNGEN
100
AcDbLine
 62
7
  6
CONTINUOUS
 10
84.9226903683
 20
339.3841022722
 11
71.9945423616
 21
339.3841022722
  0
LINE
  5
25E
100
AcDbEntity
  8
0
100
AcDbLine
 62
7
  6
CONTINUOUS
 10
71.9945423616
 20
339.3841022722
 11
84.9226903683
 21
339.3841022722
  0
LINE
  5
25F
100
AcDbEntity
  8
0
100
AcDbLine
 62
7
  6
CONTINUOUS
 10
184.3309738479
 20
344.2634875138
 11
185.0419399072
 21
344.0047170306
  0
LINE
  5
260
100
AcDbEntity
  8
RUNDUNGEN
100
AcDbLine
 62
7
  6
CONTINUOUS
 10
346.9945423616
 20
344.8841022722
 11
346.9945423616
 21
381.8841022722
  0
LINE
  5
261
100
AcDbEntity
  8
0
100
AcDbLine
 62
7
  6
CONTINUOUS
 10
-4.0979488975
 20
343.3555632336
 11
-3.0979488975
 21
343.3555632336
  0
LINE
  5
262
100
AcDbEntity
  8
0
100
AcDbLine
 62
7
  6
CONTINUOUS
 10
-0.0526494359
 20
343.3555632336
 11
1.1020511025
 21
343.3555632336
  0
LINE
  5
263
100
AcDbEntity
  8
0
100
AcDbLine
 62
7
  6
CONTINUOUS
 10
7.9020511025
 20
343.3555632336
 11
10.6020511025
 21
343.3555632336
  0
LINE
  5
264
100
AcDbEntity
  8
RUNDUNGEN
100
AcDbLine
 62
7
  6
CONTINUOUS
 10
345.9945423616
 20
343.8841022722
 11
325.5286098485
 21
343.8841022722
  0
LINE
  5
265
100
AcDbEntity
  8
RUNDUNGEN
100
AcDbLine
 62
7
  6
CONTINUOUS
 10
231.2631045293
 20
343.8841022722
 11
226.4945423616
 21
343.8841022722
  0
LINE
  5
266
100
AcDbEntity
  8
RUNDUNGEN
100
AcDbLine
 62
7
  6
CONTINUOUS
 10
190.4945423616
 20
343.8841022722
 11
185.7259801938
 21
343.8841022722
  0
LINE
  5
267
100
AcDbEntity
  8
0
100
AcDbLine
 62
7
  6
CONTINUOUS
 10
185.7259801938
 20
343.8841022722
 11
190.4945423616
 21
343.8841022722
  0
LINE
  5
268
100
AcDbEntity
  8
0
100
AcDbLine
 62
7
  6
CONTINUOUS
 10
226.4945423616
 20
343.8841022722
 11
231.2631045293
 21
343.8841022722
  0
LINE
  5
269
100
AcDbEntity
  8
0
100
AcDbLine
 62
7
  6
CONTINUOUS
 10
325.5286098485
 20
343.8841022722
 11
345.9945423616
 21
343.8841022722
  0
LINE
  5
26A
100
AcDbEntity
  8
0
100
AcDbLine
 62
7
  6
CONTINUOUS
 10
10.3520511025
 20
344.3555632336
 11
9.1020511025
 21
344.3555632336
  0
LINE
  5
26B
100
AcDbEntity
  8
0
100
AcDbLine
 62
7
  6
CONTINUOUS
 10
93.6399243464
 20
344.3841022722
 11
183.6469335612
 21
344.3841022722
  0
LINE
  5
26C
100
AcDbEntity
  8
0
100
AcDbLine
 62
7
  6
CONTINUOUS
 10
233.3421511619
 20
344.3841022722
 11
323.3491603767
 21
344.3841022722
  0
LINE
  5
26D
100
AcDbEntity
  8
0
100
AcDbLine
 62
7
  6
CONTINUOUS
 10
-3.0979488975
 20
345.8555632336
 11
-2.073375378
 21
345.8555632336
  0
LINE
  5
26E
100
AcDbEntity
  8
0
100
AcDbLine
 62
7
  6
CONTINUOUS
 10
-1.4479488975
 20
346.8555632336
 11
-3.0979488975
 21
346.8555632336
  0
LINE
  5
26F
100
AcDbEntity
  8
0
100
AcDbLine
 62
7
  6
CONTINUOUS
 10
9.1020511025
 20
347.7555632336
 11
7.9020511025
 21
347.7555632336
  0
LINE
  5
270
100
AcDbEntity
  8
0
100
AcDbLine
 62
7
  6
CONTINUOUS
 10
-3.0979488975
 20
347.7555632336
 11
-4.0979488975
 21
347.7555632336
  0
LINE
  5
271
100
AcDbEntity
  8
0
100
AcDbLine
 62
7
  6
CONTINUOUS
 10
-4.0979488975
 20
348.3555632336
 11
-1.4479488975
 21
348.3555632336
  0
LINE
  5
272
100
AcDbEntity
  8
0
100
AcDbLine
 62
7
  6
CONTINUOUS
 10
7.9020511025
 20
348.3555632336
 11
10.3520511025
 21
348.3555632336
  0
LINE
  5
273
100
AcDbEntity
  8
0
100
AcDbLine
 62
7
  6
CONTINUOUS
 10
10.6020511025
 20
349.3555632336
 11
7.9020511025
 21
349.3555632336
  0
LINE
  5
274
100
AcDbEntity
  8
0
100
AcDbLine
 62
7
  6
CONTINUOUS
 10
6.7020511025
 20
349.3555632336
 11
5.5020511025
 21
349.3555632336
  0
LINE
  5
275
100
AcDbEntity
  8
0
100
AcDbLine
 62
7
  6
CONTINUOUS
 10
3.1020511025
 20
349.3555632336
 11
1.9020511025
 21
349.3555632336
  0
LINE
  5
276
100
AcDbEntity
  8
0
100
AcDbLine
 62
7
  6
CONTINUOUS
 10
-1.0479488975
 20
349.3555632336
 11
-4.0979488975
 21
349.3555632336
  0
LINE
  5
277
100
AcDbEntity
  8
RUNDUNGEN
100
AcDbLine
 62
7
  6
CONTINUOUS
 10
313.4945423616
 20
352.3841022722
 11
230.4946100794
 21
352.3841022722
  0
LINE
  5
278
100
AcDbEntity
  8
RUNDUNGEN
100
AcDbLine
 62
7
  6
CONTINUOUS
 10
186.4945423616
 20
352.3841022722
 11
103.4948021771
 21
352.3841022722
  0
LINE
  5
279
100
AcDbEntity
  8
0
100
AcDbLine
 62
7
  6
CONTINUOUS
 10
22.9945423616
 20
353.3841022722
 11
43.9945423616
 21
353.3841022722
  0
LINE
  5
27A
100
AcDbEntity
  8
0
100
AcDbLine
 62
7
  6
CONTINUOUS
 10
50.9945423616
 20
353.3841022722
 11
70.9945423616
 21
353.3841022722
  0
LINE
  5
27B
100
AcDbEntity
  8
0
100
AcDbLine
 62
7
  6
CONTINUOUS
 10
100.181026209
 20
353.3841022722
 11
150.9945423616
 21
353.3841022722
  0
LINE
  5
27C
100
AcDbEntity
  8
KONSTRUKTIONSELEMENTE
100
AcDbLine
 62
7
  6
CONTINUOUS
 10
278.9945423616
 20
353.3841022722
 11
316.8111671519
 21
353.3841022722
  0
LINE
  5
27D
100
AcDbEntity
  8
KONSTRUKTIONSELEMENTE
100
AcDbLine
 62
7
  6
CONTINUOUS
 10
346.9945423616
 20
353.3841022722
 11
394.9945423616
 21
353.3841022722
  0
LINE
  5
27E
100
AcDbEntity
  8
RUNDUNGEN
100
AcDbLine
 62
7
  6
CONTINUOUS
 10
26.9945423616
 20
354.7238482344
 11
43.9945423616
 21
354.7238482344
  0
LINE
  5
27F
100
AcDbEntity
  8
RUNDUNGEN
100
AcDbLine
 62
7
  6
CONTINUOUS
 10
50.9945423616
 20
354.7238482344
 11
70.9945423616
 21
354.7238482344
  0
LINE
  5
280
100
AcDbEntity
  8
RUNDUNGEN
100
AcDbLine
 62
7
  6
CONTINUOUS
 10
98.7432673259
 20
354.7238482344
 11
150.9945423616
 21
354.7238482344
  0
LINE
  5
281
100
AcDbEntity
  8
KONSTRUKTIONSELEMENTE
100
AcDbLine
 62
7
  6
CONTINUOUS
 10
163.4945423616
 20
355.3841022722
 11
152.9945423616
 21
355.3841022722
  0
LINE
  5
282
100
AcDbEntity
  8
KONSTRUKTIONSELEMENTE
100
AcDbLine
 62
7
  6
CONTINUOUS
 10
266.4945423616
 20
355.3841022722
 11
276.9945423616
 21
355.3841022722
  0
LINE
  5
283
100
AcDbEntity
  8
0
100
AcDbLine
 62
7
  6
CONTINUOUS
 10
152.9945423616
 20
357.1391042738
 11
163.4945423616
 21
357.1391042738
  0
LINE
  5
284
100
AcDbEntity
  8
RUNDUNGEN
100
AcDbLine
 62
7
  6
CONTINUOUS
 10
-22.5505576074
 20
357.2841022722
 11
2.8945423616
 21
357.2841022722
  0
LINE
  5
285
100
AcDbEntity
  8
RUNDUNGEN
100
AcDbLine
 62
7
  6
CONTINUOUS
 10
415.0945423616
 20
357.2841022722
 11
440.5396423008
 21
357.2841022722
  0
LINE
  5
286
100
AcDbEntity
  8
RUNDUNGEN
100
AcDbLine
 62
7
  6
CONTINUOUS
 10
26.9945423616
 20
358.3841022722
 11
43.9945423616
 21
358.3841022722
  0
LINE
  5
287
100
AcDbEntity
  8
RUNDUNGEN
100
AcDbLine
 62
7
  6
CONTINUOUS
 10
50.9945423616
 20
358.3841022722
 11
70.9945423616
 21
358.3841022722
  0
LINE
  5
288
100
AcDbEntity
  8
RUNDUNGEN
100
AcDbLine
 62
7
  6
CONTINUOUS
 10
97.4945423618
 20
358.3841022722
 11
150.9945423616
 21
358.3841022722
  0
LINE
  5
289
100
AcDbEntity
  8
0
100
AcDbLine
 62
7
  6
CONTINUOUS
 10
150.9945423616
 20
358.3841022722
 11
163.9945423616
 21
358.3841022722
  0
LINE
  5
28A
100
AcDbEntity
  8
FASEN
100
AcDbLine
 62
7
  6
CONTINUOUS
 10
265.9945423616
 20
355.8841022722
 11
266.4945423616
 21
355.3841022722
  0
LINE
  5
28B
100
AcDbEntity
  8
KONSTRUKTIONSELEMENTE
100
AcDbLine
 62
7
  6
CONTINUOUS
 10
445.3246689993
 20
343.8841016119
 11
442.1492428999
 21
338.3841022722
  0
LINE
  5
28C
100
AcDbEntity
  8
RUNDUNGEN
100
AcDbLine
 62
7
  6
CONTINUOUS
 10
440.5399585232
 20
369.4841022722
 11
415.0945423616
 21
369.4841022722
  0
LINE
  5
28D
100
AcDbEntity
  8
RUNDUNGEN
100
AcDbLine
 62
7
  6
CONTINUOUS
 10
2.8945423616
 20
369.4841022722
 11
-22.5505576056
 21
369.4841022722
  0
LINE
  5
28E
100
AcDbEntity
  8
0
100
AcDbLine
 62
7
  6
CONTINUOUS
 10
276.9945423616
 20
371.3841022722
 11
266.4945423616
 21
371.3841022722
  0
LINE
  5
28F
100
AcDbEntity
  8
KONSTRUKTIONSELEMENTE
100
AcDbLine
 62
7
  6
CONTINUOUS
 10
163.4945423616
 20
371.3841022722
 11
152.9945423616
 21
371.3841022722
  0
LINE
  5
290
100
AcDbEntity
  8
0
100
AcDbLine
 62
7
  6
CONTINUOUS
 10
394.9945423616
 20
373.3841022722
 11
346.9945423616
 21
373.3841022722
  0
LINE
  5
291
100
AcDbEntity
  8
0
100
AcDbLine
 62
7
  6
CONTINUOUS
 10
316.8051118273
 20
373.3841022722
 11
278.9945423616
 21
373.3841022722
  0
LINE
  5
292
100
AcDbEntity
  8
KONSTRUKTIONSELEMENTE
100
AcDbLine
 62
7
  6
CONTINUOUS
 10
150.9945423616
 20
373.3841022722
 11
100.1810090725
 21
373.3841022722
  0
LINE
  5
293
100
AcDbEntity
  8
KONSTRUKTIONSELEMENTE
100
AcDbLine
 62
7
  6
CONTINUOUS
 10
70.9945423616
 20
373.3841022722
 11
50.9945423616
 21
373.3841022722
  0
LINE
  5
294
100
AcDbEntity
  8
KONSTRUKTIONSELEMENTE
100
AcDbLine
 62
7
  6
CONTINUOUS
 10
43.9945423616
 20
373.3841022722
 11
22.9945423616
 21
373.3841022722
  0
LINE
  5
295
100
AcDbEntity
  8
RUNDUNGEN
100
AcDbLine
 62
7
  6
CONTINUOUS
 10
103.4945423616
 20
374.3841022722
 11
186.4945423612
 21
374.3841022722
  0
LINE
  5
296
100
AcDbEntity
  8
RUNDUNGEN
100
AcDbLine
 62
7
  6
CONTINUOUS
 10
230.4947075791
 20
374.3841022722
 11
313.4943681865
 21
374.3841022722
  0
LINE
  5
297
100
AcDbEntity
  8
0
100
AcDbLine
 62
7
  6
CONTINUOUS
 10
407.3870336206
 20
377.4126413108
 11
410.0870336206
 21
377.4126413108
  0
LINE
  5
298
100
AcDbEntity
  8
0
100
AcDbLine
 62
7
  6
CONTINUOUS
 10
411.2870336206
 20
377.4126413108
 11
412.4870336206
 21
377.4126413108
  0
LINE
  5
299
100
AcDbEntity
  8
0
100
AcDbLine
 62
7
  6
CONTINUOUS
 10
414.8870336206
 20
377.4126413108
 11
416.0870336206
 21
377.4126413108
  0
LINE
  5
29A
100
AcDbEntity
  8
0
100
AcDbLine
 62
7
  6
CONTINUOUS
 10
419.0370336206
 20
377.4126413108
 11
422.0870336206
 21
377.4126413108
  0
LINE
  5
29B
100
AcDbEntity
  8
0
100
AcDbLine
 62
7
  6
CONTINUOUS
 10
422.0870336206
 20
378.4126413108
 11
419.4370336206
 21
378.4126413108
  0
LINE
  5
29C
100
AcDbEntity
  8
0
100
AcDbLine
 62
7
  6
CONTINUOUS
 10
410.0870336206
 20
378.4126413108
 11
407.6370336206
 21
378.4126413108
  0
LINE
  5
29D
100
AcDbEntity
  8
KONSTRUKTIONSELEMENTE
100
AcDbLine
 62
7
  6
CONTINUOUS
 10
276.9945423616
 20
355.3841022722
 11
278.9945423616
 21
353.3841022722
  0
LINE
  5
29E
100
AcDbEntity
  8
0
100
AcDbLine
 62
7
  6
CONTINUOUS
 10
408.8870336206
 20
379.0126413108
 11
410.0870336206
 21
379.0126413108
  0
LINE
  5
29F
100
AcDbEntity
  8
0
100
AcDbLine
 62
7
  6
CONTINUOUS
 10
421.0870336206
 20
379.0126413108
 11
422.0870336206
 21
379.0126413108
  0
LINE
  5
2A0
100
AcDbEntity
  8
0
100
AcDbLine
 62
7
  6
CONTINUOUS
 10
419.4370336206
 20
379.9126413108
 11
421.0870336206
 21
379.9126413108
  0
LINE
  5
2A1
100
AcDbEntity
  8
0
100
AcDbLine
 62
7
  6
CONTINUOUS
 10
421.0870336206
 20
380.9126413108
 11
420.0624601012
 21
380.9126413108
  0
LINE
  5
2A2
100
AcDbEntity
  8
0
100
AcDbLine
 62
7
  6
CONTINUOUS
 10
93.6399243464
 20
382.3841022722
 11
183.6469335612
 21
382.3841022722
  0
LINE
  5
2A3
100
AcDbEntity
  8
RUNDUNGEN
100
AcDbLine
 62
7
  6
CONTINUOUS
 10
233.3421511619
 20
382.3841022722
 11
323.3491603767
 21
382.3841022722
  0
LINE
  5
2A4
100
AcDbEntity
  8
0
100
AcDbLine
 62
7
  6
CONTINUOUS
 10
233.3421511619
 20
382.3841022722
 11
323.3491603767
 21
382.3841022722
  0
LINE
  5
2A5
100
AcDbEntity
  8
0
100
AcDbLine
 62
7
  6
CONTINUOUS
 10
407.6370336206
 20
382.4126413108
 11
408.8870336206
 21
382.4126413108
  0
LINE
  5
2A6
100
AcDbEntity
  8
RUNDUNGEN
100
AcDbLine
 62
7
  6
CONTINUOUS
 10
345.9945423616
 20
382.8841022722
 11
325.5286098485
 21
382.8841022722
  0
LINE
  5
2A7
100
AcDbEntity
  8
RUNDUNGEN
100
AcDbLine
 62
7
  6
CONTINUOUS
 10
231.2631045293
 20
382.8841022722
 11
226.4945423616
 21
382.8841022722
  0
LINE
  5
2A8
100
AcDbEntity
  8
RUNDUNGEN
100
AcDbLine
 62
7
  6
CONTINUOUS
 10
190.4945423616
 20
382.8841022722
 11
185.7259801938
 21
382.8841022722
  0
LINE
  5
2A9
100
AcDbEntity
  8
0
100
AcDbLine
 62
7
  6
CONTINUOUS
 10
185.7259801938
 20
382.8841022722
 11
190.4945423616
 21
382.8841022722
  0
LINE
  5
2AA
100
AcDbEntity
  8
0
100
AcDbLine
 62
7
  6
CONTINUOUS
 10
226.4945423616
 20
382.8841022722
 11
231.2631045293
 21
382.8841022722
  0
LINE
  5
2AB
100
AcDbEntity
  8
0
100
AcDbLine
 62
7
  6
CONTINUOUS
 10
325.5286098485
 20
382.8841022722
 11
345.9945423616
 21
382.8841022722
  0
LINE
  5
2AC
100
AcDbEntity
  8
0
100
AcDbLine
 62
7
  6
CONTINUOUS
 10
422.0870336206
 20
383.4126413108
 11
421.0870336206
 21
383.4126413108
  0
LINE
  5
2AD
100
AcDbEntity
  8
0
100
AcDbLine
 62
7
  6
CONTINUOUS
 10
418.041734159
 20
383.4126413108
 11
416.8870336206
 21
383.4126413108
  0
LINE
  5
2AE
100
AcDbEntity
  8
0
100
AcDbLine
 62
7
  6
CONTINUOUS
 10
410.0870336206
 20
383.4126413108
 11
407.3870336206
 21
383.4126413108
  0
LINE
  5
2AF
100
AcDbEntity
  8
RUNDUNGEN
100
AcDbLine
 62
7
  6
CONTINUOUS
 10
84.9226903683
 20
387.3841022722
 11
71.9945423616
 21
387.3841022722
  0
LINE
  5
2B0
100
AcDbEntity
  8
0
100
AcDbLine
 62
7
  6
CONTINUOUS
 10
71.9945423616
 20
387.3841022722
 11
84.9226903683
 21
387.3841022722
  0
LINE
  5
2B1
100
AcDbEntity
  8
BEZUGSACHSEN
100
AcDbLine
 62
7
  6
CONTINUOUS
 10
45.9945423616
 20
389.3841022722
 11
50.4945423616
 21
389.3841022722
  0
LINE
  5
2B2
100
AcDbEntity
  8
RUNDUNGEN
100
AcDbLine
 62
7
  6
CONTINUOUS
 10
438.6851412848
 20
390.3841022722
 11
406.9945423616
 21
390.3841022722
  0
LINE
  5
2B3
100
AcDbEntity
  8
RUNDUNGEN
100
AcDbLine
 62
7
  6
CONTINUOUS
 10
10.9945423616
 20
390.3841022722
 11
-20.6960565617
 21
390.3841022722
  0
LINE
  5
2B4
100
AcDbEntity
  8
0
100
AcDbLine
 62
7
  6
CONTINUOUS
 10
215.4945423616
 20
392.8841022722
 11
201.4945423616
 21
392.8841022722
  0
LINE
  5
2B5
100
AcDbEntity
  8
0
100
AcDbLine
 62
7
  6
CONTINUOUS
 10
221.4945423616
 20
394.3841022722
 11
215.4945423616
 21
394.3841022722
  0
LINE
  5
2B6
100
AcDbEntity
  8
0
100
AcDbLine
 62
7
  6
CONTINUOUS
 10
201.4945423616
 20
394.3841022722
 11
195.4945423616
 21
394.3841022722
  0
LINE
  5
2B7
100
AcDbEntity
  8
0
100
AcDbLine
 62
7
  6
CONTINUOUS
 10
231.947144816
 20
382.7634875138
 11
232.6581108752
 21
382.5047170306
  0
LINE
  5
2B8
100
AcDbEntity
  8
RUNDUNGEN
100
AcDbLine
 62
7
  6
CONTINUOUS
 10
396.9945423616
 20
380.3841022722
 11
396.9945423616
 21
368.403205741
  0
LINE
  5
2B9
100
AcDbEntity
  8
RUNDUNGEN
100
AcDbLine
 62
7
  6
CONTINUOUS
 10
396.9945423616
 20
358.3650428531
 11
396.9945423616
 21
346.3841022722
  0
LINE
  5
2BA
100
AcDbEntity
  8
0
100
AcDbLine
 62
7
  6
CONTINUOUS
 10
405.1870336206
 20
381.2126413108
 11
405.1870336206
 21
379.6126413108
  0
LINE
  5
2BB
100
AcDbEntity
  8
0
100
AcDbLine
 62
7
  6
CONTINUOUS
 10
406.3870336206
 20
379.6626413108
 11
406.3870336206
 21
381.1626413108
  0
LINE
  5
2BC
100
AcDbEntity
  8
0
100
AcDbLine
 62
7
  6
CONTINUOUS
 10
408.8870336206
 20
382.4126413108
 11
408.8870336206
 21
379.0126413108
  0
LINE
  5
2BD
100
AcDbEntity
  8
0
100
AcDbLine
 62
7
  6
CONTINUOUS
 10
410.0870336206
 20
377.4126413108
 11
410.0870336206
 21
378.4126413108
  0
LINE
  5
2BE
100
AcDbEntity
  8
0
100
AcDbLine
 62
7
  6
CONTINUOUS
 10
410.0870336206
 20
379.0126413108
 11
410.0870336206
 21
383.4126413108
  0
LINE
  5
2BF
100
AcDbEntity
  8
0
100
AcDbLine
 62
7
  6
CONTINUOUS
 10
411.2870336206
 20
381.0126413108
 11
411.2870336206
 21
377.4126413108
  0
LINE
  5
2C0
100
AcDbEntity
  8
0
100
AcDbLine
 62
7
  6
CONTINUOUS
 10
412.4870336206
 20
377.4126413108
 11
412.4870336206
 21
381.0126413108
  0
LINE
  5
2C1
100
AcDbEntity
  8
0
100
AcDbLine
 62
7
  6
CONTINUOUS
 10
414.8870336206
 20
381.0126413108
 11
414.8870336206
 21
377.4126413108
  0
LINE
  5
2C2
100
AcDbEntity
  8
0
100
AcDbLine
 62
7
  6
CONTINUOUS
 10
416.0870336206
 20
377.4126413108
 11
416.0870336206
 21
381.0126413108
  0
LINE
  5
2C3
100
AcDbEntity
  8
0
100
AcDbLine
 62
7
  6
CONTINUOUS
 10
421.0870336206
 20
383.4126413108
 11
421.0870336206
 21
380.9126413108
  0
LINE
  5
2C4
100
AcDbEntity
  8
0
100
AcDbLine
 62
7
  6
CONTINUOUS
 10
421.0870336206
 20
379.9126413108
 11
421.0870336206
 21
379.0126413108
  0
LINE
  5
2C5
100
AcDbEntity
  8
0
100
AcDbLine
 62
7
  6
CONTINUOUS
 10
422.0870336206
 20
377.4126413108
 11
422.0870336206
 21
378.4126413108
  0
LINE
  5
2C6
100
AcDbEntity
  8
0
100
AcDbLine
 62
7
  6
CONTINUOUS
 10
422.0870336206
 20
379.0126413108
 11
422.0870336206
 21
383.4126413108
  0
LINE
  5
2C7
100
AcDbEntity
  8
0
100
AcDbLine
 62
7
  6
CONTINUOUS
 10
424.4945423616
 20
357.2841022722
 11
424.4945423616
 21
369.4841022722
  0
LINE
  5
2C8
100
AcDbEntity
  8
0
100
AcDbLine
 62
7
  6
CONTINUOUS
 10
437.4945423616
 20
357.2841022722
 11
437.4945423616
 21
369.4841022722
  0
LINE
  5
2C9
100
AcDbEntity
  8
0
100
AcDbLine
 62
7
  6
CONTINUOUS
 10
445.9945423616
 20
380.3841029389
 11
445.9945423616
 21
378.3841021625
  0
LINE
  5
2CA
100
AcDbEntity
  8
KONSTRUKTIONSELEMENTE
100
AcDbLine
 62
7
  6
CONTINUOUS
 10
445.9945423616
 20
348.3841023819
 11
445.9945423616
 21
346.3841016054
  0
LINE
  5
2CB
100
AcDbEntity
  8
0
100
AcDbLine
 62
7
  6
CONTINUOUS
 10
416.8870336206
 20
383.4126413108
 11
418.3997787723
 21
380.7924898492
  0
LINE
  5
2CC
100
AcDbEntity
  8
0
100
AcDbLine
 62
7
  6
CONTINUOUS
 10
419.1964346974
 20
381.4126413108
 11
418.041734159
 21
383.4126413108
  0
LINE
  5
2CD
100
AcDbEntity
  8
0
100
AcDbLine
 62
7
  6
CONTINUOUS
 10
442.1492428999
 20
388.3841022722
 11
445.3246689993
 21
382.8841029324
  0
LINE
  5
2CE
100
AcDbEntity
  8
RUNDUNGEN
100
AcDbLine
 62
7
  6
CONTINUOUS
 10
575.8672466581
 20
341.3623991039
 11
575.8673296849
 21
341.3624813664
  0
LWPOLYLINE
  5
2CF
100
AcDbEntity
  8
RUNDUNGEN
100
AcDbPolyline
 62
7
  6
CONTINUOUS
 90
5
 70
0
 10
539.1512846379
 20
376.3782540252
 10
539.1570290944
 20
375.9699517483
 10
539.1578459346
 20
375.8134890451
 10
539.1570469455
 20
375.686828764
 10
539.1548796471
 20
375.5900369948
  0
LINE
  5
2D0
100
AcDbEntity
  8
0
100
AcDbLine
 62
7
  6
CONTINUOUS
 10
539.1488283382
 20
351.3522539171
 11
539.1487981632
 21
351.3547009496
  0
LINE
  5
2D1
100
AcDbEntity
  8
RUNDUNGEN
100
AcDbLine
 62
7
  6
CONTINUOUS
 10
539.148963096
 20
376.63237563
 11
539.1512846379
 21
376.3782540252
  0
LINE
  5
2D2
100
AcDbEntity
  8
0
100
AcDbLine
 62
7
  6
CONTINUOUS
 10
534.048800573
 20
299.1023385562
 11
534.048800573
 21
333.6520514646
  0
LINE
  5
2D3
100
AcDbEntity
  8
RUNDUNGEN
100
AcDbLine
 62
7
  6
CONTINUOUS
 10
538.048800573
 20
59.3841022722
 11
538.048800573
 21
267.1658659882
  0
LINE
  5
2D4
100
AcDbEntity
  8
RUNDUNGEN
100
AcDbLine
 62
7
  6
CONTINUOUS
 10
539.148800573
 20
386.3841022722
 11
539.148800573
 21
385.2153584895
  0
LINE
  5
2D5
100
AcDbEntity
  8
RUNDUNGEN
100
AcDbLine
 62
7
  6
CONTINUOUS
 10
539.148800573
 20
351.249600503
 11
539.148800573
 21
350.05833833
  0
LINE
  5
2D6
100
AcDbEntity
  8
KONSTRUKTIONSELEMENTE
100
AcDbLine
 62
7
  6
CONTINUOUS
 10
539.148800573
 20
346.8810914377
 11
539.148800573
 21
341.5528460549
  0
LINE
  5
2D7
100
AcDbEntity
  8
RUNDUNGEN
100
AcDbLine
 62
7
  6
CONTINUOUS
 10
539.148800573
 20
341.5528460549
 11
539.148800573
 21
340.3841022722
  0
LINE
  5
2D8
100
AcDbEntity
  8
0
100
AcDbLine
 62
7
  6
CONTINUOUS
 10
539.148800573
 20
341.5528460549
 11
539.148800573
 21
351.3522539171
  0
LINE
  5
2D9
100
AcDbEntity
  8
RUNDUNGEN
100
AcDbLine
 62
7
  6
CONTINUOUS
 10
539.148800573
 20
351.3547014413
 11
539.148800573
 21
379.8871131067
  0
LINE
  5
2DA
100
AcDbEntity
  8
KONSTRUKTIONSELEMENTE
100
AcDbLine
 62
7
  6
CONTINUOUS
 10
539.148800573
 20
379.8871131067
 11
539.148800573
 21
385.2153584895
  0
LINE
  5
2DB
100
AcDbEntity
  8
RUNDUNGEN
100
AcDbLine
 62
7
  6
CONTINUOUS
 10
539.1488283382
 20
375.4159506273
 11
539.1487981632
 21
375.4135035948
  0
LWPOLYLINE
  5
2DC
100
AcDbEntity
  8
0
100
AcDbPolyline
 62
7
  6
CONTINUOUS
 90
3
 70
0
 10
539.1570290944
 20
350.7982527961
 10
539.1512846379
 20
350.3899505193
 10
539.148963096
 20
350.1358289144
  0
LWPOLYLINE
  5
2DD
100
AcDbEntity
  8
RUNDUNGEN
100
AcDbPolyline
 62
7
  6
CONTINUOUS
 90
3
 70
0
 10
539.1548796471
 20
375.5900369948
 10
539.1495835026
 20
375.4502409188
 10
539.1488078481
 20
375.415070815
  0
LWPOLYLINE
  5
2DE
100
AcDbEntity
  8
0
100
AcDbPolyline
 62
7
  6
CONTINUOUS
 90
5
 70
0
 10
539.1521417734
 20
351.2535738203
 10
539.1548796471
 20
351.1781675496
 10
539.1570469455
 20
351.0813757804
 10
539.1578459346
 20
350.9547154994
 10
539.1570290944
 20
350.7982527961
  0
LINE
  5
2DF
100
AcDbEntity
  8
0
100
AcDbLine
 62
7
  6
CONTINUOUS
 10
546.998800573
 20
369.4841022722
 11
546.998800573
 21
357.2841022722
  0
LINE
  5
2E0
100
AcDbEntity
  8
BEZUGSACHSEN
100
AcDbLine
 62
7
  6
CONTINUOUS
 10
534.1421957364
 20
297.6719641514
 11
534.1646050078
 21
297.5010934564
  0
LINE
  5
2E1
100
AcDbEntity
  8
RUNDUNGEN
100
AcDbLine
 62
7
  6
CONTINUOUS
 10
534.1421957364
 20
297.6719641514
 11
537.9587086599
 21
268.5710531096
  0
LINE
  5
2E2
100
AcDbEntity
  8
0
100
AcDbLine
 62
7
  6
CONTINUOUS
 10
561.098800573
 20
369.4841022722
 11
561.098800573
 21
357.2841022722
  0
LWPOLYLINE
  5
2E3
100
AcDbEntity
  8
RUNDUNGEN
100
AcDbPolyline
 62
7
  6
CONTINUOUS
 90
3
 70
0
 10
568.940446547
 20
375.9620436099
 10
568.9460912938
 20
376.3659818359
 10
568.9485890919
 20
376.6174931239
  0
LINE
  5
2E4
100
AcDbEntity
  8
0
100
AcDbLine
 62
7
  6
CONTINUOUS
 10
568.9488029828
 20
351.354700975
 11
568.9487520951
 21
351.3515054472
  0
LWPOLYLINE
  5
2E5
100
AcDbEntity
  8
0
100
AcDbPolyline
 62
7
  6
CONTINUOUS
 90
3
 70
0
 10
568.942741166
 20
351.1805867677
 10
568.9480822515
 20
351.3191137081
 10
568.9487537976
 20
351.3511859932
  0
LINE
  5
2E6
100
AcDbEntity
  8
BEZUGSACHSEN
100
AcDbLine
 62
7
  6
CONTINUOUS
 10
573.9330002882
 20
297.5011251008
 11
573.9554054096
 21
297.6719641514
  0
LINE
  5
2E7
100
AcDbEntity
  8
RUNDUNGEN
100
AcDbLine
 62
7
  6
CONTINUOUS
 10
570.1388926257
 20
268.5710541744
 11
573.9554054096
 21
297.6719641514
  0
LWPOLYLINE
  5
2E8
100
AcDbEntity
  8
RUNDUNGEN
100
AcDbPolyline
 62
7
  6
CONTINUOUS
 90
5
 70
0
 10
568.9480822515
 20
375.4490908363
 10
568.942741166
 20
375.5876177767
 10
568.9406662467
 20
375.6827263112
 10
568.9397182337
 20
375.8075494147
 10
568.940446547
 20
375.9620436099
  0
LINE
  5
2E9
100
AcDbEntity
  8
RUNDUNGEN
100
AcDbLine
 62
7
  6
CONTINUOUS
 10
568.9487537976
 20
375.4170185512
 11
568.9480822515
 21
375.4490908363
  0
LINE
  5
2EA
100
AcDbEntity
  8
RUNDUNGEN
100
AcDbLine
 62
7
  6
CONTINUOUS
 10
568.9488029828
 20
375.4135035694
 11
568.9487520951
 21
375.4166990972
  0
LWPOLYLINE
  5
2EB
100
AcDbEntity
  8
0
100
AcDbPolyline
 62
7
  6
CONTINUOUS
 90
5
 70
0
 10
568.9460912938
 20
350.4022227085
 10
568.940446547
 20
350.8061609345
 10
568.9397182337
 20
350.9606551297
 10
568.9406662467
 20
351.0854782332
 10
568.942741166
 20
351.1805867677
  0
LINE
  5
2EC
100
AcDbEntity
  8
0
100
AcDbLine
 62
7
  6
CONTINUOUS
 10
568.9485890919
 20
350.1507114205
 11
568.9460912938
 21
350.4022227085
  0
LINE
  5
2ED
100
AcDbEntity
  8
KONSTRUKTIONSELEMENTE
100
AcDbLine
 62
7
  6
CONTINUOUS
 10
567.936300573
 20
376.5591022722
 11
567.936300573
 21
384.2091022722
  0
LINE
  5
2EE
100
AcDbEntity
  8
KONSTRUKTIONSELEMENTE
100
AcDbLine
 62
7
  6
CONTINUOUS
 10
568.948800573
 20
385.2153584895
 11
568.948800573
 21
379.8871131067
  0
LINE
  5
2EF
100
AcDbEntity
  8
RUNDUNGEN
100
AcDbLine
 62
7
  6
CONTINUOUS
 10
568.948800573
 20
340.3841022722
 11
568.948800573
 21
341.5528460549
  0
LINE
  5
2F0
100
AcDbEntity
  8
KONSTRUKTIONSELEMENTE
100
AcDbLine
 62
7
  6
CONTINUOUS
 10
568.948800573
 20
341.5528460549
 11
568.948800573
 21
346.8810914377
  0
LINE
  5
2F1
100
AcDbEntity
  8
0
100
AcDbLine
 62
7
  6
CONTINUOUS
 10
568.948800573
 20
341.5528460549
 11
568.948800573
 21
351.2278485048
  0
LINE
  5
2F2
100
AcDbEntity
  8
RUNDUNGEN
100
AcDbLine
 62
7
  6
CONTINUOUS
 10
568.948800573
 20
350.0642940217
 11
568.948800573
 21
379.8871131067
  0
LINE
  5
2F3
100
AcDbEntity
  8
RUNDUNGEN
100
AcDbLine
 62
7
  6
CONTINUOUS
 10
568.948800573
 20
385.2153584895
 11
568.948800573
 21
386.3841022722
  0
LINE
  5
2F4
100
AcDbEntity
  8
RUNDUNGEN
100
AcDbLine
 62
7
  6
CONTINUOUS
 10
570.048800573
 20
267.1658659882
 11
570.048800573
 21
59.3841022722
  0
LINE
  5
2F5
100
AcDbEntity
  8
0
100
AcDbLine
 62
7
  6
CONTINUOUS
 10
574.048800573
 20
299.1023385562
 11
574.048800573
 21
333.6520514646
  0
LINE
  5
2F6
100
AcDbEntity
  8
RUNDUNGEN
100
AcDbLine
 62
7
  6
CONTINUOUS
 10
532.2303544996
 20
341.3623990923
 11
532.230275008
 21
341.3624778521
  0
LINE
  5
2F7
100
AcDbEntity
  8
0
100
AcDbLine
 62
7
  6
CONTINUOUS
 10
543.148800573
 20
336.3841022722
 11
543.8104174896
 21
336.3841022722
  0
LINE
  5
2F8
100
AcDbEntity
  8
0
100
AcDbLine
 62
7
  6
CONTINUOUS
 10
564.2871836563
 20
336.3841022722
 11
564.948800573
 21
336.3841022722
  0
LINE
  5
2F9
100
AcDbEntity
  8
RUNDUNGEN
100
AcDbLine
 62
7
  6
CONTINUOUS
 10
543.148800573
 20
336.3841022722
 11
564.948800573
 21
336.3841022722
  0
LINE
  5
2FA
100
AcDbEntity
  8
RUNDUNGEN
100
AcDbLine
 62
7
  6
CONTINUOUS
 10
541.1487934558
 20
357.2841022722
 11
566.9488076906
 21
357.2841022722
  0
LINE
  5
2FB
100
AcDbEntity
  8
RUNDUNGEN
100
AcDbLine
 62
7
  6
CONTINUOUS
 10
566.9488076906
 20
369.4841022722
 11
541.1487934558
 21
369.4841022722
  0
LINE
  5
2FC
100
AcDbEntity
  8
RUNDUNGEN
100
AcDbLine
 62
7
  6
CONTINUOUS
 10
564.948800573
 20
390.3841022722
 11
543.148800573
 21
390.3841022722
  0
LINE
  5
2FD
100
AcDbEntity
  8
RUNDUNGEN
100
AcDbLine
 62
7
  6
CONTINUOUS
 10
20.9945423616
 20
-83.0325576195
 11
20.9945423616
 21
-61.2325576195
  0
LINE
  5
2FE
100
AcDbEntity
  8
RUNDUNGEN
100
AcDbLine
 62
7
  6
CONTINUOUS
 10
43.9945423616
 20
-96.1325576195
 11
43.9945423616
 21
-48.1325576195
  0
LINE
  5
2FF
100
AcDbEntity
  8
RUNDUNGEN
100
AcDbLine
 62
7
  6
CONTINUOUS
 10
50.9945423616
 20
-97.6325576195
 11
50.9945423616
 21
-46.6325576195
  0
LINE
  5
300
100
AcDbEntity
  8
KONSTRUKTIONSELEMENTE
100
AcDbLine
 62
7
  6
CONTINUOUS
 10
-19.9420357974
 20
-58.5589552281
 11
-23.5026372452
 21
-61.8464709236
  0
LINE
  5
301
100
AcDbEntity
  8
KONSTRUKTIONSELEMENTE
100
AcDbLine
 62
7
  6
CONTINUOUS
 10
-23.5026372452
 20
-82.4186443155
 11
-19.9420357974
 21
-85.7061600109
  0
LINE
  5
302
100
AcDbEntity
  8
RUNDUNGEN
100
AcDbLine
 62
7
  6
CONTINUOUS
 10
70.9945423616
 20
-49.1326563899
 11
70.9945423616
 21
-95.1325576195
  0
LINE
  5
303
100
AcDbEntity
  8
RUNDUNGEN
100
AcDbLine
 62
7
  6
CONTINUOUS
 10
75.4945423616
 20
-96.1325576195
 11
75.4945423616
 21
-95.0440797874
  0
LINE
  5
304
100
AcDbEntity
  8
0
100
AcDbLine
 62
7
  6
CONTINUOUS
 10
84.9226903683
 20
-48.1325576195
 11
84.9226903683
 21
-72.1325576195
  0
LINE
  5
305
100
AcDbEntity
  8
RUNDUNGEN
100
AcDbLine
 62
7
  6
CONTINUOUS
 10
84.9226903683
 20
-72.1325576195
 11
84.9226903683
 21
-95.0440797874
  0
LINE
  5
306
100
AcDbEntity
  8
0
100
AcDbLine
 62
7
  6
CONTINUOUS
 10
114.4945423616
 20
-53.1325576195
 11
114.4945423616
 21
-52.5580844465
  0
LWPOLYLINE
  5
307
100
AcDbEntity
  8
RUNDUNGEN
100
AcDbPolyline
 62
7
  6
CONTINUOUS
 90
5
 70
0
 10
97.4538947421
 20
-88.673254243
 10
97.4529342114
 20
-88.6760608223
 10
97.4497575452
 20
-88.6847458197
 10
97.4570877211
 20
-88.6689746849
 10
97.4773469198
 20
-88.6304579117
  0
LINE
  5
308
100
AcDbEntity
  8
0
100
AcDbLine
 62
7
  6
CONTINUOUS
 10
122.4945423616
 20
-54.4690358869
 11
122.4945423616
 21
-53.8251820566
  0
LINE
  5
309
100
AcDbEntity
  8
0
100
AcDbLine
 62
7
  6
CONTINUOUS
 10
130.4945423616
 20
-53.1325576195
 11
130.4945423616
 21
-52.5580844465
  0
LINE
  5
30A
100
AcDbEntity
  8
RUNDUNGEN
100
AcDbLine
 62
7
  6
CONTINUOUS
 10
97.4773469198
 20
-88.6304579117
 11
97.5145189737
 21
-88.5673934848
  0
LWPOLYLINE
  5
30B
100
AcDbEntity
  8
RUNDUNGEN
100
AcDbPolyline
 62
7
  6
CONTINUOUS
 90
27
 70
0
 10
97.5121663324
 20
-88.5712034062
 10
97.5625072864
 20
-88.493339659
 10
97.6296378559
 20
-88.397860735
 10
97.7143774794
 20
-88.2860343585
 10
97.8177847292
 20
-88.1585363462
 10
97.9407889791
 20
-88.0161280838
 10
98.0843711443
 20
-87.8594939288
 10
98.2498988151
 20
-87.6889506297
 10
98.4367381952
 20
-87.5068972637
 10
98.6445754123
 20
-87.315312251
 10
98.8720100128
 20
-87.117057902
 10
99.1172991454
 20
-86.9150999558
 10
99.3785581645
 20
-86.7124005959
 10
99.6534816146
 20
-86.5120701443
 10
99.9394262193
 20
-86.3172301749
 10
100.2329280802
 20
-86.1312555605
 10
100.5318705023
 20
-85.9563544746
 10
100.8322917711
 20
-85.7954595927
 10
101.1349040907
 20
-85.6486802448
 10
101.4390546057
 20
-85.5170768998
 10
101.7453359779
 20
-85.4011418431
 10
102.0543433555
 20
-85.301632882
 10
102.3652563212
 20
-85.2198934237
 10
102.6781423568
 20
-85.1568318919
 10
102.9910166355
 20
-85.1136731967
 10
103.3026042257
 20
-85.090885647
 10
103.4945423616
 20
-85.0870018699
  0
LINE
  5
30C
100
AcDbEntity
  8
RUNDUNGEN
100
AcDbLine
 62
7
  6
CONTINUOUS
 10
84.9228323927
 20
-95.1339745572
 11
90.7743837228
 21
-91.0359196214
  0
LINE
  5
30D
100
AcDbEntity
  8
RUNDUNGEN
100
AcDbLine
 62
7
  6
CONTINUOUS
 10
90.774383722
 20
-91.0359197713
 11
90.8039736316
 21
-91.0152957725
  0
LINE
  5
30E
100
AcDbEntity
  8
RUNDUNGEN
100
AcDbLine
 62
7
  6
CONTINUOUS
 10
90.8039736316
 20
-91.0152957725
 11
90.8893753066
 21
-90.9575131937
  0
LINE
  5
30F
100
AcDbEntity
  8
RUNDUNGEN
100
AcDbLine
 62
7
  6
CONTINUOUS
 10
90.8792949765
 20
-90.9642010982
 11
90.9625279893
 21
-90.9100533752
  0
LINE
  5
310
100
AcDbEntity
  8
RUNDUNGEN
100
AcDbLine
 62
7
  6
CONTINUOUS
 10
90.9554731254
 20
-90.9145170979
 11
90.9956385683
 21
-90.8891037938
  0
LINE
  5
311
100
AcDbEntity
  8
0
100
AcDbLine
 62
7
  6
CONTINUOUS
 10
84.9226903683
 20
-48.1325576195
 11
90.7720421647
 21
-52.228317841
  0
LINE
  5
312
100
AcDbEntity
  8
RUNDUNGEN
100
AcDbLine
 62
7
  6
CONTINUOUS
 10
90.9956448006
 20
-90.8891266896
 11
91.194074986
 21
-90.7719315752
  0
LINE
  5
313
100
AcDbEntity
  8
RUNDUNGEN
100
AcDbLine
 62
7
  6
CONTINUOUS
 10
91.1833005433
 20
-90.7779710537
 11
91.5218341919
 21
-90.6066610045
  0
LINE
  5
314
100
AcDbEntity
  8
0
100
AcDbLine
 62
7
  6
CONTINUOUS
 10
221.4945423616
 20
-103.1325576195
 11
215.4945423616
 21
-103.1325576195
  0
LINE
  5
315
100
AcDbEntity
  8
0
100
AcDbLine
 62
7
  6
CONTINUOUS
 10
201.4945423616
 20
-103.1325576195
 11
195.4945423616
 21
-103.1325576195
  0
LINE
  5
316
100
AcDbEntity
  8
RUNDUNGEN
100
AcDbLine
 62
7
  6
CONTINUOUS
 10
190.4945423616
 20
-98.1325216288
 11
190.4945423616
 21
-46.13259327
  0
LINE
  5
317
100
AcDbEntity
  8
RUNDUNGEN
100
AcDbLine
 62
7
  6
CONTINUOUS
 10
91.5103782706
 20
-90.611883707
 11
91.8670845426
 21
-90.4658155415
  0
LINE
  5
318
100
AcDbEntity
  8
0
100
AcDbLine
 62
7
  6
CONTINUOUS
 10
184.3309738479
 20
-53.0119428611
 11
185.0419399072
 21
-52.7531723779
  0
LINE
  5
319
100
AcDbEntity
  8
RUNDUNGEN
100
AcDbLine
 62
7
  6
CONTINUOUS
 10
91.8549989386
 20
-90.4702120912
 11
92.2281705572
 21
-90.3503787078
  0
LINE
  5
31A
100
AcDbEntity
  8
RUNDUNGEN
100
AcDbLine
 62
7
  6
CONTINUOUS
 10
228.9114335437
 20
-86.0844772363
 11
229.2704214647
 21
-85.9902623686
  0
LINE
  5
31B
100
AcDbEntity
  8
RUNDUNGEN
100
AcDbLine
 62
7
  6
CONTINUOUS
 10
229.2600638963
 20
-85.9926568534
 11
229.6188252097
 21
-85.921134864
  0
LINE
  5
31C
100
AcDbEntity
  8
RUNDUNGEN
100
AcDbLine
 62
7
  6
CONTINUOUS
 10
229.6081223469
 20
-85.9229247408
 11
229.9629786864
 21
-85.8749917964
  0
LINE
  5
31D
100
AcDbEntity
  8
RUNDUNGEN
100
AcDbLine
 62
7
  6
CONTINUOUS
 10
229.9520472964
 20
-85.8761152264
 11
230.2987817021
 21
-85.8516079243
  0
LINE
  5
31E
100
AcDbEntity
  8
RUNDUNGEN
100
AcDbLine
 62
7
  6
CONTINUOUS
 10
93.3729955553
 20
-90.1669188719
 11
93.6399243466
 21
-90.1603348805
  0
LINE
  5
31F
100
AcDbEntity
  8
RUNDUNGEN
100
AcDbLine
 62
7
  6
CONTINUOUS
 10
230.2878173325
 20
-85.8520292889
 11
230.4945423619
 21
-85.8479301644
  0
LINE
  5
320
100
AcDbEntity
  8
0
100
AcDbLine
 62
7
  6
CONTINUOUS
 10
215.4945423616
 20
-101.6325576195
 11
201.4945423616
 21
-101.6325576195
  0
LINE
  5
321
100
AcDbEntity
  8
RUNDUNGEN
100
AcDbLine
 62
7
  6
CONTINUOUS
 10
45.9945423616
 20
-98.1325576195
 11
50.4945423616
 21
-98.1325576195
  0
LINE
  5
322
100
AcDbEntity
  8
BEZUGSACHSEN
100
AcDbLine
 62
7
  6
CONTINUOUS
 10
45.9945423616
 20
-98.1325576195
 11
50.4945423616
 21
-98.1325576195
  0
LINE
  5
323
100
AcDbEntity
  8
0
100
AcDbLine
 62
7
  6
CONTINUOUS
 10
71.9945423616
 20
-96.1325576195
 11
75.4945423616
 21
-96.1325576195
  0
LINE
  5
324
100
AcDbEntity
  8
RUNDUNGEN
100
AcDbLine
 62
7
  6
CONTINUOUS
 10
84.9179621098
 20
-95.1347862734
 11
75.4945423616
 21
-95.1347862734
  0
LINE
  5
325
100
AcDbEntity
  8
0
100
AcDbLine
 62
7
  6
CONTINUOUS
 10
325.5286098485
 20
-91.6325576195
 11
345.9945423616
 21
-91.6325576195
  0
LINE
  5
326
100
AcDbEntity
  8
0
100
AcDbLine
 62
7
  6
CONTINUOUS
 10
321.4945423616
 20
-91.1325576195
 11
323.3491603767
 21
-91.1325576195
  0
LINE
  5
327
100
AcDbEntity
  8
RUNDUNGEN
100
AcDbLine
 62
7
  6
CONTINUOUS
 10
93.6399243465
 20
-90.1603353973
 11
95.5223628397
 21
-90.1603353973
  0
LINE
  5
328
100
AcDbEntity
  8
RUNDUNGEN
100
AcDbLine
 62
7
  6
CONTINUOUS
 10
-16.5501859379
 20
-87.0325576195
 11
17.0072633615
 21
-87.0325373915
  0
LINE
  5
329
100
AcDbEntity
  8
RUNDUNGEN
100
AcDbLine
 62
7
  6
CONTINUOUS
 10
400.9945444824
 20
-87.0325576195
 11
434.539270661
 21
-87.0325576195
  0
LWPOLYLINE
  5
32A
100
AcDbEntity
  8
RUNDUNGEN
100
AcDbPolyline
 62
7
  6
CONTINUOUS
 90
14
 70
0
 10
186.4945429464
 20
-85.847930228
 10
186.6903717688
 20
-85.851608397
 10
187.0260802925
 20
-85.8749906591
 10
187.3698959202
 20
-85.9210736191
 10
187.7178228074
 20
-85.9900688457
 10
188.0663220754
 20
-86.0811546118
 10
188.41191271
 20
-86.1925563703
 10
188.7505001307
 20
-86.3214456842
 10
189.0810652009
 20
-86.4656219325
 10
189.4020602597
 20
-86.6225786063
 10
189.7127092971
 20
-86.7901494514
 10
190.0125516174
 20
-86.9664452899
 10
190.3003863209
 20
-87.1492341694
 10
190.4945423616
 20
-87.2814877354
  0
LWPOLYLINE
  5
32B
100
AcDbEntity
  8
RUNDUNGEN
100
AcDbPolyline
 62
7
  6
CONTINUOUS
 90
9
 70
0
 10
183.6469317155
 20
-85.0870088836
 10
183.6935383111
 20
-85.088875186
 10
183.7468961475
 20
-85.0955279263
 10
183.8005507604
 20
-85.1067641882
 10
183.8554334256
 20
-85.1226186446
 10
183.9103300421
 20
-85.1425211391
 10
183.9658106414
 20
-85.166440087
 10
184.0222354461
 20
-85.1944642306
 10
184.0456701345
 20
-85.2071518274
  0
LINE
  5
32C
100
AcDbEntity
  8
RUNDUNGEN
100
AcDbLine
 62
7
  6
CONTINUOUS
 10
184.390679513
 20
-85.3974279762
 11
184.7706724707
 21
-85.605028371
  0
LINE
  5
32D
100
AcDbEntity
  8
RUNDUNGEN
100
AcDbLine
 62
7
  6
CONTINUOUS
 10
184.0456791602
 20
-85.2071475327
 11
184.3965244151
 21
-85.400629926
  0
LINE
  5
32E
100
AcDbEntity
  8
0
100
AcDbLine
 62
7
  6
CONTINUOUS
 10
201.4945423616
 20
-103.1324844988
 11
201.4945423616
 21
-41.1326307402
  0
LINE
  5
32F
100
AcDbEntity
  8
RUNDUNGEN
100
AcDbLine
 62
7
  6
CONTINUOUS
 10
92.5898713029
 20
-90.2639595505
 11
92.9892040603
 21
-90.1997111726
  0
LINE
  5
330
100
AcDbEntity
  8
RUNDUNGEN
100
AcDbLine
 62
7
  6
CONTINUOUS
 10
92.9763581024
 20
-90.2012952752
 11
93.385646104
 21
-90.166312094
  0
LINE
  5
331
100
AcDbEntity
  8
RUNDUNGEN
100
AcDbLine
 62
7
  6
CONTINUOUS
 10
185.7259801938
 20
-85.8479321334
 11
186.4945429432
 21
-85.8479321334
  0
LINE
  5
332
100
AcDbEntity
  8
RUNDUNGEN
100
AcDbLine
 62
7
  6
CONTINUOUS
 10
230.4945423616
 20
-85.8479321334
 11
231.2631045293
 21
-85.8479321334
  0
LINE
  5
333
100
AcDbEntity
  8
RUNDUNGEN
100
AcDbLine
 62
7
  6
CONTINUOUS
 10
103.4945423616
 20
-85.0870087696
 11
183.6469317198
 21
-85.0870087696
  0
LINE
  5
334
100
AcDbEntity
  8
RUNDUNGEN
100
AcDbLine
 62
7
  6
CONTINUOUS
 10
233.3421511619
 20
-85.0870087696
 11
313.4945414884
 21
-85.0870087696
  0
LINE
  5
335
100
AcDbEntity
  8
0
100
AcDbLine
 62
7
  6
CONTINUOUS
 10
395.0962375203
 20
-82.1325576195
 11
346.9945423616
 21
-82.1325576195
  0
LINE
  5
336
100
AcDbEntity
  8
KONSTRUKTIONSELEMENTE
100
AcDbLine
 62
7
  6
CONTINUOUS
 10
70.9945423616
 20
-82.1325576195
 11
50.9945423616
 21
-82.1325576195
  0
LINE
  5
337
100
AcDbEntity
  8
KONSTRUKTIONSELEMENTE
100
AcDbLine
 62
7
  6
CONTINUOUS
 10
43.9945423616
 20
-82.1325576195
 11
22.8928472028
 21
-82.1325576195
  0
LINE
  5
338
100
AcDbEntity
  8
0
100
AcDbLine
 62
7
  6
CONTINUOUS
 10
22.8928472028
 20
-82.1325576195
 11
43.9945423616
 21
-82.1325576195
  0
LINE
  5
339
100
AcDbEntity
  8
0
100
AcDbLine
 62
7
  6
CONTINUOUS
 10
50.9945423616
 20
-82.1325576195
 11
70.9945423616
 21
-82.1325576195
  0
LINE
  5
33A
100
AcDbEntity
  8
KONSTRUKTIONSELEMENTE
100
AcDbLine
 62
7
  6
CONTINUOUS
 10
346.9945423616
 20
-82.1325576195
 11
395.0962375203
 21
-82.1325576195
  0
LWPOLYLINE
  5
33B
100
AcDbEntity
  8
RUNDUNGEN
100
AcDbPolyline
 62
7
  6
CONTINUOUS
 90
24
 70
0
 10
313.4945414857
 20
-85.0870017696
 10
313.6955465647
 20
-85.0912613987
 10
314.0272345283
 20
-85.1168417623
 10
314.3618446062
 20
-85.1657515845
 10
314.6970596661
 20
-85.2374571871
 10
315.0305506691
 20
-85.3305639991
 10
315.3597684337
 20
-85.4430695889
 10
315.6817055131
 20
-85.572059625
 10
315.9960012052
 20
-85.7155346322
 10
316.3019330318
 20
-85.8713218014
 10
316.5994261308
 20
-86.0377251795
 10
316.8886575037
 20
-86.2134653873
 10
317.1688377512
 20
-86.3967875841
 10
317.4395025548
 20
-86.5862572911
 10
317.6999675546
 20
-86.7804086242
 10
317.9502041475
 20
-86.9783975628
 10
318.1876230115
 20
-87.1773679382
 10
318.411029612
 20
-87.3754807912
 10
318.6170096985
 20
-87.5687706668
 10
318.8034612407
 20
-87.7540412449
 10
318.9684225292
 20
-87.9278766206
 10
319.1103657891
 20
-88.086903772
 10
319.2296051162
 20
-88.229397364
 10
319.3261348836
 20
-88.3529390823
  0
LINE
  5
33C
100
AcDbEntity
  8
0
100
AcDbLine
 62
7
  6
CONTINUOUS
 10
215.4945423616
 20
-103.1324844988
 11
215.4945423616
 21
-41.1326307402
  0
LINE
  5
33D
100
AcDbEntity
  8
BEZUGSACHSEN
100
AcDbLine
 62
7
  6
CONTINUOUS
 10
226.4945423616
 20
-98.1325216288
 11
226.4945423616
 21
-46.13259327
  0
LINE
  5
33E
100
AcDbEntity
  8
RUNDUNGEN
100
AcDbLine
 62
7
  6
CONTINUOUS
 10
92.2155931383
 20
-90.3538888866
 11
92.6027178723
 21
-90.2614036756
  0
LINE
  5
33F
100
AcDbEntity
  8
RUNDUNGEN
100
AcDbLine
 62
7
  6
CONTINUOUS
 10
70.9945423616
 20
-67.1325576195
 11
50.9945423616
 21
-67.1325576195
  0
LINE
  5
340
100
AcDbEntity
  8
RUNDUNGEN
100
AcDbLine
 62
7
  6
CONTINUOUS
 10
43.9945423616
 20
-67.1325576195
 11
26.9945423616
 21
-67.1325576195
  0
LINE
  5
341
100
AcDbEntity
  8
RUNDUNGEN
100
AcDbLine
 62
7
  6
CONTINUOUS
 10
70.9945423616
 20
-63.4723035817
 11
50.9945423616
 21
-63.4723035817
  0
LINE
  5
342
100
AcDbEntity
  8
RUNDUNGEN
100
AcDbLine
 62
7
  6
CONTINUOUS
 10
43.9945423616
 20
-63.4723035817
 11
26.9945423616
 21
-63.4723035817
  0
LINE
  5
343
100
AcDbEntity
  8
RUNDUNGEN
100
AcDbLine
 62
7
  6
CONTINUOUS
 10
395.0962375203
 20
-62.1325576195
 11
346.9945423616
 21
-62.1325576195
  0
LINE
  5
344
100
AcDbEntity
  8
RUNDUNGEN
100
AcDbLine
 62
7
  6
CONTINUOUS
 10
22.8928472028
 20
-62.1325576195
 11
43.9945423616
 21
-62.1325576195
  0
LINE
  5
345
100
AcDbEntity
  8
RUNDUNGEN
100
AcDbLine
 62
7
  6
CONTINUOUS
 10
50.9945423616
 20
-62.1325576195
 11
70.9945423616
 21
-62.1325576195
  0
LINE
  5
346
100
AcDbEntity
  8
RUNDUNGEN
100
AcDbLine
 62
7
  6
CONTINUOUS
 10
-16.5501859379
 20
-57.2325576195
 11
16.9945423616
 21
-57.2325576195
  0
LINE
  5
347
100
AcDbEntity
  8
RUNDUNGEN
100
AcDbLine
 62
7
  6
CONTINUOUS
 10
400.9990320501
 20
-57.2325576195
 11
434.539270661
 21
-57.2325576195
  0
LINE
  5
348
100
AcDbEntity
  8
RUNDUNGEN
100
AcDbLine
 62
7
  6
CONTINUOUS
 10
264.4944712341
 20
-54.6325576195
 11
238.4945268955
 21
-54.6325576195
  0
LINE
  5
349
100
AcDbEntity
  8
0
100
AcDbLine
 62
7
  6
CONTINUOUS
 10
129.4887189687
 20
-52.5333493393
 11
130.4945423616
 21
-52.5580844465
  0
LINE
  5
34A
100
AcDbEntity
  8
0
100
AcDbLine
 62
7
  6
CONTINUOUS
 10
238.9945423616
 20
-54.6325576195
 11
238.9945423616
 21
-53.9325576195
  0
LINE
  5
34B
100
AcDbEntity
  8
0
100
AcDbLine
 62
7
  6
CONTINUOUS
 10
240.4945423616
 20
-54.6325576195
 11
240.4945423616
 21
-53.9325576195
  0
LINE
  5
34C
100
AcDbEntity
  8
RUNDUNGEN
100
AcDbLine
 62
7
  6
CONTINUOUS
 10
226.4945423616
 20
-87.2815801531
 11
226.6843391655
 21
-87.1521057954
  0
LINE
  5
34D
100
AcDbEntity
  8
RUNDUNGEN
100
AcDbLine
 62
7
  6
CONTINUOUS
 10
226.6774456094
 20
-87.1566533167
 11
226.9723342273
 21
-86.9690161249
  0
LINE
  5
34E
100
AcDbEntity
  8
RUNDUNGEN
100
AcDbLine
 62
7
  6
CONTINUOUS
 10
226.9650616977
 20
-86.9734748776
 11
227.2724494574
 21
-86.7923652832
  0
LWPOLYLINE
  5
34F
100
AcDbEntity
  8
RUNDUNGEN
100
AcDbPolyline
 62
7
  6
CONTINUOUS
 90
9
 70
0
 10
232.5867051473
 20
-85.4038504949
 10
232.9539094458
 20
-85.2013947713
 10
233.0107800493
 20
-85.1723307237
 10
233.0666881362
 20
-85.1474069092
 10
233.1220565453
 20
-85.1264966954
 10
233.1774130571
 20
-85.1096325473
 10
233.2316021278
 20
-85.0973948773
 10
233.2855361457
 20
-85.0897621098
 10
233.3421511603
 20
-85.0870087242
  0
LINE
  5
350
100
AcDbEntity
  8
RUNDUNGEN
100
AcDbLine
 62
7
  6
CONTINUOUS
 10
232.2184122504
 20
-85.605028372
 11
232.5925639572
 21
-85.400627923
  0
LINE
  5
351
100
AcDbEntity
  8
RUNDUNGEN
100
AcDbLine
 62
7
  6
CONTINUOUS
 10
227.2647807586
 20
-86.7967008708
 11
227.5834768378
 21
-86.6244045559
  0
LINE
  5
352
100
AcDbEntity
  8
RUNDUNGEN
100
AcDbLine
 62
7
  6
CONTINUOUS
 10
227.5753912545
 20
-86.6285768856
 11
227.9049341511
 21
-86.467051449
  0
LINE
  5
353
100
AcDbEntity
  8
RUNDUNGEN
100
AcDbLine
 62
7
  6
CONTINUOUS
 10
227.8964120539
 20
-86.4710082824
 11
228.236013508
 21
-86.3224993212
  0
LINE
  5
354
100
AcDbEntity
  8
RUNDUNGEN
100
AcDbLine
 62
7
  6
CONTINUOUS
 10
228.2270404782
 20
-86.326178171
 11
228.5751583876
 21
-86.1932656895
  0
LINE
  5
355
100
AcDbEntity
  8
RUNDUNGEN
100
AcDbLine
 62
7
  6
CONTINUOUS
 10
228.565725265
 20
-86.1965980785
 11
228.921352858
 21
-86.081564984
  0
LINE
  5
356
100
AcDbEntity
  8
0
100
AcDbLine
 62
7
  6
CONTINUOUS
 10
114.4945423616
 20
-52.5580844465
 11
115.5003596563
 21
-52.5333479331
  0
LINE
  5
357
100
AcDbEntity
  8
0
100
AcDbLine
 62
7
  6
CONTINUOUS
 10
238.9945423616
 20
-53.9325576195
 11
246.7945423616
 21
-53.9325576195
  0
LINE
  5
358
100
AcDbEntity
  8
0
100
AcDbLine
 62
7
  6
CONTINUOUS
 10
247.9945423616
 20
-53.9325576195
 11
255.1945423616
 21
-53.9325576195
  0
LINE
  5
359
100
AcDbEntity
  8
0
100
AcDbLine
 62
7
  6
CONTINUOUS
 10
256.9945423616
 20
-53.9325576195
 11
264.3445423616
 21
-53.9325576195
  0
LINE
  5
35A
100
AcDbEntity
  8
0
100
AcDbLine
 62
7
  6
CONTINUOUS
 10
93.6399243464
 20
-53.1325576195
 11
115.4945108236
 21
-53.1325576195
  0
LINE
  5
35B
100
AcDbEntity
  8
0
100
AcDbLine
 62
7
  6
CONTINUOUS
 10
129.4945738995
 20
-53.1325576195
 11
183.6469335612
 21
-53.1325576195
  0
LINE
  5
35C
100
AcDbEntity
  8
0
100
AcDbLine
 62
7
  6
CONTINUOUS
 10
233.3421511619
 20
-53.1325576195
 11
235.3763645502
 21
-53.1325576195
  0
LINE
  5
35D
100
AcDbEntity
  8
0
100
AcDbLine
 62
7
  6
CONTINUOUS
 10
267.6125774756
 20
-53.1325576195
 11
323.3491603767
 21
-53.1325576195
  0
LINE
  5
35E
100
AcDbEntity
  8
0
100
AcDbLine
 62
7
  6
CONTINUOUS
 10
185.7259801938
 20
-52.6325576195
 11
190.4945423616
 21
-52.6325576195
  0
LINE
  5
35F
100
AcDbEntity
  8
0
100
AcDbLine
 62
7
  6
CONTINUOUS
 10
226.4945423616
 20
-52.6325576195
 11
231.2631045293
 21
-52.6325576195
  0
LINE
  5
360
100
AcDbEntity
  8
0
100
AcDbLine
 62
7
  6
CONTINUOUS
 10
325.5286098485
 20
-52.6325576195
 11
345.9945423616
 21
-52.6325576195
  0
LINE
  5
361
100
AcDbEntity
  8
0
100
AcDbLine
 62
7
  6
CONTINUOUS
 10
115.493972322
 20
-52.5325576195
 11
129.495112477
 21
-52.5325576195
  0
LINE
  5
362
100
AcDbEntity
  8
0
100
AcDbLine
 62
7
  6
CONTINUOUS
 10
71.9945423616
 20
-48.1325576195
 11
84.9226903683
 21
-48.1325576195
  0
LINE
  5
363
100
AcDbEntity
  8
RUNDUNGEN
100
AcDbLine
 62
7
  6
CONTINUOUS
 10
45.9945423616
 20
-46.1325576195
 11
50.4945423616
 21
-46.1325576195
  0
LINE
  5
364
100
AcDbEntity
  8
BEZUGSACHSEN
100
AcDbLine
 62
7
  6
CONTINUOUS
 10
45.9945423616
 20
-46.1325576195
 11
50.4945423616
 21
-46.1325576195
  0
LINE
  5
365
100
AcDbEntity
  8
0
100
AcDbLine
 62
7
  6
CONTINUOUS
 10
215.4945423616
 20
-42.6325576195
 11
201.4945423616
 21
-42.6325576195
  0
LINE
  5
366
100
AcDbEntity
  8
0
100
AcDbLine
 62
7
  6
CONTINUOUS
 10
221.4945423616
 20
-41.1325576195
 11
215.4945423616
 21
-41.1325576195
  0
LINE
  5
367
100
AcDbEntity
  8
0
100
AcDbLine
 62
7
  6
CONTINUOUS
 10
201.4945423616
 20
-41.1325576195
 11
195.4945423616
 21
-41.1325576195
  0
LINE
  5
368
100
AcDbEntity
  8
0
100
AcDbLine
 62
7
  6
CONTINUOUS
 10
231.947144816
 20
-52.7531723779
 11
232.6581108752
 21
-53.0119428611
  0
LWPOLYLINE
  5
369
100
AcDbEntity
  8
RUNDUNGEN
100
AcDbPolyline
 62
7
  6
CONTINUOUS
 90
11
 70
0
 10
236.9332922373
 20
-53.8825576402
 10
236.8040709945
 20
-53.7363859965
 10
236.6611477435
 20
-53.6034374119
 10
236.5059358608
 20
-53.4850483084
 10
236.3399122855
 20
-53.382349247
 10
236.1646574567
 20
-53.2963215202
 10
235.9818398637
 20
-53.2277875821
 10
235.7932005937
 20
-53.1774034473
 10
235.6005367668
 20
-53.1456523336
 10
235.4056843505
 20
-53.1328399533
 10
235.3720417974
 20
-53.1325569781
  0
LINE
  5
36A
100
AcDbEntity
  8
0
100
AcDbLine
 62
7
  6
CONTINUOUS
 10
245.062491554
 20
-54.6325576195
 11
245.062491554
 21
-53.9325576195
  0
LINE
  5
36B
100
AcDbEntity
  8
0
100
AcDbLine
 62
7
  6
CONTINUOUS
 10
246.7945423616
 20
-54.6325576195
 11
246.7945423616
 21
-53.9325576195
  0
LINE
  5
36C
100
AcDbEntity
  8
0
100
AcDbLine
 62
7
  6
CONTINUOUS
 10
247.9945423616
 20
-54.6325576195
 11
247.9945423616
 21
-53.9325576195
  0
LINE
  5
36D
100
AcDbEntity
  8
0
100
AcDbLine
 62
7
  6
CONTINUOUS
 10
255.1945423616
 20
-54.6325576195
 11
255.1945423616
 21
-53.9325576195
  0
LINE
  5
36E
100
AcDbEntity
  8
0
100
AcDbLine
 62
7
  6
CONTINUOUS
 10
256.9945423616
 20
-54.6325576195
 11
256.9945423616
 21
-53.9325576195
  0
LINE
  5
36F
100
AcDbEntity
  8
0
100
AcDbLine
 62
7
  6
CONTINUOUS
 10
264.3445423616
 20
-54.6325576195
 11
264.3445423616
 21
-53.9325576195
  0
LINE
  5
370
100
AcDbEntity
  8
RUNDUNGEN
100
AcDbLine
 62
7
  6
CONTINUOUS
 10
319.3261348836
 20
-88.3529390823
 11
319.405160429
 21
-88.4620347528
  0
LWPOLYLINE
  5
371
100
AcDbEntity
  8
RUNDUNGEN
100
AcDbPolyline
 62
7
  6
CONTINUOUS
 90
4
 70
0
 10
319.4023696856
 20
-88.4580203223
 10
319.4602021983
 20
-88.5445540646
 10
319.5009394573
 20
-88.6113988828
 10
319.5139597851
 20
-88.6344793704
  0
LINE
  5
372
100
AcDbEntity
  8
RUNDUNGEN
100
AcDbLine
 62
7
  6
CONTINUOUS
 10
319.4945423616
 20
-88.6009020376
 11
319.4945423616
 21
-89.1325576195
  0
LINE
  5
373
100
AcDbEntity
  8
0
100
AcDbLine
 62
7
  6
CONTINUOUS
 10
325.5286098485
 20
-52.6325576195
 11
325.5286098485
 21
-91.6325576195
  0
LINE
  5
374
100
AcDbEntity
  8
RUNDUNGEN
100
AcDbLine
 62
7
  6
CONTINUOUS
 10
346.9945423616
 20
-90.6325576195
 11
346.9945423616
 21
-53.6325576195
  0
LINE
  5
375
100
AcDbEntity
  8
KONSTRUKTIONSELEMENTE
100
AcDbLine
 62
7
  6
CONTINUOUS
 10
437.9311205206
 20
-85.7061600109
 11
441.4917219667
 21
-82.418644317
  0
LINE
  5
376
100
AcDbEntity
  8
KONSTRUKTIONSELEMENTE
100
AcDbLine
 62
7
  6
CONTINUOUS
 10
441.4917219684
 20
-61.8464709236
 11
437.9311205206
 21
-58.5589552281
  0
LINE
  5
377
100
AcDbEntity
  8
RUNDUNGEN
100
AcDbLine
 62
7
  6
CONTINUOUS
 10
396.9945423616
 20
-83.0325576195
 11
396.9945423616
 21
-61.2325576195
  0
LINE
  5
378
100
AcDbEntity
  8
RUNDUNGEN
100
AcDbLine
 62
7
  6
CONTINUOUS
 10
20.9945423616
 20
485.0794049361
 11
20.9945423616
 21
463.2794049361
  0
LINE
  5
379
100
AcDbEntity
  8
RUNDUNGEN
100
AcDbLine
 62
7
  6
CONTINUOUS
 10
43.9945423616
 20
498.1794049361
 11
43.9945423616
 21
450.1794049361
  0
LINE
  5
37A
100
AcDbEntity
  8
RUNDUNGEN
100
AcDbLine
 62
7
  6
CONTINUOUS
 10
50.9945423616
 20
448.6794049361
 11
50.9945423616
 21
499.6794049361
  0
LINE
  5
37B
100
AcDbEntity
  8
KONSTRUKTIONSELEMENTE
100
AcDbLine
 62
7
  6
CONTINUOUS
 10
-19.9420357974
 20
487.7530073275
 11
-23.5026372435
 21
484.4654916336
  0
LINE
  5
37C
100
AcDbEntity
  8
KONSTRUKTIONSELEMENTE
100
AcDbLine
 62
7
  6
CONTINUOUS
 10
-23.5026372452
 20
463.8933182401
 11
-19.9420357974
 21
460.6058025447
  0
LINE
  5
37D
100
AcDbEntity
  8
RUNDUNGEN
100
AcDbLine
 62
7
  6
CONTINUOUS
 10
70.9945423616
 20
497.1793061657
 11
70.9945423616
 21
451.1794049361
  0
LINE
  5
37E
100
AcDbEntity
  8
RUNDUNGEN
100
AcDbLine
 62
7
  6
CONTINUOUS
 10
75.4945423616
 20
497.0909271039
 11
75.4945423616
 21
498.179404936
  0
LINE
  5
37F
100
AcDbEntity
  8
RUNDUNGEN
100
AcDbLine
 62
7
  6
CONTINUOUS
 10
84.9226903683
 20
497.0909271039
 11
84.9226903683
 21
474.1794049361
  0
LINE
  5
380
100
AcDbEntity
  8
0
100
AcDbLine
 62
7
  6
CONTINUOUS
 10
84.9226903683
 20
474.1794049361
 11
84.9226903683
 21
450.1794049361
  0
LINE
  5
381
100
AcDbEntity
  8
0
100
AcDbLine
 62
7
  6
CONTINUOUS
 10
114.4945423616
 20
455.2057389751
 11
114.4945423616
 21
454.6049317631
  0
LINE
  5
382
100
AcDbEntity
  8
0
100
AcDbLine
 62
7
  6
CONTINUOUS
 10
118.4945423616
 20
458.6874715512
 11
118.4945423616
 21
454.6049317631
  0
LINE
  5
383
100
AcDbEntity
  8
0
100
AcDbLine
 62
7
  6
CONTINUOUS
 10
126.4945423616
 20
454.6049317631
 11
126.4945423616
 21
458.6874715512
  0
LINE
  5
384
100
AcDbEntity
  8
0
100
AcDbLine
 62
7
  6
CONTINUOUS
 10
130.4945423616
 20
455.2057389751
 11
130.4945423616
 21
454.6049317631
  0
LINE
  5
385
100
AcDbEntity
  8
RUNDUNGEN
100
AcDbLine
 62
7
  6
CONTINUOUS
 10
97.7198194239
 20
490.3259556007
 11
97.6296378559
 21
490.4447080516
  0
LINE
  5
386
100
AcDbEntity
  8
RUNDUNGEN
100
AcDbLine
 62
7
  6
CONTINUOUS
 10
97.6339402771
 20
490.4388287847
 11
97.5625072864
 21
490.5401869756
  0
LINE
  5
387
100
AcDbEntity
  8
RUNDUNGEN
100
AcDbLine
 62
7
  6
CONTINUOUS
 10
97.5657902286
 20
490.5353275444
 11
97.5121663324
 21
490.6180507227
  0
LWPOLYLINE
  5
388
100
AcDbEntity
  8
RUNDUNGEN
100
AcDbPolyline
 62
7
  6
CONTINUOUS
 90
4
 70
0
 10
97.5145189737
 20
490.6142408013
 10
97.4788410628
 20
490.6746250764
 10
97.4578181685
 20
490.7143402802
 10
97.4549102685
 20
490.7203197135
  0
LINE
  5
389
100
AcDbEntity
  8
0
100
AcDbLine
 62
7
  6
CONTINUOUS
 10
84.9226903683
 20
450.1794049361
 11
90.7720421647
 21
454.2751651575
  0
LINE
  5
38A
100
AcDbEntity
  8
RUNDUNGEN
100
AcDbLine
 62
7
  6
CONTINUOUS
 10
90.9956352943
 20
492.9359532119
 11
90.9554731254
 21
492.9613644144
  0
LINE
  5
38B
100
AcDbEntity
  8
RUNDUNGEN
100
AcDbLine
 62
7
  6
CONTINUOUS
 10
90.9656731517
 20
492.9548601809
 11
90.8792949765
 21
493.0110484148
  0
LINE
  5
38C
100
AcDbEntity
  8
RUNDUNGEN
100
AcDbLine
 62
7
  6
CONTINUOUS
 10
90.8893753066
 20
493.0043605103
 11
90.8071080988
 21
493.0600168049
  0
LINE
  5
38D
100
AcDbEntity
  8
RUNDUNGEN
100
AcDbLine
 62
7
  6
CONTINUOUS
 10
90.8139303275
 20
493.0552739501
 11
90.7743836363
 21
493.0827670499
  0
LINE
  5
38E
100
AcDbEntity
  8
RUNDUNGEN
100
AcDbLine
 62
7
  6
CONTINUOUS
 10
90.7743837208
 20
493.082766937
 11
84.9228323927
 21
497.1808218737
  0
LINE
  5
38F
100
AcDbEntity
  8
0
100
AcDbLine
 62
7
  6
CONTINUOUS
 10
221.4945423616
 20
443.1794049361
 11
215.4945423616
 21
443.1794049361
  0
LINE
  5
390
100
AcDbEntity
  8
0
100
AcDbLine
 62
7
  6
CONTINUOUS
 10
201.4945423616
 20
443.1794049361
 11
195.4945423616
 21
443.1794049361
  0
LINE
  5
391
100
AcDbEntity
  8
RUNDUNGEN
100
AcDbLine
 62
7
  6
CONTINUOUS
 10
91.194074986
 20
492.8187788917
 11
90.9956367555
 21
492.9359669982
  0
LINE
  5
392
100
AcDbEntity
  8
RUNDUNGEN
100
AcDbLine
 62
7
  6
CONTINUOUS
 10
190.4945423616
 20
448.1794405865
 11
190.4945423616
 21
500.1793689454
  0
LWPOLYLINE
  5
393
100
AcDbEntity
  8
RUNDUNGEN
100
AcDbPolyline
 62
7
  6
CONTINUOUS
 90
14
 70
0
 10
190.4945423616
 20
489.3284593974
 10
190.3158809344
 20
489.2063027081
 10
190.0281112472
 20
489.0228327582
 10
189.7281275567
 20
488.8457131387
 10
189.4171477193
 20
488.6772084688
 10
189.0956752494
 20
488.5192527475
 10
188.7645439769
 20
488.3740546426
 10
188.4253131541
 20
488.2441369953
 10
188.0790134357
 20
488.1317236155
 10
187.7298269201
 20
488.0396917505
 10
187.3813034426
 20
487.969829967
 10
187.0370484173
 20
487.9229624386
 10
186.7011945509
 20
487.898876
 10
186.4945423619
 20
487.8947764728
  0
LWPOLYLINE
  5
394
100
AcDbEntity
  8
RUNDUNGEN
100
AcDbPolyline
 62
7
  6
CONTINUOUS
 90
9
 70
0
 10
184.402383248
 20
487.4506998268
 10
184.0351688526
 20
487.2482393424
 10
183.9782970016
 20
487.2191744263
 10
183.9223906105
 20
487.194251275
 10
183.8670245002
 20
487.1733430541
 10
183.8116678903
 20
487.1564788093
 10
183.7574827165
 20
487.144242006
 10
183.7035481536
 20
487.136609489
 10
183.6469335625
 20
487.1338561954
  0
LINE
  5
395
100
AcDbEntity
  8
RUNDUNGEN
100
AcDbLine
 62
7
  6
CONTINUOUS
 10
184.7706724707
 20
487.6518756876
 11
184.3965244151
 21
487.4474772426
  0
LINE
  5
396
100
AcDbEntity
  8
RUNDUNGEN
100
AcDbLine
 62
7
  6
CONTINUOUS
 10
315.0410822195
 20
487.3806995131
 11
314.6970596661
 21
487.2843045037
  0
LINE
  5
397
100
AcDbEntity
  8
0
100
AcDbLine
 62
7
  6
CONTINUOUS
 10
129.4887189687
 20
454.5801966559
 11
130.4945423616
 21
454.6049317631
  0
LWPOLYLINE
  5
398
100
AcDbEntity
  8
RUNDUNGEN
100
AcDbPolyline
 62
7
  6
CONTINUOUS
 90
11
 70
0
 10
235.3720417974
 20
455.1794042946
 10
235.4056843505
 20
455.1796872698
 10
235.6005367668
 20
455.1924996501
 10
235.7932005937
 20
455.2242507639
 10
235.9818398637
 20
455.2746348986
 10
236.1646574567
 20
455.3431688367
 10
236.3399122855
 20
455.4291965636
 10
236.5059358608
 20
455.5318956249
 10
236.6611477435
 20
455.6502847284
 10
236.8040709945
 20
455.7832333131
 10
236.9332922373
 20
455.9294049568
  0
LINE
  5
399
100
AcDbEntity
  8
0
100
AcDbLine
 62
7
  6
CONTINUOUS
 10
215.4945423616
 20
444.6794049361
 11
201.4945423616
 21
444.6794049361
  0
LINE
  5
39A
100
AcDbEntity
  8
RUNDUNGEN
100
AcDbLine
 62
7
  6
CONTINUOUS
 10
45.9945423616
 20
448.1794049361
 11
50.4945423616
 21
448.1794049361
  0
LINE
  5
39B
100
AcDbEntity
  8
BEZUGSACHSEN
100
AcDbLine
 62
7
  6
CONTINUOUS
 10
45.9945423616
 20
448.1794049361
 11
50.4945423616
 21
448.1794049361
  0
LINE
  5
39C
100
AcDbEntity
  8
0
100
AcDbLine
 62
7
  6
CONTINUOUS
 10
71.9945423616
 20
450.1794049361
 11
84.9226903683
 21
450.1794049361
  0
LINE
  5
39D
100
AcDbEntity
  8
BEZUGSACHSEN
100
AcDbLine
 62
7
  6
CONTINUOUS
 10
214.4945423616
 20
454.1794049361
 11
202.4945423616
 21
454.1794049361
  0
LINE
  5
39E
100
AcDbEntity
  8
0
100
AcDbLine
 62
7
  6
CONTINUOUS
 10
115.493972322
 20
454.5794049361
 11
129.495112477
 21
454.5794049361
  0
LINE
  5
39F
100
AcDbEntity
  8
0
100
AcDbLine
 62
7
  6
CONTINUOUS
 10
130.4945423616
 20
454.6049317631
 11
126.4945423616
 21
454.6049317631
  0
LINE
  5
3A0
100
AcDbEntity
  8
0
100
AcDbLine
 62
7
  6
CONTINUOUS
 10
118.4945423616
 20
454.6049317631
 11
114.4945423616
 21
454.6049317631
  0
LINE
  5
3A1
100
AcDbEntity
  8
0
100
AcDbLine
 62
7
  6
CONTINUOUS
 10
185.7259801938
 20
454.6794049361
 11
190.4945423616
 21
454.6794049361
  0
LINE
  5
3A2
100
AcDbEntity
  8
0
100
AcDbLine
 62
7
  6
CONTINUOUS
 10
226.4945423616
 20
454.6794049361
 11
231.2631045293
 21
454.6794049361
  0
LINE
  5
3A3
100
AcDbEntity
  8
0
100
AcDbLine
 62
7
  6
CONTINUOUS
 10
325.5286098485
 20
454.6794049361
 11
345.9945423616
 21
454.6794049361
  0
LINE
  5
3A4
100
AcDbEntity
  8
0
100
AcDbLine
 62
7
  6
CONTINUOUS
 10
93.6399243464
 20
455.1794049361
 11
114.4945423616
 21
455.1794049361
  0
LINE
  5
3A5
100
AcDbEntity
  8
0
100
AcDbLine
 62
7
  6
CONTINUOUS
 10
130.4945423616
 20
455.1794049361
 11
183.6469335612
 21
455.1794049361
  0
LINE
  5
3A6
100
AcDbEntity
  8
0
100
AcDbLine
 62
7
  6
CONTINUOUS
 10
233.3421511619
 20
455.1794049361
 11
235.3763645502
 21
455.1794049361
  0
LINE
  5
3A7
100
AcDbEntity
  8
0
100
AcDbLine
 62
7
  6
CONTINUOUS
 10
267.6125774756
 20
455.1794049361
 11
323.3491603767
 21
455.1794049361
  0
LINE
  5
3A8
100
AcDbEntity
  8
0
100
AcDbLine
 62
7
  6
CONTINUOUS
 10
114.4945423616
 20
455.2057389751
 11
118.4945423616
 21
455.2057389751
  0
LINE
  5
3A9
100
AcDbEntity
  8
0
100
AcDbLine
 62
7
  6
CONTINUOUS
 10
126.4945423616
 20
455.2057389751
 11
130.4945423616
 21
455.2057389751
  0
LINE
  5
3AA
100
AcDbEntity
  8
0
100
AcDbLine
 62
7
  6
CONTINUOUS
 10
264.3445423616
 20
455.9794049361
 11
256.9945423616
 21
455.9794049361
  0
LINE
  5
3AB
100
AcDbEntity
  8
0
100
AcDbLine
 62
7
  6
CONTINUOUS
 10
255.1945423616
 20
455.9794049361
 11
247.9945423616
 21
455.9794049361
  0
LINE
  5
3AC
100
AcDbEntity
  8
0
100
AcDbLine
 62
7
  6
CONTINUOUS
 10
246.7945423616
 20
455.9794049361
 11
238.9945423616
 21
455.9794049361
  0
LINE
  5
3AD
100
AcDbEntity
  8
RUNDUNGEN
100
AcDbLine
 62
7
  6
CONTINUOUS
 10
238.4945121281
 20
456.6794049361
 11
264.4944853302
 21
456.6794049361
  0
LINE
  5
3AE
100
AcDbEntity
  8
0
100
AcDbLine
 62
7
  6
CONTINUOUS
 10
126.4945423616
 20
457.9571979346
 11
118.4945423616
 21
457.9571979346
  0
LINE
  5
3AF
100
AcDbEntity
  8
BEZUGSACHSEN
100
AcDbLine
 62
7
  6
CONTINUOUS
 10
209.4945423616
 20
458.1794049361
 11
207.4945423616
 21
458.1794049361
  0
LINE
  5
3B0
100
AcDbEntity
  8
0
100
AcDbLine
 62
7
  6
CONTINUOUS
 10
118.4945423616
 20
458.6874715512
 11
126.4945423616
 21
458.6874715512
  0
LINE
  5
3B1
100
AcDbEntity
  8
RUNDUNGEN
100
AcDbLine
 62
7
  6
CONTINUOUS
 10
16.9900516932
 20
459.2794049361
 11
-16.5501859379
 21
459.2794049361
  0
LINE
  5
3B2
100
AcDbEntity
  8
RUNDUNGEN
100
AcDbLine
 62
7
  6
CONTINUOUS
 10
400.9945423616
 20
459.2794049361
 11
434.539270661
 21
459.2794049361
  0
LINE
  5
3B3
100
AcDbEntity
  8
0
100
AcDbLine
 62
7
  6
CONTINUOUS
 10
114.4945423616
 20
454.6049317631
 11
115.5003596563
 21
454.5801952496
  0
LINE
  5
3B4
100
AcDbEntity
  8
0
100
AcDbLine
 62
7
  6
CONTINUOUS
 10
184.3309738479
 20
455.0587901776
 11
185.0419399072
 21
454.8000196945
  0
LINE
  5
3B5
100
AcDbEntity
  8
RUNDUNGEN
100
AcDbLine
 62
7
  6
CONTINUOUS
 10
199.4945423616
 20
482.1794049361
 11
199.4945423616
 21
466.1794049361
  0
LINE
  5
3B6
100
AcDbEntity
  8
0
100
AcDbLine
 62
7
  6
CONTINUOUS
 10
201.4945423616
 20
443.1794780567
 11
201.4945423616
 21
454.2211064514
  0
LINE
  5
3B7
100
AcDbEntity
  8
0
100
AcDbLine
 62
7
  6
CONTINUOUS
 10
201.4945423616
 20
494.1377034651
 11
201.4945423616
 21
505.1793318154
  0
LINE
  5
3B8
100
AcDbEntity
  8
RUNDUNGEN
100
AcDbLine
 62
7
  6
CONTINUOUS
 10
314.7077191532
 20
487.2869509789
 11
314.3618446062
 21
487.212598901
  0
LINE
  5
3B9
100
AcDbEntity
  8
RUNDUNGEN
100
AcDbLine
 62
7
  6
CONTINUOUS
 10
314.3726053366
 20
487.2145473865
 11
314.0272345283
 21
487.1636890788
  0
LINE
  5
3BA
100
AcDbEntity
  8
RUNDUNGEN
100
AcDbLine
 62
7
  6
CONTINUOUS
 10
395.0962375203
 20
464.1794049361
 11
346.9945423616
 21
464.1794049361
  0
LINE
  5
3BB
100
AcDbEntity
  8
RUNDUNGEN
100
AcDbLine
 62
7
  6
CONTINUOUS
 10
22.8928472028
 20
464.1794049361
 11
43.9945423616
 21
464.1794049361
  0
LINE
  5
3BC
100
AcDbEntity
  8
RUNDUNGEN
100
AcDbLine
 62
7
  6
CONTINUOUS
 10
50.9945423616
 20
464.1794049361
 11
70.9945423616
 21
464.1794049361
  0
LINE
  5
3BD
100
AcDbEntity
  8
0
100
AcDbLine
 62
7
  6
CONTINUOUS
 10
215.4945423616
 20
443.1794780567
 11
215.4945423616
 21
454.2211064514
  0
LINE
  5
3BE
100
AcDbEntity
  8
0
100
AcDbLine
 62
7
  6
CONTINUOUS
 10
215.4945423616
 20
494.1377034651
 11
215.4945423616
 21
505.1793318154
  0
LINE
  5
3BF
100
AcDbEntity
  8
BEZUGSACHSEN
100
AcDbLine
 62
7
  6
CONTINUOUS
 10
217.4945423616
 20
482.1794049361
 11
217.4945423616
 21
466.1794049361
  0
LINE
  5
3C0
100
AcDbEntity
  8
BEZUGSACHSEN
100
AcDbLine
 62
7
  6
CONTINUOUS
 10
226.4945423616
 20
448.1794405865
 11
226.4945423616
 21
500.1793689454
  0
LINE
  5
3C1
100
AcDbEntity
  8
RUNDUNGEN
100
AcDbLine
 62
7
  6
CONTINUOUS
 10
314.0379895751
 20
487.1649071484
 11
313.6996263721
 21
487.1384233572
  0
LINE
  5
3C2
100
AcDbEntity
  8
RUNDUNGEN
100
AcDbLine
 62
7
  6
CONTINUOUS
 10
313.7062156955
 20
487.1385702239
 11
313.4945423608
 21
487.133852325
  0
LINE
  5
3C3
100
AcDbEntity
  8
RUNDUNGEN
100
AcDbLine
 62
7
  6
CONTINUOUS
 10
26.9945423616
 20
479.1794049361
 11
43.9945423616
 21
479.1794049361
  0
LINE
  5
3C4
100
AcDbEntity
  8
RUNDUNGEN
100
AcDbLine
 62
7
  6
CONTINUOUS
 10
50.9945423616
 20
479.1794049361
 11
70.9945423616
 21
479.1794049361
  0
LINE
  5
3C5
100
AcDbEntity
  8
RUNDUNGEN
100
AcDbLine
 62
7
  6
CONTINUOUS
 10
26.9945423616
 20
482.8396589739
 11
43.9945423616
 21
482.8396589739
  0
LINE
  5
3C6
100
AcDbEntity
  8
RUNDUNGEN
100
AcDbLine
 62
7
  6
CONTINUOUS
 10
50.9945423616
 20
482.8396589739
 11
70.9945423616
 21
482.8396589739
  0
LINE
  5
3C7
100
AcDbEntity
  8
0
100
AcDbLine
 62
7
  6
CONTINUOUS
 10
395.0962375203
 20
484.1794049361
 11
346.9945423616
 21
484.1794049361
  0
LINE
  5
3C8
100
AcDbEntity
  8
KONSTRUKTIONSELEMENTE
100
AcDbLine
 62
7
  6
CONTINUOUS
 10
70.9945423616
 20
484.1794049361
 11
50.9945423616
 21
484.1794049361
  0
LINE
  5
3C9
100
AcDbEntity
  8
KONSTRUKTIONSELEMENTE
100
AcDbLine
 62
7
  6
CONTINUOUS
 10
43.9945423616
 20
484.1794049361
 11
22.8928472028
 21
484.1794049361
  0
LINE
  5
3CA
100
AcDbEntity
  8
0
100
AcDbLine
 62
7
  6
CONTINUOUS
 10
22.8928472028
 20
484.1794049361
 11
43.9945423616
 21
484.1794049361
  0
LINE
  5
3CB
100
AcDbEntity
  8
0
100
AcDbLine
 62
7
  6
CONTINUOUS
 10
50.9945423616
 20
484.1794049361
 11
70.9945423616
 21
484.1794049361
  0
LINE
  5
3CC
100
AcDbEntity
  8
KONSTRUKTIONSELEMENTE
100
AcDbLine
 62
7
  6
CONTINUOUS
 10
346.9945423616
 20
484.1794049361
 11
395.0962375203
 21
484.1794049361
  0
LINE
  5
3CD
100
AcDbEntity
  8
RUNDUNGEN
100
AcDbLine
 62
7
  6
CONTINUOUS
 10
313.4945423616
 20
487.1338560862
 11
233.3421535118
 21
487.1338560862
  0
LINE
  5
3CE
100
AcDbEntity
  8
RUNDUNGEN
100
AcDbLine
 62
7
  6
CONTINUOUS
 10
183.6469335612
 20
487.1338560862
 11
103.4945407069
 21
487.1338560862
  0
LINE
  5
3CF
100
AcDbEntity
  8
RUNDUNGEN
100
AcDbLine
 62
7
  6
CONTINUOUS
 10
231.2631045293
 20
487.8947794499
 11
230.4945431201
 21
487.8947794499
  0
LINE
  5
3D0
100
AcDbEntity
  8
RUNDUNGEN
100
AcDbLine
 62
7
  6
CONTINUOUS
 10
186.4945423616
 20
487.8947794499
 11
185.7259801938
 21
487.8947794499
  0
LINE
  5
3D1
100
AcDbEntity
  8
RUNDUNGEN
100
AcDbLine
 62
7
  6
CONTINUOUS
 10
-16.5501859379
 20
489.0794049361
 11
16.994540221
 21
489.0794049361
  0
LINE
  5
3D2
100
AcDbEntity
  8
RUNDUNGEN
100
AcDbLine
 62
7
  6
CONTINUOUS
 10
400.9945444824
 20
489.0794049361
 11
434.539270661
 21
489.0794049361
  0
LINE
  5
3D3
100
AcDbEntity
  8
BEZUGSACHSEN
100
AcDbLine
 62
7
  6
CONTINUOUS
 10
207.4945423616
 20
490.1794049361
 11
209.4945423616
 21
490.1794049361
  0
LINE
  5
3D4
100
AcDbEntity
  8
RUNDUNGEN
100
AcDbLine
 62
7
  6
CONTINUOUS
 10
95.5223628397
 20
492.2071827139
 11
93.6399243802
 21
492.2071827139
  0
LINE
  5
3D5
100
AcDbEntity
  8
RUNDUNGEN
100
AcDbLine
 62
7
  6
CONTINUOUS
 10
230.4945431245
 20
487.8947764437
 11
230.2987817021
 21
487.8984552409
  0
LWPOLYLINE
  5
3D6
100
AcDbEntity
  8
RUNDUNGEN
100
AcDbPolyline
 62
7
  6
CONTINUOUS
 90
24
 70
0
 10
103.4945407022
 20
487.133852304
 10
103.3138768795
 20
487.1372879336
 10
103.0027791584
 20
487.1592967435
 10
102.6901996533
 20
487.2016423427
 10
102.3775378749
 20
487.2638959231
 10
102.0667197984
 20
487.3448760458
 10
101.7577647005
 20
487.4436358088
 10
101.4515357392
 20
487.5588767231
 10
101.1474463093
 20
487.6897790413
 10
100.8449975919
 20
487.8358295617
 10
100.5447978627
 20
487.9959756841
 10
100.2461191672
 20
488.170073987
 10
99.9528700603
 20
488.355248256
 10
99.6670670005
 20
488.5493537041
 10
99.3921372151
 20
488.7490482321
 10
99.1307131665
 20
488.9512338484
 10
98.8850591036
 20
489.152861002
 10
98.6570174167
 20
489.3510225391
 10
98.4483369376
 20
489.5427650131
 10
98.2604369864
 20
489.7252515202
 10
98.0937076209
 20
489.8964599994
 10
97.9487899559
 20
490.0539986449
 10
97.8244545064
 20
490.1974264126
 10
97.7198194239
 20
490.3259556007
  0
LINE
  5
3D7
100
AcDbEntity
  8
RUNDUNGEN
100
AcDbLine
 62
7
  6
CONTINUOUS
 10
230.2946868093
 20
487.8987403915
 11
230.2878173325
 21
487.8988766055
  0
LWPOLYLINE
  5
3D8
100
AcDbEntity
  8
RUNDUNGEN
100
AcDbPolyline
 62
7
  6
CONTINUOUS
 90
8
 70
0
 10
93.6399243808
 20
492.2071815519
 10
93.385646104
 20
492.2131594105
 10
92.9892040603
 20
492.2465584892
 10
92.6027178723
 20
492.3082509921
 10
92.2281705572
 20
492.3972260244
 10
91.8670845426
 20
492.512662858
 10
91.5218341919
 20
492.653508321
 10
91.194074986
 20
492.8187788917
  0
LWPOLYLINE
  5
3D9
100
AcDbEntity
  8
RUNDUNGEN
100
AcDbPolyline
 62
7
  6
CONTINUOUS
 90
9
 70
0
 10
233.3421535172
 20
487.133856037
 10
233.2955461703
 20
487.1357227767
 10
233.2421883344
 20
487.1423751831
 10
233.1885314469
 20
487.1536123894
 10
233.1336485981
 20
487.1694664287
 10
233.0787506137
 20
487.1893704239
 10
233.0232674394
 20
487.2132907128
 10
232.9668434566
 20
487.2413138032
 10
232.9434143476
 20
487.2539987085
  0
LINE
  5
3DA
100
AcDbEntity
  8
RUNDUNGEN
100
AcDbLine
 62
7
  6
CONTINUOUS
 10
230.2987817021
 20
487.8984552409
 11
229.9520472964
 21
487.922962543
  0
LINE
  5
3DB
100
AcDbEntity
  8
RUNDUNGEN
100
AcDbLine
 62
7
  6
CONTINUOUS
 10
229.9629786864
 20
487.921839113
 11
229.6081223469
 21
487.9697720574
  0
LINE
  5
3DC
100
AcDbEntity
  8
RUNDUNGEN
100
AcDbLine
 62
7
  6
CONTINUOUS
 10
229.6188252097
 20
487.9679821805
 11
229.2600638963
 21
488.0395041699
  0
LINE
  5
3DD
100
AcDbEntity
  8
0
100
AcDbLine
 62
7
  6
CONTINUOUS
 10
238.9945423616
 20
456.6794049361
 11
238.9945423616
 21
455.9794049361
  0
LINE
  5
3DE
100
AcDbEntity
  8
RUNDUNGEN
100
AcDbLine
 62
7
  6
CONTINUOUS
 10
316.0060369407
 20
487.7672361847
 11
315.6817055131
 21
487.6189069415
  0
LINE
  5
3DF
100
AcDbEntity
  8
RUNDUNGEN
100
AcDbLine
 62
7
  6
CONTINUOUS
 10
315.6918928878
 20
487.6232943557
 11
315.3597684337
 21
487.4899169055
  0
LINE
  5
3E0
100
AcDbEntity
  8
0
100
AcDbLine
 62
7
  6
CONTINUOUS
 10
231.947144816
 20
454.8000196945
 11
232.6581108752
 21
455.0587901776
  0
LINE
  5
3E1
100
AcDbEntity
  8
RUNDUNGEN
100
AcDbLine
 62
7
  6
CONTINUOUS
 10
315.3701196908
 20
487.4937713941
 11
315.0305506691
 21
487.3774113156
  0
LINE
  5
3E2
100
AcDbEntity
  8
0
100
AcDbLine
 62
7
  6
CONTINUOUS
 10
321.4945423616
 20
493.1794049361
 11
323.3491603767
 21
493.1794049361
  0
LINE
  5
3E3
100
AcDbEntity
  8
0
100
AcDbLine
 62
7
  6
CONTINUOUS
 10
325.5286098485
 20
493.6794049361
 11
345.9945423616
 21
493.6794049361
  0
LINE
  5
3E4
100
AcDbEntity
  8
BEZUGSACHSEN
100
AcDbLine
 62
7
  6
CONTINUOUS
 10
202.4945423616
 20
494.1794049361
 11
214.4945423616
 21
494.1794049361
  0
LINE
  5
3E5
100
AcDbEntity
  8
RUNDUNGEN
100
AcDbLine
 62
7
  6
CONTINUOUS
 10
75.4945423616
 20
497.1816335899
 11
84.917962257
 21
497.1816335899
  0
LINE
  5
3E6
100
AcDbEntity
  8
0
100
AcDbLine
 62
7
  6
CONTINUOUS
 10
71.9945423616
 20
498.1794049361
 11
75.4945423616
 21
498.1794049361
  0
LINE
  5
3E7
100
AcDbEntity
  8
RUNDUNGEN
100
AcDbLine
 62
7
  6
CONTINUOUS
 10
45.9945423616
 20
500.1794049361
 11
50.4945423616
 21
500.1794049361
  0
LINE
  5
3E8
100
AcDbEntity
  8
BEZUGSACHSEN
100
AcDbLine
 62
7
  6
CONTINUOUS
 10
45.9945423616
 20
500.1794049361
 11
50.4945423616
 21
500.1794049361
  0
LINE
  5
3E9
100
AcDbEntity
  8
0
100
AcDbLine
 62
7
  6
CONTINUOUS
 10
215.4945423616
 20
503.6794049361
 11
201.4945423616
 21
503.6794049361
  0
LINE
  5
3EA
100
AcDbEntity
  8
0
100
AcDbLine
 62
7
  6
CONTINUOUS
 10
221.4945423616
 20
505.1794049361
 11
215.4945423616
 21
505.1794049361
  0
LINE
  5
3EB
100
AcDbEntity
  8
0
100
AcDbLine
 62
7
  6
CONTINUOUS
 10
201.4945423616
 20
505.1794049361
 11
195.4945423616
 21
505.1794049361
  0
LINE
  5
3EC
100
AcDbEntity
  8
RUNDUNGEN
100
AcDbLine
 62
7
  6
CONTINUOUS
 10
229.2704214647
 20
488.0371096851
 11
228.9114335437
 21
488.1313245529
  0
LINE
  5
3ED
100
AcDbEntity
  8
RUNDUNGEN
100
AcDbLine
 62
7
  6
CONTINUOUS
 10
228.921352858
 20
488.1284123005
 11
228.565725265
 21
488.243445395
  0
LINE
  5
3EE
100
AcDbEntity
  8
RUNDUNGEN
100
AcDbLine
 62
7
  6
CONTINUOUS
 10
228.5751583876
 20
488.240113006
 11
228.2270404782
 21
488.3730254875
  0
LINE
  5
3EF
100
AcDbEntity
  8
RUNDUNGEN
100
AcDbLine
 62
7
  6
CONTINUOUS
 10
228.236013508
 20
488.3693466378
 11
227.8964120539
 21
488.517855599
  0
LINE
  5
3F0
100
AcDbEntity
  8
RUNDUNGEN
100
AcDbLine
 62
7
  6
CONTINUOUS
 10
227.9049341511
 20
488.5138987656
 11
227.5753912545
 21
488.6754242021
  0
LINE
  5
3F1
100
AcDbEntity
  8
RUNDUNGEN
100
AcDbLine
 62
7
  6
CONTINUOUS
 10
227.5834768378
 20
488.6712518724
 11
227.2647807586
 21
488.8435481874
  0
LINE
  5
3F2
100
AcDbEntity
  8
RUNDUNGEN
100
AcDbLine
 62
7
  6
CONTINUOUS
 10
232.5984088831
 20
487.4442732765
 11
232.2184122524
 21
487.6518756875
  0
LINE
  5
3F3
100
AcDbEntity
  8
RUNDUNGEN
100
AcDbLine
 62
7
  6
CONTINUOUS
 10
232.9434063421
 20
487.2539944177
 11
232.5925639572
 21
487.4474752395
  0
LINE
  5
3F4
100
AcDbEntity
  8
RUNDUNGEN
100
AcDbLine
 62
7
  6
CONTINUOUS
 10
227.2724494574
 20
488.8392125998
 11
226.9650616977
 21
489.0203221941
  0
LINE
  5
3F5
100
AcDbEntity
  8
RUNDUNGEN
100
AcDbLine
 62
7
  6
CONTINUOUS
 10
226.9723342273
 20
489.0158634415
 11
226.6774456094
 21
489.2035006333
  0
LINE
  5
3F6
100
AcDbEntity
  8
RUNDUNGEN
100
AcDbLine
 62
7
  6
CONTINUOUS
 10
226.6843391655
 20
489.1989531119
 11
226.4945423616
 21
489.3283759227
  0
LINE
  5
3F7
100
AcDbEntity
  8
0
100
AcDbLine
 62
7
  6
CONTINUOUS
 10
246.1945423616
 20
456.6794049361
 11
246.1945423616
 21
455.9794049361
  0
LINE
  5
3F8
100
AcDbEntity
  8
0
100
AcDbLine
 62
7
  6
CONTINUOUS
 10
246.7945423616
 20
456.6794049361
 11
246.7945423616
 21
455.9794049361
  0
LINE
  5
3F9
100
AcDbEntity
  8
0
100
AcDbLine
 62
7
  6
CONTINUOUS
 10
247.9945423616
 20
456.6794049361
 11
247.9945423616
 21
455.9794049361
  0
LINE
  5
3FA
100
AcDbEntity
  8
0
100
AcDbLine
 62
7
  6
CONTINUOUS
 10
249.7945423616
 20
456.6794049361
 11
249.7945423616
 21
455.9794049361
  0
LINE
  5
3FB
100
AcDbEntity
  8
0
100
AcDbLine
 62
7
  6
CONTINUOUS
 10
253.3945423616
 20
456.6794049361
 11
253.3945423616
 21
455.9794049361
  0
LINE
  5
3FC
100
AcDbEntity
  8
0
100
AcDbLine
 62
7
  6
CONTINUOUS
 10
255.1945423616
 20
456.6794049361
 11
255.1945423616
 21
455.9794049361
  0
LINE
  5
3FD
100
AcDbEntity
  8
0
100
AcDbLine
 62
7
  6
CONTINUOUS
 10
256.9945423616
 20
456.6794049361
 11
256.9945423616
 21
455.9794049361
  0
LINE
  5
3FE
100
AcDbEntity
  8
RUNDUNGEN
100
AcDbLine
 62
7
  6
CONTINUOUS
 10
317.178122102
 20
488.4499312343
 11
316.8886575037
 21
488.2603127038
  0
LINE
  5
3FF
100
AcDbEntity
  8
RUNDUNGEN
100
AcDbLine
 62
7
  6
CONTINUOUS
 10
316.8981777056
 20
488.2663282596
 11
316.5994261308
 21
488.0845724961
  0
LINE
  5
400
100
AcDbEntity
  8
RUNDUNGEN
100
AcDbLine
 62
7
  6
CONTINUOUS
 10
316.6091435629
 20
488.0902552809
 11
316.3019330318
 21
487.918169118
  0
LINE
  5
401
100
AcDbEntity
  8
RUNDUNGEN
100
AcDbLine
 62
7
  6
CONTINUOUS
 10
316.3118084064
 20
487.9234595151
 11
315.9960012052
 21
487.7623819487
  0
LINE
  5
402
100
AcDbEntity
  8
0
100
AcDbLine
 62
7
  6
CONTINUOUS
 10
264.3445423616
 20
456.6794049361
 11
264.3445423616
 21
455.9794049361
  0
LINE
  5
403
100
AcDbEntity
  8
RUNDUNGEN
100
AcDbLine
 62
7
  6
CONTINUOUS
 10
318.6239041971
 20
489.6222810959
 11
318.411029612
 21
489.4223281077
  0
LINE
  5
404
100
AcDbEntity
  8
RUNDUNGEN
100
AcDbLine
 62
7
  6
CONTINUOUS
 10
318.4184749086
 20
489.4291288977
 11
318.1876230115
 21
489.2242152547
  0
LINE
  5
405
100
AcDbEntity
  8
RUNDUNGEN
100
AcDbLine
 62
7
  6
CONTINUOUS
 10
318.1955552948
 20
489.23106321
 11
317.9502041475
 21
489.0252448794
  0
LINE
  5
406
100
AcDbEntity
  8
RUNDUNGEN
100
AcDbLine
 62
7
  6
CONTINUOUS
 10
317.9585649539
 20
489.0320603757
 11
317.6999675546
 21
488.8272559407
  0
LINE
  5
407
100
AcDbEntity
  8
RUNDUNGEN
100
AcDbLine
 62
7
  6
CONTINUOUS
 10
317.7086919896
 20
488.8339657468
 11
317.4395025548
 21
488.6331046076
  0
LINE
  5
408
100
AcDbEntity
  8
RUNDUNGEN
100
AcDbLine
 62
7
  6
CONTINUOUS
 10
317.4485291203
 20
488.6396382974
 11
317.1688377512
 21
488.4436349006
  0
LINE
  5
409
100
AcDbEntity
  8
RUNDUNGEN
100
AcDbLine
 62
7
  6
CONTINUOUS
 10
319.405160429
 20
490.5088820694
 11
319.329581928
 21
490.4043740713
  0
LINE
  5
40A
100
AcDbEntity
  8
RUNDUNGEN
100
AcDbLine
 62
7
  6
CONTINUOUS
 10
319.329581928
 20
490.4043740713
 11
319.2296051162
 21
490.2762446806
  0
LINE
  5
40B
100
AcDbEntity
  8
RUNDUNGEN
100
AcDbLine
 62
7
  6
CONTINUOUS
 10
319.2337337225
 20
490.2813582167
 11
319.1103657891
 21
490.1337510886
  0
LINE
  5
40C
100
AcDbEntity
  8
RUNDUNGEN
100
AcDbLine
 62
7
  6
CONTINUOUS
 10
319.1152303844
 20
490.1393858125
 11
318.9684225292
 21
489.9747239371
  0
LINE
  5
40D
100
AcDbEntity
  8
RUNDUNGEN
100
AcDbLine
 62
7
  6
CONTINUOUS
 10
318.9740188969
 20
489.9808138477
 11
318.8034612407
 21
489.8008885615
  0
LINE
  5
40E
100
AcDbEntity
  8
RUNDUNGEN
100
AcDbLine
 62
7
  6
CONTINUOUS
 10
318.8097323489
 20
489.8073138716
 11
318.6170096985
 21
489.6156179834
  0
LWPOLYLINE
  5
40F
100
AcDbEntity
  8
RUNDUNGEN
100
AcDbPolyline
 62
7
  6
CONTINUOUS
 90
4
 70
0
 10
319.5393270897
 20
490.7315907624
 10
319.538335402
 20
490.7293091719
 10
319.5271966238
 20
490.7062394427
 10
319.5024290986
 20
490.6608343173
  0
LINE
  5
410
100
AcDbEntity
  8
RUNDUNGEN
100
AcDbLine
 62
7
  6
CONTINUOUS
 10
319.5024290986
 20
490.6608343173
 11
319.4602021983
 21
490.5914013811
  0
LINE
  5
411
100
AcDbEntity
  8
RUNDUNGEN
100
AcDbLine
 62
7
  6
CONTINUOUS
 10
319.4623403608
 20
490.5947578122
 11
319.4023696856
 21
490.5048676389
  0
LINE
  5
412
100
AcDbEntity
  8
RUNDUNGEN
100
AcDbLine
 62
7
  6
CONTINUOUS
 10
319.4945423616
 20
491.1793230442
 11
319.4945423616
 21
490.6478349552
  0
LINE
  5
413
100
AcDbEntity
  8
0
100
AcDbLine
 62
7
  6
CONTINUOUS
 10
325.5286098485
 20
493.6794049361
 11
325.5286098485
 21
454.6794049361
  0
LINE
  5
414
100
AcDbEntity
  8
RUNDUNGEN
100
AcDbLine
 62
7
  6
CONTINUOUS
 10
346.9945423616
 20
455.6794049361
 11
346.9945423616
 21
492.6794049361
  0
LINE
  5
415
100
AcDbEntity
  8
KONSTRUKTIONSELEMENTE
100
AcDbLine
 62
7
  6
CONTINUOUS
 10
437.9311205206
 20
460.6058025447
 11
441.4917219684
 21
463.8933182401
  0
LINE
  5
416
100
AcDbEntity
  8
KONSTRUKTIONSELEMENTE
100
AcDbLine
 62
7
  6
CONTINUOUS
 10
441.4917219684
 20
484.465491632
 11
437.9311205206
 21
487.7530073275
  0
LINE
  5
417
100
AcDbEntity
  8
RUNDUNGEN
100
AcDbLine
 62
7
  6
CONTINUOUS
 10
396.9945423616
 20
485.0794049361
 11
396.9945423616
 21
463.2794049361
  0
LINE
  5
418
100
AcDbEntity
  8
0
100
AcDbLine
 62
7
  6
CONTINUOUS
 10
656.2573741115
 20
388.3841022722
 11
653.0819480121
 21
382.8841029324
  0
LINE
  5
419
100
AcDbEntity
  8
0
100
AcDbLine
 62
7
  6
CONTINUOUS
 10
674.7484079514
 20
382.0483576624
 11
674.6150746499
 21
381.707932171
  0
LINE
  5
41A
100
AcDbEntity
  8
0
100
AcDbLine
 62
7
  6
CONTINUOUS
 10
682.3334079693
 20
381.6228255598
 11
682.4500746499
 21
381.8781449167
  0
LINE
  5
41B
100
AcDbEntity
  8
0
100
AcDbLine
 62
7
  6
CONTINUOUS
 10
675.0150746499
 20
381.6228255598
 11
675.1484079514
 21
381.8781449167
  0
LINE
  5
41C
100
AcDbEntity
  8
0
100
AcDbLine
 62
7
  6
CONTINUOUS
 10
682.3334079693
 20
382.3887831537
 11
682.1000746499
 21
382.0483576624
  0
LINE
  5
41D
100
AcDbEntity
  8
0
100
AcDbLine
 62
7
  6
CONTINUOUS
 10
683.9084079276
 20
378.8994214205
 11
684.1417413722
 21
379.2398469416
  0
LINE
  5
41E
100
AcDbEntity
  8
0
100
AcDbLine
 62
7
  6
CONTINUOUS
 10
686.3584080945
 20
378.8994214205
 11
686.5917412053
 21
379.2398469416
  0
LINE
  5
41F
100
AcDbEntity
  8
0
100
AcDbLine
 62
7
  6
CONTINUOUS
 10
688.9834077607
 20
381.1972936956
 11
688.8667415391
 21
381.02708095
  0
LINE
  5
420
100
AcDbEntity
  8
0
100
AcDbLine
 62
7
  6
CONTINUOUS
 10
694.1750746499
 20
382.3036767809
 11
694.0000746499
 21
382.0483576624
  0
LINE
  5
421
100
AcDbEntity
  8
0
100
AcDbLine
 62
7
  6
CONTINUOUS
 10
675.0150746499
 20
382.3887831537
 11
674.7484079514
 21
382.0483576624
  0
LINE
  5
422
100
AcDbEntity
  8
0
100
AcDbLine
 62
7
  6
CONTINUOUS
 10
676.8150746499
 20
378.8994214205
 11
677.0817414437
 21
379.2398469416
  0
LINE
  5
423
100
AcDbEntity
  8
0
100
AcDbLine
 62
7
  6
CONTINUOUS
 10
682.4500746499
 20
381.8781449167
 11
682.6250746499
 21
382.0483576624
  0
LINE
  5
424
100
AcDbEntity
  8
0
100
AcDbLine
 62
7
  6
CONTINUOUS
 10
683.7917413722
 20
379.4100597469
 11
683.6167413722
 21
379.2398469416
  0
LINE
  5
425
100
AcDbEntity
  8
0
100
AcDbLine
 62
7
  6
CONTINUOUS
 10
686.2417412053
 20
379.4100597469
 11
686.0667412053
 21
379.2398469416
  0
LINE
  5
426
100
AcDbEntity
  8
0
100
AcDbLine
 62
7
  6
CONTINUOUS
 10
675.1484079514
 20
381.8781449167
 11
675.3484080468
 21
382.0483576624
  0
LINE
  5
427
100
AcDbEntity
  8
0
100
AcDbLine
 62
7
  6
CONTINUOUS
 10
676.681741253
 20
379.4100597469
 11
676.481741253
 21
379.2398469416
  0
LINE
  5
428
100
AcDbEntity
  8
0
100
AcDbLine
 62
7
  6
CONTINUOUS
 10
682.5667413305
 20
382.5589958994
 11
682.3334079693
 21
382.3887831537
  0
LINE
  5
429
100
AcDbEntity
  8
0
100
AcDbLine
 62
7
  6
CONTINUOUS
 10
675.281741253
 20
382.5589958994
 11
675.0150746499
 21
382.3887831537
  0
LINE
  5
42A
100
AcDbEntity
  8
0
100
AcDbLine
 62
7
  6
CONTINUOUS
 10
652.4120746499
 20
380.3841029389
 11
652.4120746499
 21
378.3841021625
  0
LINE
  5
42B
100
AcDbEntity
  8
KONSTRUKTIONSELEMENTE
100
AcDbLine
 62
7
  6
CONTINUOUS
 10
652.4120746499
 20
348.3841023819
 11
652.4120746499
 21
346.3841016054
  0
LINE
  5
42C
100
AcDbEntity
  8
0
100
AcDbLine
 62
7
  6
CONTINUOUS
 10
674.6150746499
 20
381.707932171
 11
674.5484079514
 21
381.2824000685
  0
LINE
  5
42D
100
AcDbEntity
  8
0
100
AcDbLine
 62
7
  6
CONTINUOUS
 10
677.0817414437
 20
379.2398469416
 11
677.1484078561
 21
379.6653788654
  0
LINE
  5
42E
100
AcDbEntity
  8
0
100
AcDbLine
 62
7
  6
CONTINUOUS
 10
674.9484079514
 20
381.2824000685
 11
675.0150746499
 21
381.6228255598
  0
LINE
  5
42F
100
AcDbEntity
  8
0
100
AcDbLine
 62
7
  6
CONTINUOUS
 10
683.8500746499
 20
379.6653788654
 11
683.7917413722
 21
379.4100597469
  0
LINE
  5
430
100
AcDbEntity
  8
0
100
AcDbLine
 62
7
  6
CONTINUOUS
 10
676.7484080468
 20
379.6653788654
 11
676.681741253
 21
379.4100597469
  0
LINE
  5
431
100
AcDbEntity
  8
0
100
AcDbLine
 62
7
  6
CONTINUOUS
 10
682.1000746499
 20
382.0483576624
 11
681.9834079849
 21
381.707932171
  0
LINE
  5
432
100
AcDbEntity
  8
0
100
AcDbLine
 62
7
  6
CONTINUOUS
 10
686.5917412053
 20
379.2398469416
 11
686.7084080945
 21
379.5802724926
  0
LINE
  5
433
100
AcDbEntity
  8
0
100
AcDbLine
 62
7
  6
CONTINUOUS
 10
694.0000746499
 20
382.0483576624
 11
693.8834084283
 21
381.707932171
  0
LINE
  5
434
100
AcDbEntity
  8
0
100
AcDbLine
 62
7
  6
CONTINUOUS
 10
695.6334084283
 20
379.2398469416
 11
695.7500746499
 21
379.5802724926
  0
LINE
  5
435
100
AcDbEntity
  8
0
100
AcDbLine
 62
7
  6
CONTINUOUS
 10
686.3584080945
 20
379.6653788654
 11
686.2417412053
 21
379.4100597469
  0
LINE
  5
436
100
AcDbEntity
  8
0
100
AcDbLine
 62
7
  6
CONTINUOUS
 10
694.1167408715
 20
381.4526128141
 11
694.3500746499
 21
381.9632512895
  0
LINE
  5
437
100
AcDbEntity
  8
0
100
AcDbLine
 62
7
  6
CONTINUOUS
 10
695.5167408715
 20
379.8355916111
 11
695.2834084283
 21
379.3249533145
  0
LINE
  5
438
100
AcDbEntity
  8
0
100
AcDbLine
 62
7
  6
CONTINUOUS
 10
688.6673937684
 20
348.4210546572
 11
688.4971810227
 21
348.0877214034
  0
LINE
  5
439
100
AcDbEntity
  8
0
100
AcDbLine
 62
7
  6
CONTINUOUS
 10
689.1584077607
 20
380.7717618315
 11
689.3334077607
 21
381.1121873228
  0
LINE
  5
43A
100
AcDbEntity
  8
0
100
AcDbLine
 62
7
  6
CONTINUOUS
 10
692.9500746499
 20
382.6441022722
 11
692.6000746499
 21
382.0483576624
  0
LINE
  5
43B
100
AcDbEntity
  8
0
100
AcDbLine
 62
7
  6
CONTINUOUS
 10
692.6000746499
 20
381.3675064413
 11
692.9500746499
 21
381.9632512895
  0
LINE
  5
43C
100
AcDbEntity
  8
0
100
AcDbLine
 62
7
  6
CONTINUOUS
 10
688.9227128869
 20
347.9210546572
 11
689.0929256325
 21
348.1710546572
  0
LINE
  5
43D
100
AcDbEntity
  8
0
100
AcDbLine
 62
7
  6
CONTINUOUS
 10
695.4584084283
 20
378.9845277933
 11
695.6334084283
 21
379.2398469416
  0
LINE
  5
43E
100
AcDbEntity
  8
0
100
AcDbLine
 62
7
  6
CONTINUOUS
 10
694.3500746499
 20
381.9632512895
 11
694.5250746499
 21
382.1334640352
  0
LINE
  5
43F
100
AcDbEntity
  8
0
100
AcDbLine
 62
7
  6
CONTINUOUS
 10
695.2834084283
 20
379.3249533145
 11
695.1084084283
 21
379.1547405688
  0
LINE
  5
440
100
AcDbEntity
  8
0
100
AcDbLine
 62
7
  6
CONTINUOUS
 10
694.4667408715
 20
382.5589958994
 11
694.1750746499
 21
382.3036767809
  0
LINE
  5
441
100
AcDbEntity
  8
0
100
AcDbLine
 62
7
  6
CONTINUOUS
 10
695.1667408715
 20
378.7292086525
 11
695.4584084283
 21
378.9845277933
  0
LINE
  5
442
100
AcDbEntity
  8
0
100
AcDbLine
 62
7
  6
CONTINUOUS
 10
683.6750746499
 20
378.7292086525
 11
683.9084079276
 21
378.8994214205
  0
LINE
  5
443
100
AcDbEntity
  8
0
100
AcDbLine
 62
7
  6
CONTINUOUS
 10
686.1250746499
 20
378.7292086525
 11
686.3584080945
 21
378.8994214205
  0
LINE
  5
444
100
AcDbEntity
  8
0
100
AcDbLine
 62
7
  6
CONTINUOUS
 10
688.9250746499
 20
380.6015490858
 11
689.1584077607
 21
380.7717618315
  0
LINE
  5
445
100
AcDbEntity
  8
0
100
AcDbLine
 62
7
  6
CONTINUOUS
 10
676.5484080468
 20
378.7292086525
 11
676.8150746499
 21
378.8994214205
  0
LINE
  5
446
100
AcDbEntity
  8
0
100
AcDbLine
 62
7
  6
CONTINUOUS
 10
688.8667415391
 20
381.02708095
 11
688.6917415391
 21
380.9419745771
  0
LINE
  5
447
100
AcDbEntity
  8
0
100
AcDbLine
 62
7
  6
CONTINUOUS
 10
660.9120746499
 20
357.2841022722
 11
660.9120746499
 21
369.4841022722
  0
LINE
  5
448
100
AcDbEntity
  8
0
100
AcDbLine
 62
7
  6
CONTINUOUS
 10
673.6150746499
 20
382.6441022722
 11
673.6150746499
 21
378.6441022722
  0
LINE
  5
449
100
AcDbEntity
  8
0
100
AcDbLine
 62
7
  6
CONTINUOUS
 10
673.9120746499
 20
357.2841022722
 11
673.9120746499
 21
369.4841022722
  0
LINE
  5
44A
100
AcDbEntity
  8
0
100
AcDbLine
 62
7
  6
CONTINUOUS
 10
674.0150746499
 20
378.6441022722
 11
674.0150746499
 21
382.6441022722
  0
LINE
  5
44B
100
AcDbEntity
  8
0
100
AcDbLine
 62
7
  6
CONTINUOUS
 10
674.5484079514
 20
381.2824000685
 11
674.5484079514
 21
380.0058043567
  0
LINE
  5
44C
100
AcDbEntity
  8
0
100
AcDbLine
 62
7
  6
CONTINUOUS
 10
674.9484079514
 20
380.0058043567
 11
674.9484079514
 21
381.2824000685
  0
LINE
  5
44D
100
AcDbEntity
  8
0
100
AcDbLine
 62
7
  6
CONTINUOUS
 10
675.3572000729
 20
346.3710546572
 11
675.3572000729
 21
345.7710546572
  0
LINE
  5
44E
100
AcDbEntity
  8
0
100
AcDbLine
 62
7
  6
CONTINUOUS
 10
675.7172000729
 20
345.9510546572
 11
675.7172000729
 21
346.3710546572
  0
LINE
  5
44F
100
AcDbEntity
  8
0
100
AcDbLine
 62
7
  6
CONTINUOUS
 10
681.9834079849
 20
381.707932171
 11
681.9250746499
 21
381.2824000685
  0
LINE
  5
450
100
AcDbEntity
  8
0
100
AcDbLine
 62
7
  6
CONTINUOUS
 10
684.1417413722
 20
379.2398469416
 11
684.2000746499
 21
379.6653788654
  0
LINE
  5
451
100
AcDbEntity
  8
0
100
AcDbLine
 62
7
  6
CONTINUOUS
 10
686.7084080945
 20
379.5802724926
 11
686.7667412053
 21
380.0058043567
  0
LINE
  5
452
100
AcDbEntity
  8
0
100
AcDbLine
 62
7
  6
CONTINUOUS
 10
693.8250746499
 20
381.4526128141
 11
693.7667408715
 21
381.02708095
  0
LINE
  5
453
100
AcDbEntity
  8
0
100
AcDbLine
 62
7
  6
CONTINUOUS
 10
695.8084084283
 20
379.8355916111
 11
695.8667408715
 21
380.2611235945
  0
LINE
  5
454
100
AcDbEntity
  8
0
100
AcDbLine
 62
7
  6
CONTINUOUS
 10
688.4971810227
 20
348.0877214034
 11
688.4120746499
 21
347.5877214034
  0
LINE
  5
455
100
AcDbEntity
  8
0
100
AcDbLine
 62
7
  6
CONTINUOUS
 10
682.2750746499
 20
381.2824000685
 11
682.3334079693
 21
381.6228255598
  0
LINE
  5
456
100
AcDbEntity
  8
0
100
AcDbLine
 62
7
  6
CONTINUOUS
 10
686.4167412053
 20
380.0058043567
 11
686.3584080945
 21
379.6653788654
  0
LINE
  5
457
100
AcDbEntity
  8
0
100
AcDbLine
 62
7
  6
CONTINUOUS
 10
688.837606514
 20
347.5043879111
 11
688.9227128869
 21
347.9210546572
  0
LINE
  5
458
100
AcDbEntity
  8
0
100
AcDbLine
 62
7
  6
CONTINUOUS
 10
689.0417415391
 20
381.4526128141
 11
688.9834077607
 21
381.1972936956
  0
LINE
  5
459
100
AcDbEntity
  8
0
100
AcDbLine
 62
7
  6
CONTINUOUS
 10
689.3334077607
 20
381.1121873228
 11
689.3917415391
 21
381.3675064413
  0
LINE
  5
45A
100
AcDbEntity
  8
0
100
AcDbLine
 62
7
  6
CONTINUOUS
 10
693.8834084283
 20
381.707932171
 11
693.8250746499
 21
381.4526128141
  0
LINE
  5
45B
100
AcDbEntity
  8
0
100
AcDbLine
 62
7
  6
CONTINUOUS
 10
695.7500746499
 20
379.5802724926
 11
695.8084084283
 21
379.8355916111
  0
LINE
  5
45C
100
AcDbEntity
  8
0
100
AcDbLine
 62
7
  6
CONTINUOUS
 10
689.0078192597
 20
348.7543881495
 11
688.6673937684
 21
348.4210546572
  0
LINE
  5
45D
100
AcDbEntity
  8
0
100
AcDbLine
 62
7
  6
CONTINUOUS
 10
689.0929256325
 20
348.1710546572
 11
689.348244751
 21
348.3377211649
  0
LINE
  5
45E
100
AcDbEntity
  8
0
100
AcDbLine
 62
7
  6
CONTINUOUS
 10
675.54262032
 20
345.0790568745
 11
675.840792846
 21
345.2512068627
  0
LINE
  5
45F
100
AcDbEntity
  8
0
100
AcDbLine
 62
7
  6
CONTINUOUS
 10
682.6250746499
 20
382.0483576624
 11
682.858408011
 21
382.1334640352
  0
LINE
  5
460
100
AcDbEntity
  8
0
100
AcDbLine
 62
7
  6
CONTINUOUS
 10
683.6167413722
 20
379.2398469416
 11
683.3834079276
 21
379.1547405688
  0
LINE
  5
461
100
AcDbEntity
  8
0
100
AcDbLine
 62
7
  6
CONTINUOUS
 10
686.0667412053
 20
379.2398469416
 11
685.8334080945
 21
379.1547405688
  0
LINE
  5
462
100
AcDbEntity
  8
0
100
AcDbLine
 62
7
  6
CONTINUOUS
 10
675.3484080468
 20
382.0483576624
 11
675.6150746499
 21
382.1334640352
  0
LINE
  5
463
100
AcDbEntity
  8
0
100
AcDbLine
 62
7
  6
CONTINUOUS
 10
676.481741253
 20
379.2398469416
 11
676.2150746499
 21
379.1547405688
  0
LINE
  5
464
100
AcDbEntity
  8
0
100
AcDbLine
 62
7
  6
CONTINUOUS
 10
682.858408011
 20
382.6441022722
 11
682.5667413305
 21
382.5589958994
  0
LINE
  5
465
100
AcDbEntity
  8
0
100
AcDbLine
 62
7
  6
CONTINUOUS
 10
677.6817414437
 20
382.6441022722
 11
677.6817414437
 21
378.6441022722
  0
LINE
  5
466
100
AcDbEntity
  8
0
100
AcDbLine
 62
7
  6
CONTINUOUS
 10
678.0817414437
 20
379.1547405688
 11
678.0817414437
 21
380.516442713
  0
LINE
  5
467
100
AcDbEntity
  8
0
100
AcDbLine
 62
7
  6
CONTINUOUS
 10
678.0817414437
 20
381.02708095
 11
678.0817414437
 21
382.1334640352
  0
LINE
  5
468
100
AcDbEntity
  8
0
100
AcDbLine
 62
7
  6
CONTINUOUS
 10
679.8150746499
 20
380.516442713
 11
679.8150746499
 21
381.02708095
  0
LINE
  5
469
100
AcDbEntity
  8
0
100
AcDbLine
 62
7
  6
CONTINUOUS
 10
680.0817410622
 20
378.6441022722
 11
680.0817410622
 21
379.1547405688
  0
LINE
  5
46A
100
AcDbEntity
  8
0
100
AcDbLine
 62
7
  6
CONTINUOUS
 10
680.0817410622
 20
382.1334640352
 11
680.0817410622
 21
382.6441022722
  0
LINE
  5
46B
100
AcDbEntity
  8
0
100
AcDbLine
 62
7
  6
CONTINUOUS
 10
680.1611956383
 20
346.3710546572
 11
680.1611956383
 21
345.9510546572
  0
LINE
  5
46C
100
AcDbEntity
  8
0
100
AcDbLine
 62
7
  6
CONTINUOUS
 10
680.5211956383
 20
345.7710546572
 11
680.5211956383
 21
346.3710546572
  0
LINE
  5
46D
100
AcDbEntity
  8
0
100
AcDbLine
 62
7
  6
CONTINUOUS
 10
681.4211956383
 20
346.6450502226
 11
681.4211956383
 21
346.2250502226
  0
LINE
  5
46E
100
AcDbEntity
  8
0
100
AcDbLine
 62
7
  6
CONTINUOUS
 10
681.9250746499
 20
381.2824000685
 11
681.9250746499
 21
380.0058043567
  0
LINE
  5
46F
100
AcDbEntity
  8
0
100
AcDbLine
 62
7
  6
CONTINUOUS
 10
682.2750746499
 20
380.0058043567
 11
682.2750746499
 21
381.2824000685
  0
LINE
  5
470
100
AcDbEntity
  8
0
100
AcDbLine
 62
7
  6
CONTINUOUS
 10
684.6667413722
 20
382.6441022722
 11
684.6667413722
 21
380.0058043567
  0
LINE
  5
471
100
AcDbEntity
  8
0
100
AcDbLine
 62
7
  6
CONTINUOUS
 10
685.0167412053
 20
380.0058043567
 11
685.0167412053
 21
382.6441022722
  0
LINE
  5
472
100
AcDbEntity
  8
0
100
AcDbLine
 62
7
  6
CONTINUOUS
 10
685.6211956383
 20
346.2250502226
 11
685.6211956383
 21
346.6450502226
  0
LINE
  5
473
100
AcDbEntity
  8
0
100
AcDbLine
 62
7
  6
CONTINUOUS
 10
686.4167412053
 20
382.6441022722
 11
686.4167412053
 21
380.0058043567
  0
LINE
  5
474
100
AcDbEntity
  8
0
100
AcDbLine
 62
7
  6
CONTINUOUS
 10
686.7667412053
 20
380.0058043567
 11
686.7667412053
 21
382.6441022722
  0
LINE
  5
475
100
AcDbEntity
  8
0
100
AcDbLine
 62
7
  6
CONTINUOUS
 10
687.2334080945
 20
382.6441022722
 11
687.2334080945
 21
378.6441022722
  0
LINE
  5
476
100
AcDbEntity
  8
0
100
AcDbLine
 62
7
  6
CONTINUOUS
 10
687.5834077607
 20
378.6441022722
 11
687.5834077607
 21
380.4313363401
  0
LINE
  5
477
100
AcDbEntity
  8
0
100
AcDbLine
 62
7
  6
CONTINUOUS
 10
687.5834077607
 20
380.9419745771
 11
687.5834077607
 21
382.218570408
  0
LINE
  5
478
100
AcDbEntity
  8
0
100
AcDbLine
 62
7
  6
CONTINUOUS
 10
688.4120746499
 20
347.5877214034
 11
688.4120746499
 21
347.2543879111
  0
LINE
  5
479
100
AcDbEntity
  8
0
100
AcDbLine
 62
7
  6
CONTINUOUS
 10
688.4120746499
 20
345.1710546572
 11
688.4120746499
 21
344.6710546572
  0
LINE
  5
47A
100
AcDbEntity
  8
0
100
AcDbLine
 62
7
  6
CONTINUOUS
 10
688.837606514
 20
347.1710546572
 11
688.837606514
 21
347.5043879111
  0
LINE
  5
47B
100
AcDbEntity
  8
0
100
AcDbLine
 62
7
  6
CONTINUOUS
 10
689.0417415391
 20
381.707932171
 11
689.0417415391
 21
381.4526128141
  0
LINE
  5
47C
100
AcDbEntity
  8
0
100
AcDbLine
 62
7
  6
CONTINUOUS
 10
689.348244751
 20
345.9210546572
 11
689.348244751
 21
346.3377214034
  0
LINE
  5
47D
100
AcDbEntity
  8
0
100
AcDbLine
 62
7
  6
CONTINUOUS
 10
689.3917415391
 20
381.3675064413
 11
689.3917415391
 21
381.707932171
  0
LINE
  5
47E
100
AcDbEntity
  8
0
100
AcDbLine
 62
7
  6
CONTINUOUS
 10
689.9167415391
 20
382.6441022722
 11
689.9167415391
 21
382.218570408
  0
LINE
  5
47F
100
AcDbEntity
  8
0
100
AcDbLine
 62
7
  6
CONTINUOUS
 10
690.8500746499
 20
382.218570408
 11
690.8500746499
 21
378.6441022722
  0
LINE
  5
480
100
AcDbEntity
  8
0
100
AcDbLine
 62
7
  6
CONTINUOUS
 10
691.2000746499
 20
378.6441022722
 11
691.2000746499
 21
382.218570408
  0
LINE
  5
481
100
AcDbEntity
  8
0
100
AcDbLine
 62
7
  6
CONTINUOUS
 10
691.9865427261
 20
348.8377211649
 11
691.9865427261
 21
346.5043879111
  0
LINE
  5
482
100
AcDbEntity
  8
0
100
AcDbLine
 62
7
  6
CONTINUOUS
 10
692.1334077607
 20
382.218570408
 11
692.1334077607
 21
382.6441022722
  0
LINE
  5
483
100
AcDbEntity
  8
0
100
AcDbLine
 62
7
  6
CONTINUOUS
 10
692.4120746499
 20
344.6710546572
 11
692.4120746499
 21
345.1710546572
  0
LINE
  5
484
100
AcDbEntity
  8
0
100
AcDbLine
 62
7
  6
CONTINUOUS
 10
692.4120746499
 20
345.8377212842
 11
692.4120746499
 21
348.8377211649
  0
LINE
  5
485
100
AcDbEntity
  8
0
100
AcDbLine
 62
7
  6
CONTINUOUS
 10
692.6000746499
 20
382.0483576624
 11
692.6000746499
 21
381.3675064413
  0
LINE
  5
486
100
AcDbEntity
  8
0
100
AcDbLine
 62
7
  6
CONTINUOUS
 10
692.9500746499
 20
381.9632512895
 11
692.9500746499
 21
378.6441022722
  0
LINE
  5
487
100
AcDbEntity
  8
0
100
AcDbLine
 62
7
  6
CONTINUOUS
 10
693.3000746499
 20
378.6441022722
 11
693.3000746499
 21
382.6441022722
  0
LINE
  5
488
100
AcDbEntity
  8
0
100
AcDbLine
 62
7
  6
CONTINUOUS
 10
693.7667408715
 20
381.02708095
 11
693.7667408715
 21
380.2611235945
  0
LINE
  5
489
100
AcDbEntity
  8
0
100
AcDbLine
 62
7
  6
CONTINUOUS
 10
694.0584084283
 20
380.3462299673
 11
694.0584084283
 21
380.9419745771
  0
LINE
  5
48A
100
AcDbEntity
  8
0
100
AcDbLine
 62
7
  6
CONTINUOUS
 10
694.0584084283
 20
380.9419745771
 11
694.1167408715
 21
381.4526128141
  0
LINE
  5
48B
100
AcDbEntity
  8
0
100
AcDbLine
 62
7
  6
CONTINUOUS
 10
695.5750746499
 20
380.3462299673
 11
695.5167408715
 21
379.8355916111
  0
LINE
  5
48C
100
AcDbEntity
  8
0
100
AcDbLine
 62
7
  6
CONTINUOUS
 10
694.5250746499
 20
382.1334640352
 11
694.8167408715
 21
382.218570408
  0
LINE
  5
48D
100
AcDbEntity
  8
0
100
AcDbLine
 62
7
  6
CONTINUOUS
 10
683.3834079276
 20
378.6441022722
 11
683.6750746499
 21
378.7292086525
  0
LINE
  5
48E
100
AcDbEntity
  8
0
100
AcDbLine
 62
7
  6
CONTINUOUS
 10
685.8334080945
 20
378.6441022722
 11
686.1250746499
 21
378.7292086525
  0
LINE
  5
48F
100
AcDbEntity
  8
0
100
AcDbLine
 62
7
  6
CONTINUOUS
 10
695.1084084283
 20
379.1547405688
 11
694.8167408715
 21
379.069634196
  0
LINE
  5
490
100
AcDbEntity
  8
0
100
AcDbLine
 62
7
  6
CONTINUOUS
 10
695.5750746499
 20
380.9419745771
 11
695.5750746499
 21
380.3462299673
  0
LINE
  5
491
100
AcDbEntity
  8
0
100
AcDbLine
 62
7
  6
CONTINUOUS
 10
695.8667408715
 20
380.2611235945
 11
695.8667408715
 21
381.02708095
  0
LINE
  5
492
100
AcDbEntity
  8
RUNDUNGEN
100
AcDbLine
 62
7
  6
CONTINUOUS
 10
701.4120746499
 20
346.3841022722
 11
701.4120746499
 21
358.3649932261
  0
LINE
  5
493
100
AcDbEntity
  8
RUNDUNGEN
100
AcDbLine
 62
7
  6
CONTINUOUS
 10
701.4120746499
 20
368.4030663087
 11
701.4120746499
 21
380.3841022676
  0
LINE
  5
494
100
AcDbEntity
  8
BEZUGSACHSEN
100
AcDbLine
 62
7
  6
CONTINUOUS
 10
888.9120746499
 20
43.3841022722
 11
890.9120746499
 21
43.3841022722
  0
LINE
  5
495
100
AcDbEntity
  8
0
100
AcDbLine
 62
7
  6
CONTINUOUS
 10
675.0150746499
 20
379.6653788654
 11
674.9484079514
 21
380.0058043567
  0
LINE
  5
496
100
AcDbEntity
  8
0
100
AcDbLine
 62
7
  6
CONTINUOUS
 10
682.3334079693
 20
379.6653788654
 11
682.2750746499
 21
380.0058043567
  0
LINE
  5
497
100
AcDbEntity
  8
0
100
AcDbLine
 62
7
  6
CONTINUOUS
 10
674.5484079514
 20
380.0058043567
 11
674.6150746499
 21
379.5802724926
  0
LINE
  5
498
100
AcDbEntity
  8
0
100
AcDbLine
 62
7
  6
CONTINUOUS
 10
677.1484078561
 20
381.6228255598
 11
677.0817414437
 21
382.0483576624
  0
LINE
  5
499
100
AcDbEntity
  8
0
100
AcDbLine
 62
7
  6
CONTINUOUS
 10
688.4120746499
 20
347.2543879111
 11
688.4971810227
 21
346.6710546572
  0
LINE
  5
49A
100
AcDbEntity
  8
0
100
AcDbLine
 62
7
  6
CONTINUOUS
 10
681.9250746499
 20
380.0058043567
 11
681.9834079849
 21
379.5802724926
  0
LINE
  5
49B
100
AcDbEntity
  8
0
100
AcDbLine
 62
7
  6
CONTINUOUS
 10
684.2000746499
 20
381.6228255598
 11
684.1417413722
 21
382.0483576624
  0
LINE
  5
49C
100
AcDbEntity
  8
0
100
AcDbLine
 62
7
  6
CONTINUOUS
 10
684.6667413722
 20
380.0058043567
 11
684.7250746499
 21
379.5802724926
  0
LINE
  5
49D
100
AcDbEntity
  8
0
100
AcDbLine
 62
7
  6
CONTINUOUS
 10
694.1167408715
 20
379.8355916111
 11
694.0584084283
 21
380.3462299673
  0
LINE
  5
49E
100
AcDbEntity
  8
0
100
AcDbLine
 62
7
  6
CONTINUOUS
 10
866.4594721955
 20
382.7634875138
 11
865.7485061362
 21
382.5047170306
  0
LINE
  5
49F
100
AcDbEntity
  8
0
100
AcDbLine
 62
7
  6
CONTINUOUS
 10
676.681741253
 20
381.8781449167
 11
676.7484080468
 21
381.6228255598
  0
LINE
  5
4A0
100
AcDbEntity
  8
0
100
AcDbLine
 62
7
  6
CONTINUOUS
 10
683.7917413722
 20
381.8781449167
 11
683.8500746499
 21
381.6228255598
  0
LINE
  5
4A1
100
AcDbEntity
  8
0
100
AcDbLine
 62
7
  6
CONTINUOUS
 10
688.9834077607
 20
381.9632512895
 11
689.0417415391
 21
381.707932171
  0
LINE
  5
4A2
100
AcDbEntity
  8
0
100
AcDbLine
 62
7
  6
CONTINUOUS
 10
689.3917415391
 20
381.707932171
 11
689.3334077607
 21
381.9632512895
  0
LINE
  5
4A3
100
AcDbEntity
  8
0
100
AcDbLine
 62
7
  6
CONTINUOUS
 10
693.8250746499
 20
379.8355916111
 11
693.8834084283
 21
379.5802724926
  0
LINE
  5
4A4
100
AcDbEntity
  8
0
100
AcDbLine
 62
7
  6
CONTINUOUS
 10
688.9227128869
 20
346.7543879111
 11
688.837606514
 21
347.1710546572
  0
LINE
  5
4A5
100
AcDbEntity
  8
0
100
AcDbLine
 62
7
  6
CONTINUOUS
 10
685.0750746499
 20
379.6653788654
 11
685.0167412053
 21
380.0058043567
  0
LINE
  5
4A6
100
AcDbEntity
  8
0
100
AcDbLine
 62
7
  6
CONTINUOUS
 10
693.7667408715
 20
380.2611235945
 11
693.8250746499
 21
379.8355916111
  0
LINE
  5
4A7
100
AcDbEntity
  8
0
100
AcDbLine
 62
7
  6
CONTINUOUS
 10
695.8667408715
 20
381.02708095
 11
695.8084084283
 21
381.4526128141
  0
LINE
  5
4A8
100
AcDbEntity
  8
0
100
AcDbLine
 62
7
  6
CONTINUOUS
 10
695.5167408715
 20
381.4526128141
 11
695.5750746499
 21
380.9419745771
  0
LINE
  5
4A9
100
AcDbEntity
  8
RUNDUNGEN
100
AcDbLine
 62
7
  6
CONTINUOUS
 10
751.4120746499
 20
381.8841022722
 11
751.4120746499
 21
344.8841022722
  0
LINE
  5
4AA
100
AcDbEntity
  8
KONSTRUKTIONSELEMENTE
100
AcDbLine
 62
7
  6
CONTINUOUS
 10
653.0819480122
 20
343.8841016119
 11
656.2573741115
 21
338.3841022722
  0
LINE
  5
4AB
100
AcDbEntity
  8
0
100
AcDbLine
 62
7
  6
CONTINUOUS
 10
674.6150746499
 20
379.5802724926
 11
674.7484079514
 21
379.2398469416
  0
LINE
  5
4AC
100
AcDbEntity
  8
0
100
AcDbLine
 62
7
  6
CONTINUOUS
 10
681.9834079849
 20
379.5802724926
 11
682.1000746499
 21
379.2398469416
  0
LINE
  5
4AD
100
AcDbEntity
  8
0
100
AcDbLine
 62
7
  6
CONTINUOUS
 10
684.7250746499
 20
379.5802724926
 11
684.8417412053
 21
379.2398469416
  0
LINE
  5
4AE
100
AcDbEntity
  8
0
100
AcDbLine
 62
7
  6
CONTINUOUS
 10
689.4500746499
 20
378.6441022722
 11
688.9250746499
 21
380.6015490858
  0
LINE
  5
4AF
100
AcDbEntity
  8
0
100
AcDbLine
 62
7
  6
CONTINUOUS
 10
688.5750746499
 20
380.4313363401
 11
689.0417415391
 21
378.6441022722
  0
LINE
  5
4B0
100
AcDbEntity
  8
0
100
AcDbLine
 62
7
  6
CONTINUOUS
 10
695.8084084283
 20
381.4526128141
 11
695.7500746499
 21
381.707932171
  0
LINE
  5
4B1
100
AcDbEntity
  8
0
100
AcDbLine
 62
7
  6
CONTINUOUS
 10
772.878007163
 20
343.8841022722
 11
772.878007163
 21
382.8841022722
  0
LINE
  5
4B2
100
AcDbEntity
  8
0
100
AcDbLine
 62
7
  6
CONTINUOUS
 10
675.1484079514
 20
379.4100597469
 11
675.0150746499
 21
379.6653788654
  0
LINE
  5
4B3
100
AcDbEntity
  8
0
100
AcDbLine
 62
7
  6
CONTINUOUS
 10
688.4971810227
 20
346.6710546572
 11
688.6673937684
 21
346.3377214034
  0
LINE
  5
4B4
100
AcDbEntity
  8
0
100
AcDbLine
 62
7
  6
CONTINUOUS
 10
682.4500746499
 20
379.4100597469
 11
682.3334079693
 21
379.6653788654
  0
LINE
  5
4B5
100
AcDbEntity
  8
0
100
AcDbLine
 62
7
  6
CONTINUOUS
 10
685.1917412053
 20
379.4100597469
 11
685.0750746499
 21
379.6653788654
  0
LINE
  5
4B6
100
AcDbEntity
  8
0
100
AcDbLine
 62
7
  6
CONTINUOUS
 10
693.8834084283
 20
379.5802724926
 11
694.0000746499
 21
379.2398469416
  0
LINE
  5
4B7
100
AcDbEntity
  8
0
100
AcDbLine
 62
7
  6
CONTINUOUS
 10
695.7500746499
 20
381.707932171
 11
695.6334084283
 21
382.0483576624
  0
LINE
  5
4B8
100
AcDbEntity
  8
0
100
AcDbLine
 62
7
  6
CONTINUOUS
 10
914.0756431636
 20
344.2634875138
 11
913.3646771043
 21
344.0047170306
  0
LINE
  5
4B9
100
AcDbEntity
  8
0
100
AcDbLine
 62
7
  6
CONTINUOUS
 10
689.3334077607
 20
381.9632512895
 11
689.1584077607
 21
382.3036767809
  0
LINE
  5
4BA
100
AcDbEntity
  8
0
100
AcDbLine
 62
7
  6
CONTINUOUS
 10
694.3500746499
 20
379.3249533145
 11
694.1167408715
 21
379.8355916111
  0
LINE
  5
4BB
100
AcDbEntity
  8
0
100
AcDbLine
 62
7
  6
CONTINUOUS
 10
695.2834084283
 20
381.9632512895
 11
695.5167408715
 21
381.4526128141
  0
LINE
  5
4BC
100
AcDbEntity
  8
0
100
AcDbLine
 62
7
  6
CONTINUOUS
 10
682.1000746499
 20
379.2398469416
 11
682.3334079693
 21
378.8994214205
  0
LINE
  5
4BD
100
AcDbEntity
  8
0
100
AcDbLine
 62
7
  6
CONTINUOUS
 10
684.8417412053
 20
379.2398469416
 11
685.0750746499
 21
378.8994214205
  0
LINE
  5
4BE
100
AcDbEntity
  8
0
100
AcDbLine
 62
7
  6
CONTINUOUS
 10
684.1417413722
 20
382.0483576624
 11
683.9084079276
 21
382.3887831537
  0
LINE
  5
4BF
100
AcDbEntity
  8
0
100
AcDbLine
 62
7
  6
CONTINUOUS
 10
689.0929256325
 20
346.5043879111
 11
688.9227128869
 21
346.7543879111
  0
LINE
  5
4C0
100
AcDbEntity
  8
0
100
AcDbLine
 62
7
  6
CONTINUOUS
 10
1013.4839266431
 20
387.3841022722
 11
1007.6345748468
 21
383.2883420508
  0
LINE
  5
4C1
100
AcDbEntity
  8
0
100
AcDbLine
 62
7
  6
CONTINUOUS
 10
1102.3424080468
 20
347.5283576028
 11
1102.6090746499
 21
347.6134639756
  0
LINE
  5
4C2
100
AcDbEntity
  8
0
100
AcDbLine
 62
7
  6
CONTINUOUS
 10
1083.7157408715
 20
347.6134639756
 11
1084.0074084283
 21
347.6985703484
  0
LINE
  5
4C3
100
AcDbEntity
  8
0
100
AcDbLine
 62
7
  6
CONTINUOUS
 10
1092.9907412053
 20
348.1241022722
 11
1092.6990746499
 21
348.0389958919
  0
LINE
  5
4C4
100
AcDbEntity
  8
0
100
AcDbLine
 62
7
  6
CONTINUOUS
 10
1095.4407413722
 20
348.1241022722
 11
1095.1490746499
 21
348.0389958919
  0
LINE
  5
4C5
100
AcDbEntity
  8
0
100
AcDbLine
 62
7
  6
CONTINUOUS
 10
1084.2990746499
 20
344.6347405092
 11
1084.0074084283
 21
344.5496341364
  0
LINE
  5
4C6
100
AcDbEntity
  8
0
100
AcDbLine
 62
7
  6
CONTINUOUS
 10
1095.9657412887
 20
344.1241022722
 11
1096.2574079693
 21
344.209208645
  0
LINE
  5
4C7
100
AcDbEntity
  8
0
100
AcDbLine
 62
7
  6
CONTINUOUS
 10
689.8588832265
 20
348.1710546572
 11
691.9865427261
 21
345.8377212842
  0
LINE
  5
4C8
100
AcDbEntity
  8
0
100
AcDbLine
 62
7
  6
CONTINUOUS
 10
691.9865427261
 20
346.5043879111
 11
690.114202345
 21
348.5877211649
  0
LINE
  5
4C9
100
AcDbEntity
  8
0
100
AcDbLine
 62
7
  6
CONTINUOUS
 10
674.7484079514
 20
379.2398469416
 11
675.0150746499
 21
378.8994214205
  0
LINE
  5
4CA
100
AcDbEntity
  8
0
100
AcDbLine
 62
7
  6
CONTINUOUS
 10
677.0817414437
 20
382.0483576624
 11
676.8150746499
 21
382.3887831537
  0
LINE
  5
4CB
100
AcDbEntity
  8
0
100
AcDbLine
 62
7
  6
CONTINUOUS
 10
694.0000746499
 20
379.2398469416
 11
694.1750746499
 21
378.9845277933
  0
LINE
  5
4CC
100
AcDbEntity
  8
0
100
AcDbLine
 62
7
  6
CONTINUOUS
 10
695.6334084283
 20
382.0483576624
 11
695.4584084283
 21
382.3036767809
  0
LINE
  5
4CD
100
AcDbEntity
  8
0
100
AcDbLine
 62
7
  6
CONTINUOUS
 10
688.8667415391
 20
382.1334640352
 11
688.9834077607
 21
381.9632512895
  0
LINE
  5
4CE
100
AcDbEntity
  8
0
100
AcDbLine
 62
7
  6
CONTINUOUS
 10
834.0620746499
 20
364.5841022722
 11
834.0620746499
 21
362.1841022722
  0
LINE
  5
4CF
100
AcDbEntity
  8
0
100
AcDbLine
 62
7
  6
CONTINUOUS
 10
835.8620746499
 20
362.2591022722
 11
835.8620746499
 21
364.5091022722
  0
LINE
  5
4D0
100
AcDbEntity
  8
0
100
AcDbLine
 62
7
  6
CONTINUOUS
 10
839.6120746499
 20
366.3841022722
 11
839.6120746499
 21
361.2841022722
  0
LINE
  5
4D1
100
AcDbEntity
  8
0
100
AcDbLine
 62
7
  6
CONTINUOUS
 10
841.4120746499
 20
358.8841022722
 11
841.4120746499
 21
360.3841022722
  0
LINE
  5
4D2
100
AcDbEntity
  8
0
100
AcDbLine
 62
7
  6
CONTINUOUS
 10
841.4120746499
 20
361.2841022722
 11
841.4120746499
 21
367.8841022722
  0
LINE
  5
4D3
100
AcDbEntity
  8
0
100
AcDbLine
 62
7
  6
CONTINUOUS
 10
843.2120746499
 20
364.2841022722
 11
843.2120746499
 21
358.8841022722
  0
LINE
  5
4D4
100
AcDbEntity
  8
0
100
AcDbLine
 62
7
  6
CONTINUOUS
 10
845.0120746499
 20
358.8841022722
 11
845.0120746499
 21
364.2841022722
  0
LINE
  5
4D5
100
AcDbEntity
  8
0
100
AcDbLine
 62
7
  6
CONTINUOUS
 10
848.6120746499
 20
364.2841022722
 11
848.6120746499
 21
358.8841022722
  0
LINE
  5
4D6
100
AcDbEntity
  8
0
100
AcDbLine
 62
7
  6
CONTINUOUS
 10
850.4120746499
 20
358.8841022722
 11
850.4120746499
 21
364.2841022722
  0
LINE
  5
4D7
100
AcDbEntity
  8
0
100
AcDbLine
 62
7
  6
CONTINUOUS
 10
975.9120746499
 20
370.3841022722
 11
967.9120746499
 21
362.3841022722
  0
LINE
  5
4D8
100
AcDbEntity
  8
0
100
AcDbLine
 62
7
  6
CONTINUOUS
 10
1092.7574080945
 20
347.5283576028
 11
1092.9907412053
 21
347.6134639756
  0
LINE
  5
4D9
100
AcDbEntity
  8
0
100
AcDbLine
 62
7
  6
CONTINUOUS
 10
1095.2074079276
 20
347.5283576028
 11
1095.4407413722
 21
347.6134639756
  0
LINE
  5
4DA
100
AcDbEntity
  8
0
100
AcDbLine
 62
7
  6
CONTINUOUS
 10
1096.1990746499
 20
344.719846882
 11
1095.9657412887
 21
344.6347405092
  0
LINE
  5
4DB
100
AcDbEntity
  8
0
100
AcDbLine
 62
7
  6
CONTINUOUS
 10
1103.475741253
 20
344.719846882
 11
1103.2090746499
 21
344.6347405092
  0
LINE
  5
4DC
100
AcDbEntity
  8
0
100
AcDbLine
 62
7
  6
CONTINUOUS
 10
688.6673937684
 20
346.3377214034
 11
689.0078192597
 21
346.0043880303
  0
LINE
  5
4DD
100
AcDbEntity
  8
0
100
AcDbLine
 62
7
  6
CONTINUOUS
 10
689.1584077607
 20
382.3036767809
 11
688.9250746499
 21
382.5589958994
  0
LINE
  5
4DE
100
AcDbEntity
  8
0
100
AcDbLine
 62
7
  6
CONTINUOUS
 10
857.9120746499
 20
367.8841022722
 11
857.9120746499
 21
364.1341022722
  0
LINE
  5
4DF
100
AcDbEntity
  8
0
100
AcDbLine
 62
7
  6
CONTINUOUS
 10
857.9120746499
 20
362.6341022722
 11
857.9120746499
 21
361.2841022722
  0
LINE
  5
4E0
100
AcDbEntity
  8
0
100
AcDbLine
 62
7
  6
CONTINUOUS
 10
859.4120746499
 20
358.8841022722
 11
859.4120746499
 21
360.3841022722
  0
LINE
  5
4E1
100
AcDbEntity
  8
0
100
AcDbLine
 62
7
  6
CONTINUOUS
 10
859.4120746499
 20
361.2841022722
 11
859.4120746499
 21
367.8841022722
  0
LINE
  5
4E2
100
AcDbEntity
  8
BEZUGSACHSEN
100
AcDbLine
 62
7
  6
CONTINUOUS
 10
871.9120746499
 20
299.9731833339
 11
871.9120746499
 21
389.384023203
  0
LINE
  5
4E3
100
AcDbEntity
  8
0
100
AcDbLine
 62
7
  6
CONTINUOUS
 10
1089.7312236672
 20
378.5971498872
 11
1089.4759045487
 21
378.4304833795
  0
LINE
  5
4E4
100
AcDbEntity
  8
0
100
AcDbLine
 62
7
  6
CONTINUOUS
 10
1103.2815289798
 20
381.6891476699
 11
1102.9833564538
 21
381.5169976817
  0
LINE
  5
4E5
100
AcDbEntity
  8
0
100
AcDbLine
 62
7
  6
CONTINUOUS
 10
1089.9574077607
 20
345.7411235945
 11
1090.1324077607
 21
345.8262299673
  0
LINE
  5
4E6
100
AcDbEntity
  8
0
100
AcDbLine
 62
7
  6
CONTINUOUS
 10
688.4120746499
 20
344.6710546572
 11
689.0078192597
 21
344.1710546572
  0
LINE
  5
4E7
100
AcDbEntity
  8
0
100
AcDbLine
 62
7
  6
CONTINUOUS
 10
689.6886704808
 20
344.1710546572
 11
689.0929256325
 21
344.6710546572
  0
LINE
  5
4E8
100
AcDbEntity
  8
0
100
AcDbLine
 62
7
  6
CONTINUOUS
 10
682.6250746499
 20
379.2398469416
 11
682.4500746499
 21
379.4100597469
  0
LINE
  5
4E9
100
AcDbEntity
  8
0
100
AcDbLine
 62
7
  6
CONTINUOUS
 10
685.3667412053
 20
379.2398469416
 11
685.1917412053
 21
379.4100597469
  0
LINE
  5
4EA
100
AcDbEntity
  8
0
100
AcDbLine
 62
7
  6
CONTINUOUS
 10
683.6167413722
 20
382.0483576624
 11
683.7917413722
 21
381.8781449167
  0
LINE
  5
4EB
100
AcDbEntity
  8
0
100
AcDbLine
 62
7
  6
CONTINUOUS
 10
694.5250746499
 20
379.1547405688
 11
694.3500746499
 21
379.3249533145
  0
LINE
  5
4EC
100
AcDbEntity
  8
0
100
AcDbLine
 62
7
  6
CONTINUOUS
 10
695.1084084283
 20
382.1334640352
 11
695.2834084283
 21
381.9632512895
  0
LINE
  5
4ED
100
AcDbEntity
  8
BEZUGSACHSEN
100
AcDbLine
 62
7
  6
CONTINUOUS
 10
880.9120746499
 20
51.3841022722
 11
880.9120746499
 21
266.2950212105
  0
LINE
  5
4EE
100
AcDbEntity
  8
0
100
AcDbLine
 62
7
  6
CONTINUOUS
 10
882.9120746499
 20
335.3841022722
 11
882.9120746499
 21
394.3841022722
  0
LINE
  5
4EF
100
AcDbEntity
  8
RUNDUNGEN
100
AcDbLine
 62
7
  6
CONTINUOUS
 10
899.3592095369
 20
269.3993789999
 11
907.4623369504
 21
296.8599911797
  0
LINE
  5
4F0
100
AcDbEntity
  8
0
100
AcDbLine
 62
7
  6
CONTINUOUS
 10
689.348244751
 20
346.3377214034
 11
689.0929256325
 21
346.5043879111
  0
LINE
  5
4F1
100
AcDbEntity
  8
0
100
AcDbLine
 62
7
  6
CONTINUOUS
 10
690.114202345
 20
348.5877211649
 11
689.8588832265
 21
348.7543881495
  0
LINE
  5
4F2
100
AcDbEntity
  8
0
100
AcDbLine
 62
7
  6
CONTINUOUS
 10
681.4211956383
 20
346.2250502226
 11
682.0467274787
 21
345.8050502226
  0
LINE
  5
4F3
100
AcDbEntity
  8
0
100
AcDbLine
 62
7
  6
CONTINUOUS
 10
682.7616212608
 20
345.8050502226
 11
682.1360891701
 21
346.2250502226
  0
LINE
  5
4F4
100
AcDbEntity
  8
0
100
AcDbLine
 62
7
  6
CONTINUOUS
 10
675.3484080468
 20
379.2398469416
 11
675.1484079514
 21
379.4100597469
  0
LINE
  5
4F5
100
AcDbEntity
  8
0
100
AcDbLine
 62
7
  6
CONTINUOUS
 10
676.481741253
 20
382.0483576624
 11
676.681741253
 21
381.8781449167
  0
LINE
  5
4F6
100
AcDbEntity
  8
0
100
AcDbLine
 62
7
  6
CONTINUOUS
 10
694.1750746499
 20
378.9845277933
 11
694.4667408715
 21
378.7292086525
  0
LINE
  5
4F7
100
AcDbEntity
  8
0
100
AcDbLine
 62
7
  6
CONTINUOUS
 10
695.4584084283
 20
382.3036767809
 11
695.1667408715
 21
382.5589958994
  0
LINE
  5
4F8
100
AcDbEntity
  8
0
100
AcDbLine
 62
7
  6
CONTINUOUS
 10
896.9120746499
 20
394.3841022722
 11
896.9120746499
 21
335.3841022722
  0
LINE
  5
4F9
100
AcDbEntity
  8
RUNDUNGEN
100
AcDbLine
 62
7
  6
CONTINUOUS
 10
898.9120746499
 20
51.3841022722
 11
898.9120746499
 21
266.2950212105
  0
LINE
  5
4FA
100
AcDbEntity
  8
RUNDUNGEN
100
AcDbLine
 62
7
  6
CONTINUOUS
 10
907.9120746499
 20
299.9731833339
 11
907.9120746499
 21
389.384023203
  0
LINE
  5
4FB
100
AcDbEntity
  8
0
100
AcDbLine
 62
7
  6
CONTINUOUS
 10
1089.8990746499
 20
346.1666554586
 11
1089.6657415391
 21
345.996442713
  0
LINE
  5
4FC
100
AcDbEntity
  8
0
100
AcDbLine
 62
7
  6
CONTINUOUS
 10
1092.6990746499
 20
348.0389958919
 11
1092.4657412053
 21
347.8687831239
  0
LINE
  5
4FD
100
AcDbEntity
  8
0
100
AcDbLine
 62
7
  6
CONTINUOUS
 10
1095.1490746499
 20
348.0389958919
 11
1094.9157413722
 21
347.8687831239
  0
LINE
  5
4FE
100
AcDbEntity
  8
0
100
AcDbLine
 62
7
  6
CONTINUOUS
 10
1096.2574079693
 20
344.209208645
 11
1096.4907413305
 21
344.3794213907
  0
LINE
  5
4FF
100
AcDbEntity
  8
0
100
AcDbLine
 62
7
  6
CONTINUOUS
 10
1102.275741253
 20
348.0389958919
 11
1102.0090746499
 21
347.8687831239
  0
LINE
  5
500
100
AcDbEntity
  8
0
100
AcDbLine
 62
7
  6
CONTINUOUS
 10
1103.5424080468
 20
344.209208645
 11
1103.8090746499
 21
344.3794213907
  0
LINE
  5
501
100
AcDbEntity
  8
0
100
AcDbLine
 62
7
  6
CONTINUOUS
 10
680.0381906216
 20
345.2531743622
 11
680.3363106956
 21
345.0810546572
  0
LINE
  5
502
100
AcDbEntity
  8
0
100
AcDbLine
 62
7
  6
CONTINUOUS
 10
675.0150746499
 20
378.8994214205
 11
675.281741253
 21
378.7292086525
  0
LINE
  5
503
100
AcDbEntity
  8
0
100
AcDbLine
 62
7
  6
CONTINUOUS
 10
682.3334079693
 20
378.8994214205
 11
682.5667413305
 21
378.7292086525
  0
LINE
  5
504
100
AcDbEntity
  8
0
100
AcDbLine
 62
7
  6
CONTINUOUS
 10
685.0750746499
 20
378.8994214205
 11
685.3084080945
 21
378.7292086525
  0
LINE
  5
505
100
AcDbEntity
  8
0
100
AcDbLine
 62
7
  6
CONTINUOUS
 10
683.9084079276
 20
382.3887831537
 11
683.6750746499
 21
382.5589958994
  0
LINE
  5
506
100
AcDbEntity
  8
BEZUGSACHSEN
100
AcDbLine
 62
7
  6
CONTINUOUS
 10
872.3618123493
 20
296.8599911797
 11
880.465612842
 21
269.3971117322
  0
LINE
  5
507
100
AcDbEntity
  8
0
100
AcDbLine
 62
7
  6
CONTINUOUS
 10
1089.81633004
 20
378.0138163949
 11
1090.1567555314
 21
378.3471498872
  0
LINE
  5
508
100
AcDbEntity
  8
0
100
AcDbLine
 62
7
  6
CONTINUOUS
 10
1083.6574084283
 20
348.0389958919
 11
1083.3657408715
 21
347.7836767511
  0
LINE
  5
509
100
AcDbEntity
  8
0
100
AcDbLine
 62
7
  6
CONTINUOUS
 10
1084.3574084283
 20
344.209208645
 11
1084.6490746499
 21
344.4645277635
  0
LINE
  5
50A
100
AcDbEntity
  8
0
100
AcDbLine
 62
7
  6
CONTINUOUS
 10
1102.1424080468
 20
347.3581447975
 11
1102.3424080468
 21
347.5283576028
  0
LINE
  5
50B
100
AcDbEntity
  8
0
100
AcDbLine
 62
7
  6
CONTINUOUS
 10
689.5184577351
 20
348.3377211649
 11
689.8588832265
 21
348.1710546572
  0
LINE
  5
50C
100
AcDbEntity
  8
0
100
AcDbLine
 62
7
  6
CONTINUOUS
 10
676.8150746499
 20
382.3887831537
 11
676.5484080468
 21
382.5589958994
  0
LINE
  5
50D
100
AcDbEntity
  8
0
100
AcDbLine
 62
7
  6
CONTINUOUS
 10
851.6120746499
 20
367.8841022722
 11
853.8811923774
 21
363.9538750799
  0
LINE
  5
50E
100
AcDbEntity
  8
0
100
AcDbLine
 62
7
  6
CONTINUOUS
 10
1083.5407408715
 20
347.4432512299
 11
1083.7157408715
 21
347.6134639756
  0
LINE
  5
50F
100
AcDbEntity
  8
0
100
AcDbLine
 62
7
  6
CONTINUOUS
 10
1084.4740746499
 20
344.8049532549
 11
1084.2990746499
 21
344.6347405092
  0
LINE
  5
510
100
AcDbEntity
  8
0
100
AcDbLine
 62
7
  6
CONTINUOUS
 10
1092.5824080945
 20
347.3581447975
 11
1092.7574080945
 21
347.5283576028
  0
LINE
  5
511
100
AcDbEntity
  8
0
100
AcDbLine
 62
7
  6
CONTINUOUS
 10
1095.0324079276
 20
347.3581447975
 11
1095.2074079276
 21
347.5283576028
  0
LINE
  5
512
100
AcDbEntity
  8
0
100
AcDbLine
 62
7
  6
CONTINUOUS
 10
1096.3740746499
 20
344.8900596277
 11
1096.1990746499
 21
344.719846882
  0
LINE
  5
513
100
AcDbEntity
  8
0
100
AcDbLine
 62
7
  6
CONTINUOUS
 10
1103.6757413483
 20
344.8900596277
 11
1103.475741253
 21
344.719846882
  0
LINE
  5
514
100
AcDbEntity
  8
0
100
AcDbLine
 62
7
  6
CONTINUOUS
 10
688.6917415391
 20
382.218570408
 11
688.8667415391
 21
382.1334640352
  0
LINE
  5
515
100
AcDbEntity
  8
0
100
AcDbLine
 62
7
  6
CONTINUOUS
 10
855.076176265
 20
364.8841022722
 11
853.3441254574
 21
367.8841022722
  0
LINE
  5
516
100
AcDbEntity
  8
0
100
AcDbLine
 62
7
  6
CONTINUOUS
 10
1089.9014364129
 20
378.8471498872
 11
1089.7312236672
 21
378.5971498872
  0
LINE
  5
517
100
AcDbEntity
  8
0
100
AcDbLine
 62
7
  6
CONTINUOUS
 10
1103.2090746499
 20
344.1241022722
 11
1103.5424080468
 21
344.209208645
  0
LINE
  5
518
100
AcDbEntity
  8
0
100
AcDbLine
 62
7
  6
CONTINUOUS
 10
1102.6090746499
 20
348.1241022722
 11
1102.275741253
 21
348.0389958919
  0
LINE
  5
519
100
AcDbEntity
  8
0
100
AcDbLine
 62
7
  6
CONTINUOUS
 10
1084.0074084283
 20
344.1241022722
 11
1084.3574084283
 21
344.209208645
  0
LINE
  5
51A
100
AcDbEntity
  8
0
100
AcDbLine
 62
7
  6
CONTINUOUS
 10
1084.0074084283
 20
348.1241022722
 11
1083.6574084283
 21
348.0389958919
  0
LINE
  5
51B
100
AcDbEntity
  8
0
100
AcDbLine
 62
7
  6
CONTINUOUS
 10
689.0078192597
 20
346.0043880303
 11
689.348244751
 21
345.9210546572
  0
LINE
  5
51C
100
AcDbEntity
  8
0
100
AcDbLine
 62
7
  6
CONTINUOUS
 10
689.8588832265
 20
348.7543881495
 11
689.5184577351
 21
348.8377211649
  0
LINE
  5
51D
100
AcDbEntity
  8
0
100
AcDbLine
 62
7
  6
CONTINUOUS
 10
682.858408011
 20
379.1547405688
 11
682.6250746499
 21
379.2398469416
  0
LINE
  5
51E
100
AcDbEntity
  8
0
100
AcDbLine
 62
7
  6
CONTINUOUS
 10
685.6000746499
 20
379.1547405688
 11
685.3667412053
 21
379.2398469416
  0
LINE
  5
51F
100
AcDbEntity
  8
0
100
AcDbLine
 62
7
  6
CONTINUOUS
 10
971.9120746499
 20
362.3841022722
 11
971.9120746499
 21
352.3841022722
  0
LINE
  5
520
100
AcDbEntity
  8
0
100
AcDbLine
 62
7
  6
CONTINUOUS
 10
979.9120746499
 20
352.3841022722
 11
979.9120746499
 21
362.3841022722
  0
LINE
  5
521
100
AcDbEntity
  8
0
100
AcDbLine
 62
7
  6
CONTINUOUS
 10
1083.3657408715
 20
347.7836767511
 11
1083.1907408715
 21
347.5283576028
  0
LINE
  5
522
100
AcDbEntity
  8
0
100
AcDbLine
 62
7
  6
CONTINUOUS
 10
1084.6490746499
 20
344.4645277635
 11
1084.8240746499
 21
344.719846882
  0
LINE
  5
523
100
AcDbEntity
  8
0
100
AcDbLine
 62
7
  6
CONTINUOUS
 10
1089.8407415391
 20
345.5709108488
 11
1089.9574077607
 21
345.7411235945
  0
LINE
  5
524
100
AcDbEntity
  8
0
100
AcDbLine
 62
7
  6
CONTINUOUS
 10
1092.4657412053
 20
347.8687831239
 11
1092.2324080945
 21
347.5283576028
  0
LINE
  5
525
100
AcDbEntity
  8
0
100
AcDbLine
 62
7
  6
CONTINUOUS
 10
1094.9157413722
 20
347.8687831239
 11
1094.6824079276
 21
347.5283576028
  0
LINE
  5
526
100
AcDbEntity
  8
0
100
AcDbLine
 62
7
  6
CONTINUOUS
 10
1096.4907413305
 20
344.3794213907
 11
1096.7240746499
 21
344.719846882
  0
LINE
  5
527
100
AcDbEntity
  8
0
100
AcDbLine
 62
7
  6
CONTINUOUS
 10
1102.0090746499
 20
347.8687831239
 11
1101.7424078561
 21
347.5283576028
  0
LINE
  5
528
100
AcDbEntity
  8
0
100
AcDbLine
 62
7
  6
CONTINUOUS
 10
1103.8090746499
 20
344.3794213907
 11
1104.0757413483
 21
344.719846882
  0
LINE
  5
529
100
AcDbEntity
  8
0
100
AcDbLine
 62
7
  6
CONTINUOUS
 10
682.5667413305
 20
378.7292086525
 11
682.858408011
 21
378.6441022722
  0
LINE
  5
52A
100
AcDbEntity
  8
0
100
AcDbLine
 62
7
  6
CONTINUOUS
 10
685.3084080945
 20
378.7292086525
 11
685.6000746499
 21
378.6441022722
  0
LINE
  5
52B
100
AcDbEntity
  8
0
100
AcDbLine
 62
7
  6
CONTINUOUS
 10
694.8167408715
 20
379.069634196
 11
694.5250746499
 21
379.1547405688
  0
LINE
  5
52C
100
AcDbEntity
  8
0
100
AcDbLine
 62
7
  6
CONTINUOUS
 10
683.6750746499
 20
382.5589958994
 11
683.3834079276
 21
382.6441022722
  0
LINE
  5
52D
100
AcDbEntity
  8
0
100
AcDbLine
 62
7
  6
CONTINUOUS
 10
675.6150746499
 20
379.1547405688
 11
675.3484080468
 21
379.2398469416
  0
LINE
  5
52E
100
AcDbEntity
  8
0
100
AcDbLine
 62
7
  6
CONTINUOUS
 10
676.2150746499
 20
382.1334640352
 11
676.481741253
 21
382.0483576624
  0
LINE
  5
52F
100
AcDbEntity
  8
0
100
AcDbLine
 62
7
  6
CONTINUOUS
 10
683.3834079276
 20
382.1334640352
 11
683.6167413722
 21
382.0483576624
  0
LINE
  5
530
100
AcDbEntity
  8
0
100
AcDbLine
 62
7
  6
CONTINUOUS
 10
1090.1567555314
 20
378.3471498872
 11
1090.326968277
 21
378.680483141
  0
LINE
  5
531
100
AcDbEntity
  8
0
100
AcDbLine
 62
7
  6
CONTINUOUS
 10
1089.6657415391
 20
345.996442713
 11
1089.4907415391
 21
345.6560172216
  0
LINE
  5
532
100
AcDbEntity
  8
0
100
AcDbLine
 62
7
  6
CONTINUOUS
 10
1086.2240746499
 20
345.4006981031
 11
1085.8740746499
 21
344.8049532549
  0
LINE
  5
533
100
AcDbEntity
  8
0
100
AcDbLine
 62
7
  6
CONTINUOUS
 10
1085.8740746499
 20
344.1241022722
 11
1086.2240746499
 21
344.719846882
  0
LINE
  5
534
100
AcDbEntity
  8
0
100
AcDbLine
 62
7
  6
CONTINUOUS
 10
1089.4759045487
 20
377.9304833795
 11
1089.81633004
 21
378.0138163949
  0
LINE
  5
535
100
AcDbEntity
  8
0
100
AcDbLine
 62
7
  6
CONTINUOUS
 10
894.9120746499
 20
333.3841022722
 11
884.9120746499
 21
333.3841022722
  0
LINE
  5
536
100
AcDbEntity
  8
0
100
AcDbLine
 62
7
  6
CONTINUOUS
 10
883.5891989943
 20
333.8841022722
 11
896.2349503054
 21
333.8841022722
  0
LINE
  5
537
100
AcDbEntity
  8
RUNDUNGEN
100
AcDbLine
 62
7
  6
CONTINUOUS
 10
659.7214757266
 20
336.3841022722
 11
691.4120746499
 21
336.3841022722
  0
LINE
  5
538
100
AcDbEntity
  8
RUNDUNGEN
100
AcDbLine
 62
7
  6
CONTINUOUS
 10
1087.4120746499
 20
336.3841022722
 11
1119.1026735731
 21
336.3841022722
  0
LINE
  5
539
100
AcDbEntity
  8
BEZUGSACHSEN
100
AcDbLine
 62
7
  6
CONTINUOUS
 10
1052.4120746499
 20
337.3841022722
 11
1047.9120746499
 21
337.3841022722
  0
LINE
  5
53A
100
AcDbEntity
  8
0
100
AcDbLine
 62
7
  6
CONTINUOUS
 10
1026.4120746499
 20
339.3841022722
 11
1013.4839266431
 21
339.3841022722
  0
LINE
  5
53B
100
AcDbEntity
  8
RUNDUNGEN
100
AcDbLine
 62
7
  6
CONTINUOUS
 10
1013.4839266431
 20
339.3841022722
 11
1026.4120746499
 21
339.3841022722
  0
LINE
  5
53C
100
AcDbEntity
  8
0
100
AcDbLine
 62
7
  6
CONTINUOUS
 10
694.4667408715
 20
378.7292086525
 11
694.8167408715
 21
378.6441022722
  0
LINE
  5
53D
100
AcDbEntity
  8
0
100
AcDbLine
 62
7
  6
CONTINUOUS
 10
695.1667408715
 20
382.5589958994
 11
694.8167408715
 21
382.6441022722
  0
LINE
  5
53E
100
AcDbEntity
  8
0
100
AcDbLine
 62
7
  6
CONTINUOUS
 10
675.281741253
 20
378.7292086525
 11
675.6150746499
 21
378.6441022722
  0
LINE
  5
53F
100
AcDbEntity
  8
0
100
AcDbLine
 62
7
  6
CONTINUOUS
 10
676.5484080468
 20
382.5589958994
 11
676.2150746499
 21
382.6441022722
  0
LINE
  5
540
100
AcDbEntity
  8
0
100
AcDbLine
 62
7
  6
CONTINUOUS
 10
688.9250746499
 20
382.5589958994
 11
688.6334077607
 21
382.6441022722
  0
LINE
  5
541
100
AcDbEntity
  8
0
100
AcDbLine
 62
7
  6
CONTINUOUS
 10
694.8167408715
 20
382.218570408
 11
695.1084084283
 21
382.1334640352
  0
LINE
  5
542
100
AcDbEntity
  8
0
100
AcDbLine
 62
7
  6
CONTINUOUS
 10
866.4594721955
 20
344.0047170306
 11
865.7485061362
 21
344.2634875138
  0
LINE
  5
543
100
AcDbEntity
  8
0
100
AcDbLine
 62
7
  6
CONTINUOUS
 10
1013.4839266431
 20
339.3841022722
 11
1013.4839266431
 21
387.3841022722
  0
LINE
  5
544
100
AcDbEntity
  8
RUNDUNGEN
100
AcDbLine
 62
7
  6
CONTINUOUS
 10
1027.4120746499
 20
340.3841022722
 11
1027.4120746499
 21
386.3841022722
  0
LINE
  5
545
100
AcDbEntity
  8
0
100
AcDbLine
 62
7
  6
CONTINUOUS
 10
1083.3074084283
 20
346.9326129333
 11
1083.5407408715
 21
347.4432512299
  0
LINE
  5
546
100
AcDbEntity
  8
0
100
AcDbLine
 62
7
  6
CONTINUOUS
 10
1084.7074084283
 20
345.3155917303
 11
1084.4740746499
 21
344.8049532549
  0
LINE
  5
547
100
AcDbEntity
  8
0
100
AcDbLine
 62
7
  6
CONTINUOUS
 10
1092.4657412053
 20
347.102825679
 11
1092.5824080945
 21
347.3581447975
  0
LINE
  5
548
100
AcDbEntity
  8
0
100
AcDbLine
 62
7
  6
CONTINUOUS
 10
1096.4907413305
 20
345.1453789846
 11
1096.3740746499
 21
344.8900596277
  0
LINE
  5
549
100
AcDbEntity
  8
0
100
AcDbLine
 62
7
  6
CONTINUOUS
 10
1103.8090746499
 20
345.1453789846
 11
1103.6757413483
 21
344.8900596277
  0
LINE
  5
54A
100
AcDbEntity
  8
0
100
AcDbLine
 62
7
  6
CONTINUOUS
 10
912.6806368176
 20
343.8841022722
 11
907.9120746499
 21
343.8841022722
  0
LINE
  5
54B
100
AcDbEntity
  8
0
100
AcDbLine
 62
7
  6
CONTINUOUS
 10
871.9120746499
 20
343.8841022722
 11
867.1435124821
 21
343.8841022722
  0
LINE
  5
54C
100
AcDbEntity
  8
0
100
AcDbLine
 62
7
  6
CONTINUOUS
 10
772.878007163
 20
343.8841022722
 11
752.4120746499
 21
343.8841022722
  0
LINE
  5
54D
100
AcDbEntity
  8
RUNDUNGEN
100
AcDbLine
 62
7
  6
CONTINUOUS
 10
752.4120746499
 20
343.8841022722
 11
772.878007163
 21
343.8841022722
  0
LINE
  5
54E
100
AcDbEntity
  8
RUNDUNGEN
100
AcDbLine
 62
7
  6
CONTINUOUS
 10
867.1435124821
 20
343.8841022722
 11
871.9120746499
 21
343.8841022722
  0
LINE
  5
54F
100
AcDbEntity
  8
RUNDUNGEN
100
AcDbLine
 62
7
  6
CONTINUOUS
 10
907.9120746499
 20
343.8841022722
 11
912.6806368176
 21
343.8841022722
  0
LINE
  5
550
100
AcDbEntity
  8
0
100
AcDbLine
 62
7
  6
CONTINUOUS
 10
1085.5240746499
 20
344.1241022722
 11
1085.8740746499
 21
344.1241022722
  0
LINE
  5
551
100
AcDbEntity
  8
0
100
AcDbLine
 62
7
  6
CONTINUOUS
 10
1086.6907415391
 20
344.1241022722
 11
1088.9074077607
 21
344.1241022722
  0
LINE
  5
552
100
AcDbEntity
  8
0
100
AcDbLine
 62
7
  6
CONTINUOUS
 10
1090.1907415391
 20
344.1241022722
 11
1091.5907412053
 21
344.1241022722
  0
LINE
  5
553
100
AcDbEntity
  8
0
100
AcDbLine
 62
7
  6
CONTINUOUS
 10
1092.0574080945
 20
344.1241022722
 11
1092.4074080945
 21
344.1241022722
  0
LINE
  5
554
100
AcDbEntity
  8
0
100
AcDbLine
 62
7
  6
CONTINUOUS
 10
1093.8074080945
 20
344.1241022722
 11
1094.1574079276
 21
344.1241022722
  0
LINE
  5
555
100
AcDbEntity
  8
0
100
AcDbLine
 62
7
  6
CONTINUOUS
 10
1095.4407413722
 20
344.1241022722
 11
1095.9657412887
 21
344.1241022722
  0
LINE
  5
556
100
AcDbEntity
  8
0
100
AcDbLine
 62
7
  6
CONTINUOUS
 10
1098.7424082375
 20
344.1241022722
 11
1101.1424078561
 21
344.1241022722
  0
LINE
  5
557
100
AcDbEntity
  8
0
100
AcDbLine
 62
7
  6
CONTINUOUS
 10
1102.6090746499
 20
344.1241022722
 11
1103.2090746499
 21
344.1241022722
  0
LINE
  5
558
100
AcDbEntity
  8
0
100
AcDbLine
 62
7
  6
CONTINUOUS
 10
1104.8090746499
 20
344.1241022722
 11
1105.2090746499
 21
344.1241022722
  0
LINE
  5
559
100
AcDbEntity
  8
0
100
AcDbLine
 62
7
  6
CONTINUOUS
 10
689.0078192597
 20
344.1710546572
 11
689.6886704808
 21
344.1710546572
  0
LINE
  5
55A
100
AcDbEntity
  8
0
100
AcDbLine
 62
7
  6
CONTINUOUS
 10
1004.766692665
 20
344.3841022722
 11
914.7596834502
 21
344.3841022722
  0
LINE
  5
55B
100
AcDbEntity
  8
0
100
AcDbLine
 62
7
  6
CONTINUOUS
 10
865.0644658496
 20
344.3841022722
 11
775.0574566347
 21
344.3841022722
  0
LINE
  5
55C
100
AcDbEntity
  8
0
100
AcDbLine
 62
7
  6
CONTINUOUS
 10
1091.2407415391
 20
344.5496341364
 11
1090.1324077607
 21
344.5496341364
  0
LINE
  5
55D
100
AcDbEntity
  8
0
100
AcDbLine
 62
7
  6
CONTINUOUS
 10
1088.9074077607
 20
344.5496341364
 11
1087.9740746499
 21
344.5496341364
  0
LINE
  5
55E
100
AcDbEntity
  8
0
100
AcDbLine
 62
7
  6
CONTINUOUS
 10
1087.6240746499
 20
344.5496341364
 11
1086.6907415391
 21
344.5496341364
  0
LINE
  5
55F
100
AcDbEntity
  8
0
100
AcDbLine
 62
7
  6
CONTINUOUS
 10
1103.2090746499
 20
344.6347405092
 11
1102.6090746499
 21
344.6347405092
  0
LINE
  5
560
100
AcDbEntity
  8
0
100
AcDbLine
 62
7
  6
CONTINUOUS
 10
1100.7424078561
 20
344.6347405092
 11
1098.7424082375
 21
344.6347405092
  0
LINE
  5
561
100
AcDbEntity
  8
0
100
AcDbLine
 62
7
  6
CONTINUOUS
 10
1095.9657412887
 20
344.6347405092
 11
1095.4407413722
 21
344.6347405092
  0
LINE
  5
562
100
AcDbEntity
  8
0
100
AcDbLine
 62
7
  6
CONTINUOUS
 10
689.0929256325
 20
344.6710546572
 11
692.4120746499
 21
344.6710546572
  0
LINE
  5
563
100
AcDbEntity
  8
0
100
AcDbLine
 62
7
  6
CONTINUOUS
 10
1102.075741253
 20
345.1453789846
 11
1101.6757414437
 21
345.1453789846
  0
LINE
  5
564
100
AcDbEntity
  8
0
100
AcDbLine
 62
7
  6
CONTINUOUS
 10
1094.9740746499
 20
345.1453789846
 11
1094.6240746499
 21
345.1453789846
  0
LINE
  5
565
100
AcDbEntity
  8
0
100
AcDbLine
 62
7
  6
CONTINUOUS
 10
692.4120746499
 20
345.1710546572
 11
688.4120746499
 21
345.1710546572
  0
LINE
  5
566
100
AcDbEntity
  8
0
100
AcDbLine
 62
7
  6
CONTINUOUS
 10
675.7172000729
 20
345.5910546572
 11
680.1611956383
 21
345.5910546572
  0
LINE
  5
567
100
AcDbEntity
  8
0
100
AcDbLine
 62
7
  6
CONTINUOUS
 10
1099.0090746499
 20
345.7411235945
 11
1100.7424078561
 21
345.7411235945
  0
LINE
  5
568
100
AcDbEntity
  8
0
100
AcDbLine
 62
7
  6
CONTINUOUS
 10
682.0467274787
 20
345.8050502226
 11
682.7616212608
 21
345.8050502226
  0
LINE
  5
569
100
AcDbEntity
  8
0
100
AcDbLine
 62
7
  6
CONTINUOUS
 10
1090.1324077607
 20
345.8262299673
 11
1091.2407415391
 21
345.8262299673
  0
LINE
  5
56A
100
AcDbEntity
  8
0
100
AcDbLine
 62
7
  6
CONTINUOUS
 10
691.9865427261
 20
345.8377212842
 11
692.4120746499
 21
345.8377212842
  0
LINE
  5
56B
100
AcDbEntity
  8
0
100
AcDbLine
 62
7
  6
CONTINUOUS
 10
680.1611956383
 20
345.9510546572
 11
675.7172000729
 21
345.9510546572
  0
LINE
  5
56C
100
AcDbEntity
  8
0
100
AcDbLine
 62
7
  6
CONTINUOUS
 10
682.1360891701
 20
346.2250502226
 11
685.6211956383
 21
346.2250502226
  0
LINE
  5
56D
100
AcDbEntity
  8
0
100
AcDbLine
 62
7
  6
CONTINUOUS
 10
1100.7424078561
 20
346.2517618315
 11
1099.0090746499
 21
346.2517618315
  0
LINE
  5
56E
100
AcDbEntity
  8
0
100
AcDbLine
 62
7
  6
CONTINUOUS
 10
1091.2407415391
 20
346.3368682043
 11
1090.2490746499
 21
346.3368682043
  0
LINE
  5
56F
100
AcDbEntity
  8
0
100
AcDbLine
 62
7
  6
CONTINUOUS
 10
685.6211956383
 20
346.6450502226
 11
681.4211956383
 21
346.6450502226
  0
LINE
  5
570
100
AcDbEntity
  8
0
100
AcDbLine
 62
7
  6
CONTINUOUS
 10
1094.6240746499
 20
347.102825679
 11
1094.9740746499
 21
347.102825679
  0
LINE
  5
571
100
AcDbEntity
  8
0
100
AcDbLine
 62
7
  6
CONTINUOUS
 10
1101.6757414437
 20
347.102825679
 11
1102.075741253
 21
347.102825679
  0
LINE
  5
572
100
AcDbEntity
  8
0
100
AcDbLine
 62
7
  6
CONTINUOUS
 10
1092.9907412053
 20
347.6134639756
 11
1093.2240746499
 21
347.6134639756
  0
LINE
  5
573
100
AcDbEntity
  8
0
100
AcDbLine
 62
7
  6
CONTINUOUS
 10
1095.4407413722
 20
347.6134639756
 11
1095.9657412887
 21
347.6134639756
  0
LINE
  5
574
100
AcDbEntity
  8
0
100
AcDbLine
 62
7
  6
CONTINUOUS
 10
1098.7424082375
 20
347.6134639756
 11
1100.7424078561
 21
347.6134639756
  0
LINE
  5
575
100
AcDbEntity
  8
0
100
AcDbLine
 62
7
  6
CONTINUOUS
 10
1102.6090746499
 20
347.6134639756
 11
1103.2090746499
 21
347.6134639756
  0
LINE
  5
576
100
AcDbEntity
  8
0
100
AcDbLine
 62
7
  6
CONTINUOUS
 10
677.3411956383
 20
347.9950502226
 11
678.5372001929
 21
347.9950502226
  0
LINE
  5
577
100
AcDbEntity
  8
0
100
AcDbLine
 62
7
  6
CONTINUOUS
 10
1105.2090746499
 20
348.1241022722
 11
1104.8090746499
 21
348.1241022722
  0
LINE
  5
578
100
AcDbEntity
  8
0
100
AcDbLine
 62
7
  6
CONTINUOUS
 10
1103.2090746499
 20
348.1241022722
 11
1102.6090746499
 21
348.1241022722
  0
LINE
  5
579
100
AcDbEntity
  8
0
100
AcDbLine
 62
7
  6
CONTINUOUS
 10
1101.1424078561
 20
348.1241022722
 11
1098.7424082375
 21
348.1241022722
  0
LINE
  5
57A
100
AcDbEntity
  8
0
100
AcDbLine
 62
7
  6
CONTINUOUS
 10
1095.9657412887
 20
348.1241022722
 11
1095.4407413722
 21
348.1241022722
  0
LINE
  5
57B
100
AcDbEntity
  8
0
100
AcDbLine
 62
7
  6
CONTINUOUS
 10
1093.2240746499
 20
348.1241022722
 11
1092.9907412053
 21
348.1241022722
  0
LINE
  5
57C
100
AcDbEntity
  8
0
100
AcDbLine
 62
7
  6
CONTINUOUS
 10
1091.5907412053
 20
348.1241022722
 11
1091.2407415391
 21
348.1241022722
  0
LINE
  5
57D
100
AcDbEntity
  8
0
100
AcDbLine
 62
7
  6
CONTINUOUS
 10
1089.7824077607
 20
348.1241022722
 11
1089.3740746499
 21
348.1241022722
  0
LINE
  5
57E
100
AcDbEntity
  8
0
100
AcDbLine
 62
7
  6
CONTINUOUS
 10
1087.9740746499
 20
348.1241022722
 11
1087.6240746499
 21
348.1241022722
  0
LINE
  5
57F
100
AcDbEntity
  8
0
100
AcDbLine
 62
7
  6
CONTINUOUS
 10
1085.8740746499
 20
348.1241022722
 11
1085.5240746499
 21
348.1241022722
  0
LINE
  5
580
100
AcDbEntity
  8
0
100
AcDbLine
 62
7
  6
CONTINUOUS
 10
689.348244751
 20
348.3377211649
 11
689.5184577351
 21
348.3377211649
  0
LINE
  5
581
100
AcDbEntity
  8
0
100
AcDbLine
 62
7
  6
CONTINUOUS
 10
678.5372000729
 20
348.3550502226
 11
677.3411956383
 21
348.3550502226
  0
LINE
  5
582
100
AcDbEntity
  8
0
100
AcDbLine
 62
7
  6
CONTINUOUS
 10
692.4120746499
 20
348.8377211649
 11
691.9865427261
 21
348.8377211649
  0
LINE
  5
583
100
AcDbEntity
  8
0
100
AcDbLine
 62
7
  6
CONTINUOUS
 10
689.5184577351
 20
348.8377211649
 11
689.348244751
 21
348.8377211649
  0
LINE
  5
584
100
AcDbEntity
  8
0
100
AcDbLine
 62
7
  6
CONTINUOUS
 10
971.9120746499
 20
352.3841022722
 11
979.9120746499
 21
352.3841022722
  0
LINE
  5
585
100
AcDbEntity
  8
0
100
AcDbLine
 62
7
  6
CONTINUOUS
 10
1075.4120746499
 20
353.3841022722
 11
1054.4120746499
 21
353.3841022722
  0
LINE
  5
586
100
AcDbEntity
  8
0
100
AcDbLine
 62
7
  6
CONTINUOUS
 10
1047.4120746499
 20
353.3841022722
 11
1027.4120746499
 21
353.3841022722
  0
LINE
  5
587
100
AcDbEntity
  8
KONSTRUKTIONSELEMENTE
100
AcDbLine
 62
7
  6
CONTINUOUS
 10
751.4120746499
 20
353.3841022722
 11
703.4120746499
 21
353.3841022722
  0
LINE
  5
588
100
AcDbEntity
  8
RUNDUNGEN
100
AcDbLine
 62
7
  6
CONTINUOUS
 10
657.8669747107
 20
357.2841022722
 11
683.3120746499
 21
357.2841022722
  0
LINE
  5
589
100
AcDbEntity
  8
RUNDUNGEN
100
AcDbLine
 62
7
  6
CONTINUOUS
 10
1095.5120746499
 20
357.2841022722
 11
1120.9571746189
 21
357.2841022722
  0
LINE
  5
58A
100
AcDbEntity
  8
0
100
AcDbLine
 62
7
  6
CONTINUOUS
 10
837.3620746499
 20
358.8841022722
 11
841.4120746499
 21
358.8841022722
  0
LINE
  5
58B
100
AcDbEntity
  8
0
100
AcDbLine
 62
7
  6
CONTINUOUS
 10
843.2120746499
 20
358.8841022722
 11
845.0120746499
 21
358.8841022722
  0
LINE
  5
58C
100
AcDbEntity
  8
0
100
AcDbLine
 62
7
  6
CONTINUOUS
 10
848.6120746499
 20
358.8841022722
 11
850.4120746499
 21
358.8841022722
  0
LINE
  5
58D
100
AcDbEntity
  8
0
100
AcDbLine
 62
7
  6
CONTINUOUS
 10
854.8370746499
 20
358.8841022722
 11
859.4120746499
 21
358.8841022722
  0
LINE
  5
58E
100
AcDbEntity
  8
RUNDUNGEN
100
AcDbLine
 62
7
  6
CONTINUOUS
 10
1047.4120746499
 20
388.8841022722
 11
1047.4120746499
 21
337.8841022722
  0
LINE
  5
58F
100
AcDbEntity
  8
0
100
AcDbLine
 62
7
  6
CONTINUOUS
 10
1083.1907408715
 20
347.5283576028
 11
1083.0740746499
 21
347.1879320518
  0
LINE
  5
590
100
AcDbEntity
  8
0
100
AcDbLine
 62
7
  6
CONTINUOUS
 10
1084.8240746499
 20
344.719846882
 11
1084.9407408715
 21
345.0602723734
  0
LINE
  5
591
100
AcDbEntity
  8
0
100
AcDbLine
 62
7
  6
CONTINUOUS
 10
1092.2324080945
 20
347.5283576028
 11
1092.1157412053
 21
347.1879320518
  0
LINE
  5
592
100
AcDbEntity
  8
0
100
AcDbLine
 62
7
  6
CONTINUOUS
 10
1096.7240746499
 20
344.719846882
 11
1096.8407413148
 21
345.0602723734
  0
LINE
  5
593
100
AcDbEntity
  8
0
100
AcDbLine
 62
7
  6
CONTINUOUS
 10
1104.0757413483
 20
344.719846882
 11
1104.2090746499
 21
345.0602723734
  0
LINE
  5
594
100
AcDbEntity
  8
0
100
AcDbLine
 62
7
  6
CONTINUOUS
 10
1122.5667751883
 20
338.3841022722
 11
1125.7422012876
 21
343.884101612
  0
LINE
  5
595
100
AcDbEntity
  8
0
100
AcDbLine
 62
7
  6
CONTINUOUS
 10
859.4120746499
 20
360.3841022722
 11
855.4370746499
 21
360.3841022722
  0
LINE
  5
596
100
AcDbEntity
  8
0
100
AcDbLine
 62
7
  6
CONTINUOUS
 10
841.4120746499
 20
360.3841022722
 11
837.7370746499
 21
360.3841022722
  0
LINE
  5
597
100
AcDbEntity
  8
0
100
AcDbLine
 62
7
  6
CONTINUOUS
 10
839.6120746499
 20
361.2841022722
 11
841.4120746499
 21
361.2841022722
  0
LINE
  5
598
100
AcDbEntity
  8
0
100
AcDbLine
 62
7
  6
CONTINUOUS
 10
857.9120746499
 20
361.2841022722
 11
859.4120746499
 21
361.2841022722
  0
LINE
  5
599
100
AcDbEntity
  8
0
100
AcDbLine
 62
7
  6
CONTINUOUS
 10
967.9120746499
 20
362.3841022722
 11
971.9120746499
 21
362.3841022722
  0
LINE
  5
59A
100
AcDbEntity
  8
0
100
AcDbLine
 62
7
  6
CONTINUOUS
 10
979.9120746499
 20
362.3841022722
 11
983.9120746499
 21
362.3841022722
  0
LINE
  5
59B
100
AcDbEntity
  8
0
100
AcDbLine
 62
7
  6
CONTINUOUS
 10
855.4370746499
 20
362.6341022722
 11
857.9120746499
 21
362.6341022722
  0
LINE
  5
59C
100
AcDbEntity
  8
0
100
AcDbLine
 62
7
  6
CONTINUOUS
 10
857.9120746499
 20
364.1341022722
 11
856.3752143707
 21
364.1341022722
  0
LINE
  5
59D
100
AcDbEntity
  8
0
100
AcDbLine
 62
7
  6
CONTINUOUS
 10
837.7370746499
 20
366.3841022722
 11
839.6120746499
 21
366.3841022722
  0
LINE
  5
59E
100
AcDbEntity
  8
0
100
AcDbLine
 62
7
  6
CONTINUOUS
 10
859.4120746499
 20
367.8841022722
 11
857.9120746499
 21
367.8841022722
  0
LINE
  5
59F
100
AcDbEntity
  8
0
100
AcDbLine
 62
7
  6
CONTINUOUS
 10
853.3441254574
 20
367.8841022722
 11
851.6120746499
 21
367.8841022722
  0
LINE
  5
5A0
100
AcDbEntity
  8
0
100
AcDbLine
 62
7
  6
CONTINUOUS
 10
841.4120746499
 20
367.8841022722
 11
837.3620746499
 21
367.8841022722
  0
LINE
  5
5A1
100
AcDbEntity
  8
RUNDUNGEN
100
AcDbLine
 62
7
  6
CONTINUOUS
 10
1027.4120746499
 20
368.3841022722
 11
1047.4120746499
 21
368.3841022722
  0
LINE
  5
5A2
100
AcDbEntity
  8
RUNDUNGEN
100
AcDbLine
 62
7
  6
CONTINUOUS
 10
1054.4120746499
 20
368.3841022722
 11
1071.4120746499
 21
368.3841022722
  0
LINE
  5
5A3
100
AcDbEntity
  8
RUNDUNGEN
100
AcDbLine
 62
7
  6
CONTINUOUS
 10
1120.957174617
 20
369.4841022722
 11
1095.5120746499
 21
369.4841022722
  0
LINE
  5
5A4
100
AcDbEntity
  8
RUNDUNGEN
100
AcDbLine
 62
7
  6
CONTINUOUS
 10
683.3120746499
 20
369.4841022722
 11
657.8669747086
 21
369.4841022722
  0
LINE
  5
5A5
100
AcDbEntity
  8
RUNDUNGEN
100
AcDbLine
 62
7
  6
CONTINUOUS
 10
1027.4120746499
 20
372.04435631
 11
1047.4120746499
 21
372.04435631
  0
LINE
  5
5A6
100
AcDbEntity
  8
RUNDUNGEN
100
AcDbLine
 62
7
  6
CONTINUOUS
 10
1054.4120746499
 20
372.04435631
 11
1071.4120746499
 21
372.04435631
  0
LINE
  5
5A7
100
AcDbEntity
  8
0
100
AcDbLine
 62
7
  6
CONTINUOUS
 10
703.4120746499
 20
373.3841022722
 11
751.4120746499
 21
373.3841022722
  0
LINE
  5
5A8
100
AcDbEntity
  8
KONSTRUKTIONSELEMENTE
100
AcDbLine
 62
7
  6
CONTINUOUS
 10
1027.4120746499
 20
373.3841022722
 11
1047.4120746499
 21
373.3841022722
  0
LINE
  5
5A9
100
AcDbEntity
  8
KONSTRUKTIONSELEMENTE
100
AcDbLine
 62
7
  6
CONTINUOUS
 10
1054.4120746499
 20
373.3841022722
 11
1075.4120746499
 21
373.3841022722
  0
LINE
  5
5AA
100
AcDbEntity
  8
0
100
AcDbLine
 62
7
  6
CONTINUOUS
 10
1086.4120746499
 20
377.9304833795
 11
1086.8376065736
 21
377.9304833795
  0
LINE
  5
5AB
100
AcDbEntity
  8
0
100
AcDbLine
 62
7
  6
CONTINUOUS
 10
1089.3056915646
 20
377.9304833795
 11
1089.4759045487
 21
377.9304833795
  0
LINE
  5
5AC
100
AcDbEntity
  8
0
100
AcDbLine
 62
7
  6
CONTINUOUS
 10
1100.2869492268
 20
378.4131543218
 11
1101.4829536614
 21
378.4131543218
  0
LINE
  5
5AD
100
AcDbEntity
  8
0
100
AcDbLine
 62
7
  6
CONTINUOUS
 10
1089.4759045487
 20
378.4304833795
 11
1089.3056915646
 21
378.4304833795
  0
LINE
  5
5AE
100
AcDbEntity
  8
0
100
AcDbLine
 62
7
  6
CONTINUOUS
 10
673.6150746499
 20
378.6441022722
 11
674.0150746499
 21
378.6441022722
  0
LINE
  5
5AF
100
AcDbEntity
  8
0
100
AcDbLine
 62
7
  6
CONTINUOUS
 10
675.6150746499
 20
378.6441022722
 11
676.2150746499
 21
378.6441022722
  0
LINE
  5
5B0
100
AcDbEntity
  8
0
100
AcDbLine
 62
7
  6
CONTINUOUS
 10
677.6817414437
 20
378.6441022722
 11
680.0817410622
 21
378.6441022722
  0
LINE
  5
5B1
100
AcDbEntity
  8
0
100
AcDbLine
 62
7
  6
CONTINUOUS
 10
682.858408011
 20
378.6441022722
 11
683.3834079276
 21
378.6441022722
  0
LINE
  5
5B2
100
AcDbEntity
  8
0
100
AcDbLine
 62
7
  6
CONTINUOUS
 10
685.6000746499
 20
378.6441022722
 11
685.8334080945
 21
378.6441022722
  0
LINE
  5
5B3
100
AcDbEntity
  8
0
100
AcDbLine
 62
7
  6
CONTINUOUS
 10
687.2334080945
 20
378.6441022722
 11
687.5834077607
 21
378.6441022722
  0
LINE
  5
5B4
100
AcDbEntity
  8
0
100
AcDbLine
 62
7
  6
CONTINUOUS
 10
689.0417415391
 20
378.6441022722
 11
689.4500746499
 21
378.6441022722
  0
LINE
  5
5B5
100
AcDbEntity
  8
0
100
AcDbLine
 62
7
  6
CONTINUOUS
 10
690.8500746499
 20
378.6441022722
 11
691.2000746499
 21
378.6441022722
  0
LINE
  5
5B6
100
AcDbEntity
  8
0
100
AcDbLine
 62
7
  6
CONTINUOUS
 10
692.9500746499
 20
378.6441022722
 11
693.3000746499
 21
378.6441022722
  0
LINE
  5
5B7
100
AcDbEntity
  8
0
100
AcDbLine
 62
7
  6
CONTINUOUS
 10
1101.4829536614
 20
378.7731543218
 11
1100.2869491069
 21
378.7731543218
  0
LINE
  5
5B8
100
AcDbEntity
  8
RUNDUNGEN
100
AcDbLine
 62
7
  6
CONTINUOUS
 10
1054.4120746499
 20
387.3841022122
 11
1054.4120746499
 21
339.3841023322
  0
LINE
  5
5B9
100
AcDbEntity
  8
0
100
AcDbLine
 62
7
  6
CONTINUOUS
 10
1083.2490746499
 20
346.4219745771
 11
1083.3074084283
 21
346.9326129333
  0
LINE
  5
5BA
100
AcDbEntity
  8
0
100
AcDbLine
 62
7
  6
CONTINUOUS
 10
1083.0157408715
 20
346.9326129333
 11
1082.9574084283
 21
346.50708095
  0
LINE
  5
5BB
100
AcDbEntity
  8
0
100
AcDbLine
 62
7
  6
CONTINUOUS
 10
1084.9990746499
 20
345.3155917303
 11
1085.0574084283
 21
345.7411235945
  0
LINE
  5
5BC
100
AcDbEntity
  8
0
100
AcDbLine
 62
7
  6
CONTINUOUS
 10
1090.326968277
 20
378.680483141
 11
1090.4120746499
 21
379.180483141
  0
LINE
  5
5BD
100
AcDbEntity
  8
0
100
AcDbLine
 62
7
  6
CONTINUOUS
 10
1092.4074080945
 20
346.7624001877
 11
1092.4657412053
 21
347.102825679
  0
LINE
  5
5BE
100
AcDbEntity
  8
0
100
AcDbLine
 62
7
  6
CONTINUOUS
 10
1089.9865427857
 20
379.2638166333
 11
1089.9014364129
 21
378.8471498872
  0
LINE
  5
5BF
100
AcDbEntity
  8
0
100
AcDbLine
 62
7
  6
CONTINUOUS
 10
1083.0740746499
 20
347.1879320518
 11
1083.0157408715
 21
346.9326129333
  0
LINE
  5
5C0
100
AcDbEntity
  8
0
100
AcDbLine
 62
7
  6
CONTINUOUS
 10
1084.9407408715
 20
345.0602723734
 11
1084.9990746499
 21
345.3155917303
  0
LINE
  5
5C1
100
AcDbEntity
  8
0
100
AcDbLine
 62
7
  6
CONTINUOUS
 10
1089.4907415391
 20
345.6560172216
 11
1089.4324077607
 21
345.4006981031
  0
LINE
  5
5C2
100
AcDbEntity
  8
0
100
AcDbLine
 62
7
  6
CONTINUOUS
 10
1089.7824077607
 20
345.3155917303
 11
1089.8407415391
 21
345.5709108488
  0
LINE
  5
5C3
100
AcDbEntity
  8
0
100
AcDbLine
 62
7
  6
CONTINUOUS
 10
1094.9740746499
 20
347.102825679
 11
1095.0324079276
 21
347.3581447975
  0
LINE
  5
5C4
100
AcDbEntity
  8
0
100
AcDbLine
 62
7
  6
CONTINUOUS
 10
1102.075741253
 20
347.102825679
 11
1102.1424080468
 21
347.3581447975
  0
LINE
  5
5C5
100
AcDbEntity
  8
0
100
AcDbLine
 62
7
  6
CONTINUOUS
 10
689.348244751
 20
348.8377211649
 11
689.0078192597
 21
348.7543881495
  0
LINE
  5
5C6
100
AcDbEntity
  8
0
100
AcDbLine
 62
7
  6
CONTINUOUS
 10
685.8334080945
 20
379.1547405688
 11
685.6000746499
 21
379.1547405688
  0
LINE
  5
5C7
100
AcDbEntity
  8
0
100
AcDbLine
 62
7
  6
CONTINUOUS
 10
683.3834079276
 20
379.1547405688
 11
682.858408011
 21
379.1547405688
  0
LINE
  5
5C8
100
AcDbEntity
  8
0
100
AcDbLine
 62
7
  6
CONTINUOUS
 10
680.0817410622
 20
379.1547405688
 11
678.0817414437
 21
379.1547405688
  0
LINE
  5
5C9
100
AcDbEntity
  8
0
100
AcDbLine
 62
7
  6
CONTINUOUS
 10
676.2150746499
 20
379.1547405688
 11
675.6150746499
 21
379.1547405688
  0
LINE
  5
5CA
100
AcDbEntity
  8
0
100
AcDbLine
 62
7
  6
CONTINUOUS
 10
684.2000746499
 20
379.6653788654
 11
683.8500746499
 21
379.6653788654
  0
LINE
  5
5CB
100
AcDbEntity
  8
0
100
AcDbLine
 62
7
  6
CONTINUOUS
 10
677.1484078561
 20
379.6653788654
 11
676.7484080468
 21
379.6653788654
  0
LINE
  5
5CC
100
AcDbEntity
  8
0
100
AcDbLine
 62
7
  6
CONTINUOUS
 10
1093.2029536614
 20
380.1231543218
 11
1097.4029536614
 21
380.1231543218
  0
LINE
  5
5CD
100
AcDbEntity
  8
0
100
AcDbLine
 62
7
  6
CONTINUOUS
 10
687.5834077607
 20
380.4313363401
 11
688.5750746499
 21
380.4313363401
  0
LINE
  5
5CE
100
AcDbEntity
  8
0
100
AcDbLine
 62
7
  6
CONTINUOUS
 10
678.0817414437
 20
380.516442713
 11
679.8150746499
 21
380.516442713
  0
LINE
  5
5CF
100
AcDbEntity
  8
0
100
AcDbLine
 62
7
  6
CONTINUOUS
 10
1096.6880601296
 20
380.5431543218
 11
1093.2029536614
 21
380.5431543218
  0
LINE
  5
5D0
100
AcDbEntity
  8
0
100
AcDbLine
 62
7
  6
CONTINUOUS
 10
1098.6629536614
 20
380.8171498872
 11
1103.1069492268
 21
380.8171498872
  0
LINE
  5
5D1
100
AcDbEntity
  8
0
100
AcDbLine
 62
7
  6
CONTINUOUS
 10
1086.8376065736
 20
380.9304832603
 11
1086.4120746499
 21
380.9304832603
  0
LINE
  5
5D2
100
AcDbEntity
  8
0
100
AcDbLine
 62
7
  6
CONTINUOUS
 10
688.6917415391
 20
380.9419745771
 11
687.5834077607
 21
380.9419745771
  0
LINE
  5
5D3
100
AcDbEntity
  8
0
100
AcDbLine
 62
7
  6
CONTINUOUS
 10
1096.7774218211
 20
380.9631543218
 11
1096.0625280389
 21
380.9631543218
  0
LINE
  5
5D4
100
AcDbEntity
  8
0
100
AcDbLine
 62
7
  6
CONTINUOUS
 10
679.8150746499
 20
381.02708095
 11
678.0817414437
 21
381.02708095
  0
LINE
  5
5D5
100
AcDbEntity
  8
0
100
AcDbLine
 62
7
  6
CONTINUOUS
 10
1103.1069492268
 20
381.1771498872
 11
1098.6629536614
 21
381.1771498872
  0
LINE
  5
5D6
100
AcDbEntity
  8
0
100
AcDbLine
 62
7
  6
CONTINUOUS
 10
1086.4120746499
 20
381.5971498872
 11
1090.4120746499
 21
381.5971498872
  0
LINE
  5
5D7
100
AcDbEntity
  8
0
100
AcDbLine
 62
7
  6
CONTINUOUS
 10
676.7484080468
 20
381.6228255598
 11
677.1484078561
 21
381.6228255598
  0
LINE
  5
5D8
100
AcDbEntity
  8
0
100
AcDbLine
 62
7
  6
CONTINUOUS
 10
683.8500746499
 20
381.6228255598
 11
684.2000746499
 21
381.6228255598
  0
LINE
  5
5D9
100
AcDbEntity
  8
0
100
AcDbLine
 62
7
  6
CONTINUOUS
 10
1089.7312236672
 20
382.0971498872
 11
1086.4120746499
 21
382.0971498872
  0
LINE
  5
5DA
100
AcDbEntity
  8
0
100
AcDbLine
 62
7
  6
CONTINUOUS
 10
675.6150746499
 20
382.1334640352
 11
676.2150746499
 21
382.1334640352
  0
LINE
  5
5DB
100
AcDbEntity
  8
0
100
AcDbLine
 62
7
  6
CONTINUOUS
 10
678.0817414437
 20
382.1334640352
 11
680.0817410622
 21
382.1334640352
  0
LINE
  5
5DC
100
AcDbEntity
  8
0
100
AcDbLine
 62
7
  6
CONTINUOUS
 10
682.858408011
 20
382.1334640352
 11
683.3834079276
 21
382.1334640352
  0
LINE
  5
5DD
100
AcDbEntity
  8
0
100
AcDbLine
 62
7
  6
CONTINUOUS
 10
687.5834077607
 20
382.218570408
 11
688.6917415391
 21
382.218570408
  0
LINE
  5
5DE
100
AcDbEntity
  8
0
100
AcDbLine
 62
7
  6
CONTINUOUS
 10
689.9167415391
 20
382.218570408
 11
690.8500746499
 21
382.218570408
  0
LINE
  5
5DF
100
AcDbEntity
  8
0
100
AcDbLine
 62
7
  6
CONTINUOUS
 10
691.2000746499
 20
382.218570408
 11
692.1334077607
 21
382.218570408
  0
LINE
  5
5E0
100
AcDbEntity
  8
0
100
AcDbLine
 62
7
  6
CONTINUOUS
 10
1004.766692665
 20
382.3841022722
 11
914.7596834502
 21
382.3841022722
  0
LINE
  5
5E1
100
AcDbEntity
  8
0
100
AcDbLine
 62
7
  6
CONTINUOUS
 10
865.0644658496
 20
382.3841022722
 11
775.0574566347
 21
382.3841022722
  0
LINE
  5
5E2
100
AcDbEntity
  8
RUNDUNGEN
100
AcDbLine
 62
7
  6
CONTINUOUS
 10
865.0644658496
 20
382.3841022722
 11
775.0574566347
 21
382.3841022722
  0
LINE
  5
5E3
100
AcDbEntity
  8
0
100
AcDbLine
 62
7
  6
CONTINUOUS
 10
1089.81633004
 20
382.5971498872
 11
1089.135478819
 21
382.5971498872
  0
LINE
  5
5E4
100
AcDbEntity
  8
0
100
AcDbLine
 62
7
  6
CONTINUOUS
 10
693.3000746499
 20
382.6441022722
 11
692.9500746499
 21
382.6441022722
  0
LINE
  5
5E5
100
AcDbEntity
  8
0
100
AcDbLine
 62
7
  6
CONTINUOUS
 10
692.1334077607
 20
382.6441022722
 11
689.9167415391
 21
382.6441022722
  0
LINE
  5
5E6
100
AcDbEntity
  8
0
100
AcDbLine
 62
7
  6
CONTINUOUS
 10
688.6334077607
 20
382.6441022722
 11
687.2334080945
 21
382.6441022722
  0
LINE
  5
5E7
100
AcDbEntity
  8
0
100
AcDbLine
 62
7
  6
CONTINUOUS
 10
686.7667412053
 20
382.6441022722
 11
686.4167412053
 21
382.6441022722
  0
LINE
  5
5E8
100
AcDbEntity
  8
0
100
AcDbLine
 62
7
  6
CONTINUOUS
 10
685.0167412053
 20
382.6441022722
 11
684.6667413722
 21
382.6441022722
  0
LINE
  5
5E9
100
AcDbEntity
  8
0
100
AcDbLine
 62
7
  6
CONTINUOUS
 10
683.3834079276
 20
382.6441022722
 11
682.858408011
 21
382.6441022722
  0
LINE
  5
5EA
100
AcDbEntity
  8
0
100
AcDbLine
 62
7
  6
CONTINUOUS
 10
680.0817410622
 20
382.6441022722
 11
677.6817414437
 21
382.6441022722
  0
LINE
  5
5EB
100
AcDbEntity
  8
0
100
AcDbLine
 62
7
  6
CONTINUOUS
 10
676.2150746499
 20
382.6441022722
 11
675.6150746499
 21
382.6441022722
  0
LINE
  5
5EC
100
AcDbEntity
  8
0
100
AcDbLine
 62
7
  6
CONTINUOUS
 10
674.0150746499
 20
382.6441022722
 11
673.6150746499
 21
382.6441022722
  0
LINE
  5
5ED
100
AcDbEntity
  8
0
100
AcDbLine
 62
7
  6
CONTINUOUS
 10
912.6806368176
 20
382.8841022722
 11
907.9120746499
 21
382.8841022722
  0
LINE
  5
5EE
100
AcDbEntity
  8
0
100
AcDbLine
 62
7
  6
CONTINUOUS
 10
871.9120746499
 20
382.8841022722
 11
867.1435124821
 21
382.8841022722
  0
LINE
  5
5EF
100
AcDbEntity
  8
0
100
AcDbLine
 62
7
  6
CONTINUOUS
 10
772.878007163
 20
382.8841022722
 11
752.4120746499
 21
382.8841022722
  0
LINE
  5
5F0
100
AcDbEntity
  8
RUNDUNGEN
100
AcDbLine
 62
7
  6
CONTINUOUS
 10
752.4120746499
 20
382.8841022722
 11
772.878007163
 21
382.8841022722
  0
LINE
  5
5F1
100
AcDbEntity
  8
RUNDUNGEN
100
AcDbLine
 62
7
  6
CONTINUOUS
 10
867.1435124821
 20
382.8841022722
 11
871.9120746499
 21
382.8841022722
  0
LINE
  5
5F2
100
AcDbEntity
  8
RUNDUNGEN
100
AcDbLine
 62
7
  6
CONTINUOUS
 10
907.9120746499
 20
382.8841022722
 11
912.6806368176
 21
382.8841022722
  0
LINE
  5
5F3
100
AcDbEntity
  8
0
100
AcDbLine
 62
7
  6
CONTINUOUS
 10
1026.4120746499
 20
387.3841022722
 11
1013.4839266431
 21
387.3841022722
  0
LINE
  5
5F4
100
AcDbEntity
  8
RUNDUNGEN
100
AcDbLine
 62
7
  6
CONTINUOUS
 10
1013.4839266431
 20
387.3841022722
 11
1026.4120746499
 21
387.3841022722
  0
LINE
  5
5F5
100
AcDbEntity
  8
BEZUGSACHSEN
100
AcDbLine
 62
7
  6
CONTINUOUS
 10
1052.4120746499
 20
389.3841022722
 11
1047.9120746499
 21
389.3841022722
  0
LINE
  5
5F6
100
AcDbEntity
  8
RUNDUNGEN
100
AcDbLine
 62
7
  6
CONTINUOUS
 10
1119.1026735731
 20
390.3841022722
 11
1087.4120746499
 21
390.3841022722
  0
LINE
  5
5F7
100
AcDbEntity
  8
RUNDUNGEN
100
AcDbLine
 62
7
  6
CONTINUOUS
 10
691.4120746499
 20
390.3841022722
 11
659.7214757266
 21
390.3841022722
  0
LINE
  5
5F8
100
AcDbEntity
  8
0
100
AcDbLine
 62
7
  6
CONTINUOUS
 10
882.9120746499
 20
392.8841022722
 11
896.9120746499
 21
392.8841022722
  0
LINE
  5
5F9
100
AcDbEntity
  8
0
100
AcDbLine
 62
7
  6
CONTINUOUS
 10
876.9120746499
 20
394.3841022722
 11
882.9120746499
 21
394.3841022722
  0
LINE
  5
5FA
100
AcDbEntity
  8
0
100
AcDbLine
 62
7
  6
CONTINUOUS
 10
896.9120746499
 20
394.3841022722
 11
902.9120746499
 21
394.3841022722
  0
LINE
  5
5FB
100
AcDbEntity
  8
0
100
AcDbLine
 62
7
  6
CONTINUOUS
 10
1083.6574084283
 20
344.209208645
 11
1084.0074084283
 21
344.1241022722
  0
LINE
  5
5FC
100
AcDbEntity
  8
0
100
AcDbLine
 62
7
  6
CONTINUOUS
 10
1084.3574084283
 20
348.0389958919
 11
1084.0074084283
 21
348.1241022722
  0
LINE
  5
5FD
100
AcDbEntity
  8
0
100
AcDbLine
 62
7
  6
CONTINUOUS
 10
1102.275741253
 20
344.209208645
 11
1102.6090746499
 21
344.1241022722
  0
LINE
  5
5FE
100
AcDbEntity
  8
0
100
AcDbLine
 62
7
  6
CONTINUOUS
 10
1103.5424080468
 20
348.0389958919
 11
1103.2090746499
 21
348.1241022722
  0
LINE
  5
5FF
100
AcDbEntity
  8
0
100
AcDbLine
 62
7
  6
CONTINUOUS
 10
1084.0074084283
 20
344.5496341364
 11
1083.7157408715
 21
344.6347405092
  0
LINE
  5
600
100
AcDbEntity
  8
0
100
AcDbLine
 62
7
  6
CONTINUOUS
 10
1089.8990746499
 20
344.209208645
 11
1090.1907415391
 21
344.1241022722
  0
LINE
  5
601
100
AcDbEntity
  8
0
100
AcDbLine
 62
7
  6
CONTINUOUS
 10
1095.1490746499
 20
344.209208645
 11
1095.4407413722
 21
344.1241022722
  0
LINE
  5
602
100
AcDbEntity
  8
0
100
AcDbLine
 62
7
  6
CONTINUOUS
 10
1084.0074084283
 20
347.6985703484
 11
1084.2990746499
 21
347.6134639756
  0
LINE
  5
603
100
AcDbEntity
  8
0
100
AcDbLine
 62
7
  6
CONTINUOUS
 10
914.0756431636
 20
382.5047170306
 11
913.3646771043
 21
382.7634875138
  0
LINE
  5
604
100
AcDbEntity
  8
0
100
AcDbLine
 62
7
  6
CONTINUOUS
 10
1013.4839266431
 20
339.3841022722
 11
1007.6345748468
 21
343.4798624936
  0
LINE
  5
605
100
AcDbEntity
  8
0
100
AcDbLine
 62
7
  6
CONTINUOUS
 10
983.9120746499
 20
362.3841022722
 11
975.9120746499
 21
370.3841022722
  0
LINE
  5
606
100
AcDbEntity
  8
RUNDUNGEN
100
AcDbLine
 62
7
  6
CONTINUOUS
 10
1077.4120746499
 20
380.3841022722
 11
1077.4120746499
 21
368.4032113762
  0
LINE
  5
607
100
AcDbEntity
  8
RUNDUNGEN
100
AcDbLine
 62
7
  6
CONTINUOUS
 10
1077.4120746499
 20
358.3651382357
 11
1077.4120746499
 21
346.3841022768
  0
LINE
  5
608
100
AcDbEntity
  8
0
100
AcDbLine
 62
7
  6
CONTINUOUS
 10
1082.9574084283
 20
346.50708095
 11
1082.9574084283
 21
345.7411235945
  0
LINE
  5
609
100
AcDbEntity
  8
0
100
AcDbLine
 62
7
  6
CONTINUOUS
 10
1083.2490746499
 20
345.8262299673
 11
1083.2490746499
 21
346.4219745771
  0
LINE
  5
60A
100
AcDbEntity
  8
0
100
AcDbLine
 62
7
  6
CONTINUOUS
 10
1084.7657408715
 20
346.4219745771
 11
1084.7657408715
 21
345.8262299673
  0
LINE
  5
60B
100
AcDbEntity
  8
0
100
AcDbLine
 62
7
  6
CONTINUOUS
 10
1085.0574084283
 20
345.7411235945
 11
1085.0574084283
 21
346.50708095
  0
LINE
  5
60C
100
AcDbEntity
  8
0
100
AcDbLine
 62
7
  6
CONTINUOUS
 10
1085.5240746499
 20
348.1241022722
 11
1085.5240746499
 21
344.1241022722
  0
LINE
  5
60D
100
AcDbEntity
  8
0
100
AcDbLine
 62
7
  6
CONTINUOUS
 10
1085.8740746499
 20
344.8049532549
 11
1085.8740746499
 21
348.1241022722
  0
LINE
  5
60E
100
AcDbEntity
  8
0
100
AcDbLine
 62
7
  6
CONTINUOUS
 10
1086.2240746499
 20
344.719846882
 11
1086.2240746499
 21
345.4006981031
  0
LINE
  5
60F
100
AcDbEntity
  8
0
100
AcDbLine
 62
7
  6
CONTINUOUS
 10
1086.4120746499
 20
382.0971498872
 11
1086.4120746499
 21
381.5971498872
  0
LINE
  5
610
100
AcDbEntity
  8
0
100
AcDbLine
 62
7
  6
CONTINUOUS
 10
1086.4120746499
 20
380.9304832603
 11
1086.4120746499
 21
377.9304833795
  0
LINE
  5
611
100
AcDbEntity
  8
0
100
AcDbLine
 62
7
  6
CONTINUOUS
 10
1086.6907415391
 20
344.5496341364
 11
1086.6907415391
 21
344.1241022722
  0
LINE
  5
612
100
AcDbEntity
  8
0
100
AcDbLine
 62
7
  6
CONTINUOUS
 10
1086.8376065736
 20
377.9304833795
 11
1086.8376065736
 21
380.2638166333
  0
LINE
  5
613
100
AcDbEntity
  8
0
100
AcDbLine
 62
7
  6
CONTINUOUS
 10
1087.6240746499
 20
348.1241022722
 11
1087.6240746499
 21
344.5496341364
  0
LINE
  5
614
100
AcDbEntity
  8
0
100
AcDbLine
 62
7
  6
CONTINUOUS
 10
1087.9740746499
 20
344.5496341364
 11
1087.9740746499
 21
348.1241022722
  0
LINE
  5
615
100
AcDbEntity
  8
0
100
AcDbLine
 62
7
  6
CONTINUOUS
 10
1084.7657408715
 20
345.8262299673
 11
1084.7074084283
 21
345.3155917303
  0
LINE
  5
616
100
AcDbEntity
  8
0
100
AcDbLine
 62
7
  6
CONTINUOUS
 10
1092.1157412053
 20
347.1879320518
 11
1092.0574080945
 21
346.7624001877
  0
LINE
  5
617
100
AcDbEntity
  8
0
100
AcDbLine
 62
7
  6
CONTINUOUS
 10
1094.6824079276
 20
347.5283576028
 11
1094.6240746499
 21
347.102825679
  0
LINE
  5
618
100
AcDbEntity
  8
0
100
AcDbLine
 62
7
  6
CONTINUOUS
 10
1096.8407413148
 20
345.0602723734
 11
1096.8990746499
 21
345.485804476
  0
LINE
  5
619
100
AcDbEntity
  8
0
100
AcDbLine
 62
7
  6
CONTINUOUS
 10
1101.7424078561
 20
347.5283576028
 11
1101.6757414437
 21
347.102825679
  0
LINE
  5
61A
100
AcDbEntity
  8
0
100
AcDbLine
 62
7
  6
CONTINUOUS
 10
1104.2090746499
 20
345.0602723734
 11
1104.2757413483
 21
345.485804476
  0
LINE
  5
61B
100
AcDbEntity
  8
0
100
AcDbLine
 62
7
  6
CONTINUOUS
 10
1096.5490746499
 20
345.485804476
 11
1096.4907413305
 21
345.1453789846
  0
LINE
  5
61C
100
AcDbEntity
  8
0
100
AcDbLine
 62
7
  6
CONTINUOUS
 10
1103.8757413483
 20
345.485804476
 11
1103.8090746499
 21
345.1453789846
  0
LINE
  5
61D
100
AcDbEntity
  8
0
100
AcDbLine
 62
7
  6
CONTINUOUS
 10
1093.5157412053
 20
348.0389958919
 11
1093.2240746499
 21
348.1241022722
  0
LINE
  5
61E
100
AcDbEntity
  8
0
100
AcDbLine
 62
7
  6
CONTINUOUS
 10
1096.2574079693
 20
348.0389958919
 11
1095.9657412887
 21
348.1241022722
  0
LINE
  5
61F
100
AcDbEntity
  8
0
100
AcDbLine
 62
7
  6
CONTINUOUS
 10
1102.6090746499
 20
344.6347405092
 11
1102.3424080468
 21
344.719846882
  0
LINE
  5
620
100
AcDbEntity
  8
0
100
AcDbLine
 62
7
  6
CONTINUOUS
 10
1103.2090746499
 20
347.6134639756
 11
1103.475741253
 21
347.5283576028
  0
LINE
  5
621
100
AcDbEntity
  8
0
100
AcDbLine
 62
7
  6
CONTINUOUS
 10
1095.4407413722
 20
344.6347405092
 11
1095.2074079276
 21
344.719846882
  0
LINE
  5
622
100
AcDbEntity
  8
0
100
AcDbLine
 62
7
  6
CONTINUOUS
 10
1093.2240746499
 20
347.6134639756
 11
1093.4574080945
 21
347.5283576028
  0
LINE
  5
623
100
AcDbEntity
  8
0
100
AcDbLine
 62
7
  6
CONTINUOUS
 10
1095.9657412887
 20
347.6134639756
 11
1096.1990746499
 21
347.5283576028
  0
LINE
  5
624
100
AcDbEntity
  8
0
100
AcDbLine
 62
7
  6
CONTINUOUS
 10
1088.9074077607
 20
344.1241022722
 11
1088.9074077607
 21
344.5496341364
  0
LINE
  5
625
100
AcDbEntity
  8
0
100
AcDbLine
 62
7
  6
CONTINUOUS
 10
1089.4324077607
 20
345.4006981031
 11
1089.4324077607
 21
345.0602723734
  0
LINE
  5
626
100
AcDbEntity
  8
0
100
AcDbLine
 62
7
  6
CONTINUOUS
 10
1089.4759045487
 20
380.8471498872
 11
1089.4759045487
 21
380.430483141
  0
LINE
  5
627
100
AcDbEntity
  8
0
100
AcDbLine
 62
7
  6
CONTINUOUS
 10
1089.7824077607
 20
345.0602723734
 11
1089.7824077607
 21
345.3155917303
  0
LINE
  5
628
100
AcDbEntity
  8
0
100
AcDbLine
 62
7
  6
CONTINUOUS
 10
1089.9865427857
 20
379.5971498872
 11
1089.9865427857
 21
379.2638166333
  0
LINE
  5
629
100
AcDbEntity
  8
0
100
AcDbLine
 62
7
  6
CONTINUOUS
 10
1090.4120746499
 20
379.180483141
 11
1090.4120746499
 21
379.5138166333
  0
LINE
  5
62A
100
AcDbEntity
  8
0
100
AcDbLine
 62
7
  6
CONTINUOUS
 10
1090.4120746499
 20
381.5971498872
 11
1090.4120746499
 21
382.0971498872
  0
LINE
  5
62B
100
AcDbEntity
  8
0
100
AcDbLine
 62
7
  6
CONTINUOUS
 10
1091.2407415391
 20
348.1241022722
 11
1091.2407415391
 21
346.3368682043
  0
LINE
  5
62C
100
AcDbEntity
  8
0
100
AcDbLine
 62
7
  6
CONTINUOUS
 10
1091.2407415391
 20
345.8262299673
 11
1091.2407415391
 21
344.5496341364
  0
LINE
  5
62D
100
AcDbEntity
  8
0
100
AcDbLine
 62
7
  6
CONTINUOUS
 10
1091.5907412053
 20
344.1241022722
 11
1091.5907412053
 21
348.1241022722
  0
LINE
  5
62E
100
AcDbEntity
  8
0
100
AcDbLine
 62
7
  6
CONTINUOUS
 10
1092.0574080945
 20
346.7624001877
 11
1092.0574080945
 21
344.1241022722
  0
LINE
  5
62F
100
AcDbEntity
  8
0
100
AcDbLine
 62
7
  6
CONTINUOUS
 10
1092.4074080945
 20
344.1241022722
 11
1092.4074080945
 21
346.7624001877
  0
LINE
  5
630
100
AcDbEntity
  8
0
100
AcDbLine
 62
7
  6
CONTINUOUS
 10
1093.2029536614
 20
380.5431543218
 11
1093.2029536614
 21
380.1231543218
  0
LINE
  5
631
100
AcDbEntity
  8
0
100
AcDbLine
 62
7
  6
CONTINUOUS
 10
1093.8074080945
 20
346.7624001877
 11
1093.8074080945
 21
344.1241022722
  0
LINE
  5
632
100
AcDbEntity
  8
0
100
AcDbLine
 62
7
  6
CONTINUOUS
 10
1094.1574079276
 20
344.1241022722
 11
1094.1574079276
 21
346.7624001877
  0
LINE
  5
633
100
AcDbEntity
  8
0
100
AcDbLine
 62
7
  6
CONTINUOUS
 10
1096.5490746499
 20
346.7624001877
 11
1096.5490746499
 21
345.485804476
  0
LINE
  5
634
100
AcDbEntity
  8
0
100
AcDbLine
 62
7
  6
CONTINUOUS
 10
1096.8990746499
 20
345.485804476
 11
1096.8990746499
 21
346.7624001877
  0
LINE
  5
635
100
AcDbEntity
  8
0
100
AcDbLine
 62
7
  6
CONTINUOUS
 10
1097.4029536614
 20
380.1231543218
 11
1097.4029536614
 21
380.5431543218
  0
LINE
  5
636
100
AcDbEntity
  8
0
100
AcDbLine
 62
7
  6
CONTINUOUS
 10
1098.3029536614
 20
380.9971498872
 11
1098.3029536614
 21
380.3971498872
  0
LINE
  5
637
100
AcDbEntity
  8
0
100
AcDbLine
 62
7
  6
CONTINUOUS
 10
1098.6629536614
 20
380.3971498872
 11
1098.6629536614
 21
380.8171498872
  0
LINE
  5
638
100
AcDbEntity
  8
0
100
AcDbLine
 62
7
  6
CONTINUOUS
 10
1098.7424082375
 20
348.1241022722
 11
1098.7424082375
 21
347.6134639756
  0
LINE
  5
639
100
AcDbEntity
  8
0
100
AcDbLine
 62
7
  6
CONTINUOUS
 10
1098.7424082375
 20
344.6347405092
 11
1098.7424082375
 21
344.1241022722
  0
LINE
  5
63A
100
AcDbEntity
  8
0
100
AcDbLine
 62
7
  6
CONTINUOUS
 10
1099.0090746499
 20
346.2517618315
 11
1099.0090746499
 21
345.7411235945
  0
LINE
  5
63B
100
AcDbEntity
  8
0
100
AcDbLine
 62
7
  6
CONTINUOUS
 10
1100.7424078561
 20
347.6134639756
 11
1100.7424078561
 21
346.2517618315
  0
LINE
  5
63C
100
AcDbEntity
  8
0
100
AcDbLine
 62
7
  6
CONTINUOUS
 10
1100.7424078561
 20
345.7411235945
 11
1100.7424078561
 21
344.6347405092
  0
LINE
  5
63D
100
AcDbEntity
  8
0
100
AcDbLine
 62
7
  6
CONTINUOUS
 10
1101.1424078561
 20
344.1241022722
 11
1101.1424078561
 21
348.1241022722
  0
LINE
  5
63E
100
AcDbEntity
  8
0
100
AcDbLine
 62
7
  6
CONTINUOUS
 10
1103.1069492268
 20
380.8171498872
 11
1103.1069492268
 21
380.3971498872
  0
LINE
  5
63F
100
AcDbEntity
  8
0
100
AcDbLine
 62
7
  6
CONTINUOUS
 10
1103.4669492268
 20
380.3971498872
 11
1103.4669492268
 21
380.9971498872
  0
LINE
  5
640
100
AcDbEntity
  8
0
100
AcDbLine
 62
7
  6
CONTINUOUS
 10
1103.8757413483
 20
346.7624001877
 11
1103.8757413483
 21
345.485804476
  0
LINE
  5
641
100
AcDbEntity
  8
0
100
AcDbLine
 62
7
  6
CONTINUOUS
 10
1104.2757413483
 20
345.485804476
 11
1104.2757413483
 21
346.7624001877
  0
LINE
  5
642
100
AcDbEntity
  8
0
100
AcDbLine
 62
7
  6
CONTINUOUS
 10
1104.8090746499
 20
348.1241022722
 11
1104.8090746499
 21
344.1241022722
  0
LINE
  5
643
100
AcDbEntity
  8
0
100
AcDbLine
 62
7
  6
CONTINUOUS
 10
1104.9120746499
 20
369.4841022722
 11
1104.9120746499
 21
357.2841022722
  0
LINE
  5
644
100
AcDbEntity
  8
0
100
AcDbLine
 62
7
  6
CONTINUOUS
 10
1105.2090746499
 20
344.1241022722
 11
1105.2090746499
 21
348.1241022722
  0
LINE
  5
645
100
AcDbEntity
  8
0
100
AcDbLine
 62
7
  6
CONTINUOUS
 10
676.2150746499
 20
378.6441022722
 11
676.5484080468
 21
378.7292086525
  0
LINE
  5
646
100
AcDbEntity
  8
0
100
AcDbLine
 62
7
  6
CONTINUOUS
 10
675.6150746499
 20
382.6441022722
 11
675.281741253
 21
382.5589958994
  0
LINE
  5
647
100
AcDbEntity
  8
0
100
AcDbLine
 62
7
  6
CONTINUOUS
 10
694.8167408715
 20
378.6441022722
 11
695.1667408715
 21
378.7292086525
  0
LINE
  5
648
100
AcDbEntity
  8
0
100
AcDbLine
 62
7
  6
CONTINUOUS
 10
694.8167408715
 20
382.6441022722
 11
694.4667408715
 21
382.5589958994
  0
LINE
  5
649
100
AcDbEntity
  8
0
100
AcDbLine
 62
7
  6
CONTINUOUS
 10
1088.9652660733
 20
378.0138163949
 11
1089.3056915646
 21
377.9304833795
  0
LINE
  5
64A
100
AcDbEntity
  8
0
100
AcDbLine
 62
7
  6
CONTINUOUS
 10
1089.81633004
 20
380.7638165141
 11
1089.4759045487
 21
380.8471498872
  0
LINE
  5
64B
100
AcDbEntity
  8
0
100
AcDbLine
 62
7
  6
CONTINUOUS
 10
1090.1324077607
 20
344.5496341364
 11
1089.9574077607
 21
344.6347405092
  0
LINE
  5
64C
100
AcDbEntity
  8
0
100
AcDbLine
 62
7
  6
CONTINUOUS
 10
1083.0157408715
 20
345.3155917303
 11
1083.0740746499
 21
345.0602723734
  0
LINE
  5
64D
100
AcDbEntity
  8
0
100
AcDbLine
 62
7
  6
CONTINUOUS
 10
1082.9574084283
 20
345.7411235945
 11
1083.0157408715
 21
345.3155917303
  0
LINE
  5
64E
100
AcDbEntity
  8
0
100
AcDbLine
 62
7
  6
CONTINUOUS
 10
1085.0574084283
 20
346.50708095
 11
1084.9990746499
 21
346.9326129333
  0
LINE
  5
64F
100
AcDbEntity
  8
0
100
AcDbLine
 62
7
  6
CONTINUOUS
 10
1083.3074084283
 20
345.3155917303
 11
1083.2490746499
 21
345.8262299673
  0
LINE
  5
650
100
AcDbEntity
  8
0
100
AcDbLine
 62
7
  6
CONTINUOUS
 10
1084.7074084283
 20
346.9326129333
 11
1084.7657408715
 21
346.4219745771
  0
LINE
  5
651
100
AcDbEntity
  8
0
100
AcDbLine
 62
7
  6
CONTINUOUS
 10
1117.9120746499
 20
369.4841022722
 11
1117.9120746499
 21
357.2841022722
  0
LINE
  5
652
100
AcDbEntity
  8
0
100
AcDbLine
 62
7
  6
CONTINUOUS
 10
1126.4120746499
 20
346.3841016055
 11
1126.4120746499
 21
348.3841023545
  0
LINE
  5
653
100
AcDbEntity
  8
KONSTRUKTIONSELEMENTE
100
AcDbLine
 62
7
  6
CONTINUOUS
 10
1126.4120746499
 20
378.3841021899
 11
1126.4120746499
 21
380.384102939
  0
LINE
  5
654
100
AcDbEntity
  8
0
100
AcDbLine
 62
7
  6
CONTINUOUS
 10
1089.3056915646
 20
378.4304833795
 11
1088.9652660733
 21
378.5971498872
  0
LINE
  5
655
100
AcDbEntity
  8
0
100
AcDbLine
 62
7
  6
CONTINUOUS
 10
1102.0090746499
 20
344.3794213907
 11
1102.275741253
 21
344.209208645
  0
LINE
  5
656
100
AcDbEntity
  8
0
100
AcDbLine
 62
7
  6
CONTINUOUS
 10
1103.8090746499
 20
347.8687831239
 11
1103.5424080468
 21
348.0389958919
  0
LINE
  5
657
100
AcDbEntity
  8
0
100
AcDbLine
 62
7
  6
CONTINUOUS
 10
1094.9157413722
 20
344.3794213907
 11
1095.1490746499
 21
344.209208645
  0
LINE
  5
658
100
AcDbEntity
  8
0
100
AcDbLine
 62
7
  6
CONTINUOUS
 10
1093.7490746499
 20
347.8687831239
 11
1093.5157412053
 21
348.0389958919
  0
LINE
  5
659
100
AcDbEntity
  8
0
100
AcDbLine
 62
7
  6
CONTINUOUS
 10
1096.4907413305
 20
347.8687831239
 11
1096.2574079693
 21
348.0389958919
  0
LINE
  5
65A
100
AcDbEntity
  8
0
100
AcDbLine
 62
7
  6
CONTINUOUS
 10
1102.3424080468
 20
344.719846882
 11
1102.1424080468
 21
344.8900596277
  0
LINE
  5
65B
100
AcDbEntity
  8
0
100
AcDbLine
 62
7
  6
CONTINUOUS
 10
1103.475741253
 20
347.5283576028
 11
1103.6757413483
 21
347.3581447975
  0
LINE
  5
65C
100
AcDbEntity
  8
0
100
AcDbLine
 62
7
  6
CONTINUOUS
 10
1083.3657408715
 20
344.4645277635
 11
1083.6574084283
 21
344.209208645
  0
LINE
  5
65D
100
AcDbEntity
  8
0
100
AcDbLine
 62
7
  6
CONTINUOUS
 10
1084.6490746499
 20
347.7836767511
 11
1084.3574084283
 21
348.0389958919
  0
LINE
  5
65E
100
AcDbEntity
  8
0
100
AcDbLine
 62
7
  6
CONTINUOUS
 10
1083.7157408715
 20
344.6347405092
 11
1083.5407408715
 21
344.8049532549
  0
LINE
  5
65F
100
AcDbEntity
  8
0
100
AcDbLine
 62
7
  6
CONTINUOUS
 10
1084.2990746499
 20
347.6134639756
 11
1084.4740746499
 21
347.4432512299
  0
LINE
  5
660
100
AcDbEntity
  8
0
100
AcDbLine
 62
7
  6
CONTINUOUS
 10
1095.2074079276
 20
344.719846882
 11
1095.0324079276
 21
344.8900596277
  0
LINE
  5
661
100
AcDbEntity
  8
0
100
AcDbLine
 62
7
  6
CONTINUOUS
 10
1093.4574080945
 20
347.5283576028
 11
1093.6324080945
 21
347.3581447975
  0
LINE
  5
662
100
AcDbEntity
  8
0
100
AcDbLine
 62
7
  6
CONTINUOUS
 10
1096.1990746499
 20
347.5283576028
 11
1096.3740746499
 21
347.3581447975
  0
LINE
  5
663
100
AcDbEntity
  8
0
100
AcDbLine
 62
7
  6
CONTINUOUS
 10
1089.6657415391
 20
344.4645277635
 11
1089.8990746499
 21
344.209208645
  0
LINE
  5
664
100
AcDbEntity
  8
0
100
AcDbLine
 62
7
  6
CONTINUOUS
 10
1083.1907408715
 20
344.719846882
 11
1083.3657408715
 21
344.4645277635
  0
LINE
  5
665
100
AcDbEntity
  8
0
100
AcDbLine
 62
7
  6
CONTINUOUS
 10
1084.8240746499
 20
347.5283576028
 11
1084.6490746499
 21
347.7836767511
  0
LINE
  5
666
100
AcDbEntity
  8
0
100
AcDbLine
 62
7
  6
CONTINUOUS
 10
1089.9574077607
 20
344.6347405092
 11
1089.8407415391
 21
344.8049532549
  0
LINE
  5
667
100
AcDbEntity
  8
0
100
AcDbLine
 62
7
  6
CONTINUOUS
 10
1089.4907415391
 20
344.8049532549
 11
1089.6657415391
 21
344.4645277635
  0
LINE
  5
668
100
AcDbEntity
  8
0
100
AcDbLine
 62
7
  6
CONTINUOUS
 10
1083.5407408715
 20
344.8049532549
 11
1083.3074084283
 21
345.3155917303
  0
LINE
  5
669
100
AcDbEntity
  8
0
100
AcDbLine
 62
7
  6
CONTINUOUS
 10
1084.4740746499
 20
347.4432512299
 11
1084.7074084283
 21
346.9326129333
  0
LINE
  5
66A
100
AcDbEntity
  8
0
100
AcDbLine
 62
7
  6
CONTINUOUS
 10
1083.0740746499
 20
345.0602723734
 11
1083.1907408715
 21
344.719846882
  0
LINE
  5
66B
100
AcDbEntity
  8
0
100
AcDbLine
 62
7
  6
CONTINUOUS
 10
1084.9407408715
 20
347.1879320518
 11
1084.8240746499
 21
347.5283576028
  0
LINE
  5
66C
100
AcDbEntity
  8
0
100
AcDbLine
 62
7
  6
CONTINUOUS
 10
1094.0990746499
 20
347.1879320518
 11
1093.9824080945
 21
347.5283576028
  0
LINE
  5
66D
100
AcDbEntity
  8
0
100
AcDbLine
 62
7
  6
CONTINUOUS
 10
1096.8407413148
 20
347.1879320518
 11
1096.7240746499
 21
347.5283576028
  0
LINE
  5
66E
100
AcDbEntity
  8
0
100
AcDbLine
 62
7
  6
CONTINUOUS
 10
1089.3740746499
 20
348.1241022722
 11
1089.8990746499
 21
346.1666554586
  0
LINE
  5
66F
100
AcDbEntity
  8
0
100
AcDbLine
 62
7
  6
CONTINUOUS
 10
1090.2490746499
 20
346.3368682043
 11
1089.7824077607
 21
348.1241022722
  0
LINE
  5
670
100
AcDbEntity
  8
0
100
AcDbLine
 62
7
  6
CONTINUOUS
 10
1102.1424080468
 20
344.8900596277
 11
1102.075741253
 21
345.1453789846
  0
LINE
  5
671
100
AcDbEntity
  8
0
100
AcDbLine
 62
7
  6
CONTINUOUS
 10
1084.9990746499
 20
346.9326129333
 11
1084.9407408715
 21
347.1879320518
  0
LINE
  5
672
100
AcDbEntity
  8
0
100
AcDbLine
 62
7
  6
CONTINUOUS
 10
1089.4324077607
 20
345.0602723734
 11
1089.4907415391
 21
344.8049532549
  0
LINE
  5
673
100
AcDbEntity
  8
0
100
AcDbLine
 62
7
  6
CONTINUOUS
 10
1089.8407415391
 20
344.8049532549
 11
1089.7824077607
 21
345.0602723734
  0
LINE
  5
674
100
AcDbEntity
  8
0
100
AcDbLine
 62
7
  6
CONTINUOUS
 10
1095.0324079276
 20
344.8900596277
 11
1094.9740746499
 21
345.1453789846
  0
LINE
  5
675
100
AcDbEntity
  8
0
100
AcDbLine
 62
7
  6
CONTINUOUS
 10
1089.9014364129
 20
380.0138166333
 11
1089.9865427857
 21
379.5971498872
  0
LINE
  5
676
100
AcDbEntity
  8
0
100
AcDbLine
 62
7
  6
CONTINUOUS
 10
1103.8090746499
 20
347.102825679
 11
1103.8757413483
 21
346.7624001877
  0
LINE
  5
677
100
AcDbEntity
  8
0
100
AcDbLine
 62
7
  6
CONTINUOUS
 10
1093.7490746499
 20
347.102825679
 11
1093.8074080945
 21
346.7624001877
  0
LINE
  5
678
100
AcDbEntity
  8
0
100
AcDbLine
 62
7
  6
CONTINUOUS
 10
1096.4907413305
 20
347.102825679
 11
1096.5490746499
 21
346.7624001877
  0
LINE
  5
679
100
AcDbEntity
  8
0
100
AcDbLine
 62
7
  6
CONTINUOUS
 10
1101.6757414437
 20
345.1453789846
 11
1101.7424078561
 21
344.719846882
  0
LINE
  5
67A
100
AcDbEntity
  8
0
100
AcDbLine
 62
7
  6
CONTINUOUS
 10
1104.2757413483
 20
346.7624001877
 11
1104.2090746499
 21
347.1879320518
  0
LINE
  5
67B
100
AcDbEntity
  8
0
100
AcDbLine
 62
7
  6
CONTINUOUS
 10
1090.4120746499
 20
379.5138166333
 11
1090.326968277
 21
380.0971498872
  0
LINE
  5
67C
100
AcDbEntity
  8
0
100
AcDbLine
 62
7
  6
CONTINUOUS
 10
1094.1574079276
 20
346.7624001877
 11
1094.0990746499
 21
347.1879320518
  0
LINE
  5
67D
100
AcDbEntity
  8
0
100
AcDbLine
 62
7
  6
CONTINUOUS
 10
1094.6240746499
 20
345.1453789846
 11
1094.6824079276
 21
344.719846882
  0
LINE
  5
67E
100
AcDbEntity
  8
0
100
AcDbLine
 62
7
  6
CONTINUOUS
 10
1096.8990746499
 20
346.7624001877
 11
1096.8407413148
 21
347.1879320518
  0
LINE
  5
67F
100
AcDbEntity
  8
0
100
AcDbLine
 62
7
  6
CONTINUOUS
 10
1098.7859586781
 20
381.5150301822
 11
1098.4878386042
 21
381.6871498872
  0
LINE
  5
680
100
AcDbEntity
  8
0
100
AcDbLine
 62
7
  6
CONTINUOUS
 10
1088.7099469548
 20
378.1804833795
 11
1088.9652660733
 21
378.0138163949
  0
LINE
  5
681
100
AcDbEntity
  8
0
100
AcDbLine
 62
7
  6
CONTINUOUS
 10
1089.4759045487
 20
380.430483141
 11
1089.7312236672
 21
380.2638166333
  0
LINE
  5
682
100
AcDbEntity
  8
0
100
AcDbLine
 62
7
  6
CONTINUOUS
 10
1096.0625280389
 20
380.9631543218
 11
1096.6880601296
 21
380.5431543218
  0
LINE
  5
683
100
AcDbEntity
  8
0
100
AcDbLine
 62
7
  6
CONTINUOUS
 10
1097.4029536614
 20
380.5431543218
 11
1096.7774218211
 21
380.9631543218
  0
LINE
  5
684
100
AcDbEntity
  8
0
100
AcDbLine
 62
7
  6
CONTINUOUS
 10
1089.135478819
 20
382.5971498872
 11
1089.7312236672
 21
382.0971498872
  0
LINE
  5
685
100
AcDbEntity
  8
0
100
AcDbLine
 62
7
  6
CONTINUOUS
 10
1090.4120746499
 20
382.0971498872
 11
1089.81633004
 21
382.5971498872
  0
LINE
  5
686
100
AcDbEntity
  8
0
100
AcDbLine
 62
7
  6
CONTINUOUS
 10
1090.1567555314
 20
380.430483141
 11
1089.81633004
 21
380.7638165141
  0
LINE
  5
687
100
AcDbEntity
  8
0
100
AcDbLine
 62
7
  6
CONTINUOUS
 10
1088.9652660733
 20
378.5971498872
 11
1086.8376065736
 21
380.9304832603
  0
LINE
  5
688
100
AcDbEntity
  8
0
100
AcDbLine
 62
7
  6
CONTINUOUS
 10
1086.8376065736
 20
380.2638166333
 11
1088.7099469548
 21
378.1804833795
  0
LINE
  5
689
100
AcDbEntity
  8
0
100
AcDbLine
 62
7
  6
CONTINUOUS
 10
1101.7424078561
 20
344.719846882
 11
1102.0090746499
 21
344.3794213907
  0
LINE
  5
68A
100
AcDbEntity
  8
0
100
AcDbLine
 62
7
  6
CONTINUOUS
 10
1104.0757413483
 20
347.5283576028
 11
1103.8090746499
 21
347.8687831239
  0
LINE
  5
68B
100
AcDbEntity
  8
0
100
AcDbLine
 62
7
  6
CONTINUOUS
 10
1094.6824079276
 20
344.719846882
 11
1094.9157413722
 21
344.3794213907
  0
LINE
  5
68C
100
AcDbEntity
  8
0
100
AcDbLine
 62
7
  6
CONTINUOUS
 10
1093.9824080945
 20
347.5283576028
 11
1093.7490746499
 21
347.8687831239
  0
LINE
  5
68D
100
AcDbEntity
  8
0
100
AcDbLine
 62
7
  6
CONTINUOUS
 10
1096.7240746499
 20
347.5283576028
 11
1096.4907413305
 21
347.8687831239
  0
LINE
  5
68E
100
AcDbEntity
  8
0
100
AcDbLine
 62
7
  6
CONTINUOUS
 10
1089.7312236672
 20
380.2638166333
 11
1089.9014364129
 21
380.0138166333
  0
LINE
  5
68F
100
AcDbEntity
  8
0
100
AcDbLine
 62
7
  6
CONTINUOUS
 10
1103.6757413483
 20
347.3581447975
 11
1103.8090746499
 21
347.102825679
  0
LINE
  5
690
100
AcDbEntity
  8
0
100
AcDbLine
 62
7
  6
CONTINUOUS
 10
1090.326968277
 20
380.0971498872
 11
1090.1567555314
 21
380.430483141
  0
LINE
  5
691
100
AcDbEntity
  8
0
100
AcDbLine
 62
7
  6
CONTINUOUS
 10
1093.6324080945
 20
347.3581447975
 11
1093.7490746499
 21
347.102825679
  0
LINE
  5
692
100
AcDbEntity
  8
0
100
AcDbLine
 62
7
  6
CONTINUOUS
 10
1096.3740746499
 20
347.3581447975
 11
1096.4907413305
 21
347.102825679
  0
LINE
  5
693
100
AcDbEntity
  8
0
100
AcDbLine
 62
7
  6
CONTINUOUS
 10
1104.2090746499
 20
347.1879320518
 11
1104.0757413483
 21
347.5283576028
  0
LINE
  5
694
100
AcDbEntity
  8
KONSTRUKTIONSELEMENTE
100
AcDbLine
 62
7
  6
CONTINUOUS
 10
1125.7422012876
 20
382.8841029325
 11
1122.5667751883
 21
388.3841022722
  0
ARC
  5
695
100
AcDbEntity
  8
RUNDUNGEN
100
AcDbCircle
 62
7
  6
CONTINUOUS
 10
207.4945423616
 20
51.3841022722
 40
8.0
100
AcDbArc
 50
180.0
 51
270.0
  0
ARC
  5
696
100
AcDbEntity
  8
RUNDUNGEN
100
AcDbCircle
 62
7
  6
CONTINUOUS
 10
10.9945423616
 20
346.3841022722
 40
10.0
100
AcDbArc
 50
270.0
 51
360.0
  0
ARC
  5
697
100
AcDbEntity
  8
KONSTRUKTIONSELEMENTE
100
AcDbCircle
 62
7
  6
CONTINUOUS
 10
-23.0054576384
 20
346.3841022722
 40
5.0
100
AcDbArc
 50
180.0000076395
 51
210.0000087357
  0
ARC
  5
698
100
AcDbEntity
  8
0
100
AcDbCircle
 62
7
  6
CONTINUOUS
 10
-23.0054576384
 20
348.3841022722
 40
5.0
100
AcDbArc
 50
143.1301014768
 51
180.0
  0
ARC
  5
699
100
AcDbEntity
  8
RUNDUNGEN
100
AcDbCircle
 62
7
  6
CONTINUOUS
 10
-20.6960565617
 20
340.3841022722
 40
4.0
100
AcDbArc
 50
210.0
 51
270.0
  0
ARC
  5
69A
100
AcDbEntity
  8
0
100
AcDbCircle
 62
7
  6
CONTINUOUS
 10
4.3020511025
 20
345.7555632336
 40
2.4
100
AcDbArc
 50
180.0
 51
360.0
  0
ARC
  5
69B
100
AcDbEntity
  8
0
100
AcDbCircle
 62
7
  6
CONTINUOUS
 10
10.6020511025
 20
345.5555632336
 40
2.2
100
AcDbArc
 50
270.0
 51
360.0
  0
ARC
  5
69C
100
AcDbEntity
  8
0
100
AcDbCircle
 62
7
  6
CONTINUOUS
 10
10.6020511025
 20
347.1555632336
 40
2.2
100
AcDbArc
 50
0.0
 51
90.0
  0
ARC
  5
69D
100
AcDbEntity
  8
RUNDUNGEN
100
AcDbCircle
 62
7
  6
CONTINUOUS
 10
-22.5508738001
 20
355.2841022722
 40
2.0
100
AcDbArc
 50
90.0
 51
158.3964710752
  0
ARC
  5
69E
100
AcDbEntity
  8
0
100
AcDbCircle
 62
7
  6
CONTINUOUS
 10
-1.0479488975
 20
347.6055632336
 40
1.75
100
AcDbArc
 50
291.3550126288
 51
90.0
  0
ARC
  5
69F
100
AcDbEntity
  8
0
100
AcDbCircle
 62
7
  6
CONTINUOUS
 10
10.3520511025
 20
347.1055632336
 40
1.25
100
AcDbArc
 50
0.0
 51
90.0
  0
ARC
  5
6A0
100
AcDbEntity
  8
0
100
AcDbCircle
 62
7
  6
CONTINUOUS
 10
10.3520511025
 20
345.6055632336
 40
1.25
100
AcDbArc
 50
270.0
 51
360.0
  0
ARC
  5
6A1
100
AcDbEntity
  8
0
100
AcDbCircle
 62
7
  6
CONTINUOUS
 10
4.3020511025
 20
345.7555632336
 40
1.2
100
AcDbArc
 50
180.0
 51
360.0
  0
ARC
  5
6A2
100
AcDbEntity
  8
0
100
AcDbCircle
 62
7
  6
CONTINUOUS
 10
-2.073375378
 20
344.8555632336
 40
1.0
100
AcDbArc
 50
30.0
 51
90.0
  0
ARC
  5
6A3
100
AcDbEntity
  8
0
100
AcDbCircle
 62
7
  6
CONTINUOUS
 10
-1.4479488975
 20
347.6055632336
 40
0.75
100
AcDbArc
 50
270.0
 51
90.0
  0
ARC
  5
6A4
100
AcDbEntity
  8
0
100
AcDbCircle
 62
7
  6
CONTINUOUS
 10
-43.0054576384
 20
363.3841022722
 40
20.0
100
AcDbArc
 50
323.1301025735
 51
338.3964710752
  0
ARC
  5
6A5
100
AcDbEntity
  8
0
100
AcDbCircle
 62
7
  6
CONTINUOUS
 10
-43.0054576384
 20
363.3841022722
 40
20.0
100
AcDbArc
 50
21.6035289248
 51
36.8698974265
  0
ARC
  5
6A6
100
AcDbEntity
  8
RUNDUNGEN
100
AcDbCircle
 62
7
  6
CONTINUOUS
 10
10.9945423616
 20
380.3841022722
 40
10.0
100
AcDbArc
 50
0.0
 51
90.0
  0
ARC
  5
6A7
100
AcDbEntity
  8
RUNDUNGEN
100
AcDbCircle
 62
7
  6
CONTINUOUS
 10
2.8945423616
 20
363.3841022722
 40
6.1
100
AcDbArc
 50
270.0
 51
90.0
  0
ARC
  5
6A8
100
AcDbEntity
  8
KONSTRUKTIONSELEMENTE
100
AcDbCircle
 62
7
  6
CONTINUOUS
 10
-23.0054576384
 20
380.3841022722
 40
5.0
100
AcDbArc
 50
149.9999912631
 51
179.9999923588
  0
ARC
  5
6A9
100
AcDbEntity
  8
RUNDUNGEN
100
AcDbCircle
 62
7
  6
CONTINUOUS
 10
-23.0054576384
 20
378.3841022722
 40
5.0
100
AcDbArc
 50
180.0
 51
216.8698985232
  0
ARC
  5
6AA
100
AcDbEntity
  8
RUNDUNGEN
100
AcDbCircle
 62
7
  6
CONTINUOUS
 10
12.1448530006
 20
380.3843778803
 40
4.8375920546
100
AcDbArc
 50
359.9723542524
 51
0.373800121
  0
ARC
  5
6AB
100
AcDbEntity
  8
RUNDUNGEN
100
AcDbCircle
 62
7
  6
CONTINUOUS
 10
-20.6960565617
 20
386.3841022722
 40
4.0
100
AcDbArc
 50
90.0
 51
150.0
  0
ARC
  5
6AC
100
AcDbEntity
  8
RUNDUNGEN
100
AcDbCircle
 62
7
  6
CONTINUOUS
 10
-22.5508738001
 20
371.4841022722
 40
2.0
100
AcDbArc
 50
201.6035289248
 51
270.0
  0
ARC
  5
6AD
100
AcDbEntity
  8
RUNDUNGEN
100
AcDbCircle
 62
7
  6
CONTINUOUS
 10
26.9945423616
 20
355.3841022722
 40
3.0
100
AcDbArc
 50
90.0
 51
161.9622186269
  0
ARC
  5
6AE
100
AcDbEntity
  8
RUNDUNGEN
100
AcDbCircle
 62
7
  6
CONTINUOUS
 10
45.9945423616
 20
339.3841022722
 40
2.0
100
AcDbArc
 50
179.9999984885
 51
270.0
  0
ARC
  5
6AF
100
AcDbEntity
  8
RUNDUNGEN
100
AcDbCircle
 62
7
  6
CONTINUOUS
 10
22.9945423616
 20
351.3841022722
 40
2.0
100
AcDbArc
 50
90.0
 51
180.0
  0
ARC
  5
6B0
100
AcDbEntity
  8
RUNDUNGEN
100
AcDbCircle
 62
7
  6
CONTINUOUS
 10
71.9945423616
 20
340.3841022722
 40
1.0
100
AcDbArc
 50
180.0
 51
270.0
  0
ARC
  5
6B1
100
AcDbEntity
  8
RUNDUNGEN
100
AcDbCircle
 62
7
  6
CONTINUOUS
 10
50.4945423616
 20
337.8841022722
 40
0.5
100
AcDbArc
 50
270.0
 51
360.0
  0
ARC
  5
6B2
100
AcDbEntity
  8
RUNDUNGEN
100
AcDbCircle
 62
7
  6
CONTINUOUS
 10
45.9945423616
 20
387.3841022722
 40
2.0
100
AcDbArc
 50
90.0
 51
180.0000015115
  0
ARC
  5
6B3
100
AcDbEntity
  8
RUNDUNGEN
100
AcDbCircle
 62
7
  6
CONTINUOUS
 10
22.9945423616
 20
375.3841022722
 40
2.0
100
AcDbArc
 50
180.0
 51
270.0
  0
ARC
  5
6B4
100
AcDbEntity
  8
RUNDUNGEN
100
AcDbCircle
 62
7
  6
CONTINUOUS
 10
71.9945423616
 20
386.3841022722
 40
1.0
100
AcDbArc
 50
90.0
 51
180.0
  0
ARC
  5
6B5
100
AcDbEntity
  8
RUNDUNGEN
100
AcDbCircle
 62
7
  6
CONTINUOUS
 10
50.4945423616
 20
388.8841022722
 40
0.5
100
AcDbArc
 50
0.0
 51
90.0
  0
ARC
  5
6B6
100
AcDbEntity
  8
RUNDUNGEN
100
AcDbCircle
 62
7
  6
CONTINUOUS
 10
201.4945423616
 20
299.9731833339
 40
11.0
100
AcDbArc
 50
180.0
 51
196.4403795217
  0
ARC
  5
6B7
100
AcDbEntity
  8
RUNDUNGEN
100
AcDbCircle
 62
7
  6
CONTINUOUS
 10
188.4945423877
 20
266.2950211221
 40
10.9999999849
100
AcDbArc
 50
0.0000004604
 51
16.4403800017
  0
ARC
  5
6B8
100
AcDbEntity
  8
0
100
AcDbCircle
 62
7
  6
CONTINUOUS
 10
134.3702044425
 20
379.8955649115
 40
36.960567636
100
AcDbArc
 50
321.9975152904
 51
323.2747297858
  0
ARC
  5
6B9
100
AcDbEntity
  8
RUNDUNGEN
100
AcDbCircle
 62
7
  6
CONTINUOUS
 10
103.4945423616
 20
368.3841022722
 40
6.0
100
AcDbArc
 50
89.9983471528
 51
179.9978476667
  0
ARC
  5
6BA
100
AcDbEntity
  8
RUNDUNGEN
100
AcDbCircle
 62
7
  6
CONTINUOUS
 10
103.4945423616
 20
358.3841022722
 40
6.0
100
AcDbArc
 50
180.0005164764
 51
270.002481054
  0
ARC
  5
6BB
100
AcDbEntity
  8
RUNDUNGEN
100
AcDbCircle
 62
7
  6
CONTINUOUS
 10
186.4945423616
 20
368.3841022722
 40
6.0
100
AcDbArc
 50
48.1970765251
 51
90.0015777035
  0
ARC
  5
6BC
100
AcDbEntity
  8
RUNDUNGEN
100
AcDbCircle
 62
7
  6
CONTINUOUS
 10
186.4945423616
 20
358.3841022722
 40
6.0
100
AcDbArc
 50
269.9993904099
 51
311.8185594356
  0
ARC
  5
6BD
100
AcDbEntity
  8
RUNDUNGEN
100
AcDbCircle
 62
7
  6
CONTINUOUS
 10
93.6399243464
 20
387.3841022722
 40
5.0
100
AcDbArc
 50
235.0
 51
270.0
  0
ARC
  5
6BE
100
AcDbEntity
  8
RUNDUNGEN
100
AcDbCircle
 62
7
  6
CONTINUOUS
 10
93.6399243464
 20
339.3841022722
 40
5.0
100
AcDbArc
 50
90.0
 51
125.0
  0
ARC
  5
6BF
100
AcDbEntity
  8
RUNDUNGEN
100
AcDbCircle
 62
7
  6
CONTINUOUS
 10
195.4945423616
 20
389.3841022722
 40
5.0
100
AcDbArc
 50
90.0
 51
180.0
  0
ARC
  5
6C0
100
AcDbEntity
  8
RUNDUNGEN
100
AcDbCircle
 62
7
  6
CONTINUOUS
 10
185.7259801938
 20
380.8841022722
 40
2.0
100
AcDbArc
 50
90.0
 51
110.0
  0
ARC
  5
6C1
100
AcDbEntity
  8
RUNDUNGEN
100
AcDbCircle
 62
7
  6
CONTINUOUS
 10
185.7259801938
 20
345.8841022722
 40
2.0
100
AcDbArc
 50
250.0
 51
270.0
  0
ARC
  5
6C2
100
AcDbEntity
  8
RUNDUNGEN
100
AcDbCircle
 62
7
  6
CONTINUOUS
 10
183.6469335612
 20
384.3841022722
 40
2.0
100
AcDbArc
 50
270.0
 51
290.0
  0
ARC
  5
6C3
100
AcDbEntity
  8
RUNDUNGEN
100
AcDbCircle
 62
7
  6
CONTINUOUS
 10
183.6469335612
 20
342.3841022722
 40
2.0
100
AcDbArc
 50
70.0
 51
90.0
  0
ARC
  5
6C4
100
AcDbEntity
  8
0
100
AcDbCircle
 62
7
  6
CONTINUOUS
 10
203.4945423616
 20
335.3841022722
 40
2.0
100
AcDbArc
 50
180.0
 51
270.0
  0
ARC
  5
6C5
100
AcDbEntity
  8
RUNDUNGEN
100
AcDbCircle
 62
7
  6
CONTINUOUS
 10
86.3340664642
 20
356.2381917047
 40
1.4113761021
100
AcDbArc
 50
177.7886256086
 51
179.9946431206
  0
ARC
  5
6C6
100
AcDbEntity
  8
RUNDUNGEN
100
AcDbCircle
 62
7
  6
CONTINUOUS
 10
86.334066395
 20
370.5300090545
 40
1.4113760325
100
AcDbArc
 50
180.0052032151
 51
182.2112211723
  0
ARC
  5
6C7
100
AcDbEntity
  8
BEZUGSACHSEN
100
AcDbCircle
 62
7
  6
CONTINUOUS
 10
209.4945423616
 20
51.3841022722
 40
8.0
100
AcDbArc
 50
270.0
 51
360.0
  0
ARC
  5
6C8
100
AcDbEntity
  8
BEZUGSACHSEN
100
AcDbCircle
 62
7
  6
CONTINUOUS
 10
215.4945423616
 20
299.9731833339
 40
11.0
100
AcDbArc
 50
343.5596204783
 51
360.0
  0
ARC
  5
6C9
100
AcDbEntity
  8
BEZUGSACHSEN
100
AcDbCircle
 62
7
  6
CONTINUOUS
 10
228.4945423355
 20
266.2950211221
 40
10.9999999849
100
AcDbArc
 50
163.5596199983
 51
179.9999995396
  0
ARC
  5
6CA
100
AcDbEntity
  8
RUNDUNGEN
100
AcDbCircle
 62
7
  6
CONTINUOUS
 10
313.4945423616
 20
368.3841022722
 40
6.0
100
AcDbArc
 50
359.9982629184
 51
90.0016632488
  0
ARC
  5
6CB
100
AcDbEntity
  8
RUNDUNGEN
100
AcDbCircle
 62
7
  6
CONTINUOUS
 10
313.4945423616
 20
358.3841022722
 40
6.0
100
AcDbArc
 50
269.9974648987
 51
0.0017796289
  0
ARC
  5
6CC
100
AcDbEntity
  8
RUNDUNGEN
100
AcDbCircle
 62
7
  6
CONTINUOUS
 10
230.4945423616
 20
368.3841022722
 40
6.0
100
AcDbArc
 50
89.9984222897
 51
131.8438342939
  0
ARC
  5
6CD
100
AcDbEntity
  8
RUNDUNGEN
100
AcDbCircle
 62
7
  6
CONTINUOUS
 10
230.4945423616
 20
358.3841022722
 40
6.0
100
AcDbArc
 50
228.1824826611
 51
270.0006466578
  0
ARC
  5
6CE
100
AcDbEntity
  8
0
100
AcDbCircle
 62
7
  6
CONTINUOUS
 10
323.3491603767
 20
339.3841022722
 40
5.0
100
AcDbArc
 50
64.1580672368
 51
90.0
  0
ARC
  5
6CF
100
AcDbEntity
  8
0
100
AcDbCircle
 62
7
  6
CONTINUOUS
 10
323.3491603767
 20
387.3841022722
 40
5.0
100
AcDbArc
 50
270.0
 51
295.8419327632
  0
ARC
  5
6D0
100
AcDbEntity
  8
BEZUGSACHSEN
100
AcDbCircle
 62
7
  6
CONTINUOUS
 10
221.4945423616
 20
389.3841022722
 40
5.0
100
AcDbArc
 50
0.0
 51
90.0
  0
ARC
  5
6D1
100
AcDbEntity
  8
RUNDUNGEN
100
AcDbCircle
 62
7
  6
CONTINUOUS
 10
231.2631045293
 20
380.8841022722
 40
2.0
100
AcDbArc
 50
70.0
 51
90.0
  0
ARC
  5
6D2
100
AcDbEntity
  8
RUNDUNGEN
100
AcDbCircle
 62
7
  6
CONTINUOUS
 10
231.2631045293
 20
345.8841022722
 40
2.0
100
AcDbArc
 50
270.0
 51
290.0
  0
ARC
  5
6D3
100
AcDbEntity
  8
RUNDUNGEN
100
AcDbCircle
 62
7
  6
CONTINUOUS
 10
233.3421511619
 20
384.3841022722
 40
2.0
100
AcDbArc
 50
250.0
 51
270.0
  0
ARC
  5
6D4
100
AcDbEntity
  8
RUNDUNGEN
100
AcDbCircle
 62
7
  6
CONTINUOUS
 10
233.3421511619
 20
342.3841022722
 40
2.0
100
AcDbArc
 50
90.0
 51
110.0
  0
ARC
  5
6D5
100
AcDbEntity
  8
0
100
AcDbCircle
 62
7
  6
CONTINUOUS
 10
213.4945423616
 20
335.3841022722
 40
2.0
100
AcDbArc
 50
270.0
 51
360.0
  0
ARC
  5
6D6
100
AcDbEntity
  8
RUNDUNGEN
100
AcDbCircle
 62
7
  6
CONTINUOUS
 10
394.9945423616
 20
351.3841022722
 40
2.0
100
AcDbArc
 50
0.0
 51
90.0
  0
ARC
  5
6D7
100
AcDbEntity
  8
RUNDUNGEN
100
AcDbCircle
 62
7
  6
CONTINUOUS
 10
345.9945423616
 20
344.8841022722
 40
1.0
100
AcDbArc
 50
270.0
 51
360.0
  0
ARC
  5
6D8
100
AcDbEntity
  8
RUNDUNGEN
100
AcDbCircle
 62
7
  6
CONTINUOUS
 10
394.9945423616
 20
375.3841022722
 40
2.0
100
AcDbArc
 50
270.0
 51
360.0
  0
ARC
  5
6D9
100
AcDbEntity
  8
RUNDUNGEN
100
AcDbCircle
 62
7
  6
CONTINUOUS
 10
345.9945423616
 20
381.8841022722
 40
1.0
100
AcDbArc
 50
0.0
 51
90.0
  0
ARC
  5
6DA
100
AcDbEntity
  8
RUNDUNGEN
100
AcDbCircle
 62
7
  6
CONTINUOUS
 10
406.9945423616
 20
346.3841022722
 40
10.0
100
AcDbArc
 50
180.0
 51
270.0
  0
ARC
  5
6DB
100
AcDbEntity
  8
KONSTRUKTIONSELEMENTE
100
AcDbCircle
 62
7
  6
CONTINUOUS
 10
440.9945423616
 20
346.3841022722
 40
5.0
100
AcDbArc
 50
329.9999912631
 51
359.9999923588
  0
ARC
  5
6DC
100
AcDbEntity
  8
RUNDUNGEN
100
AcDbCircle
 62
7
  6
CONTINUOUS
 10
440.9945423616
 20
348.3841022722
 40
5.0
100
AcDbArc
 50
0.0
 51
36.8698988063
  0
ARC
  5
6DD
100
AcDbEntity
  8
RUNDUNGEN
100
AcDbCircle
 62
7
  6
CONTINUOUS
 10
438.6851412848
 20
340.3841022722
 40
4.0
100
AcDbArc
 50
270.0
 51
330.0
  0
ARC
  5
6DE
100
AcDbEntity
  8
RUNDUNGEN
100
AcDbCircle
 62
7
  6
CONTINUOUS
 10
440.5399585232
 20
355.2841022722
 40
2.0
100
AcDbArc
 50
21.6035289248
 51
90.0
  0
ARC
  5
6DF
100
AcDbEntity
  8
0
100
AcDbCircle
 62
7
  6
CONTINUOUS
 10
460.9945423616
 20
363.3841022722
 40
20.0
100
AcDbArc
 50
143.1301026443
 51
158.3964710752
  0
ARC
  5
6E0
100
AcDbEntity
  8
0
100
AcDbCircle
 62
7
  6
CONTINUOUS
 10
460.9945423616
 20
363.3841022722
 40
20.0
100
AcDbArc
 50
201.6035289248
 51
216.8698973557
  0
ARC
  5
6E1
100
AcDbEntity
  8
RUNDUNGEN
100
AcDbCircle
 62
7
  6
CONTINUOUS
 10
406.9945423616
 20
380.3841022722
 40
10.0
100
AcDbArc
 50
90.0
 51
180.0
  0
ARC
  5
6E2
100
AcDbEntity
  8
RUNDUNGEN
100
AcDbCircle
 62
7
  6
CONTINUOUS
 10
415.0945423616
 20
363.3841022722
 40
6.1
100
AcDbArc
 50
90.0
 51
270.0
  0
ARC
  5
6E3
100
AcDbEntity
  8
KONSTRUKTIONSELEMENTE
100
AcDbCircle
 62
7
  6
CONTINUOUS
 10
440.9945423616
 20
380.3841022722
 40
5.0
100
AcDbArc
 50
0.0000076395
 51
30.0000087357
  0
ARC
  5
6E4
100
AcDbEntity
  8
0
100
AcDbCircle
 62
7
  6
CONTINUOUS
 10
440.9945423616
 20
378.3841022722
 40
5.0
100
AcDbArc
 50
323.1301011937
 51
360.0
  0
ARC
  5
6E5
100
AcDbEntity
  8
RUNDUNGEN
100
AcDbCircle
 62
7
  6
CONTINUOUS
 10
438.6851412848
 20
386.3841022722
 40
4.0
100
AcDbArc
 50
30.0
 51
90.0
  0
ARC
  5
6E6
100
AcDbEntity
  8
0
100
AcDbCircle
 62
7
  6
CONTINUOUS
 10
413.6870336206
 20
381.0126413108
 40
2.4
100
AcDbArc
 50
0.0
 51
180.0
  0
ARC
  5
6E7
100
AcDbEntity
  8
0
100
AcDbCircle
 62
7
  6
CONTINUOUS
 10
407.3870336206
 20
381.2126413108
 40
2.2
100
AcDbArc
 50
90.0
 51
180.0
  0
ARC
  5
6E8
100
AcDbEntity
  8
0
100
AcDbCircle
 62
7
  6
CONTINUOUS
 10
407.3870336206
 20
379.6126413108
 40
2.2
100
AcDbArc
 50
180.0
 51
270.0
  0
ARC
  5
6E9
100
AcDbEntity
  8
RUNDUNGEN
100
AcDbCircle
 62
7
  6
CONTINUOUS
 10
440.5399585232
 20
371.4841022722
 40
2.0
100
AcDbArc
 50
270.0
 51
338.3964710752
  0
ARC
  5
6EA
100
AcDbEntity
  8
0
100
AcDbCircle
 62
7
  6
CONTINUOUS
 10
419.0370336206
 20
379.1626413108
 40
1.75
100
AcDbArc
 50
111.3550126288
 51
270.0
  0
ARC
  5
6EB
100
AcDbEntity
  8
0
100
AcDbCircle
 62
7
  6
CONTINUOUS
 10
407.6370336206
 20
379.6626413108
 40
1.25
100
AcDbArc
 50
180.0
 51
270.0
  0
ARC
  5
6EC
100
AcDbEntity
  8
0
100
AcDbCircle
 62
7
  6
CONTINUOUS
 10
407.6370336206
 20
381.1626413108
 40
1.25
100
AcDbArc
 50
90.0
 51
180.0
  0
ARC
  5
6ED
100
AcDbEntity
  8
0
100
AcDbCircle
 62
7
  6
CONTINUOUS
 10
413.6870336206
 20
381.0126413108
 40
1.2
100
AcDbArc
 50
0.0
 51
180.0
  0
ARC
  5
6EE
100
AcDbEntity
  8
0
100
AcDbCircle
 62
7
  6
CONTINUOUS
 10
420.0624601012
 20
381.9126413108
 40
1.0
100
AcDbArc
 50
210.0
 51
270.0
  0
ARC
  5
6EF
100
AcDbEntity
  8
0
100
AcDbCircle
 62
7
  6
CONTINUOUS
 10
419.4370336206
 20
379.1626413108
 40
0.75
100
AcDbArc
 50
90.0
 51
270.0
  0
ARC
  5
6F0
100
AcDbEntity
  8
RUNDUNGEN
100
AcDbCircle
 62
7
  6
CONTINUOUS
 10
545.0488006746
 20
299.1023377816
 40
11.0
100
AcDbArc
 50
179.9999959655
 51
187.4715551076
  0
ARC
  5
6F1
100
AcDbEntity
  8
BEZUGSACHSEN
100
AcDbCircle
 62
7
  6
CONTINUOUS
 10
545.0488006746
 20
299.1023377816
 40
11.0
100
AcDbArc
 50
179.9999959655
 51
187.4715551076
  0
ARC
  5
6F2
100
AcDbEntity
  8
RUNDUNGEN
100
AcDbCircle
 62
7
  6
CONTINUOUS
 10
527.0488012104
 20
267.1658611282
 40
10.999999631
100
AcDbArc
 50
0.0000253145
 51
7.4715847078
  0
ARC
  5
6F3
100
AcDbEntity
  8
0
100
AcDbCircle
 62
7
  6
CONTINUOUS
 10
524.0007745066
 20
335.3586255921
 40
10.089759746
100
AcDbArc
 50
0.1446722057
 51
36.1199078377
  0
ARC
  5
6F4
100
AcDbEntity
  8
0
100
AcDbCircle
 62
7
  6
CONTINUOUS
 10
524.0290518339
 20
335.3744004664
 40
10.0576231942
100
AcDbArc
 50
36.8796681268
 51
43.0137247204
  0
ARC
  5
6F5
100
AcDbEntity
  8
0
100
AcDbCircle
 62
7
  6
CONTINUOUS
 10
524.0368929187
 20
335.3812261069
 40
10.0472336041
100
AcDbArc
 50
39.9320301937
 51
43.0157670551
  0
ARC
  5
6F6
100
AcDbEntity
  8
0
100
AcDbCircle
 62
7
  6
CONTINUOUS
 10
524.0372874468
 20
335.3808409527
 40
10.0471703442
100
AcDbArc
 50
36.1405028065
 51
36.8604492333
  0
ARC
  5
6F7
100
AcDbEntity
  8
0
100
AcDbCircle
 62
7
  6
CONTINUOUS
 10
526.9902104894
 20
335.3644456145
 40
7.1003188078
100
AcDbArc
 50
359.9304289747
 51
0.1586189289
  0
ARC
  5
6F8
100
AcDbEntity
  8
RUNDUNGEN
100
AcDbCircle
 62
7
  6
CONTINUOUS
 10
543.148800573
 20
340.3841022722
 40
4.0
100
AcDbArc
 50
180.0
 51
270.0
  0
ARC
  5
6F9
100
AcDbEntity
  8
RUNDUNGEN
100
AcDbCircle
 62
7
  6
CONTINUOUS
 10
543.148800573
 20
386.3841022722
 40
4.0
100
AcDbArc
 50
90.0
 51
180.0
  0
ARC
  5
6FA
100
AcDbEntity
  8
BEZUGSACHSEN
100
AcDbCircle
 62
7
  6
CONTINUOUS
 10
536.048800573
 20
363.3841022722
 40
3.5
100
AcDbArc
 50
27.459141652
 51
332.540858348
  0
ARC
  5
6FB
100
AcDbEntity
  8
RUNDUNGEN
100
AcDbCircle
 62
7
  6
CONTINUOUS
 10
541.1487916009
 20
355.2841022722
 40
2.0
100
AcDbArc
 50
89.9999468634
 51
180.0000408837
  0
ARC
  5
6FC
100
AcDbEntity
  8
RUNDUNGEN
100
AcDbCircle
 62
7
  6
CONTINUOUS
 10
541.148800573
 20
371.4841022722
 40
2.0
100
AcDbArc
 50
179.9999795603
 51
269.9997961069
  0
ARC
  5
6FD
100
AcDbEntity
  8
RUNDUNGEN
100
AcDbCircle
 62
7
  6
CONTINUOUS
 10
539.648800573
 20
375.3953932235
 40
0.5
100
AcDbArc
 50
138.9746817227
 51
159.487340868
  0
ARC
  5
6FE
100
AcDbEntity
  8
BEZUGSACHSEN
100
AcDbCircle
 62
7
  6
CONTINUOUS
 10
554.048800573
 20
59.3841022722
 40
16.0
100
AcDbArc
 50
180.0
 51
183.4615384645
  0
ARC
  5
6FF
100
AcDbEntity
  8
RUNDUNGEN
100
AcDbCircle
 62
7
  6
CONTINUOUS
 10
554.048800573
 20
59.3841022722
 40
16.0
100
AcDbArc
 50
180.0
 51
360.0
  0
ARC
  5
700
100
AcDbEntity
  8
BEZUGSACHSEN
100
AcDbCircle
 62
7
  6
CONTINUOUS
 10
563.048800573
 20
299.1023385562
 40
11.0
100
AcDbArc
 50
352.5284408234
 51
360.0
  0
ARC
  5
701
100
AcDbEntity
  8
RUNDUNGEN
100
AcDbCircle
 62
7
  6
CONTINUOUS
 10
563.048800573
 20
299.1023385562
 40
11.0
100
AcDbArc
 50
352.5284408234
 51
360.0
  0
ARC
  5
702
100
AcDbEntity
  8
0
100
AcDbCircle
 62
7
  6
CONTINUOUS
 10
554.048800573
 20
363.3841022722
 40
31.0
100
AcDbArc
 50
223.0169493258
 51
225.2655783342
  0
ARC
  5
703
100
AcDbEntity
  8
0
100
AcDbCircle
 62
7
  6
CONTINUOUS
 10
554.048800573
 20
363.3841022722
 40
31.0
100
AcDbArc
 50
139.632735026
 51
222.6665927782
  0
ARC
  5
704
100
AcDbEntity
  8
RUNDUNGEN
100
AcDbCircle
 62
7
  6
CONTINUOUS
 10
554.048800573
 20
363.3841022722
 40
31.0
100
AcDbArc
 50
314.7344263618
 51
225.2656415661
  0
ARC
  5
705
100
AcDbEntity
  8
RUNDUNGEN
100
AcDbCircle
 62
7
  6
CONTINUOUS
 10
554.048800573
 20
363.3841022722
 40
26.0
100
AcDbArc
 50
124.9862024874
 51
235.0061730194
  0
ARC
  5
706
100
AcDbEntity
  8
RUNDUNGEN
100
AcDbCircle
 62
7
  6
CONTINUOUS
 10
554.048800573
 20
363.3841022722
 40
26.0
100
AcDbArc
 50
304.9940174232
 51
55.0137975126
  0
ARC
  5
707
100
AcDbEntity
  8
0
100
AcDbCircle
 62
7
  6
CONTINUOUS
 10
554.048800573
 20
363.3841022722
 40
19.5
100
AcDbArc
 50
350.3192095124
 51
9.6807904876
  0
ARC
  5
708
100
AcDbEntity
  8
RUNDUNGEN
100
AcDbCircle
 62
7
  6
CONTINUOUS
 10
564.948800573
 20
340.3841022722
 40
4.0
100
AcDbArc
 50
270.0
 51
360.0
  0
ARC
  5
709
100
AcDbEntity
  8
RUNDUNGEN
100
AcDbCircle
 62
7
  6
CONTINUOUS
 10
564.9487934459
 20
386.3841022722
 40
4.0
100
AcDbArc
 50
0.0
 51
89.9998979126
  0
ARC
  5
70A
100
AcDbEntity
  8
RUNDUNGEN
100
AcDbCircle
 62
7
  6
CONTINUOUS
 10
566.9488095585
 20
371.4841022722
 40
2.0
100
AcDbArc
 50
269.9999464878
 51
0.0000408968
  0
ARC
  5
70B
100
AcDbEntity
  8
RUNDUNGEN
100
AcDbCircle
 62
7
  6
CONTINUOUS
 10
566.948800573
 20
355.2841022722
 40
2.0
100
AcDbArc
 50
359.9999795538
 51
89.9997960959
  0
ARC
  5
70C
100
AcDbEntity
  8
0
100
AcDbCircle
 62
7
  6
CONTINUOUS
 10
568.448800573
 20
351.3728113209
 40
0.5
100
AcDbArc
 50
318.9746841818
 51
339.4873567967
  0
ARC
  5
70D
100
AcDbEntity
  8
RUNDUNGEN
100
AcDbCircle
 62
7
  6
CONTINUOUS
 10
581.048800573
 20
267.1658659882
 40
11.0
100
AcDbArc
 50
172.5284408234
 51
180.0
  0
ARC
  5
70E
100
AcDbEntity
  8
0
100
AcDbCircle
 62
7
  6
CONTINUOUS
 10
584.0968156277
 20
335.358627909
 40
10.0897486842
100
AcDbArc
 50
143.8802583877
 51
179.8553407925
  0
ARC
  5
70F
100
AcDbEntity
  8
0
100
AcDbCircle
 62
7
  6
CONTINUOUS
 10
584.0685148742
 20
335.3744312696
 40
10.0575763418
100
AcDbArc
 50
136.9862891023
 51
143.1198907399
  0
ARC
  5
710
100
AcDbEntity
  8
0
100
AcDbCircle
 62
7
  6
CONTINUOUS
 10
584.0605271339
 20
335.3806870396
 40
10.0474326522
100
AcDbArc
 50
143.1210892058
 51
143.8598885268
  0
ARC
  5
711
100
AcDbEntity
  8
0
100
AcDbCircle
 62
7
  6
CONTINUOUS
 10
584.0605914892
 20
335.381329034
 40
10.0470773736
100
AcDbArc
 50
136.9842273227
 51
140.0639300884
  0
ARC
  5
712
100
AcDbEntity
  8
0
100
AcDbCircle
 62
7
  6
CONTINUOUS
 10
581.1073722842
 20
335.3644398307
 40
7.1003004073
100
AcDbArc
 50
179.8413339875
 51
180.0695293311
  0
ARC
  5
713
100
AcDbEntity
  8
BEZUGSACHSEN
100
AcDbCircle
 62
7
  6
CONTINUOUS
 10
572.048800573
 20
363.3841022722
 40
3.5
100
AcDbArc
 50
207.459141652
 51
152.540858348
  0
ARC
  5
714
100
AcDbEntity
  8
RUNDUNGEN
100
AcDbCircle
 62
7
  6
CONTINUOUS
 10
195.4945423616
 20
-98.1325576195
 40
5.0
100
AcDbArc
 50
180.0
 51
270.0
  0
ARC
  5
715
100
AcDbEntity
  8
KONSTRUKTIONSELEMENTE
100
AcDbCircle
 62
7
  6
CONTINUOUS
 10
-16.5501859379
 20
-82.0325576195
 40
5.0
100
AcDbArc
 50
227.2836021611
 51
270.0
  0
ARC
  5
716
100
AcDbEntity
  8
RUNDUNGEN
100
AcDbCircle
 62
7
  6
CONTINUOUS
 10
16.9945423616
 20
-83.0325576195
 40
4.0
100
AcDbArc
 50
270.1822152084
 51
360.0
  0
ARC
  5
717
100
AcDbEntity
  8
RUNDUNGEN
100
AcDbCircle
 62
7
  6
CONTINUOUS
 10
95.5153549541
 20
-88.1582276002
 40
2.0072935701
100
AcDbArc
 50
343.7141216234
 51
345.0705345368
  0
ARC
  5
718
100
AcDbEntity
  8
RUNDUNGEN
100
AcDbCircle
 62
7
  6
CONTINUOUS
 10
45.9945423616
 20
-96.1325576195
 40
2.0
100
AcDbArc
 50
180.0
 51
270.0
  0
ARC
  5
719
100
AcDbEntity
  8
RUNDUNGEN
100
AcDbCircle
 62
7
  6
CONTINUOUS
 10
22.8928544234
 20
-84.1325560391
 40
1.9999997366
100
AcDbArc
 50
90.0002068556
 51
169.4361048428
  0
ARC
  5
71A
100
AcDbEntity
  8
RUNDUNGEN
100
AcDbCircle
 62
7
  6
CONTINUOUS
 10
95.5224012744
 20
-88.1603976152
 40
1.9999254977
100
AcDbArc
 50
270.0055657425
 51
343.717185386
  0
ARC
  5
71B
100
AcDbEntity
  8
RUNDUNGEN
100
AcDbCircle
 62
7
  6
CONTINUOUS
 10
185.7258454706
 20
-83.8483870581
 40
1.9995328355
100
AcDbArc
 50
241.4653272113
 51
270.0038601913
  0
ARC
  5
71C
100
AcDbEntity
  8
RUNDUNGEN
100
AcDbCircle
 62
7
  6
CONTINUOUS
 10
71.9945423616
 20
-95.1325576195
 40
1.0
100
AcDbArc
 50
180.0
 51
270.0
  0
ARC
  5
71D
100
AcDbEntity
  8
RUNDUNGEN
100
AcDbCircle
 62
7
  6
CONTINUOUS
 10
50.4945423616
 20
-97.6325576195
 40
0.5
100
AcDbArc
 50
270.0
 51
360.0
  0
ARC
  5
71E
100
AcDbEntity
  8
RUNDUNGEN
100
AcDbCircle
 62
7
  6
CONTINUOUS
 10
-14.0054576384
 20
-72.1325576195
 40
14.0
100
AcDbArc
 50
138.3812050013
 51
142.9412426726
  0
ARC
  5
71F
100
AcDbEntity
  8
RUNDUNGEN
100
AcDbCircle
 62
7
  6
CONTINUOUS
 10
-14.0054576384
 20
-72.1325576195
 40
14.0
100
AcDbArc
 50
143.722680892
 51
221.6118541062
  0
ARC
  5
720
100
AcDbEntity
  8
0
100
AcDbCircle
 62
7
  6
CONTINUOUS
 10
-14.0054576384
 20
-72.1325576195
 40
14.0
100
AcDbArc
 50
148.4971144677
 51
153.3772973036
  0
ARC
  5
721
100
AcDbEntity
  8
0
100
AcDbCircle
 62
7
  6
CONTINUOUS
 10
-14.0054576384
 20
-72.1325576195
 40
14.0
100
AcDbArc
 50
153.9105547908
 51
202.9998303251
  0
ARC
  5
722
100
AcDbEntity
  8
0
100
AcDbCircle
 62
7
  6
CONTINUOUS
 10
-14.0054576384
 20
-72.1325576195
 40
14.0
100
AcDbArc
 50
211.6111009042
 51
216.2823254663
  0
ARC
  5
723
100
AcDbEntity
  8
0
100
AcDbCircle
 62
7
  6
CONTINUOUS
 10
-14.0054576384
 20
-72.1325576195
 40
14.0
100
AcDbArc
 50
217.0514153975
 51
221.6118541062
  0
ARC
  5
724
100
AcDbEntity
  8
KONSTRUKTIONSELEMENTE
100
AcDbCircle
 62
7
  6
CONTINUOUS
 10
-14.0054576384
 20
-72.1325576195
 40
14.0
100
AcDbArc
 50
132.7163978389
 51
227.2836021611
  0
ARC
  5
725
100
AcDbEntity
  8
RUNDUNGEN
100
AcDbCircle
 62
7
  6
CONTINUOUS
 10
-16.5501859379
 20
-62.2325576195
 40
5.0
100
AcDbArc
 50
97.1193996398
 51
111.3581989194
  0
ARC
  5
726
100
AcDbEntity
  8
RUNDUNGEN
100
AcDbCircle
 62
7
  6
CONTINUOUS
 10
-16.5501859379
 20
-62.2325576195
 40
5.0
100
AcDbArc
 50
125.5969981991
 51
132.7163978389
  0
ARC
  5
727
100
AcDbEntity
  8
0
100
AcDbCircle
 62
7
  6
CONTINUOUS
 10
-16.5501859379
 20
-62.2325576195
 40
5.0
100
AcDbArc
 50
90.0
 51
111.3581989194
  0
ARC
  5
728
100
AcDbEntity
  8
0
100
AcDbCircle
 62
7
  6
CONTINUOUS
 10
-16.5501859379
 20
-62.2325576195
 40
5.0
100
AcDbArc
 50
118.4775985592
 51
132.7163978389
  0
ARC
  5
729
100
AcDbEntity
  8
KONSTRUKTIONSELEMENTE
100
AcDbCircle
 62
7
  6
CONTINUOUS
 10
-16.5501859379
 20
-62.2325576195
 40
5.0
100
AcDbArc
 50
90.0
 51
132.7163978389
  0
ARC
  5
72A
100
AcDbEntity
  8
RUNDUNGEN
100
AcDbCircle
 62
7
  6
CONTINUOUS
 10
16.9945423616
 20
-61.2325576195
 40
4.0
100
AcDbArc
 50
0.0
 51
90.0
  0
ARC
  5
72B
100
AcDbEntity
  8
RUNDUNGEN
100
AcDbCircle
 62
7
  6
CONTINUOUS
 10
26.9945423616
 20
-64.1325576195
 40
3.0
100
AcDbArc
 50
198.0377813731
 51
270.0
  0
ARC
  5
72C
100
AcDbEntity
  8
RUNDUNGEN
100
AcDbCircle
 62
7
  6
CONTINUOUS
 10
22.8928572949
 20
-60.1325597363
 40
1.9999996472
100
AcDbArc
 50
190.5638649724
 51
269.9997108829
  0
ARC
  5
72D
100
AcDbEntity
  8
RUNDUNGEN
100
AcDbCircle
 62
7
  6
CONTINUOUS
 10
45.9945423616
 20
-48.1325576195
 40
2.0
100
AcDbArc
 50
90.0
 51
180.0
  0
ARC
  5
72E
100
AcDbEntity
  8
RUNDUNGEN
100
AcDbCircle
 62
7
  6
CONTINUOUS
 10
71.9945423616
 20
-49.1325576195
 40
1.0
100
AcDbArc
 50
90.0
 51
180.0
  0
ARC
  5
72F
100
AcDbEntity
  8
RUNDUNGEN
100
AcDbCircle
 62
7
  6
CONTINUOUS
 10
50.4945423616
 20
-46.6325576195
 40
0.5
100
AcDbArc
 50
0.0
 51
90.0
  0
ARC
  5
730
100
AcDbEntity
  8
RUNDUNGEN
100
AcDbCircle
 62
7
  6
CONTINUOUS
 10
195.4945423616
 20
-46.1325576195
 40
5.0
100
AcDbArc
 50
90.0
 51
180.0
  0
ARC
  5
731
100
AcDbEntity
  8
RUNDUNGEN
100
AcDbCircle
 62
7
  6
CONTINUOUS
 10
93.6399243464
 20
-48.1325576195
 40
5.0
100
AcDbArc
 50
235.0
 51
270.0
  0
ARC
  5
732
100
AcDbEntity
  8
RUNDUNGEN
100
AcDbCircle
 62
7
  6
CONTINUOUS
 10
185.7259801938
 20
-54.6325576195
 40
2.0
100
AcDbArc
 50
90.0
 51
110.0
  0
ARC
  5
733
100
AcDbEntity
  8
RUNDUNGEN
100
AcDbCircle
 62
7
  6
CONTINUOUS
 10
183.6469335612
 20
-51.1325576195
 40
2.0
100
AcDbArc
 50
270.0
 51
290.0
  0
ARC
  5
734
100
AcDbEntity
  8
BEZUGSACHSEN
100
AcDbCircle
 62
7
  6
CONTINUOUS
 10
221.4945423616
 20
-98.1325576195
 40
5.0
100
AcDbArc
 50
270.0
 51
360.0
  0
ARC
  5
735
100
AcDbEntity
  8
KONSTRUKTIONSELEMENTE
100
AcDbCircle
 62
7
  6
CONTINUOUS
 10
434.539270661
 20
-82.0325576195
 40
5.0
100
AcDbArc
 50
270.0
 51
312.7163978389
  0
ARC
  5
736
100
AcDbEntity
  8
0
100
AcDbCircle
 62
7
  6
CONTINUOUS
 10
323.3491603767
 20
-96.1325576195
 40
5.0
100
AcDbArc
 50
64.1580672368
 51
90.0
  0
ARC
  5
737
100
AcDbEntity
  8
RUNDUNGEN
100
AcDbCircle
 62
7
  6
CONTINUOUS
 10
400.9945423616
 20
-83.0325576195
 40
4.0
100
AcDbArc
 50
180.0
 51
270.0
  0
ARC
  5
738
100
AcDbEntity
  8
RUNDUNGEN
100
AcDbCircle
 62
7
  6
CONTINUOUS
 10
321.4945423616
 20
-89.1325576195
 40
2.0
100
AcDbArc
 50
180.0
 51
270.0
  0
ARC
  5
739
100
AcDbEntity
  8
RUNDUNGEN
100
AcDbCircle
 62
7
  6
CONTINUOUS
 10
395.0962302957
 20
-84.132556038
 40
1.9999997364
100
AcDbArc
 50
10.5638951069
 51
89.9997930298
  0
ARC
  5
73A
100
AcDbEntity
  8
RUNDUNGEN
100
AcDbCircle
 62
7
  6
CONTINUOUS
 10
231.2632392525
 20
-83.8483870582
 40
1.9995328354
100
AcDbArc
 50
269.9961398081
 51
298.5346729466
  0
ARC
  5
73B
100
AcDbEntity
  8
RUNDUNGEN
100
AcDbCircle
 62
7
  6
CONTINUOUS
 10
345.9945423616
 20
-90.6325576195
 40
1.0
100
AcDbArc
 50
270.0
 51
360.0
  0
ARC
  5
73C
100
AcDbEntity
  8
0
100
AcDbCircle
 62
7
  6
CONTINUOUS
 10
431.9945423616
 20
-72.1325576195
 40
14.0
100
AcDbArc
 50
37.0913316985
 51
41.6372679205
  0
ARC
  5
73D
100
AcDbEntity
  8
0
100
AcDbCircle
 62
7
  6
CONTINUOUS
 10
431.9945423616
 20
-72.1325576195
 40
14.0
100
AcDbArc
 50
23.0015192275
 51
36.3268428405
  0
ARC
  5
73E
100
AcDbEntity
  8
0
100
AcDbCircle
 62
7
  6
CONTINUOUS
 10
431.9945423616
 20
-72.1325576195
 40
14.0
100
AcDbArc
 50
318.3668425808
 51
336.9982914841
  0
ARC
  5
73F
100
AcDbEntity
  8
KONSTRUKTIONSELEMENTE
100
AcDbCircle
 62
7
  6
CONTINUOUS
 10
431.9945423616
 20
-72.1325576195
 40
14.0
100
AcDbArc
 50
312.7163978389
 51
47.2836021611
  0
ARC
  5
740
100
AcDbEntity
  8
BEZUGSACHSEN
100
AcDbCircle
 62
7
  6
CONTINUOUS
 10
221.4945423616
 20
-46.1325576195
 40
5.0
100
AcDbArc
 50
0.0
 51
90.0
  0
ARC
  5
741
100
AcDbEntity
  8
KONSTRUKTIONSELEMENTE
100
AcDbCircle
 62
7
  6
CONTINUOUS
 10
434.539270661
 20
-62.2325576195
 40
5.0
100
AcDbArc
 50
47.2836021611
 51
90.0
  0
ARC
  5
742
100
AcDbEntity
  8
0
100
AcDbCircle
 62
7
  6
CONTINUOUS
 10
323.3491603767
 20
-48.1325576195
 40
5.0
100
AcDbArc
 50
270.0
 51
295.8419327632
  0
ARC
  5
743
100
AcDbEntity
  8
RUNDUNGEN
100
AcDbCircle
 62
7
  6
CONTINUOUS
 10
400.9945423616
 20
-61.2325576195
 40
4.0
100
AcDbArc
 50
90.0
 51
180.0
  0
ARC
  5
744
100
AcDbEntity
  8
RUNDUNGEN
100
AcDbCircle
 62
7
  6
CONTINUOUS
 10
267.6170492072
 20
-55.1325581414
 40
2.0000032256
100
AcDbArc
 50
89.9999296797
 51
141.3148450367
  0
ARC
  5
745
100
AcDbEntity
  8
RUNDUNGEN
100
AcDbCircle
 62
7
  6
CONTINUOUS
 10
231.2631045293
 20
-54.6325576195
 40
2.0
100
AcDbArc
 50
70.0
 51
90.0
  0
ARC
  5
746
100
AcDbEntity
  8
RUNDUNGEN
100
AcDbCircle
 62
7
  6
CONTINUOUS
 10
233.3421511619
 20
-51.1325576195
 40
2.0
100
AcDbArc
 50
250.0
 51
270.0
  0
ARC
  5
747
100
AcDbEntity
  8
RUNDUNGEN
100
AcDbCircle
 62
7
  6
CONTINUOUS
 10
264.4945423616
 20
-52.6325576195
 40
2.0
100
AcDbArc
 50
269.9979623464
 51
321.316292637
  0
ARC
  5
748
100
AcDbEntity
  8
RUNDUNGEN
100
AcDbCircle
 62
7
  6
CONTINUOUS
 10
238.4945423616
 20
-52.6325576195
 40
2.0
100
AcDbArc
 50
218.683612922
 51
269.9991338747
  0
ARC
  5
749
100
AcDbEntity
  8
RUNDUNGEN
100
AcDbCircle
 62
7
  6
CONTINUOUS
 10
395.0962274208
 20
-60.132559738
 40
1.9999996469
100
AcDbArc
 50
270.0002893319
 51
349.4361351161
  0
ARC
  5
74A
100
AcDbEntity
  8
RUNDUNGEN
100
AcDbCircle
 62
7
  6
CONTINUOUS
 10
345.9945423616
 20
-53.6325576195
 40
1.0
100
AcDbArc
 50
0.0
 51
90.0
  0
ARC
  5
74B
100
AcDbEntity
  8
RUNDUNGEN
100
AcDbCircle
 62
7
  6
CONTINUOUS
 10
93.6399243464
 20
450.1794049361
 40
5.0
100
AcDbArc
 50
90.0
 51
125.0
  0
ARC
  5
74C
100
AcDbEntity
  8
RUNDUNGEN
100
AcDbCircle
 62
7
  6
CONTINUOUS
 10
45.9945423616
 20
450.1794049361
 40
2.0
100
AcDbArc
 50
180.0
 51
270.0
  0
ARC
  5
74D
100
AcDbEntity
  8
RUNDUNGEN
100
AcDbCircle
 62
7
  6
CONTINUOUS
 10
71.9945423616
 20
451.1794049361
 40
1.0
100
AcDbArc
 50
180.0
 51
270.0
  0
ARC
  5
74E
100
AcDbEntity
  8
RUNDUNGEN
100
AcDbCircle
 62
7
  6
CONTINUOUS
 10
50.4945423616
 20
448.6794049361
 40
0.5
100
AcDbArc
 50
270.0
 51
360.0
  0
ARC
  5
74F
100
AcDbEntity
  8
RUNDUNGEN
100
AcDbCircle
 62
7
  6
CONTINUOUS
 10
-16.5501859379
 20
464.2794049361
 40
5.0
100
AcDbArc
 50
227.2836021611
 51
270.0
  0
ARC
  5
750
100
AcDbEntity
  8
0
100
AcDbCircle
 62
7
  6
CONTINUOUS
 10
-16.5501859379
 20
464.2794049361
 40
5.0
100
AcDbArc
 50
227.2836021611
 51
270.0
  0
ARC
  5
751
100
AcDbEntity
  8
KONSTRUKTIONSELEMENTE
100
AcDbCircle
 62
7
  6
CONTINUOUS
 10
-16.5501859379
 20
464.2794049361
 40
5.0
100
AcDbArc
 50
227.2836021611
 51
270.0
  0
ARC
  5
752
100
AcDbEntity
  8
RUNDUNGEN
100
AcDbCircle
 62
7
  6
CONTINUOUS
 10
16.9945423616
 20
463.2794049361
 40
4.0
100
AcDbArc
 50
270.0
 51
360.0
  0
ARC
  5
753
100
AcDbEntity
  8
RUNDUNGEN
100
AcDbCircle
 62
7
  6
CONTINUOUS
 10
22.8928572949
 20
462.1794070528
 40
1.9999996472
100
AcDbArc
 50
90.0002891171
 51
169.4361350276
  0
ARC
  5
754
100
AcDbEntity
  8
RUNDUNGEN
100
AcDbCircle
 62
7
  6
CONTINUOUS
 10
195.4945423616
 20
448.1794049361
 40
5.0
100
AcDbArc
 50
180.0
 51
270.0
  0
ARC
  5
755
100
AcDbEntity
  8
RUNDUNGEN
100
AcDbCircle
 62
7
  6
CONTINUOUS
 10
185.7259801938
 20
456.6794049361
 40
2.0
100
AcDbArc
 50
250.0
 51
270.0
  0
ARC
  5
756
100
AcDbEntity
  8
RUNDUNGEN
100
AcDbCircle
 62
7
  6
CONTINUOUS
 10
183.6469335612
 20
453.1794049361
 40
2.0
100
AcDbArc
 50
70.0
 51
90.0
  0
ARC
  5
757
100
AcDbEntity
  8
0
100
AcDbCircle
 62
7
  6
CONTINUOUS
 10
202.4945423616
 20
466.1794049361
 40
12.0
100
AcDbArc
 50
251.446995465
 51
257.8532075052
  0
ARC
  5
758
100
AcDbEntity
  8
0
100
AcDbCircle
 62
7
  6
CONTINUOUS
 10
202.4945423616
 20
466.1794049361
 40
12.0
100
AcDbArc
 50
258.3961535075
 51
260.6236079605
  0
ARC
  5
759
100
AcDbEntity
  8
0
100
AcDbCircle
 62
7
  6
CONTINUOUS
 10
202.4945423616
 20
466.1794049361
 40
12.0
100
AcDbArc
 50
263.9044128711
 51
265.2207656716
  0
ARC
  5
75A
100
AcDbEntity
  8
RUNDUNGEN
100
AcDbCircle
 62
7
  6
CONTINUOUS
 10
202.4945423616
 20
466.1794049361
 40
12.0
100
AcDbArc
 50
180.0
 51
270.0
  0
ARC
  5
75B
100
AcDbEntity
  8
RUNDUNGEN
100
AcDbCircle
 62
7
  6
CONTINUOUS
 10
207.4945423616
 20
466.1794049361
 40
8.0
100
AcDbArc
 50
180.0
 51
270.0
  0
ARC
  5
75C
100
AcDbEntity
  8
RUNDUNGEN
100
AcDbCircle
 62
7
  6
CONTINUOUS
 10
-14.0054576384
 20
474.1794049361
 40
14.0
100
AcDbArc
 50
217.0587573053
 51
221.618794966
  0
ARC
  5
75D
100
AcDbEntity
  8
RUNDUNGEN
100
AcDbCircle
 62
7
  6
CONTINUOUS
 10
-14.0054576384
 20
474.1794049361
 40
14.0
100
AcDbArc
 50
201.8937253897
 51
216.2773191431
  0
ARC
  5
75E
100
AcDbEntity
  8
0
100
AcDbCircle
 62
7
  6
CONTINUOUS
 10
-14.0054576384
 20
474.1794049361
 40
14.0
100
AcDbArc
 50
217.0587573053
 51
221.618794966
  0
ARC
  5
75F
100
AcDbEntity
  8
0
100
AcDbCircle
 62
7
  6
CONTINUOUS
 10
-14.0054576384
 20
474.1794049361
 40
14.0
100
AcDbArc
 50
201.8937253897
 51
216.2773191431
  0
ARC
  5
760
100
AcDbEntity
  8
0
100
AcDbCircle
 62
7
  6
CONTINUOUS
 10
-14.0054576384
 20
474.1794049361
 40
14.0
100
AcDbArc
 50
138.3881458733
 51
157.0001696749
  0
ARC
  5
761
100
AcDbEntity
  8
KONSTRUKTIONSELEMENTE
100
AcDbCircle
 62
7
  6
CONTINUOUS
 10
-14.0054576384
 20
474.1794049361
 40
14.0
100
AcDbArc
 50
132.7163978389
 51
227.2836021611
  0
ARC
  5
762
100
AcDbEntity
  8
KONSTRUKTIONSELEMENTE
100
AcDbCircle
 62
7
  6
CONTINUOUS
 10
-16.5501859379
 20
484.0794049361
 40
5.0
100
AcDbArc
 50
90.0
 51
132.7163978389
  0
ARC
  5
763
100
AcDbEntity
  8
RUNDUNGEN
100
AcDbCircle
 62
7
  6
CONTINUOUS
 10
16.9945423616
 20
485.0794049361
 40
4.0
100
AcDbArc
 50
0.0
 51
90.0
  0
ARC
  5
764
100
AcDbEntity
  8
RUNDUNGEN
100
AcDbCircle
 62
7
  6
CONTINUOUS
 10
26.9945423616
 20
482.1794049361
 40
3.0
100
AcDbArc
 50
198.0377813731
 51
270.0
  0
ARC
  5
765
100
AcDbEntity
  8
RUNDUNGEN
100
AcDbCircle
 62
7
  6
CONTINUOUS
 10
22.8928544234
 20
486.1794033556
 40
1.9999997366
100
AcDbArc
 50
190.5638951572
 51
269.9997931444
  0
ARC
  5
766
100
AcDbEntity
  8
RUNDUNGEN
100
AcDbCircle
 62
7
  6
CONTINUOUS
 10
45.9945423616
 20
498.1794049361
 40
2.0
100
AcDbArc
 50
90.0
 51
180.0
  0
ARC
  5
767
100
AcDbEntity
  8
RUNDUNGEN
100
AcDbCircle
 62
7
  6
CONTINUOUS
 10
71.9945423616
 20
497.1794049361
 40
1.0
100
AcDbArc
 50
90.0
 51
180.0
  0
ARC
  5
768
100
AcDbEntity
  8
RUNDUNGEN
100
AcDbCircle
 62
7
  6
CONTINUOUS
 10
50.4945423616
 20
499.6794049361
 40
0.5
100
AcDbArc
 50
0.0
 51
90.0
  0
ARC
  5
769
100
AcDbEntity
  8
RUNDUNGEN
100
AcDbCircle
 62
7
  6
CONTINUOUS
 10
202.4945423616
 20
482.1794049361
 40
12.0
100
AcDbArc
 50
90.0
 51
180.0
  0
ARC
  5
76A
100
AcDbEntity
  8
0
100
AcDbCircle
 62
7
  6
CONTINUOUS
 10
202.4945423616
 20
482.1794049361
 40
12.0
100
AcDbArc
 50
102.1467811479
 51
108.553004535
  0
ARC
  5
76B
100
AcDbEntity
  8
0
100
AcDbCircle
 62
7
  6
CONTINUOUS
 10
202.4945423616
 20
482.1794049361
 40
12.0
100
AcDbArc
 50
99.3753622801
 51
101.0409606916
  0
ARC
  5
76C
100
AcDbEntity
  8
0
100
AcDbCircle
 62
7
  6
CONTINUOUS
 10
202.4945423616
 20
482.1794049361
 40
12.0
100
AcDbArc
 50
94.7792342797
 51
96.0951387977
  0
ARC
  5
76D
100
AcDbEntity
  8
RUNDUNGEN
100
AcDbCircle
 62
7
  6
CONTINUOUS
 10
207.4945423616
 20
482.1794049361
 40
8.0
100
AcDbArc
 50
90.0
 51
180.0
  0
ARC
  5
76E
100
AcDbEntity
  8
RUNDUNGEN
100
AcDbCircle
 62
7
  6
CONTINUOUS
 10
185.7258454706
 20
485.8952343748
 40
1.9995328354
100
AcDbArc
 50
89.9961398081
 51
118.5346729468
  0
ARC
  5
76F
100
AcDbEntity
  8
RUNDUNGEN
100
AcDbCircle
 62
7
  6
CONTINUOUS
 10
195.4945423616
 20
500.1794049361
 40
5.0
100
AcDbArc
 50
90.0
 51
180.0
  0
ARC
  5
770
100
AcDbEntity
  8
RUNDUNGEN
100
AcDbCircle
 62
7
  6
CONTINUOUS
 10
95.5223444585
 20
490.2071559497
 40
2.0000267643
100
AcDbArc
 50
14.8700385267
 51
89.9994734225
  0
ARC
  5
771
100
AcDbEntity
  8
BEZUGSACHSEN
100
AcDbCircle
 62
7
  6
CONTINUOUS
 10
221.4945423616
 20
448.1794049361
 40
5.0
100
AcDbArc
 50
270.0
 51
360.0
  0
ARC
  5
772
100
AcDbEntity
  8
RUNDUNGEN
100
AcDbCircle
 62
7
  6
CONTINUOUS
 10
231.2631045293
 20
456.6794049361
 40
2.0
100
AcDbArc
 50
270.0
 51
290.0
  0
ARC
  5
773
100
AcDbEntity
  8
RUNDUNGEN
100
AcDbCircle
 62
7
  6
CONTINUOUS
 10
233.3421511619
 20
453.1794049361
 40
2.0
100
AcDbArc
 50
90.0
 51
110.0
  0
ARC
  5
774
100
AcDbEntity
  8
RUNDUNGEN
100
AcDbCircle
 62
7
  6
CONTINUOUS
 10
264.4945423616
 20
454.6794049361
 40
2.0
100
AcDbArc
 50
38.683707363
 51
90.0020376536
  0
ARC
  5
775
100
AcDbEntity
  8
RUNDUNGEN
100
AcDbCircle
 62
7
  6
CONTINUOUS
 10
238.4945423616
 20
454.6794049361
 40
2.0
100
AcDbArc
 50
90.0008661253
 51
141.316387078
  0
ARC
  5
776
100
AcDbEntity
  8
BEZUGSACHSEN
100
AcDbCircle
 62
7
  6
CONTINUOUS
 10
214.4945423616
 20
466.1794049361
 40
12.0
100
AcDbArc
 50
270.0
 51
360.0
  0
ARC
  5
777
100
AcDbEntity
  8
0
100
AcDbCircle
 62
7
  6
CONTINUOUS
 10
214.4945423616
 20
466.1794049361
 40
12.0
100
AcDbArc
 50
282.1467924948
 51
288.553004535
  0
ARC
  5
778
100
AcDbEntity
  8
0
100
AcDbCircle
 62
7
  6
CONTINUOUS
 10
214.4945423616
 20
466.1794049361
 40
12.0
100
AcDbArc
 50
279.3763920395
 51
281.0420286215
  0
ARC
  5
779
100
AcDbEntity
  8
0
100
AcDbCircle
 62
7
  6
CONTINUOUS
 10
214.4945423616
 20
466.1794049361
 40
12.0
100
AcDbArc
 50
274.7792343284
 51
276.0955871289
  0
ARC
  5
77A
100
AcDbEntity
  8
BEZUGSACHSEN
100
AcDbCircle
 62
7
  6
CONTINUOUS
 10
209.4945423616
 20
466.1794049361
 40
8.0
100
AcDbArc
 50
270.0
 51
360.0
  0
ARC
  5
77B
100
AcDbEntity
  8
RUNDUNGEN
100
AcDbCircle
 62
7
  6
CONTINUOUS
 10
267.6170492072
 20
457.1794054579
 40
2.0000032256
100
AcDbArc
 50
218.6851549633
 51
270.0000703203
  0
ARC
  5
77C
100
AcDbEntity
  8
0
100
AcDbCircle
 62
7
  6
CONTINUOUS
 10
323.3491603767
 20
450.1794049361
 40
5.0
100
AcDbArc
 50
64.1580672368
 51
90.0
  0
ARC
  5
77D
100
AcDbEntity
  8
RUNDUNGEN
100
AcDbCircle
 62
7
  6
CONTINUOUS
 10
345.9945423616
 20
455.6794049361
 40
1.0
100
AcDbArc
 50
270.0
 51
360.0
  0
ARC
  5
77E
100
AcDbEntity
  8
RUNDUNGEN
100
AcDbCircle
 62
7
  6
CONTINUOUS
 10
434.539270661
 20
464.2794049361
 40
5.0
100
AcDbArc
 50
270.0
 51
312.7163978389
  0
ARC
  5
77F
100
AcDbEntity
  8
0
100
AcDbCircle
 62
7
  6
CONTINUOUS
 10
434.539270661
 20
464.2794049361
 40
5.0
100
AcDbArc
 50
270.0
 51
312.7163978389
  0
ARC
  5
780
100
AcDbEntity
  8
KONSTRUKTIONSELEMENTE
100
AcDbCircle
 62
7
  6
CONTINUOUS
 10
434.539270661
 20
464.2794049361
 40
5.0
100
AcDbArc
 50
270.0
 51
312.7163978389
  0
ARC
  5
781
100
AcDbEntity
  8
RUNDUNGEN
100
AcDbCircle
 62
7
  6
CONTINUOUS
 10
400.9945423616
 20
463.2794049361
 40
4.0
100
AcDbArc
 50
180.0
 51
270.0
  0
ARC
  5
782
100
AcDbEntity
  8
RUNDUNGEN
100
AcDbCircle
 62
7
  6
CONTINUOUS
 10
395.0962274208
 20
462.1794070546
 40
1.9999996469
100
AcDbArc
 50
10.5638648839
 51
89.9997106681
  0
ARC
  5
783
100
AcDbEntity
  8
0
100
AcDbCircle
 62
7
  6
CONTINUOUS
 10
214.4945423616
 20
482.1794049361
 40
12.0
100
AcDbArc
 50
71.446995465
 51
77.8532188521
  0
ARC
  5
784
100
AcDbEntity
  8
0
100
AcDbCircle
 62
7
  6
CONTINUOUS
 10
214.4945423616
 20
482.1794049361
 40
12.0
100
AcDbArc
 50
78.397196836
 51
80.6246377199
  0
ARC
  5
785
100
AcDbEntity
  8
0
100
AcDbCircle
 62
7
  6
CONTINUOUS
 10
214.4945423616
 20
482.1794049361
 40
12.0
100
AcDbArc
 50
83.9048612023
 51
85.2207657203
  0
ARC
  5
786
100
AcDbEntity
  8
BEZUGSACHSEN
100
AcDbCircle
 62
7
  6
CONTINUOUS
 10
214.4945423616
 20
482.1794049361
 40
12.0
100
AcDbArc
 50
0.0
 51
90.0
  0
ARC
  5
787
100
AcDbEntity
  8
BEZUGSACHSEN
100
AcDbCircle
 62
7
  6
CONTINUOUS
 10
209.4945423616
 20
482.1794049361
 40
8.0
100
AcDbArc
 50
0.0
 51
90.0
  0
ARC
  5
788
100
AcDbEntity
  8
RUNDUNGEN
100
AcDbCircle
 62
7
  6
CONTINUOUS
 10
231.2632392525
 20
485.8952343747
 40
1.9995328355
100
AcDbArc
 50
61.4653271869
 51
90.0038601914
  0
ARC
  5
789
100
AcDbEntity
  8
BEZUGSACHSEN
100
AcDbCircle
 62
7
  6
CONTINUOUS
 10
221.4945423616
 20
500.1794049361
 40
5.0
100
AcDbArc
 50
0.0
 51
90.0
  0
ARC
  5
78A
100
AcDbEntity
  8
RUNDUNGEN
100
AcDbCircle
 62
7
  6
CONTINUOUS
 10
321.4945423616
 20
491.1794049361
 40
2.0
100
AcDbArc
 50
90.0
 51
180.0
  0
ARC
  5
78B
100
AcDbEntity
  8
RUNDUNGEN
100
AcDbCircle
 62
7
  6
CONTINUOUS
 10
431.9945423616
 20
474.1794049361
 40
14.0
100
AcDbArc
 50
318.3627320472
 51
322.9086682797
  0
ARC
  5
78C
100
AcDbEntity
  8
RUNDUNGEN
100
AcDbCircle
 62
7
  6
CONTINUOUS
 10
431.9945423616
 20
474.1794049361
 40
14.0
100
AcDbArc
 50
323.6731571957
 51
336.9984807725
  0
ARC
  5
78D
100
AcDbEntity
  8
RUNDUNGEN
100
AcDbCircle
 62
7
  6
CONTINUOUS
 10
431.9945423616
 20
474.1794049361
 40
14.0
100
AcDbArc
 50
23.0017085159
 51
41.6331573994
  0
ARC
  5
78E
100
AcDbEntity
  8
0
100
AcDbCircle
 62
7
  6
CONTINUOUS
 10
431.9945423616
 20
474.1794049361
 40
14.0
100
AcDbArc
 50
318.3627320472
 51
322.9086682797
  0
ARC
  5
78F
100
AcDbEntity
  8
0
100
AcDbCircle
 62
7
  6
CONTINUOUS
 10
431.9945423616
 20
474.1794049361
 40
14.0
100
AcDbArc
 50
333.8660065086
 51
336.9984807725
  0
ARC
  5
790
100
AcDbEntity
  8
KONSTRUKTIONSELEMENTE
100
AcDbCircle
 62
7
  6
CONTINUOUS
 10
431.9945423616
 20
474.1794049361
 40
14.0
100
AcDbArc
 50
312.7163978389
 51
47.2836021611
  0
ARC
  5
791
100
AcDbEntity
  8
KONSTRUKTIONSELEMENTE
100
AcDbCircle
 62
7
  6
CONTINUOUS
 10
434.539270661
 20
484.0794049361
 40
5.0
100
AcDbArc
 50
47.2836021611
 51
90.0
  0
ARC
  5
792
100
AcDbEntity
  8
RUNDUNGEN
100
AcDbCircle
 62
7
  6
CONTINUOUS
 10
400.9945423616
 20
485.0794049361
 40
4.0
100
AcDbArc
 50
90.0
 51
180.0
  0
ARC
  5
793
100
AcDbEntity
  8
RUNDUNGEN
100
AcDbCircle
 62
7
  6
CONTINUOUS
 10
395.0962302957
 20
486.1794033546
 40
1.9999997364
100
AcDbArc
 50
270.0002069702
 51
349.4361048931
  0
ARC
  5
794
100
AcDbEntity
  8
0
100
AcDbCircle
 62
7
  6
CONTINUOUS
 10
323.3491603767
 20
498.1794049361
 40
5.0
100
AcDbArc
 50
270.0
 51
295.8419327632
  0
ARC
  5
795
100
AcDbEntity
  8
RUNDUNGEN
100
AcDbCircle
 62
7
  6
CONTINUOUS
 10
345.9945423616
 20
492.6794049361
 40
1.0
100
AcDbArc
 50
0.0
 51
90.0
  0
ARC
  5
796
100
AcDbEntity
  8
BEZUGSACHSEN
100
AcDbCircle
 62
7
  6
CONTINUOUS
 10
888.9120746499
 20
51.3841022722
 40
8.0
100
AcDbArc
 50
180.0
 51
270.0
  0
ARC
  5
797
100
AcDbEntity
  8
0
100
AcDbCircle
 62
7
  6
CONTINUOUS
 10
637.4120746499
 20
363.3841022722
 40
20.0
100
AcDbArc
 50
21.6035289248
 51
36.8698973557
  0
ARC
  5
798
100
AcDbEntity
  8
0
100
AcDbCircle
 62
7
  6
CONTINUOUS
 10
637.4120746499
 20
363.3841022722
 40
20.0
100
AcDbArc
 50
323.1301026443
 51
338.3964710752
  0
ARC
  5
799
100
AcDbEntity
  8
RUNDUNGEN
100
AcDbCircle
 62
7
  6
CONTINUOUS
 10
691.4120746499
 20
346.3841022722
 40
10.0
100
AcDbArc
 50
270.0
 51
360.0
  0
ARC
  5
79A
100
AcDbEntity
  8
RUNDUNGEN
100
AcDbCircle
 62
7
  6
CONTINUOUS
 10
691.4120746499
 20
380.3841022722
 40
10.0
100
AcDbArc
 50
0.0
 51
90.0
  0
ARC
  5
79B
100
AcDbEntity
  8
RUNDUNGEN
100
AcDbCircle
 62
7
  6
CONTINUOUS
 10
683.3120746499
 20
363.3841022722
 40
6.1
100
AcDbArc
 50
270.0
 51
90.0
  0
ARC
  5
79C
100
AcDbEntity
  8
KONSTRUKTIONSELEMENTE
100
AcDbCircle
 62
7
  6
CONTINUOUS
 10
657.4120746499
 20
380.3841022722
 40
5.0
100
AcDbArc
 50
149.9999912643
 51
179.9999923605
  0
ARC
  5
79D
100
AcDbEntity
  8
KONSTRUKTIONSELEMENTE
100
AcDbCircle
 62
7
  6
CONTINUOUS
 10
657.4120746499
 20
346.3841022722
 40
5.0
100
AcDbArc
 50
180.0000076412
 51
210.0000087369
  0
ARC
  5
79E
100
AcDbEntity
  8
0
100
AcDbCircle
 62
7
  6
CONTINUOUS
 10
657.4120746499
 20
378.3841022722
 40
5.0
100
AcDbArc
 50
180.0
 51
216.8698988063
  0
ARC
  5
79F
100
AcDbEntity
  8
RUNDUNGEN
100
AcDbCircle
 62
7
  6
CONTINUOUS
 10
657.4120746499
 20
348.3841022722
 40
5.0
100
AcDbArc
 50
143.1301011937
 51
180.0
  0
ARC
  5
7A0
100
AcDbEntity
  8
RUNDUNGEN
100
AcDbCircle
 62
7
  6
CONTINUOUS
 10
659.7214757266
 20
386.3841022722
 40
4.0
100
AcDbArc
 50
90.0
 51
150.0
  0
ARC
  5
7A1
100
AcDbEntity
  8
RUNDUNGEN
100
AcDbCircle
 62
7
  6
CONTINUOUS
 10
659.7214757266
 20
340.3841022722
 40
4.0
100
AcDbArc
 50
210.0
 51
270.0
  0
ARC
  5
7A2
100
AcDbEntity
  8
RUNDUNGEN
100
AcDbCircle
 62
7
  6
CONTINUOUS
 10
703.4120746499
 20
375.3841022722
 40
2.0
100
AcDbArc
 50
180.0
 51
270.0
  0
ARC
  5
7A3
100
AcDbEntity
  8
RUNDUNGEN
100
AcDbCircle
 62
7
  6
CONTINUOUS
 10
703.4120746499
 20
351.3841022722
 40
2.0
100
AcDbArc
 50
90.0
 51
180.0
  0
ARC
  5
7A4
100
AcDbEntity
  8
RUNDUNGEN
100
AcDbCircle
 62
7
  6
CONTINUOUS
 10
657.8666584882
 20
371.4841022722
 40
2.0
100
AcDbArc
 50
201.6035289248
 51
270.0
  0
ARC
  5
7A5
100
AcDbEntity
  8
RUNDUNGEN
100
AcDbCircle
 62
7
  6
CONTINUOUS
 10
657.8666584882
 20
355.2841022722
 40
2.0
100
AcDbArc
 50
90.0
 51
158.3964710752
  0
ARC
  5
7A6
100
AcDbEntity
  8
0
100
AcDbCircle
 62
7
  6
CONTINUOUS
 10
678.5372000729
 20
346.3710546572
 40
1.9839955654
100
AcDbArc
 50
0.0
 51
90.0
  0
ARC
  5
7A7
100
AcDbEntity
  8
0
100
AcDbCircle
 62
7
  6
CONTINUOUS
 10
677.3411956383
 20
346.3710546572
 40
1.9839955654
100
AcDbArc
 50
90.0
 51
180.0
  0
ARC
  5
7A8
100
AcDbEntity
  8
0
100
AcDbCircle
 62
7
  6
CONTINUOUS
 10
678.5372000729
 20
346.3710546572
 40
1.6239955654
100
AcDbArc
 50
0.0
 51
89.9999957686
  0
ARC
  5
7A9
100
AcDbEntity
  8
0
100
AcDbCircle
 62
7
  6
CONTINUOUS
 10
677.3411956383
 20
346.3710546572
 40
1.6239955654
100
AcDbArc
 50
90.0
 51
180.0
  0
ARC
  5
7AA
100
AcDbEntity
  8
0
100
AcDbCircle
 62
7
  6
CONTINUOUS
 10
676.7411956383
 20
345.7710546572
 40
1.3839955654
100
AcDbArc
 50
180.0
 51
210.0
  0
ARC
  5
7AB
100
AcDbEntity
  8
0
100
AcDbCircle
 62
7
  6
CONTINUOUS
 10
679.1411956383
 20
345.7710546572
 40
1.38
100
AcDbArc
 50
330.0
 51
360.0
  0
ARC
  5
7AC
100
AcDbEntity
  8
0
100
AcDbCircle
 62
7
  6
CONTINUOUS
 10
676.7411956383
 20
345.7710546572
 40
1.0396955891
100
AcDbArc
 50
189.9697142629
 51
210.0
  0
ARC
  5
7AD
100
AcDbEntity
  8
0
100
AcDbCircle
 62
7
  6
CONTINUOUS
 10
679.1411956383
 20
345.7710546572
 40
1.0357605901
100
AcDbArc
 50
330.0
 51
349.9920201986
  0
ARC
  5
7AE
100
AcDbEntity
  8
RUNDUNGEN
100
AcDbCircle
 62
7
  6
CONTINUOUS
 10
752.4120746499
 20
381.8841022722
 40
1.0
100
AcDbArc
 50
90.0
 51
180.0
  0
ARC
  5
7AF
100
AcDbEntity
  8
RUNDUNGEN
100
AcDbCircle
 62
7
  6
CONTINUOUS
 10
752.4120746499
 20
344.8841022722
 40
1.0
100
AcDbArc
 50
180.0
 51
270.0
  0
ARC
  5
7B0
100
AcDbEntity
  8
BEZUGSACHSEN
100
AcDbCircle
 62
7
  6
CONTINUOUS
 10
869.9120746499
 20
266.2950212105
 40
11.0
100
AcDbArc
 50
0.0
 51
16.4403795217
  0
ARC
  5
7B1
100
AcDbEntity
  8
BEZUGSACHSEN
100
AcDbCircle
 62
7
  6
CONTINUOUS
 10
882.9120746499
 20
299.9731833339
 40
11.0
100
AcDbArc
 50
180.0
 51
196.4403795217
  0
ARC
  5
7B2
100
AcDbEntity
  8
0
100
AcDbCircle
 62
7
  6
CONTINUOUS
 10
775.0574566347
 20
387.3841022722
 40
5.0
100
AcDbArc
 50
244.1580672368
 51
270.0
  0
ARC
  5
7B3
100
AcDbEntity
  8
0
100
AcDbCircle
 62
7
  6
CONTINUOUS
 10
775.0574566347
 20
339.3841022722
 40
5.0
100
AcDbArc
 50
90.0
 51
115.8419327632
  0
ARC
  5
7B4
100
AcDbEntity
  8
BEZUGSACHSEN
100
AcDbCircle
 62
7
  6
CONTINUOUS
 10
876.9120746499
 20
389.3841022722
 40
5.0
100
AcDbArc
 50
90.0
 51
180.0
  0
ARC
  5
7B5
100
AcDbEntity
  8
0
100
AcDbCircle
 62
7
  6
CONTINUOUS
 10
846.8120746499
 20
364.2841022722
 40
3.6
100
AcDbArc
 50
0.0
 51
180.0
  0
ARC
  5
7B6
100
AcDbEntity
  8
0
100
AcDbCircle
 62
7
  6
CONTINUOUS
 10
837.3620746499
 20
364.5841022722
 40
3.3
100
AcDbArc
 50
90.0
 51
180.0
  0
ARC
  5
7B7
100
AcDbEntity
  8
0
100
AcDbCircle
 62
7
  6
CONTINUOUS
 10
837.3620746499
 20
362.1841022722
 40
3.3
100
AcDbArc
 50
180.0
 51
270.0
  0
ARC
  5
7B8
100
AcDbEntity
  8
0
100
AcDbCircle
 62
7
  6
CONTINUOUS
 10
854.8370746499
 20
361.5091022722
 40
2.625
100
AcDbArc
 50
111.3550126288
 51
270.0
  0
ARC
  5
7B9
100
AcDbEntity
  8
RUNDUNGEN
100
AcDbCircle
 62
7
  6
CONTINUOUS
 10
867.1435124821
 20
345.8841022722
 40
2.0
100
AcDbArc
 50
250.0
 51
270.0
  0
ARC
  5
7BA
100
AcDbEntity
  8
RUNDUNGEN
100
AcDbCircle
 62
7
  6
CONTINUOUS
 10
867.1435124821
 20
380.8841022722
 40
2.0
100
AcDbArc
 50
90.0
 51
110.0
  0
ARC
  5
7BB
100
AcDbEntity
  8
RUNDUNGEN
100
AcDbCircle
 62
7
  6
CONTINUOUS
 10
865.0644658496
 20
342.3841022722
 40
2.0
100
AcDbArc
 50
70.0
 51
90.0
  0
ARC
  5
7BC
100
AcDbEntity
  8
RUNDUNGEN
100
AcDbCircle
 62
7
  6
CONTINUOUS
 10
865.0644658496
 20
384.3841022722
 40
2.0
100
AcDbArc
 50
270.0
 51
290.0
  0
ARC
  5
7BD
100
AcDbEntity
  8
0
100
AcDbCircle
 62
7
  6
CONTINUOUS
 10
884.9120746499
 20
335.3841022722
 40
2.0
100
AcDbArc
 50
180.0
 51
270.0
  0
ARC
  5
7BE
100
AcDbEntity
  8
0
100
AcDbCircle
 62
7
  6
CONTINUOUS
 10
837.7370746499
 20
362.2591022722
 40
1.875
100
AcDbArc
 50
180.0
 51
270.0
  0
ARC
  5
7BF
100
AcDbEntity
  8
0
100
AcDbCircle
 62
7
  6
CONTINUOUS
 10
837.7370746499
 20
364.5091022722
 40
1.875
100
AcDbArc
 50
90.0
 51
180.0
  0
ARC
  5
7C0
100
AcDbEntity
  8
0
100
AcDbCircle
 62
7
  6
CONTINUOUS
 10
846.8120746499
 20
364.2841022722
 40
1.8
100
AcDbArc
 50
0.0
 51
180.0
  0
ARC
  5
7C1
100
AcDbEntity
  8
0
100
AcDbCircle
 62
7
  6
CONTINUOUS
 10
856.3752143707
 20
365.6341022722
 40
1.5
100
AcDbArc
 50
210.0
 51
270.0
  0
ARC
  5
7C2
100
AcDbEntity
  8
0
100
AcDbCircle
 62
7
  6
CONTINUOUS
 10
855.4370746499
 20
361.5091022722
 40
1.125
100
AcDbArc
 50
90.0
 51
270.0
  0
ARC
  5
7C3
100
AcDbEntity
  8
RUNDUNGEN
100
AcDbCircle
 62
7
  6
CONTINUOUS
 10
890.9120746499
 20
51.3841022722
 40
8.0
100
AcDbArc
 50
270.0
 51
360.0
  0
ARC
  5
7C4
100
AcDbEntity
  8
RUNDUNGEN
100
AcDbCircle
 62
7
  6
CONTINUOUS
 10
909.9120746499
 20
266.2950212105
 40
11.0
100
AcDbArc
 50
163.5596204783
 51
180.0
  0
ARC
  5
7C5
100
AcDbEntity
  8
RUNDUNGEN
100
AcDbCircle
 62
7
  6
CONTINUOUS
 10
896.9120746499
 20
299.9731833339
 40
11.0
100
AcDbArc
 50
343.5596204783
 51
360.0
  0
ARC
  5
7C6
100
AcDbEntity
  8
RUNDUNGEN
100
AcDbCircle
 62
7
  6
CONTINUOUS
 10
1004.766692665
 20
339.3841022722
 40
5.0
100
AcDbArc
 50
55.0
 51
90.0
  0
ARC
  5
7C7
100
AcDbEntity
  8
RUNDUNGEN
100
AcDbCircle
 62
7
  6
CONTINUOUS
 10
1004.766692665
 20
387.3841022722
 40
5.0
100
AcDbArc
 50
270.0
 51
305.0
  0
ARC
  5
7C8
100
AcDbEntity
  8
RUNDUNGEN
100
AcDbCircle
 62
7
  6
CONTINUOUS
 10
902.9120746499
 20
389.3841022722
 40
5.0
100
AcDbArc
 50
0.0
 51
90.0
  0
ARC
  5
7C9
100
AcDbEntity
  8
RUNDUNGEN
100
AcDbCircle
 62
7
  6
CONTINUOUS
 10
912.6806368176
 20
345.8841022722
 40
2.0
100
AcDbArc
 50
270.0
 51
290.0
  0
ARC
  5
7CA
100
AcDbEntity
  8
RUNDUNGEN
100
AcDbCircle
 62
7
  6
CONTINUOUS
 10
912.6806368176
 20
380.8841022722
 40
2.0
100
AcDbArc
 50
70.0
 51
90.0
  0
ARC
  5
7CB
100
AcDbEntity
  8
RUNDUNGEN
100
AcDbCircle
 62
7
  6
CONTINUOUS
 10
914.7596834502
 20
342.3841022722
 40
2.0
100
AcDbArc
 50
90.0
 51
110.0
  0
ARC
  5
7CC
100
AcDbEntity
  8
RUNDUNGEN
100
AcDbCircle
 62
7
  6
CONTINUOUS
 10
914.7596834502
 20
384.3841022722
 40
2.0
100
AcDbArc
 50
250.0
 51
270.0
  0
ARC
  5
7CD
100
AcDbEntity
  8
0
100
AcDbCircle
 62
7
  6
CONTINUOUS
 10
894.9120746499
 20
335.3841022722
 40
2.0
100
AcDbArc
 50
270.0
 51
360.0
  0
ARC
  5
7CE
100
AcDbEntity
  8
RUNDUNGEN
100
AcDbCircle
 62
7
  6
CONTINUOUS
 10
1052.4120746499
 20
339.3841022722
 40
2.0
100
AcDbArc
 50
270.0
 51
0.0000015115
  0
ARC
  5
7CF
100
AcDbEntity
  8
RUNDUNGEN
100
AcDbCircle
 62
7
  6
CONTINUOUS
 10
1075.4120746499
 20
351.3841022722
 40
2.0
100
AcDbArc
 50
0.0
 51
90.0
  0
ARC
  5
7D0
100
AcDbEntity
  8
RUNDUNGEN
100
AcDbCircle
 62
7
  6
CONTINUOUS
 10
1026.4120746499
 20
340.3841022722
 40
1.0
100
AcDbArc
 50
270.0
 51
360.0
  0
ARC
  5
7D1
100
AcDbEntity
  8
RUNDUNGEN
100
AcDbCircle
 62
7
  6
CONTINUOUS
 10
1047.9120746499
 20
337.8841022722
 40
0.5
100
AcDbArc
 50
180.0
 51
270.0
  0
ARC
  5
7D2
100
AcDbEntity
  8
RUNDUNGEN
100
AcDbCircle
 62
7
  6
CONTINUOUS
 10
1071.4120746499
 20
371.3841022722
 40
3.0
100
AcDbArc
 50
270.0
 51
341.9622186269
  0
ARC
  5
7D3
100
AcDbEntity
  8
RUNDUNGEN
100
AcDbCircle
 62
7
  6
CONTINUOUS
 10
1052.4120746499
 20
387.3841022722
 40
2.0
100
AcDbArc
 50
359.9999984885
 51
90.0
  0
ARC
  5
7D4
100
AcDbEntity
  8
RUNDUNGEN
100
AcDbCircle
 62
7
  6
CONTINUOUS
 10
1075.4120746499
 20
375.3841022722
 40
2.0
100
AcDbArc
 50
270.0
 51
360.0
  0
ARC
  5
7D5
100
AcDbEntity
  8
RUNDUNGEN
100
AcDbCircle
 62
7
  6
CONTINUOUS
 10
1026.4120746499
 20
386.3841022722
 40
1.0
100
AcDbArc
 50
0.0
 51
90.0
  0
ARC
  5
7D6
100
AcDbEntity
  8
RUNDUNGEN
100
AcDbCircle
 62
7
  6
CONTINUOUS
 10
1047.9120746499
 20
388.8841022722
 40
0.5
100
AcDbArc
 50
90.0
 51
180.0
  0
ARC
  5
7D7
100
AcDbEntity
  8
RUNDUNGEN
100
AcDbCircle
 62
7
  6
CONTINUOUS
 10
1087.4120746499
 20
346.3841022722
 40
10.0
100
AcDbArc
 50
180.0
 51
270.0
  0
ARC
  5
7D8
100
AcDbEntity
  8
KONSTRUKTIONSELEMENTE
100
AcDbCircle
 62
7
  6
CONTINUOUS
 10
1121.4120746499
 20
346.3841022722
 40
5.0
100
AcDbArc
 50
329.9999912643
 51
359.9999923605
  0
ARC
  5
7D9
100
AcDbEntity
  8
0
100
AcDbCircle
 62
7
  6
CONTINUOUS
 10
1121.4120746499
 20
348.3841022722
 40
5.0
100
AcDbArc
 50
0.0
 51
36.8698985232
  0
ARC
  5
7DA
100
AcDbEntity
  8
RUNDUNGEN
100
AcDbCircle
 62
7
  6
CONTINUOUS
 10
1119.1026735731
 20
340.3841022722
 40
4.0
100
AcDbArc
 50
270.0
 51
330.0
  0
ARC
  5
7DB
100
AcDbEntity
  8
RUNDUNGEN
100
AcDbCircle
 62
7
  6
CONTINUOUS
 10
1120.9574908115
 20
355.2841022722
 40
2.0
100
AcDbArc
 50
21.6035289248
 51
90.0
  0
ARC
  5
7DC
100
AcDbEntity
  8
0
100
AcDbCircle
 62
7
  6
CONTINUOUS
 10
1141.4120746499
 20
363.3841022722
 40
20.0
100
AcDbArc
 50
201.6035289248
 51
216.8698974265
  0
ARC
  5
7DD
100
AcDbEntity
  8
0
100
AcDbCircle
 62
7
  6
CONTINUOUS
 10
1141.4120746499
 20
363.3841022722
 40
20.0
100
AcDbArc
 50
143.1301025735
 51
158.3964710752
  0
ARC
  5
7DE
100
AcDbEntity
  8
RUNDUNGEN
100
AcDbCircle
 62
7
  6
CONTINUOUS
 10
1087.4120746499
 20
380.3841022722
 40
10.0
100
AcDbArc
 50
90.0
 51
180.0
  0
ARC
  5
7DF
100
AcDbEntity
  8
RUNDUNGEN
100
AcDbCircle
 62
7
  6
CONTINUOUS
 10
1095.5120746499
 20
363.3841022722
 40
6.1
100
AcDbArc
 50
90.0
 51
270.0
  0
ARC
  5
7E0
100
AcDbEntity
  8
KONSTRUKTIONSELEMENTE
100
AcDbCircle
 62
7
  6
CONTINUOUS
 10
1121.4120746499
 20
380.3841022722
 40
5.0
100
AcDbArc
 50
0.0000076412
 51
30.0000087369
  0
ARC
  5
7E1
100
AcDbEntity
  8
RUNDUNGEN
100
AcDbCircle
 62
7
  6
CONTINUOUS
 10
1121.4120746499
 20
378.3841022722
 40
5.0
100
AcDbArc
 50
323.1301014768
 51
360.0
  0
ARC
  5
7E2
100
AcDbEntity
  8
RUNDUNGEN
100
AcDbCircle
 62
7
  6
CONTINUOUS
 10
1119.1026735731
 20
386.3841022722
 40
4.0
100
AcDbArc
 50
30.0
 51
90.0
  0
ARC
  5
7E3
100
AcDbEntity
  8
RUNDUNGEN
100
AcDbCircle
 62
7
  6
CONTINUOUS
 10
1120.9574908115
 20
371.4841022722
 40
2.0
100
AcDbArc
 50
270.0
 51
338.3964710752
  0
ARC
  5
7E4
100
AcDbEntity
  8
0
100
AcDbCircle
 62
7
  6
CONTINUOUS
 10
1100.2869492268
 20
380.3971498872
 40
1.9839955654
100
AcDbArc
 50
180.0
 51
270.0
  0
ARC
  5
7E5
100
AcDbEntity
  8
0
100
AcDbCircle
 62
7
  6
CONTINUOUS
 10
1101.4829536614
 20
380.3971498872
 40
1.9839955654
100
AcDbArc
 50
270.0
 51
360.0
  0
ARC
  5
7E6
100
AcDbEntity
  8
0
100
AcDbCircle
 62
7
  6
CONTINUOUS
 10
1100.2869492268
 20
380.3971498872
 40
1.6239955654
100
AcDbArc
 50
180.0
 51
269.9999957686
  0
ARC
  5
7E7
100
AcDbEntity
  8
0
100
AcDbCircle
 62
7
  6
CONTINUOUS
 10
1101.4829536614
 20
380.3971498872
 40
1.6239955654
100
AcDbArc
 50
270.0
 51
360.0
  0
ARC
  5
7E8
100
AcDbEntity
  8
0
100
AcDbCircle
 62
7
  6
CONTINUOUS
 10
1102.0829536614
 20
380.9971498872
 40
1.3839955654
100
AcDbArc
 50
0.0
 51
30.0
  0
ARC
  5
7E9
100
AcDbEntity
  8
0
100
AcDbCircle
 62
7
  6
CONTINUOUS
 10
1099.6829536614
 20
380.9971498872
 40
1.38
100
AcDbArc
 50
150.0
 51
180.0
  0
ARC
  5
7EA
100
AcDbEntity
  8
0
100
AcDbCircle
 62
7
  6
CONTINUOUS
 10
1102.0829536614
 20
380.9971498872
 40
1.0396955891
100
AcDbArc
 50
9.9697142629
 51
30.0
  0
ARC
  5
7EB
100
AcDbEntity
  8
0
100
AcDbCircle
 62
7
  6
CONTINUOUS
 10
1099.6829536614
 20
380.9971498872
 40
1.0357605901
100
AcDbArc
 50
150.0
 51
169.9920201986
  0
SPLINE
  5
7EC
100
AcDbEntity
  8
RUNDUNGEN
100
AcDbSpline
 62
7
  6
CONTINUOUS
 70
0
 71
3
 72
11
 73
7
 74
0
 42
0.0000001
 43
0.0000001
 44
0.0000000001
 40
0.0
 40
0.0
 40
0.0
 40
0.0
 40
0.2939291146
 40
0.5576809143
 40
0.7856565568
 40
1.0
 40
1.0
 40
1.0
 40
1.0
 10
26.9945423616
 20
354.7238482344
 30
0.0
 10
26.6523517372
 20
354.7238482344
 30
0.0
 10
26.0011114248
 20
354.7856253125
 30
0.0
 10
25.1220765618
 20
355.0795314504
 30
0.0
 10
24.4614143508
 20
355.6045549875
 30
0.0
 10
24.2192525235
 20
356.0757611585
 30
0.0
 10
24.141984739
 20
356.3130344603
 30
0.0
  0
SPLINE
  5
7ED
100
AcDbEntity
  8
0
100
AcDbSpline
 62
7
  6
CONTINUOUS
 70
0
 71
3
 72
8
 73
4
 74
0
 42
0.0000001
 43
0.0000001
 44
0.0000000001
 40
0.0
 40
0.0
 40
0.0
 40
0.0
 40
1.0
 40
1.0
 40
1.0
 40
1.0
 10
152.9945423616
 20
357.1391042738
 30
0.0
 10
152.3513429291
 20
356.3151495726
 30
0.0
 10
151.6788376799
 20
355.5140044068
 30
0.0
 10
150.9945423616
 20
354.7238482344
 30
0.0
  0
SPLINE
  5
7EE
100
AcDbEntity
  8
RUNDUNGEN
100
AcDbSpline
 62
7
  6
CONTINUOUS
 70
0
 71
3
 72
13
 73
9
 74
0
 42
0.0000001
 43
0.0000001
 44
0.0000000001
 40
0.0
 40
0.0
 40
0.0
 40
0.0
 40
0.3203778116
 40
0.6202633572
 40
0.7472365533
 40
0.8534425386
 40
0.9372257173
 40
1.0
 40
1.0
 40
1.0
 40
1.0
 10
84.9237414479
 20
356.2926513206
 30
0.0
 10
84.9347093081
 20
356.577346833
 30
0.0
 10
84.9160167694
 20
357.1303322805
 30
0.0
 10
84.8100942231
 20
357.7890631799
 30
0.0
 10
84.6737970992
 20
358.2437413093
 30
0.0
 10
84.5622997797
 20
358.5037530254
 30
0.0
 10
84.4418066014
 20
358.6943836835
 30
0.0
 10
84.3421852407
 20
358.7845428928
 30
0.0
 10
84.2920927906
 20
358.8091818936
 30
0.0
  0
SPLINE
  5
7EF
100
AcDbEntity
  8
RUNDUNGEN
100
AcDbSpline
 62
7
  6
CONTINUOUS
 70
0
 71
3
 72
13
 73
9
 74
0
 42
0.0000001
 43
0.0000001
 44
0.0000000001
 40
0.0
 40
0.0
 40
0.0
 40
0.0
 40
0.0627742238
 40
0.1465574174
 40
0.2527634099
 40
0.3797366138
 40
0.6796221741
 40
1.0
 40
1.0
 40
1.0
 40
1.0
 10
84.2920927906
 20
367.9590226508
 30
0.0
 10
84.3421851888
 20
367.9836616305
 30
0.0
 10
84.4418063361
 20
368.0738210161
 30
0.0
 10
84.5622996194
 20
368.2644514992
 30
0.0
 10
84.6737968937
 20
368.5244632737
 30
0.0
 10
84.8100940642
 20
368.9791413687
 30
0.0
 10
84.9160166163
 20
369.6378722707
 30
0.0
 10
84.9347091648
 20
370.1908577056
 30
0.0
 10
84.9237413025
 20
370.4755532127
 30
0.0
  0
SPLINE
  5
7F0
100
AcDbEntity
  8
0
100
AcDbSpline
 62
7
  6
CONTINUOUS
 70
0
 71
3
 72
9
 73
5
 74
0
 42
0.0000001
 43
0.0000001
 44
0.0000000001
 40
0.0
 40
0.0
 40
0.0
 40
0.0
 40
0.1416338848
 40
1.0
 40
1.0
 40
1.0
 40
1.0
 10
568.9487530658
 20
351.3513639091
 30
0.0
 10
568.9486113418
 20
351.3458687636
 30
0.0
 10
568.9464675096
 20
351.3071106573
 30
0.0
 10
568.9442372855
 20
351.2683648393
 30
0.0
 10
568.9429342925
 20
351.2350761612
 30
0.0
  0
SPLINE
  5
7F1
100
AcDbEntity
  8
0
100
AcDbSpline
 62
7
  6
CONTINUOUS
 70
0
 71
3
 72
9
 73
5
 74
0
 42
0.0000001
 43
0.0000001
 44
0.0000000001
 40
0.0
 40
0.0
 40
0.0
 40
0.0
 40
0.377107529
 40
1.0
 40
1.0
 40
1.0
 40
1.0
 10
568.9429342925
 20
351.2350761612
 30
0.0
 10
568.9371449538
 20
351.0871709673
 30
0.0
 10
568.9397294507
 20
350.6944557908
 30
0.0
 10
568.9488121698
 20
350.3020999753
 30
0.0
 10
568.9488005354
 20
350.057608488
 30
0.0
  0
SPLINE
  5
7F2
100
AcDbEntity
  8
RUNDUNGEN
100
AcDbSpline
 62
7
  6
CONTINUOUS
 70
0
 71
3
 72
11
 73
7
 74
0
 42
0.0000001
 43
0.0000001
 44
0.0000000001
 40
0.0
 40
0.0
 40
0.0
 40
0.0
 40
0.3986461108
 40
0.7044159187
 40
0.9069096057
 40
1.0
 40
1.0
 40
1.0
 40
1.0
 10
539.1488006106
 20
376.7106074418
 30
0.0
 10
539.148809923
 20
376.5385452854
 30
0.0
 10
539.1538883253
 20
376.2345088324
 30
0.0
 10
539.1595288472
 20
375.8431880725
 30
0.0
 10
539.15924737
 20
375.5834693769
 30
0.0
 10
539.1497195612
 20
375.4561647646
 30
0.0
 10
539.1488309336
 20
375.4159952615
 30
0.0
  0
SPLINE
  5
7F3
100
AcDbEntity
  8
RUNDUNGEN
100
AcDbSpline
 62
7
  6
CONTINUOUS
 70
0
 71
3
 72
9
 73
5
 74
0
 42
0.0000001
 43
0.0000001
 44
0.0000000001
 40
0.0
 40
0.0
 40
0.0
 40
0.0
 40
0.1416338848
 40
1.0
 40
1.0
 40
1.0
 40
1.0
 10
568.9487530658
 20
375.4168406353
 30
0.0
 10
568.9486113418
 20
375.4223357808
 30
0.0
 10
568.9464675096
 20
375.4610938871
 30
0.0
 10
568.9442372855
 20
375.4998397051
 30
0.0
 10
568.9429342925
 20
375.5331283833
 30
0.0
  0
SPLINE
  5
7F4
100
AcDbEntity
  8
RUNDUNGEN
100
AcDbSpline
 62
7
  6
CONTINUOUS
 70
0
 71
3
 72
9
 73
5
 74
0
 42
0.0000001
 43
0.0000001
 44
0.0000000001
 40
0.0
 40
0.0
 40
0.0
 40
0.0
 40
0.377107529
 40
1.0
 40
1.0
 40
1.0
 40
1.0
 10
568.9429342925
 20
375.5331283833
 30
0.0
 10
568.9371449538
 20
375.6810335771
 30
0.0
 10
568.9397294507
 20
376.0737487537
 30
0.0
 10
568.9488121698
 20
376.4661045691
 30
0.0
 10
568.9488005354
 20
376.7105960564
 30
0.0
  0
SPLINE
  5
7F5
100
AcDbEntity
  8
0
100
AcDbSpline
 62
7
  6
CONTINUOUS
 70
0
 71
3
 72
11
 73
7
 74
0
 42
0.0000001
 43
0.0000001
 44
0.0000000001
 40
0.0
 40
0.0
 40
0.0
 40
0.0
 40
0.3986461108
 40
0.7044159187
 40
0.9069096057
 40
1.0
 40
1.0
 40
1.0
 40
1.0
 10
539.1488006106
 20
350.0575971026
 30
0.0
 10
539.148809923
 20
350.229659259
 30
0.0
 10
539.1538883253
 20
350.533695712
 30
0.0
 10
539.1595288472
 20
350.9250164719
 30
0.0
 10
539.15924737
 20
351.1847351675
 30
0.0
 10
539.1497195612
 20
351.3120397799
 30
0.0
 10
539.1488309336
 20
351.3522092829
 30
0.0
  0
SPLINE
  5
7F6
100
AcDbEntity
  8
0
100
AcDbSpline
 62
7
  6
CONTINUOUS
 70
0
 71
3
 72
10
 73
6
 74
0
 42
0.0000001
 43
0.0000001
 44
0.0000000001
 40
0.0
 40
0.0
 40
0.0
 40
0.0
 40
0.5774500615
 40
0.8163590308
 40
1.0
 40
1.0
 40
1.0
 40
1.0
 10
534.0905231197
 20
335.355824101
 30
0.0
 10
534.0901352782
 20
335.027770363
 30
0.0
 10
534.0789773395
 20
334.5639838689
 30
0.0
 10
534.0564148686
 20
333.9963777573
 30
0.0
 10
534.048800573
 20
333.7563793581
 30
0.0
 10
534.048800573
 20
333.6520514646
 30
0.0
  0
SPLINE
  5
7F7
100
AcDbEntity
  8
0
100
AcDbSpline
 62
7
  6
CONTINUOUS
 70
0
 71
3
 72
10
 73
6
 74
0
 42
0.0000001
 43
0.0000001
 44
0.0000000001
 40
0.0
 40
0.0
 40
0.0
 40
0.0
 40
0.1836409814
 40
0.4225498934
 40
1.0
 40
1.0
 40
1.0
 40
1.0
 10
574.048800573
 20
333.6520514646
 30
0.0
 10
574.048800573
 20
333.7563793286
 30
0.0
 10
574.0411862815
 20
333.9963776185
 30
0.0
 10
574.0186238211
 20
334.5639835322
 30
0.0
 10
574.0074658767
 20
335.0277698573
 30
0.0
 10
574.0070780271
 20
335.3558235064
 30
0.0
  0
SPLINE
  5
7F8
100
AcDbEntity
  8
RUNDUNGEN
100
AcDbSpline
 62
7
  6
CONTINUOUS
 70
0
 71
3
 72
11
 73
7
 74
0
 42
0.0000001
 43
0.0000001
 44
0.0000000001
 40
0.0
 40
0.0
 40
0.0
 40
0.0
 40
0.2143412968
 40
0.4423162653
 40
0.706069196
 40
1.0
 40
1.0
 40
1.0
 40
1.0
 10
24.141984739
 20
-65.0614898077
 30
0.0
 10
24.2192517518
 20
-64.8242188754
 30
0.0
 10
24.461410556
 20
-64.3530152423
 30
0.0
 10
25.1220694251
 20
-63.8279906055
 30
0.0
 10
26.0011060499
 20
-63.5340811358
 30
0.0
 10
26.6523497614
 20
-63.4723035817
 30
0.0
 10
26.9945423616
 20
-63.4723035817
 30
0.0
  0
SPLINE
  5
7F9
100
AcDbEntity
  8
RUNDUNGEN
100
AcDbSpline
 62
7
  6
CONTINUOUS
 70
0
 71
3
 72
10
 73
6
 74
0
 42
0.0000001
 43
0.0000001
 44
0.0000000001
 40
0.0
 40
0.0
 40
0.0
 40
0.0
 40
0.1093150213
 40
0.3073484902
 40
1.0
 40
1.0
 40
1.0
 40
1.0
 10
84.9228319412
 20
-95.1339735779
 30
0.0
 10
84.9250722772
 20
-95.1324096992
 30
0.0
 10
84.9276897987
 20
-95.1242989658
 30
0.0
 10
84.9288000155
 20
-95.0999271051
 30
0.0
 10
84.9260922535
 20
-95.0773345051
 30
0.0
 10
84.9237413025
 20
-95.0601829799
 30
0.0
  0
SPLINE
  5
7FA
100
AcDbEntity
  8
RUNDUNGEN
100
AcDbSpline
 62
7
  6
CONTINUOUS
 70
0
 71
3
 72
8
 73
4
 74
0
 42
0.0000001
 43
0.0000001
 44
0.0000000001
 40
0.0
 40
0.0
 40
0.0
 40
0.0
 40
1.0
 40
1.0
 40
1.0
 40
1.0
 10
84.9226903683
 20
-95.0440797874
 30
0.0
 10
84.9226903683
 20
-95.0494589371
 30
0.0
 10
84.9230108155
 20
-95.0548536609
 30
0.0
 10
84.9237413025
 20
-95.0601829799
 30
0.0
  0
SPLINE
  5
7FB
100
AcDbEntity
  8
RUNDUNGEN
100
AcDbSpline
 62
7
  6
CONTINUOUS
 70
0
 71
3
 72
11
 73
7
 74
0
 42
0.0000001
 43
0.0000001
 44
0.0000000001
 40
0.0
 40
0.0
 40
0.0
 40
0.0
 40
0.2143412968
 40
0.4423162653
 40
0.706069196
 40
1.0
 40
1.0
 40
1.0
 40
1.0
 10
24.141984739
 20
481.2504727479
 30
0.0
 10
24.2192517518
 20
481.4877436802
 30
0.0
 10
24.461410556
 20
481.9589473133
 30
0.0
 10
25.1220694251
 20
482.4839719501
 30
0.0
 10
26.0011060499
 20
482.7778814198
 30
0.0
 10
26.6523497614
 20
482.8396589739
 30
0.0
 10
26.9945423616
 20
482.8396589739
 30
0.0
  0
SPLINE
  5
7FC
100
AcDbEntity
  8
RUNDUNGEN
100
AcDbSpline
 62
7
  6
CONTINUOUS
 70
0
 71
3
 72
8
 73
4
 74
0
 42
0.0000001
 43
0.0000001
 44
0.0000000001
 40
0.0
 40
0.0
 40
0.0
 40
0.0
 40
1.0
 40
1.0
 40
1.0
 40
1.0
 10
84.9237414479
 20
497.1070302933
 30
0.0
 10
84.9230109607
 20
497.1017009722
 30
0.0
 10
84.9226903683
 20
497.0963062558
 30
0.0
 10
84.9226903683
 20
497.0909271039
 30
0.0
  0
SPLINE
  5
7FD
100
AcDbEntity
  8
RUNDUNGEN
100
AcDbSpline
 62
7
  6
CONTINUOUS
 70
0
 71
3
 72
10
 73
6
 74
0
 42
0.0000001
 43
0.0000001
 44
0.0000000001
 40
0.0
 40
0.0
 40
0.0
 40
0.0
 40
0.6926515335
 40
0.8906849967
 40
1.0
 40
1.0
 40
1.0
 40
1.0
 10
84.9237414479
 20
497.1070302933
 30
0.0
 10
84.9260923985
 20
497.1241818201
 30
0.0
 10
84.9288001602
 20
497.1467744221
 30
0.0
 10
84.9276899433
 20
497.1711462835
 30
0.0
 10
84.9250724219
 20
497.1792570172
 30
0.0
 10
84.9228320859
 20
497.1808208954
 30
0.0
  0
SPLINE
  5
7FE
100
AcDbEntity
  8
RUNDUNGEN
100
AcDbSpline
 62
7
  6
CONTINUOUS
 70
0
 71
3
 72
11
 73
7
 74
0
 42
0.0000001
 43
0.0000001
 44
0.0000000001
 40
0.0
 40
0.0
 40
0.0
 40
0.0
 40
0.2939291146
 40
0.5576809143
 40
0.7856565568
 40
1.0
 40
1.0
 40
1.0
 40
1.0
 10
1071.4120746499
 20
372.04435631
 30
0.0
 10
1071.7542652742
 20
372.04435631
 30
0.0
 10
1072.4055055867
 20
371.982579232
 30
0.0
 10
1073.2845404496
 20
371.688673094
 30
0.0
 10
1073.9452026607
 20
371.1636495569
 30
0.0
 10
1074.187364488
 20
370.6924433859
 30
0.0
 10
1074.2646322724
 20
370.4551700841
 30
0.0
  0
ELLIPSE
  5
7FF
100
AcDbEntity
  8
0
100
AcDbEllipse
 62
7
  6
CONTINUOUS
 10
129.4945423616
 20
-72.1325576195
 30
0.0
 11
-2.1129164483
 21
19.4857790217
 31
0.0
 40
1.0
 41
-0.1077146398
 42
0.2571954636
  0
ELLIPSE
  5
800
100
AcDbEntity
  8
0
100
AcDbEllipse
 62
7
  6
CONTINUOUS
 10
115.4945423616
 20
-72.1325576195
 30
0.0
 11
16.4087550463
 21
-10.7197368359
 31
0.0
 40
1.0
 41
1.784276296
 42
2.1491867106
  0
ELLIPSE
  5
801
100
AcDbEntity
  8
0
100
AcDbEllipse
 62
7
  6
CONTINUOUS
 10
129.4945423616
 20
-72.1325576195
 30
0.0
 11
18.3925362128
 21
-4.7659848573
 31
0.0
 40
1.0
 41
1.8244327064
 42
2.2016556114
  0
ELLIPSE
  5
802
100
AcDbEntity
  8
0
100
AcDbEllipse
 62
7
  6
CONTINUOUS
 10
115.4945423616
 20
-72.1325576195
 30
0.0
 11
14.2357905455
 21
-12.5834123967
 31
0.0
 40
1.0
 41
1.9173504858
 42
2.2945733907
  0
ELLIPSE
  5
803
100
AcDbEntity
  8
0
100
AcDbEllipse
 62
7
  6
CONTINUOUS
 10
680.4011956383
 20
346.3710546572
 30
0.0
 11
-6.6
 21
0.0
 31
0.0
 40
0.5
 41
0.0
 42
6.2831853072
  0
ELLIPSE
  5
804
100
AcDbEntity
  8
0
100
AcDbEllipse
 62
7
  6
CONTINUOUS
 10
680.4011956383
 20
346.3710546572
 30
0.0
 11
6.24
 21
-0.0
 31
0.0
 40
0.4711538462
 41
0.0
 42
6.2831853072
  0
ELLIPSE
  5
805
100
AcDbEntity
  8
0
100
AcDbEllipse
 62
7
  6
CONTINUOUS
 10
1098.4229536614
 20
380.3971498872
 30
0.0
 11
6.6
 21
0.0
 31
0.0
 40
0.5
 41
0.0
 42
6.2831853072
  0
ELLIPSE
  5
806
100
AcDbEntity
  8
0
100
AcDbEllipse
 62
7
  6
CONTINUOUS
 10
1098.4229536614
 20
380.3971498872
 30
0.0
 11
6.24
 21
0.0
 31
0.0
 40
0.4711538462
 41
0.0
 42
6.2831853072
  0
ENDSEC
  0
SECTION
  2
OBJECTS
  0
DICTIONARY
  5
C
100
AcDbDictionary
280
0
281
1
  3
ACAD_GROUP
350
D
  3
ACAD_MLINESTYLE
350
17
  3
ACAD_LAYOUT
350
1A
  3
ACAD_PLOTSETTINGS
350
19
  3
ACAD_PLOTSTYLENAME
350
E
  0
DICTIONARY
  5
D
102
{ACAD_REACTORS
330
C
102
}
100
AcDbDictionary
280
0
281
1
  0
ACDBDICTIONARYWDFLT
  5
E
102
{ACAD_REACTORS
330
C
102
}
100
AcDbDictionary
281
1
  3
Normal
350
F
100
AcDbDictionaryWithDefault
340
F
  0
DICTIONARY
  5
17
102
{ACAD_REACTORS
330
C
102
}
100
AcDbDictionary
280
0
281
1
  3
Standard
350
18
  0
DICTIONARY
  5
19
102
{ACAD_REACTORS
330
C
102
}
100
AcDbDictionary
281
1
  0
DICTIONARY
  5
1A
102
{ACAD_REACTORS
330
C
102
}
100
AcDbDictionary
281
1
  3
Model
350
807
  3
Layout1
350
808
  0
ACDBPLACEHOLDER
  5
F
102
{ACAD_REACTORS
330
E
102
}
  0
MLINESTYLE
  5
18
102
{ACAD_REACTORS
330
17
102
}
100
AcDbMlineStyle
  2
STANDARD
 70
0
  3

 62
256
 51
90.0
 52
90.0
 71
2
 49
0.5
 62
256
  6
BYLAYER
 49
-0.5
 62
256
  6
BYLAYER
  0
LAYOUT
  5
807
102
{ACAD_REACTORS
330
1A
102
}
100
AcDbPlotSettings
  1

  2
none_device
  4
ISO_A2_(594.00_x_420.00_MM)
  6

 40
0.0
 41
0.0
 42
0.0
 43
0.0
 44
594.0
 45
420.0
 46
0.0
 47
0.0
 48
0.0
 49
0.0
140
0.0
141
0.0
142
1.0
143
1.0
 70
1024
 72
1
 73
0
 74
0
  7

 75
0
147
1.0
148
0.0
149
0.0
100
AcDbLayout
  1
Model
 70
0
 71
0
 10
0.0
 20
0.0
 11
594.0
 21
420.0
 12
0.0
 22
0.0
 32
0.0
 14
0.0
 24
0.0
 34
0.0
 15
0.0
 25
0.0
 35
0.0
146
0.0
 13
0.0
 23
0.0
 33
0.0
 16
1.0
 26
0.0
 36
0.0
 17
0.0
 27
1.0
 37
0.0
 76
0
330
20E
345
0
346
0
  0
LAYOUT
  5
808
102
{ACAD_REACTORS
330
1A
102
}
100
AcDbPlotSettings
  1

  2
none_device
  4
ISO_A2_(594.00_x_420.00_MM)
  6

 40
0.0
 41
0.0
 42
0.0
 43
0.0
 44
594.0
 45
420.0
 46
0.0
 47
0.0
 48
0.0
 49
0.0
140
0.0
141
0.0
142
1.0
143
1.0
 70
0
 72
1
 73
0
 74
0
  7

 75
0
147
1.0
148
0.0
149
0.0
100
AcDbLayout
  1
Layout1
 70
0
 71
1
 10
0.0
 20
0.0
 11
594.0
 21
420.0
 12
0.0
 22
0.0
 32
0.0
 14
0.0
 24
0.0
 34
0.0
 15
0.0
 25
0.0
 35
0.0
146
0.0
 13
0.0
 23
0.0
 33
0.0
 16
1.0
 26
0.0
 36
0.0
 17
0.0
 27
1.0
 37
0.0
 76
0
330
20F
345
0
346
0
  0
ENDSEC
  0
EOF
