999
DXF file: 001-m36423-p-10.dxf
999
Pro/ENGINEER 2022162 by Parametric Technology Corporation
  0
SECTION
  2
HEADER
  9
$ACADVER
  1
AC1015
  9
$DWGCODEPAGE
  3
ANSI_1252
  9
$EXTMAX
 10
297.0
 20
210.0
 30
0.0
  9
$EXTMIN
 10
0.0
 20
0.0
 30
0.0
  9
$LIMMIN
 10
0.0
 20
0.0
  9
$LIMMAX
 10
297.0
 20
210.0
  9
$VIEWCTR
 10
148.5
 20
105.0
  9
$VIEWSIZE
 40
210.0
  9
$CLAYER
  8
0
  9
$LTSCALE
 40
16.335
  9
$CELTYPE
  6
BYLAYER
  9
$DIMSCALE
 40
1.0
  9
$DIMASZ
 40
3.5
  9
$DIMEXO
 40
0.0
  9
$DIMDLI
 40
11.286
  9
$DIMEXE
 40
1.5
  9
$DIMCEN
 40
2.673
  9
$DIMLFAC
 40
1.0
  9
$DIMBLK
  1
_FILLED
  9
$DIMALT
 70
0
  9
$DIMALTF
 40
0.0393700787
  9
$DIMTXT
 40
3.5
  9
$DIMTOL
 70
1
  9
$DIMLIM
 70
0
  9
$DIMTFAC
 40
1.0
  9
$DIMTP
 40
0.01
  9
$DIMTM
 40
0.01
  9
$DIMGAP
 40
0.625
  9
$DIMDSEP
 70
46
  9
$AUNITS
 70
0
  9
$PDMODE
 70
3
  9
$PDSIZE
 40
0.3125
  9
$HANDSEED
  5
6EF
  9
$TILEMODE
 70
1
  9
$MEASUREMENT
 70
1
  9
$INSUNITS
 70
4
  0
ENDSEC
  0
SECTION
  2
CLASSES
  0
CLASS
  1
ACDBDICTIONARYWDFLT
  2
AcDbDictionaryWithDefault
  3
AutoCAD 2000
 90
0
280
0
281
0
  0
CLASS
  1
ACDBPLACEHOLDER
  2
AcDbPlaceHolder
  3
AutoCAD 2000
 90
0
280
0
281
0
  0
CLASS
  1
LAYOUT
  2
AcDbLayout
  3
AutoCAD 2000
 90
0
280
0
281
0
  0
ENDSEC
  0
SECTION
  2
TABLES
  0
TABLE
  2
VPORT
  5
8
100
AcDbSymbolTable
 70
2
  0
VPORT
  5
1F4
100
AcDbSymbolTableRecord
100
AcDbViewportTableRecord
  2
*ACTIVE
 70
0
 10
0.0
 20
0.0
 11
1.0
 21
1.0
 12
148.5
 22
105.0
 13
0.0
 23
0.0
 14
1.0
 24
1.0
 15
0.0
 25
0.0
 16
0.0
 26
0.0
 36
1.0
 17
0.0
 27
0.0
 37
0.0
 40
210.0
 41
1.4142857143
 42
50.0
 43
0.0
 44
0.0
 50
0.0
 51
0.0
 71
0
 72
100
 73
1
 74
1
 75
0
 76
0
 77
0
 78
0
  0
ENDTAB
  0
TABLE
  2
LTYPE
  5
5
100
AcDbSymbolTable
 70
6
  0
LTYPE
  5
14
100
AcDbSymbolTableRecord
100
AcDbLinetypeTableRecord
  2
BYBLOCK
 70
0
  3

 72
65
 73
0
 40
0.0
  0
LTYPE
  5
15
100
AcDbSymbolTableRecord
100
AcDbLinetypeTableRecord
  2
BYLAYER
 70
0
  3

 72
65
 73
0
 40
0.0
  0
LTYPE
  5
16
100
AcDbSymbolTableRecord
100
AcDbLinetypeTableRecord
  2
CONTINUOUS
 70
64
  3
Solid line
 72
65
 73
0
 40
0.0
  0
LTYPE
  5
1F5
100
AcDbSymbolTableRecord
100
AcDbLinetypeTableRecord
  2
CENTER
 70
64
  3
____ _ ____ _ ____ _ ____ _ ____ _ ____ _ ____
 72
65
 73
4
 40
0.6
 49
0.375
 74
0
 49
-0.075
 74
0
 49
0.075
 74
0
 49
-0.075
 74
0
  0
LTYPE
  5
1F6
100
AcDbSymbolTableRecord
100
AcDbLinetypeTableRecord
  2
HIDDEN
 70
64
  3
- - - - - - - - - - - - - - - - - - - -
 72
65
 73
2
 40
0.2
 49
0.1
 74
0
 49
-0.1
 74
0
  0
LTYPE
  5
1F7
100
AcDbSymbolTableRecord
100
AcDbLinetypeTableRecord
  2
PHANTOM
 70
64
  3
_____ _ _ _____ _ _ _____ _ _ _____
 72
65
 73
6
 40
0.8
 49
0.45
 74
0
 49
-0.05
 74
0
 49
0.1
 74
0
 49
-0.05
 74
0
 49
0.1
 74
0
 49
-0.05
 74
0
  0
LTYPE
  5
1F8
100
AcDbSymbolTableRecord
100
AcDbLinetypeTableRecord
  2
DOT
 70
64
  3
. . . . . . . . . . . . . . . . . . . .
 72
65
 73
2
 40
0.2
 49
0.1
 74
0
 49
-0.1
 74
0
  0
LTYPE
  5
1F9
100
AcDbSymbolTableRecord
100
AcDbLinetypeTableRecord
  2
DASHED
 70
64
  3
- - - - - - - - - - - - - - - - - - - -
 72
65
 73
2
 40
0.2
 49
0.1
 74
0
 49
-0.1
 74
0
  0
ENDTAB
  0
TABLE
  2
LAYER
  5
2
100
AcDbSymbolTable
 70
36
  0
LAYER
  5
10
100
AcDbSymbolTableRecord
100
AcDbLayerTableRecord
  2
0
 70
0
 62
7
  6
CONTINUOUS
370
-3
390
F
  0
LAYER
  5
1FA
100
AcDbSymbolTableRecord
100
AcDbLayerTableRecord
  2
DEFAULT_1
 70
0
 62
7
  6
CENTER
370
-3
390
F
  0
LAYER
  5
1FB
100
AcDbSymbolTableRecord
100
AcDbLayerTableRecord
  2
DEFAULT_2
 70
0
 62
8
  6
HIDDEN
370
-3
390
F
  0
LAYER
  5
1FC
100
AcDbSymbolTableRecord
100
AcDbLayerTableRecord
  2
DEFAULT_3
 70
0
 62
7
  6
PHANTOM
370
-3
390
F
  0
LAYER
  5
1FD
100
AcDbSymbolTableRecord
100
AcDbLayerTableRecord
  2
HILFEN
 70
0
 62
7
  6
CONTINUOUS
370
-3
390
F
  0
LAYER
  5
1FE
100
AcDbSymbolTableRecord
100
AcDbLayerTableRecord
  2
PLATZIERUNG
 70
0
 62
7
  6
CONTINUOUS
370
-3
390
F
  0
LAYER
  5
1FF
100
AcDbSymbolTableRecord
100
AcDbLayerTableRecord
  2
RUNDUNGEN
 70
0
 62
7
  6
CONTINUOUS
370
-3
390
F
  0
LAYER
  5
200
100
AcDbSymbolTableRecord
100
AcDbLayerTableRecord
  2
T_STARTBEZUEGE
 70
0
 62
7
  6
CONTINUOUS
370
-3
390
F
  0
LAYER
  5
201
100
AcDbSymbolTableRecord
100
AcDbLayerTableRecord
  2
_00_ASM_START_FEATURES
 70
0
 62
7
  6
CONTINUOUS
370
-3
390
F
  0
LAYER
  5
202
100
AcDbSymbolTableRecord
100
AcDbLayerTableRecord
  2
_00_HILFEN
 70
0
 62
7
  6
CONTINUOUS
370
-3
390
F
  0
LAYER
  5
203
100
AcDbSymbolTableRecord
100
AcDbLayerTableRecord
  2
_00_PLATZIERUNG
 70
0
 62
7
  6
CONTINUOUS
370
-3
390
F
  0
LAYER
  5
204
100
AcDbSymbolTableRecord
100
AcDbLayerTableRecord
  2
_00_PRT_START_FEATURES
 70
0
 62
7
  6
CONTINUOUS
370
-3
390
F
  0
LAYER
  5
205
100
AcDbSymbolTableRecord
100
AcDbLayerTableRecord
  2
_04_NOTIZEN
 70
0
 62
7
  6
CONTINUOUS
370
-3
390
F
  0
LAYER
  5
206
100
AcDbSymbolTableRecord
100
AcDbLayerTableRecord
  2
_21_KURVEN
 70
0
 62
7
  6
CONTINUOUS
370
-3
390
F
  0
LAYER
  5
207
100
AcDbSymbolTableRecord
100
AcDbLayerTableRecord
  2
_22_FLAECHEN
 70
0
 62
7
  6
CONTINUOUS
370
-3
390
F
  0
LAYER
  5
208
100
AcDbSymbolTableRecord
100
AcDbLayerTableRecord
  2
_26_BEZUGSACHSEN
 70
0
 62
7
  6
CONTINUOUS
370
-3
390
F
  0
LAYER
  5
209
100
AcDbSymbolTableRecord
100
AcDbLayerTableRecord
  2
_27_BEZUGSEBENEN
 70
0
 62
7
  6
CONTINUOUS
370
-3
390
F
  0
LAYER
  5
20A
100
AcDbSymbolTableRecord
100
AcDbLayerTableRecord
  2
_29_KOORDINATENSYSTEME
 70
0
 62
7
  6
CONTINUOUS
370
-3
390
F
  0
LAYER
  5
20B
100
AcDbSymbolTableRecord
100
AcDbLayerTableRecord
  2
_30_VOLUMEN
 70
0
 62
7
  6
CONTINUOUS
370
-3
390
F
  0
ENDTAB
  0
TABLE
  2
STYLE
  5
3
100
AcDbSymbolTable
 70
1
  0
STYLE
  5
11
100
AcDbSymbolTableRecord
100
AcDbTextStyleTableRecord
  2
STANDARD
 70
0
 40
0.0
 41
1.0
 50
0.0
 71
0
 42
0.2
  3
isonormlt-regular.ttf
  4

1001
ACAD
1000
Isonorm LT Regular
1071
34
  0
STYLE
  5
20C
100
AcDbSymbolTableRecord
100
AcDbTextStyleTableRecord
  2
TEXTSTYLE_1
 70
0
 40
0.0
 41
0.8
 50
0.0
 71
0
 42
0.2
  3
gdt
  4

  0
ENDTAB
  0
TABLE
  2
VIEW
  5
6
100
AcDbSymbolTable
 70
0
  0
ENDTAB
  0
TABLE
  2
UCS
  5
7
100
AcDbSymbolTable
 70
0
  0
ENDTAB
  0
TABLE
  2
APPID
  5
9
100
AcDbSymbolTable
 70
1
  0
APPID
  5
20D
100
AcDbSymbolTableRecord
100
AcDbRegAppTableRecord
  2
ACAD
 70
0
  0
ENDTAB
  0
TABLE
  2
BLOCK_RECORD
  5
1
100
AcDbSymbolTable
 70
0
  0
BLOCK_RECORD
  5
20E
100
AcDbSymbolTableRecord
100
AcDbBlockTableRecord
  2
*Model_Space
  0
BLOCK_RECORD
  5
20F
100
AcDbSymbolTableRecord
100
AcDbBlockTableRecord
  2
*Paper_Space
  0
BLOCK_RECORD
  5
210
100
AcDbSymbolTableRecord
100
AcDbBlockTableRecord
  2
_FILLED
  0
ENDTAB
  0
TABLE
  2
DIMSTYLE
  5
A
100
AcDbSymbolTable
 70
1
100
AcDbDimStyleTable
 71
0
  0
DIMSTYLE
105
211
100
AcDbSymbolTableRecord
100
AcDbDimStyleTableRecord
  2
STANDARD
 70
0
  3

  4

 40
1.0
 41
3.5
 42
0.0
 43
0.38
 44
1.5
 45
0.0
 46
0.0
 47
0.01
 48
0.01
140
3.5
141
0.09
142
0.0
143
25.4
144
1.0
145
0.0
146
1.0
147
0.625
 71
1
 72
0
 73
0
 74
0
 75
0
 76
0
 77
1
 78
8
 79
2
170
0
171
1
172
0
173
0
174
0
175
0
176
0
177
0
178
5
270
2
179
2
271
2
272
2
273
2
274
2
275
0
280
0
281
0
282
0
283
1
284
8
285
0
286
0
287
3
288
0
340
11
278
46
341
210
342
210
343
210
344
210
  0
ENDTAB
  0
ENDSEC
  0
SECTION
  2
BLOCKS
  0
BLOCK
  5
20
100
AcDbEntity
  8
0
100
AcDbBlockBegin
  2
*Model_Space
 70
0
 10
0.0
 20
0.0
 30
0.0
  3
*Model_Space
  1

  0
ENDBLK
  5
21
100
AcDbEntity
  8
0
100
AcDbBlockEnd
  0
BLOCK
  5
1C
100
AcDbEntity
  8
0
100
AcDbBlockBegin
  2
*Paper_Space
 70
0
 10
0.0
 20
0.0
 30
0.0
  3
*Paper_Space
  1

  0
ENDBLK
  5
1D
100
AcDbEntity
  8
0
100
AcDbBlockEnd
  0
BLOCK
  5
212
100
AcDbEntity
  8
0
100
AcDbBlockBegin
  2
_FILLED
 70
64
 10
0.0
 20
0.0
  3
_FILLED
  1

  0
SOLID
  5
213
100
AcDbEntity
  8
0
  6
BYBLOCK
 62
0
100
AcDbTrace
 10
0.0
 20
0.0
 11
-1.0
 21
0.125
 12
-1.0
 22
-0.125
 13
-1.0
 23
-0.125
  0
ENDBLK
  5
214
100
AcDbEntity
  8
0
  6
BYBLOCK
 62
0
100
AcDbBlockEnd
  0
ENDSEC
  0
SECTION
  2
ENTITIES
  0
MTEXT
  5
215
100
AcDbEntity
  8
_04_NOTIZEN
100
AcDbMText
 62
5
  6
CONTINUOUS
  7
STANDARD
 71
1
 72
1
 10
198.5515211042
 20
132.0468867659
 30
0.0
 11
0.0
 21
1.0
 31
0.0
 73
2
 44
0.9
  1
RUD PSA INOX-STAR M16
 40
3.5
 41
49.378
  0
MTEXT
  5
216
100
AcDbEntity
  8
_04_NOTIZEN
100
AcDbMText
 62
5
  6
CONTINUOUS
  7
STANDARD
 71
1
 72
1
 10
192.4297320526
 20
127.2128791833
 30
0.0
 11
1.0
 21
0.0
 31
0.0
 73
2
 44
0.9
  1
1-2 Pers
 40
3.5
 41
16.1
  0
MTEXT
  5
217
100
AcDbEntity
  8
_04_NOTIZEN
100
AcDbMText
 62
5
  6
CONTINUOUS
  7
STANDARD
 71
2
 72
1
 10
104.0647852855
 20
45.8671498371
 30
0.0
 11
1.0
 21
0.0
 31
0.0
 73
2
 44
0.9
  1
RUD PSA INOX-STAR M16\P1-2 Pers
 40
3.5
 41
49.378
  0
LINE
  5
218
100
AcDbEntity
  8
0
100
AcDbLine
 62
7
  6
CONTINUOUS
 10
0.0
 20
0.0
 11
0.0
 21
210.0
  0
LINE
  5
219
100
AcDbEntity
  8
0
100
AcDbLine
 62
7
  6
CONTINUOUS
 10
0.0
 20
0.0
 11
297.0
 21
0.0
  0
LINE
  5
21A
100
AcDbEntity
  8
0
100
AcDbLine
 62
7
  6
CONTINUOUS
 10
0.0
 20
210.0
 11
297.0
 21
210.0
  0
LINE
  5
21B
100
AcDbEntity
  8
0
100
AcDbLine
 62
7
  6
CONTINUOUS
 10
297.0
 20
0.0
 11
297.0
 21
210.0
  0
LINE
  5
21C
100
AcDbEntity
  8
0
100
AcDbLine
 62
7
  6
CONTINUOUS
 10
109.7694044571
 20
94.4183624649
 11
96.7694044571
 21
94.4183624649
  0
LINE
  5
21D
100
AcDbEntity
  8
0
100
AcDbLine
 62
7
  6
CONTINUOUS
 10
111.2694044571
 20
95.9183624649
 11
95.2694044571
 21
95.9183624649
  0
LINE
  5
21E
100
AcDbEntity
  8
_30_VOLUMEN
100
AcDbLine
 62
7
  6
CONTINUOUS
 10
83.9076227219
 20
166.8288411991
 11
83.053735609
 21
165.7831946057
  0
LINE
  5
21F
100
AcDbEntity
  8
_30_VOLUMEN
100
AcDbLine
 62
7
  6
CONTINUOUS
 10
85.7520909858
 20
168.8042362156
 11
85.5506187905
 21
168.6079958639
  0
LINE
  5
220
100
AcDbEntity
  8
_30_VOLUMEN
100
AcDbLine
 62
7
  6
CONTINUOUS
 10
85.8178400709
 20
168.333650361
 11
86.0596070741
 21
168.5691391424
  0
LINE
  5
221
100
AcDbEntity
  8
_30_VOLUMEN
100
AcDbLine
 62
7
  6
CONTINUOUS
 10
86.5240584776
 20
168.5760066714
 11
86.7658254808
 21
168.8114954527
  0
LINE
  5
222
100
AcDbEntity
  8
_30_VOLUMEN
100
AcDbLine
 62
7
  6
CONTINUOUS
 10
84.1349551483
 20
167.0063109987
 11
83.9076227219
 21
166.8288411991
  0
LINE
  5
223
100
AcDbEntity
  8
_30_VOLUMEN
100
AcDbLine
 62
7
  6
CONTINUOUS
 10
88.0728622116
 20
170.7846270838
 11
87.7159054499
 21
170.5106170766
  0
LINE
  5
224
100
AcDbEntity
  8
_30_VOLUMEN
100
AcDbLine
 62
7
  6
CONTINUOUS
 10
85.9981000611
 20
168.9547523168
 11
85.7520909858
 21
168.8042362156
  0
LINE
  5
225
100
AcDbEntity
  8
_30_VOLUMEN
100
AcDbLine
 62
7
  6
CONTINUOUS
 10
86.929132595
 20
168.0795156088
 11
86.6831235197
 21
167.9289995076
  0
LINE
  5
226
100
AcDbEntity
  8
_30_VOLUMEN
100
AcDbLine
 62
7
  6
CONTINUOUS
 10
84.1903993698
 20
166.670545598
 11
84.3465748082
 21
166.7608785138
  0
LINE
  5
227
100
AcDbEntity
  8
_30_VOLUMEN
100
AcDbLine
 62
7
  6
CONTINUOUS
 10
86.9503448
 20
167.6546540047
 11
87.1560590673
 21
167.7659216763
  0
LINE
  5
228
100
AcDbEntity
  8
_30_VOLUMEN
100
AcDbLine
 62
7
  6
CONTINUOUS
 10
86.5028626071
 20
167.3078966535
 11
86.7085777968
 21
167.4191652234
  0
LINE
  5
229
100
AcDbEntity
  8
_30_VOLUMEN
100
AcDbLine
 62
7
  6
CONTINUOUS
 10
86.0596070741
 20
168.5691391424
 11
86.2250274558
 21
168.6411592826
  0
LINE
  5
22A
100
AcDbEntity
  8
_30_VOLUMEN
100
AcDbLine
 62
7
  6
CONTINUOUS
 10
86.4413565164
 20
167.6935107262
 11
86.2759361348
 21
167.621490586
  0
LINE
  5
22B
100
AcDbEntity
  8
0
100
AcDbLine
 62
7
  6
CONTINUOUS
 10
96.7694044571
 20
94.4183624649
 11
95.2694044571
 21
95.9183624649
  0
LINE
  5
22C
100
AcDbEntity
  8
_30_VOLUMEN
100
AcDbLine
 62
7
  6
CONTINUOUS
 10
79.7061977054
 20
159.748693455
 11
79.5969636034
 21
159.4293595217
  0
LINE
  5
22D
100
AcDbEntity
  8
_30_VOLUMEN
100
AcDbLine
 62
7
  6
CONTINUOUS
 10
79.1600271953
 20
158.1520237885
 11
79.0507930412
 21
157.832689703
  0
LINE
  5
22E
100
AcDbEntity
  8
_30_VOLUMEN
100
AcDbLine
 62
7
  6
CONTINUOUS
 10
78.7880283344
 20
156.5615770653
 11
78.6654481019
 21
156.3005216688
  0
LINE
  5
22F
100
AcDbEntity
  8
_30_VOLUMEN
100
AcDbLine
 62
7
  6
CONTINUOUS
 10
80.5851314041
 20
161.7105615752
 11
80.002936698
 21
160.4925511795
  0
LINE
  5
230
100
AcDbEntity
  8
_30_VOLUMEN
100
AcDbLine
 62
7
  6
CONTINUOUS
 10
80.4940201974
 20
160.6318921793
 11
80.9306662269
 21
161.5453999762
  0
LINE
  5
231
100
AcDbEntity
  8
_30_VOLUMEN
100
AcDbLine
 62
7
  6
CONTINUOUS
 10
85.5506187905
 20
168.6079958639
 11
85.433977361
 21
168.4052787931
  0
LINE
  5
232
100
AcDbEntity
  8
_30_VOLUMEN
100
AcDbLine
 62
7
  6
CONTINUOUS
 10
78.989238843
 20
156.2871189961
 11
79.0877265346
 21
156.4382843951
  0
LINE
  5
233
100
AcDbEntity
  8
_30_VOLUMEN
100
AcDbLine
 62
7
  6
CONTINUOUS
 10
80.7640111975
 20
161.9367870014
 11
80.5851314041
 21
161.7105615752
  0
LINE
  5
234
100
AcDbEntity
  8
_30_VOLUMEN
100
AcDbLine
 62
7
  6
CONTINUOUS
 10
83.5144051339
 20
165.8427417124
 11
84.1903993698
 21
166.670545598
  0
LINE
  5
235
100
AcDbEntity
  8
_30_VOLUMEN
100
AcDbLine
 62
7
  6
CONTINUOUS
 10
84.9319927486
 20
166.06495186
 11
84.2559985127
 21
165.2371479744
  0
LINE
  5
236
100
AcDbEntity
  8
_30_VOLUMEN
100
AcDbLine
 62
7
  6
CONTINUOUS
 10
84.5526358089
 20
164.9949105244
 11
85.1930511435
 21
165.7791454695
  0
LINE
  5
237
100
AcDbEntity
  8
_30_VOLUMEN
100
AcDbLine
 62
7
  6
CONTINUOUS
 10
85.3773947055
 20
163.8856676881
 11
85.5908664838
 21
164.1470793365
  0
LINE
  5
238
100
AcDbEntity
  8
_30_VOLUMEN
100
AcDbLine
 62
7
  6
CONTINUOUS
 10
80.9306662269
 20
161.5453999762
 11
81.0852877226
 21
161.720874582
  0
LINE
  5
239
100
AcDbEntity
  8
_30_VOLUMEN
100
AcDbLine
 62
7
  6
CONTINUOUS
 10
86.6831235197
 20
167.9289995076
 11
86.4413565164
 21
167.6935107262
  0
LINE
  5
23A
100
AcDbEntity
  8
_30_VOLUMEN
100
AcDbLine
 62
7
  6
CONTINUOUS
 10
86.7085777968
 20
167.4191652234
 11
86.9503448
 21
167.6546540047
  0
LINE
  5
23B
100
AcDbEntity
  8
_30_VOLUMEN
100
AcDbLine
 62
7
  6
CONTINUOUS
 10
86.6619275868
 20
166.6608895538
 11
86.4201605836
 21
166.4254007724
  0
LINE
  5
23C
100
AcDbEntity
  8
_30_VOLUMEN
100
AcDbLine
 62
7
  6
CONTINUOUS
 10
87.6183980944
 20
166.9687901515
 11
87.2960414752
 21
166.6548045108
  0
LINE
  5
23D
100
AcDbEntity
  8
_30_VOLUMEN
100
AcDbLine
 62
7
  6
CONTINUOUS
 10
87.5632627868
 20
166.3804589759
 11
87.8856194059
 21
166.6944446166
  0
LINE
  5
23E
100
AcDbEntity
  8
_30_VOLUMEN
100
AcDbLine
 62
7
  6
CONTINUOUS
 10
89.5008279273
 20
169.38628461
 11
88.6976744477
 21
168.7697615056
  0
LINE
  5
23F
100
AcDbEntity
  8
_30_VOLUMEN
100
AcDbLine
 62
7
  6
CONTINUOUS
 10
88.8085222913
 20
168.5329819166
 11
89.700914706
 21
169.2180073268
  0
LINE
  5
240
100
AcDbEntity
  8
_30_VOLUMEN
100
AcDbLine
 62
7
  6
CONTINUOUS
 10
88.8287260293
 20
167.5828822644
 11
89.0964438559
 21
167.7883899658
  0
LINE
  5
241
100
AcDbEntity
  8
_30_VOLUMEN
100
AcDbLine
 62
7
  6
CONTINUOUS
 10
90.3457940535
 20
168.7474261672
 11
90.61351188
 21
168.9529338686
  0
LINE
  5
242
100
AcDbEntity
  8
_30_VOLUMEN
100
AcDbLine
 62
7
  6
CONTINUOUS
 10
80.9762218303
 20
162.0847346741
 11
80.7640111975
 21
161.9367870014
  0
LINE
  5
243
100
AcDbEntity
  8
_30_VOLUMEN
100
AcDbLine
 62
7
  6
CONTINUOUS
 10
87.3172537075
 20
166.2299428787
 11
87.5632627868
 21
166.3804589759
  0
LINE
  5
244
100
AcDbEntity
  8
_30_VOLUMEN
100
AcDbLine
 62
7
  6
CONTINUOUS
 10
87.2960414752
 20
166.6548045108
 11
87.0903272079
 21
166.5435368392
  0
LINE
  5
245
100
AcDbEntity
  8
_30_VOLUMEN
100
AcDbLine
 62
7
  6
CONTINUOUS
 10
81.0852877226
 20
161.720874582
 11
81.2732403351
 21
161.8180720151
  0
LINE
  5
246
100
AcDbEntity
  8
_30_VOLUMEN
100
AcDbLine
 62
7
  6
CONTINUOUS
 10
78.6654481019
 20
156.3005216688
 11
78.3763377496
 21
154.9818423279
  0
LINE
  5
247
100
AcDbEntity
  8
_30_VOLUMEN
100
AcDbLine
 62
7
  6
CONTINUOUS
 10
78.7603598255
 20
155.2431645702
 11
78.989238843
 21
156.2871189961
  0
LINE
  5
248
100
AcDbEntity
  8
_30_VOLUMEN
100
AcDbLine
 62
7
  6
CONTINUOUS
 10
79.9244724813
 20
156.0820761791
 11
79.6955934638
 21
155.0381217533
  0
LINE
  5
249
100
AcDbEntity
  8
_30_VOLUMEN
100
AcDbLine
 62
7
  6
CONTINUOUS
 10
80.0696868493
 20
154.9561046419
 11
80.2744733431
 21
155.8901691488
  0
LINE
  5
24A
100
AcDbEntity
  8
_30_VOLUMEN
100
AcDbLine
 62
7
  6
CONTINUOUS
 10
85.433977361
 20
168.4052787931
 11
85.3618728116
 21
168.1568374718
  0
LINE
  5
24B
100
AcDbEntity
  8
_30_VOLUMEN
100
AcDbLine
 62
7
  6
CONTINUOUS
 10
84.9892890883
 20
166.2360305925
 11
84.9319927486
 21
166.06495186
  0
LINE
  5
24C
100
AcDbEntity
  8
_30_VOLUMEN
100
AcDbLine
 62
7
  6
CONTINUOUS
 10
81.8910658374
 20
158.0501199929
 11
81.818243068
 21
157.8372306026
  0
LINE
  5
24D
100
AcDbEntity
  8
_30_VOLUMEN
100
AcDbLine
 62
7
  6
CONTINUOUS
 10
82.1806078141
 20
157.7132770119
 11
82.2534305835
 21
157.9261664023
  0
LINE
  5
24E
100
AcDbEntity
  8
_30_VOLUMEN
100
AcDbLine
 62
7
  6
CONTINUOUS
 10
85.7414934493
 20
168.1701817199
 11
85.8178400709
 21
168.333650361
  0
LINE
  5
24F
100
AcDbEntity
  8
_30_VOLUMEN
100
AcDbLine
 62
7
  6
CONTINUOUS
 10
82.9462863092
 20
160.58195718
 11
82.5096402797
 21
159.6684493832
  0
LINE
  5
250
100
AcDbEntity
  8
_30_VOLUMEN
100
AcDbLine
 62
7
  6
CONTINUOUS
 10
82.7096264663
 20
159.1987851659
 11
83.2918211724
 21
160.4167955616
  0
LINE
  5
251
100
AcDbEntity
  8
_30_VOLUMEN
100
AcDbLine
 62
7
  6
CONTINUOUS
 10
85.1930511435
 20
165.7791454695
 11
85.3215044713
 21
166.0373610858
  0
LINE
  5
252
100
AcDbEntity
  8
_30_VOLUMEN
100
AcDbLine
 62
7
  6
CONTINUOUS
 10
87.7350386016
 20
167.171506324
 11
87.6183980944
 21
166.9687901515
  0
LINE
  5
253
100
AcDbEntity
  8
_30_VOLUMEN
100
AcDbLine
 62
7
  6
CONTINUOUS
 10
82.0291853079
 20
157.4678244335
 11
82.1806078141
 21
157.7132770119
  0
LINE
  5
254
100
AcDbEntity
  8
_30_VOLUMEN
100
AcDbLine
 62
7
  6
CONTINUOUS
 10
87.8856194059
 20
166.6944446166
 11
88.0425547172
 21
166.9364092228
  0
LINE
  5
255
100
AcDbEntity
  8
_30_VOLUMEN
100
AcDbLine
 62
7
  6
CONTINUOUS
 10
81.818243068
 20
157.8372306026
 11
81.6850262855
 21
157.6450004461
  0
LINE
  5
256
100
AcDbEntity
  8
_30_VOLUMEN
100
AcDbLine
 62
7
  6
CONTINUOUS
 10
81.835574288
 20
157.2962529073
 11
82.0291853079
 21
157.4678244335
  0
LINE
  5
257
100
AcDbEntity
  8
_30_VOLUMEN
100
AcDbLine
 62
7
  6
CONTINUOUS
 10
79.0232600743
 20
156.7403483473
 11
78.7880283344
 21
156.5615770653
  0
LINE
  5
258
100
AcDbEntity
  8
_30_VOLUMEN
100
AcDbLine
 62
7
  6
CONTINUOUS
 10
81.6850262855
 20
157.6450004461
 11
81.5096209576
 21
157.5266513526
  0
LINE
  5
259
100
AcDbEntity
  8
_30_VOLUMEN
100
AcDbLine
 62
7
  6
CONTINUOUS
 10
79.0877265346
 20
156.4382843951
 11
79.2365168706
 21
156.5208353554
  0
LINE
  5
25A
100
AcDbEntity
  8
_30_VOLUMEN
100
AcDbLine
 62
7
  6
CONTINUOUS
 10
79.3087944587
 20
156.8505051907
 11
79.0232600743
 21
156.7403483473
  0
LINE
  5
25B
100
AcDbEntity
  8
_30_VOLUMEN
100
AcDbLine
 62
7
  6
CONTINUOUS
 10
81.2694044571
 20
118.6183624649
 11
81.2694044571
 21
120.6183624649
  0
LINE
  5
25C
100
AcDbEntity
  8
_30_VOLUMEN
100
AcDbLine
 62
7
  6
CONTINUOUS
 10
81.9034944895
 20
158.2836683127
 11
81.8910658374
 21
158.0501199929
  0
LINE
  5
25D
100
AcDbEntity
  8
_30_VOLUMEN
100
AcDbLine
 62
7
  6
CONTINUOUS
 10
82.2534305835
 20
157.9261664023
 11
82.2840648445
 21
158.212936843
  0
LINE
  5
25E
100
AcDbEntity
  8
_30_VOLUMEN
100
AcDbLine
 62
7
  6
CONTINUOUS
 10
85.7096837078
 20
167.9609888282
 11
85.7414934493
 21
168.1701817199
  0
LINE
  5
25F
100
AcDbEntity
  8
_30_VOLUMEN
100
AcDbLine
 62
7
  6
CONTINUOUS
 10
82.9857295306
 20
160.8124856522
 11
82.9462863092
 21
160.58195718
  0
LINE
  5
260
100
AcDbEntity
  8
_30_VOLUMEN
100
AcDbLine
 62
7
  6
CONTINUOUS
 10
81.306736285
 20
154.3393748783
 11
81.3790138731
 21
154.6690447135
  0
LINE
  5
261
100
AcDbEntity
  8
_30_VOLUMEN
100
AcDbLine
 62
7
  6
CONTINUOUS
 10
81.6801704786
 20
156.0426689746
 11
81.7644943543
 21
156.4272838871
  0
LINE
  5
262
100
AcDbEntity
  8
_30_VOLUMEN
100
AcDbLine
 62
7
  6
CONTINUOUS
 10
83.2918211724
 20
160.4167955616
 11
83.3555226866
 21
160.6980748566
  0
LINE
  5
263
100
AcDbEntity
  8
_30_VOLUMEN
100
AcDbLine
 62
7
  6
CONTINUOUS
 10
88.0425547172
 20
166.9364092228
 11
88.114659255
 21
167.1848505561
  0
LINE
  5
264
100
AcDbEntity
  8
_30_VOLUMEN
100
AcDbLine
 62
7
  6
CONTINUOUS
 10
119.6563423461
 20
169.2618865815
 11
119.3989462092
 21
169.1542236497
  0
LINE
  5
265
100
AcDbEntity
  8
_30_VOLUMEN
100
AcDbLine
 62
7
  6
CONTINUOUS
 10
81.5211751324
 20
157.1659995461
 11
81.835574288
 21
157.2962529073
  0
LINE
  5
266
100
AcDbEntity
  8
_30_VOLUMEN
100
AcDbLine
 62
7
  6
CONTINUOUS
 10
119.5997150151
 20
168.8755259637
 11
119.8131559124
 21
168.9369054767
  0
LINE
  5
267
100
AcDbEntity
  8
_30_VOLUMEN
100
AcDbLine
 62
7
  6
CONTINUOUS
 10
119.6492134648
 20
166.8038769906
 11
119.4357726906
 21
166.7424976073
  0
LINE
  5
268
100
AcDbEntity
  8
_30_VOLUMEN
100
AcDbLine
 62
7
  6
CONTINUOUS
 10
83.3555226866
 20
160.6980748566
 11
83.3373767556
 21
160.9561302692
  0
LINE
  5
269
100
AcDbEntity
  8
_30_VOLUMEN
100
AcDbLine
 62
7
  6
CONTINUOUS
 10
87.766848312
 20
167.3806992477
 11
87.7350386016
 21
167.171506324
  0
LINE
  5
26A
100
AcDbEntity
  8
_30_VOLUMEN
100
AcDbLine
 62
7
  6
CONTINUOUS
 10
119.5925862262
 20
166.41751647
 11
119.8499826271
 21
166.5251792126
  0
LINE
  5
26B
100
AcDbEntity
  8
0
100
AcDbLine
 62
7
  6
CONTINUOUS
 10
114.2694044571
 20
118.4183624649
 11
92.2694044571
 21
118.4183624649
  0
LINE
  5
26C
100
AcDbEntity
  8
_30_VOLUMEN
100
AcDbLine
 62
7
  6
CONTINUOUS
 10
125.2694044571
 20
118.6183624649
 11
81.2694044571
 21
118.6183624649
  0
LINE
  5
26D
100
AcDbEntity
  8
_30_VOLUMEN
100
AcDbLine
 62
7
  6
CONTINUOUS
 10
79.8982623777
 20
156.2605806153
 11
79.9244724813
 21
156.0820761791
  0
LINE
  5
26E
100
AcDbEntity
  8
_30_VOLUMEN
100
AcDbLine
 62
7
  6
CONTINUOUS
 10
85.3618728116
 20
168.1568374718
 11
85.3788429445
 21
167.8169485478
  0
LINE
  5
26F
100
AcDbEntity
  8
_30_VOLUMEN
100
AcDbLine
 62
7
  6
CONTINUOUS
 10
85.3215044713
 20
166.0373610858
 11
85.3155006135
 21
166.3327545754
  0
LINE
  5
270
100
AcDbEntity
  8
_30_VOLUMEN
100
AcDbLine
 62
7
  6
CONTINUOUS
 10
85.7694044571
 20
150.6183624649
 11
85.7694252458
 21
138.04743154
  0
LINE
  5
271
100
AcDbEntity
  8
_30_VOLUMEN
100
AcDbLine
 62
7
  6
CONTINUOUS
 10
119.3989462092
 20
169.1542236497
 11
119.138381813
 21
168.9615415196
  0
LINE
  5
272
100
AcDbEntity
  8
_30_VOLUMEN
100
AcDbLine
 62
7
  6
CONTINUOUS
 10
119.3831061046
 20
168.7291275117
 11
119.5997150151
 21
168.8755259637
  0
LINE
  5
273
100
AcDbEntity
  8
_30_VOLUMEN
100
AcDbLine
 62
7
  6
CONTINUOUS
 10
124.4320986132
 20
163.5799955255
 11
124.1823198824
 21
163.5027784531
  0
LINE
  5
274
100
AcDbEntity
  8
_30_VOLUMEN
100
AcDbLine
 62
7
  6
CONTINUOUS
 10
112.9803422253
 20
124.3683624649
 11
113.4022172253
 21
124.4641071427
  0
LINE
  5
275
100
AcDbEntity
  8
_30_VOLUMEN
100
AcDbLine
 62
7
  6
CONTINUOUS
 10
108.128779323
 20
124.3683624649
 11
108.6209669571
 21
124.4641071427
  0
LINE
  5
276
100
AcDbEntity
  8
_30_VOLUMEN
100
AcDbLine
 62
7
  6
CONTINUOUS
 10
108.550654323
 20
124.8470858791
 11
108.0584670912
 21
124.7513411761
  0
LINE
  5
277
100
AcDbEntity
  8
_30_VOLUMEN
100
AcDbLine
 62
7
  6
CONTINUOUS
 10
79.2207261438
 20
123.6183624649
 11
79.5054067442
 21
123.6183624649
  0
LINE
  5
278
100
AcDbEntity
  8
_30_VOLUMEN
100
AcDbLine
 62
7
  6
CONTINUOUS
 10
95.8319044571
 20
123.6183624649
 11
96.3944044571
 21
123.6183624649
  0
LINE
  5
279
100
AcDbEntity
  8
_30_VOLUMEN
100
AcDbLine
 62
7
  6
CONTINUOUS
 10
99.2069044571
 20
123.6183624649
 11
102.5819044571
 21
123.6183624649
  0
LINE
  5
27A
100
AcDbEntity
  8
_30_VOLUMEN
100
AcDbLine
 62
7
  6
CONTINUOUS
 10
127.0334022092
 20
123.6183624649
 11
127.3180818271
 21
123.6183624649
  0
LINE
  5
27B
100
AcDbEntity
  8
_30_VOLUMEN
100
AcDbLine
 62
7
  6
CONTINUOUS
 10
102.5819044571
 20
124.2566603505
 11
99.9569042783
 21
124.2566603505
  0
LINE
  5
27C
100
AcDbEntity
  8
_30_VOLUMEN
100
AcDbLine
 62
7
  6
CONTINUOUS
 10
103.7694044571
 20
124.3683624649
 11
104.1912794571
 21
124.3683624649
  0
LINE
  5
27D
100
AcDbEntity
  8
_30_VOLUMEN
100
AcDbLine
 62
7
  6
CONTINUOUS
 10
109.7459670912
 20
124.3683624649
 11
110.0975294571
 21
124.3683624649
  0
LINE
  5
27E
100
AcDbEntity
  8
_30_VOLUMEN
100
AcDbLine
 62
7
  6
CONTINUOUS
 10
112.5584672253
 20
124.3683624649
 11
112.9803422253
 21
124.3683624649
  0
LINE
  5
27F
100
AcDbEntity
  8
_30_VOLUMEN
100
AcDbLine
 62
7
  6
CONTINUOUS
 10
112.9803422253
 20
124.7513411761
 11
112.5584672253
 21
124.7513411761
  0
LINE
  5
280
100
AcDbEntity
  8
_30_VOLUMEN
100
AcDbLine
 62
7
  6
CONTINUOUS
 10
81.8373232636
 20
158.4846531525
 11
81.9034944895
 21
158.2836683127
  0
LINE
  5
281
100
AcDbEntity
  8
_30_VOLUMEN
100
AcDbLine
 62
7
  6
CONTINUOUS
 10
80.2220531533
 20
156.2471780998
 11
80.1455404054
 21
156.4942969747
  0
LINE
  5
282
100
AcDbEntity
  8
_30_VOLUMEN
100
AcDbLine
 62
7
  6
CONTINUOUS
 10
82.9433255542
 20
161.0197908373
 11
82.9857295306
 21
160.8124856522
  0
LINE
  5
283
100
AcDbEntity
  8
_30_VOLUMEN
100
AcDbLine
 62
7
  6
CONTINUOUS
 10
82.2840648445
 20
158.212936843
 11
82.2360993635
 21
158.4671440976
  0
LINE
  5
284
100
AcDbEntity
  8
_30_VOLUMEN
100
AcDbLine
 62
7
  6
CONTINUOUS
 10
88.114659255
 20
167.1848505561
 11
88.0976891065
 21
167.524739496
  0
LINE
  5
285
100
AcDbEntity
  8
0
100
AcDbLine
 62
7
  6
CONTINUOUS
 10
92.2694044571
 20
118.4183624649
 11
92.2694044571
 21
118.6183624649
  0
LINE
  5
286
100
AcDbEntity
  8
_30_VOLUMEN
100
AcDbLine
 62
7
  6
CONTINUOUS
 10
119.8499826271
 20
166.5251792126
 11
120.1105466669
 21
166.7178614347
  0
LINE
  5
287
100
AcDbEntity
  8
_30_VOLUMEN
100
AcDbLine
 62
7
  6
CONTINUOUS
 10
119.8658223752
 20
166.9502754426
 11
119.6492134648
 21
166.8038769906
  0
LINE
  5
288
100
AcDbEntity
  8
_30_VOLUMEN
100
AcDbLine
 62
7
  6
CONTINUOUS
 10
124.1823198824
 20
163.5027784531
 11
123.9603276996
 21
163.3766538545
  0
LINE
  5
289
100
AcDbEntity
  8
_30_VOLUMEN
100
AcDbLine
 62
7
  6
CONTINUOUS
 10
124.1825465632
 20
163.114739236
 11
124.2935425769
 21
163.1778014911
  0
LINE
  5
28A
100
AcDbEntity
  8
_30_VOLUMEN
100
AcDbLine
 62
7
  6
CONTINUOUS
 10
126.0922097664
 20
161.4730519545
 11
125.7984586491
 21
161.3482869745
  0
LINE
  5
28B
100
AcDbEntity
  8
_30_VOLUMEN
100
AcDbLine
 62
7
  6
CONTINUOUS
 10
126.1502961026
 20
160.5199083299
 11
123.682786388
 21
159.4718823576
  0
LINE
  5
28C
100
AcDbEntity
  8
_30_VOLUMEN
100
AcDbLine
 62
7
  6
CONTINUOUS
 10
111.0115916889
 20
127.4321921551
 11
110.6600297253
 21
127.3364474856
  0
LINE
  5
28D
100
AcDbEntity
  8
_30_VOLUMEN
100
AcDbLine
 62
7
  6
CONTINUOUS
 10
105.4569044571
 20
126.3790007913
 11
105.8084670242
 21
126.4747454607
  0
LINE
  5
28E
100
AcDbEntity
  8
_30_VOLUMEN
100
AcDbLine
 62
7
  6
CONTINUOUS
 10
110.5897166889
 20
126.8577241385
 11
111.0115916889
 21
126.9534688079
  0
LINE
  5
28F
100
AcDbEntity
  8
_30_VOLUMEN
100
AcDbLine
 62
7
  6
CONTINUOUS
 10
112.4178419571
 20
127.4321921551
 11
111.9959669571
 21
127.3364474856
  0
LINE
  5
290
100
AcDbEntity
  8
_30_VOLUMEN
100
AcDbLine
 62
7
  6
CONTINUOUS
 10
108.128779323
 20
127.4321921551
 11
107.706904323
 21
127.3364474856
  0
LINE
  5
291
100
AcDbEntity
  8
_30_VOLUMEN
100
AcDbLine
 62
7
  6
CONTINUOUS
 10
111.9256547253
 20
125.1343198874
 11
111.5740919571
 21
125.1343198874
  0
LINE
  5
292
100
AcDbEntity
  8
_30_VOLUMEN
100
AcDbLine
 62
7
  6
CONTINUOUS
 10
109.183466823
 20
125.3258092933
 11
108.8319044571
 21
125.3258092933
  0
LINE
  5
293
100
AcDbEntity
  8
_30_VOLUMEN
100
AcDbLine
 62
7
  6
CONTINUOUS
 10
97.1444044124
 20
125.7885751509
 11
98.4569043677
 21
125.7885751509
  0
LINE
  5
294
100
AcDbEntity
  8
_30_VOLUMEN
100
AcDbLine
 62
7
  6
CONTINUOUS
 10
107.285029323
 20
125.90027731
 11
109.183466823
 21
125.90027731
  0
LINE
  5
295
100
AcDbEntity
  8
_30_VOLUMEN
100
AcDbLine
 62
7
  6
CONTINUOUS
 10
108.8319044571
 20
126.2832561218
 11
107.3553419571
 21
126.2832561218
  0
LINE
  5
296
100
AcDbEntity
  8
_30_VOLUMEN
100
AcDbLine
 62
7
  6
CONTINUOUS
 10
104.1912794571
 20
126.3790007913
 11
105.4569044571
 21
126.3790007913
  0
LINE
  5
297
100
AcDbEntity
  8
_30_VOLUMEN
100
AcDbLine
 62
7
  6
CONTINUOUS
 10
98.4569043677
 20
126.426873126
 11
97.1444044124
 21
126.426873126
  0
LINE
  5
298
100
AcDbEntity
  8
_30_VOLUMEN
100
AcDbLine
 62
7
  6
CONTINUOUS
 10
113.4725294571
 20
126.6662347996
 11
113.8240922253
 21
126.6662347996
  0
LINE
  5
299
100
AcDbEntity
  8
_30_VOLUMEN
100
AcDbLine
 62
7
  6
CONTINUOUS
 10
105.5272168901
 20
126.9534688079
 11
104.1912794571
 21
126.9534688079
  0
LINE
  5
29A
100
AcDbEntity
  8
_30_VOLUMEN
100
AcDbLine
 62
7
  6
CONTINUOUS
 10
112.4178419571
 20
127.0492134773
 11
112.8397169571
 21
127.0492134773
  0
LINE
  5
29B
100
AcDbEntity
  8
_30_VOLUMEN
100
AcDbLine
 62
7
  6
CONTINUOUS
 10
112.8397169571
 20
127.4321921551
 11
112.4178419571
 21
127.4321921551
  0
LINE
  5
29C
100
AcDbEntity
  8
_30_VOLUMEN
100
AcDbLine
 62
7
  6
CONTINUOUS
 10
110.0975294571
 20
127.4321921551
 11
109.7459670912
 21
127.4321921551
  0
LINE
  5
29D
100
AcDbEntity
  8
_30_VOLUMEN
100
AcDbLine
 62
7
  6
CONTINUOUS
 10
99.3006543677
 20
128.2141073131
 11
99.7694044571
 21
128.2141073131
  0
LINE
  5
29E
100
AcDbEntity
  8
_30_VOLUMEN
100
AcDbLine
 62
7
  6
CONTINUOUS
 10
104.1912794571
 20
128.3896391177
 11
105.5272168901
 21
128.3896391177
  0
LINE
  5
29F
100
AcDbEntity
  8
_30_VOLUMEN
100
AcDbLine
 62
7
  6
CONTINUOUS
 10
107.706904323
 20
124.4641071427
 11
108.128779323
 21
124.3683624649
  0
LINE
  5
2A0
100
AcDbEntity
  8
_30_VOLUMEN
100
AcDbLine
 62
7
  6
CONTINUOUS
 10
112.1365922253
 20
124.4641071427
 11
112.5584672253
 21
124.3683624649
  0
LINE
  5
2A1
100
AcDbEntity
  8
_30_VOLUMEN
100
AcDbLine
 62
7
  6
CONTINUOUS
 10
112.5584672253
 20
124.7513411761
 11
112.1365922253
 21
124.8470858791
  0
LINE
  5
2A2
100
AcDbEntity
  8
_30_VOLUMEN
100
AcDbLine
 62
7
  6
CONTINUOUS
 10
108.0584670912
 20
127.0492134773
 11
108.4803420912
 21
126.9534688079
  0
LINE
  5
2A3
100
AcDbEntity
  8
_30_VOLUMEN
100
AcDbLine
 62
7
  6
CONTINUOUS
 10
108.0584670912
 20
124.7513411761
 11
107.7772169571
 21
124.8470858791
  0
LINE
  5
2A4
100
AcDbEntity
  8
_30_VOLUMEN
100
AcDbLine
 62
7
  6
CONTINUOUS
 10
107.495966823
 20
124.5598518205
 11
107.706904323
 21
124.4641071427
  0
LINE
  5
2A5
100
AcDbEntity
  8
_30_VOLUMEN
100
AcDbLine
 62
7
  6
CONTINUOUS
 10
84.9615669776
 20
166.4039132928
 11
84.9892890883
 21
166.2360305925
  0
LINE
  5
2A6
100
AcDbEntity
  8
_30_VOLUMEN
100
AcDbLine
 62
7
  6
CONTINUOUS
 10
95.2694044571
 20
128.7247455501
 11
95.2694044571
 21
127.7034687185
  0
LINE
  5
2A7
100
AcDbEntity
  8
0
100
AcDbLine
 62
7
  6
CONTINUOUS
 10
95.2694044571
 20
95.9183624649
 11
95.2694044571
 21
118.4183624649
  0
LINE
  5
2A8
100
AcDbEntity
  8
_30_VOLUMEN
100
AcDbLine
 62
7
  6
CONTINUOUS
 10
95.8319044571
 20
128.5970859909
 11
95.8319044571
 21
123.6183624649
  0
LINE
  5
2A9
100
AcDbEntity
  8
_30_VOLUMEN
100
AcDbLine
 62
7
  6
CONTINUOUS
 10
96.3944044571
 20
123.6183624649
 11
96.3944044571
 21
129.6183624649
  0
LINE
  5
2AA
100
AcDbEntity
  8
_30_VOLUMEN
100
AcDbLine
 62
7
  6
CONTINUOUS
 10
117.4097032607
 20
171.5678272498
 11
115.6223178371
 21
169.158417914
  0
LINE
  5
2AB
100
AcDbEntity
  8
_30_VOLUMEN
100
AcDbLine
 62
7
  6
CONTINUOUS
 10
115.8933763874
 20
168.9573370538
 11
117.4525849756
 21
171.0591622558
  0
LINE
  5
2AC
100
AcDbEntity
  8
_30_VOLUMEN
100
AcDbLine
 62
7
  6
CONTINUOUS
 10
119.138381813
 20
168.9615415196
 11
118.4790513112
 21
168.2672882278
  0
LINE
  5
2AD
100
AcDbEntity
  8
_30_VOLUMEN
100
AcDbLine
 62
7
  6
CONTINUOUS
 10
118.7237756029
 20
168.0348742199
 11
119.3831061046
 21
168.7291275117
  0
LINE
  5
2AE
100
AcDbEntity
  8
_30_VOLUMEN
100
AcDbLine
 62
7
  6
CONTINUOUS
 10
120.525152877
 20
167.6445287344
 11
119.8658223752
 21
166.9502754426
  0
LINE
  5
2AF
100
AcDbEntity
  8
_30_VOLUMEN
100
AcDbLine
 62
7
  6
CONTINUOUS
 10
122.5511350061
 20
164.3257947982
 11
122.287975523
 21
164.1452313393
  0
LINE
  5
2B0
100
AcDbEntity
  8
_30_VOLUMEN
100
AcDbLine
 62
7
  6
CONTINUOUS
 10
122.7335155434
 20
163.4958857731
 11
122.9966750265
 21
163.676449232
  0
LINE
  5
2B1
100
AcDbEntity
  8
_30_VOLUMEN
100
AcDbLine
 62
7
  6
CONTINUOUS
 10
123.7948923827
 20
161.471210787
 11
123.6283983622
 21
161.3766174044
  0
LINE
  5
2B2
100
AcDbEntity
  8
_30_VOLUMEN
100
AcDbLine
 62
7
  6
CONTINUOUS
 10
123.7396212122
 20
161.0516405307
 11
124.0171112464
 21
161.2092961685
  0
LINE
  5
2B3
100
AcDbEntity
  8
_30_VOLUMEN
100
AcDbLine
 62
7
  6
CONTINUOUS
 10
123.8147253701
 20
159.161240514
 11
126.2822350847
 21
160.2092664863
  0
LINE
  5
2B4
100
AcDbEntity
  8
_30_VOLUMEN
100
AcDbLine
 62
7
  6
CONTINUOUS
 10
126.6340720349
 20
159.3808890267
 11
126.9278231522
 21
159.5056540068
  0
LINE
  5
2B5
100
AcDbEntity
  8
_30_VOLUMEN
100
AcDbLine
 62
7
  6
CONTINUOUS
 10
100.2381542783
 20
128.8524051094
 11
100.7069046359
 21
128.9800646686
  0
LINE
  5
2B6
100
AcDbEntity
  8
_30_VOLUMEN
100
AcDbLine
 62
7
  6
CONTINUOUS
 10
100.8006542783
 20
129.6183624649
 11
100.1444046359
 21
129.4907029056
  0
LINE
  5
2B7
100
AcDbEntity
  8
_30_VOLUMEN
100
AcDbLine
 62
7
  6
CONTINUOUS
 10
105.4569044571
 20
128.8683624649
 11
103.7694044571
 21
128.8683624649
  0
LINE
  5
2B8
100
AcDbEntity
  8
_30_VOLUMEN
100
AcDbLine
 62
7
  6
CONTINUOUS
 10
100.7069046359
 20
128.9800646686
 11
101.0819042783
 21
128.9800646686
  0
LINE
  5
2B9
100
AcDbEntity
  8
_30_VOLUMEN
100
AcDbLine
 62
7
  6
CONTINUOUS
 10
101.1756544571
 20
129.6183624649
 11
100.8006542783
 21
129.6183624649
  0
LINE
  5
2BA
100
AcDbEntity
  8
_30_VOLUMEN
100
AcDbLine
 62
7
  6
CONTINUOUS
 10
96.3944044571
 20
129.6183624649
 11
95.8319044571
 21
129.6183624649
  0
LINE
  5
2BB
100
AcDbEntity
  8
_30_VOLUMEN
100
AcDbLine
 62
7
  6
CONTINUOUS
 10
108.550654323
 20
127.3364474856
 11
108.128779323
 21
127.4321921551
  0
LINE
  5
2BC
100
AcDbEntity
  8
_30_VOLUMEN
100
AcDbLine
 62
7
  6
CONTINUOUS
 10
101.7381544571
 20
129.4907029056
 11
101.1756544571
 21
129.6183624649
  0
LINE
  5
2BD
100
AcDbEntity
  8
_30_VOLUMEN
100
AcDbLine
 62
7
  6
CONTINUOUS
 10
112.8397169571
 20
127.0492134773
 11
113.2615919571
 21
126.9534688079
  0
LINE
  5
2BE
100
AcDbEntity
  8
_30_VOLUMEN
100
AcDbLine
 62
7
  6
CONTINUOUS
 10
113.2615919571
 20
127.3364474856
 11
112.8397169571
 21
127.4321921551
  0
LINE
  5
2BF
100
AcDbEntity
  8
_30_VOLUMEN
100
AcDbLine
 62
7
  6
CONTINUOUS
 10
101.0819042783
 20
128.9800646686
 11
101.5506546359
 21
128.8524051094
  0
LINE
  5
2C0
100
AcDbEntity
  8
_30_VOLUMEN
100
AcDbLine
 62
7
  6
CONTINUOUS
 10
105.8084670242
 20
128.7726177954
 11
105.4569044571
 21
128.8683624649
  0
LINE
  5
2C1
100
AcDbEntity
  8
_30_VOLUMEN
100
AcDbLine
 62
7
  6
CONTINUOUS
 10
111.9959669571
 20
125.9960219794
 11
113.1912797253
 21
125.5172986322
  0
LINE
  5
2C2
100
AcDbEntity
  8
_30_VOLUMEN
100
AcDbLine
 62
7
  6
CONTINUOUS
 10
113.4022172253
 20
125.8045326405
 11
112.2069044571
 21
126.2832561218
  0
LINE
  5
2C3
100
AcDbEntity
  8
_30_VOLUMEN
100
AcDbLine
 62
7
  6
CONTINUOUS
 10
111.9256547253
 20
124.5598518205
 11
112.1365922253
 21
124.4641071427
  0
LINE
  5
2C4
100
AcDbEntity
  8
_30_VOLUMEN
100
AcDbLine
 62
7
  6
CONTINUOUS
 10
105.5272168901
 20
128.3896391177
 11
105.7381543901
 21
128.2938944482
  0
LINE
  5
2C5
100
AcDbEntity
  8
_30_VOLUMEN
100
AcDbLine
 62
7
  6
CONTINUOUS
 10
107.7772169571
 20
124.8470858791
 11
107.6365920912
 21
124.9428305485
  0
LINE
  5
2C6
100
AcDbEntity
  8
_30_VOLUMEN
100
AcDbLine
 62
7
  6
CONTINUOUS
 10
102.1131546359
 20
129.2353837871
 11
101.7381544571
 21
129.4907029056
  0
LINE
  5
2C7
100
AcDbEntity
  8
_30_VOLUMEN
100
AcDbLine
 62
7
  6
CONTINUOUS
 10
101.5506546359
 20
128.8524051094
 11
101.8319046359
 21
128.5970859909
  0
LINE
  5
2C8
100
AcDbEntity
  8
_30_VOLUMEN
100
AcDbLine
 62
7
  6
CONTINUOUS
 10
107.285029323
 20
124.7513411761
 11
107.495966823
 21
124.5598518205
  0
LINE
  5
2C9
100
AcDbEntity
  8
_30_VOLUMEN
100
AcDbLine
 62
7
  6
CONTINUOUS
 10
79.7976571234
 20
156.39780965
 11
79.8982623777
 21
156.2605806153
  0
LINE
  5
2CA
100
AcDbEntity
  8
_30_VOLUMEN
100
AcDbLine
 62
7
  6
CONTINUOUS
 10
82.2360993635
 20
158.4671440976
 11
82.0673456425
 21
158.7626692126
  0
LINE
  5
2CB
100
AcDbEntity
  8
_30_VOLUMEN
100
AcDbLine
 62
7
  6
CONTINUOUS
 10
83.3373767556
 20
160.9561302692
 11
83.2040525454
 21
161.2692395506
  0
LINE
  5
2CC
100
AcDbEntity
  8
_30_VOLUMEN
100
AcDbLine
 62
7
  6
CONTINUOUS
 10
85.3155006135
 20
166.3327545754
 11
85.2244783052
 21
166.6249520329
  0
LINE
  5
2CD
100
AcDbEntity
  8
_30_VOLUMEN
100
AcDbLine
 62
7
  6
CONTINUOUS
 10
87.7138272877
 20
167.5963688584
 11
87.766848312
 21
167.3806992477
  0
LINE
  5
2CE
100
AcDbEntity
  8
_30_VOLUMEN
100
AcDbLine
 62
7
  6
CONTINUOUS
 10
97.1444044124
 20
126.426873126
 11
97.1444044124
 21
125.7885751509
  0
LINE
  5
2CF
100
AcDbEntity
  8
_30_VOLUMEN
100
AcDbLine
 62
7
  6
CONTINUOUS
 10
98.4569043677
 20
125.7885751509
 11
98.4569043677
 21
126.426873126
  0
LINE
  5
2D0
100
AcDbEntity
  8
_30_VOLUMEN
100
AcDbLine
 62
7
  6
CONTINUOUS
 10
99.2069044571
 20
124.2566603505
 11
99.2069044571
 21
123.6183624649
  0
LINE
  5
2D1
100
AcDbEntity
  8
_30_VOLUMEN
100
AcDbLine
 62
7
  6
CONTINUOUS
 10
116.5364012579
 20
172.1027235782
 11
114.9431361352
 21
169.5607742772
  0
LINE
  5
2D2
100
AcDbEntity
  8
_30_VOLUMEN
100
AcDbLine
 62
7
  6
CONTINUOUS
 10
115.2291054316
 20
169.3815319509
 11
116.8223705543
 21
171.9234812519
  0
LINE
  5
2D3
100
AcDbEntity
  8
_30_VOLUMEN
100
AcDbLine
 62
7
  6
CONTINUOUS
 10
118.4790513112
 20
168.2672882278
 11
118.3000619575
 21
167.9971347436
  0
LINE
  5
2D4
100
AcDbEntity
  8
_30_VOLUMEN
100
AcDbLine
 62
7
  6
CONTINUOUS
 10
118.9457017338
 20
170.4283690263
 11
117.4245226448
 21
168.3778078826
  0
LINE
  5
2D5
100
AcDbEntity
  8
_30_VOLUMEN
100
AcDbLine
 62
7
  6
CONTINUOUS
 10
117.4293748605
 20
167.8178788303
 11
119.2167602841
 21
170.2272881661
  0
LINE
  5
2D6
100
AcDbEntity
  8
_30_VOLUMEN
100
AcDbLine
 62
7
  6
CONTINUOUS
 10
120.1105466669
 20
166.7178614347
 11
120.7698771687
 21
167.4121147265
  0
LINE
  5
2D7
100
AcDbEntity
  8
_30_VOLUMEN
100
AcDbLine
 62
7
  6
CONTINUOUS
 10
122.8225050636
 20
162.92428526
 11
122.6282997397
 21
162.749253312
  0
LINE
  5
2D8
100
AcDbEntity
  8
_30_VOLUMEN
100
AcDbLine
 62
7
  6
CONTINUOUS
 10
123.9603276996
 20
163.3766538545
 11
123.7661223757
 21
163.2016219065
  0
LINE
  5
2D9
100
AcDbEntity
  8
_30_VOLUMEN
100
AcDbLine
 62
7
  6
CONTINUOUS
 10
113.4725294571
 20
127.2407028162
 11
113.2615919571
 21
127.3364474856
  0
LINE
  5
2DA
100
AcDbEntity
  8
_30_VOLUMEN
100
AcDbLine
 62
7
  6
CONTINUOUS
 10
112.1365922253
 20
124.8470858791
 11
111.9959669571
 21
124.9428305485
  0
LINE
  5
2DB
100
AcDbEntity
  8
_30_VOLUMEN
100
AcDbLine
 62
7
  6
CONTINUOUS
 10
113.2615919571
 20
126.9534688079
 11
113.4022172253
 21
126.8577241385
  0
LINE
  5
2DC
100
AcDbEntity
  8
_30_VOLUMEN
100
AcDbLine
 62
7
  6
CONTINUOUS
 10
108.9022170912
 20
127.0492134773
 11
108.550654323
 21
127.3364474856
  0
LINE
  5
2DD
100
AcDbEntity
  8
_30_VOLUMEN
100
AcDbLine
 62
7
  6
CONTINUOUS
 10
108.4803420912
 20
126.9534688079
 11
108.6912795912
 21
126.761979469
  0
LINE
  5
2DE
100
AcDbEntity
  8
_30_VOLUMEN
100
AcDbLine
 62
7
  6
CONTINUOUS
 10
111.7147172253
 20
124.7513411761
 11
111.9256547253
 21
124.5598518205
  0
LINE
  5
2DF
100
AcDbEntity
  8
_30_VOLUMEN
100
AcDbLine
 62
7
  6
CONTINUOUS
 10
112.2069044571
 20
126.2832561218
 11
111.9959669571
 21
126.4747454607
  0
LINE
  5
2E0
100
AcDbEntity
  8
_30_VOLUMEN
100
AcDbLine
 62
7
  6
CONTINUOUS
 10
113.1912797253
 20
125.5172986322
 11
113.4022172253
 21
125.3258092933
  0
LINE
  5
2E1
100
AcDbEntity
  8
_30_VOLUMEN
100
AcDbLine
 62
7
  6
CONTINUOUS
 10
106.0897169571
 20
128.4853837871
 11
105.8084670242
 21
128.7726177954
  0
LINE
  5
2E2
100
AcDbEntity
  8
_30_VOLUMEN
100
AcDbLine
 62
7
  6
CONTINUOUS
 10
80.1455404054
 20
156.4942969747
 11
79.9322836091
 21
156.7138099666
  0
LINE
  5
2E3
100
AcDbEntity
  8
_30_VOLUMEN
100
AcDbLine
 62
7
  6
CONTINUOUS
 10
81.6925522443
 20
158.6530744835
 11
81.8373232636
 21
158.4846531525
  0
LINE
  5
2E4
100
AcDbEntity
  8
_30_VOLUMEN
100
AcDbLine
 62
7
  6
CONTINUOUS
 10
102.4881542783
 20
128.7247455501
 11
102.1131546359
 21
129.2353837871
  0
LINE
  5
2E5
100
AcDbEntity
  8
_30_VOLUMEN
100
AcDbLine
 62
7
  6
CONTINUOUS
 10
107.1444044571
 20
124.9428305485
 11
107.285029323
 21
124.7513411761
  0
LINE
  5
2E6
100
AcDbEntity
  8
_30_VOLUMEN
100
AcDbLine
 62
7
  6
CONTINUOUS
 10
107.6365920912
 20
124.9428305485
 11
107.4256545912
 21
125.2300646239
  0
LINE
  5
2E7
100
AcDbEntity
  8
_30_VOLUMEN
100
AcDbLine
 62
7
  6
CONTINUOUS
 10
105.7381543901
 20
128.2938944482
 11
105.8787794571
 21
128.1024051094
  0
LINE
  5
2E8
100
AcDbEntity
  8
_30_VOLUMEN
100
AcDbLine
 62
7
  6
CONTINUOUS
 10
82.8190744609
 20
161.2038726967
 11
82.9433255542
 21
161.0197908373
  0
LINE
  5
2E9
100
AcDbEntity
  8
_30_VOLUMEN
100
AcDbLine
 62
7
  6
CONTINUOUS
 10
101.8319046359
 20
128.5970859909
 11
102.0194044571
 21
128.2141073131
  0
LINE
  5
2EA
100
AcDbEntity
  8
_30_VOLUMEN
100
AcDbLine
 62
7
  6
CONTINUOUS
 10
87.7159054499
 20
170.5106170766
 11
88.8287260293
 21
167.5828822644
  0
LINE
  5
2EB
100
AcDbEntity
  8
_30_VOLUMEN
100
AcDbLine
 62
7
  6
CONTINUOUS
 10
88.0976891065
 20
167.524739496
 11
88.000131171
 21
167.7861333893
  0
LINE
  5
2EC
100
AcDbEntity
  8
_30_VOLUMEN
100
AcDbLine
 62
7
  6
CONTINUOUS
 10
102.0194044571
 20
128.2141073131
 11
102.0194044571
 21
127.958787837
  0
LINE
  5
2ED
100
AcDbEntity
  8
_30_VOLUMEN
100
AcDbLine
 62
7
  6
CONTINUOUS
 10
102.5819044571
 20
123.6183624649
 11
102.5819044571
 21
124.2566603505
  0
LINE
  5
2EE
100
AcDbEntity
  8
_30_VOLUMEN
100
AcDbLine
 62
7
  6
CONTINUOUS
 10
102.5819044571
 20
127.958787837
 11
102.5819044571
 21
128.2141073131
  0
LINE
  5
2EF
100
AcDbEntity
  8
_30_VOLUMEN
100
AcDbLine
 62
7
  6
CONTINUOUS
 10
99.3944045465
 20
128.7247455501
 11
99.3006543677
 21
128.2141073131
  0
LINE
  5
2F0
100
AcDbEntity
  8
_30_VOLUMEN
100
AcDbLine
 62
7
  6
CONTINUOUS
 10
118.5887416119
 20
167.8110042842
 11
118.7237756029
 21
168.0348742199
  0
LINE
  5
2F1
100
AcDbEntity
  8
_30_VOLUMEN
100
AcDbLine
 62
7
  6
CONTINUOUS
 10
120.660186868
 20
167.8683986701
 11
120.525152877
 21
167.6445287344
  0
LINE
  5
2F2
100
AcDbEntity
  8
_30_VOLUMEN
100
AcDbLine
 62
7
  6
CONTINUOUS
 10
95.8319044571
 20
129.6183624649
 11
95.2694044571
 21
128.7247455501
  0
LINE
  5
2F3
100
AcDbEntity
  8
_30_VOLUMEN
100
AcDbLine
 62
7
  6
CONTINUOUS
 10
95.2694044571
 20
127.7034687185
 11
95.8319044571
 21
128.5970859909
  0
LINE
  5
2F4
100
AcDbEntity
  8
_30_VOLUMEN
100
AcDbLine
 62
7
  6
CONTINUOUS
 10
120.7698771687
 20
167.4121147265
 11
120.9488668789
 21
167.6822681187
  0
LINE
  5
2F5
100
AcDbEntity
  8
_30_VOLUMEN
100
AcDbLine
 62
7
  6
CONTINUOUS
 10
122.8505186034
 20
162.4873386934
 11
122.9892259204
 21
162.6308395138
  0
LINE
  5
2F6
100
AcDbEntity
  8
_30_VOLUMEN
100
AcDbLine
 62
7
  6
CONTINUOUS
 10
124.0438392462
 20
162.9712384155
 11
124.1825465632
 21
163.114739236
  0
LINE
  5
2F7
100
AcDbEntity
  8
_30_VOLUMEN
100
AcDbLine
 62
7
  6
CONTINUOUS
 10
125.0437111878
 20
161.9866417251
 11
125.1824181869
 21
162.1301431052
  0
LINE
  5
2F8
100
AcDbEntity
  8
_30_VOLUMEN
100
AcDbLine
 62
7
  6
CONTINUOUS
 10
124.9494009985
 20
155.7472876934
 11
127.5790566496
 21
157.4487310842
  0
LINE
  5
2F9
100
AcDbEntity
  8
_30_VOLUMEN
100
AcDbLine
 62
7
  6
CONTINUOUS
 10
125.5279536169
 20
156.5011928331
 11
124.8552160407
 21
156.0713794146
  0
LINE
  5
2FA
100
AcDbEntity
  8
_30_VOLUMEN
100
AcDbLine
 62
7
  6
CONTINUOUS
 10
127.271090817
 20
157.5935416203
 11
125.757431745
 21
156.6264595555
  0
LINE
  5
2FB
100
AcDbEntity
  8
_30_VOLUMEN
100
AcDbLine
 62
7
  6
CONTINUOUS
 10
125.3953425445
 20
153.1966545072
 11
126.7610745028
 21
153.935802105
  0
LINE
  5
2FC
100
AcDbEntity
  8
_30_VOLUMEN
100
AcDbLine
 62
7
  6
CONTINUOUS
 10
126.5800251289
 20
154.247930824
 11
125.3310559087
 21
153.5851215314
  0
LINE
  5
2FD
100
AcDbEntity
  8
_30_VOLUMEN
100
AcDbLine
 62
7
  6
CONTINUOUS
 10
127.7778313707
 20
154.0470477067
 11
127.5980951208
 21
153.9602893452
  0
LINE
  5
2FE
100
AcDbEntity
  8
_30_VOLUMEN
100
AcDbLine
 62
7
  6
CONTINUOUS
 10
127.6531978914
 20
153.6273179731
 11
127.8329341414
 21
153.7140763346
  0
LINE
  5
2FF
100
AcDbEntity
  8
_30_VOLUMEN
100
AcDbLine
 62
7
  6
CONTINUOUS
 10
113.6834669571
 20
127.0492134773
 11
113.4725294571
 21
127.2407028162
  0
LINE
  5
300
100
AcDbEntity
  8
_30_VOLUMEN
100
AcDbLine
 62
7
  6
CONTINUOUS
 10
82.0673456425
 20
158.7626692126
 11
81.8621804636
 21
158.9517494875
  0
LINE
  5
301
100
AcDbEntity
  8
_30_VOLUMEN
100
AcDbLine
 62
7
  6
CONTINUOUS
 10
111.7147172253
 20
126.2832561218
 11
111.9959669571
 21
125.9960219794
  0
LINE
  5
302
100
AcDbEntity
  8
_30_VOLUMEN
100
AcDbLine
 62
7
  6
CONTINUOUS
 10
113.6834669571
 20
125.5172986322
 11
113.4022172253
 21
125.8045326405
  0
LINE
  5
303
100
AcDbEntity
  8
_30_VOLUMEN
100
AcDbLine
 62
7
  6
CONTINUOUS
 10
83.2040525454
 20
161.2692395506
 11
83.0222122745
 21
161.4808483625
  0
LINE
  5
304
100
AcDbEntity
  8
_30_VOLUMEN
100
AcDbLine
 62
7
  6
CONTINUOUS
 10
84.8488272307
 20
166.5686009583
 11
84.9615669776
 21
166.4039132928
  0
LINE
  5
305
100
AcDbEntity
  8
_30_VOLUMEN
100
AcDbLine
 62
7
  6
CONTINUOUS
 10
85.3788429445
 20
167.8169485478
 11
85.5166956567
 21
167.5948031162
  0
LINE
  5
306
100
AcDbEntity
  8
_30_VOLUMEN
100
AcDbLine
 62
7
  6
CONTINUOUS
 10
106.3006544571
 20
128.1024051094
 11
106.0897169571
 21
128.4853837871
  0
LINE
  5
307
100
AcDbEntity
  8
_30_VOLUMEN
100
AcDbLine
 62
7
  6
CONTINUOUS
 10
109.1131545912
 20
126.6662347996
 11
108.9022170912
 21
127.0492134773
  0
LINE
  5
308
100
AcDbEntity
  8
_30_VOLUMEN
100
AcDbLine
 62
7
  6
CONTINUOUS
 10
85.8029996648
 20
167.784567519
 11
85.7096837078
 21
167.9609888282
  0
LINE
  5
309
100
AcDbEntity
  8
_30_VOLUMEN
100
AcDbLine
 62
7
  6
CONTINUOUS
 10
108.6912795912
 20
126.761979469
 11
108.8319044571
 21
126.4747454607
  0
LINE
  5
30A
100
AcDbEntity
  8
_30_VOLUMEN
100
AcDbLine
 62
7
  6
CONTINUOUS
 10
88.6976744477
 20
168.7697615056
 11
88.0498501206
 21
170.4450928601
  0
LINE
  5
30B
100
AcDbEntity
  8
_30_VOLUMEN
100
AcDbLine
 62
7
  6
CONTINUOUS
 10
89.0964438559
 20
167.7883899658
 11
88.8085222913
 21
168.5329819166
  0
LINE
  5
30C
100
AcDbEntity
  8
_30_VOLUMEN
100
AcDbLine
 62
7
  6
CONTINUOUS
 10
107.0037793901
 20
125.3258092933
 11
107.1444044571
 21
124.9428305485
  0
LINE
  5
30D
100
AcDbEntity
  8
_30_VOLUMEN
100
AcDbLine
 62
7
  6
CONTINUOUS
 10
107.4256545912
 20
125.2300646239
 11
107.3553419571
 21
125.4215539628
  0
LINE
  5
30E
100
AcDbEntity
  8
_30_VOLUMEN
100
AcDbLine
 62
7
  6
CONTINUOUS
 10
105.8787794571
 20
128.1024051094
 11
105.9490918901
 21
127.815171101
  0
LINE
  5
30F
100
AcDbEntity
  8
_30_VOLUMEN
100
AcDbLine
 62
7
  6
CONTINUOUS
 10
106.3709668901
 20
127.815171101
 11
106.3006544571
 21
128.1024051094
  0
LINE
  5
310
100
AcDbEntity
  8
_30_VOLUMEN
100
AcDbLine
 62
7
  6
CONTINUOUS
 10
102.5819044571
 20
128.2141073131
 11
102.4881542783
 21
128.7247455501
  0
LINE
  5
311
100
AcDbEntity
  8
_30_VOLUMEN
100
AcDbLine
 62
7
  6
CONTINUOUS
 10
103.7694044571
 20
128.8683624649
 11
103.7694044571
 21
124.3683624649
  0
LINE
  5
312
100
AcDbEntity
  8
_30_VOLUMEN
100
AcDbLine
 62
7
  6
CONTINUOUS
 10
104.1912794571
 20
124.3683624649
 11
104.1912794571
 21
126.3790007913
  0
LINE
  5
313
100
AcDbEntity
  8
_30_VOLUMEN
100
AcDbLine
 62
7
  6
CONTINUOUS
 10
104.1912794571
 20
126.9534688079
 11
104.1912794571
 21
128.3896391177
  0
LINE
  5
314
100
AcDbEntity
  8
_30_VOLUMEN
100
AcDbLine
 62
7
  6
CONTINUOUS
 10
105.9490918901
 20
127.815171101
 11
105.9490918901
 21
127.5279368245
  0
LINE
  5
315
100
AcDbEntity
  8
_30_VOLUMEN
100
AcDbLine
 62
7
  6
CONTINUOUS
 10
106.3709668901
 20
127.4321921551
 11
106.3709668901
 21
127.815171101
  0
LINE
  5
316
100
AcDbEntity
  8
_30_VOLUMEN
100
AcDbLine
 62
7
  6
CONTINUOUS
 10
107.285029323
 20
125.7087879711
 11
107.285029323
 21
125.90027731
  0
LINE
  5
317
100
AcDbEntity
  8
_30_VOLUMEN
100
AcDbLine
 62
7
  6
CONTINUOUS
 10
107.3553419571
 20
126.2832561218
 11
107.3553419571
 21
126.3790007913
  0
LINE
  5
318
100
AcDbEntity
  8
_30_VOLUMEN
100
AcDbLine
 62
7
  6
CONTINUOUS
 10
102.4881542783
 20
127.4481496
 11
102.5819044571
 21
127.958787837
  0
LINE
  5
319
100
AcDbEntity
  8
_30_VOLUMEN
100
AcDbLine
 62
7
  6
CONTINUOUS
 10
102.0194044571
 20
127.958787837
 11
101.8319046359
 21
127.4481496
  0
LINE
  5
31A
100
AcDbEntity
  8
_30_VOLUMEN
100
AcDbLine
 62
7
  6
CONTINUOUS
 10
99.7694044571
 20
128.2141073131
 11
99.9569042783
 21
128.5970859909
  0
LINE
  5
31B
100
AcDbEntity
  8
_30_VOLUMEN
100
AcDbLine
 62
7
  6
CONTINUOUS
 10
122.6282997397
 20
162.749253312
 11
122.4341700757
 21
162.444874768
  0
LINE
  5
31C
100
AcDbEntity
  8
_30_VOLUMEN
100
AcDbLine
 62
7
  6
CONTINUOUS
 10
99.7694044571
 20
129.2353837871
 11
99.3944045465
 21
128.7247455501
  0
LINE
  5
31D
100
AcDbEntity
  8
_30_VOLUMEN
100
AcDbLine
 62
7
  6
CONTINUOUS
 10
124.0171112464
 20
161.2092961685
 11
124.1835293085
 21
161.4332367178
  0
LINE
  5
31E
100
AcDbEntity
  8
_30_VOLUMEN
100
AcDbLine
 62
7
  6
CONTINUOUS
 10
124.9601993232
 20
162.3920577237
 11
124.876990331
 21
162.2800874712
  0
LINE
  5
31F
100
AcDbEntity
  8
_30_VOLUMEN
100
AcDbLine
 62
7
  6
CONTINUOUS
 10
79.6226566839
 20
156.4937631258
 11
79.7976571234
 21
156.39780965
  0
LINE
  5
320
100
AcDbEntity
  8
_30_VOLUMEN
100
AcDbLine
 62
7
  6
CONTINUOUS
 10
85.2244783052
 20
166.6249520329
 11
85.1117385582
 21
166.7896396983
  0
LINE
  5
321
100
AcDbEntity
  8
_30_VOLUMEN
100
AcDbLine
 62
7
  6
CONTINUOUS
 10
111.5740919571
 20
125.1343198874
 11
111.7147172253
 21
124.7513411761
  0
LINE
  5
322
100
AcDbEntity
  8
_30_VOLUMEN
100
AcDbLine
 62
7
  6
CONTINUOUS
 10
111.9959669571
 20
124.9428305485
 11
111.9256547253
 21
125.1343198874
  0
LINE
  5
323
100
AcDbEntity
  8
_30_VOLUMEN
100
AcDbLine
 62
7
  6
CONTINUOUS
 10
111.5740919571
 20
126.6662347996
 11
111.7147172253
 21
126.2832561218
  0
LINE
  5
324
100
AcDbEntity
  8
_30_VOLUMEN
100
AcDbLine
 62
7
  6
CONTINUOUS
 10
111.9959669571
 20
126.4747454607
 11
111.9256547253
 21
126.6662347996
  0
LINE
  5
325
100
AcDbEntity
  8
_30_VOLUMEN
100
AcDbLine
 62
7
  6
CONTINUOUS
 10
107.3553419571
 20
125.4215539628
 11
107.285029323
 21
125.7087879711
  0
LINE
  5
326
100
AcDbEntity
  8
_30_VOLUMEN
100
AcDbLine
 62
7
  6
CONTINUOUS
 10
109.183466823
 20
126.2832561218
 11
109.1131545912
 21
126.6662347996
  0
LINE
  5
327
100
AcDbEntity
  8
_30_VOLUMEN
100
AcDbLine
 62
7
  6
CONTINUOUS
 10
106.9334669571
 20
125.90027731
 11
107.0037793901
 21
125.3258092933
  0
LINE
  5
328
100
AcDbEntity
  8
_30_VOLUMEN
100
AcDbLine
 62
7
  6
CONTINUOUS
 10
108.8319044571
 20
126.4747454607
 11
108.8319044571
 21
126.2832561218
  0
LINE
  5
329
100
AcDbEntity
  8
_30_VOLUMEN
100
AcDbLine
 62
7
  6
CONTINUOUS
 10
109.183466823
 20
125.90027731
 11
109.183466823
 21
126.2832561218
  0
LINE
  5
32A
100
AcDbEntity
  8
_30_VOLUMEN
100
AcDbLine
 62
7
  6
CONTINUOUS
 10
109.7459670912
 20
127.4321921551
 11
109.7459670912
 21
124.3683624649
  0
LINE
  5
32B
100
AcDbEntity
  8
_30_VOLUMEN
100
AcDbLine
 62
7
  6
CONTINUOUS
 10
110.0975294571
 20
124.3683624649
 11
110.0975294571
 21
126.2832561218
  0
LINE
  5
32C
100
AcDbEntity
  8
_30_VOLUMEN
100
AcDbLine
 62
7
  6
CONTINUOUS
 10
110.0975294571
 20
126.8577241385
 11
110.0975294571
 21
127.4321921551
  0
LINE
  5
32D
100
AcDbEntity
  8
_30_VOLUMEN
100
AcDbLine
 62
7
  6
CONTINUOUS
 10
111.0115916889
 20
126.9534688079
 11
111.0115916889
 21
127.4321921551
  0
LINE
  5
32E
100
AcDbEntity
  8
_30_VOLUMEN
100
AcDbLine
 62
7
  6
CONTINUOUS
 10
107.0037793901
 20
126.4747454607
 11
106.9334669571
 21
125.90027731
  0
LINE
  5
32F
100
AcDbEntity
  8
_30_VOLUMEN
100
AcDbLine
 62
7
  6
CONTINUOUS
 10
105.9490918901
 20
127.5279368245
 11
105.8787794571
 21
127.2407028162
  0
LINE
  5
330
100
AcDbEntity
  8
_30_VOLUMEN
100
AcDbLine
 62
7
  6
CONTINUOUS
 10
106.3006544571
 20
127.1449581468
 11
106.3709668901
 21
127.4321921551
  0
LINE
  5
331
100
AcDbEntity
  8
_30_VOLUMEN
100
AcDbLine
 62
7
  6
CONTINUOUS
 10
118.3000619575
 20
167.9971347436
 11
118.2058151621
 21
167.7345292552
  0
LINE
  5
332
100
AcDbEntity
  8
_30_VOLUMEN
100
AcDbLine
 62
7
  6
CONTINUOUS
 10
120.9488668789
 20
167.6822681187
 11
121.0431134101
 21
167.9448737963
  0
LINE
  5
333
100
AcDbEntity
  8
_30_VOLUMEN
100
AcDbLine
 62
7
  6
CONTINUOUS
 10
102.3006544571
 20
127.0651709222
 11
102.4881542783
 21
127.4481496
  0
LINE
  5
334
100
AcDbEntity
  8
_30_VOLUMEN
100
AcDbLine
 62
7
  6
CONTINUOUS
 10
123.905812438
 20
161.6636202088
 11
123.7948923827
 21
161.471210787
  0
LINE
  5
335
100
AcDbEntity
  8
_30_VOLUMEN
100
AcDbLine
 62
7
  6
CONTINUOUS
 10
101.8319046359
 20
127.4481496
 11
99.2069044571
 21
124.2566603505
  0
LINE
  5
336
100
AcDbEntity
  8
_30_VOLUMEN
100
AcDbLine
 62
7
  6
CONTINUOUS
 10
99.9569042783
 20
124.2566603505
 11
102.3006544571
 21
127.0651709222
  0
LINE
  5
337
100
AcDbEntity
  8
_30_VOLUMEN
100
AcDbLine
 62
7
  6
CONTINUOUS
 10
127.8329341414
 20
153.7140763346
 11
128.0572759626
 21
153.9222473268
  0
LINE
  5
338
100
AcDbEntity
  8
_30_VOLUMEN
100
AcDbLine
 62
7
  6
CONTINUOUS
 10
99.9569042783
 20
128.5970859909
 11
100.2381542783
 21
128.8524051094
  0
LINE
  5
339
100
AcDbEntity
  8
_30_VOLUMEN
100
AcDbLine
 62
7
  6
CONTINUOUS
 10
100.1444046359
 20
129.4907029056
 11
99.7694044571
 21
129.2353837871
  0
LINE
  5
33A
100
AcDbEntity
  8
_30_VOLUMEN
100
AcDbLine
 62
7
  6
CONTINUOUS
 10
79.9322836091
 20
156.7138099666
 11
79.7572831696
 21
156.8097634425
  0
LINE
  5
33B
100
AcDbEntity
  8
_30_VOLUMEN
100
AcDbLine
 62
7
  6
CONTINUOUS
 10
81.8621804636
 20
158.9517494875
 11
81.5784155955
 21
159.108266558
  0
LINE
  5
33C
100
AcDbEntity
  8
_30_VOLUMEN
100
AcDbLine
 62
7
  6
CONTINUOUS
 10
81.4691814935
 20
158.7889326247
 11
81.6925522443
 21
158.6530744835
  0
LINE
  5
33D
100
AcDbEntity
  8
_30_VOLUMEN
100
AcDbLine
 62
7
  6
CONTINUOUS
 10
83.0222122745
 20
161.4808483625
 11
82.758524609
 21
161.669233268
  0
LINE
  5
33E
100
AcDbEntity
  8
_30_VOLUMEN
100
AcDbLine
 62
7
  6
CONTINUOUS
 10
82.6129759325
 20
161.364730669
 11
82.8190744609
 21
161.2038726967
  0
LINE
  5
33F
100
AcDbEntity
  8
_30_VOLUMEN
100
AcDbLine
 62
7
  6
CONTINUOUS
 10
85.5166956567
 20
167.5948031162
 11
85.6948433017
 21
167.4119059862
  0
LINE
  5
340
100
AcDbEntity
  8
_30_VOLUMEN
100
AcDbLine
 62
7
  6
CONTINUOUS
 10
85.8920734249
 20
167.6931190181
 11
85.8029996648
 21
167.784567519
  0
LINE
  5
341
100
AcDbEntity
  8
_30_VOLUMEN
100
AcDbLine
 62
7
  6
CONTINUOUS
 10
113.4022172253
 20
125.3258092933
 11
113.4725294571
 21
125.1343198874
  0
LINE
  5
342
100
AcDbEntity
  8
_30_VOLUMEN
100
AcDbLine
 62
7
  6
CONTINUOUS
 10
113.8240922253
 20
125.1343198874
 11
113.6834669571
 21
125.5172986322
  0
LINE
  5
343
100
AcDbEntity
  8
_30_VOLUMEN
100
AcDbLine
 62
7
  6
CONTINUOUS
 10
113.4022172253
 20
126.8577241385
 11
113.4725294571
 21
126.6662347996
  0
LINE
  5
344
100
AcDbEntity
  8
_30_VOLUMEN
100
AcDbLine
 62
7
  6
CONTINUOUS
 10
113.8240922253
 20
126.6662347996
 11
113.6834669571
 21
127.0492134773
  0
LINE
  5
345
100
AcDbEntity
  8
0
100
AcDbLine
 62
7
  6
CONTINUOUS
 10
111.2694044571
 20
95.9183624649
 11
111.2694044571
 21
118.4183624649
  0
LINE
  5
346
100
AcDbEntity
  8
_30_VOLUMEN
100
AcDbLine
 62
7
  6
CONTINUOUS
 10
111.5740919571
 20
126.8577241385
 11
111.5740919571
 21
126.6662347996
  0
LINE
  5
347
100
AcDbEntity
  8
_30_VOLUMEN
100
AcDbLine
 62
7
  6
CONTINUOUS
 10
113.8240922253
 20
124.9428305485
 11
113.8240922253
 21
125.1343198874
  0
LINE
  5
348
100
AcDbEntity
  8
0
100
AcDbLine
 62
7
  6
CONTINUOUS
 10
114.2694044571
 20
118.4183624649
 11
114.2694044571
 21
118.6183624649
  0
LINE
  5
349
100
AcDbEntity
  8
_30_VOLUMEN
100
AcDbLine
 62
7
  6
CONTINUOUS
 10
117.4245226448
 20
168.3778078826
 11
117.8162910861
 21
171.2662059596
  0
LINE
  5
34A
100
AcDbEntity
  8
_30_VOLUMEN
100
AcDbLine
 62
7
  6
CONTINUOUS
 10
117.4525849756
 20
171.0591622558
 11
117.0227870351
 21
168.1195001206
  0
LINE
  5
34B
100
AcDbEntity
  8
_30_VOLUMEN
100
AcDbLine
 62
7
  6
CONTINUOUS
 10
109.1131545912
 20
124.9428305485
 11
109.183466823
 21
125.3258092933
  0
LINE
  5
34C
100
AcDbEntity
  8
_30_VOLUMEN
100
AcDbLine
 62
7
  6
CONTINUOUS
 10
118.53845021
 20
167.5946823767
 11
118.5887416119
 21
167.8110042842
  0
LINE
  5
34D
100
AcDbEntity
  8
_30_VOLUMEN
100
AcDbLine
 62
7
  6
CONTINUOUS
 10
120.710478393
 20
168.0847207073
 11
120.660186868
 21
167.8683986701
  0
LINE
  5
34E
100
AcDbEntity
  8
_30_VOLUMEN
100
AcDbLine
 62
7
  6
CONTINUOUS
 10
108.8319044571
 20
125.3258092933
 11
108.761591823
 21
125.038575218
  0
LINE
  5
34F
100
AcDbEntity
  8
_30_VOLUMEN
100
AcDbLine
 62
7
  6
CONTINUOUS
 10
122.0298983945
 20
167.5556583525
 11
121.5060717907
 21
165.8837454296
  0
LINE
  5
350
100
AcDbEntity
  8
_30_VOLUMEN
100
AcDbLine
 62
7
  6
CONTINUOUS
 10
121.3672932521
 20
165.5504691195
 11
120.9330108105
 21
164.1712096444
  0
LINE
  5
351
100
AcDbEntity
  8
_30_VOLUMEN
100
AcDbLine
 62
7
  6
CONTINUOUS
 10
121.8104063276
 20
165.9160704111
 11
122.2446891789
 21
167.2953293896
  0
LINE
  5
352
100
AcDbEntity
  8
_30_VOLUMEN
100
AcDbLine
 62
7
  6
CONTINUOUS
 10
121.1478015949
 20
163.9108806815
 11
121.7208625752
 21
165.6234164667
  0
LINE
  5
353
100
AcDbEntity
  8
_30_VOLUMEN
100
AcDbLine
 62
7
  6
CONTINUOUS
 10
122.7673849724
 20
162.2460224156
 11
122.8505186034
 21
162.4873386934
  0
LINE
  5
354
100
AcDbEntity
  8
_30_VOLUMEN
100
AcDbLine
 62
7
  6
CONTINUOUS
 10
107.1444044571
 20
126.8577241385
 11
107.0037793901
 21
126.4747454607
  0
LINE
  5
355
100
AcDbEntity
  8
_30_VOLUMEN
100
AcDbLine
 62
7
  6
CONTINUOUS
 10
107.3553419571
 20
126.3790007913
 11
107.4256545912
 21
126.5704901301
  0
LINE
  5
356
100
AcDbEntity
  8
_30_VOLUMEN
100
AcDbLine
 62
7
  6
CONTINUOUS
 10
125.1824181869
 20
162.1301431052
 11
125.3210497858
 21
162.4029904884
  0
LINE
  5
357
100
AcDbEntity
  8
_30_VOLUMEN
100
AcDbLine
 62
7
  6
CONTINUOUS
 10
106.0897169571
 20
126.761979469
 11
106.3006544571
 21
127.1449581468
  0
LINE
  5
358
100
AcDbEntity
  8
_30_VOLUMEN
100
AcDbLine
 62
7
  6
CONTINUOUS
 10
105.8787794571
 20
127.2407028162
 11
105.7381543901
 21
127.0492134773
  0
LINE
  5
359
100
AcDbEntity
  8
_30_VOLUMEN
100
AcDbLine
 62
7
  6
CONTINUOUS
 10
107.285029323
 20
127.0492134773
 11
107.1444044571
 21
126.8577241385
  0
LINE
  5
35A
100
AcDbEntity
  8
_30_VOLUMEN
100
AcDbLine
 62
7
  6
CONTINUOUS
 10
107.4256545912
 20
126.5704901301
 11
107.6365920912
 21
126.8577241385
  0
LINE
  5
35B
100
AcDbEntity
  8
_30_VOLUMEN
100
AcDbLine
 62
7
  6
CONTINUOUS
 10
127.8854102437
 20
154.178881664
 11
127.7778313707
 21
154.0470477067
  0
LINE
  5
35C
100
AcDbEntity
  8
_30_VOLUMEN
100
AcDbLine
 62
7
  6
CONTINUOUS
 10
105.8084670242
 20
126.4747454607
 11
106.0897169571
 21
126.761979469
  0
LINE
  5
35D
100
AcDbEntity
  8
_30_VOLUMEN
100
AcDbLine
 62
7
  6
CONTINUOUS
 10
127.4013045084
 20
153.5856326377
 11
127.6531978914
 21
153.6273179731
  0
LINE
  5
35E
100
AcDbEntity
  8
_30_VOLUMEN
100
AcDbLine
 62
7
  6
CONTINUOUS
 10
127.5980951208
 20
153.9602893452
 11
127.4091750394
 21
153.9290253364
  0
LINE
  5
35F
100
AcDbEntity
  8
_30_VOLUMEN
100
AcDbLine
 62
7
  6
CONTINUOUS
 10
78.3763377496
 20
154.9818423279
 11
81.306736285
 21
154.3393748783
  0
LINE
  5
360
100
AcDbEntity
  8
_30_VOLUMEN
100
AcDbLine
 62
7
  6
CONTINUOUS
 10
81.3790138731
 20
154.6690447135
 11
80.0696868493
 21
154.9561046419
  0
LINE
  5
361
100
AcDbEntity
  8
_30_VOLUMEN
100
AcDbLine
 62
7
  6
CONTINUOUS
 10
79.6955934638
 20
155.0381217533
 11
78.7603598255
 21
155.2431645702
  0
LINE
  5
362
100
AcDbEntity
  8
_30_VOLUMEN
100
AcDbLine
 62
7
  6
CONTINUOUS
 10
79.0507930412
 20
157.832689703
 11
80.9230109313
 21
157.1922628059
  0
LINE
  5
363
100
AcDbEntity
  8
_30_VOLUMEN
100
AcDbLine
 62
7
  6
CONTINUOUS
 10
81.0322450854
 20
157.5115968915
 11
79.1600271953
 21
158.1520237885
  0
LINE
  5
364
100
AcDbEntity
  8
_30_VOLUMEN
100
AcDbLine
 62
7
  6
CONTINUOUS
 10
80.002936698
 20
160.4925511795
 11
82.7096264663
 21
159.1987851659
  0
LINE
  5
365
100
AcDbEntity
  8
_30_VOLUMEN
100
AcDbLine
 62
7
  6
CONTINUOUS
 10
82.5096402797
 20
159.6684493832
 11
80.4940201974
 21
160.6318921793
  0
LINE
  5
366
100
AcDbEntity
  8
_30_VOLUMEN
100
AcDbLine
 62
7
  6
CONTINUOUS
 10
81.7491387947
 20
161.7776347052
 11
82.6129759325
 21
161.364730669
  0
LINE
  5
367
100
AcDbEntity
  8
_30_VOLUMEN
100
AcDbLine
 62
7
  6
CONTINUOUS
 10
83.053735609
 20
165.7831946057
 11
85.3773947055
 21
163.8856676881
  0
LINE
  5
368
100
AcDbEntity
  8
_30_VOLUMEN
100
AcDbLine
 62
7
  6
CONTINUOUS
 10
85.5908664838
 20
164.1470793365
 11
84.5526358089
 21
164.9949105244
  0
LINE
  5
369
100
AcDbEntity
  8
_30_VOLUMEN
100
AcDbLine
 62
7
  6
CONTINUOUS
 10
84.2559985127
 20
165.2371479744
 11
83.5144051339
 21
165.8427417124
  0
LINE
  5
36A
100
AcDbEntity
  8
_30_VOLUMEN
100
AcDbLine
 62
7
  6
CONTINUOUS
 10
84.7005084441
 20
166.6897197964
 11
84.8488272307
 21
166.5686009583
  0
LINE
  5
36B
100
AcDbEntity
  8
_30_VOLUMEN
100
AcDbLine
 62
7
  6
CONTINUOUS
 10
85.1117385582
 20
166.7896396983
 11
84.9139802223
 21
166.9511314447
  0
LINE
  5
36C
100
AcDbEntity
  8
_30_VOLUMEN
100
AcDbLine
 62
7
  6
CONTINUOUS
 10
87.5802166475
 20
167.7335416099
 11
87.7138272877
 21
167.5963688584
  0
LINE
  5
36D
100
AcDbEntity
  8
_30_VOLUMEN
100
AcDbLine
 62
7
  6
CONTINUOUS
 10
88.000131171
 20
167.7861333893
 11
87.7774467707
 21
168.0147546417
  0
LINE
  5
36E
100
AcDbEntity
  8
_30_VOLUMEN
100
AcDbLine
 62
7
  6
CONTINUOUS
 10
118.2058151621
 20
167.7345292552
 11
118.1931433016
 21
167.3944522994
  0
LINE
  5
36F
100
AcDbEntity
  8
_30_VOLUMEN
100
AcDbLine
 62
7
  6
CONTINUOUS
 10
123.7661223757
 20
163.2016219065
 11
123.6552777982
 21
162.8798665258
  0
LINE
  5
370
100
AcDbEntity
  8
_30_VOLUMEN
100
AcDbLine
 62
7
  6
CONTINUOUS
 10
124.1835293085
 20
161.4332367178
 11
124.294374522
 21
161.7549909792
  0
LINE
  5
371
100
AcDbEntity
  8
_30_VOLUMEN
100
AcDbLine
 62
7
  6
CONTINUOUS
 10
125.0156219299
 20
162.5529348544
 11
124.9601993232
 21
162.3920577237
  0
LINE
  5
372
100
AcDbEntity
  8
_30_VOLUMEN
100
AcDbLine
 62
7
  6
CONTINUOUS
 10
111.9256547253
 20
126.6662347996
 11
111.9959669571
 21
126.8577241385
  0
LINE
  5
373
100
AcDbEntity
  8
_30_VOLUMEN
100
AcDbLine
 62
7
  6
CONTINUOUS
 10
113.4725294571
 20
125.1343198874
 11
113.4022172253
 21
124.9428305485
  0
LINE
  5
374
100
AcDbEntity
  8
_30_VOLUMEN
100
AcDbLine
 62
7
  6
CONTINUOUS
 10
111.7147172253
 20
127.1449581468
 11
111.5740919571
 21
126.8577241385
  0
LINE
  5
375
100
AcDbEntity
  8
_30_VOLUMEN
100
AcDbLine
 62
7
  6
CONTINUOUS
 10
110.0975294571
 20
126.2832561218
 11
110.3084669571
 21
126.6662347996
  0
LINE
  5
376
100
AcDbEntity
  8
_30_VOLUMEN
100
AcDbLine
 62
7
  6
CONTINUOUS
 10
128.0572759626
 20
153.9222473268
 11
128.2094606171
 21
154.1754926446
  0
LINE
  5
377
100
AcDbEntity
  8
_30_VOLUMEN
100
AcDbLine
 62
7
  6
CONTINUOUS
 10
110.238154323
 20
127.0492134773
 11
110.0975294571
 21
126.8577241385
  0
LINE
  5
378
100
AcDbEntity
  8
_30_VOLUMEN
100
AcDbLine
 62
7
  6
CONTINUOUS
 10
108.9022170912
 20
124.6555965067
 11
109.1131545912
 21
124.9428305485
  0
LINE
  5
379
100
AcDbEntity
  8
_30_VOLUMEN
100
AcDbLine
 62
7
  6
CONTINUOUS
 10
107.495966823
 20
127.2407028162
 11
107.285029323
 21
127.0492134773
  0
LINE
  5
37A
100
AcDbEntity
  8
_30_VOLUMEN
100
AcDbLine
 62
7
  6
CONTINUOUS
 10
110.449091823
 20
127.2407028162
 11
110.238154323
 21
127.0492134773
  0
LINE
  5
37B
100
AcDbEntity
  8
_30_VOLUMEN
100
AcDbLine
 62
7
  6
CONTINUOUS
 10
108.761591823
 20
125.038575218
 11
108.550654323
 21
124.8470858791
  0
LINE
  5
37C
100
AcDbEntity
  8
_30_VOLUMEN
100
AcDbLine
 62
7
  6
CONTINUOUS
 10
107.6365920912
 20
126.8577241385
 11
107.7772169571
 21
126.9534688079
  0
LINE
  5
37D
100
AcDbEntity
  8
_30_VOLUMEN
100
AcDbLine
 62
7
  6
CONTINUOUS
 10
110.3084669571
 20
126.6662347996
 11
110.5897166889
 21
126.8577241385
  0
LINE
  5
37E
100
AcDbEntity
  8
_30_VOLUMEN
100
AcDbLine
 62
7
  6
CONTINUOUS
 10
111.9959669571
 20
127.3364474856
 11
111.7147172253
 21
127.1449581468
  0
LINE
  5
37F
100
AcDbEntity
  8
_30_VOLUMEN
100
AcDbLine
 62
7
  6
CONTINUOUS
 10
111.9959669571
 20
126.8577241385
 11
112.1365922253
 21
126.9534688079
  0
LINE
  5
380
100
AcDbEntity
  8
_30_VOLUMEN
100
AcDbLine
 62
7
  6
CONTINUOUS
 10
108.6209669571
 20
124.4641071427
 11
108.9022170912
 21
124.6555965067
  0
LINE
  5
381
100
AcDbEntity
  8
_30_VOLUMEN
100
AcDbLine
 62
7
  6
CONTINUOUS
 10
105.7381543901
 20
127.0492134773
 11
105.5272168901
 21
126.9534688079
  0
LINE
  5
382
100
AcDbEntity
  8
_30_VOLUMEN
100
AcDbLine
 62
7
  6
CONTINUOUS
 10
107.706904323
 20
127.3364474856
 11
107.495966823
 21
127.2407028162
  0
LINE
  5
383
100
AcDbEntity
  8
_30_VOLUMEN
100
AcDbLine
 62
7
  6
CONTINUOUS
 10
110.6600297253
 20
127.3364474856
 11
110.449091823
 21
127.2407028162
  0
LINE
  5
384
100
AcDbEntity
  8
_30_VOLUMEN
100
AcDbLine
 62
7
  6
CONTINUOUS
 10
107.7772169571
 20
126.9534688079
 11
108.0584670912
 21
127.0492134773
  0
LINE
  5
385
100
AcDbEntity
  8
_30_VOLUMEN
100
AcDbLine
 62
7
  6
CONTINUOUS
 10
112.1365922253
 20
126.9534688079
 11
112.4178419571
 21
127.0492134773
  0
LINE
  5
386
100
AcDbEntity
  8
_30_VOLUMEN
100
AcDbLine
 62
7
  6
CONTINUOUS
 10
125.1014611712
 20
154.9725014019
 11
126.4239006821
 21
155.1913492884
  0
LINE
  5
387
100
AcDbEntity
  8
_30_VOLUMEN
100
AcDbLine
 62
7
  6
CONTINUOUS
 10
126.801740492
 20
155.2538772476
 11
127.7463401931
 21
155.4101971749
  0
LINE
  5
388
100
AcDbEntity
  8
_30_VOLUMEN
100
AcDbLine
 62
7
  6
CONTINUOUS
 10
128.0061039307
 20
155.7952751797
 11
125.0463584005
 21
155.305472774
  0
LINE
  5
389
100
AcDbEntity
  8
_30_VOLUMEN
100
AcDbLine
 62
7
  6
CONTINUOUS
 10
80.9230109313
 20
157.1922628059
 11
81.2431872362
 21
157.1421905829
  0
LINE
  5
38A
100
AcDbEntity
  8
_30_VOLUMEN
100
AcDbLine
 62
7
  6
CONTINUOUS
 10
79.4356098165
 20
156.5347717198
 11
79.6226566839
 21
156.4937631258
  0
LINE
  5
38B
100
AcDbEntity
  8
_30_VOLUMEN
100
AcDbLine
 62
7
  6
CONTINUOUS
 10
79.7572831696
 20
156.8097634425
 11
79.5078874046
 21
156.8644415551
  0
LINE
  5
38C
100
AcDbEntity
  8
_30_VOLUMEN
100
AcDbLine
 62
7
  6
CONTINUOUS
 10
79.5969636034
 20
159.4293595217
 11
81.4691814935
 21
158.7889326247
  0
LINE
  5
38D
100
AcDbEntity
  8
_30_VOLUMEN
100
AcDbLine
 62
7
  6
CONTINUOUS
 10
81.5784155955
 20
159.108266558
 11
79.7061977054
 21
159.748693455
  0
LINE
  5
38E
100
AcDbEntity
  8
_30_VOLUMEN
100
AcDbLine
 62
7
  6
CONTINUOUS
 10
82.758524609
 20
161.669233268
 11
81.8946874712
 21
162.0821373042
  0
LINE
  5
38F
100
AcDbEntity
  8
_30_VOLUMEN
100
AcDbLine
 62
7
  6
CONTINUOUS
 10
86.4201605836
 20
166.4254007724
 11
86.6386029117
 21
166.2817522002
  0
LINE
  5
390
100
AcDbEntity
  8
_30_VOLUMEN
100
AcDbLine
 62
7
  6
CONTINUOUS
 10
85.6948433017
 20
167.4119059862
 11
85.9132856299
 21
167.268257414
  0
LINE
  5
391
100
AcDbEntity
  8
_30_VOLUMEN
100
AcDbLine
 62
7
  6
CONTINUOUS
 10
120.7693836685
 20
138.04743154
 11
120.7694044571
 21
150.6183624649
  0
LINE
  5
392
100
AcDbEntity
  8
_30_VOLUMEN
100
AcDbLine
 62
7
  6
CONTINUOUS
 10
121.0431134101
 20
167.9448737963
 11
121.0557852552
 21
168.284950736
  0
LINE
  5
393
100
AcDbEntity
  8
_30_VOLUMEN
100
AcDbLine
 62
7
  6
CONTINUOUS
 10
122.4341700757
 20
162.444874768
 11
122.4066101939
 21
162.1057430688
  0
LINE
  5
394
100
AcDbEntity
  8
_30_VOLUMEN
100
AcDbLine
 62
7
  6
CONTINUOUS
 10
124.0162039789
 20
162.7614527277
 11
124.0438392462
 21
162.9712384155
  0
LINE
  5
395
100
AcDbEntity
  8
_30_VOLUMEN
100
AcDbLine
 62
7
  6
CONTINUOUS
 10
123.9334480233
 20
161.873405337
 11
123.905812438
 21
161.6636202088
  0
LINE
  5
396
100
AcDbEntity
  8
_30_VOLUMEN
100
AcDbLine
 62
7
  6
CONTINUOUS
 10
125.3210497858
 20
162.4029904884
 11
125.3763963564
 21
162.6932147416
  0
LINE
  5
397
100
AcDbEntity
  8
_30_VOLUMEN
100
AcDbLine
 62
7
  6
CONTINUOUS
 10
113.6834669571
 20
124.6555965067
 11
113.8240922253
 21
124.9428305485
  0
LINE
  5
398
100
AcDbEntity
  8
_30_VOLUMEN
100
AcDbLine
 62
7
  6
CONTINUOUS
 10
113.4022172253
 20
124.9428305485
 11
113.2615919571
 21
124.8470858791
  0
LINE
  5
399
100
AcDbEntity
  8
_30_VOLUMEN
100
AcDbLine
 62
7
  6
CONTINUOUS
 10
113.4022172253
 20
124.4641071427
 11
113.6834669571
 21
124.6555965067
  0
LINE
  5
39A
100
AcDbEntity
  8
_30_VOLUMEN
100
AcDbLine
 62
7
  6
CONTINUOUS
 10
113.2615919571
 20
124.8470858791
 11
112.9803422253
 21
124.7513411761
  0
LINE
  5
39B
100
AcDbEntity
  8
_30_VOLUMEN
100
AcDbLine
 62
7
  6
CONTINUOUS
 10
124.2935425769
 20
163.1778014911
 11
124.4878234563
 21
163.2234875243
  0
LINE
  5
39C
100
AcDbEntity
  8
_30_VOLUMEN
100
AcDbLine
 62
7
  6
CONTINUOUS
 10
124.4156864769
 20
157.5838066224
 11
125.2140035179
 21
157.5814993944
  0
LINE
  5
39D
100
AcDbEntity
  8
_30_VOLUMEN
100
AcDbLine
 62
7
  6
CONTINUOUS
 10
125.4748768715
 20
157.5987347189
 11
127.271090817
 21
157.5935416203
  0
LINE
  5
39E
100
AcDbEntity
  8
_30_VOLUMEN
100
AcDbLine
 62
7
  6
CONTINUOUS
 10
81.2920271689
 20
157.4821832932
 11
81.0322450854
 21
157.5115968915
  0
LINE
  5
39F
100
AcDbEntity
  8
_30_VOLUMEN
100
AcDbLine
 62
7
  6
CONTINUOUS
 10
127.2032009485
 20
153.60986304
 11
127.4013045084
 21
153.5856326377
  0
LINE
  5
3A0
100
AcDbEntity
  8
_30_VOLUMEN
100
AcDbLine
 62
7
  6
CONTINUOUS
 10
127.4091750394
 20
153.9290253364
 11
127.2110714795
 21
153.9532557387
  0
LINE
  5
3A1
100
AcDbEntity
  8
_30_VOLUMEN
100
AcDbLine
 62
7
  6
CONTINUOUS
 10
81.4945242259
 20
161.8369921984
 11
81.7491387947
 21
161.7776347052
  0
LINE
  5
3A2
100
AcDbEntity
  8
_30_VOLUMEN
100
AcDbLine
 62
7
  6
CONTINUOUS
 10
81.8946874712
 20
162.0821373042
 11
81.582483604
 21
162.1690218076
  0
LINE
  5
3A3
100
AcDbEntity
  8
_30_VOLUMEN
100
AcDbLine
 62
7
  6
CONTINUOUS
 10
84.5166108949
 20
166.7672695809
 11
84.7005084441
 21
166.6897197964
  0
LINE
  5
3A4
100
AcDbEntity
  8
_30_VOLUMEN
100
AcDbLine
 62
7
  6
CONTINUOUS
 10
84.9139802223
 20
166.9511314447
 11
84.7300826731
 21
167.0286812292
  0
LINE
  5
3A5
100
AcDbEntity
  8
_30_VOLUMEN
100
AcDbLine
 62
7
  6
CONTINUOUS
 10
86.8358330349
 20
166.562965232
 11
86.6619275868
 21
166.6608895538
  0
LINE
  5
3A6
100
AcDbEntity
  8
_30_VOLUMEN
100
AcDbLine
 62
7
  6
CONTINUOUS
 10
86.065978873
 20
167.5951946963
 11
85.8920734249
 21
167.6931190181
  0
LINE
  5
3A7
100
AcDbEntity
  8
_30_VOLUMEN
100
AcDbLine
 62
7
  6
CONTINUOUS
 10
86.7658254808
 20
168.8114954527
 11
86.5919200327
 21
168.9094197745
  0
LINE
  5
3A8
100
AcDbEntity
  8
_30_VOLUMEN
100
AcDbLine
 62
7
  6
CONTINUOUS
 10
90.61351188
 20
168.9529338686
 11
88.0728622116
 21
170.7846270838
  0
LINE
  5
3A9
100
AcDbEntity
  8
_30_VOLUMEN
100
AcDbLine
 62
7
  6
CONTINUOUS
 10
89.700914706
 20
169.2180073268
 11
90.3457940535
 21
168.7474261672
  0
LINE
  5
3AA
100
AcDbEntity
  8
_30_VOLUMEN
100
AcDbLine
 62
7
  6
CONTINUOUS
 10
88.0498501206
 20
170.4450928601
 11
89.5008279273
 21
169.38628461
  0
LINE
  5
3AB
100
AcDbEntity
  8
_30_VOLUMEN
100
AcDbLine
 62
7
  6
CONTINUOUS
 10
123.6552777982
 20
162.8798665258
 11
123.6554289164
 21
162.6211739599
  0
LINE
  5
3AC
100
AcDbEntity
  8
_30_VOLUMEN
100
AcDbLine
 62
7
  6
CONTINUOUS
 10
124.294374522
 20
161.7549909792
 11
124.2942230858
 21
162.0136841048
  0
LINE
  5
3AD
100
AcDbEntity
  8
_30_VOLUMEN
100
AcDbLine
 62
7
  6
CONTINUOUS
 10
125.2694044571
 20
118.6183624649
 11
125.2694044571
 21
120.6183624649
  0
LINE
  5
3AE
100
AcDbEntity
  8
_30_VOLUMEN
100
AcDbLine
 62
7
  6
CONTINUOUS
 10
127.92083216
 20
154.3557886766
 11
127.8854102437
 21
154.178881664
  0
LINE
  5
3AF
100
AcDbEntity
  8
_30_VOLUMEN
100
AcDbLine
 62
7
  6
CONTINUOUS
 10
81.5096209576
 20
157.5266513526
 11
81.2920271689
 21
157.4821832932
  0
LINE
  5
3B0
100
AcDbEntity
  8
_30_VOLUMEN
100
AcDbLine
 62
7
  6
CONTINUOUS
 10
81.7644943543
 20
156.4272838871
 11
80.2220531533
 21
156.2471780998
  0
LINE
  5
3B1
100
AcDbEntity
  8
_30_VOLUMEN
100
AcDbLine
 62
7
  6
CONTINUOUS
 10
80.2744733431
 20
155.8901691488
 11
81.6801704786
 21
156.0426689746
  0
LINE
  5
3B2
100
AcDbEntity
  8
_30_VOLUMEN
100
AcDbLine
 62
7
  6
CONTINUOUS
 10
123.4620551031
 20
161.0233319934
 11
123.7396212122
 21
161.0516405307
  0
LINE
  5
3B3
100
AcDbEntity
  8
_30_VOLUMEN
100
AcDbLine
 62
7
  6
CONTINUOUS
 10
81.2431872362
 20
157.1421905829
 11
81.5211751324
 21
157.1659995461
  0
LINE
  5
3B4
100
AcDbEntity
  8
_30_VOLUMEN
100
AcDbLine
 62
7
  6
CONTINUOUS
 10
79.2365168706
 20
156.5208353554
 11
79.4356098165
 21
156.5347717198
  0
LINE
  5
3B5
100
AcDbEntity
  8
_30_VOLUMEN
100
AcDbLine
 62
7
  6
CONTINUOUS
 10
79.5078874046
 20
156.8644415551
 11
79.3087944587
 21
156.8505051907
  0
LINE
  5
3B6
100
AcDbEntity
  8
_30_VOLUMEN
100
AcDbLine
 62
7
  6
CONTINUOUS
 10
127.4534764662
 20
157.8808542032
 11
124.3215015191
 21
157.9078983435
  0
LINE
  5
3B7
100
AcDbEntity
  8
_30_VOLUMEN
100
AcDbLine
 62
7
  6
CONTINUOUS
 10
81.582483604
 20
162.1690218076
 11
81.3036107373
 21
162.1776284804
  0
LINE
  5
3B8
100
AcDbEntity
  8
_30_VOLUMEN
100
AcDbLine
 62
7
  6
CONTINUOUS
 10
86.6386029117
 20
166.2817522002
 11
86.9821708604
 21
166.1708752904
  0
LINE
  5
3B9
100
AcDbEntity
  8
_30_VOLUMEN
100
AcDbLine
 62
7
  6
CONTINUOUS
 10
87.7774467707
 20
168.0147546417
 11
87.5187095722
 21
168.1191548483
  0
LINE
  5
3BA
100
AcDbEntity
  8
_30_VOLUMEN
100
AcDbLine
 62
7
  6
CONTINUOUS
 10
86.3946899095
 20
168.6282067427
 11
86.5240584776
 21
168.5760066714
  0
LINE
  5
3BB
100
AcDbEntity
  8
_30_VOLUMEN
100
AcDbLine
 62
7
  6
CONTINUOUS
 10
118.5729015997
 20
167.3859082434
 11
118.53845021
 21
167.5946823767
  0
LINE
  5
3BC
100
AcDbEntity
  8
_30_VOLUMEN
100
AcDbLine
 62
7
  6
CONTINUOUS
 10
120.6760269726
 20
168.2934948082
 11
120.710478393
 21
168.0847207073
  0
LINE
  5
3BD
100
AcDbEntity
  8
_30_VOLUMEN
100
AcDbLine
 62
7
  6
CONTINUOUS
 10
128.2094606171
 20
154.1754926446
 11
128.2265150133
 21
154.4633896912
  0
LINE
  5
3BE
100
AcDbEntity
  8
_30_VOLUMEN
100
AcDbLine
 62
7
  6
CONTINUOUS
 10
121.5060717907
 20
165.8837454296
 11
119.7158631687
 21
165.6464069354
  0
LINE
  5
3BF
100
AcDbEntity
  8
_30_VOLUMEN
100
AcDbLine
 62
7
  6
CONTINUOUS
 10
119.9306539531
 20
165.3860779725
 11
121.3672932521
 21
165.5504691195
  0
LINE
  5
3C0
100
AcDbEntity
  8
_30_VOLUMEN
100
AcDbLine
 62
7
  6
CONTINUOUS
 10
123.2470460363
 20
166.0804610615
 11
121.8104063276
 21
165.9160704111
  0
LINE
  5
3C1
100
AcDbEntity
  8
_30_VOLUMEN
100
AcDbLine
 62
7
  6
CONTINUOUS
 10
121.7208625752
 20
165.6234164667
 11
123.4618368207
 21
165.8201320986
  0
LINE
  5
3C2
100
AcDbEntity
  8
_30_VOLUMEN
100
AcDbLine
 62
7
  6
CONTINUOUS
 10
119.2536151545
 20
166.3873250058
 11
119.5925862262
 21
166.41751647
  0
LINE
  5
3C3
100
AcDbEntity
  8
_30_VOLUMEN
100
AcDbLine
 62
7
  6
CONTINUOUS
 10
81.2732403351
 20
161.8180720151
 11
81.4945242259
 21
161.8369921984
  0
LINE
  5
3C4
100
AcDbEntity
  8
_30_VOLUMEN
100
AcDbLine
 62
7
  6
CONTINUOUS
 10
123.6283983622
 20
161.3766174044
 11
123.4063302988
 21
161.3798400167
  0
LINE
  5
3C5
100
AcDbEntity
  8
_30_VOLUMEN
100
AcDbLine
 62
7
  6
CONTINUOUS
 10
87.0903272079
 20
166.5435368392
 11
86.8358330349
 21
166.562965232
  0
LINE
  5
3C6
100
AcDbEntity
  8
_30_VOLUMEN
100
AcDbLine
 62
7
  6
CONTINUOUS
 10
84.7300826731
 20
167.0286812292
 11
84.4255885866
 21
167.0594670384
  0
LINE
  5
3C7
100
AcDbEntity
  8
_30_VOLUMEN
100
AcDbLine
 62
7
  6
CONTINUOUS
 10
123.1289162424
 20
161.0928372233
 11
123.4620551031
 21
161.0233319934
  0
LINE
  5
3C8
100
AcDbEntity
  8
_30_VOLUMEN
100
AcDbLine
 62
7
  6
CONTINUOUS
 10
86.5919200327
 20
168.9094197745
 11
86.2928890109
 21
168.9745723858
  0
LINE
  5
3C9
100
AcDbEntity
  8
_30_VOLUMEN
100
AcDbLine
 62
7
  6
CONTINUOUS
 10
87.3660163291
 20
167.792217566
 11
87.5802166475
 21
167.7335416099
  0
LINE
  5
3CA
100
AcDbEntity
  8
_30_VOLUMEN
100
AcDbLine
 62
7
  6
CONTINUOUS
 10
126.9237563566
 20
153.7346634199
 11
127.2032009485
 21
153.60986304
  0
LINE
  5
3CB
100
AcDbEntity
  8
_30_VOLUMEN
100
AcDbLine
 62
7
  6
CONTINUOUS
 10
127.2110714795
 20
153.9532557387
 11
127.0667571459
 21
154.0434043898
  0
LINE
  5
3CC
100
AcDbEntity
  8
_30_VOLUMEN
100
AcDbLine
 62
7
  6
CONTINUOUS
 10
118.1931433016
 20
167.3944522994
 11
118.2683821703
 21
167.1469424445
  0
LINE
  5
3CD
100
AcDbEntity
  8
_30_VOLUMEN
100
AcDbLine
 62
7
  6
CONTINUOUS
 10
121.0557852552
 20
168.284950736
 11
120.9805466084
 21
168.5324603571
  0
LINE
  5
3CE
100
AcDbEntity
  8
_30_VOLUMEN
100
AcDbLine
 62
7
  6
CONTINUOUS
 10
122.4066101939
 20
162.1057430688
 11
122.4900460176
 21
161.8296741898
  0
LINE
  5
3CF
100
AcDbEntity
  8
_30_VOLUMEN
100
AcDbLine
 62
7
  6
CONTINUOUS
 10
124.3215015191
 20
157.9078983435
 11
124.4156864769
 21
157.5838066224
  0
LINE
  5
3D0
100
AcDbEntity
  8
_30_VOLUMEN
100
AcDbLine
 62
7
  6
CONTINUOUS
 10
124.8552160407
 20
156.0713794146
 11
124.9494009985
 21
155.7472876934
  0
LINE
  5
3D1
100
AcDbEntity
  8
_30_VOLUMEN
100
AcDbLine
 62
7
  6
CONTINUOUS
 10
122.8230340975
 20
162.0188609772
 11
122.7673849724
 21
162.2460224156
  0
LINE
  5
3D2
100
AcDbEntity
  8
_30_VOLUMEN
100
AcDbLine
 62
7
  6
CONTINUOUS
 10
123.6554289164
 20
162.6211739599
 11
123.7110783595
 21
162.3940119618
  0
LINE
  5
3D3
100
AcDbEntity
  8
_30_VOLUMEN
100
AcDbLine
 62
7
  6
CONTINUOUS
 10
123.8777992163
 20
162.1005662157
 11
123.9334480233
 21
161.873405337
  0
LINE
  5
3D4
100
AcDbEntity
  8
_30_VOLUMEN
100
AcDbLine
 62
7
  6
CONTINUOUS
 10
125.0463584005
 20
155.305472774
 11
125.1014611712
 21
154.9725014019
  0
LINE
  5
3D5
100
AcDbEntity
  8
_30_VOLUMEN
100
AcDbLine
 62
7
  6
CONTINUOUS
 10
125.3310559087
 20
153.5851215314
 11
125.3953425445
 21
153.1966545072
  0
LINE
  5
3D6
100
AcDbEntity
  8
_30_VOLUMEN
100
AcDbLine
 62
7
  6
CONTINUOUS
 10
126.4239006821
 20
155.1913492884
 11
126.5800251289
 21
154.247930824
  0
LINE
  5
3D7
100
AcDbEntity
  8
_30_VOLUMEN
100
AcDbLine
 62
7
  6
CONTINUOUS
 10
126.9762324589
 20
154.1994687493
 11
126.801740492
 21
155.2538772476
  0
LINE
  5
3D8
100
AcDbEntity
  8
_30_VOLUMEN
100
AcDbLine
 62
7
  6
CONTINUOUS
 10
124.0440664005
 20
162.5831987271
 11
124.0162039789
 21
162.7614527277
  0
LINE
  5
3D9
100
AcDbEntity
  8
_30_VOLUMEN
100
AcDbLine
 62
7
  6
CONTINUOUS
 10
124.9877595084
 20
162.731188855
 11
125.0156219299
 21
162.5529348544
  0
LINE
  5
3DA
100
AcDbEntity
  8
_30_VOLUMEN
100
AcDbLine
 62
7
  6
CONTINUOUS
 10
81.3036107373
 20
162.1776284804
 11
80.9762218303
 21
162.0847346741
  0
LINE
  5
3DB
100
AcDbEntity
  8
_30_VOLUMEN
100
AcDbLine
 62
7
  6
CONTINUOUS
 10
86.9821708604
 20
166.1708752904
 11
87.3172537075
 21
166.2299428787
  0
LINE
  5
3DC
100
AcDbEntity
  8
_30_VOLUMEN
100
AcDbLine
 62
7
  6
CONTINUOUS
 10
119.9953134024
 20
169.2920780296
 11
119.6563423461
 21
169.2618865815
  0
LINE
  5
3DD
100
AcDbEntity
  8
_30_VOLUMEN
100
AcDbLine
 62
7
  6
CONTINUOUS
 10
84.3465748082
 20
166.7608785138
 11
84.5166108949
 21
166.7672695809
  0
LINE
  5
3DE
100
AcDbEntity
  8
_30_VOLUMEN
100
AcDbLine
 62
7
  6
CONTINUOUS
 10
85.9132856299
 20
167.268257414
 11
86.2526105374
 21
167.2423523341
  0
LINE
  5
3DF
100
AcDbEntity
  8
_30_VOLUMEN
100
AcDbLine
 62
7
  6
CONTINUOUS
 10
87.5187095722
 20
168.1191548483
 11
87.1793846647
 21
168.1450599282
  0
LINE
  5
3E0
100
AcDbEntity
  8
_30_VOLUMEN
100
AcDbLine
 62
7
  6
CONTINUOUS
 10
86.2250274558
 20
168.6411592826
 11
86.3946899095
 21
168.6282067427
  0
LINE
  5
3E1
100
AcDbEntity
  8
_30_VOLUMEN
100
AcDbLine
 62
7
  6
CONTINUOUS
 10
119.4357726906
 20
166.7424976073
 11
119.2254997886
 21
166.7661374819
  0
LINE
  5
3E2
100
AcDbEntity
  8
_30_VOLUMEN
100
AcDbLine
 62
7
  6
CONTINUOUS
 10
124.7652380903
 20
163.5104891652
 11
124.4320986132
 21
163.5799955255
  0
LINE
  5
3E3
100
AcDbEntity
  8
_30_VOLUMEN
100
AcDbLine
 62
7
  6
CONTINUOUS
 10
123.4063302988
 20
161.3798400167
 11
123.2119738179
 21
161.4635006126
  0
LINE
  5
3E4
100
AcDbEntity
  8
_30_VOLUMEN
100
AcDbLine
 62
7
  6
CONTINUOUS
 10
122.9067727643
 20
161.2254058305
 11
123.1289162424
 21
161.0928372233
  0
LINE
  5
3E5
100
AcDbEntity
  8
_30_VOLUMEN
100
AcDbLine
 62
7
  6
CONTINUOUS
 10
122.7123409173
 20
161.4384124488
 11
122.9067727643
 21
161.2254058305
  0
LINE
  5
3E6
100
AcDbEntity
  8
_30_VOLUMEN
100
AcDbLine
 62
7
  6
CONTINUOUS
 10
119.7158631687
 20
165.6464069354
 11
119.9306539531
 21
165.3860779725
  0
LINE
  5
3E7
100
AcDbEntity
  8
_30_VOLUMEN
100
AcDbLine
 62
7
  6
CONTINUOUS
 10
120.9330108105
 20
164.1712096444
 11
121.1478015949
 21
163.9108806815
  0
LINE
  5
3E8
100
AcDbEntity
  8
_30_VOLUMEN
100
AcDbLine
 62
7
  6
CONTINUOUS
 10
126.7610745028
 20
153.935802105
 11
126.9237563566
 21
153.7346634199
  0
LINE
  5
3E9
100
AcDbEntity
  8
_30_VOLUMEN
100
AcDbLine
 62
7
  6
CONTINUOUS
 10
118.2683821703
 20
167.1469424445
 11
118.4283636357
 21
166.9069806259
  0
LINE
  5
3EA
100
AcDbEntity
  8
_30_VOLUMEN
100
AcDbLine
 62
7
  6
CONTINUOUS
 10
118.6920958426
 20
167.1846819492
 11
118.5729015997
 21
167.3859082434
  0
LINE
  5
3EB
100
AcDbEntity
  8
_30_VOLUMEN
100
AcDbLine
 62
7
  6
CONTINUOUS
 10
127.0667571459
 20
154.0434043898
 11
126.9762324589
 21
154.1994687493
  0
LINE
  5
3EC
100
AcDbEntity
  8
_30_VOLUMEN
100
AcDbLine
 62
7
  6
CONTINUOUS
 10
122.4900460176
 20
161.8296741898
 11
122.7123409173
 21
161.4384124488
  0
LINE
  5
3ED
100
AcDbEntity
  8
_30_VOLUMEN
100
AcDbLine
 62
7
  6
CONTINUOUS
 10
123.0453289972
 20
161.6275992362
 11
122.8230340975
 21
162.0188609772
  0
LINE
  5
3EE
100
AcDbEntity
  8
_30_VOLUMEN
100
AcDbLine
 62
7
  6
CONTINUOUS
 10
122.9892259204
 20
162.6308395138
 11
122.8225050636
 21
162.92428526
  0
LINE
  5
3EF
100
AcDbEntity
  8
_30_VOLUMEN
100
AcDbLine
 62
7
  6
CONTINUOUS
 10
123.7110783595
 20
162.3940119618
 11
123.8777992163
 21
162.1005662157
  0
LINE
  5
3F0
100
AcDbEntity
  8
_30_VOLUMEN
100
AcDbLine
 62
7
  6
CONTINUOUS
 10
124.2107872573
 20
162.289752981
 11
124.0440664005
 21
162.5831987271
  0
LINE
  5
3F1
100
AcDbEntity
  8
_30_VOLUMEN
100
AcDbLine
 62
7
  6
CONTINUOUS
 10
123.682786388
 20
159.4718823576
 11
123.8147253701
 21
159.161240514
  0
LINE
  5
3F2
100
AcDbEntity
  8
_30_VOLUMEN
100
AcDbLine
 62
7
  6
CONTINUOUS
 10
125.7984586491
 20
161.3482869745
 11
126.1502961026
 21
160.5199083299
  0
LINE
  5
3F3
100
AcDbEntity
  8
_30_VOLUMEN
100
AcDbLine
 62
7
  6
CONTINUOUS
 10
126.2822350847
 20
160.2092664863
 11
126.6340720349
 21
159.3808890267
  0
LINE
  5
3F4
100
AcDbEntity
  8
_30_VOLUMEN
100
AcDbLine
 62
7
  6
CONTINUOUS
 10
126.9278231522
 20
159.5056540068
 11
126.0922097664
 21
161.4730519545
  0
LINE
  5
3F5
100
AcDbEntity
  8
_30_VOLUMEN
100
AcDbLine
 62
7
  6
CONTINUOUS
 10
124.2942230858
 20
162.0136841048
 11
124.2107872573
 21
162.289752981
  0
LINE
  5
3F6
100
AcDbEntity
  8
_30_VOLUMEN
100
AcDbLine
 62
7
  6
CONTINUOUS
 10
125.3763963564
 20
162.6932147416
 11
125.2929605279
 21
162.9692836178
  0
LINE
  5
3F7
100
AcDbEntity
  8
_30_VOLUMEN
100
AcDbLine
 62
7
  6
CONTINUOUS
 10
125.2140035179
 20
157.5814993944
 11
125.5279536169
 21
156.5011928331
  0
LINE
  5
3F8
100
AcDbEntity
  8
_30_VOLUMEN
100
AcDbLine
 62
7
  6
CONTINUOUS
 10
125.757431745
 20
156.6264595555
 11
125.4748768715
 21
157.5987347189
  0
LINE
  5
3F9
100
AcDbEntity
  8
_30_VOLUMEN
100
AcDbLine
 62
7
  6
CONTINUOUS
 10
127.5790566496
 20
157.4487310842
 11
127.4534764662
 21
157.8808542032
  0
LINE
  5
3FA
100
AcDbEntity
  8
_30_VOLUMEN
100
AcDbLine
 62
7
  6
CONTINUOUS
 10
127.7463401931
 20
155.4101971749
 11
127.92083216
 21
154.3557886766
  0
LINE
  5
3FB
100
AcDbEntity
  8
_30_VOLUMEN
100
AcDbLine
 62
7
  6
CONTINUOUS
 10
128.2265150133
 20
154.4633896912
 11
128.0061039307
 21
155.7952751797
  0
LINE
  5
3FC
100
AcDbEntity
  8
_30_VOLUMEN
100
AcDbLine
 62
7
  6
CONTINUOUS
 10
86.2526105374
 20
167.2423523341
 11
86.5028626071
 21
167.3078966535
  0
LINE
  5
3FD
100
AcDbEntity
  8
_30_VOLUMEN
100
AcDbLine
 62
7
  6
CONTINUOUS
 10
87.1793846647
 20
168.1450599282
 11
86.929132595
 21
168.0795156088
  0
LINE
  5
3FE
100
AcDbEntity
  8
_30_VOLUMEN
100
AcDbLine
 62
7
  6
CONTINUOUS
 10
84.4255885866
 20
167.0594670384
 11
84.1349551483
 21
167.0063109987
  0
LINE
  5
3FF
100
AcDbEntity
  8
_30_VOLUMEN
100
AcDbLine
 62
7
  6
CONTINUOUS
 10
86.2759361348
 20
167.621490586
 11
86.065978873
 21
167.5951946963
  0
LINE
  5
400
100
AcDbEntity
  8
_30_VOLUMEN
100
AcDbLine
 62
7
  6
CONTINUOUS
 10
87.1560590673
 20
167.7659216763
 11
87.3660163291
 21
167.792217566
  0
LINE
  5
401
100
AcDbEntity
  8
_30_VOLUMEN
100
AcDbLine
 62
7
  6
CONTINUOUS
 10
86.2928890109
 20
168.9745723858
 11
85.9981000611
 21
168.9547523168
  0
LINE
  5
402
100
AcDbEntity
  8
_30_VOLUMEN
100
AcDbLine
 62
7
  6
CONTINUOUS
 10
119.8131559124
 20
168.9369054767
 11
120.0234287836
 21
168.9132655697
  0
LINE
  5
403
100
AcDbEntity
  8
_30_VOLUMEN
100
AcDbLine
 62
7
  6
CONTINUOUS
 10
119.0025550453
 20
166.4497004208
 11
119.2536151545
 21
166.3873250058
  0
LINE
  5
404
100
AcDbEntity
  8
_30_VOLUMEN
100
AcDbLine
 62
7
  6
CONTINUOUS
 10
120.2463737333
 20
169.2297023807
 11
119.9953134024
 21
169.2920780296
  0
LINE
  5
405
100
AcDbEntity
  8
_30_VOLUMEN
100
AcDbLine
 62
7
  6
CONTINUOUS
 10
124.4878234563
 20
163.2234875243
 11
124.6821802163
 21
163.1398263466
  0
LINE
  5
406
100
AcDbEntity
  8
_30_VOLUMEN
100
AcDbLine
 62
7
  6
CONTINUOUS
 10
119.2254997886
 20
166.7661374819
 11
119.0183948204
 21
166.8747966792
  0
LINE
  5
407
100
AcDbEntity
  8
_30_VOLUMEN
100
AcDbLine
 62
7
  6
CONTINUOUS
 10
118.7546626135
 20
166.597095356
 11
119.0025550453
 21
166.4497004208
  0
LINE
  5
408
100
AcDbEntity
  8
_30_VOLUMEN
100
AcDbLine
 62
7
  6
CONTINUOUS
 10
124.9873812359
 20
163.3779211094
 11
124.7652380903
 21
163.5104891652
  0
LINE
  5
409
100
AcDbEntity
  8
_30_VOLUMEN
100
AcDbLine
 62
7
  6
CONTINUOUS
 10
114.9431361352
 20
169.5607742772
 11
115.2291054316
 21
169.3815319509
  0
LINE
  5
40A
100
AcDbEntity
  8
_30_VOLUMEN
100
AcDbLine
 62
7
  6
CONTINUOUS
 10
115.6223178371
 20
169.158417914
 11
115.8933763874
 21
168.9573370538
  0
LINE
  5
40B
100
AcDbEntity
  8
_30_VOLUMEN
100
AcDbLine
 62
7
  6
CONTINUOUS
 10
117.0227870351
 20
168.1195001206
 11
117.4293748605
 21
167.8178788303
  0
LINE
  5
40C
100
AcDbEntity
  8
_30_VOLUMEN
100
AcDbLine
 62
7
  6
CONTINUOUS
 10
124.6821802163
 20
163.1398263466
 11
124.8210386516
 21
163.0246346011
  0
LINE
  5
40D
100
AcDbEntity
  8
_30_VOLUMEN
100
AcDbLine
 62
7
  6
CONTINUOUS
 10
118.4283636357
 20
166.9069806259
 11
118.7546626135
 21
166.597095356
  0
LINE
  5
40E
100
AcDbEntity
  8
_30_VOLUMEN
100
AcDbLine
 62
7
  6
CONTINUOUS
 10
119.0183948204
 20
166.8747966792
 11
118.6920958426
 21
167.1846819492
  0
LINE
  5
40F
100
AcDbEntity
  8
_30_VOLUMEN
100
AcDbLine
 62
7
  6
CONTINUOUS
 10
120.2305337519
 20
168.8046063724
 11
120.5568327297
 21
168.4947211024
  0
LINE
  5
410
100
AcDbEntity
  8
_30_VOLUMEN
100
AcDbLine
 62
7
  6
CONTINUOUS
 10
123.2119738179
 20
161.4635006126
 11
123.0453289972
 21
161.6275992362
  0
LINE
  5
411
100
AcDbEntity
  8
_30_VOLUMEN
100
AcDbLine
 62
7
  6
CONTINUOUS
 10
125.1540266926
 20
163.2138213664
 11
124.9873812359
 21
163.3779211094
  0
LINE
  5
412
100
AcDbEntity
  8
_30_VOLUMEN
100
AcDbLine
 62
7
  6
CONTINUOUS
 10
123.4618368207
 20
165.8201320986
 11
123.2470460363
 21
166.0804610615
  0
LINE
  5
413
100
AcDbEntity
  8
_30_VOLUMEN
100
AcDbLine
 62
7
  6
CONTINUOUS
 10
122.2446891789
 20
167.2953293896
 11
122.0298983945
 21
167.5556583525
  0
LINE
  5
414
100
AcDbEntity
  8
_30_VOLUMEN
100
AcDbLine
 62
7
  6
CONTINUOUS
 10
122.287975523
 20
164.1452313393
 11
122.7335155434
 21
163.4958857731
  0
LINE
  5
415
100
AcDbEntity
  8
_30_VOLUMEN
100
AcDbLine
 62
7
  6
CONTINUOUS
 10
122.9966750265
 20
163.676449232
 11
122.5511350061
 21
164.3257947982
  0
LINE
  5
416
100
AcDbEntity
  8
_30_VOLUMEN
100
AcDbLine
 62
7
  6
CONTINUOUS
 10
120.9805466084
 20
168.5324603571
 11
120.8205649057
 21
168.7724223932
  0
LINE
  5
417
100
AcDbEntity
  8
_30_VOLUMEN
100
AcDbLine
 62
7
  6
CONTINUOUS
 10
120.5568327297
 20
168.4947211024
 11
120.6760269726
 21
168.2934948082
  0
LINE
  5
418
100
AcDbEntity
  8
_30_VOLUMEN
100
AcDbLine
 62
7
  6
CONTINUOUS
 10
124.876990331
 20
162.2800874712
 11
125.0437111878
 21
161.9866417251
  0
LINE
  5
419
100
AcDbEntity
  8
_30_VOLUMEN
100
AcDbLine
 62
7
  6
CONTINUOUS
 10
124.8210386516
 20
163.0246346011
 11
124.9877595084
 21
162.731188855
  0
LINE
  5
41A
100
AcDbEntity
  8
_30_VOLUMEN
100
AcDbLine
 62
7
  6
CONTINUOUS
 10
125.2929605279
 20
162.9692836178
 11
125.1540266926
 21
163.2138213664
  0
LINE
  5
41B
100
AcDbEntity
  8
0
100
AcDbLine
 62
7
  6
CONTINUOUS
 10
109.7694044571
 20
94.4183624649
 11
111.2694044571
 21
95.9183624649
  0
LINE
  5
41C
100
AcDbEntity
  8
_30_VOLUMEN
100
AcDbLine
 62
7
  6
CONTINUOUS
 10
120.0234287836
 20
168.9132655697
 11
120.2305337519
 21
168.8046063724
  0
LINE
  5
41D
100
AcDbEntity
  8
_30_VOLUMEN
100
AcDbLine
 62
7
  6
CONTINUOUS
 10
120.4942659279
 20
169.0823076632
 11
120.2463737333
 21
169.2297023807
  0
LINE
  5
41E
100
AcDbEntity
  8
_30_VOLUMEN
100
AcDbLine
 62
7
  6
CONTINUOUS
 10
116.8223705543
 20
171.9234812519
 11
116.5364012579
 21
172.1027235782
  0
LINE
  5
41F
100
AcDbEntity
  8
_30_VOLUMEN
100
AcDbLine
 62
7
  6
CONTINUOUS
 10
119.2167602841
 20
170.2272881661
 11
118.9457017338
 21
170.4283690263
  0
LINE
  5
420
100
AcDbEntity
  8
_30_VOLUMEN
100
AcDbLine
 62
7
  6
CONTINUOUS
 10
117.8162910861
 20
171.2662059596
 11
117.4097032607
 21
171.5678272498
  0
LINE
  5
421
100
AcDbEntity
  8
_30_VOLUMEN
100
AcDbLine
 62
7
  6
CONTINUOUS
 10
120.8205649057
 20
168.7724223932
 11
120.4942659279
 21
169.0823076632
  0
LINE
  5
422
100
AcDbEntity
  8
0
100
AcDbLine
 62
7
  6
CONTINUOUS
 10
193.5411788616
 20
94.4183624649
 11
206.5411788616
 21
94.4183624649
  0
LINE
  5
423
100
AcDbEntity
  8
0
100
AcDbLine
 62
7
  6
CONTINUOUS
 10
192.0411788616
 20
95.9183624649
 11
208.0411788616
 21
95.9183624649
  0
LINE
  5
424
100
AcDbEntity
  8
0
100
AcDbLine
 62
7
  6
CONTINUOUS
 10
192.0411788616
 20
95.9183624649
 11
193.5411788616
 21
94.4183624649
  0
LINE
  5
425
100
AcDbEntity
  8
_30_VOLUMEN
100
AcDbLine
 62
7
  6
CONTINUOUS
 10
176.9720414383
 20
127.485418198
 11
176.9715129219
 21
127.5201381206
  0
LINE
  5
426
100
AcDbEntity
  8
_30_VOLUMEN
100
AcDbLine
 62
7
  6
CONTINUOUS
 10
176.8411802977
 20
123.7151069619
 11
176.8411788616
 21
123.7207021199
  0
LINE
  5
427
100
AcDbEntity
  8
_30_VOLUMEN
100
AcDbLine
 62
7
  6
CONTINUOUS
 10
176.8411802977
 20
129.0883624649
 11
176.8411788616
 21
129.0960009024
  0
LINE
  5
428
100
AcDbEntity
  8
_30_VOLUMEN
100
AcDbLine
 62
7
  6
CONTINUOUS
 10
176.8411788616
 20
129.670710817
 11
176.8411788616
 21
129.2924042009
  0
LINE
  5
429
100
AcDbEntity
  8
_30_VOLUMEN
100
AcDbLine
 62
7
  6
CONTINUOUS
 10
176.8411788616
 20
124.2502454109
 11
176.8411788616
 21
124.1758620116
  0
LINE
  5
42A
100
AcDbEntity
  8
_30_VOLUMEN
100
AcDbLine
 62
7
  6
CONTINUOUS
 10
176.8421772787
 20
124.5381410342
 11
176.8421772787
 21
125.2831963919
  0
LINE
  5
42B
100
AcDbEntity
  8
_30_VOLUMEN
100
AcDbLine
 62
7
  6
CONTINUOUS
 10
176.8421772787
 20
125.7331963919
 11
176.8421772787
 21
126.4782517495
  0
LINE
  5
42C
100
AcDbEntity
  8
_30_VOLUMEN
100
AcDbLine
 62
7
  6
CONTINUOUS
 10
176.8421772787
 20
126.9282517495
 11
176.8421772787
 21
127.6733071072
  0
LINE
  5
42D
100
AcDbEntity
  8
_30_VOLUMEN
100
AcDbLine
 62
7
  6
CONTINUOUS
 10
176.8421772787
 20
128.1233071072
 11
176.8421772787
 21
128.8683624649
  0
LINE
  5
42E
100
AcDbEntity
  8
_30_VOLUMEN
100
AcDbLine
 62
7
  6
CONTINUOUS
 10
176.8950615695
 20
127.4234180354
 11
176.8950615695
 21
127.3068580579
  0
LINE
  5
42F
100
AcDbEntity
  8
_30_VOLUMEN
100
AcDbLine
 62
7
  6
CONTINUOUS
 10
176.8950615695
 20
125.3203781203
 11
176.8950615695
 21
125.1914181199
  0
LINE
  5
430
100
AcDbEntity
  8
_30_VOLUMEN
100
AcDbLine
 62
7
  6
CONTINUOUS
 10
176.9283540207
 20
126.9174981188
 11
176.9283540207
 21
125.6179781275
  0
LINE
  5
431
100
AcDbEntity
  8
_30_VOLUMEN
100
AcDbLine
 62
7
  6
CONTINUOUS
 10
176.9720414383
 20
125.6204581141
 11
176.9720414383
 21
127.485418198
  0
LINE
  5
432
100
AcDbEntity
  8
_30_VOLUMEN
100
AcDbLine
 62
7
  6
CONTINUOUS
 10
177.0218484101
 20
125.1938981204
 11
177.0218484101
 21
125.3203781203
  0
LINE
  5
433
100
AcDbEntity
  8
_30_VOLUMEN
100
AcDbLine
 62
7
  6
CONTINUOUS
 10
177.1871805654
 20
128.7824347152
 11
177.1871805654
 21
123.6175185773
  0
LINE
  5
434
100
AcDbEntity
  8
_30_VOLUMEN
100
AcDbLine
 62
7
  6
CONTINUOUS
 10
177.2703604224
 20
123.2491649827
 11
177.2703623434
 21
129.1991649827
  0
LINE
  5
435
100
AcDbEntity
  8
_26_BEZUGSACHSEN
100
AcDbLine
 62
7
  6
CONTINUOUS
 10
177.5411788616
 20
130.4918947707
 11
177.5411788616
 21
130.1258671785
  0
LINE
  5
436
100
AcDbEntity
  8
_26_BEZUGSACHSEN
100
AcDbLine
 62
7
  6
CONTINUOUS
 10
177.5411788616
 20
123.2491649827
 11
177.5411788616
 21
123.0162782265
  0
LINE
  5
437
100
AcDbEntity
  8
_30_VOLUMEN
100
AcDbLine
 62
7
  6
CONTINUOUS
 10
177.9839785654
 20
129.1991649827
 11
177.9839765823
 21
123.2491649827
  0
LINE
  5
438
100
AcDbEntity
  8
_26_BEZUGSACHSEN
100
AcDbLine
 62
7
  6
CONTINUOUS
 10
178.0411788616
 20
118.6183624649
 11
178.0411788616
 21
120.6183624649
  0
LINE
  5
439
100
AcDbEntity
  8
_30_VOLUMEN
100
AcDbLine
 62
7
  6
CONTINUOUS
 10
177.0202951812
 20
125.1542181199
 11
177.0218484101
 21
125.1938981204
  0
LINE
  5
43A
100
AcDbEntity
  8
_30_VOLUMEN
100
AcDbLine
 62
7
  6
CONTINUOUS
 10
176.8967681047
 20
127.4556581377
 11
176.8950615695
 21
127.4234180354
  0
LINE
  5
43B
100
AcDbEntity
  8
0
100
AcDbLine
 62
7
  6
CONTINUOUS
 10
189.0411788616
 20
118.4183624649
 11
211.0411788616
 21
118.4183624649
  0
LINE
  5
43C
100
AcDbEntity
  8
_30_VOLUMEN
100
AcDbLine
 62
7
  6
CONTINUOUS
 10
178.0411788616
 20
118.6183624649
 11
222.0411788616
 21
118.6183624649
  0
LINE
  5
43D
100
AcDbEntity
  8
_30_VOLUMEN
100
AcDbLine
 62
7
  6
CONTINUOUS
 10
177.9839765823
 20
123.2491649827
 11
177.2703604224
 21
123.2491649827
  0
LINE
  5
43E
100
AcDbEntity
  8
_30_VOLUMEN
100
AcDbLine
 62
7
  6
CONTINUOUS
 10
221.2763759115
 20
123.6183624649
 11
223.2309900671
 21
123.6183624649
  0
LINE
  5
43F
100
AcDbEntity
  8
_30_VOLUMEN
100
AcDbLine
 62
7
  6
CONTINUOUS
 10
177.1871805654
 20
123.7119023342
 11
177.131138102
 21
123.7119023342
  0
LINE
  5
440
100
AcDbEntity
  8
_30_VOLUMEN
100
AcDbLine
 62
7
  6
CONTINUOUS
 10
177.0304273279
 20
123.7151069619
 11
176.8411802977
 21
123.7151069619
  0
LINE
  5
441
100
AcDbEntity
  8
_30_VOLUMEN
100
AcDbLine
 62
7
  6
CONTINUOUS
 10
223.2309900671
 20
124.2566603505
 11
223.0034815023
 21
124.2566603505
  0
LINE
  5
442
100
AcDbEntity
  8
_30_VOLUMEN
100
AcDbLine
 62
7
  6
CONTINUOUS
 10
222.1991204402
 20
124.2566603505
 11
222.8827220176
 21
124.2566603505
  0
LINE
  5
443
100
AcDbEntity
  8
_30_VOLUMEN
100
AcDbLine
 62
7
  6
CONTINUOUS
 10
223.0163949209
 20
124.3683624649
 11
223.2357903048
 21
124.3683624649
  0
LINE
  5
444
100
AcDbEntity
  8
_30_VOLUMEN
100
AcDbLine
 62
7
  6
CONTINUOUS
 10
177.1871805654
 20
124.627667676
 11
176.8879661087
 21
124.627667676
  0
LINE
  5
445
100
AcDbEntity
  8
_30_VOLUMEN
100
AcDbLine
 62
7
  6
CONTINUOUS
 10
176.8985013437
 20
125.14925812
 11
177.0159822161
 21
125.14925812
  0
LINE
  5
446
100
AcDbEntity
  8
_30_VOLUMEN
100
AcDbLine
 62
7
  6
CONTINUOUS
 10
177.1871805654
 20
125.1542181199
 11
177.0202951812
 21
125.1542181199
  0
LINE
  5
447
100
AcDbEntity
  8
_30_VOLUMEN
100
AcDbLine
 62
7
  6
CONTINUOUS
 10
177.1871805654
 20
125.1938981204
 11
177.0218484101
 21
125.1938981204
  0
LINE
  5
448
100
AcDbEntity
  8
_30_VOLUMEN
100
AcDbLine
 62
7
  6
CONTINUOUS
 10
176.9007944813
 20
125.2831963919
 11
176.8421772787
 21
125.2831963919
  0
LINE
  5
449
100
AcDbEntity
  8
_30_VOLUMEN
100
AcDbLine
 62
7
  6
CONTINUOUS
 10
177.1871805654
 20
125.3674981142
 11
177.0108165119
 21
125.3674981142
  0
LINE
  5
44A
100
AcDbEntity
  8
_30_VOLUMEN
100
AcDbLine
 62
7
  6
CONTINUOUS
 10
176.9283540207
 20
125.7331963919
 11
176.8421772787
 21
125.7331963919
  0
LINE
  5
44B
100
AcDbEntity
  8
_30_VOLUMEN
100
AcDbLine
 62
7
  6
CONTINUOUS
 10
222.1991204402
 20
125.7885751509
 11
222.7365493783
 21
125.7885751509
  0
LINE
  5
44C
100
AcDbEntity
  8
0
100
AcDbLine
 62
7
  6
CONTINUOUS
 10
189.0411788616
 20
118.6183624649
 11
189.0411788616
 21
118.4183624649
  0
LINE
  5
44D
100
AcDbEntity
  8
_30_VOLUMEN
100
AcDbLine
 62
7
  6
CONTINUOUS
 10
222.1991204402
 20
126.426873126
 11
222.7365493783
 21
126.426873126
  0
LINE
  5
44E
100
AcDbEntity
  8
_30_VOLUMEN
100
AcDbLine
 62
7
  6
CONTINUOUS
 10
176.9283540207
 20
126.4782517495
 11
176.8421772787
 21
126.4782517495
  0
LINE
  5
44F
100
AcDbEntity
  8
_30_VOLUMEN
100
AcDbLine
 62
7
  6
CONTINUOUS
 10
176.9283540207
 20
126.9282517495
 11
176.8421772787
 21
126.9282517495
  0
LINE
  5
450
100
AcDbEntity
  8
_30_VOLUMEN
100
AcDbLine
 62
7
  6
CONTINUOUS
 10
222.4952117792
 20
127.4481496
 11
223.1966014287
 21
127.4481496
  0
LINE
  5
451
100
AcDbEntity
  8
_30_VOLUMEN
100
AcDbLine
 62
7
  6
CONTINUOUS
 10
177.1871805654
 20
127.485418198
 11
176.9720414383
 21
127.485418198
  0
LINE
  5
452
100
AcDbEntity
  8
_30_VOLUMEN
100
AcDbLine
 62
7
  6
CONTINUOUS
 10
177.1871805654
 20
127.5201381206
 11
176.9715129219
 21
127.5201381206
  0
LINE
  5
453
100
AcDbEntity
  8
_30_VOLUMEN
100
AcDbLine
 62
7
  6
CONTINUOUS
 10
177.1871805654
 20
127.5300580668
 11
176.9662870269
 21
127.5300580668
  0
LINE
  5
454
100
AcDbEntity
  8
_30_VOLUMEN
100
AcDbLine
 62
7
  6
CONTINUOUS
 10
177.1871805654
 20
127.6733071072
 11
176.8421772787
 21
127.6733071072
  0
LINE
  5
455
100
AcDbEntity
  8
_30_VOLUMEN
100
AcDbLine
 62
7
  6
CONTINUOUS
 10
221.0709197064
 20
127.7034687185
 11
221.8182310037
 21
127.7034687185
  0
LINE
  5
456
100
AcDbEntity
  8
_30_VOLUMEN
100
AcDbLine
 62
7
  6
CONTINUOUS
 10
222.5064298061
 20
127.958787837
 11
223.2074798179
 21
127.958787837
  0
LINE
  5
457
100
AcDbEntity
  8
_30_VOLUMEN
100
AcDbLine
 62
7
  6
CONTINUOUS
 10
177.1871805654
 20
128.1233071072
 11
176.8421772787
 21
128.1233071072
  0
LINE
  5
458
100
AcDbEntity
  8
_30_VOLUMEN
100
AcDbLine
 62
7
  6
CONTINUOUS
 10
177.1871805654
 20
128.1500581407
 11
176.9455143839
 21
128.1500581407
  0
LINE
  5
459
100
AcDbEntity
  8
_30_VOLUMEN
100
AcDbLine
 62
7
  6
CONTINUOUS
 10
222.1991204402
 20
128.2141073131
 11
223.2074798179
 21
128.2141073131
  0
LINE
  5
45A
100
AcDbEntity
  8
_30_VOLUMEN
100
AcDbLine
 62
7
  6
CONTINUOUS
 10
223.0034815023
 20
128.5970859909
 11
223.1966014287
 21
128.5970859909
  0
LINE
  5
45B
100
AcDbEntity
  8
_30_VOLUMEN
100
AcDbLine
 62
7
  6
CONTINUOUS
 10
221.0709197064
 20
128.7247455501
 11
221.8182310037
 21
128.7247455501
  0
LINE
  5
45C
100
AcDbEntity
  8
_30_VOLUMEN
100
AcDbLine
 62
7
  6
CONTINUOUS
 10
222.2049866502
 20
128.7247455501
 11
222.9152772196
 21
128.7247455501
  0
LINE
  5
45D
100
AcDbEntity
  8
_30_VOLUMEN
100
AcDbLine
 62
7
  6
CONTINUOUS
 10
177.1871805654
 20
128.7502181005
 11
176.9455143839
 21
128.7502181005
  0
LINE
  5
45E
100
AcDbEntity
  8
_30_VOLUMEN
100
AcDbLine
 62
7
  6
CONTINUOUS
 10
223.0422988855
 20
128.8524051094
 11
223.1774252955
 21
128.8524051094
  0
LINE
  5
45F
100
AcDbEntity
  8
_30_VOLUMEN
100
AcDbLine
 62
7
  6
CONTINUOUS
 10
177.1222587667
 20
128.8683624649
 11
176.8421772787
 21
128.8683624649
  0
LINE
  5
460
100
AcDbEntity
  8
_30_VOLUMEN
100
AcDbLine
 62
7
  6
CONTINUOUS
 10
223.2242178441
 20
128.8683624649
 11
223.2357903048
 21
128.8683624649
  0
LINE
  5
461
100
AcDbEntity
  8
_30_VOLUMEN
100
AcDbLine
 62
7
  6
CONTINUOUS
 10
223.0992272323
 20
128.9800646686
 11
223.1378202401
 21
128.9800646686
  0
LINE
  5
462
100
AcDbEntity
  8
_30_VOLUMEN
100
AcDbLine
 62
7
  6
CONTINUOUS
 10
177.0417990032
 20
129.0883624649
 11
176.8411802977
 21
129.0883624649
  0
LINE
  5
463
100
AcDbEntity
  8
_30_VOLUMEN
100
AcDbLine
 62
7
  6
CONTINUOUS
 10
177.9839785654
 20
129.1991649827
 11
177.2703623434
 21
129.1991649827
  0
LINE
  5
464
100
AcDbEntity
  8
_30_VOLUMEN
100
AcDbLine
 62
7
  6
CONTINUOUS
 10
222.2672896325
 20
129.2353837871
 11
222.9756507325
 21
129.2353837871
  0
LINE
  5
465
100
AcDbEntity
  8
0
100
AcDbLine
 62
7
  6
CONTINUOUS
 10
192.0411788616
 20
118.4183624649
 11
192.0411788616
 21
95.9183624649
  0
LINE
  5
466
100
AcDbEntity
  8
_30_VOLUMEN
100
AcDbLine
 62
7
  6
CONTINUOUS
 10
192.3411788616
 20
157.1232590296
 11
192.3411788616
 21
166.5705902672
  0
LINE
  5
467
100
AcDbEntity
  8
_30_VOLUMEN
100
AcDbLine
 62
7
  6
CONTINUOUS
 10
192.3411788616
 20
166.578048666
 11
192.3411788616
 21
174.6944931018
  0
LINE
  5
468
100
AcDbEntity
  8
_26_BEZUGSACHSEN
100
AcDbLine
 62
7
  6
CONTINUOUS
 10
193.0411788616
 20
146.0558057825
 11
193.0411788616
 21
180.675131817
  0
LINE
  5
469
100
AcDbEntity
  8
_26_BEZUGSACHSEN
100
AcDbLine
 62
7
  6
CONTINUOUS
 10
192.9652176266
 20
145.1875648942
 11
191.7558485117
 21
138.3288918191
  0
LWPOLYLINE
  5
46A
100
AcDbEntity
  8
_26_BEZUGSACHSEN
100
AcDbPolyline
 62
7
  6
CONTINUOUS
 90
17
 70
0
 10
191.7558552858
 20
138.3289298811
 10
191.7346344229
 20
138.2161391695
 10
191.7093246963
 20
138.0971110529
 10
191.6816995883
 20
137.9810466138
 10
191.6519717462
 20
137.8681203686
 10
191.6203286563
 20
137.7583434192
 10
191.5869847959
 20
137.6517850326
 10
191.5521695399
 20
137.5485354246
 10
191.5160402185
 20
137.4485049884
 10
191.4787812584
 20
137.3517274157
 10
191.4405524605
 20
137.2581936092
 10
191.4014134384
 20
137.167674323
 10
191.3615162697
 20
137.0801351715
 10
191.3210226793
 20
136.9955701481
 10
191.2799690768
 20
136.9137501532
 10
191.2384706697
 20
136.8346468779
 10
191.1966413709
 20
136.7582369681
  0
LWPOLYLINE
  5
46B
100
AcDbEntity
  8
_26_BEZUGSACHSEN
100
AcDbPolyline
 62
7
  6
CONTINUOUS
 90
4
 70
0
 10
191.1966413709
 20
136.7582369681
 10
191.154478875
 20
136.684274768
 10
191.1120617359
 20
136.6126862473
 10
191.0923963053
 20
136.5807040304
  0
LWPOLYLINE
  5
46C
100
AcDbEntity
  8
_26_BEZUGSACHSEN
100
AcDbPolyline
 62
7
  6
CONTINUOUS
 90
4
 70
0
 10
191.0822326651
 20
136.5641747333
 10
191.0694961826
 20
136.54346118
 10
191.0267881663
 20
136.4764427139
 10
190.9839894265
 20
136.4115646945
  0
LINE
  5
46D
100
AcDbEntity
  8
_30_VOLUMEN
100
AcDbLine
 62
7
  6
CONTINUOUS
 10
177.0159822161
 20
125.14925812
 11
177.0202951812
 21
125.1542181199
  0
LINE
  5
46E
100
AcDbEntity
  8
_30_VOLUMEN
100
AcDbLine
 62
7
  6
CONTINUOUS
 10
176.9007944813
 20
125.3699781146
 11
176.8983268172
 21
125.3674981142
  0
LINE
  5
46F
100
AcDbEntity
  8
_30_VOLUMEN
100
AcDbLine
 62
7
  6
CONTINUOUS
 10
222.3231082241
 20
129.4907029056
 11
223.0297494156
 21
129.4907029056
  0
LINE
  5
470
100
AcDbEntity
  8
_30_VOLUMEN
100
AcDbLine
 62
7
  6
CONTINUOUS
 10
221.2763759115
 20
129.6183624649
 11
222.1991204402
 21
129.6183624649
  0
LINE
  5
471
100
AcDbEntity
  8
_30_VOLUMEN
100
AcDbLine
 62
7
  6
CONTINUOUS
 10
222.4053303669
 20
129.6183624649
 11
223.1465074881
 21
129.6183624649
  0
LINE
  5
472
100
AcDbEntity
  8
_30_VOLUMEN
100
AcDbLine
 62
7
  6
CONTINUOUS
 10
177.5894250079
 20
130.1258671785
 11
176.8879663176
 21
130.1258671785
  0
LINE
  5
473
100
AcDbEntity
  8
_30_VOLUMEN
100
AcDbLine
 62
7
  6
CONTINUOUS
 10
177.5411788616
 20
130.1362768661
 11
176.8899798401
 21
130.1362768661
  0
LWPOLYLINE
  5
474
100
AcDbEntity
  8
_26_BEZUGSACHSEN
100
AcDbPolyline
 62
7
  6
CONTINUOUS
 90
54
 70
0
 10
190.9839894265
 20
136.4115646945
 10
190.9411907376
 20
136.3488104971
 10
190.8984347346
 20
136.2880953617
 10
190.8557552924
 20
136.2293365469
 10
190.8132347121
 20
136.1725272781
 10
190.7709760665
 20
136.1176897153
 10
190.7290261365
 20
136.0647707427
 10
190.687438172
 20
136.013723018
 10
190.6463195629
 20
135.9645679985
 10
190.6057601555
 20
135.9173057171
 10
190.5657544244
 20
135.8718296149
 10
190.526259098
 20
135.8280018981
 10
190.4873594512
 20
135.7858345271
 10
190.4490343547
 20
135.7452235553
 10
190.4110684544
 20
135.7058735487
 10
190.3734515577
 20
135.667719883
 10
190.3362359007
 20
135.6307643886
 10
190.2992885048
 20
135.5948300901
 10
190.2625997023
 20
135.559870049
 10
190.2262087605
 20
135.5258856385
 10
190.1900508041
 20
135.4927821001
 10
190.1541310138
 20
135.4605333422
 10
190.1184678767
 20
135.4291264874
 10
190.0830132294
 20
135.3984921682
 10
190.0477785271
 20
135.368615791
 10
190.0127707803
 20
135.3394797278
 10
189.9779326293
 20
135.3110150093
 10
189.9432693424
 20
135.2832065551
 10
189.9087903384
 20
135.2560430051
 10
189.8744424917
 20
135.229465473
 10
189.8402316026
 20
135.2034632338
 10
189.8061633371
 20
135.1780258691
 10
189.772182634
 20
135.1530991728
 10
189.7382871303
 20
135.1286699647
 10
189.7044881508
 20
135.1047351048
 10
189.6707498589
 20
135.0812587964
 10
189.6370514994
 20
135.0582176583
 10
189.6034210752
 20
135.0356221519
 10
189.5698955192
 20
135.0134876234
 10
189.5364731919
 20
134.9918032764
 10
189.503162766
 20
134.9705652116
 10
189.4700170315
 20
134.9497968483
 10
189.4370392411
 20
134.9294894604
 10
189.4042331048
 20
134.9096348531
 10
189.3716525451
 20
134.8902546583
 10
189.3393010898
 20
134.8713394711
 10
189.3071820004
 20
134.8528799517
 10
189.2753492045
 20
134.8348953647
 10
189.2438059295
 20
134.8173753869
 10
189.2125554929
 20
134.8003100357
 10
189.1816523244
 20
134.7837168121
 10
189.151100091
 20
134.7675850776
 10
189.1209013994
 20
134.7519038981
 10
189.091109412
 20
134.7366882504
  0
LINE
  5
475
100
AcDbEntity
  8
_26_BEZUGSACHSEN
100
AcDbLine
 62
7
  6
CONTINUOUS
 10
187.3544520629
 20
134.2245232306
 11
180.2275952378
 21
133.4754603942
  0
LINE
  5
476
100
AcDbEntity
  8
_30_VOLUMEN
100
AcDbLine
 62
7
  6
CONTINUOUS
 10
212.7279056602
 20
134.2245232306
 11
219.8547624854
 21
133.4754603942
  0
LWPOLYLINE
  5
477
100
AcDbEntity
  8
_26_BEZUGSACHSEN
100
AcDbPolyline
 62
7
  6
CONTINUOUS
 90
7
 70
0
 10
189.091109412
 20
134.7366882504
 10
189.0617606479
 20
134.7219434587
 10
189.0328246325
 20
134.7076412613
 10
189.0042539079
 20
134.693746609
 10
188.9760757627
 20
134.6802617704
 10
188.9482677719
 20
134.6671652572
 10
188.9207071501
 20
134.6543904371
  0
LWPOLYLINE
  5
478
100
AcDbEntity
  8
_26_BEZUGSACHSEN
100
AcDbPolyline
 62
7
  6
CONTINUOUS
 90
8
 70
0
 10
188.9207071501
 20
134.6543904371
 10
188.8933625742
 20
134.6419159405
 10
188.8662688236
 20
134.6297509339
 10
188.8394016974
 20
134.6178779133
 10
188.8127596846
 20
134.606289972
 10
188.7863472293
 20
134.5949829043
 10
188.7601488718
 20
134.5839442313
 10
188.7341666196
 20
134.5731692291
  0
LWPOLYLINE
  5
479
100
AcDbEntity
  8
_30_VOLUMEN
100
AcDbPolyline
 62
7
  6
CONTINUOUS
 90
7
 70
0
 10
211.3491953904
 20
134.5727561795
 10
211.3232217395
 20
134.5835209681
 10
211.2970283954
 20
134.5945507334
 10
211.2706173808
 20
134.6058502605
 10
211.2439724941
 20
134.6174324187
 10
211.2170983584
 20
134.6293014219
 10
211.1899933056
 20
134.6414643361
  0
LWPOLYLINE
  5
47A
100
AcDbEntity
  8
_30_VOLUMEN
100
AcDbPolyline
 62
7
  6
CONTINUOUS
 90
8
 70
0
 10
211.1899933056
 20
134.6414643361
 10
211.1626319028
 20
134.6539393184
 10
211.1350502728
 20
134.6667167071
 10
211.1072157894
 20
134.6798185786
 10
211.0790004917
 20
134.6933141606
 10
211.0503765609
 20
134.7072278401
 10
211.021376783
 20
134.721555021
 10
210.9919648424
 20
134.7363253859
  0
LWPOLYLINE
  5
47B
100
AcDbEntity
  8
_30_VOLUMEN
100
AcDbPolyline
 62
7
  6
CONTINUOUS
 90
54
 70
0
 10
210.9919648424
 20
134.7363253859
 10
210.9621133429
 20
134.7515656247
 10
210.9318557317
 20
134.7672719674
 10
210.9012470342
 20
134.7834284709
 10
210.8702901783
 20
134.8000458614
 10
210.8389885021
 20
134.8171349133
 10
210.8073973076
 20
134.8346776045
 10
210.7755198968
 20
134.8526838583
 10
210.7433594938
 20
134.8711639292
 10
210.7109709043
 20
134.8900979657
 10
210.6783573733
 20
134.9094952126
 10
210.6455224084
 20
134.9293649779
 10
210.6125207917
 20
134.9496849856
 10
210.5793561993
 20
134.9704633048
 10
210.5460318597
 20
134.9917085256
 10
210.5126014209
 20
135.0133965127
 10
210.4790736684
 20
135.0355308978
 10
210.4454467645
 20
135.0581224071
 10
210.4117580205
 20
135.0811552296
 10
210.3780361847
 20
135.1046181559
 10
210.3442596429
 20
135.1285349157
 10
210.3103905395
 20
135.1529425296
 10
210.276440423
 20
135.1778437992
 10
210.2424066115
 20
135.2032519551
 10
210.2082312486
 20
135.2292231528
 10
210.1739199646
 20
135.255767757
 10
210.139478539
 20
135.2828964241
 10
210.1048511241
 20
135.3106701436
 10
210.0700471619
 20
135.3391002815
 10
210.0350718938
 20
135.3682019713
 10
209.9998652208
 20
135.3980465422
 10
209.9644341878
 20
135.428651752
 10
209.9287902833
 20
135.4600323324
 10
209.8928826743
 20
135.4922602287
 10
209.8567299298
 20
135.5253485724
 10
209.8203373182
 20
135.559323715
 10
209.7836374061
 20
135.5942832377
 10
209.7466699903
 20
135.6302258112
 10
209.7094251931
 20
135.6671991309
 10
209.6717665041
 20
135.70538436
 10
209.6337455798
 20
135.7447811922
 10
209.5953534052
 20
135.7854540139
 10
209.5563738834
 20
135.8277000767
 10
209.5167798104
 20
135.8716314105
 10
209.4766635366
 20
135.9172298079
 10
209.4360004127
 20
135.9646125421
 10
209.3947896239
 20
136.0138803802
 10
209.3531162778
 20
136.0650386273
 10
209.3110916212
 20
136.1180607587
 10
209.2687694994
 20
136.1729927197
 10
209.226195774
 20
136.2298880423
 10
209.1834749018
 20
136.2887218575
 10
209.1406896588
 20
136.3494992225
 10
209.09787283
 20
136.4123033133
  0
LINE
  5
47C
100
AcDbEntity
  8
_30_VOLUMEN
100
AcDbLine
 62
7
  6
CONTINUOUS
 10
207.0411788616
 20
146.0558057825
 11
207.0411788616
 21
180.675131817
  0
LWPOLYLINE
  5
47D
100
AcDbEntity
  8
_30_VOLUMEN
100
AcDbPolyline
 62
7
  6
CONTINUOUS
 90
4
 70
0
 10
209.09787283
 20
136.4123033133
 10
209.0550660106
 20
136.4772193198
 10
209.0123599094
 20
136.5442625171
 10
209.0000211861
 20
136.5643376939
  0
LWPOLYLINE
  5
47E
100
AcDbEntity
  8
_30_VOLUMEN
100
AcDbPolyline
 62
7
  6
CONTINUOUS
 90
4
 70
0
 10
208.9899473354
 20
136.5807279094
 10
208.9698054046
 20
136.6134989516
 10
208.9274062155
 20
136.6850879148
 10
208.885268321
 20
136.7590388575
  0
LINE
  5
47F
100
AcDbEntity
  8
_30_VOLUMEN
100
AcDbLine
 62
7
  6
CONTINUOUS
 10
207.7411788616
 20
172.1027235782
 11
207.7411788616
 21
153.1966545072
  0
LINE
  5
480
100
AcDbEntity
  8
0
100
AcDbLine
 62
7
  6
CONTINUOUS
 10
208.0411788616
 20
118.4183624649
 11
208.0411788616
 21
95.9183624649
  0
LINE
  5
481
100
AcDbEntity
  8
_30_VOLUMEN
100
AcDbLine
 62
7
  6
CONTINUOUS
 10
207.1171400965
 20
145.1875648942
 11
208.3265092115
 21
138.3288918191
  0
LINE
  5
482
100
AcDbEntity
  8
0
100
AcDbLine
 62
7
  6
CONTINUOUS
 10
211.0411788616
 20
118.6183624649
 11
211.0411788616
 21
118.4183624649
  0
LINE
  5
483
100
AcDbEntity
  8
_30_VOLUMEN
100
AcDbLine
 62
7
  6
CONTINUOUS
 10
207.0411788616
 20
153.1966545072
 11
207.7411788616
 21
153.1966545072
  0
LINE
  5
484
100
AcDbEntity
  8
_30_VOLUMEN
100
AcDbLine
 62
7
  6
CONTINUOUS
 10
207.0411788616
 20
153.5851215314
 11
207.7411788616
 21
153.5851215314
  0
LINE
  5
485
100
AcDbEntity
  8
_30_VOLUMEN
100
AcDbLine
 62
7
  6
CONTINUOUS
 10
207.0411788616
 20
154.247930824
 11
207.7411788616
 21
154.247930824
  0
LINE
  5
486
100
AcDbEntity
  8
_30_VOLUMEN
100
AcDbLine
 62
7
  6
CONTINUOUS
 10
207.0411788616
 20
154.3393748783
 11
207.7411788616
 21
154.3393748783
  0
LINE
  5
487
100
AcDbEntity
  8
_30_VOLUMEN
100
AcDbLine
 62
7
  6
CONTINUOUS
 10
207.0411788616
 20
154.9818423279
 11
207.7411788616
 21
154.9818423279
  0
LINE
  5
488
100
AcDbEntity
  8
_30_VOLUMEN
100
AcDbLine
 62
7
  6
CONTINUOUS
 10
207.0411788616
 20
156.3005216688
 11
207.7411788616
 21
156.3005216688
  0
LINE
  5
489
100
AcDbEntity
  8
_30_VOLUMEN
100
AcDbLine
 62
7
  6
CONTINUOUS
 10
207.0411788616
 20
156.5615770653
 11
207.7411788616
 21
156.5615770653
  0
LINE
  5
48A
100
AcDbEntity
  8
_30_VOLUMEN
100
AcDbLine
 62
7
  6
CONTINUOUS
 10
207.0411788616
 20
156.7403483473
 11
207.7411788616
 21
156.7403483473
  0
LINE
  5
48B
100
AcDbEntity
  8
_30_VOLUMEN
100
AcDbLine
 62
7
  6
CONTINUOUS
 10
207.0411788616
 20
156.8505051907
 11
207.7411788616
 21
156.8505051907
  0
LINE
  5
48C
100
AcDbEntity
  8
_30_VOLUMEN
100
AcDbLine
 62
7
  6
CONTINUOUS
 10
207.0411788616
 20
156.8644415551
 11
207.7411788616
 21
156.8644415551
  0
LINE
  5
48D
100
AcDbEntity
  8
_30_VOLUMEN
100
AcDbLine
 62
7
  6
CONTINUOUS
 10
193.0411788616
 20
157.1232590296
 11
192.3411788616
 21
157.1232590296
  0
LINE
  5
48E
100
AcDbEntity
  8
_30_VOLUMEN
100
AcDbLine
 62
7
  6
CONTINUOUS
 10
207.0411788616
 20
157.1421905829
 11
207.7411788616
 21
157.1421905829
  0
LINE
  5
48F
100
AcDbEntity
  8
_30_VOLUMEN
100
AcDbLine
 62
7
  6
CONTINUOUS
 10
207.0411788616
 20
157.1922628059
 11
207.7411788616
 21
157.1922628059
  0
LINE
  5
490
100
AcDbEntity
  8
_30_VOLUMEN
100
AcDbLine
 62
7
  6
CONTINUOUS
 10
193.0411788616
 20
157.2319796653
 11
192.3411788616
 21
157.2319796653
  0
LINE
  5
491
100
AcDbEntity
  8
_30_VOLUMEN
100
AcDbLine
 62
7
  6
CONTINUOUS
 10
207.0411788616
 20
157.832689703
 11
207.7411788616
 21
157.832689703
  0
LINE
  5
492
100
AcDbEntity
  8
_30_VOLUMEN
100
AcDbLine
 62
7
  6
CONTINUOUS
 10
193.0411788616
 20
157.8343436224
 11
192.3411788616
 21
157.8343436224
  0
LINE
  5
493
100
AcDbEntity
  8
_30_VOLUMEN
100
AcDbLine
 62
7
  6
CONTINUOUS
 10
193.0411788616
 20
157.86255931
 11
192.3411788616
 21
157.86255931
  0
LINE
  5
494
100
AcDbEntity
  8
_30_VOLUMEN
100
AcDbLine
 62
7
  6
CONTINUOUS
 10
193.0411788616
 20
157.9060476191
 11
192.3411788616
 21
157.9060476191
  0
LINE
  5
495
100
AcDbEntity
  8
_30_VOLUMEN
100
AcDbLine
 62
7
  6
CONTINUOUS
 10
193.0411788616
 20
158.0517849244
 11
192.3411788616
 21
158.0517849244
  0
LINE
  5
496
100
AcDbEntity
  8
_30_VOLUMEN
100
AcDbLine
 62
7
  6
CONTINUOUS
 10
207.0411788616
 20
158.1520237885
 11
207.7411788616
 21
158.1520237885
  0
LINE
  5
497
100
AcDbEntity
  8
_30_VOLUMEN
100
AcDbLine
 62
7
  6
CONTINUOUS
 10
207.0411788616
 20
158.2836683127
 11
207.7411788616
 21
158.2836683127
  0
LINE
  5
498
100
AcDbEntity
  8
_30_VOLUMEN
100
AcDbLine
 62
7
  6
CONTINUOUS
 10
193.0411788616
 20
158.3738086912
 11
192.3411788616
 21
158.3738086912
  0
LINE
  5
499
100
AcDbEntity
  8
_30_VOLUMEN
100
AcDbLine
 62
7
  6
CONTINUOUS
 10
207.0411788616
 20
158.4846531525
 11
207.7411788616
 21
158.4846531525
  0
LINE
  5
49A
100
AcDbEntity
  8
_30_VOLUMEN
100
AcDbLine
 62
7
  6
CONTINUOUS
 10
193.0411788616
 20
158.6523442098
 11
192.3411788616
 21
158.6523442098
  0
LINE
  5
49B
100
AcDbEntity
  8
_30_VOLUMEN
100
AcDbLine
 62
7
  6
CONTINUOUS
 10
207.0411788616
 20
158.6530744835
 11
207.7411788616
 21
158.6530744835
  0
LINE
  5
49C
100
AcDbEntity
  8
_30_VOLUMEN
100
AcDbLine
 62
7
  6
CONTINUOUS
 10
207.0411788616
 20
158.7889326247
 11
207.7411788616
 21
158.7889326247
  0
LINE
  5
49D
100
AcDbEntity
  8
_30_VOLUMEN
100
AcDbLine
 62
7
  6
CONTINUOUS
 10
193.0411788616
 20
159.0266585671
 11
192.3411788616
 21
159.0266585671
  0
LINE
  5
49E
100
AcDbEntity
  8
_30_VOLUMEN
100
AcDbLine
 62
7
  6
CONTINUOUS
 10
193.0411788616
 20
159.2617044926
 11
192.3411788616
 21
159.2617044926
  0
LINE
  5
49F
100
AcDbEntity
  8
_30_VOLUMEN
100
AcDbLine
 62
7
  6
CONTINUOUS
 10
207.0411788616
 20
159.4293595217
 11
207.7411788616
 21
159.4293595217
  0
LINE
  5
4A0
100
AcDbEntity
  8
_30_VOLUMEN
100
AcDbLine
 62
7
  6
CONTINUOUS
 10
221.0709197064
 20
128.7247455501
 11
221.0709197064
 21
127.7034687185
  0
LINE
  5
4A1
100
AcDbEntity
  8
_30_VOLUMEN
100
AcDbLine
 62
7
  6
CONTINUOUS
 10
221.2763759115
 20
127.7034687185
 11
221.2763759115
 21
123.6183624649
  0
LINE
  5
4A2
100
AcDbEntity
  8
_30_VOLUMEN
100
AcDbLine
 62
7
  6
CONTINUOUS
 10
221.8182310037
 20
128.7247455501
 11
221.8182310037
 21
127.7034687185
  0
LINE
  5
4A3
100
AcDbEntity
  8
_30_VOLUMEN
100
AcDbLine
 62
7
  6
CONTINUOUS
 10
222.0167014663
 20
128.5970859909
 11
222.0167014663
 21
123.6183624649
  0
LINE
  5
4A4
100
AcDbEntity
  8
_30_VOLUMEN
100
AcDbLine
 62
7
  6
CONTINUOUS
 10
222.0411788616
 20
120.6183624649
 11
222.0411788616
 21
118.6183624649
  0
LINE
  5
4A5
100
AcDbEntity
  8
_30_VOLUMEN
100
AcDbLine
 62
7
  6
CONTINUOUS
 10
222.1991204402
 20
123.6183624649
 11
222.1991204402
 21
129.6183624649
  0
LINE
  5
4A6
100
AcDbEntity
  8
_30_VOLUMEN
100
AcDbLine
 62
7
  6
CONTINUOUS
 10
222.4180502795
 20
126.426873126
 11
222.4180502795
 21
125.7885751509
  0
LINE
  5
4A7
100
AcDbEntity
  8
_30_VOLUMEN
100
AcDbLine
 62
7
  6
CONTINUOUS
 10
222.5064298061
 20
127.958787837
 11
222.5064298061
 21
128.2141073131
  0
LINE
  5
4A8
100
AcDbEntity
  8
_30_VOLUMEN
100
AcDbLine
 62
7
  6
CONTINUOUS
 10
222.5411788616
 20
123.0162782265
 11
222.5411788616
 21
123.6183624649
  0
LINE
  5
4A9
100
AcDbEntity
  8
_30_VOLUMEN
100
AcDbLine
 62
7
  6
CONTINUOUS
 10
222.5411788616
 20
129.6183624649
 11
222.5411788616
 21
130.4918947707
  0
LINE
  5
4AA
100
AcDbEntity
  8
_30_VOLUMEN
100
AcDbLine
 62
7
  6
CONTINUOUS
 10
222.7365493783
 20
125.7885751509
 11
222.7365493783
 21
126.426873126
  0
LINE
  5
4AB
100
AcDbEntity
  8
_30_VOLUMEN
100
AcDbLine
 62
7
  6
CONTINUOUS
 10
222.8827220176
 20
124.2566603505
 11
222.8827220176
 21
123.6183624649
  0
LINE
  5
4AC
100
AcDbEntity
  8
_30_VOLUMEN
100
AcDbLine
 62
7
  6
CONTINUOUS
 10
223.2074798179
 20
128.2141073131
 11
223.2074798179
 21
127.958787837
  0
LINE
  5
4AD
100
AcDbEntity
  8
_30_VOLUMEN
100
AcDbLine
 62
7
  6
CONTINUOUS
 10
223.2309900671
 20
123.6183624649
 11
223.2309900671
 21
124.2566603505
  0
LINE
  5
4AE
100
AcDbEntity
  8
_30_VOLUMEN
100
AcDbLine
 62
7
  6
CONTINUOUS
 10
223.2309900671
 20
127.958787837
 11
223.2309900671
 21
128.2141073131
  0
LINE
  5
4AF
100
AcDbEntity
  8
_30_VOLUMEN
100
AcDbLine
 62
7
  6
CONTINUOUS
 10
223.2357903048
 20
128.8683624649
 11
223.2357903048
 21
124.3683624649
  0
LINE
  5
4B0
100
AcDbEntity
  8
_30_VOLUMEN
100
AcDbLine
 62
7
  6
CONTINUOUS
 10
193.0411788616
 20
159.6512927555
 11
192.3411788616
 21
159.6512927555
  0
LINE
  5
4B1
100
AcDbEntity
  8
_30_VOLUMEN
100
AcDbLine
 62
7
  6
CONTINUOUS
 10
207.0411788616
 20
159.748693455
 11
207.7411788616
 21
159.748693455
  0
LINE
  5
4B2
100
AcDbEntity
  8
_30_VOLUMEN
100
AcDbLine
 62
7
  6
CONTINUOUS
 10
193.0411788616
 20
159.8428517777
 11
192.3411788616
 21
159.8428517777
  0
LINE
  5
4B3
100
AcDbEntity
  8
_30_VOLUMEN
100
AcDbLine
 62
7
  6
CONTINUOUS
 10
193.0411788616
 20
159.9909212068
 11
192.3411788616
 21
159.9909212068
  0
LINE
  5
4B4
100
AcDbEntity
  8
_30_VOLUMEN
100
AcDbLine
 62
7
  6
CONTINUOUS
 10
207.0411788616
 20
160.4925511795
 11
207.7411788616
 21
160.4925511795
  0
LINE
  5
4B5
100
AcDbEntity
  8
_30_VOLUMEN
100
AcDbLine
 62
7
  6
CONTINUOUS
 10
193.0411788616
 20
160.9600753776
 11
192.3411788616
 21
160.9600753776
  0
LINE
  5
4B6
100
AcDbEntity
  8
_30_VOLUMEN
100
AcDbLine
 62
7
  6
CONTINUOUS
 10
193.0411788616
 20
161.299722658
 11
192.3411788616
 21
161.299722658
  0
LINE
  5
4B7
100
AcDbEntity
  8
_30_VOLUMEN
100
AcDbLine
 62
7
  6
CONTINUOUS
 10
193.0411788616
 20
161.4499841418
 11
192.3411788616
 21
161.4499841418
  0
LINE
  5
4B8
100
AcDbEntity
  8
_30_VOLUMEN
100
AcDbLine
 62
7
  6
CONTINUOUS
 10
207.0411788616
 20
161.7105615752
 11
207.7411788616
 21
161.7105615752
  0
LINE
  5
4B9
100
AcDbEntity
  8
_30_VOLUMEN
100
AcDbLine
 62
7
  6
CONTINUOUS
 10
193.0411788616
 20
161.8347809867
 11
192.3411788616
 21
161.8347809867
  0
LINE
  5
4BA
100
AcDbEntity
  8
_30_VOLUMEN
100
AcDbLine
 62
7
  6
CONTINUOUS
 10
193.0411788616
 20
161.8861475929
 11
192.3411788616
 21
161.8861475929
  0
LINE
  5
4BB
100
AcDbEntity
  8
_30_VOLUMEN
100
AcDbLine
 62
7
  6
CONTINUOUS
 10
207.7411788616
 20
161.9367870014
 11
207.0411788616
 21
161.9367870014
  0
LINE
  5
4BC
100
AcDbEntity
  8
_30_VOLUMEN
100
AcDbLine
 62
7
  6
CONTINUOUS
 10
207.7411788616
 20
162.0847346741
 11
207.0411788616
 21
162.0847346741
  0
LINE
  5
4BD
100
AcDbEntity
  8
_30_VOLUMEN
100
AcDbLine
 62
7
  6
CONTINUOUS
 10
193.0411788616
 20
162.1118897581
 11
192.3411788616
 21
162.1118897581
  0
LINE
  5
4BE
100
AcDbEntity
  8
_30_VOLUMEN
100
AcDbLine
 62
7
  6
CONTINUOUS
 10
207.7411788616
 20
162.1776284804
 11
207.0411788616
 21
162.1776284804
  0
LINE
  5
4BF
100
AcDbEntity
  8
_30_VOLUMEN
100
AcDbLine
 62
7
  6
CONTINUOUS
 10
207.0411788616
 20
162.444874768
 11
207.7411788616
 21
162.444874768
  0
LINE
  5
4C0
100
AcDbEntity
  8
_30_VOLUMEN
100
AcDbLine
 62
7
  6
CONTINUOUS
 10
193.0411788616
 20
162.5267825365
 11
192.3411788616
 21
162.5267825365
  0
LINE
  5
4C1
100
AcDbEntity
  8
_30_VOLUMEN
100
AcDbLine
 62
7
  6
CONTINUOUS
 10
193.0411788616
 20
162.6022707851
 11
192.3411788616
 21
162.6022707851
  0
LINE
  5
4C2
100
AcDbEntity
  8
_30_VOLUMEN
100
AcDbLine
 62
7
  6
CONTINUOUS
 10
193.0411788616
 20
162.7454564174
 11
192.3411788616
 21
162.7454564174
  0
LINE
  5
4C3
100
AcDbEntity
  8
_30_VOLUMEN
100
AcDbLine
 62
7
  6
CONTINUOUS
 10
207.0411788616
 20
162.749253312
 11
207.7411788616
 21
162.749253312
  0
LINE
  5
4C4
100
AcDbEntity
  8
_30_VOLUMEN
100
AcDbLine
 62
7
  6
CONTINUOUS
 10
207.0411788616
 20
162.92428526
 11
207.7411788616
 21
162.92428526
  0
LINE
  5
4C5
100
AcDbEntity
  8
_30_VOLUMEN
100
AcDbLine
 62
7
  6
CONTINUOUS
 10
193.0411788616
 20
163.0279323247
 11
192.3411788616
 21
163.0279323247
  0
LINE
  5
4C6
100
AcDbEntity
  8
_30_VOLUMEN
100
AcDbLine
 62
7
  6
CONTINUOUS
 10
207.0411788616
 20
163.2016219065
 11
207.7411788616
 21
163.2016219065
  0
LINE
  5
4C7
100
AcDbEntity
  8
_30_VOLUMEN
100
AcDbLine
 62
7
  6
CONTINUOUS
 10
193.0411788616
 20
163.3263574978
 11
192.3411788616
 21
163.3263574978
  0
LINE
  5
4C8
100
AcDbEntity
  8
_30_VOLUMEN
100
AcDbLine
 62
7
  6
CONTINUOUS
 10
207.0411788616
 20
163.3766538545
 11
207.7411788616
 21
163.3766538545
  0
LINE
  5
4C9
100
AcDbEntity
  8
_30_VOLUMEN
100
AcDbLine
 62
7
  6
CONTINUOUS
 10
207.7411788616
 20
163.4958857731
 11
207.0411788616
 21
163.4958857731
  0
LINE
  5
4CA
100
AcDbEntity
  8
_30_VOLUMEN
100
AcDbLine
 62
7
  6
CONTINUOUS
 10
193.0411788616
 20
163.6924788954
 11
192.3411788616
 21
163.6924788954
  0
LINE
  5
4CB
100
AcDbEntity
  8
_30_VOLUMEN
100
AcDbLine
 62
7
  6
CONTINUOUS
 10
193.0411788616
 20
163.7438605864
 11
192.3411788616
 21
163.7438605864
  0
LINE
  5
4CC
100
AcDbEntity
  8
_30_VOLUMEN
100
AcDbLine
 62
7
  6
CONTINUOUS
 10
207.0411788616
 20
163.8856676881
 11
207.7411788616
 21
163.8856676881
  0
LINE
  5
4CD
100
AcDbEntity
  8
_30_VOLUMEN
100
AcDbLine
 62
7
  6
CONTINUOUS
 10
193.0411788616
 20
163.9228426267
 11
192.3411788616
 21
163.9228426267
  0
LINE
  5
4CE
100
AcDbEntity
  8
_30_VOLUMEN
100
AcDbLine
 62
7
  6
CONTINUOUS
 10
193.0411788616
 20
165.6822233002
 11
192.3411788616
 21
165.6822233002
  0
LINE
  5
4CF
100
AcDbEntity
  8
_30_VOLUMEN
100
AcDbLine
 62
7
  6
CONTINUOUS
 10
207.0411788616
 20
165.7831946057
 11
207.7411788616
 21
165.7831946057
  0
LINE
  5
4D0
100
AcDbEntity
  8
_30_VOLUMEN
100
AcDbLine
 62
7
  6
CONTINUOUS
 10
193.0411788616
 20
166.2802909836
 11
192.3411788616
 21
166.2802909836
  0
LINE
  5
4D1
100
AcDbEntity
  8
_30_VOLUMEN
100
AcDbLine
 62
7
  6
CONTINUOUS
 10
193.0411788616
 20
166.5705902672
 11
192.3411788616
 21
166.5705902672
  0
LINE
  5
4D2
100
AcDbEntity
  8
_30_VOLUMEN
100
AcDbLine
 62
7
  6
CONTINUOUS
 10
193.0411788616
 20
166.7047671496
 11
192.3411788616
 21
166.7047671496
  0
LINE
  5
4D3
100
AcDbEntity
  8
_30_VOLUMEN
100
AcDbLine
 62
7
  6
CONTINUOUS
 10
207.0411788616
 20
166.8288411991
 11
207.7411788616
 21
166.8288411991
  0
LINE
  5
4D4
100
AcDbEntity
  8
_30_VOLUMEN
100
AcDbLine
 62
7
  6
CONTINUOUS
 10
207.0411788616
 20
167.0063109987
 11
207.7411788616
 21
167.0063109987
  0
LINE
  5
4D5
100
AcDbEntity
  8
_30_VOLUMEN
100
AcDbLine
 62
7
  6
CONTINUOUS
 10
207.0411788616
 20
167.0594670384
 11
207.7411788616
 21
167.0594670384
  0
LINE
  5
4D6
100
AcDbEntity
  8
_30_VOLUMEN
100
AcDbLine
 62
7
  6
CONTINUOUS
 10
207.0411788616
 20
167.171506324
 11
207.7411788616
 21
167.171506324
  0
LINE
  5
4D7
100
AcDbEntity
  8
_30_VOLUMEN
100
AcDbLine
 62
7
  6
CONTINUOUS
 10
207.0411788616
 20
167.2423523341
 11
207.7411788616
 21
167.2423523341
  0
LINE
  5
4D8
100
AcDbEntity
  8
_30_VOLUMEN
100
AcDbLine
 62
7
  6
CONTINUOUS
 10
207.0411788616
 20
167.268257414
 11
207.7411788616
 21
167.268257414
  0
LINE
  5
4D9
100
AcDbEntity
  8
_30_VOLUMEN
100
AcDbLine
 62
7
  6
CONTINUOUS
 10
207.0411788616
 20
167.4119059862
 11
207.7411788616
 21
167.4119059862
  0
LINE
  5
4DA
100
AcDbEntity
  8
_30_VOLUMEN
100
AcDbLine
 62
7
  6
CONTINUOUS
 10
207.0411788616
 20
167.5948031162
 11
207.7411788616
 21
167.5948031162
  0
LINE
  5
4DB
100
AcDbEntity
  8
_30_VOLUMEN
100
AcDbLine
 62
7
  6
CONTINUOUS
 10
207.0411788616
 20
167.8169485478
 11
207.7411788616
 21
167.8169485478
  0
LINE
  5
4DC
100
AcDbEntity
  8
_30_VOLUMEN
100
AcDbLine
 62
7
  6
CONTINUOUS
 10
193.0411788616
 20
167.9182408639
 11
192.3411788616
 21
167.9182408639
  0
LINE
  5
4DD
100
AcDbEntity
  8
_30_VOLUMEN
100
AcDbLine
 62
7
  6
CONTINUOUS
 10
207.0411788616
 20
168.1568374718
 11
207.7411788616
 21
168.1568374718
  0
LINE
  5
4DE
100
AcDbEntity
  8
_30_VOLUMEN
100
AcDbLine
 62
7
  6
CONTINUOUS
 10
193.0411788616
 20
168.1845233254
 11
192.3411788616
 21
168.1845233254
  0
LINE
  5
4DF
100
AcDbEntity
  8
_30_VOLUMEN
100
AcDbLine
 62
7
  6
CONTINUOUS
 10
193.0411788616
 20
168.3723107931
 11
192.3411788616
 21
168.3723107931
  0
LINE
  5
4E0
100
AcDbEntity
  8
_30_VOLUMEN
100
AcDbLine
 62
7
  6
CONTINUOUS
 10
207.0411788616
 20
168.4052787931
 11
207.7411788616
 21
168.4052787931
  0
LINE
  5
4E1
100
AcDbEntity
  8
_30_VOLUMEN
100
AcDbLine
 62
7
  6
CONTINUOUS
 10
207.0411788616
 20
168.6079958639
 11
207.7411788616
 21
168.6079958639
  0
LINE
  5
4E2
100
AcDbEntity
  8
_30_VOLUMEN
100
AcDbLine
 62
7
  6
CONTINUOUS
 10
193.0411788616
 20
168.7010643891
 11
192.3411788616
 21
168.7010643891
  0
LINE
  5
4E3
100
AcDbEntity
  8
_30_VOLUMEN
100
AcDbLine
 62
7
  6
CONTINUOUS
 10
207.0411788616
 20
168.8042362156
 11
207.7411788616
 21
168.8042362156
  0
LINE
  5
4E4
100
AcDbEntity
  8
_30_VOLUMEN
100
AcDbLine
 62
7
  6
CONTINUOUS
 10
207.0411788616
 20
168.9547523168
 11
207.7411788616
 21
168.9547523168
  0
LINE
  5
4E5
100
AcDbEntity
  8
_30_VOLUMEN
100
AcDbLine
 62
7
  6
CONTINUOUS
 10
193.0411788616
 20
168.9673024699
 11
192.3411788616
 21
168.9673024699
  0
LINE
  5
4E6
100
AcDbEntity
  8
_30_VOLUMEN
100
AcDbLine
 62
7
  6
CONTINUOUS
 10
207.0411788616
 20
168.9745723858
 11
207.7411788616
 21
168.9745723858
  0
LINE
  5
4E7
100
AcDbEntity
  8
_30_VOLUMEN
100
AcDbLine
 62
7
  6
CONTINUOUS
 10
193.0411788616
 20
169.3101913815
 11
192.3411788616
 21
169.3101913815
  0
LINE
  5
4E8
100
AcDbEntity
  8
_30_VOLUMEN
100
AcDbLine
 62
7
  6
CONTINUOUS
 10
193.0411788616
 20
169.3565305792
 11
192.3411788616
 21
169.3565305792
  0
LINE
  5
4E9
100
AcDbEntity
  8
_30_VOLUMEN
100
AcDbLine
 62
7
  6
CONTINUOUS
 10
193.0411788616
 20
169.5461173905
 11
192.3411788616
 21
169.5461173905
  0
LINE
  5
4EA
100
AcDbEntity
  8
_30_VOLUMEN
100
AcDbLine
 62
7
  6
CONTINUOUS
 10
193.0411788616
 20
169.8627759366
 11
192.3411788616
 21
169.8627759366
  0
LINE
  5
4EB
100
AcDbEntity
  8
_30_VOLUMEN
100
AcDbLine
 62
7
  6
CONTINUOUS
 10
193.0411788616
 20
170.2056652868
 11
192.3411788616
 21
170.2056652868
  0
LINE
  5
4EC
100
AcDbEntity
  8
_30_VOLUMEN
100
AcDbLine
 62
7
  6
CONTINUOUS
 10
193.0411788616
 20
170.4477132679
 11
192.3411788616
 21
170.4477132679
  0
LINE
  5
4ED
100
AcDbEntity
  8
_30_VOLUMEN
100
AcDbLine
 62
7
  6
CONTINUOUS
 10
207.0411788616
 20
170.5106170766
 11
207.7411788616
 21
170.5106170766
  0
LINE
  5
4EE
100
AcDbEntity
  8
_30_VOLUMEN
100
AcDbLine
 62
7
  6
CONTINUOUS
 10
193.0411788616
 20
170.6010158068
 11
192.3411788616
 21
170.6010158068
  0
LINE
  5
4EF
100
AcDbEntity
  8
_30_VOLUMEN
100
AcDbLine
 62
7
  6
CONTINUOUS
 10
193.0411788616
 20
170.7422228572
 11
192.3411788616
 21
170.7422228572
  0
LINE
  5
4F0
100
AcDbEntity
  8
_30_VOLUMEN
100
AcDbLine
 62
7
  6
CONTINUOUS
 10
193.0411788616
 20
170.7825894157
 11
192.3411788616
 21
170.7825894157
  0
LINE
  5
4F1
100
AcDbEntity
  8
_30_VOLUMEN
100
AcDbLine
 62
7
  6
CONTINUOUS
 10
207.0411788616
 20
170.7846270838
 11
207.7411788616
 21
170.7846270838
  0
LINE
  5
4F2
100
AcDbEntity
  8
_30_VOLUMEN
100
AcDbLine
 62
7
  6
CONTINUOUS
 10
193.0411788616
 20
171.6315358332
 11
192.3411788616
 21
171.6315358332
  0
LINE
  5
4F3
100
AcDbEntity
  8
_30_VOLUMEN
100
AcDbLine
 62
7
  6
CONTINUOUS
 10
193.0411788616
 20
171.8339062301
 11
192.3411788616
 21
171.8339062301
  0
LINE
  5
4F4
100
AcDbEntity
  8
_30_VOLUMEN
100
AcDbLine
 62
7
  6
CONTINUOUS
 10
193.0411788616
 20
171.9183867197
 11
192.3411788616
 21
171.9183867197
  0
LINE
  5
4F5
100
AcDbEntity
  8
_30_VOLUMEN
100
AcDbLine
 62
7
  6
CONTINUOUS
 10
207.7411788616
 20
172.1027235782
 11
207.0411788616
 21
172.1027235782
  0
LINE
  5
4F6
100
AcDbEntity
  8
_30_VOLUMEN
100
AcDbLine
 62
7
  6
CONTINUOUS
 10
193.0411788616
 20
172.1171461978
 11
192.3411788616
 21
172.1171461978
  0
LINE
  5
4F7
100
AcDbEntity
  8
_30_VOLUMEN
100
AcDbLine
 62
7
  6
CONTINUOUS
 10
193.0411788616
 20
172.4301249943
 11
192.3411788616
 21
172.4301249943
  0
LINE
  5
4F8
100
AcDbEntity
  8
_30_VOLUMEN
100
AcDbLine
 62
7
  6
CONTINUOUS
 10
193.0411788616
 20
172.7152234597
 11
192.3411788616
 21
172.7152234597
  0
LINE
  5
4F9
100
AcDbEntity
  8
_30_VOLUMEN
100
AcDbLine
 62
7
  6
CONTINUOUS
 10
193.0411788616
 20
172.9157814359
 11
192.3411788616
 21
172.9157814359
  0
LINE
  5
4FA
100
AcDbEntity
  8
0
100
AcDbLine
 62
7
  6
CONTINUOUS
 10
208.0411788616
 20
95.9183624649
 11
206.5411788616
 21
94.4183624649
  0
LINE
  5
4FB
100
AcDbEntity
  8
_30_VOLUMEN
100
AcDbLine
 62
7
  6
CONTINUOUS
 10
193.0411788616
 20
173.0596795833
 11
192.3411788616
 21
173.0596795833
  0
LINE
  5
4FC
100
AcDbEntity
  8
_30_VOLUMEN
100
AcDbLine
 62
7
  6
CONTINUOUS
 10
193.0411788616
 20
173.1181379102
 11
192.3411788616
 21
173.1181379102
  0
LINE
  5
4FD
100
AcDbEntity
  8
_30_VOLUMEN
100
AcDbLine
 62
7
  6
CONTINUOUS
 10
193.0411788616
 20
173.5793947153
 11
192.3411788616
 21
173.5793947153
  0
LINE
  5
4FE
100
AcDbEntity
  8
_30_VOLUMEN
100
AcDbLine
 62
7
  6
CONTINUOUS
 10
193.0411788616
 20
173.8791471831
 11
192.3411788616
 21
173.8791471831
  0
LINE
  5
4FF
100
AcDbEntity
  8
_30_VOLUMEN
100
AcDbLine
 62
7
  6
CONTINUOUS
 10
193.0411788616
 20
174.6944931018
 11
192.3411788616
 21
174.6944931018
  0
LINE
  5
500
100
AcDbEntity
  8
_26_BEZUGSACHSEN
100
AcDbLine
 62
7
  6
CONTINUOUS
 10
204.0411788616
 20
183.675131817
 11
196.0411788616
 21
183.675131817
  0
LINE
  5
501
100
AcDbEntity
  8
_26_BEZUGSACHSEN
100
AcDbLine
 62
7
  6
CONTINUOUS
 10
71.0044261044
 20
37.4392049926
 11
71.0044261044
 21
45.4392049926
  0
LINE
  5
502
100
AcDbEntity
  8
_26_BEZUGSACHSEN
100
AcDbLine
 62
7
  6
CONTINUOUS
 10
73.8208723676
 20
49.0146952009
 11
73.8209463922
 21
49.0148689734
  0
LWPOLYLINE
  5
503
100
AcDbEntity
  8
_26_BEZUGSACHSEN
100
AcDbPolyline
 62
7
  6
CONTINUOUS
 90
3
 70
0
 10
73.8208727763
 20
49.0146948049
 10
73.8081076275
 20
48.9851181564
 10
73.7811785347
 20
48.9256981411
  0
LWPOLYLINE
  5
504
100
AcDbEntity
  8
_30_VOLUMEN
100
AcDbPolyline
 62
7
  6
CONTINUOUS
 90
3
 70
0
 10
73.7756902649
 20
33.9648310609
 10
73.8081750373
 20
33.893137665
 10
73.8208723551
 20
33.8637161692
  0
LINE
  5
505
100
AcDbEntity
  8
_30_VOLUMEN
100
AcDbLine
 62
7
  6
CONTINUOUS
 10
73.8208719464
 20
33.8637157732
 11
73.8212584291
 21
33.8628089889
  0
LWPOLYLINE
  5
506
100
AcDbEntity
  8
_30_VOLUMEN
100
AcDbPolyline
 62
7
  6
CONTINUOUS
 90
7
 70
0
 10
73.7303006156
 20
34.0586856423
 10
73.7236587923
 20
34.0681348153
 10
73.7174100498
 20
34.0774913711
 10
73.7201040056
 20
34.0730019119
 10
73.7311475203
 20
34.053442408
 10
73.7498487612
 20
34.0178136835
 10
73.7756902649
 20
33.9648310609
  0
LINE
  5
507
100
AcDbEntity
  8
_30_VOLUMEN
100
AcDbLine
 62
7
  6
CONTINUOUS
 10
78.3763377496
 20
34.4392049926
 11
78.3763377496
 21
33.7392049926
  0
LINE
  5
508
100
AcDbEntity
  8
_30_VOLUMEN
100
AcDbLine
 62
7
  6
CONTINUOUS
 10
78.6654481019
 20
34.4392049926
 11
78.6654481019
 21
33.7392049926
  0
LINE
  5
509
100
AcDbEntity
  8
_30_VOLUMEN
100
AcDbLine
 62
7
  6
CONTINUOUS
 10
78.7880283344
 20
34.4392049926
 11
78.7880283344
 21
33.7392049926
  0
LINE
  5
50A
100
AcDbEntity
  8
_30_VOLUMEN
100
AcDbLine
 62
7
  6
CONTINUOUS
 10
79.0232600743
 20
34.4392049926
 11
79.0232600743
 21
33.7392049926
  0
LINE
  5
50B
100
AcDbEntity
  8
_30_VOLUMEN
100
AcDbLine
 62
7
  6
CONTINUOUS
 10
79.0507930412
 20
34.4392049926
 11
79.0507930412
 21
33.7392049926
  0
LINE
  5
50C
100
AcDbEntity
  8
_30_VOLUMEN
100
AcDbLine
 62
7
  6
CONTINUOUS
 10
79.1600271953
 20
34.4392049926
 11
79.1600271953
 21
33.7392049926
  0
LINE
  5
50D
100
AcDbEntity
  8
_30_VOLUMEN
100
AcDbLine
 62
7
  6
CONTINUOUS
 10
79.4450766194
 20
48.4392049926
 11
79.4450766194
 21
49.1392049926
  0
LINE
  5
50E
100
AcDbEntity
  8
_30_VOLUMEN
100
AcDbLine
 62
7
  6
CONTINUOUS
 10
79.5128114163
 20
48.4392049926
 11
79.5128114163
 21
49.1392049926
  0
LINE
  5
50F
100
AcDbEntity
  8
_30_VOLUMEN
100
AcDbLine
 62
7
  6
CONTINUOUS
 10
79.5969636034
 20
34.4392049926
 11
79.5969636034
 21
33.7392049926
  0
LINE
  5
510
100
AcDbEntity
  8
_30_VOLUMEN
100
AcDbLine
 62
7
  6
CONTINUOUS
 10
79.5979755876
 20
48.4392049926
 11
79.5979755876
 21
49.1392049926
  0
LINE
  5
511
100
AcDbEntity
  8
_30_VOLUMEN
100
AcDbLine
 62
7
  6
CONTINUOUS
 10
79.7061977054
 20
34.4392049926
 11
79.7061977054
 21
33.7392049926
  0
LWPOLYLINE
  5
512
100
AcDbEntity
  8
_26_BEZUGSACHSEN
100
AcDbPolyline
 62
7
  6
CONTINUOUS
 90
6
 70
0
 10
74.0600024656
 20
49.1470025946
 10
73.8649164815
 20
48.9940563071
 10
73.635385324
 20
48.8066821289
 10
73.4149748362
 20
48.6183592179
 10
73.2035303134
 20
48.4290214042
 10
73.0442936294
 20
48.2793764154
  0
LINE
  5
513
100
AcDbEntity
  8
_26_BEZUGSACHSEN
100
AcDbLine
 62
7
  6
CONTINUOUS
 10
74.0590616858
 20
49.1462777938
 11
74.0600024656
 21
49.1470025946
  0
LINE
  5
514
100
AcDbEntity
  8
_30_VOLUMEN
100
AcDbLine
 62
7
  6
CONTINUOUS
 10
74.0591006379
 20
33.7321021689
 11
74.0600024656
 21
33.7314073906
  0
LWPOLYLINE
  5
515
100
AcDbEntity
  8
_30_VOLUMEN
100
AcDbPolyline
 62
7
  6
CONTINUOUS
 90
6
 70
0
 10
73.0442936294
 20
34.5990335698
 10
73.2035303134
 20
34.449388581
 10
73.4149748362
 20
34.2600507673
 10
73.635385324
 20
34.0717278563
 10
73.8649164815
 20
33.8843536781
 10
74.0600024656
 20
33.7314073906
  0
LINE
  5
516
100
AcDbEntity
  8
_30_VOLUMEN
100
AcDbLine
 62
7
  6
CONTINUOUS
 10
79.8070255659
 20
48.4392049926
 11
79.8070255659
 21
49.1392049926
  0
LINE
  5
517
100
AcDbEntity
  8
_30_VOLUMEN
100
AcDbLine
 62
7
  6
CONTINUOUS
 10
80.002936698
 20
34.4392049926
 11
80.002936698
 21
33.7392049926
  0
LINE
  5
518
100
AcDbEntity
  8
_30_VOLUMEN
100
AcDbLine
 62
7
  6
CONTINUOUS
 10
80.0122141194
 20
48.4392049926
 11
80.0122141194
 21
49.1392049926
  0
LINE
  5
519
100
AcDbEntity
  8
_30_VOLUMEN
100
AcDbLine
 62
7
  6
CONTINUOUS
 10
80.2861584063
 20
48.4392049926
 11
80.2861584063
 21
49.1392049926
  0
LINE
  5
51A
100
AcDbEntity
  8
_30_VOLUMEN
100
AcDbLine
 62
7
  6
CONTINUOUS
 10
80.4451072187
 20
48.4392049926
 11
80.4451072187
 21
49.1392049926
  0
LINE
  5
51B
100
AcDbEntity
  8
_30_VOLUMEN
100
AcDbLine
 62
7
  6
CONTINUOUS
 10
80.5851314041
 20
34.4392049926
 11
80.5851314041
 21
33.7392049926
  0
LINE
  5
51C
100
AcDbEntity
  8
_30_VOLUMEN
100
AcDbLine
 62
7
  6
CONTINUOUS
 10
80.7640111975
 20
33.7392049926
 11
80.7640111975
 21
34.4392049926
  0
LINE
  5
51D
100
AcDbEntity
  8
_30_VOLUMEN
100
AcDbLine
 62
7
  6
CONTINUOUS
 10
80.9762218303
 20
33.7392049926
 11
80.9762218303
 21
34.4392049926
  0
LINE
  5
51E
100
AcDbEntity
  8
_30_VOLUMEN
100
AcDbLine
 62
7
  6
CONTINUOUS
 10
81.0087421041
 20
48.4392049926
 11
81.0087421041
 21
49.1392049926
  0
LINE
  5
51F
100
AcDbEntity
  8
_30_VOLUMEN
100
AcDbLine
 62
7
  6
CONTINUOUS
 10
81.3036107373
 20
33.7392049926
 11
81.3036107373
 21
34.4392049926
  0
LINE
  5
520
100
AcDbEntity
  8
_30_VOLUMEN
100
AcDbLine
 62
7
  6
CONTINUOUS
 10
81.4712406353
 20
48.4392049926
 11
81.4712406353
 21
49.1392049926
  0
LINE
  5
521
100
AcDbEntity
  8
_30_VOLUMEN
100
AcDbLine
 62
7
  6
CONTINUOUS
 10
81.5605651997
 20
48.4392049926
 11
81.5605651997
 21
49.1392049926
  0
LINE
  5
522
100
AcDbEntity
  8
_30_VOLUMEN
100
AcDbLine
 62
7
  6
CONTINUOUS
 10
81.582483604
 20
33.7392049926
 11
81.582483604
 21
34.4392049926
  0
LINE
  5
523
100
AcDbEntity
  8
_30_VOLUMEN
100
AcDbLine
 62
7
  6
CONTINUOUS
 10
81.8444002397
 20
48.4392049926
 11
81.8444002397
 21
49.1392049926
  0
LINE
  5
524
100
AcDbEntity
  8
_30_VOLUMEN
100
AcDbLine
 62
7
  6
CONTINUOUS
 10
81.8946874712
 20
33.7392049926
 11
81.8946874712
 21
34.4392049926
  0
LINE
  5
525
100
AcDbEntity
  8
_30_VOLUMEN
100
AcDbLine
 62
7
  6
CONTINUOUS
 10
82.758524609
 20
33.7392049926
 11
82.758524609
 21
34.4392049926
  0
LINE
  5
526
100
AcDbEntity
  8
_30_VOLUMEN
100
AcDbLine
 62
7
  6
CONTINUOUS
 10
83.0222122745
 20
33.7392049926
 11
83.0222122745
 21
34.4392049926
  0
LINE
  5
527
100
AcDbEntity
  8
_30_VOLUMEN
100
AcDbLine
 62
7
  6
CONTINUOUS
 10
83.0361219322
 20
48.4392049926
 11
83.0361219322
 21
49.1392049926
  0
LINE
  5
528
100
AcDbEntity
  8
_30_VOLUMEN
100
AcDbLine
 62
7
  6
CONTINUOUS
 10
83.053735609
 20
34.4392049926
 11
83.053735609
 21
33.7392049926
  0
LINE
  5
529
100
AcDbEntity
  8
_30_VOLUMEN
100
AcDbLine
 62
7
  6
CONTINUOUS
 10
83.5239082599
 20
48.4392049926
 11
83.5239082599
 21
49.1392049926
  0
LINE
  5
52A
100
AcDbEntity
  8
_30_VOLUMEN
100
AcDbLine
 62
7
  6
CONTINUOUS
 10
83.7612926022
 20
48.4392049926
 11
83.7612926022
 21
49.1392049926
  0
LINE
  5
52B
100
AcDbEntity
  8
_30_VOLUMEN
100
AcDbLine
 62
7
  6
CONTINUOUS
 10
83.9076227219
 20
34.4392049926
 11
83.9076227219
 21
33.7392049926
  0
LINE
  5
52C
100
AcDbEntity
  8
_30_VOLUMEN
100
AcDbLine
 62
7
  6
CONTINUOUS
 10
84.1349551483
 20
34.4392049926
 11
84.1349551483
 21
33.7392049926
  0
LINE
  5
52D
100
AcDbEntity
  8
_30_VOLUMEN
100
AcDbLine
 62
7
  6
CONTINUOUS
 10
84.3445654113
 20
48.4392049926
 11
84.3445654113
 21
49.1392049926
  0
LINE
  5
52E
100
AcDbEntity
  8
_30_VOLUMEN
100
AcDbLine
 62
7
  6
CONTINUOUS
 10
84.4255885866
 20
34.4392049926
 11
84.4255885866
 21
33.7392049926
  0
LINE
  5
52F
100
AcDbEntity
  8
_30_VOLUMEN
100
AcDbLine
 62
7
  6
CONTINUOUS
 10
84.7300826731
 20
34.4392049926
 11
84.7300826731
 21
33.7392049926
  0
LINE
  5
530
100
AcDbEntity
  8
_30_VOLUMEN
100
AcDbLine
 62
7
  6
CONTINUOUS
 10
84.7398666547
 20
48.4392049926
 11
84.7398666547
 21
49.1392049926
  0
LINE
  5
531
100
AcDbEntity
  8
_30_VOLUMEN
100
AcDbLine
 62
7
  6
CONTINUOUS
 10
84.9139802223
 20
34.4392049926
 11
84.9139802223
 21
33.7392049926
  0
LINE
  5
532
100
AcDbEntity
  8
_30_VOLUMEN
100
AcDbLine
 62
7
  6
CONTINUOUS
 10
84.9351514719
 20
48.4392049926
 11
84.9351514719
 21
49.1392049926
  0
LINE
  5
533
100
AcDbEntity
  8
_26_BEZUGSACHSEN
100
AcDbLine
 62
7
  6
CONTINUOUS
 10
75.3130521027
 20
50.5579426857
 11
82.7703922527
 21
54.0353575071
  0
LINE
  5
534
100
AcDbEntity
  8
_30_VOLUMEN
100
AcDbLine
 62
7
  6
CONTINUOUS
 10
75.3130521027
 20
32.3204672995
 11
82.7703922527
 21
28.8430524781
  0
LINE
  5
535
100
AcDbEntity
  8
_30_VOLUMEN
100
AcDbLine
 62
7
  6
CONTINUOUS
 10
85.1117385582
 20
34.4392049926
 11
85.1117385582
 21
33.7392049926
  0
LINE
  5
536
100
AcDbEntity
  8
_30_VOLUMEN
100
AcDbLine
 62
7
  6
CONTINUOUS
 10
85.1991943675
 20
48.4392049926
 11
85.1991943675
 21
49.1392049926
  0
LINE
  5
537
100
AcDbEntity
  8
_30_VOLUMEN
100
AcDbLine
 62
7
  6
CONTINUOUS
 10
85.2244783052
 20
34.4392049926
 11
85.2244783052
 21
33.7392049926
  0
LINE
  5
538
100
AcDbEntity
  8
_30_VOLUMEN
100
AcDbLine
 62
7
  6
CONTINUOUS
 10
85.3155006135
 20
34.4392049926
 11
85.3155006135
 21
33.7392049926
  0
LINE
  5
539
100
AcDbEntity
  8
_30_VOLUMEN
100
AcDbLine
 62
7
  6
CONTINUOUS
 10
85.3215044713
 20
34.4392049926
 11
85.3215044713
 21
33.7392049926
  0
LINE
  5
53A
100
AcDbEntity
  8
_30_VOLUMEN
100
AcDbLine
 62
7
  6
CONTINUOUS
 10
85.3618728116
 20
34.4392049926
 11
85.3618728116
 21
33.7392049926
  0
LINE
  5
53B
100
AcDbEntity
  8
_30_VOLUMEN
100
AcDbLine
 62
7
  6
CONTINUOUS
 10
85.433977361
 20
34.4392049926
 11
85.433977361
 21
33.7392049926
  0
LINE
  5
53C
100
AcDbEntity
  8
_30_VOLUMEN
100
AcDbLine
 62
7
  6
CONTINUOUS
 10
85.5506187905
 20
34.4392049926
 11
85.5506187905
 21
33.7392049926
  0
LINE
  5
53D
100
AcDbEntity
  8
_30_VOLUMEN
100
AcDbLine
 62
7
  6
CONTINUOUS
 10
85.7520909858
 20
34.4392049926
 11
85.7520909858
 21
33.7392049926
  0
LINE
  5
53E
100
AcDbEntity
  8
_30_VOLUMEN
100
AcDbLine
 62
7
  6
CONTINUOUS
 10
85.9981000611
 20
34.4392049926
 11
85.9981000611
 21
33.7392049926
  0
LINE
  5
53F
100
AcDbEntity
  8
_30_VOLUMEN
100
AcDbLine
 62
7
  6
CONTINUOUS
 10
86.2928890109
 20
34.4392049926
 11
86.2928890109
 21
33.7392049926
  0
LINE
  5
540
100
AcDbEntity
  8
_30_VOLUMEN
100
AcDbLine
 62
7
  6
CONTINUOUS
 10
86.5919200327
 20
34.4392049926
 11
86.5919200327
 21
33.7392049926
  0
LINE
  5
541
100
AcDbEntity
  8
_30_VOLUMEN
100
AcDbLine
 62
7
  6
CONTINUOUS
 10
86.7658254808
 20
34.4392049926
 11
86.7658254808
 21
33.7392049926
  0
LINE
  5
542
100
AcDbEntity
  8
_30_VOLUMEN
100
AcDbLine
 62
7
  6
CONTINUOUS
 10
86.929132595
 20
34.4392049926
 11
86.929132595
 21
33.7392049926
  0
LINE
  5
543
100
AcDbEntity
  8
_30_VOLUMEN
100
AcDbLine
 62
7
  6
CONTINUOUS
 10
87.1793846647
 20
34.4392049926
 11
87.1793846647
 21
33.7392049926
  0
LINE
  5
544
100
AcDbEntity
  8
_30_VOLUMEN
100
AcDbLine
 62
7
  6
CONTINUOUS
 10
87.380661448
 20
48.4392049926
 11
87.380661448
 21
49.1392049926
  0
LINE
  5
545
100
AcDbEntity
  8
_30_VOLUMEN
100
AcDbLine
 62
7
  6
CONTINUOUS
 10
87.5100888771
 20
48.4392049926
 11
87.5100888771
 21
49.1392049926
  0
LINE
  5
546
100
AcDbEntity
  8
_30_VOLUMEN
100
AcDbLine
 62
7
  6
CONTINUOUS
 10
87.5187095722
 20
34.4392049926
 11
87.5187095722
 21
33.7392049926
  0
LINE
  5
547
100
AcDbEntity
  8
_30_VOLUMEN
100
AcDbLine
 62
7
  6
CONTINUOUS
 10
87.7159054499
 20
34.4392049926
 11
87.7159054499
 21
33.7392049926
  0
LINE
  5
548
100
AcDbEntity
  8
_30_VOLUMEN
100
AcDbLine
 62
7
  6
CONTINUOUS
 10
87.7177977301
 20
48.4392049926
 11
87.7177977301
 21
49.1392049926
  0
LINE
  5
549
100
AcDbEntity
  8
_30_VOLUMEN
100
AcDbLine
 62
7
  6
CONTINUOUS
 10
87.9152782861
 20
48.4392049926
 11
87.9152782861
 21
49.1392049926
  0
LINE
  5
54A
100
AcDbEntity
  8
_30_VOLUMEN
100
AcDbLine
 62
7
  6
CONTINUOUS
 10
88.0728622116
 20
34.4392049926
 11
88.0728622116
 21
33.7392049926
  0
LINE
  5
54B
100
AcDbEntity
  8
_30_VOLUMEN
100
AcDbLine
 62
7
  6
CONTINUOUS
 10
88.201269128
 20
48.4392049926
 11
88.201269128
 21
49.1392049926
  0
LINE
  5
54C
100
AcDbEntity
  8
_30_VOLUMEN
100
AcDbLine
 62
7
  6
CONTINUOUS
 10
88.5655425238
 20
48.4392049926
 11
88.5655425238
 21
49.1392049926
  0
LINE
  5
54D
100
AcDbEntity
  8
_30_VOLUMEN
100
AcDbLine
 62
7
  6
CONTINUOUS
 10
88.870216636
 20
48.4392049926
 11
88.870216636
 21
49.1392049926
  0
LINE
  5
54E
100
AcDbEntity
  8
_30_VOLUMEN
100
AcDbLine
 62
7
  6
CONTINUOUS
 10
89.1646619959
 20
48.4392049926
 11
89.1646619959
 21
49.1392049926
  0
LINE
  5
54F
100
AcDbEntity
  8
_30_VOLUMEN
100
AcDbLine
 62
7
  6
CONTINUOUS
 10
89.3544064385
 20
48.4392049926
 11
89.3544064385
 21
49.1392049926
  0
LINE
  5
550
100
AcDbEntity
  8
_30_VOLUMEN
100
AcDbLine
 62
7
  6
CONTINUOUS
 10
89.6701139335
 20
48.4392049926
 11
89.6701139335
 21
49.1392049926
  0
LINE
  5
551
100
AcDbEntity
  8
_30_VOLUMEN
100
AcDbLine
 62
7
  6
CONTINUOUS
 10
90.2269432738
 20
48.4392049926
 11
90.2269432738
 21
49.1392049926
  0
LINE
  5
552
100
AcDbEntity
  8
_30_VOLUMEN
100
AcDbLine
 62
7
  6
CONTINUOUS
 10
90.5025115376
 20
48.4392049926
 11
90.5025115376
 21
49.1392049926
  0
LINE
  5
553
100
AcDbEntity
  8
_30_VOLUMEN
100
AcDbLine
 62
7
  6
CONTINUOUS
 10
90.61351188
 20
34.4392049926
 11
90.61351188
 21
33.7392049926
  0
LINE
  5
554
100
AcDbEntity
  8
_30_VOLUMEN
100
AcDbLine
 62
7
  6
CONTINUOUS
 10
91.0961480437
 20
48.4392049926
 11
91.0961480437
 21
49.1392049926
  0
LINE
  5
555
100
AcDbEntity
  8
_30_VOLUMEN
100
AcDbLine
 62
7
  6
CONTINUOUS
 10
91.1450190499
 20
48.4392049926
 11
91.1450190499
 21
49.1392049926
  0
LINE
  5
556
100
AcDbEntity
  8
_30_VOLUMEN
100
AcDbLine
 62
7
  6
CONTINUOUS
 10
91.2787616816
 20
48.4392049926
 11
91.2787616816
 21
49.1392049926
  0
LINE
  5
557
100
AcDbEntity
  8
_30_VOLUMEN
100
AcDbLine
 62
7
  6
CONTINUOUS
 10
91.5267675574
 20
48.4392049926
 11
91.5267675574
 21
49.1392049926
  0
LINE
  5
558
100
AcDbEntity
  8
_30_VOLUMEN
100
AcDbLine
 62
7
  6
CONTINUOUS
 10
91.8041656868
 20
48.4392049926
 11
91.8041656868
 21
49.1392049926
  0
LINE
  5
559
100
AcDbEntity
  8
_30_VOLUMEN
100
AcDbLine
 62
7
  6
CONTINUOUS
 10
92.0554757454
 20
48.4392049926
 11
92.0554757454
 21
49.1392049926
  0
LINE
  5
55A
100
AcDbEntity
  8
_30_VOLUMEN
100
AcDbLine
 62
7
  6
CONTINUOUS
 10
92.3361780576
 20
48.4392049926
 11
92.3361780576
 21
49.1392049926
  0
LINE
  5
55B
100
AcDbEntity
  8
_30_VOLUMEN
100
AcDbLine
 62
7
  6
CONTINUOUS
 10
92.6756642421
 20
48.4392049926
 11
92.6756642421
 21
49.1392049926
  0
LINE
  5
55C
100
AcDbEntity
  8
_30_VOLUMEN
100
AcDbLine
 62
7
  6
CONTINUOUS
 10
92.8487113584
 20
48.4392049926
 11
92.8487113584
 21
49.1392049926
  0
LINE
  5
55D
100
AcDbEntity
  8
_30_VOLUMEN
100
AcDbLine
 62
7
  6
CONTINUOUS
 10
92.9662791851
 20
48.4392049926
 11
92.9662791851
 21
49.1392049926
  0
LINE
  5
55E
100
AcDbEntity
  8
_30_VOLUMEN
100
AcDbLine
 62
7
  6
CONTINUOUS
 10
93.0283675576
 20
48.4392049926
 11
93.0283675576
 21
49.1392049926
  0
LINE
  5
55F
100
AcDbEntity
  8
_30_VOLUMEN
100
AcDbLine
 62
7
  6
CONTINUOUS
 10
93.1201942723
 20
48.4392049926
 11
93.1201942723
 21
49.1392049926
  0
LINE
  5
560
100
AcDbEntity
  8
_30_VOLUMEN
100
AcDbLine
 62
7
  6
CONTINUOUS
 10
93.3127207762
 20
48.4392049926
 11
93.3127207762
 21
49.1392049926
  0
LINE
  5
561
100
AcDbEntity
  8
_30_VOLUMEN
100
AcDbLine
 62
7
  6
CONTINUOUS
 10
93.3582872615
 20
48.4392049926
 11
93.3582872615
 21
49.1392049926
  0
LINE
  5
562
100
AcDbEntity
  8
_30_VOLUMEN
100
AcDbLine
 62
7
  6
CONTINUOUS
 10
93.5028262123
 20
48.4392049926
 11
93.5028262123
 21
49.1392049926
  0
LINE
  5
563
100
AcDbEntity
  8
_30_VOLUMEN
100
AcDbLine
 62
7
  6
CONTINUOUS
 10
95.2694044571
 20
20.4094641478
 11
95.2694044571
 21
19.6621528505
  0
LINE
  5
564
100
AcDbEntity
  8
0
100
AcDbLine
 62
7
  6
CONTINUOUS
 10
105.2694045763
 20
51.0562263149
 11
105.4569045763
 21
51.1200560945
  0
LINE
  5
565
100
AcDbEntity
  8
_30_VOLUMEN
100
AcDbLine
 62
7
  6
CONTINUOUS
 10
128.2265150133
 20
33.7392049926
 11
114.9431361352
 21
33.7392049926
  0
LINE
  5
566
100
AcDbEntity
  8
_30_VOLUMEN
100
AcDbLine
 62
7
  6
CONTINUOUS
 10
90.61351188
 20
33.7392049926
 11
78.3763377496
 21
33.7392049926
  0
LINE
  5
567
100
AcDbEntity
  8
_30_VOLUMEN
100
AcDbLine
 62
7
  6
CONTINUOUS
 10
95.7334844819
 20
48.4392049926
 11
95.7334844819
 21
49.1392049926
  0
LINE
  5
568
100
AcDbEntity
  8
_30_VOLUMEN
100
AcDbLine
 62
7
  6
CONTINUOUS
 10
95.8319044571
 20
20.2040079427
 11
95.8319044571
 21
19.4636823879
  0
LINE
  5
569
100
AcDbEntity
  8
_30_VOLUMEN
100
AcDbLine
 62
7
  6
CONTINUOUS
 10
95.8430494272
 20
48.4392049926
 11
95.8430494272
 21
49.1392049926
  0
LINE
  5
56A
100
AcDbEntity
  8
_30_VOLUMEN
100
AcDbLine
 62
7
  6
CONTINUOUS
 10
96.3944044571
 20
20.0152843664
 11
96.3944044571
 21
19.281263414
  0
LINE
  5
56B
100
AcDbEntity
  8
_30_VOLUMEN
100
AcDbLine
 62
7
  6
CONTINUOUS
 10
97.1444044124
 20
19.7889307576
 11
97.1444044124
 21
19.0623335747
  0
LINE
  5
56C
100
AcDbEntity
  8
0
100
AcDbLine
 62
7
  6
CONTINUOUS
 10
103.6444043379
 20
51.4392049926
 11
103.2694043379
 21
50.9923965352
  0
LINE
  5
56D
100
AcDbEntity
  8
0
100
AcDbLine
 62
7
  6
CONTINUOUS
 10
103.2694043379
 20
50.4817581194
 11
103.6444043379
 21
50.9285667556
  0
LINE
  5
56E
100
AcDbEntity
  8
0
100
AcDbLine
 62
7
  6
CONTINUOUS
 10
105.0819045763
 20
50.9285667556
 11
105.2694045763
 21
51.0562263149
  0
LINE
  5
56F
100
AcDbEntity
  8
0
100
AcDbLine
 62
7
  6
CONTINUOUS
 10
105.2069044571
 20
50.2902687805
 11
104.8319044571
 21
50.034949662
  0
LINE
  5
570
100
AcDbEntity
  8
0
100
AcDbLine
 62
7
  6
CONTINUOUS
 10
105.0819045763
 20
49.8434603232
 11
105.2694045763
 21
49.9711198824
  0
LINE
  5
571
100
AcDbEntity
  8
0
100
AcDbLine
 62
7
  6
CONTINUOUS
 10
105.2069044571
 20
51.375375213
 11
104.8944045763
 21
51.1838858741
  0
LINE
  5
572
100
AcDbEntity
  8
0
100
AcDbLine
 62
7
  6
CONTINUOUS
 10
105.2694045763
 20
49.9711198824
 11
105.4569045763
 21
50.034949662
  0
LINE
  5
573
100
AcDbEntity
  8
0
100
AcDbLine
 62
7
  6
CONTINUOUS
 10
106.0819046955
 20
48.8221837151
 11
105.8944046955
 21
48.7583539354
  0
LINE
  5
574
100
AcDbEntity
  8
_30_VOLUMEN
100
AcDbLine
 62
7
  6
CONTINUOUS
 10
74.0062706847
 20
34.4392049926
 11
132.5325473552
 21
34.4392049926
  0
LINE
  5
575
100
AcDbEntity
  8
_30_VOLUMEN
100
AcDbLine
 62
7
  6
CONTINUOUS
 10
98.4569043677
 20
19.4599001153
 11
98.4569043677
 21
18.7438344759
  0
LINE
  5
576
100
AcDbEntity
  8
_30_VOLUMEN
100
AcDbLine
 62
7
  6
CONTINUOUS
 10
98.8275675518
 20
63.4964052888
 11
98.8275675518
 21
64.2100215108
  0
LINE
  5
577
100
AcDbEntity
  8
_30_VOLUMEN
100
AcDbLine
 62
7
  6
CONTINUOUS
 10
99.2069044571
 20
19.3089972722
 11
99.2069044571
 21
18.5976618365
  0
LINE
  5
578
100
AcDbEntity
  8
_30_VOLUMEN
100
AcDbLine
 62
7
  6
CONTINUOUS
 10
99.3006543677
 20
19.2919924653
 11
99.3006543677
 21
18.5811862086
  0
LINE
  5
579
100
AcDbEntity
  8
_30_VOLUMEN
100
AcDbLine
 62
7
  6
CONTINUOUS
 10
99.3944045465
 20
19.2753972039
 11
99.3944045465
 21
18.5651066346
  0
LINE
  5
57A
100
AcDbEntity
  8
0
100
AcDbLine
 62
7
  6
CONTINUOUS
 10
99.7694044571
 20
51.4392049926
 11
99.7694044571
 21
48.4392049926
  0
LINE
  5
57B
100
AcDbEntity
  8
_30_VOLUMEN
100
AcDbLine
 62
7
  6
CONTINUOUS
 10
99.7694044571
 20
19.2130942217
 11
99.7694044571
 21
18.5047331216
  0
LINE
  5
57C
100
AcDbEntity
  8
0
100
AcDbLine
 62
7
  6
CONTINUOUS
 10
100.1444044571
 20
48.4392049926
 11
100.1444044571
 21
50.8009071964
  0
LINE
  5
57D
100
AcDbEntity
  8
_30_VOLUMEN
100
AcDbLine
 62
7
  6
CONTINUOUS
 10
100.1444046359
 20
19.1572756301
 11
100.1444046359
 21
18.4506344386
  0
LINE
  5
57E
100
AcDbEntity
  8
_30_VOLUMEN
100
AcDbLine
 62
7
  6
CONTINUOUS
 10
100.8006542783
 20
19.0750534872
 11
100.8006542783
 21
18.3709308362
  0
LINE
  5
57F
100
AcDbEntity
  8
0
100
AcDbLine
 62
7
  6
CONTINUOUS
 10
102.2069044571
 20
51.4392049926
 11
101.2694044571
 21
48.7583539354
  0
LINE
  5
580
100
AcDbEntity
  8
0
100
AcDbLine
 62
7
  6
CONTINUOUS
 10
101.5194043975
 20
48.4392049926
 11
102.3944044571
 21
50.8009071964
  0
LINE
  5
581
100
AcDbEntity
  8
0
100
AcDbLine
 62
7
  6
CONTINUOUS
 10
104.9569043379
 20
50.7370774167
 11
105.0819045763
 21
50.9285667556
  0
LINE
  5
582
100
AcDbEntity
  8
0
100
AcDbLine
 62
7
  6
CONTINUOUS
 10
104.8944045763
 20
51.1838858741
 11
104.7069045763
 21
50.9285667556
  0
LINE
  5
583
100
AcDbEntity
  8
0
100
AcDbLine
 62
7
  6
CONTINUOUS
 10
104.9569043379
 20
49.7158007639
 11
105.0819045763
 21
49.8434603232
  0
LINE
  5
584
100
AcDbEntity
  8
0
100
AcDbLine
 62
7
  6
CONTINUOUS
 10
106.2694046955
 20
48.9498432743
 11
106.0819046955
 21
48.8221837151
  0
LINE
  5
585
100
AcDbEntity
  8
0
100
AcDbLine
 62
7
  6
CONTINUOUS
 10
106.1444044571
 20
48.5030347778
 11
106.4569046955
 21
48.6945241335
  0
LINE
  5
586
100
AcDbEntity
  8
_30_VOLUMEN
100
AcDbLine
 62
7
  6
CONTINUOUS
 10
101.1756544571
 20
19.0368343382
 11
101.1756544571
 21
18.3338763661
  0
LINE
  5
587
100
AcDbEntity
  8
_30_VOLUMEN
100
AcDbLine
 62
7
  6
CONTINUOUS
 10
101.7381544571
 20
18.9913704993
 11
101.7381544571
 21
18.2897930468
  0
LINE
  5
588
100
AcDbEntity
  8
_30_VOLUMEN
100
AcDbLine
 62
7
  6
CONTINUOUS
 10
102.1131546359
 20
18.9689338249
 11
102.1131546359
 21
18.2680357008
  0
LINE
  5
589
100
AcDbEntity
  8
0
100
AcDbLine
 62
7
  6
CONTINUOUS
 10
102.3944044571
 20
50.8009071964
 11
102.3944044571
 21
48.4392049926
  0
LINE
  5
58A
100
AcDbEntity
  8
_30_VOLUMEN
100
AcDbLine
 62
7
  6
CONTINUOUS
 10
102.4881542783
 20
18.9527724574
 11
102.4881542783
 21
18.2523628584
  0
LINE
  5
58B
100
AcDbEntity
  8
_30_VOLUMEN
100
AcDbLine
 62
7
  6
CONTINUOUS
 10
102.5819044571
 20
18.9497109176
 11
102.5819044571
 21
18.249393787
  0
LINE
  5
58C
100
AcDbEntity
  8
0
100
AcDbLine
 62
7
  6
CONTINUOUS
 10
102.7694044571
 20
48.4392049926
 11
102.7694044571
 21
51.4392049926
  0
LINE
  5
58D
100
AcDbEntity
  8
0
100
AcDbLine
 62
7
  6
CONTINUOUS
 10
103.2694043379
 20
50.9923965352
 11
103.2694043379
 21
50.4817581194
  0
LINE
  5
58E
100
AcDbEntity
  8
_30_VOLUMEN
100
AcDbLine
 62
7
  6
CONTINUOUS
 10
103.2775675518
 20
63.9392035118
 11
103.2775675518
 21
64.6392035565
  0
LINE
  5
58F
100
AcDbEntity
  8
0
100
AcDbLine
 62
7
  6
CONTINUOUS
 10
104.5819043379
 20
50.6094176787
 11
104.5194045763
 21
50.1626092213
  0
LINE
  5
590
100
AcDbEntity
  8
0
100
AcDbLine
 62
7
  6
CONTINUOUS
 10
104.8319044571
 20
50.1626092213
 11
104.8944045763
 21
50.545587899
  0
LINE
  5
591
100
AcDbEntity
  8
0
100
AcDbLine
 62
7
  6
CONTINUOUS
 10
104.8944045763
 20
50.545587899
 11
104.9569043379
 21
50.7370774167
  0
LINE
  5
592
100
AcDbEntity
  8
0
100
AcDbLine
 62
7
  6
CONTINUOUS
 10
104.8944045763
 20
49.5243113356
 11
104.9569043379
 21
49.7158007639
  0
LINE
  5
593
100
AcDbEntity
  8
0
100
AcDbLine
 62
7
  6
CONTINUOUS
 10
104.7069045763
 20
50.9285667556
 11
104.5819043379
 21
50.6094176787
  0
LINE
  5
594
100
AcDbEntity
  8
0
100
AcDbLine
 62
7
  6
CONTINUOUS
 10
106.3944042187
 20
49.1413326579
 11
106.2694046955
 21
48.9498432743
  0
LINE
  5
595
100
AcDbEntity
  8
0
100
AcDbLine
 62
7
  6
CONTINUOUS
 10
106.4569046955
 20
48.6945241335
 11
106.6444046955
 21
48.9498432743
  0
LINE
  5
596
100
AcDbEntity
  8
0
100
AcDbLine
 62
7
  6
CONTINUOUS
 10
100.1444044571
 20
50.8009071964
 11
101.0194044273
 21
48.4392049926
  0
LINE
  5
597
100
AcDbEntity
  8
0
100
AcDbLine
 62
7
  6
CONTINUOUS
 10
103.6444043379
 20
50.9285667556
 11
103.6444043379
 21
48.4392049926
  0
LINE
  5
598
100
AcDbEntity
  8
_30_VOLUMEN
100
AcDbLine
 62
7
  6
CONTINUOUS
 10
103.7694044571
 20
18.9447612342
 11
103.7694044571
 21
18.2445935494
  0
LINE
  5
599
100
AcDbEntity
  8
0
100
AcDbLine
 62
7
  6
CONTINUOUS
 10
104.0194043379
 20
48.4392049926
 11
104.0194043379
 21
51.4392049926
  0
LINE
  5
59A
100
AcDbEntity
  8
0
100
AcDbLine
 62
7
  6
CONTINUOUS
 10
104.5194045763
 20
50.1626092213
 11
104.5194045763
 21
49.7158007639
  0
LINE
  5
59B
100
AcDbEntity
  8
0
100
AcDbLine
 62
7
  6
CONTINUOUS
 10
104.8319044571
 20
50.034949662
 11
104.8319044571
 21
50.1626092213
  0
LINE
  5
59C
100
AcDbEntity
  8
0
100
AcDbLine
 62
7
  6
CONTINUOUS
 10
104.8944045763
 20
49.3328219968
 11
104.8944045763
 21
49.5243113356
  0
LINE
  5
59D
100
AcDbEntity
  8
_30_VOLUMEN
100
AcDbLine
 62
7
  6
CONTINUOUS
 10
105.4569044571
 20
19.0457942709
 11
105.4569044571
 21
18.3425635972
  0
LINE
  5
59E
100
AcDbEntity
  8
_30_VOLUMEN
100
AcDbLine
 62
7
  6
CONTINUOUS
 10
105.8084670242
 20
19.0829270985
 11
105.8084670242
 21
18.3785640371
  0
LINE
  5
59F
100
AcDbEntity
  8
_30_VOLUMEN
100
AcDbLine
 62
7
  6
CONTINUOUS
 10
106.0897169571
 20
19.1166639768
 11
106.0897169571
 21
18.4112689713
  0
LINE
  5
5A0
100
AcDbEntity
  8
0
100
AcDbLine
 62
7
  6
CONTINUOUS
 10
106.4569046955
 20
49.3328219968
 11
106.3944042187
 21
49.1413326579
  0
LINE
  5
5A1
100
AcDbEntity
  8
0
100
AcDbLine
 62
7
  6
CONTINUOUS
 10
106.6444046955
 20
48.9498432743
 11
106.7694042187
 21
49.2689922171
  0
LINE
  5
5A2
100
AcDbEntity
  8
0
100
AcDbLine
 62
7
  6
CONTINUOUS
 10
101.2694044571
 20
48.7583539354
 11
100.3319044571
 21
51.4392049926
  0
LINE
  5
5A3
100
AcDbEntity
  8
0
100
AcDbLine
 62
7
  6
CONTINUOUS
 10
104.5194045763
 20
49.7158007639
 11
104.5819043379
 21
49.2689922171
  0
LINE
  5
5A4
100
AcDbEntity
  8
_30_VOLUMEN
100
AcDbLine
 62
7
  6
CONTINUOUS
 10
106.3006544571
 20
19.144328374
 11
106.3006544571
 21
18.4380849451
  0
LINE
  5
5A5
100
AcDbEntity
  8
_30_VOLUMEN
100
AcDbLine
 62
7
  6
CONTINUOUS
 10
106.3709668901
 20
19.1540011462
 11
106.3709668901
 21
18.4474605944
  0
LINE
  5
5A6
100
AcDbEntity
  8
0
100
AcDbLine
 62
7
  6
CONTINUOUS
 10
106.4569046955
 20
49.5243113356
 11
106.4569046955
 21
49.3328219968
  0
LINE
  5
5A7
100
AcDbEntity
  8
0
100
AcDbLine
 62
7
  6
CONTINUOUS
 10
106.7694042187
 20
49.2689922171
 11
106.7694042187
 21
49.5881412047
  0
LINE
  5
5A8
100
AcDbEntity
  8
_30_VOLUMEN
100
AcDbLine
 62
7
  6
CONTINUOUS
 10
106.9334669571
 20
19.2395508062
 11
106.9334669571
 21
18.5303716309
  0
LINE
  5
5A9
100
AcDbEntity
  8
_30_VOLUMEN
100
AcDbLine
 62
7
  6
CONTINUOUS
 10
107.0037793901
 20
19.2512703465
 11
107.0037793901
 21
18.5417281914
  0
LINE
  5
5AA
100
AcDbEntity
  8
_30_VOLUMEN
100
AcDbLine
 62
7
  6
CONTINUOUS
 10
107.1444044571
 20
19.2753972196
 11
107.1444044571
 21
18.5651066497
  0
LINE
  5
5AB
100
AcDbEntity
  8
_30_VOLUMEN
100
AcDbLine
 62
7
  6
CONTINUOUS
 10
107.285029323
 20
19.3004435788
 11
107.285029323
 21
18.5893744257
  0
LINE
  5
5AC
100
AcDbEntity
  8
_30_VOLUMEN
100
AcDbLine
 62
7
  6
CONTINUOUS
 10
107.495966823
 20
19.3397441266
 11
107.495966823
 21
18.6274498964
  0
LINE
  5
5AD
100
AcDbEntity
  8
_30_VOLUMEN
100
AcDbLine
 62
7
  6
CONTINUOUS
 10
107.706904323
 20
19.3811317553
 11
107.706904323
 21
18.6675428894
  0
LINE
  5
5AE
100
AcDbEntity
  8
_30_VOLUMEN
100
AcDbLine
 62
7
  6
CONTINUOUS
 10
107.7575675518
 20
63.487025566
 11
107.7575675518
 21
64.200935859
  0
LINE
  5
5AF
100
AcDbEntity
  8
_30_VOLUMEN
100
AcDbLine
 62
7
  6
CONTINUOUS
 10
108.128779323
 20
19.4702160329
 11
108.128779323
 21
18.7538247685
  0
LINE
  5
5B0
100
AcDbEntity
  8
_30_VOLUMEN
100
AcDbLine
 62
7
  6
CONTINUOUS
 10
108.550654323
 20
19.5677990055
 11
108.550654323
 21
18.8483130258
  0
LINE
  5
5B1
100
AcDbEntity
  8
_30_VOLUMEN
100
AcDbLine
 62
7
  6
CONTINUOUS
 10
108.9022170912
 20
19.655692378
 11
108.9022170912
 21
18.9333963684
  0
LINE
  5
5B2
100
AcDbEntity
  8
0
100
AcDbLine
 62
7
  6
CONTINUOUS
 10
104.7069045763
 20
48.9498432743
 11
104.8944045763
 21
48.6945241335
  0
LINE
  5
5B3
100
AcDbEntity
  8
0
100
AcDbLine
 62
7
  6
CONTINUOUS
 10
105.0819045763
 20
48.9498432743
 11
104.9569043379
 21
49.1413326579
  0
LINE
  5
5B4
100
AcDbEntity
  8
0
100
AcDbLine
 62
7
  6
CONTINUOUS
 10
104.5819043379
 20
49.2689922171
 11
104.7069045763
 21
48.9498432743
  0
LINE
  5
5B5
100
AcDbEntity
  8
0
100
AcDbLine
 62
7
  6
CONTINUOUS
 10
104.9569043379
 20
49.1413326579
 11
104.8944045763
 21
49.3328219968
  0
LINE
  5
5B6
100
AcDbEntity
  8
0
100
AcDbLine
 62
7
  6
CONTINUOUS
 10
106.3944042187
 20
49.7158007639
 11
106.4569046955
 21
49.5243113356
  0
LINE
  5
5B7
100
AcDbEntity
  8
_30_VOLUMEN
100
AcDbLine
 62
7
  6
CONTINUOUS
 10
109.1131545912
 20
19.7113292481
 11
109.1131545912
 21
18.9872432883
  0
LINE
  5
5B8
100
AcDbEntity
  8
_30_VOLUMEN
100
AcDbLine
 62
7
  6
CONTINUOUS
 10
109.183466823
 20
19.7303619481
 11
109.183466823
 21
19.0056616628
  0
LINE
  5
5B9
100
AcDbEntity
  8
_30_VOLUMEN
100
AcDbLine
 62
7
  6
CONTINUOUS
 10
109.7459670912
 20
19.8914873305
 11
109.7459670912
 21
19.1615449618
  0
LINE
  5
5BA
100
AcDbEntity
  8
_30_VOLUMEN
100
AcDbLine
 62
7
  6
CONTINUOUS
 10
110.0975294571
 20
20.000298561
 11
110.0975294571
 21
19.2667737099
  0
LINE
  5
5BB
100
AcDbEntity
  8
_30_VOLUMEN
100
AcDbLine
 62
7
  6
CONTINUOUS
 10
110.238154323
 20
20.0455955424
 11
110.238154323
 21
19.3105691262
  0
LINE
  5
5BC
100
AcDbEntity
  8
_30_VOLUMEN
100
AcDbLine
 62
7
  6
CONTINUOUS
 10
110.449091823
 20
20.1154602622
 11
110.449091823
 21
19.3781059872
  0
LINE
  5
5BD
100
AcDbEntity
  8
_30_VOLUMEN
100
AcDbLine
 62
7
  6
CONTINUOUS
 10
110.6600297253
 20
20.1876483874
 11
110.6600297253
 21
19.4478735608
  0
LINE
  5
5BE
100
AcDbEntity
  8
_30_VOLUMEN
100
AcDbLine
 62
7
  6
CONTINUOUS
 10
111.0115916889
 20
20.3131893515
 11
111.0115916889
 21
19.56916757
  0
LINE
  5
5BF
100
AcDbEntity
  8
_30_VOLUMEN
100
AcDbLine
 62
7
  6
CONTINUOUS
 10
111.04817591
 20
48.4392049926
 11
111.04817591
 21
49.1392049926
  0
LINE
  5
5C0
100
AcDbEntity
  8
_30_VOLUMEN
100
AcDbLine
 62
7
  6
CONTINUOUS
 10
111.1748487426
 20
48.4392049926
 11
111.1748487426
 21
49.1392049926
  0
LINE
  5
5C1
100
AcDbEntity
  8
0
100
AcDbLine
 62
7
  6
CONTINUOUS
 10
105.8319042187
 20
48.4392049926
 11
106.1444044571
 21
48.5030347778
  0
LINE
  5
5C2
100
AcDbEntity
  8
0
100
AcDbLine
 62
7
  6
CONTINUOUS
 10
105.5194043379
 20
50.3540985602
 11
105.2069044571
 21
50.2902687805
  0
LINE
  5
5C3
100
AcDbEntity
  8
_26_BEZUGSACHSEN
100
AcDbLine
 62
7
  6
CONTINUOUS
 10
74.0062706847
 20
48.4392049926
 11
132.5325473552
 21
48.4392049926
  0
LINE
  5
5C4
100
AcDbEntity
  8
0
100
AcDbLine
 62
7
  6
CONTINUOUS
 10
105.8944046955
 20
48.7583539354
 11
105.4569045763
 21
48.7583539354
  0
LINE
  5
5C5
100
AcDbEntity
  8
_30_VOLUMEN
100
AcDbLine
 62
7
  6
CONTINUOUS
 10
79.4450766194
 20
49.1392049926
 11
95.8430494272
 21
49.1392049926
  0
LINE
  5
5C6
100
AcDbEntity
  8
_30_VOLUMEN
100
AcDbLine
 62
7
  6
CONTINUOUS
 10
111.04817591
 20
49.1392049926
 11
115.4277894613
 21
49.1392049926
  0
LINE
  5
5C7
100
AcDbEntity
  8
_30_VOLUMEN
100
AcDbLine
 62
7
  6
CONTINUOUS
 10
115.668878146
 20
49.1392049926
 11
116.0551018303
 21
49.1392049926
  0
LINE
  5
5C8
100
AcDbEntity
  8
_30_VOLUMEN
100
AcDbLine
 62
7
  6
CONTINUOUS
 10
116.3202693629
 20
49.1392049926
 11
126.845955444
 21
49.1392049926
  0
LINE
  5
5C9
100
AcDbEntity
  8
0
100
AcDbLine
 62
7
  6
CONTINUOUS
 10
105.2069044571
 20
48.5030347778
 11
105.5194043379
 21
48.4392049926
  0
LINE
  5
5CA
100
AcDbEntity
  8
0
100
AcDbLine
 62
7
  6
CONTINUOUS
 10
105.4569045763
 20
48.7583539354
 11
105.2694045763
 21
48.8221837151
  0
LINE
  5
5CB
100
AcDbEntity
  8
0
100
AcDbLine
 62
7
  6
CONTINUOUS
 10
104.8944045763
 20
48.6945241335
 11
105.2069044571
 21
48.5030347778
  0
LINE
  5
5CC
100
AcDbEntity
  8
0
100
AcDbLine
 62
7
  6
CONTINUOUS
 10
105.2694045763
 20
48.8221837151
 11
105.0819045763
 21
48.9498432743
  0
LINE
  5
5CD
100
AcDbEntity
  8
0
100
AcDbLine
 62
7
  6
CONTINUOUS
 10
106.2694046955
 20
49.8434603232
 11
106.3944042187
 21
49.7158007639
  0
LINE
  5
5CE
100
AcDbEntity
  8
0
100
AcDbLine
 62
7
  6
CONTINUOUS
 10
106.5819042187
 20
50.9285667556
 11
106.3944042187
 21
51.1838858741
  0
LINE
  5
5CF
100
AcDbEntity
  8
0
100
AcDbLine
 62
7
  6
CONTINUOUS
 10
106.2069042187
 20
50.9285667556
 11
106.3319044571
 21
50.7370774167
  0
LINE
  5
5D0
100
AcDbEntity
  8
0
100
AcDbLine
 62
7
  6
CONTINUOUS
 10
106.7694042187
 20
49.5881412047
 11
106.6444046955
 21
49.9072901028
  0
LINE
  5
5D1
100
AcDbEntity
  8
0
100
AcDbLine
 62
7
  6
CONTINUOUS
 10
106.6444046955
 20
50.7370774167
 11
106.5819042187
 21
50.9285667556
  0
LINE
  5
5D2
100
AcDbEntity
  8
_30_VOLUMEN
100
AcDbLine
 62
7
  6
CONTINUOUS
 10
111.5740919571
 20
20.5279122175
 11
111.5740919571
 21
19.7765143581
  0
LINE
  5
5D3
100
AcDbEntity
  8
_30_VOLUMEN
100
AcDbLine
 62
7
  6
CONTINUOUS
 10
111.7147172253
 20
20.5843088709
 11
111.7147172253
 21
19.8309498051
  0
LINE
  5
5D4
100
AcDbEntity
  8
_30_VOLUMEN
100
AcDbLine
 62
7
  6
CONTINUOUS
 10
111.8655794524
 20
48.4392049926
 11
111.8655794524
 21
49.1392049926
  0
LINE
  5
5D5
100
AcDbEntity
  8
_30_VOLUMEN
100
AcDbLine
 62
7
  6
CONTINUOUS
 10
111.9095511222
 20
48.4392049926
 11
111.9095511222
 21
49.1392049926
  0
LINE
  5
5D6
100
AcDbEntity
  8
_30_VOLUMEN
100
AcDbLine
 62
7
  6
CONTINUOUS
 10
111.9602203191
 20
48.4392049926
 11
111.9602203191
 21
49.1392049926
  0
LINE
  5
5D7
100
AcDbEntity
  8
_30_VOLUMEN
100
AcDbLine
 62
7
  6
CONTINUOUS
 10
111.9959669571
 20
20.7004223154
 11
111.9959669571
 21
19.9429935372
  0
LINE
  5
5D8
100
AcDbEntity
  8
_30_VOLUMEN
100
AcDbLine
 62
7
  6
CONTINUOUS
 10
112.1189251532
 20
48.4392049926
 11
112.1189251532
 21
49.1392049926
  0
LINE
  5
5D9
100
AcDbEntity
  8
_30_VOLUMEN
100
AcDbLine
 62
7
  6
CONTINUOUS
 10
112.4178419571
 20
20.8830358138
 11
112.4178419571
 21
20.1191184236
  0
LINE
  5
5DA
100
AcDbEntity
  8
_30_VOLUMEN
100
AcDbLine
 62
7
  6
CONTINUOUS
 10
112.4497284206
 20
48.4392049926
 11
112.4497284206
 21
49.1392049926
  0
LINE
  5
5DB
100
AcDbEntity
  8
_30_VOLUMEN
100
AcDbLine
 62
7
  6
CONTINUOUS
 10
112.7298612492
 20
48.4392049926
 11
112.7298612492
 21
49.1392049926
  0
LINE
  5
5DC
100
AcDbEntity
  8
_30_VOLUMEN
100
AcDbLine
 62
7
  6
CONTINUOUS
 10
112.8397169571
 20
21.0760245275
 11
112.8397169571
 21
20.3051301689
  0
LINE
  5
5DD
100
AcDbEntity
  8
_30_VOLUMEN
100
AcDbLine
 62
7
  6
CONTINUOUS
 10
113.099392679
 20
48.4392049926
 11
113.099392679
 21
49.1392049926
  0
LINE
  5
5DE
100
AcDbEntity
  8
_30_VOLUMEN
100
AcDbLine
 62
7
  6
CONTINUOUS
 10
113.2615919571
 20
21.2796864228
 11
113.2615919571
 21
20.5012922751
  0
LINE
  5
5DF
100
AcDbEntity
  8
_30_VOLUMEN
100
AcDbLine
 62
7
  6
CONTINUOUS
 10
113.3288576946
 20
48.4392049926
 11
113.3288576946
 21
49.1392049926
  0
LINE
  5
5E0
100
AcDbEntity
  8
_30_VOLUMEN
100
AcDbLine
 62
7
  6
CONTINUOUS
 10
113.4725294571
 20
21.3856207685
 11
113.4725294571
 21
20.6032687229
  0
LINE
  5
5E1
100
AcDbEntity
  8
_30_VOLUMEN
100
AcDbLine
 62
7
  6
CONTINUOUS
 10
113.6834669571
 20
21.4943484565
 11
113.6834669571
 21
20.7078928719
  0
LINE
  5
5E2
100
AcDbEntity
  8
_30_VOLUMEN
100
AcDbLine
 62
7
  6
CONTINUOUS
 10
113.7050865807
 20
48.4392049926
 11
113.7050865807
 21
49.1392049926
  0
LINE
  5
5E3
100
AcDbEntity
  8
_30_VOLUMEN
100
AcDbLine
 62
7
  6
CONTINUOUS
 10
113.8240922253
 20
21.5684081763
 11
113.8240922253
 21
20.7791332087
  0
LINE
  5
5E4
100
AcDbEntity
  8
_30_VOLUMEN
100
AcDbLine
 62
7
  6
CONTINUOUS
 10
113.8838811573
 20
48.4392049926
 11
113.8838811573
 21
49.1392049926
  0
LINE
  5
5E5
100
AcDbEntity
  8
_30_VOLUMEN
100
AcDbLine
 62
7
  6
CONTINUOUS
 10
114.012007921
 20
48.4392049926
 11
114.012007921
 21
49.1392049926
  0
LINE
  5
5E6
100
AcDbEntity
  8
0
100
AcDbLine
 62
7
  6
CONTINUOUS
 10
105.5194043379
 20
51.4392049926
 11
105.2069044571
 21
51.375375213
  0
LINE
  5
5E7
100
AcDbEntity
  8
0
100
AcDbLine
 62
7
  6
CONTINUOUS
 10
105.4569045763
 20
50.034949662
 11
105.8944046955
 21
50.034949662
  0
LINE
  5
5E8
100
AcDbEntity
  8
0
100
AcDbLine
 62
7
  6
CONTINUOUS
 10
105.8319042187
 20
50.3540985602
 11
105.5194043379
 21
50.3540985602
  0
LINE
  5
5E9
100
AcDbEntity
  8
0
100
AcDbLine
 62
7
  6
CONTINUOUS
 10
106.3319044571
 20
50.7370774167
 11
106.6444046955
 21
50.7370774167
  0
LINE
  5
5EA
100
AcDbEntity
  8
0
100
AcDbLine
 62
7
  6
CONTINUOUS
 10
105.4569045763
 20
51.1200560945
 11
105.8319042187
 21
51.1200560945
  0
LINE
  5
5EB
100
AcDbEntity
  8
0
100
AcDbLine
 62
7
  6
CONTINUOUS
 10
105.7694044571
 20
51.4392049926
 11
105.5194043379
 21
51.4392049926
  0
LINE
  5
5EC
100
AcDbEntity
  8
0
100
AcDbLine
 62
7
  6
CONTINUOUS
 10
104.0194043379
 20
51.4392049926
 11
103.6444043379
 21
51.4392049926
  0
LINE
  5
5ED
100
AcDbEntity
  8
0
100
AcDbLine
 62
7
  6
CONTINUOUS
 10
102.7694044571
 20
51.4392049926
 11
102.2069044571
 21
51.4392049926
  0
LINE
  5
5EE
100
AcDbEntity
  8
0
100
AcDbLine
 62
7
  6
CONTINUOUS
 10
100.3319044571
 20
51.4392049926
 11
99.7694044571
 21
51.4392049926
  0
LINE
  5
5EF
100
AcDbEntity
  8
0
100
AcDbLine
 62
7
  6
CONTINUOUS
 10
106.1444044571
 20
50.2902687805
 11
105.8319042187
 21
50.3540985602
  0
LINE
  5
5F0
100
AcDbEntity
  8
0
100
AcDbLine
 62
7
  6
CONTINUOUS
 10
106.0819046955
 20
51.375375213
 11
105.7694044571
 21
51.4392049926
  0
LINE
  5
5F1
100
AcDbEntity
  8
0
100
AcDbLine
 62
7
  6
CONTINUOUS
 10
105.8944046955
 20
50.034949662
 11
106.0819046955
 21
49.9711198824
  0
LINE
  5
5F2
100
AcDbEntity
  8
0
100
AcDbLine
 62
7
  6
CONTINUOUS
 10
105.8319042187
 20
51.1200560945
 11
106.0194042187
 21
51.0562263149
  0
LINE
  5
5F3
100
AcDbEntity
  8
0
100
AcDbLine
 62
7
  6
CONTINUOUS
 10
106.4569046955
 20
50.0987794417
 11
106.1444044571
 21
50.2902687805
  0
LINE
  5
5F4
100
AcDbEntity
  8
0
100
AcDbLine
 62
7
  6
CONTINUOUS
 10
106.3944042187
 20
51.1838858741
 11
106.0819046955
 21
51.375375213
  0
LINE
  5
5F5
100
AcDbEntity
  8
0
100
AcDbLine
 62
7
  6
CONTINUOUS
 10
106.0819046955
 20
49.9711198824
 11
106.2694046955
 21
49.8434603232
  0
LINE
  5
5F6
100
AcDbEntity
  8
0
100
AcDbLine
 62
7
  6
CONTINUOUS
 10
106.0194042187
 20
51.0562263149
 11
106.2069042187
 21
50.9285667556
  0
LINE
  5
5F7
100
AcDbEntity
  8
0
100
AcDbLine
 62
7
  6
CONTINUOUS
 10
106.6444046955
 20
49.9072901028
 11
106.4569046955
 21
50.0987794417
  0
LINE
  5
5F8
100
AcDbEntity
  8
_30_VOLUMEN
100
AcDbLine
 62
7
  6
CONTINUOUS
 10
114.9431361352
 20
33.7392049926
 11
114.9431361352
 21
34.4392049926
  0
LINE
  5
5F9
100
AcDbEntity
  8
_30_VOLUMEN
100
AcDbLine
 62
7
  6
CONTINUOUS
 10
114.9824886694
 20
48.4392049926
 11
114.9824886694
 21
49.1392049926
  0
LINE
  5
5FA
100
AcDbEntity
  8
_30_VOLUMEN
100
AcDbLine
 62
7
  6
CONTINUOUS
 10
115.3118987539
 20
48.4392049926
 11
115.3118987539
 21
49.1392049926
  0
LINE
  5
5FB
100
AcDbEntity
  8
_30_VOLUMEN
100
AcDbLine
 62
7
  6
CONTINUOUS
 10
115.4277894613
 20
48.4392049926
 11
115.4277894613
 21
49.1392049926
  0
LINE
  5
5FC
100
AcDbEntity
  8
_30_VOLUMEN
100
AcDbLine
 62
7
  6
CONTINUOUS
 10
115.668878146
 20
48.4392049926
 11
115.668878146
 21
49.1392049926
  0
LINE
  5
5FD
100
AcDbEntity
  8
_30_VOLUMEN
100
AcDbLine
 62
7
  6
CONTINUOUS
 10
115.8284289285
 20
48.4392049926
 11
115.8284289285
 21
49.1392049926
  0
LINE
  5
5FE
100
AcDbEntity
  8
_30_VOLUMEN
100
AcDbLine
 62
7
  6
CONTINUOUS
 10
116.0551018303
 20
48.4392049926
 11
116.0551018303
 21
49.1392049926
  0
LINE
  5
5FF
100
AcDbEntity
  8
_30_VOLUMEN
100
AcDbLine
 62
7
  6
CONTINUOUS
 10
116.3202693629
 20
48.4392049926
 11
116.3202693629
 21
49.1392049926
  0
LINE
  5
600
100
AcDbEntity
  8
_30_VOLUMEN
100
AcDbLine
 62
7
  6
CONTINUOUS
 10
116.327385908
 20
48.4392049926
 11
116.327385908
 21
49.1392049926
  0
LINE
  5
601
100
AcDbEntity
  8
_30_VOLUMEN
100
AcDbLine
 62
7
  6
CONTINUOUS
 10
116.4229620183
 20
48.4392049926
 11
116.4229620183
 21
49.1392049926
  0
LINE
  5
602
100
AcDbEntity
  8
_30_VOLUMEN
100
AcDbLine
 62
7
  6
CONTINUOUS
 10
116.5364012579
 20
33.7392049926
 11
116.5364012579
 21
34.4392049926
  0
LINE
  5
603
100
AcDbEntity
  8
_30_VOLUMEN
100
AcDbLine
 62
7
  6
CONTINUOUS
 10
116.5786729055
 20
48.4392049926
 11
116.5786729055
 21
49.1392049926
  0
LINE
  5
604
100
AcDbEntity
  8
_30_VOLUMEN
100
AcDbLine
 62
7
  6
CONTINUOUS
 10
116.8223705543
 20
33.7392049926
 11
116.8223705543
 21
34.4392049926
  0
LINE
  5
605
100
AcDbEntity
  8
_30_VOLUMEN
100
AcDbLine
 62
7
  6
CONTINUOUS
 10
116.872374095
 20
48.4392049926
 11
116.872374095
 21
49.1392049926
  0
LINE
  5
606
100
AcDbEntity
  8
_30_VOLUMEN
100
AcDbLine
 62
7
  6
CONTINUOUS
 10
117.1766793381
 20
48.4392049926
 11
117.1766793381
 21
49.1392049926
  0
LINE
  5
607
100
AcDbEntity
  8
_30_VOLUMEN
100
AcDbLine
 62
7
  6
CONTINUOUS
 10
117.4097032607
 20
34.4392049926
 11
117.4097032607
 21
33.7392049926
  0
LINE
  5
608
100
AcDbEntity
  8
_30_VOLUMEN
100
AcDbLine
 62
7
  6
CONTINUOUS
 10
117.5411205189
 20
48.4392049926
 11
117.5411205189
 21
49.1392049926
  0
LINE
  5
609
100
AcDbEntity
  8
_30_VOLUMEN
100
AcDbLine
 62
7
  6
CONTINUOUS
 10
117.6509286402
 20
48.4392049926
 11
117.6509286402
 21
49.1392049926
  0
LINE
  5
60A
100
AcDbEntity
  8
_30_VOLUMEN
100
AcDbLine
 62
7
  6
CONTINUOUS
 10
117.8162910861
 20
34.4392049926
 11
117.8162910861
 21
33.7392049926
  0
LINE
  5
60B
100
AcDbEntity
  8
_30_VOLUMEN
100
AcDbLine
 62
7
  6
CONTINUOUS
 10
117.8455672492
 20
48.4392049926
 11
117.8455672492
 21
49.1392049926
  0
LINE
  5
60C
100
AcDbEntity
  8
_30_VOLUMEN
100
AcDbLine
 62
7
  6
CONTINUOUS
 10
118.9457017338
 20
34.4392049926
 11
118.9457017338
 21
33.7392049926
  0
LINE
  5
60D
100
AcDbEntity
  8
_30_VOLUMEN
100
AcDbLine
 62
7
  6
CONTINUOUS
 10
119.2167602841
 20
34.4392049926
 11
119.2167602841
 21
33.7392049926
  0
LINE
  5
60E
100
AcDbEntity
  8
_30_VOLUMEN
100
AcDbLine
 62
7
  6
CONTINUOUS
 10
119.3989462092
 20
34.4392049926
 11
119.3989462092
 21
33.7392049926
  0
LINE
  5
60F
100
AcDbEntity
  8
_30_VOLUMEN
100
AcDbLine
 62
7
  6
CONTINUOUS
 10
119.5296369928
 20
48.4392049926
 11
119.5296369928
 21
49.1392049926
  0
LINE
  5
610
100
AcDbEntity
  8
_30_VOLUMEN
100
AcDbLine
 62
7
  6
CONTINUOUS
 10
119.6489261997
 20
48.4392049926
 11
119.6489261997
 21
49.1392049926
  0
LINE
  5
611
100
AcDbEntity
  8
_30_VOLUMEN
100
AcDbLine
 62
7
  6
CONTINUOUS
 10
119.6563423461
 20
34.4392049926
 11
119.6563423461
 21
33.7392049926
  0
LINE
  5
612
100
AcDbEntity
  8
_30_VOLUMEN
100
AcDbLine
 62
7
  6
CONTINUOUS
 10
119.9622092243
 20
48.4392049926
 11
119.9622092243
 21
49.1392049926
  0
LINE
  5
613
100
AcDbEntity
  8
_30_VOLUMEN
100
AcDbLine
 62
7
  6
CONTINUOUS
 10
119.9953134024
 20
34.4392049926
 11
119.9953134024
 21
33.7392049926
  0
LINE
  5
614
100
AcDbEntity
  8
_30_VOLUMEN
100
AcDbLine
 62
7
  6
CONTINUOUS
 10
120.2463737333
 20
34.4392049926
 11
120.2463737333
 21
33.7392049926
  0
LINE
  5
615
100
AcDbEntity
  8
_30_VOLUMEN
100
AcDbLine
 62
7
  6
CONTINUOUS
 10
120.2750546453
 20
48.4392049926
 11
120.2750546453
 21
49.1392049926
  0
LINE
  5
616
100
AcDbEntity
  8
_30_VOLUMEN
100
AcDbLine
 62
7
  6
CONTINUOUS
 10
120.4942659279
 20
34.4392049926
 11
120.4942659279
 21
33.7392049926
  0
LINE
  5
617
100
AcDbEntity
  8
_30_VOLUMEN
100
AcDbLine
 62
7
  6
CONTINUOUS
 10
120.6319047315
 20
48.4392049926
 11
120.6319047315
 21
49.1392049926
  0
LINE
  5
618
100
AcDbEntity
  8
_30_VOLUMEN
100
AcDbLine
 62
7
  6
CONTINUOUS
 10
120.8205649057
 20
33.7392049926
 11
120.8205649057
 21
34.4392049926
  0
LINE
  5
619
100
AcDbEntity
  8
_30_VOLUMEN
100
AcDbLine
 62
7
  6
CONTINUOUS
 10
120.8989960845
 20
48.4392049926
 11
120.8989960845
 21
49.1392049926
  0
LINE
  5
61A
100
AcDbEntity
  8
_30_VOLUMEN
100
AcDbLine
 62
7
  6
CONTINUOUS
 10
120.9805466084
 20
33.7392049926
 11
120.9805466084
 21
34.4392049926
  0
LINE
  5
61B
100
AcDbEntity
  8
_30_VOLUMEN
100
AcDbLine
 62
7
  6
CONTINUOUS
 10
121.0557852552
 20
33.7392049926
 11
121.0557852552
 21
34.4392049926
  0
LINE
  5
61C
100
AcDbEntity
  8
_30_VOLUMEN
100
AcDbLine
 62
7
  6
CONTINUOUS
 10
121.1212078168
 20
48.4392049926
 11
121.1212078168
 21
49.1392049926
  0
LINE
  5
61D
100
AcDbEntity
  8
_30_VOLUMEN
100
AcDbLine
 62
7
  6
CONTINUOUS
 10
121.2985394196
 20
48.4392049926
 11
121.2985394196
 21
49.1392049926
  0
LINE
  5
61E
100
AcDbEntity
  8
_30_VOLUMEN
100
AcDbLine
 62
7
  6
CONTINUOUS
 10
121.3861122893
 20
48.4392049926
 11
121.3861122893
 21
49.1392049926
  0
LINE
  5
61F
100
AcDbEntity
  8
_30_VOLUMEN
100
AcDbLine
 62
7
  6
CONTINUOUS
 10
121.5060717907
 20
34.4392049926
 11
121.5060717907
 21
33.7392049926
  0
LINE
  5
620
100
AcDbEntity
  8
_30_VOLUMEN
100
AcDbLine
 62
7
  6
CONTINUOUS
 10
122.0298983945
 20
34.4392049926
 11
122.0298983945
 21
33.7392049926
  0
LINE
  5
621
100
AcDbEntity
  8
_30_VOLUMEN
100
AcDbLine
 62
7
  6
CONTINUOUS
 10
122.1193362121
 20
48.4392049926
 11
122.1193362121
 21
49.1392049926
  0
LINE
  5
622
100
AcDbEntity
  8
_30_VOLUMEN
100
AcDbLine
 62
7
  6
CONTINUOUS
 10
122.2446891789
 20
34.4392049926
 11
122.2446891789
 21
33.7392049926
  0
LINE
  5
623
100
AcDbEntity
  8
_30_VOLUMEN
100
AcDbLine
 62
7
  6
CONTINUOUS
 10
122.3700548772
 20
48.4392049926
 11
122.3700548772
 21
49.1392049926
  0
LINE
  5
624
100
AcDbEntity
  8
_30_VOLUMEN
100
AcDbLine
 62
7
  6
CONTINUOUS
 10
123.2470460363
 20
34.4392049926
 11
123.2470460363
 21
33.7392049926
  0
LINE
  5
625
100
AcDbEntity
  8
_30_VOLUMEN
100
AcDbLine
 62
7
  6
CONTINUOUS
 10
123.4618368207
 20
34.4392049926
 11
123.4618368207
 21
33.7392049926
  0
LINE
  5
626
100
AcDbEntity
  8
_30_VOLUMEN
100
AcDbLine
 62
7
  6
CONTINUOUS
 10
123.6283983622
 20
34.4392049926
 11
123.6283983622
 21
33.7392049926
  0
LINE
  5
627
100
AcDbEntity
  8
_30_VOLUMEN
100
AcDbLine
 62
7
  6
CONTINUOUS
 10
123.6552777982
 20
34.4392049926
 11
123.6552777982
 21
33.7392049926
  0
LINE
  5
628
100
AcDbEntity
  8
_30_VOLUMEN
100
AcDbLine
 62
7
  6
CONTINUOUS
 10
123.7622503467
 20
48.4392049926
 11
123.7622503467
 21
49.1392049926
  0
LINE
  5
629
100
AcDbEntity
  8
_30_VOLUMEN
100
AcDbLine
 62
7
  6
CONTINUOUS
 10
123.7661223757
 20
34.4392049926
 11
123.7661223757
 21
33.7392049926
  0
LINE
  5
62A
100
AcDbEntity
  8
_30_VOLUMEN
100
AcDbLine
 62
7
  6
CONTINUOUS
 10
123.9603276996
 20
34.4392049926
 11
123.9603276996
 21
33.7392049926
  0
LINE
  5
62B
100
AcDbEntity
  8
_30_VOLUMEN
100
AcDbLine
 62
7
  6
CONTINUOUS
 10
124.1823198824
 20
34.4392049926
 11
124.1823198824
 21
33.7392049926
  0
LINE
  5
62C
100
AcDbEntity
  8
_30_VOLUMEN
100
AcDbLine
 62
7
  6
CONTINUOUS
 10
124.2738961386
 20
48.4392049926
 11
124.2738961386
 21
49.1392049926
  0
LINE
  5
62D
100
AcDbEntity
  8
_30_VOLUMEN
100
AcDbLine
 62
7
  6
CONTINUOUS
 10
124.4320986132
 20
34.4392049926
 11
124.4320986132
 21
33.7392049926
  0
LINE
  5
62E
100
AcDbEntity
  8
_30_VOLUMEN
100
AcDbLine
 62
7
  6
CONTINUOUS
 10
124.4659408823
 20
48.4392049926
 11
124.4659408823
 21
49.1392049926
  0
LINE
  5
62F
100
AcDbEntity
  8
_30_VOLUMEN
100
AcDbLine
 62
7
  6
CONTINUOUS
 10
124.7652380903
 20
34.4392049926
 11
124.7652380903
 21
33.7392049926
  0
LINE
  5
630
100
AcDbEntity
  8
_30_VOLUMEN
100
AcDbLine
 62
7
  6
CONTINUOUS
 10
123.7684166615
 20
28.8430524781
 11
131.2257548262
 21
32.3204663737
  0
LINE
  5
631
100
AcDbEntity
  8
_26_BEZUGSACHSEN
100
AcDbLine
 62
7
  6
CONTINUOUS
 10
123.7684166615
 20
54.0353575071
 11
131.2257548262
 21
50.5579436115
  0
LINE
  5
632
100
AcDbEntity
  8
_30_VOLUMEN
100
AcDbLine
 62
7
  6
CONTINUOUS
 10
124.9873812359
 20
34.4392049926
 11
124.9873812359
 21
33.7392049926
  0
LINE
  5
633
100
AcDbEntity
  8
_30_VOLUMEN
100
AcDbLine
 62
7
  6
CONTINUOUS
 10
125.1540266926
 20
34.4392049926
 11
125.1540266926
 21
33.7392049926
  0
LINE
  5
634
100
AcDbEntity
  8
_30_VOLUMEN
100
AcDbLine
 62
7
  6
CONTINUOUS
 10
125.2661273756
 20
48.4392049926
 11
125.2661273756
 21
49.1392049926
  0
LINE
  5
635
100
AcDbEntity
  8
_30_VOLUMEN
100
AcDbLine
 62
7
  6
CONTINUOUS
 10
125.2929605279
 20
34.4392049926
 11
125.2929605279
 21
33.7392049926
  0
LINE
  5
636
100
AcDbEntity
  8
_30_VOLUMEN
100
AcDbLine
 62
7
  6
CONTINUOUS
 10
125.3763963564
 20
34.4392049926
 11
125.3763963564
 21
33.7392049926
  0
LINE
  5
637
100
AcDbEntity
  8
_30_VOLUMEN
100
AcDbLine
 62
7
  6
CONTINUOUS
 10
125.5541943996
 20
48.4392049926
 11
125.5541943996
 21
49.1392049926
  0
LINE
  5
638
100
AcDbEntity
  8
_30_VOLUMEN
100
AcDbLine
 62
7
  6
CONTINUOUS
 10
125.5839675262
 20
48.4392049926
 11
125.5839675262
 21
49.1392049926
  0
LINE
  5
639
100
AcDbEntity
  8
_30_VOLUMEN
100
AcDbLine
 62
7
  6
CONTINUOUS
 10
125.601391789
 20
48.4392049926
 11
125.601391789
 21
49.1392049926
  0
LINE
  5
63A
100
AcDbEntity
  8
_30_VOLUMEN
100
AcDbLine
 62
7
  6
CONTINUOUS
 10
125.7984586491
 20
34.4392049926
 11
125.7984586491
 21
33.7392049926
  0
LINE
  5
63B
100
AcDbEntity
  8
_30_VOLUMEN
100
AcDbLine
 62
7
  6
CONTINUOUS
 10
125.9529119483
 20
48.4392049926
 11
125.9529119483
 21
49.1392049926
  0
LINE
  5
63C
100
AcDbEntity
  8
_30_VOLUMEN
100
AcDbLine
 62
7
  6
CONTINUOUS
 10
126.0922097664
 20
34.4392049926
 11
126.0922097664
 21
33.7392049926
  0
LINE
  5
63D
100
AcDbEntity
  8
_30_VOLUMEN
100
AcDbLine
 62
7
  6
CONTINUOUS
 10
126.845955444
 20
48.4392049926
 11
126.845955444
 21
49.1392049926
  0
LINE
  5
63E
100
AcDbEntity
  8
_30_VOLUMEN
100
AcDbLine
 62
7
  6
CONTINUOUS
 10
126.9278231522
 20
34.4392049926
 11
126.9278231522
 21
33.7392049926
  0
LINE
  5
63F
100
AcDbEntity
  8
_30_VOLUMEN
100
AcDbLine
 62
7
  6
CONTINUOUS
 10
127.4534764662
 20
34.4392049926
 11
127.4534764662
 21
33.7392049926
  0
LWPOLYLINE
  5
640
100
AcDbEntity
  8
_30_VOLUMEN
100
AcDbPolyline
 62
7
  6
CONTINUOUS
 90
6
 70
0
 10
132.4788078225
 20
33.7314084486
 10
132.6774438824
 20
33.8871899329
 10
132.9068952417
 20
34.0746281878
 10
133.1272228633
 20
34.2630159067
 10
133.3385813238
 20
34.4524189741
 10
133.4944439155
 20
34.5990085967
  0
LINE
  5
641
100
AcDbEntity
  8
_30_VOLUMEN
100
AcDbLine
 62
7
  6
CONTINUOUS
 10
132.4797003272
 20
33.7320820451
 11
132.4788145901
 21
33.7313996515
  0
LINE
  5
642
100
AcDbEntity
  8
_26_BEZUGSACHSEN
100
AcDbLine
 62
7
  6
CONTINUOUS
 10
132.4797388018
 20
49.1462982854
 11
132.4788145901
 21
49.1470103337
  0
LINE
  5
643
100
AcDbEntity
  8
_30_VOLUMEN
100
AcDbLine
 62
7
  6
CONTINUOUS
 10
127.5790566496
 20
34.4392049926
 11
127.5790566496
 21
33.7392049926
  0
LINE
  5
644
100
AcDbEntity
  8
_30_VOLUMEN
100
AcDbLine
 62
7
  6
CONTINUOUS
 10
128.0061039307
 20
34.4392049926
 11
128.0061039307
 21
33.7392049926
  0
LINE
  5
645
100
AcDbEntity
  8
_30_VOLUMEN
100
AcDbLine
 62
7
  6
CONTINUOUS
 10
128.2265150133
 20
34.4392049926
 11
128.2265150133
 21
33.7392049926
  0
LWPOLYLINE
  5
646
100
AcDbEntity
  8
_26_BEZUGSACHSEN
100
AcDbPolyline
 62
7
  6
CONTINUOUS
 90
6
 70
0
 10
133.4944439155
 20
48.2794013885
 10
133.3385813238
 20
48.4259910111
 10
133.1272228633
 20
48.6153940785
 10
132.9068952417
 20
48.8037817974
 10
132.6774438824
 20
48.9912200523
 10
132.4788078225
 20
49.1470015366
  0
LWPOLYLINE
  5
647
100
AcDbEntity
  8
_26_BEZUGSACHSEN
100
AcDbPolyline
 62
7
  6
CONTINUOUS
 90
7
 70
0
 10
132.8069611995
 20
48.8218773275
 10
132.8140948723
 20
48.8118037046
 10
132.8212128631
 20
48.8012095537
 10
132.8192354642
 20
48.8045083986
 10
132.8087688439
 20
48.8229427233
 10
132.7905136827
 20
48.8575364629
 10
132.7649952472
 20
48.9095986171
  0
LINE
  5
648
100
AcDbEntity
  8
_30_VOLUMEN
100
AcDbLine
 62
7
  6
CONTINUOUS
 10
132.7178852318
 20
33.8635787934
 11
132.7179463791
 21
33.8637223394
  0
LWPOLYLINE
  5
649
100
AcDbEntity
  8
_30_VOLUMEN
100
AcDbPolyline
 62
7
  6
CONTINUOUS
 90
3
 70
0
 10
132.7179386266
 20
33.8637244931
 10
132.7326531663
 20
33.8977505416
 10
132.7576720272
 20
33.9527281084
  0
LWPOLYLINE
  5
64A
100
AcDbEntity
  8
_26_BEZUGSACHSEN
100
AcDbPolyline
 62
7
  6
CONTINUOUS
 90
3
 70
0
 10
132.7649952472
 20
48.9095986171
 10
132.7327201845
 20
48.9805068207
 10
132.7179382125
 20
49.0146864641
  0
LINE
  5
64B
100
AcDbEntity
  8
_26_BEZUGSACHSEN
100
AcDbLine
 62
7
  6
CONTINUOUS
 10
132.7175728352
 20
49.0155640887
 11
132.7179459651
 21
49.0146886178
  0
LINE
  5
64C
100
AcDbEntity
  8
_26_BEZUGSACHSEN
100
AcDbLine
 62
7
  6
CONTINUOUS
 10
135.5343828098
 20
37.4392049926
 11
135.5343828098
 21
45.4392049926
  0
ARC
  5
64D
100
AcDbEntity
  8
_30_VOLUMEN
100
AcDbCircle
 62
7
  6
CONTINUOUS
 10
91.7694044571
 20
140.6183624649
 40
45.0
100
AcDbArc
 50
15.2660363011
 51
70.8179100571
  0
ARC
  5
64E
100
AcDbEntity
  8
_30_VOLUMEN
100
AcDbCircle
 62
7
  6
CONTINUOUS
 10
95.441401894
 20
143.3116632457
 40
9.1092462686
100
AcDbArc
 50
263.6347853496
 51
266.0075282772
  0
ARC
  5
64F
100
AcDbEntity
  8
_30_VOLUMEN
100
AcDbCircle
 62
7
  6
CONTINUOUS
 10
93.7327525354
 20
128.0628401584
 40
6.2350090534
100
AcDbArc
 50
83.5654361667
 51
85.3957749161
  0
ARC
  5
650
100
AcDbEntity
  8
_30_VOLUMEN
100
AcDbCircle
 62
7
  6
CONTINUOUS
 10
88.8044937871
 20
138.6356737983
 40
3.0349859298
100
AcDbArc
 50
188.3586218425
 51
192.5401822592
  0
ARC
  5
651
100
AcDbEntity
  8
_26_BEZUGSACHSEN
100
AcDbCircle
 62
7
  6
CONTINUOUS
 10
79.2505696578
 20
126.5375958568
 40
3.0000003432
100
AcDbArc
 50
200.3064770359
 51
260.5882987837
  0
ARC
  5
652
100
AcDbEntity
  8
_26_BEZUGSACHSEN
100
AcDbCircle
 62
7
  6
CONTINUOUS
 10
78.2694044571
 20
120.6183624649
 40
3.0
100
AcDbArc
 50
0.0
 51
80.5882904786
  0
ARC
  5
653
100
AcDbEntity
  8
_30_VOLUMEN
100
AcDbCircle
 62
7
  6
CONTINUOUS
 10
79.2207262668
 20
126.6183624649
 40
3.0
100
AcDbArc
 50
200.2522459024
 51
269.9999976515
  0
ARC
  5
654
100
AcDbEntity
  8
_26_BEZUGSACHSEN
100
AcDbCircle
 62
7
  6
CONTINUOUS
 10
41.9439062239
 20
158.1183624649
 40
94.0
100
AcDbArc
 50
339.6940877577
 51
339.7477532578
  0
ARC
  5
655
100
AcDbEntity
  8
_30_VOLUMEN
100
AcDbCircle
 62
7
  6
CONTINUOUS
 10
41.9439062239
 20
158.1183624649
 40
94.0
100
AcDbArc
 50
339.747753079
 51
354.3400322592
  0
ARC
  5
656
100
AcDbEntity
  8
_30_VOLUMEN
100
AcDbCircle
 62
7
  6
CONTINUOUS
 10
81.0044261044
 20
149.833905685
 40
10.0
100
AcDbArc
 50
164.7339636989
 51
185.6599677408
  0
ARC
  5
657
100
AcDbEntity
  8
_30_VOLUMEN
100
AcDbCircle
 62
7
  6
CONTINUOUS
 10
114.7694044571
 20
140.6183624649
 40
45.0
100
AcDbArc
 50
109.1820899429
 51
164.7339636989
  0
ARC
  5
658
100
AcDbEntity
  8
_30_VOLUMEN
100
AcDbCircle
 62
7
  6
CONTINUOUS
 10
111.1217886545
 20
143.042653694
 40
8.8391937355
100
AcDbArc
 50
273.9562206184
 51
276.4014657547
  0
ARC
  5
659
100
AcDbEntity
  8
_30_VOLUMEN
100
AcDbCircle
 62
7
  6
CONTINUOUS
 10
112.8060563788
 20
128.0628401584
 40
6.2350090534
100
AcDbArc
 50
94.6042250839
 51
96.4345638333
  0
ARC
  5
65A
100
AcDbEntity
  8
_30_VOLUMEN
100
AcDbCircle
 62
7
  6
CONTINUOUS
 10
117.7343151271
 20
138.6356737983
 40
3.0349859298
100
AcDbArc
 50
347.4598177408
 51
351.6413781575
  0
ARC
  5
65B
100
AcDbEntity
  8
_26_BEZUGSACHSEN
100
AcDbCircle
 62
7
  6
CONTINUOUS
 10
128.2694044571
 20
120.6183624649
 40
3.0
100
AcDbArc
 50
99.4117095214
 51
180.0
  0
ARC
  5
65C
100
AcDbEntity
  8
_30_VOLUMEN
100
AcDbCircle
 62
7
  6
CONTINUOUS
 10
127.3180826474
 20
126.6183624649
 40
3.0
100
AcDbArc
 50
269.9999843331
 51
339.7477476559
  0
ARC
  5
65D
100
AcDbEntity
  8
_26_BEZUGSACHSEN
100
AcDbCircle
 62
7
  6
CONTINUOUS
 10
127.3180826474
 20
126.6183624649
 40
3.0
100
AcDbArc
 50
335.0979034559
 51
339.5299627326
  0
ARC
  5
65E
100
AcDbEntity
  8
_26_BEZUGSACHSEN
100
AcDbCircle
 62
7
  6
CONTINUOUS
 10
127.3180826474
 20
126.6183624649
 40
3.0
100
AcDbArc
 50
270.4103730635
 51
279.2997010532
  0
ARC
  5
65F
100
AcDbEntity
  8
_26_BEZUGSACHSEN
100
AcDbCircle
 62
7
  6
CONTINUOUS
 10
127.2882389417
 20
126.5375950117
 40
2.9999999892
100
AcDbArc
 50
279.4117097843
 51
339.6935401875
  0
ARC
  5
660
100
AcDbEntity
  8
_26_BEZUGSACHSEN
100
AcDbCircle
 62
7
  6
CONTINUOUS
 10
164.5949026904
 20
158.1183624649
 40
94.0
100
AcDbArc
 50
185.6599677408
 51
187.6172938813
  0
ARC
  5
661
100
AcDbEntity
  8
_26_BEZUGSACHSEN
100
AcDbCircle
 62
7
  6
CONTINUOUS
 10
164.5949026904
 20
158.1183624649
 40
94.0
100
AcDbArc
 50
200.2522467422
 51
200.3064600385
  0
ARC
  5
662
100
AcDbEntity
  8
_30_VOLUMEN
100
AcDbCircle
 62
7
  6
CONTINUOUS
 10
164.5949026904
 20
158.1183624649
 40
94.0
100
AcDbArc
 50
185.6599677408
 51
200.2522467154
  0
ARC
  5
663
100
AcDbEntity
  8
_30_VOLUMEN
100
AcDbCircle
 62
7
  6
CONTINUOUS
 10
103.2694044571
 20
150.6183624649
 40
17.5
100
AcDbArc
 50
0.0
 51
180.0
  0
ARC
  5
664
100
AcDbEntity
  8
_26_BEZUGSACHSEN
100
AcDbCircle
 62
7
  6
CONTINUOUS
 10
125.5343828098
 20
149.833905685
 40
10.0
100
AcDbArc
 50
354.3400322592
 51
15.2660363011
  0
ARC
  5
665
100
AcDbEntity
  8
_30_VOLUMEN
100
AcDbCircle
 62
7
  6
CONTINUOUS
 10
125.5343828098
 20
149.833905685
 40
10.0
100
AcDbArc
 50
354.3400322592
 51
15.2660363011
  0
ARC
  5
666
100
AcDbEntity
  8
_30_VOLUMEN
100
AcDbCircle
 62
7
  6
CONTINUOUS
 10
103.2694044571
 20
173.675131817
 40
10.0
100
AcDbArc
 50
70.8179100571
 51
109.1820899429
  0
ARC
  5
667
100
AcDbEntity
  8
_30_VOLUMEN
100
AcDbCircle
 62
7
  6
CONTINUOUS
 10
167.381164982
 20
122.183647144
 40
9.8690181483
100
AcDbArc
 50
9.0081353664
 51
9.5856483658
  0
ARC
  5
668
100
AcDbEntity
  8
_30_VOLUMEN
100
AcDbCircle
 62
7
  6
CONTINUOUS
 10
168.6316476738
 20
122.395981999
 40
8.6006366725
100
AcDbArc
 50
9.5780698767
 51
10.9906875776
  0
ARC
  5
669
100
AcDbEntity
  8
_30_VOLUMEN
100
AcDbCircle
 62
7
  6
CONTINUOUS
 10
182.9855123933
 20
124.2511744948
 40
6.1443335884
100
AcDbArc
 50
179.5542765856
 51
180.0086642402
  0
ARC
  5
66A
100
AcDbEntity
  8
_30_VOLUMEN
100
AcDbCircle
 62
7
  6
CONTINUOUS
 10
171.5192518078
 20
128.6388878973
 40
5.6054330406
100
AcDbArc
 50
10.5220304828
 51
11.2719805495
  0
ARC
  5
66B
100
AcDbEntity
  8
_26_BEZUGSACHSEN
100
AcDbCircle
 62
7
  6
CONTINUOUS
 10
186.8318097466
 20
139.1971327075
 40
5.0
100
AcDbArc
 50
276.0
 51
350.0
  0
ARC
  5
66C
100
AcDbEntity
  8
_26_BEZUGSACHSEN
100
AcDbCircle
 62
7
  6
CONTINUOUS
 10
188.0411788616
 20
146.0558057825
 40
5.0
100
AcDbArc
 50
350.0
 51
360.0
  0
ARC
  5
66D
100
AcDbEntity
  8
_26_BEZUGSACHSEN
100
AcDbCircle
 62
7
  6
CONTINUOUS
 10
180.5411788616
 20
123.0162782265
 40
3.0
100
AcDbArc
 50
180.0
 51
203.5564643091
  0
ARC
  5
66E
100
AcDbEntity
  8
_26_BEZUGSACHSEN
100
AcDbCircle
 62
7
  6
CONTINUOUS
 10
180.5411806274
 20
130.491894708
 40
3.0
100
AcDbArc
 50
96.0
 51
179.9999988041
  0
ARC
  5
66F
100
AcDbEntity
  8
_26_BEZUGSACHSEN
100
AcDbCircle
 62
7
  6
CONTINUOUS
 10
175.0411788616
 20
120.6183624649
 40
3.0
100
AcDbArc
 50
0.0
 51
23.5564643091
  0
ARC
  5
670
100
AcDbEntity
  8
_26_BEZUGSACHSEN
100
AcDbCircle
 62
7
  6
CONTINUOUS
 10
188.0820800353
 20
131.2954351554
 40
3.0
100
AcDbArc
 50
96.2281332221
 51
98.991259223
  0
ARC
  5
671
100
AcDbEntity
  8
_30_VOLUMEN
100
AcDbCircle
 62
7
  6
CONTINUOUS
 10
176.5703434418
 20
127.1764543106
 40
0.3545993186
100
AcDbArc
 50
4.9451081438
 51
6.9435239411
  0
ARC
  5
672
100
AcDbEntity
  8
_30_VOLUMEN
100
AcDbCircle
 62
7
  6
CONTINUOUS
 10
177.1334269026
 20
125.433869826
 40
0.159412027
100
AcDbArc
 50
187.8352060247
 51
190.4619722372
  0
ARC
  5
673
100
AcDbEntity
  8
_30_VOLUMEN
100
AcDbCircle
 62
7
  6
CONTINUOUS
 10
213.2505479766
 20
139.1971327075
 40
5.0
100
AcDbArc
 50
190.0
 51
264.0
  0
ARC
  5
674
100
AcDbEntity
  8
_30_VOLUMEN
100
AcDbCircle
 62
7
  6
CONTINUOUS
 10
212.0411788616
 20
146.0558057825
 40
5.0
100
AcDbArc
 50
180.0
 51
190.0
  0
ARC
  5
675
100
AcDbEntity
  8
_30_VOLUMEN
100
AcDbCircle
 62
7
  6
CONTINUOUS
 10
219.5411788616
 20
123.0162782265
 40
3.0
100
AcDbArc
 50
336.4435356909
 51
360.0
  0
ARC
  5
676
100
AcDbEntity
  8
_30_VOLUMEN
100
AcDbCircle
 62
7
  6
CONTINUOUS
 10
219.5411770958
 20
130.491894708
 40
3.0
100
AcDbArc
 50
0.0000011959
 51
84.0
  0
ARC
  5
677
100
AcDbEntity
  8
_30_VOLUMEN
100
AcDbCircle
 62
7
  6
CONTINUOUS
 10
212.0002776878
 20
131.2954351554
 40
3.0
100
AcDbArc
 50
81.008740777
 51
83.7718667779
  0
ARC
  5
678
100
AcDbEntity
  8
_26_BEZUGSACHSEN
100
AcDbCircle
 62
7
  6
CONTINUOUS
 10
196.0411788616
 20
180.675131817
 40
3.0
100
AcDbArc
 50
90.0
 51
180.0
  0
ARC
  5
679
100
AcDbEntity
  8
_30_VOLUMEN
100
AcDbCircle
 62
7
  6
CONTINUOUS
 10
204.0411788616
 20
180.675131817
 40
3.0
100
AcDbArc
 50
0.0
 51
90.0
  0
ARC
  5
67A
100
AcDbEntity
  8
_30_VOLUMEN
100
AcDbCircle
 62
7
  6
CONTINUOUS
 10
76.4311183266
 20
15.2484356725
 40
15.0
100
AcDbArc
 50
44.3004186781
 51
65.0
  0
ARC
  5
67B
100
AcDbEntity
  8
_30_VOLUMEN
100
AcDbCircle
 62
7
  6
CONTINUOUS
 10
76.5809059079
 20
35.0393911176
 40
3.0
100
AcDbArc
 50
203.0911111662
 51
244.9999835949
  0
ARC
  5
67C
100
AcDbEntity
  8
_30_VOLUMEN
100
AcDbCircle
 62
7
  6
CONTINUOUS
 10
74.0044261044
 20
37.4392049926
 40
3.0
100
AcDbArc
 50
180.0
 51
270.0
  0
ARC
  5
67D
100
AcDbEntity
  8
_26_BEZUGSACHSEN
100
AcDbCircle
 62
7
  6
CONTINUOUS
 10
76.4311183266
 20
67.6299743127
 40
15.0
100
AcDbArc
 50
295.0
 51
315.6995813219
  0
ARC
  5
67E
100
AcDbEntity
  8
_26_BEZUGSACHSEN
100
AcDbCircle
 62
7
  6
CONTINUOUS
 10
76.5809059079
 20
47.8390188676
 40
3.0
100
AcDbArc
 50
115.0000164051
 51
156.9240858399
  0
ARC
  5
67F
100
AcDbEntity
  8
_26_BEZUGSACHSEN
100
AcDbCircle
 62
7
  6
CONTINUOUS
 10
74.0044261044
 20
45.4392049926
 40
3.0
100
AcDbArc
 50
90.0
 51
180.0
  0
ARC
  5
680
100
AcDbEntity
  8
_30_VOLUMEN
100
AcDbCircle
 62
7
  6
CONTINUOUS
 10
130.1076905876
 20
15.2484356725
 40
15.0
100
AcDbArc
 50
115.0
 51
135.6995813219
  0
ARC
  5
681
100
AcDbEntity
  8
_30_VOLUMEN
100
AcDbCircle
 62
7
  6
CONTINUOUS
 10
129.9579112595
 20
35.0393949661
 40
3.0
100
AcDbArc
 50
295.0014047284
 51
336.9248909879
  0
ARC
  5
682
100
AcDbEntity
  8
_30_VOLUMEN
100
AcDbCircle
 62
7
  6
CONTINUOUS
 10
132.5343828098
 20
37.4392049926
 40
3.0
100
AcDbArc
 50
270.0
 51
360.0
  0
ARC
  5
683
100
AcDbEntity
  8
_30_VOLUMEN
100
AcDbCircle
 62
7
  6
CONTINUOUS
 10
103.2694044571
 20
41.4392049926
 40
23.2
100
AcDbArc
 50
78.8454990321
 51
101.037912094
  0
ARC
  5
684
100
AcDbEntity
  8
_30_VOLUMEN
100
AcDbCircle
 62
7
  6
CONTINUOUS
 10
103.2694044571
 20
41.4392049926
 40
23.2
100
AcDbArc
 50
290.9750063796
 51
297.0612950081
  0
ARC
  5
685
100
AcDbEntity
  8
_30_VOLUMEN
100
AcDbCircle
 62
7
  6
CONTINUOUS
 10
103.2694044571
 20
41.4392049926
 40
23.2
100
AcDbArc
 50
286.210207516
 51
289.4944146817
  0
ARC
  5
686
100
AcDbEntity
  8
_30_VOLUMEN
100
AcDbCircle
 62
7
  6
CONTINUOUS
 10
103.2694044571
 20
41.4392049926
 40
23.2
100
AcDbArc
 50
279.0869827291
 51
284.768636333
  0
ARC
  5
687
100
AcDbEntity
  8
_30_VOLUMEN
100
AcDbCircle
 62
7
  6
CONTINUOUS
 10
103.2694044571
 20
41.4392049926
 40
23.2
100
AcDbArc
 50
271.2349184454
 51
277.6827622086
  0
ARC
  5
688
100
AcDbEntity
  8
_30_VOLUMEN
100
AcDbCircle
 62
7
  6
CONTINUOUS
 10
103.2694044571
 20
41.4392049926
 40
23.2
100
AcDbArc
 50
259.9150709475
 51
268.301870005
  0
ARC
  5
689
100
AcDbEntity
  8
_30_VOLUMEN
100
AcDbCircle
 62
7
  6
CONTINUOUS
 10
103.2694044571
 20
41.4392049926
 40
23.2
100
AcDbArc
 50
254.6919466794
 51
258.0279006795
  0
ARC
  5
68A
100
AcDbEntity
  8
_30_VOLUMEN
100
AcDbCircle
 62
7
  6
CONTINUOUS
 10
103.2694044571
 20
41.4392049926
 40
23.2
100
AcDbArc
 50
249.8287286535
 51
252.7623205086
  0
ARC
  5
68B
100
AcDbEntity
  8
_30_VOLUMEN
100
AcDbCircle
 62
7
  6
CONTINUOUS
 10
103.2694044571
 20
41.4392049926
 40
22.5
100
AcDbArc
 50
224.3004186781
 51
315.6995813219
  0
ARC
  5
68C
100
AcDbEntity
  8
_26_BEZUGSACHSEN
100
AcDbCircle
 62
7
  6
CONTINUOUS
 10
103.2694044571
 20
41.4392049926
 40
22.5
100
AcDbArc
 50
44.3004186781
 51
135.6995813219
  0
ARC
  5
68D
100
AcDbEntity
  8
_30_VOLUMEN
100
AcDbCircle
 62
7
  6
CONTINUOUS
 10
103.2694044571
 20
41.4392049926
 40
15.25
100
AcDbArc
 50
210.3306245888
 51
329.6693753851
  0
ARC
  5
68E
100
AcDbEntity
  8
_30_VOLUMEN
100
AcDbCircle
 62
7
  6
CONTINUOUS
 10
103.2694044571
 20
41.4392049926
 40
15.25
100
AcDbArc
 50
30.3453696803
 51
149.7009137404
  0
ARC
  5
68F
100
AcDbEntity
  8
RUNDUNGEN
100
AcDbCircle
 62
7
  6
CONTINUOUS
 10
103.2694044571
 20
41.4392049926
 40
15.0
100
AcDbArc
 50
210.8997623669
 51
329.1002376324
  0
ARC
  5
690
100
AcDbEntity
  8
RUNDUNGEN
100
AcDbCircle
 62
7
  6
CONTINUOUS
 10
103.2694044571
 20
41.4392049926
 40
15.0
100
AcDbArc
 50
29.5098130867
 51
149.1002376324
  0
ARC
  5
691
100
AcDbEntity
  8
_26_BEZUGSACHSEN
100
AcDbCircle
 62
7
  6
CONTINUOUS
 10
129.9579112595
 20
47.8390150191
 40
3.0
100
AcDbArc
 50
23.0902764227
 51
64.9986174706
  0
ARC
  5
692
100
AcDbEntity
  8
_26_BEZUGSACHSEN
100
AcDbCircle
 62
7
  6
CONTINUOUS
 10
132.5343828098
 20
45.4392049926
 40
3.0
100
AcDbArc
 50
0.0
 51
90.0
  0
ARC
  5
693
100
AcDbEntity
  8
_26_BEZUGSACHSEN
100
AcDbCircle
 62
7
  6
CONTINUOUS
 10
130.1076905876
 20
67.6299743127
 40
15.0
100
AcDbArc
 50
224.3004186781
 51
245.0
  0
SPLINE
  5
694
100
AcDbEntity
  8
_30_VOLUMEN
100
AcDbSpline
 62
7
  6
CONTINUOUS
 70
0
 71
3
 72
12
 73
8
 74
0
 42
0.0000001
 43
0.0000001
 44
0.0000000001
 40
0.0
 40
0.0
 40
0.0
 40
0.0
 40
0.3543054213
 40
0.6378754338
 40
0.7530217944
 40
0.8506784447
 40
1.0
 40
1.0
 40
1.0
 40
1.0
 10
88.7694044571
 20
135.1028672346
 30
0.0
 10
88.6564981232
 20
135.1406908228
 30
0.0
 10
88.4586368958
 20
135.2267503138
 30
0.0
 10
88.2474725695
 20
135.3693152415
 30
0.0
 10
88.1276559744
 20
135.4865330769
 30
0.0
 10
88.0536458299
 20
135.5824302443
 30
0.0
 10
88.0194042896
 20
135.6640072743
 30
0.0
 10
88.0194042896
 20
135.714190584
 30
0.0
  0
SPLINE
  5
695
100
AcDbEntity
  8
_30_VOLUMEN
100
AcDbSpline
 62
7
  6
CONTINUOUS
 70
0
 71
3
 72
11
 73
7
 74
0
 42
0.0000001
 43
0.0000001
 44
0.0000000001
 40
0.0
 40
0.0
 40
0.0
 40
0.0
 40
0.2500040052
 40
0.5000156189
 40
0.7499924178
 40
1.0
 40
1.0
 40
1.0
 40
1.0
 10
85.841910557
 20
137.9767047562
 30
0.0
 10
85.9015132257
 20
137.7088244429
 30
0.0
 10
86.095047992
 20
137.1866115639
 30
0.0
 10
86.5850102661
 20
136.5126341558
 30
0.0
 10
87.238947317
 20
135.9960420128
 30
0.0
 10
87.7537873692
 20
135.7831988958
 30
0.0
 10
88.0194042896
 20
135.714190584
 30
0.0
  0
SPLINE
  5
696
100
AcDbEntity
  8
_30_VOLUMEN
100
AcDbSpline
 62
7
  6
CONTINUOUS
 70
0
 71
3
 72
12
 73
8
 74
0
 42
0.0000001
 43
0.0000001
 44
0.0000000001
 40
0.0
 40
0.0
 40
0.0
 40
0.0
 40
0.1493215565
 40
0.2469782071
 40
0.3621245677
 40
0.6456945797
 40
1.0
 40
1.0
 40
1.0
 40
1.0
 10
118.5194046246
 20
135.714190584
 30
0.0
 10
118.5194046246
 20
135.6640072739
 30
0.0
 10
118.4851630839
 20
135.5824302434
 30
0.0
 10
118.4111529389
 20
135.4865330758
 30
0.0
 10
118.2913363436
 20
135.3693152407
 30
0.0
 10
118.0801720176
 20
135.2267503134
 30
0.0
 10
117.8823107907
 20
135.1406908227
 30
0.0
 10
117.7694044571
 20
135.1028672346
 30
0.0
  0
SPLINE
  5
697
100
AcDbEntity
  8
_30_VOLUMEN
100
AcDbSpline
 62
7
  6
CONTINUOUS
 70
0
 71
3
 72
11
 73
7
 74
0
 42
0.0000001
 43
0.0000001
 44
0.0000000001
 40
0.0
 40
0.0
 40
0.0
 40
0.0
 40
0.2500040052
 40
0.5000156189
 40
0.7499924178
 40
1.0
 40
1.0
 40
1.0
 40
1.0
 10
120.6968983573
 20
137.9767047562
 30
0.0
 10
120.6372956885
 20
137.7088244429
 30
0.0
 10
120.4437609222
 20
137.1866115639
 30
0.0
 10
119.9537986481
 20
136.5126341558
 30
0.0
 10
119.2998615972
 20
135.9960420128
 30
0.0
 10
118.785021545
 20
135.7831988958
 30
0.0
 10
118.5194046246
 20
135.714190584
 30
0.0
  0
SPLINE
  5
698
100
AcDbEntity
  8
_30_VOLUMEN
100
AcDbSpline
 62
7
  6
CONTINUOUS
 70
0
 71
3
 72
12
 73
8
 74
0
 42
0.0000001
 43
0.0000001
 44
0.0000000001
 40
0.0
 40
0.0
 40
0.0
 40
0.0
 40
0.1000188933
 40
0.1816549752
 40
0.289551677
 40
0.5884562074
 40
1.0
 40
1.0
 40
1.0
 40
1.0
 10
176.8879664424
 20
124.6276673528
 30
0.0
 10
176.8816991272
 20
124.6276693393
 30
0.0
 10
176.8721482918
 20
124.6175654497
 30
0.0
 10
176.8656298128
 20
124.601253867
 30
0.0
 10
176.8571620929
 20
124.5714921705
 30
0.0
 10
176.8501998006
 20
124.5207296659
 30
0.0
 10
176.8468652448
 20
124.4762825945
 30
0.0
 10
176.8454728751
 20
124.4505323354
 30
0.0
  0
SPLINE
  5
699
100
AcDbEntity
  8
_30_VOLUMEN
100
AcDbSpline
 62
7
  6
CONTINUOUS
 70
0
 71
3
 72
9
 73
5
 74
0
 42
0.0000001
 43
0.0000001
 44
0.0000000001
 40
0.0
 40
0.0
 40
0.0
 40
0.0
 40
0.2237941112
 40
1.0
 40
1.0
 40
1.0
 40
1.0
 10
176.8454728751
 20
124.4505323354
 30
0.0
 10
176.8449000721
 20
124.4399390097
 30
0.0
 10
176.8427249742
 20
124.3925830252
 30
0.0
 10
176.8418047507
 20
124.3451770833
 30
0.0
 10
176.8414476657
 20
124.3083833276
 30
0.0
  0
LINE
  5
69A
100
AcDbEntity
  8
_30_VOLUMEN
100
AcDbLine
 62
7
  6
CONTINUOUS
 10
176.8414476657
 20
124.3083833276
 11
176.8413647258
 21
124.2989728797
  0
SPLINE
  5
69B
100
AcDbEntity
  8
_30_VOLUMEN
100
AcDbSpline
 62
7
  6
CONTINUOUS
 70
0
 71
3
 72
10
 73
6
 74
0
 42
0.0000001
 43
0.0000001
 44
0.0000000001
 40
0.0
 40
0.0
 40
0.0
 40
0.0
 40
0.1192687739
 40
0.3164678023
 40
1.0
 40
1.0
 40
1.0
 40
1.0
 10
176.8879680254
 20
129.6758629366
 30
0.0
 10
176.8915334259
 20
129.6758623262
 30
0.0
 10
176.9002141773
 20
129.669921357
 30
0.0
 10
176.9157483917
 20
129.6446703921
 30
0.0
 10
176.9247441005
 20
129.6194525332
 30
0.0
 10
176.9310471491
 20
129.6000155779
 30
0.0
  0
SPLINE
  5
69C
100
AcDbEntity
  8
_30_VOLUMEN
100
AcDbSpline
 62
7
  6
CONTINUOUS
 70
0
 71
3
 72
9
 73
5
 74
0
 42
0.0000001
 43
0.0000001
 44
0.0000000001
 40
0.0
 40
0.0
 40
0.0
 40
0.0
 40
0.4123802294
 40
1.0
 40
1.0
 40
1.0
 40
1.0
 10
176.9310471491
 20
129.6000155779
 30
0.0
 10
176.9444118072
 20
129.5588024637
 30
0.0
 10
176.9692520015
 20
129.4565159199
 30
0.0
 10
176.988659814
 20
129.3532729845
 30
0.0
 10
176.9989778586
 20
129.2924042009
 30
0.0
  0
SPLINE
  5
69D
100
AcDbEntity
  8
_30_VOLUMEN
100
AcDbSpline
 62
7
  6
CONTINUOUS
 70
0
 71
3
 72
12
 73
8
 74
0
 42
0.0000001
 43
0.0000001
 44
0.0000000001
 40
0.0
 40
0.0
 40
0.0
 40
0.0
 40
0.0991078071
 40
0.1808565688
 40
0.2890183117
 40
0.5884056917
 40
1.0
 40
1.0
 40
1.0
 40
1.0
 10
176.8879663229
 20
130.1258671635
 30
0.0
 10
176.8823879182
 20
130.1258667597
 30
0.0
 10
176.8739548048
 20
130.1167063163
 30
0.0
 10
176.8680360841
 20
130.1021511716
 30
0.0
 10
176.8602191237
 20
130.0754114602
 30
0.0
 10
176.8534087997
 20
130.0298710746
 30
0.0
 10
176.8498861269
 20
129.9899520679
 30
0.0
 10
176.8483195821
 20
129.9668380016
 30
0.0
  0
SPLINE
  5
69E
100
AcDbEntity
  8
_30_VOLUMEN
100
AcDbSpline
 62
7
  6
CONTINUOUS
 70
0
 71
3
 72
9
 73
5
 74
0
 42
0.0000001
 43
0.0000001
 44
0.0000000001
 40
0.0
 40
0.0
 40
0.0
 40
0.0
 40
0.2043415737
 40
1.0
 40
1.0
 40
1.0
 40
1.0
 10
176.8483195821
 20
129.9668380016
 30
0.0
 10
176.8469551245
 20
129.946705693
 30
0.0
 10
176.841910096
 20
129.848073287
 30
0.0
 10
176.8411791553
 20
129.7492811027
 30
0.0
 10
176.8411788719
 20
129.6707107562
 30
0.0
  0
SPLINE
  5
69F
100
AcDbEntity
  8
_30_VOLUMEN
100
AcDbSpline
 62
7
  6
CONTINUOUS
 70
0
 71
3
 72
9
 73
5
 74
0
 42
0.0000001
 43
0.0000001
 44
0.0000000001
 40
0.0
 40
0.0
 40
0.0
 40
0.0
 40
0.188010839
 40
1.0
 40
1.0
 40
1.0
 40
1.0
 10
176.887966114
 20
124.1758626248
 30
0.0
 10
176.8894493794
 20
124.175862733
 30
0.0
 10
176.8973445415
 20
124.1740312695
 30
0.0
 10
176.9027850891
 20
124.1672568088
 30
0.0
 10
176.9065598368
 20
124.1620810983
 30
0.0
  0
SPLINE
  5
6A0
100
AcDbEntity
  8
_30_VOLUMEN
100
AcDbSpline
 62
7
  6
CONTINUOUS
 70
0
 71
3
 72
12
 73
8
 74
0
 42
0.0000001
 43
0.0000001
 44
0.0000000001
 40
0.0
 40
0.0
 40
0.0
 40
0.0
 40
0.0543098776
 40
0.1290007093
 40
0.3400949696
 40
0.6318528807
 40
1.0
 40
1.0
 40
1.0
 40
1.0
 10
176.9065598368
 20
124.1620810983
 30
0.0
 10
176.9115525398
 20
124.1552353993
 30
0.0
 10
176.9212451504
 20
124.1374585357
 30
0.0
 10
176.9416327342
 20
124.0884661285
 30
0.0
 10
176.9677362051
 20
124.0020264624
 30
0.0
 10
176.9997500744
 20
123.8699797414
 30
0.0
 10
177.0199338792
 20
123.7689820905
 30
0.0
 10
177.0304273279
 20
123.7125138114
 30
0.0
  0
SPLINE
  5
6A1
100
AcDbEntity
  8
_30_VOLUMEN
100
AcDbSpline
 62
7
  6
CONTINUOUS
 70
0
 71
3
 72
11
 73
7
 74
0
 42
0.0000001
 43
0.0000001
 44
0.0000000001
 40
0.0
 40
0.0
 40
0.0
 40
0.0
 40
0.4163886691
 40
0.727247098
 40
0.9166185924
 40
1.0
 40
1.0
 40
1.0
 40
1.0
 10
176.9264244979
 20
128.2343780737
 30
0.0
 10
176.9275173047
 20
128.2221951036
 30
0.0
 10
176.9295117546
 20
128.2011042705
 30
0.0
 10
176.9342192061
 20
128.1739506815
 30
0.0
 10
176.9375799106
 20
128.1582802183
 30
0.0
 10
176.9430649615
 20
128.1500581407
 30
0.0
 10
176.9455143839
 20
128.1500581407
 30
0.0
  0
SPLINE
  5
6A2
100
AcDbEntity
  8
_30_VOLUMEN
100
AcDbSpline
 62
7
  6
CONTINUOUS
 70
0
 71
3
 72
11
 73
7
 74
0
 42
0.0000001
 43
0.0000001
 44
0.0000000001
 40
0.0
 40
0.0
 40
0.0
 40
0.0
 40
0.0845383763
 40
0.27851038
 40
0.5901678654
 40
1.0
 40
1.0
 40
1.0
 40
1.0
 10
176.9455143839
 20
128.7502181005
 30
0.0
 10
176.9429659842
 20
128.7502181005
 30
0.0
 10
176.9376068833
 20
128.741169636
 30
0.0
 10
176.9342268667
 20
128.7251370594
 30
0.0
 10
176.9295663391
 20
128.6971526775
 30
0.0
 10
176.9275282452
 20
128.6757230644
 30
0.0
 10
176.9264244979
 20
128.6634181254
 30
0.0
  0
SPLINE
  5
6A3
100
AcDbEntity
  8
_30_VOLUMEN
100
AcDbSpline
 62
7
  6
CONTINUOUS
 70
0
 71
3
 72
9
 73
5
 74
0
 42
0.0000001
 43
0.0000001
 44
0.0000000001
 40
0.0
 40
0.0
 40
0.0
 40
0.0
 40
0.2113799636
 40
1.0
 40
1.0
 40
1.0
 40
1.0
 10
176.9264244979
 20
128.6634181254
 30
0.0
 10
176.9250808216
 20
128.6484383791
 30
0.0
 10
176.920061156
 20
128.5774526745
 30
0.0
 10
176.9189234476
 20
128.5062492002
 30
0.0
 10
176.9189234476
 20
128.4501381206
 30
0.0
  0
SPLINE
  5
6A4
100
AcDbEntity
  8
_30_VOLUMEN
100
AcDbSpline
 62
7
  6
CONTINUOUS
 70
0
 71
3
 72
9
 73
5
 74
0
 42
0.0000001
 43
0.0000001
 44
0.0000000001
 40
0.0
 40
0.0
 40
0.0
 40
0.0
 40
0.2770013233
 40
1.0
 40
1.0
 40
1.0
 40
1.0
 10
176.9189234476
 20
128.4501381206
 30
0.0
 10
176.9189234476
 20
128.4302012122
 30
0.0
 10
176.9194279779
 20
128.3582396626
 30
0.0
 10
176.9217754557
 20
128.2862071291
 30
0.0
 10
176.9264244979
 20
128.2343780737
 30
0.0
  0
SPLINE
  5
6A5
100
AcDbEntity
  8
_30_VOLUMEN
100
AcDbSpline
 62
7
  6
CONTINUOUS
 70
0
 71
3
 72
8
 73
4
 74
0
 42
0.0000001
 43
0.0000001
 44
0.0000000001
 40
0.0
 40
0.0
 40
0.0
 40
0.0
 40
1.0
 40
1.0
 40
1.0
 40
1.0
 10
176.908511718
 20
127.2572581052
 30
0.0
 10
176.9101622931
 20
127.2572581052
 30
0.0
 10
176.9117440681
 20
127.2560396408
 30
0.0
 10
176.9127875718
 20
127.2547607748
 30
0.0
  0
SPLINE
  5
6A6
100
AcDbEntity
  8
_30_VOLUMEN
100
AcDbSpline
 62
7
  6
CONTINUOUS
 70
0
 71
3
 72
9
 73
5
 74
0
 42
0.0000001
 43
0.0000001
 44
0.0000000001
 40
0.0
 40
0.0
 40
0.0
 40
0.0
 40
0.3153198175
 40
1.0
 40
1.0
 40
1.0
 40
1.0
 10
176.9127875718
 20
127.2547607748
 30
0.0
 10
176.9152423087
 20
127.2517523718
 30
0.0
 10
176.9194256434
 20
127.2397483398
 30
0.0
 10
176.9213133464
 20
127.227690232
 30
0.0
 10
176.9223420564
 20
127.2193221549
 30
0.0
  0
SPLINE
  5
6A7
100
AcDbEntity
  8
_30_VOLUMEN
100
AcDbSpline
 62
7
  6
CONTINUOUS
 70
0
 71
3
 72
9
 73
5
 74
0
 42
0.0000001
 43
0.0000001
 44
0.0000000001
 40
0.0
 40
0.0
 40
0.0
 40
0.0
 40
0.2191636266
 40
1.0
 40
1.0
 40
1.0
 40
1.0
 10
176.9236228495
 20
127.2070212346
 30
0.0
 10
176.9239234286
 20
127.203592349
 30
0.0
 10
176.9250176053
 20
127.1879232583
 30
0.0
 10
176.9255691325
 20
127.1722238603
 30
0.0
 10
176.9259498239
 20
127.1599664857
 30
0.0
  0
SPLINE
  5
6A8
100
AcDbEntity
  8
_30_VOLUMEN
100
AcDbSpline
 62
7
  6
CONTINUOUS
 70
0
 71
3
 72
9
 73
5
 74
0
 42
0.0000001
 43
0.0000001
 44
0.0000000001
 40
0.0
 40
0.0
 40
0.0
 40
0.0
 40
0.2445629805
 40
1.0
 40
1.0
 40
1.0
 40
1.0
 10
176.9259498239
 20
127.1599664857
 30
0.0
 10
176.926563476
 20
127.1402083233
 30
0.0
 10
176.9281193511
 20
127.059390931
 30
0.0
 10
176.9283540207
 20
126.9785590547
 30
0.0
 10
176.9283540207
 20
126.9174981188
 30
0.0
  0
SPLINE
  5
6A9
100
AcDbEntity
  8
_30_VOLUMEN
100
AcDbSpline
 62
7
  6
CONTINUOUS
 70
0
 71
3
 72
9
 73
5
 74
0
 42
0.0000001
 43
0.0000001
 44
0.0000000001
 40
0.0
 40
0.0
 40
0.0
 40
0.0
 40
0.253875198
 40
1.0
 40
1.0
 40
1.0
 40
1.0
 10
176.9283540207
 20
125.6179781275
 30
0.0
 10
176.9283540207
 20
125.6034956845
 30
0.0
 10
176.9282067893
 20
125.546452507
 30
0.0
 10
176.9277764692
 20
125.4893924092
 30
0.0
 10
176.9262114426
 20
125.4468581133
 30
0.0
  0
SPLINE
  5
6AA
100
AcDbEntity
  8
_30_VOLUMEN
100
AcDbSpline
 62
7
  6
CONTINUOUS
 70
0
 71
3
 72
9
 73
5
 74
0
 42
0.0000001
 43
0.0000001
 44
0.0000000001
 40
0.0
 40
0.0
 40
0.0
 40
0.0
 40
0.6726881368
 40
1.0
 40
1.0
 40
1.0
 40
1.0
 10
176.9262114426
 20
125.4468581133
 30
0.0
 10
176.9256808456
 20
125.4324375482
 30
0.0
 10
176.9243891872
 20
125.4110570738
 30
0.0
 10
176.920675833
 20
125.3897324981
 30
0.0
 10
176.918262668
 20
125.3831388068
 30
0.0
  0
LINE
  5
6AB
100
AcDbEntity
  8
_30_VOLUMEN
100
AcDbLine
 62
7
  6
CONTINUOUS
 10
176.918262668
 20
125.3831388068
 11
176.9169014255
 21
125.3798981162
  0
SPLINE
  5
6AC
100
AcDbEntity
  8
_30_VOLUMEN
100
AcDbSpline
 62
7
  6
CONTINUOUS
 70
0
 71
3
 72
9
 73
5
 74
0
 42
0.0000001
 43
0.0000001
 44
0.0000000001
 40
0.0
 40
0.0
 40
0.0
 40
0.0
 40
0.2583210655
 40
1.0
 40
1.0
 40
1.0
 40
1.0
 10
176.8983268172
 20
125.3674981142
 30
0.0
 10
176.8973428128
 20
125.3664217009
 30
0.0
 10
176.8963418915
 20
125.3604510754
 30
0.0
 10
176.8958974432
 20
125.3550512974
 30
0.0
 10
176.8956656944
 20
125.3508704284
 30
0.0
  0
SPLINE
  5
6AD
100
AcDbEntity
  8
_30_VOLUMEN
100
AcDbSpline
 62
7
  6
CONTINUOUS
 70
0
 71
3
 72
9
 73
5
 74
0
 42
0.0000001
 43
0.0000001
 44
0.0000000001
 40
0.0
 40
0.0
 40
0.0
 40
0.0
 40
0.223637307
 40
1.0
 40
1.0
 40
1.0
 40
1.0
 10
176.8956656944
 20
125.3508704284
 30
0.0
 10
176.8955398542
 20
125.3486002049
 30
0.0
 10
176.8951093386
 20
125.3384414095
 30
0.0
 10
176.8950615695
 20
125.328271358
 30
0.0
 10
176.8950615695
 20
125.3203781203
 30
0.0
  0
SPLINE
  5
6AE
100
AcDbEntity
  8
_30_VOLUMEN
100
AcDbSpline
 62
7
  6
CONTINUOUS
 70
0
 71
3
 72
11
 73
7
 74
0
 42
0.0000001
 43
0.0000001
 44
0.0000000001
 40
0.0
 40
0.0
 40
0.0
 40
0.0
 40
0.435284206
 40
0.7800367786
 40
0.955827379
 40
1.0
 40
1.0
 40
1.0
 40
1.0
 10
176.8950615695
 20
125.1914181199
 30
0.0
 10
176.8950615695
 20
125.1852086029
 30
0.0
 10
176.8948856811
 20
125.1741874496
 30
0.0
 10
176.8961355212
 20
125.1602185068
 30
0.0
 10
176.8960050959
 20
125.1527248418
 30
0.0
 10
176.8978712022
 20
125.14925812
 30
0.0
 10
176.8985013437
 20
125.14925812
 30
0.0
  0
SPLINE
  5
6AF
100
AcDbEntity
  8
_30_VOLUMEN
100
AcDbSpline
 62
7
  6
CONTINUOUS
 70
0
 71
3
 72
9
 73
5
 74
0
 42
0.0000001
 43
0.0000001
 44
0.0000000001
 40
0.0
 40
0.0
 40
0.0
 40
0.0
 40
0.3396210603
 40
1.0
 40
1.0
 40
1.0
 40
1.0
 10
176.9007944813
 20
127.4754980301
 30
0.0
 10
176.8995462661
 20
127.4735672785
 30
0.0
 10
176.898213013
 20
127.4666964082
 30
0.0
 10
176.8972306563
 20
127.46010464
 30
0.0
 10
176.8967681047
 20
127.4556581377
 30
0.0
  0
SPLINE
  5
6B0
100
AcDbEntity
  8
_30_VOLUMEN
100
AcDbSpline
 62
7
  6
CONTINUOUS
 70
0
 71
3
 72
11
 73
7
 74
0
 42
0.0000001
 43
0.0000001
 44
0.0000000001
 40
0.0
 40
0.0
 40
0.0
 40
0.0
 40
0.4308534594
 40
0.7609808003
 40
0.9374749637
 40
1.0
 40
1.0
 40
1.0
 40
1.0
 10
176.8950615695
 20
127.3068580579
 30
0.0
 10
176.8950615695
 20
127.2996582107
 30
0.0
 10
176.8951205132
 20
127.2869942027
 30
0.0
 10
176.8959698995
 20
127.2711710601
 30
0.0
 10
176.8969527154
 20
127.2619877137
 30
0.0
 10
176.8983484271
 20
127.2578605118
 30
0.0
 10
176.8992021168
 20
127.2572581052
 30
0.0
  0
SPLINE
  5
6B1
100
AcDbEntity
  8
_30_VOLUMEN
100
AcDbSpline
 62
7
  6
CONTINUOUS
 70
0
 71
3
 72
11
 73
7
 74
0
 42
0.0000001
 43
0.0000001
 44
0.0000000001
 40
0.0
 40
0.0
 40
0.0
 40
0.0
 40
0.3383392941
 40
0.6165852615
 40
0.8351989334
 40
1.0
 40
1.0
 40
1.0
 40
1.0
 10
176.9989778586
 20
129.2924042009
 30
0.0
 10
177.0093671218
 20
129.2311152811
 30
0.0
 10
177.0311606198
 20
129.1198728341
 30
0.0
 10
177.0732947689
 20
128.9719474751
 30
0.0
 10
177.1215497958
 20
128.8600855281
 30
0.0
 10
177.1641234967
 20
128.8020609259
 30
0.0
 10
177.1871805654
 20
128.7824347152
 30
0.0
  0
SPLINE
  5
6B2
100
AcDbEntity
  8
_30_VOLUMEN
100
AcDbSpline
 62
7
  6
CONTINUOUS
 70
0
 71
3
 72
9
 73
5
 74
0
 42
0.0000001
 43
0.0000001
 44
0.0000000001
 40
0.0
 40
0.0
 40
0.0
 40
0.0
 40
0.2304603921
 40
1.0
 40
1.0
 40
1.0
 40
1.0
 10
177.1075037922
 20
128.8677774799
 30
0.0
 10
177.1036853548
 20
128.8761262439
 30
0.0
 10
177.0878491158
 20
128.9126878375
 30
0.0
 10
177.0746728046
 20
128.9503616481
 30
0.0
 10
177.0655366894
 20
128.9796236954
 30
0.0
  0
SPLINE
  5
6B3
100
AcDbEntity
  8
_30_VOLUMEN
100
AcDbSpline
 62
7
  6
CONTINUOUS
 70
0
 71
3
 72
9
 73
5
 74
0
 42
0.0000001
 43
0.0000001
 44
0.0000000001
 40
0.0
 40
0.0
 40
0.0
 40
0.0
 40
0.2368104438
 40
1.0
 40
1.0
 40
1.0
 40
1.0
 10
177.0655366894
 20
128.9796236954
 30
0.0
 10
177.0628851815
 20
128.9881162055
 30
0.0
 10
177.0520545339
 20
129.0240924238
 30
0.0
 10
177.0425865618
 20
129.060471424
 30
0.0
 10
177.0359380082
 20
129.0883624649
 30
0.0
  0
SPLINE
  5
6B4
100
AcDbEntity
  8
_30_VOLUMEN
100
AcDbSpline
 62
7
  6
CONTINUOUS
 70
0
 71
3
 72
13
 73
9
 74
0
 42
0.0000001
 43
0.0000001
 44
0.0000000001
 40
0.0
 40
0.0
 40
0.0
 40
0.0
 40
0.3726039687
 40
0.655583894
 40
0.7647703551
 40
0.8550527682
 40
0.930952653
 40
1.0
 40
1.0
 40
1.0
 40
1.0
 10
177.0304273279
 20
123.7125138114
 30
0.0
 10
177.0429328072
 20
123.6452182136
 30
0.0
 10
177.0689010534
 20
123.5275737037
 30
0.0
 10
177.1155750032
 20
123.3940490808
 30
0.0
 10
177.1606128284
 20
123.3173406693
 30
0.0
 10
177.1940954471
 20
123.2788741318
 30
0.0
 10
177.2307904165
 20
123.2546763865
 30
0.0
 10
177.257676364
 20
123.2491650903
 30
0.0
 10
177.2703604224
 20
123.2491649827
 30
0.0
  0
SPLINE
  5
6B5
100
AcDbEntity
  8
_30_VOLUMEN
100
AcDbSpline
 62
7
  6
CONTINUOUS
 70
0
 71
3
 72
8
 73
4
 74
0
 42
0.0000001
 43
0.0000001
 44
0.0000000001
 40
0.0
 40
0.0
 40
0.0
 40
0.0
 40
1.0
 40
1.0
 40
1.0
 40
1.0
 10
176.884516105
 20
130.1348373425
 30
0.0
 10
176.8861711766
 20
130.1357361856
 30
0.0
 10
176.8880964442
 20
130.1362768215
 30
0.0
 10
176.8899798403
 20
130.1362768652
 30
0.0
  0
SPLINE
  5
6B6
100
AcDbEntity
  8
_30_VOLUMEN
100
AcDbSpline
 62
7
  6
CONTINUOUS
 70
0
 71
3
 72
11
 73
7
 74
0
 42
0.0000001
 43
0.0000001
 44
0.0000000001
 40
0.0
 40
0.0
 40
0.0
 40
0.0
 40
0.0856481715
 40
0.2771044023
 40
0.586342723
 40
1.0
 40
1.0
 40
1.0
 40
1.0
 10
176.9455143839
 20
128.1500581407
 30
0.0
 10
176.9480411083
 20
128.1500581407
 30
0.0
 10
176.9535457886
 20
128.1585261875
 30
0.0
 10
176.9574819755
 20
128.1741057305
 30
0.0
 10
176.9627604273
 20
128.2012603416
 30
0.0
 10
176.9652243688
 20
128.2222464364
 30
0.0
 10
176.9665457596
 20
128.2343780737
 30
0.0
  0
SPLINE
  5
6B7
100
AcDbEntity
  8
_30_VOLUMEN
100
AcDbSpline
 62
7
  6
CONTINUOUS
 70
0
 71
3
 72
9
 73
5
 74
0
 42
0.0000001
 43
0.0000001
 44
0.0000000001
 40
0.0
 40
0.0
 40
0.0
 40
0.0
 40
0.2114180362
 40
1.0
 40
1.0
 40
1.0
 40
1.0
 10
176.9665457596
 20
128.2343780737
 30
0.0
 10
176.9681942477
 20
128.2495127792
 30
0.0
 10
176.9745059083
 20
128.3212614286
 30
0.0
 10
176.9760397136
 20
128.3933523126
 30
0.0
 10
176.9760397136
 20
128.4501381206
 30
0.0
  0
SPLINE
  5
6B8
100
AcDbEntity
  8
_30_VOLUMEN
100
AcDbSpline
 62
7
  6
CONTINUOUS
 70
0
 71
3
 72
9
 73
5
 74
0
 42
0.0000001
 43
0.0000001
 44
0.0000000001
 40
0.0
 40
0.0
 40
0.0
 40
0.0
 40
0.2773148434
 40
1.0
 40
1.0
 40
1.0
 40
1.0
 10
176.9760397136
 20
128.4501381206
 30
0.0
 10
176.9760397136
 20
128.4698774803
 30
0.0
 10
176.9753694726
 20
128.5410429868
 30
0.0
 10
176.97211582
 20
128.6122796175
 30
0.0
 10
176.9665457596
 20
128.6634181254
 30
0.0
  0
SPLINE
  5
6B9
100
AcDbEntity
  8
_30_VOLUMEN
100
AcDbSpline
 62
7
  6
CONTINUOUS
 70
0
 71
3
 72
11
 73
7
 74
0
 42
0.0000001
 43
0.0000001
 44
0.0000000001
 40
0.0
 40
0.0
 40
0.0
 40
0.0
 40
0.4072153469
 40
0.7171904618
 40
0.9131410051
 40
1.0
 40
1.0
 40
1.0
 40
1.0
 10
176.9665457596
 20
128.6634181254
 30
0.0
 10
176.9652112224
 20
128.6756704595
 30
0.0
 10
176.9626998941
 20
128.6969921223
 30
0.0
 10
176.957471692
 20
128.7249666541
 30
0.0
 10
176.953514446
 20
128.7409170794
 30
0.0
 10
176.9481432624
 20
128.7502181005
 30
0.0
 10
176.9455143839
 20
128.7502181005
 30
0.0
  0
SPLINE
  5
6BA
100
AcDbEntity
  8
_30_VOLUMEN
100
AcDbSpline
 62
7
  6
CONTINUOUS
 70
0
 71
3
 72
14
 73
10
 74
0
 42
0.0000001
 43
0.0000001
 44
0.0000000001
 40
0.0
 40
0.0
 40
0.0
 40
0.0
 40
0.4125752207
 40
0.5806029787
 40
0.721243479
 40
0.8335057902
 40
0.9167725648
 40
0.9712195409
 40
1.0
 40
1.0
 40
1.0
 40
1.0
 10
176.8411788711
 20
129.0960098211
 30
0.0
 10
176.841179066
 20
129.1766691501
 30
0.0
 10
176.8417401716
 20
129.2902077404
 30
0.0
 10
176.8456599873
 20
129.4311233383
 30
0.0
 10
176.8499106251
 20
129.5134084812
 30
0.0
 10
176.8554184549
 20
129.578669147
 30
0.0
 10
176.8629744247
 20
129.6276302428
 30
0.0
 10
176.8705615196
 20
129.6580547863
 30
0.0
 10
176.8801884801
 20
129.674016484
 30
0.0
 10
176.8856060084
 20
129.6755361791
 30
0.0
  0
SPLINE
  5
6BB
100
AcDbEntity
  8
_30_VOLUMEN
100
AcDbSpline
 62
7
  6
CONTINUOUS
 70
0
 71
3
 72
11
 73
7
 74
0
 42
0.0000001
 43
0.0000001
 44
0.0000000001
 40
0.0
 40
0.0
 40
0.0
 40
0.0
 40
0.3974724785
 40
0.7312431186
 40
0.9301283126
 40
1.0
 40
1.0
 40
1.0
 40
1.0
 10
177.0218484101
 20
125.3203781203
 30
0.0
 10
177.0218484101
 20
125.3267880289
 30
0.0
 10
177.0218338501
 20
125.3384769119
 30
0.0
 10
177.0203043513
 20
125.3538149394
 30
0.0
 10
177.019495406
 20
125.3627643047
 30
0.0
 10
177.0168029881
 20
125.3674981142
 30
0.0
 10
177.0156761902
 20
125.3674981142
 30
0.0
  0
SPLINE
  5
6BC
100
AcDbEntity
  8
_30_VOLUMEN
100
AcDbSpline
 62
7
  6
CONTINUOUS
 70
0
 71
3
 72
9
 73
5
 74
0
 42
0.0000001
 43
0.0000001
 44
0.0000000001
 40
0.0
 40
0.0
 40
0.0
 40
0.0
 40
0.2365934258
 40
1.0
 40
1.0
 40
1.0
 40
1.0
 10
177.0108165119
 20
125.3674981142
 30
0.0
 10
177.0089389261
 20
125.3674981142
 30
0.0
 10
177.0010021629
 20
125.3680012276
 30
0.0
 10
176.9933648093
 20
125.3719150615
 30
0.0
 10
176.9889462617
 20
125.3760599154
 30
0.0
  0
SPLINE
  5
6BD
100
AcDbEntity
  8
_30_VOLUMEN
100
AcDbSpline
 62
7
  6
CONTINUOUS
 70
0
 71
3
 72
9
 73
5
 74
0
 42
0.0000001
 43
0.0000001
 44
0.0000000001
 40
0.0
 40
0.0
 40
0.0
 40
0.0
 40
0.1554587912
 40
1.0
 40
1.0
 40
1.0
 40
1.0
 10
176.9889462617
 20
125.3760599154
 30
0.0
 10
176.9877503604
 20
125.3771817403
 30
0.0
 10
176.9809429424
 20
125.3853512215
 30
0.0
 10
176.9782941669
 20
125.3961656957
 30
0.0
 10
176.9766649982
 20
125.4049233295
 30
0.0
  0
SPLINE
  5
6BE
100
AcDbEntity
  8
_30_VOLUMEN
100
AcDbSpline
 62
7
  6
CONTINUOUS
 70
0
 71
3
 72
9
 73
5
 74
0
 42
0.0000001
 43
0.0000001
 44
0.0000000001
 40
0.0
 40
0.0
 40
0.0
 40
0.0
 40
0.4683740896
 40
1.0
 40
1.0
 40
1.0
 40
1.0
 10
176.9755031046
 20
125.4121380894
 30
0.0
 10
176.9743271446
 20
125.4206007686
 30
0.0
 10
176.9738173896
 20
125.4388887718
 30
0.0
 10
176.9732459389
 20
125.4571028448
 30
0.0
 10
176.9730558095
 20
125.4667988021
 30
0.0
  0
SPLINE
  5
6BF
100
AcDbEntity
  8
_30_VOLUMEN
100
AcDbSpline
 62
7
  6
CONTINUOUS
 70
0
 71
3
 72
8
 73
4
 74
0
 42
0.0000001
 43
0.0000001
 44
0.0000000001
 40
0.0
 40
0.0
 40
0.0
 40
0.0
 40
1.0
 40
1.0
 40
1.0
 40
1.0
 10
176.9730558095
 20
125.4667988021
 30
0.0
 10
176.9720516049
 20
125.5180098439
 30
0.0
 10
176.9720414383
 20
125.5692372274
 30
0.0
 10
176.9720414383
 20
125.6204581141
 30
0.0
  0
SPLINE
  5
6C0
100
AcDbEntity
  8
_30_VOLUMEN
100
AcDbSpline
 62
7
  6
CONTINUOUS
 70
0
 71
3
 72
13
 73
9
 74
0
 42
0.0000001
 43
0.0000001
 44
0.0000000001
 40
0.0
 40
0.0
 40
0.0
 40
0.0
 40
0.0706025538
 40
0.1476268014
 40
0.2384791277
 40
0.347728941
 40
0.6296319369
 40
1.0
 40
1.0
 40
1.0
 40
1.0
 10
177.9839785654
 20
129.1991649827
 30
0.0
 10
177.9709052594
 20
129.1991650901
 30
0.0
 10
177.9433101084
 20
129.2046127792
 30
0.0
 10
177.9054297711
 20
129.228715035
 30
0.0
 10
177.8708155427
 20
129.267173731
 30
0.0
 10
177.824352869
 20
129.3437757754
 30
0.0
 10
177.7761075245
 20
129.4773459386
 30
0.0
 10
177.7492790437
 20
129.5951624627
 30
0.0
 10
177.7363666608
 20
129.6625160806
 30
0.0
  0
SPLINE
  5
6C1
100
AcDbEntity
  8
_30_VOLUMEN
100
AcDbSpline
 62
7
  6
CONTINUOUS
 70
0
 71
3
 72
12
 73
8
 74
0
 42
0.0000001
 43
0.0000001
 44
0.0000000001
 40
0.0
 40
0.0
 40
0.0
 40
0.0
 40
0.4126340471
 40
0.7188647725
 40
0.9128448386
 40
0.9680836488
 40
1.0
 40
1.0
 40
1.0
 40
1.0
 10
177.7363666608
 20
129.6625160806
 30
0.0
 10
177.7235989632
 20
129.7291149908
 30
0.0
 10
177.6993858255
 20
129.8449890021
 30
0.0
 10
177.6614142344
 20
129.9895681494
 30
0.0
 10
177.6303760092
 20
130.0767962523
 30
0.0
 10
177.6074353333
 20
130.1160709176
 30
0.0
 10
177.5946700993
 20
130.1258674109
 30
0.0
 10
177.5894250097
 20
130.1258671727
 30
0.0
  0
SPLINE
  5
6C2
100
AcDbEntity
  8
_30_VOLUMEN
100
AcDbSpline
 62
7
  6
CONTINUOUS
 70
0
 71
3
 72
9
 73
5
 74
0
 42
0.0000001
 43
0.0000001
 44
0.0000000001
 40
0.0
 40
0.0
 40
0.0
 40
0.0
 40
0.2165292976
 40
1.0
 40
1.0
 40
1.0
 40
1.0
 10
177.1871805654
 20
123.6175185773
 30
0.0
 10
177.1819681863
 20
123.6235091103
 30
0.0
 10
177.1594812573
 20
123.6525593934
 30
0.0
 10
177.1426299427
 20
123.6855685074
 30
0.0
 10
177.131138102
 20
123.7119023342
 30
0.0
  0
LINE
  5
6C3
100
AcDbEntity
  8
_30_VOLUMEN
100
AcDbLine
 62
7
  6
CONTINUOUS
 10
177.131138102
 20
123.7119023342
 11
177.1284598317
 21
123.728885742
  0
SPLINE
  5
6C4
100
AcDbEntity
  8
_30_VOLUMEN
100
AcDbSpline
 62
7
  6
CONTINUOUS
 70
0
 71
3
 72
13
 73
9
 74
0
 42
0.0000001
 43
0.0000001
 44
0.0000000001
 40
0.0
 40
0.0
 40
0.0
 40
0.0
 40
0.4128702735
 40
0.7199353185
 40
0.8315177265
 40
0.9145122707
 40
0.9693680231
 40
1.0
 40
1.0
 40
1.0
 40
1.0
 10
177.0745330435
 20
124.0356886211
 30
0.0
 10
177.0579690814
 20
124.1206162779
 30
0.0
 10
177.0265899007
 20
124.2681686521
 30
0.0
 10
176.9819372434
 20
124.4369603867
 30
0.0
 10
176.948117261
 20
124.5363095253
 30
0.0
 10
176.9269250089
 20
124.5846797593
 30
0.0
 10
176.9099679344
 20
124.6146516235
 30
0.0
 10
176.8943861816
 20
124.6276653179
 30
0.0
 10
176.8879664424
 20
124.6276673528
 30
0.0
  0
SPLINE
  5
6C5
100
AcDbEntity
  8
_30_VOLUMEN
100
AcDbSpline
 62
7
  6
CONTINUOUS
 70
0
 71
3
 72
13
 73
9
 74
0
 42
0.0000001
 43
0.0000001
 44
0.0000000001
 40
0.0
 40
0.0
 40
0.0
 40
0.0
 40
0.3979226966
 40
0.6991670342
 40
0.8119597194
 40
0.899199866
 40
0.9612225623
 40
1.0
 40
1.0
 40
1.0
 40
1.0
 10
176.8411788719
 20
123.7207084629
 30
0.0
 10
176.8411790907
 20
123.7813650223
 30
0.0
 10
176.8420382391
 20
123.887918058
 30
0.0
 10
176.8469621714
 20
124.0117126555
 30
0.0
 10
176.8545014989
 20
124.0877080443
 30
0.0
 10
176.8609223152
 20
124.1273096415
 30
0.0
 10
176.8683892744
 20
124.1547554525
 30
0.0
 10
176.8757567898
 20
124.1690434543
 30
0.0
 10
176.8803028558
 20
124.1728213845
 30
0.0
  0
SPLINE
  5
6C6
100
AcDbEntity
  8
_30_VOLUMEN
100
AcDbSpline
 62
7
  6
CONTINUOUS
 70
0
 71
3
 72
8
 73
4
 74
0
 42
0.0000001
 43
0.0000001
 44
0.0000000001
 40
0.0
 40
0.0
 40
0.0
 40
0.0
 40
1.0
 40
1.0
 40
1.0
 40
1.0
 10
176.8803028558
 20
124.1728213845
 30
0.0
 10
176.8824164901
 20
124.1745778841
 30
0.0
 10
176.885217889
 20
124.1758624244
 30
0.0
 10
176.887966114
 20
124.1758626248
 30
0.0
  0
SPLINE
  5
6C7
100
AcDbEntity
  8
_30_VOLUMEN
100
AcDbSpline
 62
7
  6
CONTINUOUS
 70
0
 71
3
 72
9
 73
5
 74
0
 42
0.0000001
 43
0.0000001
 44
0.0000000001
 40
0.0
 40
0.0
 40
0.0
 40
0.0
 40
0.4571821769
 40
1.0
 40
1.0
 40
1.0
 40
1.0
 10
177.2703623434
 20
129.1991649827
 30
0.0
 10
177.2531890568
 20
129.1991651284
 30
0.0
 10
177.2152569614
 20
129.2101887867
 30
0.0
 10
177.1873395442
 20
129.2367929349
 30
0.0
 10
177.1742671048
 20
129.2524411086
 30
0.0
  0
SPLINE
  5
6C8
100
AcDbEntity
  8
_30_VOLUMEN
100
AcDbSpline
 62
7
  6
CONTINUOUS
 70
0
 71
3
 72
10
 73
6
 74
0
 42
0.0000001
 43
0.0000001
 44
0.0000000001
 40
0.0
 40
0.0
 40
0.0
 40
0.0
 40
0.1774579475
 40
0.4020669722
 40
1.0
 40
1.0
 40
1.0
 40
1.0
 10
177.1742671048
 20
129.2524411086
 30
0.0
 10
177.1576590046
 20
129.2723215937
 30
0.0
 10
177.1269788647
 20
129.3230456686
 30
0.0
 10
177.0725838072
 20
129.4587580671
 30
0.0
 10
177.0463752027
 20
129.5767004123
 30
0.0
 10
177.0304281717
 20
129.6625160806
 30
0.0
  0
SPLINE
  5
6C9
100
AcDbEntity
  8
_30_VOLUMEN
100
AcDbSpline
 62
7
  6
CONTINUOUS
 70
0
 71
3
 72
12
 73
8
 74
0
 42
0.0000001
 43
0.0000001
 44
0.0000000001
 40
0.0
 40
0.0
 40
0.0
 40
0.0
 40
0.4128228876
 40
0.7181436583
 40
0.9115744111
 40
0.9670959359
 40
1.0
 40
1.0
 40
1.0
 40
1.0
 10
177.0165580918
 20
129.7345626627
 30
0.0
 10
177.0052953172
 20
129.790987134
 30
0.0
 10
176.9840945292
 20
129.8889986511
 30
0.0
 10
176.9509404012
 20
130.0112389215
 30
0.0
 10
176.9239724507
 20
130.0847149458
 30
0.0
 10
176.9037248788
 20
130.1178509276
 30
0.0
 10
176.8925523565
 20
130.1258674954
 30
0.0
 10
176.8879663229
 20
130.1258671635
 30
0.0
  0
ELLIPSE
  5
6CA
100
AcDbEntity
  8
_30_VOLUMEN
100
AcDbEllipse
 62
7
  6
CONTINUOUS
 10
103.2694044571
 20
135.5579519488
 30
0.0
 11
15.25
 21
0.0
 31
0.0
 40
0.1051042353
 41
-2.1590400674
 42
-0.9825525862
  0
ELLIPSE
  5
6CB
100
AcDbEntity
  8
_30_VOLUMEN
100
AcDbEllipse
 62
7
  6
CONTINUOUS
 10
103.2694044571
 20
135.6183624649
 30
0.0
 11
15.25
 21
0.0
 31
0.0
 40
0.109131603
 41
-0.936594676
 42
-0.3149248074
  0
ELLIPSE
  5
6CC
100
AcDbEntity
  8
_30_VOLUMEN
100
AcDbEllipse
 62
7
  6
CONTINUOUS
 10
103.2694044571
 20
135.6183624649
 30
0.0
 11
15.25
 21
0.0
 31
0.0
 40
0.109131603
 41
-2.8266678462
 42
-2.2049979776
  0
ELLIPSE
  5
6CD
100
AcDbEntity
  8
_30_VOLUMEN
100
AcDbEllipse
 62
7
  6
CONTINUOUS
 10
200.0411788616
 20
125.2917611427
 30
0.0
 11
23.2
 21
0.0
 31
0.0
 40
0.0470588328
 41
9.3439611225
 42
9.3530738459
  0
ELLIPSE
  5
6CE
100
AcDbEntity
  8
_30_VOLUMEN
100
AcDbEllipse
 62
7
  6
CONTINUOUS
 10
200.0411788616
 20
127.353609855
 30
0.0
 11
23.2
 21
0.0
 31
0.0
 40
0.0733333842
 41
3.0376941744
 42
3.0698885387
  0
ELLIPSE
  5
6CF
100
AcDbEntity
  8
_30_VOLUMEN
100
AcDbEllipse
 62
7
  6
CONTINUOUS
 10
200.0411788616
 20
128.22602187
 30
0.0
 11
0.0
 21
27.8005078582
 31
0.0
 40
0.8345171289
 41
-1.7140661358
 42
-1.6125649363
  0
ELLIPSE
  5
6D0
100
AcDbEntity
  8
_30_VOLUMEN
100
AcDbEllipse
 62
7
  6
CONTINUOUS
 10
200.0411788616
 20
129.0438959777
 30
0.0
 11
-0.0
 21
47.3872735856
 31
0.0
 40
0.4895829248
 41
-1.6125649363
 42
-1.6044772711
  0
ELLIPSE
  5
6D1
100
AcDbEntity
  8
_30_VOLUMEN
100
AcDbEllipse
 62
7
  6
CONTINUOUS
 10
200.0411788616
 20
131.7034610992
 30
0.0
 11
-0.0
 21
126.3657013594
 31
0.0
 40
0.1835941221
 41
-1.6044772711
 42
-1.6004342863
  0
ELLIPSE
  5
6D2
100
AcDbEntity
  8
_30_VOLUMEN
100
AcDbEllipse
 62
7
  6
CONTINUOUS
 10
200.0411788616
 20
124.4694340508
 30
0.0
 11
-0.0
 21
126.3657013594
 31
0.0
 40
0.1835941221
 41
-1.5411583673
 42
-1.5371153825
  0
ELLIPSE
  5
6D3
100
AcDbEntity
  8
_30_VOLUMEN
100
AcDbEllipse
 62
7
  6
CONTINUOUS
 10
200.0411788616
 20
127.6609146317
 30
0.0
 11
-0.0
 21
31.5915157237
 31
0.0
 40
0.7343743872
 41
4.7460699247
 42
4.7622479898
  0
ELLIPSE
  5
6D4
100
AcDbEntity
  8
_30_VOLUMEN
100
AcDbEllipse
 62
7
  6
CONTINUOUS
 10
200.0411788616
 20
128.4481503355
 30
0.0
 11
23.2
 21
0.0
 31
0.0
 40
0.680850658
 41
0.0498590094
 42
0.0660501701
  0
ELLIPSE
  5
6D5
100
AcDbEntity
  8
_30_VOLUMEN
100
AcDbEllipse
 62
7
  6
CONTINUOUS
 10
200.0411788616
 20
129.1431852165
 30
0.0
 11
23.2
 21
-0.0
 31
0.0
 40
0.2269503276
 41
0.0660501701
 42
0.0903708026
  0
ELLIPSE
  5
6D6
100
AcDbEntity
  8
_30_VOLUMEN
100
AcDbEllipse
 62
7
  6
CONTINUOUS
 10
200.0411788616
 20
135.3630494489
 30
0.0
 11
-0.0
 21
47.3872735856
 31
0.0
 40
0.4895829248
 41
4.5609487158
 42
4.5691191713
  0
ELLIPSE
  5
6D7
100
AcDbEntity
  8
_30_VOLUMEN
100
AcDbEllipse
 62
7
  6
CONTINUOUS
 10
200.0411788616
 20
131.6041779933
 30
0.0
 11
23.2
 21
0.0
 31
0.0
 40
0.9078013102
 41
-0.143269809
 42
-0.1310319698
  0
ELLIPSE
  5
6D8
100
AcDbEntity
  8
_30_VOLUMEN
100
AcDbEllipse
 62
7
  6
CONTINUOUS
 10
200.0411788616
 20
129.6779363447
 30
0.0
 11
23.2
 21
0.0
 31
0.0
 40
0.2723401853
 41
-0.1310319698
 42
-0.1106784032
  0
ELLIPSE
  5
6D9
100
AcDbEntity
  8
_30_VOLUMEN
100
AcDbEllipse
 62
7
  6
CONTINUOUS
 10
200.0411788616
 20
140.4126921478
 30
0.0
 11
0.0
 21
36.8567479451
 31
0.0
 40
0.6294641088
 41
-1.9228514261
 42
-1.8971400701
  0
ELLIPSE
  5
6DA
100
AcDbEntity
  8
_30_VOLUMEN
100
AcDbEllipse
 62
7
  6
CONTINUOUS
 10
200.0411788616
 20
130.0986058652
 30
0.0
 11
23.2
 21
-0.0
 31
0.0
 40
0.1945289582
 41
-0.1351089492
 42
-0.1066135002
  0
ELLIPSE
  5
6DB
100
AcDbEntity
  8
_30_VOLUMEN
100
AcDbEllipse
 62
7
  6
CONTINUOUS
 10
200.0411788616
 20
131.6183610901
 30
0.0
 11
23.2
 21
-0.0
 31
0.0
 40
0.680850658
 41
-0.1514402646
 42
-0.1351089492
  0
ELLIPSE
  5
6DC
100
AcDbEntity
  8
_30_VOLUMEN
100
AcDbEllipse
 62
7
  6
CONTINUOUS
 10
200.0411788616
 20
134.0013418021
 30
0.0
 11
0.0
 21
31.5914931277
 31
0.0
 40
0.7343749125
 41
-1.738608704
 42
-1.7222365914
  0
ELLIPSE
  5
6DD
100
AcDbEntity
  8
_30_VOLUMEN
100
AcDbEllipse
 62
7
  6
CONTINUOUS
 10
200.0411788616
 20
149.8310852686
 30
0.0
 11
-0.0
 21
126.3657013594
 31
0.0
 40
0.1835941221
 41
-1.7427086693
 42
-1.738608704
  0
ELLIPSE
  5
6DE
100
AcDbEntity
  8
_30_VOLUMEN
100
AcDbEllipse
 62
7
  6
CONTINUOUS
 10
200.0411788616
 20
128.3843204646
 30
0.0
 11
23.2
 21
0.0
 31
0.0
 40
0.2723401853
 41
0.0741519796
 42
0.0944290732
  0
ELLIPSE
  5
6DF
100
AcDbEntity
  8
_30_VOLUMEN
100
AcDbEllipse
 62
7
  6
CONTINUOUS
 10
200.0411788616
 20
127.2921217697
 30
0.0
 11
23.2
 21
-0.0
 31
0.0
 40
0.9078013102
 41
0.0620009146
 42
0.0741519796
  0
ELLIPSE
  5
6E0
100
AcDbEntity
  8
_30_VOLUMEN
100
AcDbEllipse
 62
7
  6
CONTINUOUS
 10
200.0411788616
 20
125.6609136932
 30
0.0
 11
0.0
 21
47.3872735856
 31
0.0
 40
0.4895829248
 41
-1.5168909139
 42
-1.5087954121
  0
ELLIPSE
  5
6E1
100
AcDbEntity
  8
_30_VOLUMEN
100
AcDbEllipse
 62
7
  6
CONTINUOUS
 10
200.0411788616
 20
131.3630459969
 30
0.0
 11
-0.0
 21
63.1830314474
 31
0.0
 40
0.3671871936
 41
-1.6327972414
 42
-1.6247017397
  0
ELLIPSE
  5
6E2
100
AcDbEntity
  8
_30_VOLUMEN
100
AcDbEllipse
 62
7
  6
CONTINUOUS
 10
200.0411788616
 20
129.1958695668
 30
0.0
 11
0.0
 21
28.2066840167
 31
0.0
 40
0.822500085
 41
-1.7468115436
 42
-1.6327972414
  0
ELLIPSE
  5
6E3
100
AcDbEntity
  8
_30_VOLUMEN
100
AcDbEllipse
 62
7
  6
CONTINUOUS
 10
200.0411788616
 20
141.4339638932
 30
0.0
 11
0.0
 21
36.856733195
 31
0.0
 40
0.6294643608
 41
-1.9228514261
 42
-1.8971400701
  0
ELLIPSE
  5
6E4
100
AcDbEntity
  8
_30_VOLUMEN
100
AcDbEllipse
 62
7
  6
CONTINUOUS
 10
200.0411788616
 20
130.0986058652
 30
0.0
 11
22.5
 21
-0.0
 31
0.0
 40
0.1945289582
 41
-0.1393393327
 42
-0.1099435886
  0
ELLIPSE
  5
6E5
100
AcDbEntity
  8
_30_VOLUMEN
100
AcDbEllipse
 62
7
  6
CONTINUOUS
 10
200.0411788616
 20
131.6183610901
 30
0.0
 11
22.5
 21
0.0
 31
0.0
 40
0.680850658
 41
-0.1561898301
 42
-0.1393393327
  0
ELLIPSE
  5
6E6
100
AcDbEntity
  8
_30_VOLUMEN
100
AcDbEllipse
 62
7
  6
CONTINUOUS
 10
200.0411788616
 20
134.0013418021
 30
0.0
 11
0.0
 21
30.6383015247
 31
0.0
 40
0.7343749125
 41
-1.7438814791
 42
-1.7269861569
  0
ELLIPSE
  5
6E7
100
AcDbEntity
  8
_30_VOLUMEN
100
AcDbEllipse
 62
7
  6
CONTINUOUS
 10
200.0411788616
 20
149.8310852686
 30
0.0
 11
-0.0
 21
122.5529431287
 31
0.0
 40
0.1835941221
 41
-1.7453886702
 42
-1.7438814791
  0
ELLIPSE
  5
6E8
100
AcDbEntity
  8
_30_VOLUMEN
100
AcDbEllipse
 62
7
  6
CONTINUOUS
 10
200.0411788616
 20
131.3630459969
 30
0.0
 11
0.0
 21
61.2766468779
 31
0.0
 40
0.3671871936
 41
-1.6347287513
 42
-1.6263805001
  0
ELLIPSE
  5
6E9
100
AcDbEntity
  8
_30_VOLUMEN
100
AcDbEllipse
 62
7
  6
CONTINUOUS
 10
200.0411788616
 20
129.1958695668
 30
0.0
 11
-0.0
 21
27.3556202748
 31
0.0
 40
0.822500085
 41
-1.7451347956
 42
-1.6954674749
  0
ELLIPSE
  5
6EA
100
AcDbEntity
  8
_30_VOLUMEN
100
AcDbEllipse
 62
7
  6
CONTINUOUS
 10
200.0411788616
 20
129.1958695668
 30
0.0
 11
-0.0
 21
27.3556202748
 31
0.0
 40
0.822500085
 41
-1.6722130721
 42
-1.6347287513
  0
ELLIPSE
  5
6EB
100
AcDbEntity
  8
_30_VOLUMEN
100
AcDbEllipse
 62
7
  6
CONTINUOUS
 10
200.0411788616
 20
128.0112769016
 30
0.0
 11
23.2
 21
-0.0
 31
0.0
 40
0.1999986589
 41
-3.0376941744
 42
-3.0355444065
  0
ELLIPSE
  5
6EC
100
AcDbEntity
  8
_30_VOLUMEN
100
AcDbEllipse
 62
7
  6
CONTINUOUS
 10
200.0411788616
 20
141.4339638932
 30
0.0
 11
-0.0
 21
35.74467659
 31
0.0
 40
0.6294643608
 41
-1.9343047232
 42
-1.9076884867
  0
ENDSEC
  0
SECTION
  2
OBJECTS
  0
DICTIONARY
  5
C
100
AcDbDictionary
280
0
281
1
  3
ACAD_GROUP
350
D
  3
ACAD_MLINESTYLE
350
17
  3
ACAD_LAYOUT
350
1A
  3
ACAD_PLOTSETTINGS
350
19
  3
ACAD_PLOTSTYLENAME
350
E
  0
DICTIONARY
  5
D
102
{ACAD_REACTORS
330
C
102
}
100
AcDbDictionary
280
0
281
1
  0
ACDBDICTIONARYWDFLT
  5
E
102
{ACAD_REACTORS
330
C
102
}
100
AcDbDictionary
281
1
  3
Normal
350
F
100
AcDbDictionaryWithDefault
340
F
  0
DICTIONARY
  5
17
102
{ACAD_REACTORS
330
C
102
}
100
AcDbDictionary
280
0
281
1
  3
Standard
350
18
  0
DICTIONARY
  5
19
102
{ACAD_REACTORS
330
C
102
}
100
AcDbDictionary
281
1
  0
DICTIONARY
  5
1A
102
{ACAD_REACTORS
330
C
102
}
100
AcDbDictionary
281
1
  3
Model
350
6ED
  3
Layout1
350
6EE
  0
ACDBPLACEHOLDER
  5
F
102
{ACAD_REACTORS
330
E
102
}
  0
MLINESTYLE
  5
18
102
{ACAD_REACTORS
330
17
102
}
100
AcDbMlineStyle
  2
STANDARD
 70
0
  3

 62
256
 51
90.0
 52
90.0
 71
2
 49
0.5
 62
256
  6
BYLAYER
 49
-0.5
 62
256
  6
BYLAYER
  0
LAYOUT
  5
6ED
102
{ACAD_REACTORS
330
1A
102
}
100
AcDbPlotSettings
  1

  2
none_device
  4
ISO_A4_(297.00_x_210.00_MM)
  6

 40
0.0
 41
0.0
 42
0.0
 43
0.0
 44
297.0
 45
210.0
 46
0.0
 47
0.0
 48
0.0
 49
0.0
140
0.0
141
0.0
142
1.0
143
1.0
 70
1024
 72
1
 73
0
 74
0
  7

 75
0
147
1.0
148
0.0
149
0.0
100
AcDbLayout
  1
Model
 70
0
 71
0
 10
0.0
 20
0.0
 11
297.0
 21
210.0
 12
0.0
 22
0.0
 32
0.0
 14
0.0
 24
0.0
 34
0.0
 15
0.0
 25
0.0
 35
0.0
146
0.0
 13
0.0
 23
0.0
 33
0.0
 16
1.0
 26
0.0
 36
0.0
 17
0.0
 27
1.0
 37
0.0
 76
0
330
20E
345
0
346
0
  0
LAYOUT
  5
6EE
102
{ACAD_REACTORS
330
1A
102
}
100
AcDbPlotSettings
  1

  2
none_device
  4
ISO_A4_(297.00_x_210.00_MM)
  6

 40
0.0
 41
0.0
 42
0.0
 43
0.0
 44
297.0
 45
210.0
 46
0.0
 47
0.0
 48
0.0
 49
0.0
140
0.0
141
0.0
142
1.0
143
1.0
 70
0
 72
1
 73
0
 74
0
  7

 75
0
147
1.0
148
0.0
149
0.0
100
AcDbLayout
  1
Layout1
 70
0
 71
1
 10
0.0
 20
0.0
 11
297.0
 21
210.0
 12
0.0
 22
0.0
 32
0.0
 14
0.0
 24
0.0
 34
0.0
 15
0.0
 25
0.0
 35
0.0
146
0.0
 13
0.0
 23
0.0
 33
0.0
 16
1.0
 26
0.0
 36
0.0
 17
0.0
 27
1.0
 37
0.0
 76
0
330
20F
345
0
346
0
  0
ENDSEC
  0
EOF
