999
DXF file: 001-m36423-p-11.dxf
999
Pro/ENGINEER 2022162 by Parametric Technology Corporation
  0
SECTION
  2
HEADER
  9
$ACADVER
  1
AC1015
  9
$DWGCODEPAGE
  3
ANSI_1252
  9
$EXTMAX
 10
297.0
 20
210.0
 30
0.0
  9
$EXTMIN
 10
0.0
 20
0.0
 30
0.0
  9
$LIMMIN
 10
0.0
 20
0.0
  9
$LIMMAX
 10
297.0
 20
210.0
  9
$VIEWCTR
 10
148.5
 20
105.0
  9
$VIEWSIZE
 40
210.0
  9
$CLAYER
  8
0
  9
$LTSCALE
 40
16.335
  9
$CELTYPE
  6
BYLAYER
  9
$DIMSCALE
 40
1.0
  9
$DIMASZ
 40
3.5
  9
$DIMEXO
 40
0.0
  9
$DIMDLI
 40
11.286
  9
$DIMEXE
 40
1.5
  9
$DIMCEN
 40
2.673
  9
$DIMLFAC
 40
1.0
  9
$DIMBLK
  1
_FILLED
  9
$DIMALT
 70
0
  9
$DIMALTF
 40
0.0393700787
  9
$DIMTXT
 40
3.5
  9
$DIMTOL
 70
1
  9
$DIMLIM
 70
0
  9
$DIMTFAC
 40
1.0
  9
$DIMTP
 40
0.01
  9
$DIMTM
 40
0.01
  9
$DIMGAP
 40
0.625
  9
$DIMDSEP
 70
46
  9
$AUNITS
 70
0
  9
$PDMODE
 70
3
  9
$PDSIZE
 40
0.3125
  9
$HANDSEED
  5
6F3
  9
$TILEMODE
 70
1
  9
$MEASUREMENT
 70
1
  9
$INSUNITS
 70
4
  0
ENDSEC
  0
SECTION
  2
CLASSES
  0
CLASS
  1
ACDBDICTIONARYWDFLT
  2
AcDbDictionaryWithDefault
  3
AutoCAD 2000
 90
0
280
0
281
0
  0
CLASS
  1
ACDBPLACEHOLDER
  2
AcDbPlaceHolder
  3
AutoCAD 2000
 90
0
280
0
281
0
  0
CLASS
  1
LAYOUT
  2
AcDbLayout
  3
AutoCAD 2000
 90
0
280
0
281
0
  0
ENDSEC
  0
SECTION
  2
TABLES
  0
TABLE
  2
VPORT
  5
8
100
AcDbSymbolTable
 70
2
  0
VPORT
  5
1F4
100
AcDbSymbolTableRecord
100
AcDbViewportTableRecord
  2
*ACTIVE
 70
0
 10
0.0
 20
0.0
 11
1.0
 21
1.0
 12
148.5
 22
105.0
 13
0.0
 23
0.0
 14
1.0
 24
1.0
 15
0.0
 25
0.0
 16
0.0
 26
0.0
 36
1.0
 17
0.0
 27
0.0
 37
0.0
 40
210.0
 41
1.4142857143
 42
50.0
 43
0.0
 44
0.0
 50
0.0
 51
0.0
 71
0
 72
100
 73
1
 74
1
 75
0
 76
0
 77
0
 78
0
  0
ENDTAB
  0
TABLE
  2
LTYPE
  5
5
100
AcDbSymbolTable
 70
6
  0
LTYPE
  5
14
100
AcDbSymbolTableRecord
100
AcDbLinetypeTableRecord
  2
BYBLOCK
 70
0
  3

 72
65
 73
0
 40
0.0
  0
LTYPE
  5
15
100
AcDbSymbolTableRecord
100
AcDbLinetypeTableRecord
  2
BYLAYER
 70
0
  3

 72
65
 73
0
 40
0.0
  0
LTYPE
  5
16
100
AcDbSymbolTableRecord
100
AcDbLinetypeTableRecord
  2
CONTINUOUS
 70
64
  3
Solid line
 72
65
 73
0
 40
0.0
  0
LTYPE
  5
1F5
100
AcDbSymbolTableRecord
100
AcDbLinetypeTableRecord
  2
CENTER
 70
64
  3
____ _ ____ _ ____ _ ____ _ ____ _ ____ _ ____
 72
65
 73
4
 40
0.6
 49
0.375
 74
0
 49
-0.075
 74
0
 49
0.075
 74
0
 49
-0.075
 74
0
  0
LTYPE
  5
1F6
100
AcDbSymbolTableRecord
100
AcDbLinetypeTableRecord
  2
HIDDEN
 70
64
  3
- - - - - - - - - - - - - - - - - - - -
 72
65
 73
2
 40
0.2
 49
0.1
 74
0
 49
-0.1
 74
0
  0
LTYPE
  5
1F7
100
AcDbSymbolTableRecord
100
AcDbLinetypeTableRecord
  2
PHANTOM
 70
64
  3
_____ _ _ _____ _ _ _____ _ _ _____
 72
65
 73
6
 40
0.8
 49
0.45
 74
0
 49
-0.05
 74
0
 49
0.1
 74
0
 49
-0.05
 74
0
 49
0.1
 74
0
 49
-0.05
 74
0
  0
LTYPE
  5
1F8
100
AcDbSymbolTableRecord
100
AcDbLinetypeTableRecord
  2
DOT
 70
64
  3
. . . . . . . . . . . . . . . . . . . .
 72
65
 73
2
 40
0.2
 49
0.1
 74
0
 49
-0.1
 74
0
  0
LTYPE
  5
1F9
100
AcDbSymbolTableRecord
100
AcDbLinetypeTableRecord
  2
DASHED
 70
64
  3
- - - - - - - - - - - - - - - - - - - -
 72
65
 73
2
 40
0.2
 49
0.1
 74
0
 49
-0.1
 74
0
  0
ENDTAB
  0
TABLE
  2
LAYER
  5
2
100
AcDbSymbolTable
 70
36
  0
LAYER
  5
10
100
AcDbSymbolTableRecord
100
AcDbLayerTableRecord
  2
0
 70
0
 62
7
  6
CONTINUOUS
370
-3
390
F
  0
LAYER
  5
1FA
100
AcDbSymbolTableRecord
100
AcDbLayerTableRecord
  2
DEFAULT_1
 70
0
 62
7
  6
CENTER
370
-3
390
F
  0
LAYER
  5
1FB
100
AcDbSymbolTableRecord
100
AcDbLayerTableRecord
  2
DEFAULT_2
 70
0
 62
8
  6
HIDDEN
370
-3
390
F
  0
LAYER
  5
1FC
100
AcDbSymbolTableRecord
100
AcDbLayerTableRecord
  2
DEFAULT_3
 70
0
 62
7
  6
PHANTOM
370
-3
390
F
  0
LAYER
  5
1FD
100
AcDbSymbolTableRecord
100
AcDbLayerTableRecord
  2
HILFEN
 70
0
 62
7
  6
CONTINUOUS
370
-3
390
F
  0
LAYER
  5
1FE
100
AcDbSymbolTableRecord
100
AcDbLayerTableRecord
  2
PLATZIERUNG
 70
0
 62
7
  6
CONTINUOUS
370
-3
390
F
  0
LAYER
  5
1FF
100
AcDbSymbolTableRecord
100
AcDbLayerTableRecord
  2
RUNDUNGEN
 70
0
 62
7
  6
CONTINUOUS
370
-3
390
F
  0
LAYER
  5
200
100
AcDbSymbolTableRecord
100
AcDbLayerTableRecord
  2
T_STARTBEZUEGE
 70
0
 62
7
  6
CONTINUOUS
370
-3
390
F
  0
LAYER
  5
201
100
AcDbSymbolTableRecord
100
AcDbLayerTableRecord
  2
_00_ASM_START_FEATURES
 70
0
 62
7
  6
CONTINUOUS
370
-3
390
F
  0
LAYER
  5
202
100
AcDbSymbolTableRecord
100
AcDbLayerTableRecord
  2
_00_HILFEN
 70
0
 62
7
  6
CONTINUOUS
370
-3
390
F
  0
LAYER
  5
203
100
AcDbSymbolTableRecord
100
AcDbLayerTableRecord
  2
_00_PLATZIERUNG
 70
0
 62
7
  6
CONTINUOUS
370
-3
390
F
  0
LAYER
  5
204
100
AcDbSymbolTableRecord
100
AcDbLayerTableRecord
  2
_00_PRT_START_FEATURES
 70
0
 62
7
  6
CONTINUOUS
370
-3
390
F
  0
LAYER
  5
205
100
AcDbSymbolTableRecord
100
AcDbLayerTableRecord
  2
_04_NOTIZEN
 70
0
 62
7
  6
CONTINUOUS
370
-3
390
F
  0
LAYER
  5
206
100
AcDbSymbolTableRecord
100
AcDbLayerTableRecord
  2
_21_KURVEN
 70
0
 62
7
  6
CONTINUOUS
370
-3
390
F
  0
LAYER
  5
207
100
AcDbSymbolTableRecord
100
AcDbLayerTableRecord
  2
_22_FLAECHEN
 70
0
 62
7
  6
CONTINUOUS
370
-3
390
F
  0
LAYER
  5
208
100
AcDbSymbolTableRecord
100
AcDbLayerTableRecord
  2
_26_BEZUGSACHSEN
 70
0
 62
7
  6
CONTINUOUS
370
-3
390
F
  0
LAYER
  5
209
100
AcDbSymbolTableRecord
100
AcDbLayerTableRecord
  2
_27_BEZUGSEBENEN
 70
0
 62
7
  6
CONTINUOUS
370
-3
390
F
  0
LAYER
  5
20A
100
AcDbSymbolTableRecord
100
AcDbLayerTableRecord
  2
_29_KOORDINATENSYSTEME
 70
0
 62
7
  6
CONTINUOUS
370
-3
390
F
  0
LAYER
  5
20B
100
AcDbSymbolTableRecord
100
AcDbLayerTableRecord
  2
_30_VOLUMEN
 70
0
 62
7
  6
CONTINUOUS
370
-3
390
F
  0
ENDTAB
  0
TABLE
  2
STYLE
  5
3
100
AcDbSymbolTable
 70
1
  0
STYLE
  5
11
100
AcDbSymbolTableRecord
100
AcDbTextStyleTableRecord
  2
STANDARD
 70
0
 40
0.0
 41
1.0
 50
0.0
 71
0
 42
0.2
  3
isonormlt-regular.ttf
  4

1001
ACAD
1000
Isonorm LT Regular
1071
34
  0
STYLE
  5
20C
100
AcDbSymbolTableRecord
100
AcDbTextStyleTableRecord
  2
TEXTSTYLE_1
 70
0
 40
0.0
 41
0.8
 50
0.0
 71
0
 42
0.2
  3
gdt
  4

  0
ENDTAB
  0
TABLE
  2
VIEW
  5
6
100
AcDbSymbolTable
 70
0
  0
ENDTAB
  0
TABLE
  2
UCS
  5
7
100
AcDbSymbolTable
 70
0
  0
ENDTAB
  0
TABLE
  2
APPID
  5
9
100
AcDbSymbolTable
 70
1
  0
APPID
  5
20D
100
AcDbSymbolTableRecord
100
AcDbRegAppTableRecord
  2
ACAD
 70
0
  0
ENDTAB
  0
TABLE
  2
BLOCK_RECORD
  5
1
100
AcDbSymbolTable
 70
0
  0
BLOCK_RECORD
  5
20E
100
AcDbSymbolTableRecord
100
AcDbBlockTableRecord
  2
*Model_Space
  0
BLOCK_RECORD
  5
20F
100
AcDbSymbolTableRecord
100
AcDbBlockTableRecord
  2
*Paper_Space
  0
BLOCK_RECORD
  5
210
100
AcDbSymbolTableRecord
100
AcDbBlockTableRecord
  2
_FILLED
  0
ENDTAB
  0
TABLE
  2
DIMSTYLE
  5
A
100
AcDbSymbolTable
 70
1
100
AcDbDimStyleTable
 71
0
  0
DIMSTYLE
105
211
100
AcDbSymbolTableRecord
100
AcDbDimStyleTableRecord
  2
STANDARD
 70
0
  3

  4

 40
1.0
 41
3.5
 42
0.0
 43
0.38
 44
1.5
 45
0.0
 46
0.0
 47
0.01
 48
0.01
140
3.5
141
0.09
142
0.0
143
25.4
144
1.0
145
0.0
146
1.0
147
0.625
 71
1
 72
0
 73
0
 74
0
 75
0
 76
0
 77
1
 78
8
 79
2
170
0
171
1
172
0
173
0
174
0
175
0
176
0
177
0
178
5
270
2
179
2
271
2
272
2
273
2
274
2
275
0
280
0
281
0
282
0
283
1
284
8
285
0
286
0
287
3
288
0
340
11
278
46
341
210
342
210
343
210
344
210
  0
ENDTAB
  0
ENDSEC
  0
SECTION
  2
BLOCKS
  0
BLOCK
  5
20
100
AcDbEntity
  8
0
100
AcDbBlockBegin
  2
*Model_Space
 70
0
 10
0.0
 20
0.0
 30
0.0
  3
*Model_Space
  1

  0
ENDBLK
  5
21
100
AcDbEntity
  8
0
100
AcDbBlockEnd
  0
BLOCK
  5
1C
100
AcDbEntity
  8
0
100
AcDbBlockBegin
  2
*Paper_Space
 70
0
 10
0.0
 20
0.0
 30
0.0
  3
*Paper_Space
  1

  0
ENDBLK
  5
1D
100
AcDbEntity
  8
0
100
AcDbBlockEnd
  0
BLOCK
  5
212
100
AcDbEntity
  8
0
100
AcDbBlockBegin
  2
_FILLED
 70
64
 10
0.0
 20
0.0
  3
_FILLED
  1

  0
SOLID
  5
213
100
AcDbEntity
  8
0
  6
BYBLOCK
 62
0
100
AcDbTrace
 10
0.0
 20
0.0
 11
-1.0
 21
0.125
 12
-1.0
 22
-0.125
 13
-1.0
 23
-0.125
  0
ENDBLK
  5
214
100
AcDbEntity
  8
0
  6
BYBLOCK
 62
0
100
AcDbBlockEnd
  0
ENDSEC
  0
SECTION
  2
ENTITIES
  0
MTEXT
  5
215
100
AcDbEntity
  8
_04_NOTIZEN
100
AcDbMText
 62
5
  6
CONTINUOUS
  7
STANDARD
 71
1
 72
1
 10
195.2709194129
 20
138.8364805986
 30
0.0
 11
1.0
 21
0.0
 31
0.0
 73
2
 44
0.9
  1
1-2 Pers
 40
3.5
 41
16.1
  0
MTEXT
  5
216
100
AcDbEntity
  8
_04_NOTIZEN
100
AcDbMText
 62
5
  6
CONTINUOUS
  7
STANDARD
 71
1
 72
1
 10
201.2169924888
 20
144.684323385
 30
0.0
 11
0.0
 21
1.0
 31
0.0
 73
2
 44
0.9
  1
RUD PSA INOX-STAR M16
 40
3.5
 41
49.378
  0
MTEXT
  5
217
100
AcDbEntity
  8
_04_NOTIZEN
100
AcDbMText
 62
5
  6
CONTINUOUS
  7
STANDARD
 71
2
 72
1
 10
93.766307371
 20
42.1861446373
 30
0.0
 11
1.0
 21
0.0
 31
0.0
 73
2
 44
0.9
  1
RUD PSA INOX-STAR M16\P1-2 Pers
 40
3.5
 41
49.378
  0
LINE
  5
218
100
AcDbEntity
  8
0
100
AcDbLine
 62
7
  6
CONTINUOUS
 10
0.0
 20
0.0
 11
0.0
 21
210.0
  0
LINE
  5
219
100
AcDbEntity
  8
0
100
AcDbLine
 62
7
  6
CONTINUOUS
 10
0.0
 20
0.0
 11
297.0
 21
0.0
  0
LINE
  5
21A
100
AcDbEntity
  8
0
100
AcDbLine
 62
7
  6
CONTINUOUS
 10
0.0
 20
210.0
 11
297.0
 21
210.0
  0
LINE
  5
21B
100
AcDbEntity
  8
0
100
AcDbLine
 62
7
  6
CONTINUOUS
 10
297.0
 20
0.0
 11
297.0
 21
210.0
  0
LINE
  5
21C
100
AcDbEntity
  8
0
100
AcDbLine
 62
7
  6
CONTINUOUS
 10
99.1717656493
 20
80.8880422291
 11
86.1717656493
 21
80.8880422291
  0
LINE
  5
21D
100
AcDbEntity
  8
0
100
AcDbLine
 62
7
  6
CONTINUOUS
 10
100.6717656493
 20
82.3880422291
 11
84.6717656493
 21
82.3880422291
  0
LINE
  5
21E
100
AcDbEntity
  8
_30_VOLUMEN
100
AcDbLine
 62
7
  6
CONTINUOUS
 10
73.5373163405
 20
179.4759907629
 11
73.3099839141
 21
179.2985209633
  0
LINE
  5
21F
100
AcDbEntity
  8
_30_VOLUMEN
100
AcDbLine
 62
7
  6
CONTINUOUS
 10
77.4752234038
 20
183.254306848
 11
77.1182666421
 21
182.9802968408
  0
LINE
  5
220
100
AcDbEntity
  8
_30_VOLUMEN
100
AcDbLine
 62
7
  6
CONTINUOUS
 10
75.4004612533
 20
181.424432081
 11
75.154452178
 21
181.2739159798
  0
LINE
  5
221
100
AcDbEntity
  8
_30_VOLUMEN
100
AcDbLine
 62
7
  6
CONTINUOUS
 10
76.3314937872
 20
180.549195373
 11
76.0854847119
 21
180.3986792718
  0
LINE
  5
222
100
AcDbEntity
  8
_30_VOLUMEN
100
AcDbLine
 62
7
  6
CONTINUOUS
 10
73.592760562
 20
179.1402253622
 11
73.7489360004
 21
179.230558278
  0
LINE
  5
223
100
AcDbEntity
  8
_30_VOLUMEN
100
AcDbLine
 62
7
  6
CONTINUOUS
 10
76.3527059922
 20
180.1243337689
 11
76.5584202595
 21
180.2356014405
  0
LINE
  5
224
100
AcDbEntity
  8
_30_VOLUMEN
100
AcDbLine
 62
7
  6
CONTINUOUS
 10
75.9052237993
 20
179.7775764177
 11
76.110938989
 21
179.8888449876
  0
LINE
  5
225
100
AcDbEntity
  8
_30_VOLUMEN
100
AcDbLine
 62
7
  6
CONTINUOUS
 10
75.4619682663
 20
181.0388189066
 11
75.627388648
 21
181.1108390468
  0
LINE
  5
226
100
AcDbEntity
  8
_30_VOLUMEN
100
AcDbLine
 62
7
  6
CONTINUOUS
 10
75.8437177086
 20
180.1631904905
 11
75.678297327
 21
180.0911703502
  0
LINE
  5
227
100
AcDbEntity
  8
0
100
AcDbLine
 62
7
  6
CONTINUOUS
 10
86.1717656493
 20
80.8880422291
 11
84.6717656493
 21
82.3880422291
  0
LINE
  5
228
100
AcDbEntity
  8
_30_VOLUMEN
100
AcDbLine
 62
7
  6
CONTINUOUS
 10
70.1663723897
 20
174.4064667656
 11
69.9874925963
 21
174.1802413394
  0
LINE
  5
229
100
AcDbEntity
  8
_30_VOLUMEN
100
AcDbLine
 62
7
  6
CONTINUOUS
 10
73.3099839141
 20
179.2985209633
 11
72.4560968012
 21
178.2528743699
  0
LINE
  5
22A
100
AcDbEntity
  8
_30_VOLUMEN
100
AcDbLine
 62
7
  6
CONTINUOUS
 10
72.9167663261
 20
178.3124214766
 11
73.592760562
 21
179.1402253622
  0
LINE
  5
22B
100
AcDbEntity
  8
_30_VOLUMEN
100
AcDbLine
 62
7
  6
CONTINUOUS
 10
74.3343539408
 20
178.5346316242
 11
73.6583597049
 21
177.7068277386
  0
LINE
  5
22C
100
AcDbEntity
  8
_30_VOLUMEN
100
AcDbLine
 62
7
  6
CONTINUOUS
 10
73.9549970011
 20
177.4645902886
 11
74.5954123357
 21
178.2488252337
  0
LINE
  5
22D
100
AcDbEntity
  8
_30_VOLUMEN
100
AcDbLine
 62
7
  6
CONTINUOUS
 10
70.3330274191
 20
174.0150797404
 11
70.4876489148
 21
174.1905543462
  0
LINE
  5
22E
100
AcDbEntity
  8
_30_VOLUMEN
100
AcDbLine
 62
7
  6
CONTINUOUS
 10
75.154452178
 20
181.2739159798
 11
74.9529799827
 21
181.0776756281
  0
LINE
  5
22F
100
AcDbEntity
  8
_30_VOLUMEN
100
AcDbLine
 62
7
  6
CONTINUOUS
 10
75.2202012631
 20
180.8033301253
 11
75.4619682663
 21
181.0388189066
  0
LINE
  5
230
100
AcDbEntity
  8
_30_VOLUMEN
100
AcDbLine
 62
7
  6
CONTINUOUS
 10
75.9264196698
 20
181.0456864356
 11
76.168186673
 21
181.281175217
  0
LINE
  5
231
100
AcDbEntity
  8
_30_VOLUMEN
100
AcDbLine
 62
7
  6
CONTINUOUS
 10
76.0854847119
 20
180.3986792718
 11
75.8437177086
 21
180.1631904905
  0
LINE
  5
232
100
AcDbEntity
  8
_30_VOLUMEN
100
AcDbLine
 62
7
  6
CONTINUOUS
 10
76.110938989
 20
179.8888449876
 11
76.3527059922
 21
180.1243337689
  0
LINE
  5
233
100
AcDbEntity
  8
_30_VOLUMEN
100
AcDbLine
 62
7
  6
CONTINUOUS
 10
76.064288779
 20
179.130569318
 11
75.8225217758
 21
178.8950805366
  0
LINE
  5
234
100
AcDbEntity
  8
_30_VOLUMEN
100
AcDbLine
 62
7
  6
CONTINUOUS
 10
77.0207592866
 20
179.4384699157
 11
76.6984026674
 21
179.124484275
  0
LINE
  5
235
100
AcDbEntity
  8
_30_VOLUMEN
100
AcDbLine
 62
7
  6
CONTINUOUS
 10
76.965623979
 20
178.8501387401
 11
77.2879805981
 21
179.1641243808
  0
LINE
  5
236
100
AcDbEntity
  8
_30_VOLUMEN
100
AcDbLine
 62
7
  6
CONTINUOUS
 10
78.9031891195
 20
181.8559643742
 11
78.1000356399
 21
181.2394412698
  0
LINE
  5
237
100
AcDbEntity
  8
_30_VOLUMEN
100
AcDbLine
 62
7
  6
CONTINUOUS
 10
78.2108834835
 20
181.0026616808
 11
79.1032758982
 21
181.687687091
  0
LINE
  5
238
100
AcDbEntity
  8
_30_VOLUMEN
100
AcDbLine
 62
7
  6
CONTINUOUS
 10
78.2310872215
 20
180.0525620286
 11
78.4988050481
 21
180.25806973
  0
LINE
  5
239
100
AcDbEntity
  8
_30_VOLUMEN
100
AcDbLine
 62
7
  6
CONTINUOUS
 10
79.7481552457
 20
181.2171059314
 11
80.0158730722
 21
181.4226136328
  0
LINE
  5
23A
100
AcDbEntity
  8
_30_VOLUMEN
100
AcDbLine
 62
7
  6
CONTINUOUS
 10
68.4256212665
 20
169.2100281116
 11
68.1903895266
 21
169.0312568295
  0
LINE
  5
23B
100
AcDbEntity
  8
_30_VOLUMEN
100
AcDbLine
 62
7
  6
CONTINUOUS
 10
70.3785830225
 20
174.5544144383
 11
70.1663723897
 21
174.4064667656
  0
LINE
  5
23C
100
AcDbEntity
  8
_30_VOLUMEN
100
AcDbLine
 62
7
  6
CONTINUOUS
 10
76.7196148997
 20
178.6996226429
 11
76.965623979
 21
178.8501387401
  0
LINE
  5
23D
100
AcDbEntity
  8
_30_VOLUMEN
100
AcDbLine
 62
7
  6
CONTINUOUS
 10
76.6984026674
 20
179.124484275
 11
76.4926884001
 21
179.0132166034
  0
LINE
  5
23E
100
AcDbEntity
  8
_30_VOLUMEN
100
AcDbLine
 62
7
  6
CONTINUOUS
 10
70.4876489148
 20
174.1905543462
 11
70.6756015273
 21
174.2877517793
  0
LINE
  5
23F
100
AcDbEntity
  8
_30_VOLUMEN
100
AcDbLine
 62
7
  6
CONTINUOUS
 10
68.1903895266
 20
169.0312568295
 11
68.0678092941
 21
168.770201433
  0
LINE
  5
240
100
AcDbEntity
  8
_30_VOLUMEN
100
AcDbLine
 62
7
  6
CONTINUOUS
 10
69.9874925963
 20
174.1802413394
 11
69.4052978902
 21
172.9622309437
  0
LINE
  5
241
100
AcDbEntity
  8
_30_VOLUMEN
100
AcDbLine
 62
7
  6
CONTINUOUS
 10
69.8963813896
 20
173.1015719435
 11
70.3330274191
 21
174.0150797404
  0
LINE
  5
242
100
AcDbEntity
  8
_30_VOLUMEN
100
AcDbLine
 62
7
  6
CONTINUOUS
 10
74.9529799827
 20
181.0776756281
 11
74.8363385532
 21
180.8749585573
  0
LINE
  5
243
100
AcDbEntity
  8
_30_VOLUMEN
100
AcDbLine
 62
7
  6
CONTINUOUS
 10
77.2879805981
 20
179.1641243808
 11
77.4449159094
 21
179.406088987
  0
LINE
  5
244
100
AcDbEntity
  8
_30_VOLUMEN
100
AcDbLine
 62
7
  6
CONTINUOUS
 10
68.3916000352
 20
168.7567987603
 11
68.4900877268
 21
168.9079641593
  0
LINE
  5
245
100
AcDbEntity
  8
_30_VOLUMEN
100
AcDbLine
 62
7
  6
CONTINUOUS
 10
71.2206042602
 20
170.3069103668
 11
71.0873874777
 21
170.1146802103
  0
LINE
  5
246
100
AcDbEntity
  8
_30_VOLUMEN
100
AcDbLine
 62
7
  6
CONTINUOUS
 10
74.7797558977
 20
176.3553474523
 11
74.993227676
 21
176.6167591007
  0
LINE
  5
247
100
AcDbEntity
  8
_30_VOLUMEN
100
AcDbLine
 62
7
  6
CONTINUOUS
 10
71.2379354802
 20
169.7659326715
 11
71.4315465001
 21
169.9375041977
  0
LINE
  5
248
100
AcDbEntity
  8
_30_VOLUMEN
100
AcDbLine
 62
7
  6
CONTINUOUS
 10
71.0873874777
 20
170.1146802103
 11
70.9119821498
 21
169.9963311168
  0
LINE
  5
249
100
AcDbEntity
  8
_30_VOLUMEN
100
AcDbLine
 62
7
  6
CONTINUOUS
 10
68.4900877268
 20
168.9079641593
 11
68.6388780628
 21
168.9905151196
  0
LINE
  5
24A
100
AcDbEntity
  8
_30_VOLUMEN
100
AcDbLine
 62
7
  6
CONTINUOUS
 10
70.9235363246
 20
169.6356793103
 11
71.2379354802
 21
169.7659326715
  0
LINE
  5
24B
100
AcDbEntity
  8
_30_VOLUMEN
100
AcDbLine
 62
7
  6
CONTINUOUS
 10
68.7111556509
 20
169.3201849549
 11
68.4256212665
 21
169.2100281116
  0
LINE
  5
24C
100
AcDbEntity
  8
_30_VOLUMEN
100
AcDbLine
 62
7
  6
CONTINUOUS
 10
109.0020762073
 20
181.3452057279
 11
109.2155171046
 21
181.4065852409
  0
LINE
  5
24D
100
AcDbEntity
  8
_30_VOLUMEN
100
AcDbLine
 62
7
  6
CONTINUOUS
 10
109.051574657
 20
179.2735567548
 11
108.8381338828
 21
179.2121773715
  0
LINE
  5
24E
100
AcDbEntity
  8
_30_VOLUMEN
100
AcDbLine
 62
7
  6
CONTINUOUS
 10
68.0678092941
 20
168.770201433
 11
67.7786989418
 21
167.4515220921
  0
LINE
  5
24F
100
AcDbEntity
  8
_30_VOLUMEN
100
AcDbLine
 62
7
  6
CONTINUOUS
 10
69.1085588976
 20
172.2183732192
 11
68.9993247956
 21
171.8990392859
  0
LINE
  5
250
100
AcDbEntity
  8
_30_VOLUMEN
100
AcDbLine
 62
7
  6
CONTINUOUS
 10
68.5623883875
 20
170.6217035527
 11
68.4531542334
 21
170.3023694672
  0
LINE
  5
251
100
AcDbEntity
  8
_30_VOLUMEN
100
AcDbLine
 62
7
  6
CONTINUOUS
 10
71.2934270296
 20
170.5197997571
 11
71.2206042602
 21
170.3069103668
  0
LINE
  5
252
100
AcDbEntity
  8
_30_VOLUMEN
100
AcDbLine
 62
7
  6
CONTINUOUS
 10
75.1438546415
 20
180.6398614841
 11
75.2202012631
 21
180.8033301253
  0
LINE
  5
253
100
AcDbEntity
  8
_30_VOLUMEN
100
AcDbLine
 62
7
  6
CONTINUOUS
 10
72.3486475014
 20
173.0516369442
 11
71.9120014719
 21
172.1381291474
  0
LINE
  5
254
100
AcDbEntity
  8
_30_VOLUMEN
100
AcDbLine
 62
7
  6
CONTINUOUS
 10
72.1119876585
 20
171.6684649301
 11
72.6941823646
 21
172.8864753259
  0
LINE
  5
255
100
AcDbEntity
  8
_30_VOLUMEN
100
AcDbLine
 62
7
  6
CONTINUOUS
 10
74.5954123357
 20
178.2488252337
 11
74.7238656635
 21
178.50704085
  0
LINE
  5
256
100
AcDbEntity
  8
_30_VOLUMEN
100
AcDbLine
 62
7
  6
CONTINUOUS
 10
77.1373997938
 20
179.6411860882
 11
77.0207592866
 21
179.4384699157
  0
LINE
  5
257
100
AcDbEntity
  8
_30_VOLUMEN
100
AcDbLine
 62
7
  6
CONTINUOUS
 10
71.4315465001
 20
169.9375041977
 11
71.5829690063
 21
170.1829567761
  0
LINE
  5
258
100
AcDbEntity
  8
_30_VOLUMEN
100
AcDbLine
 62
7
  6
CONTINUOUS
 10
109.0587035383
 20
181.7315663457
 11
108.8013074014
 21
181.6239034139
  0
LINE
  5
259
100
AcDbEntity
  8
_30_VOLUMEN
100
AcDbLine
 62
7
  6
CONTINUOUS
 10
108.9949474184
 20
178.8871962343
 11
109.2523438193
 21
178.9948589768
  0
LINE
  5
25A
100
AcDbEntity
  8
_30_VOLUMEN
100
AcDbLine
 62
7
  6
CONTINUOUS
 10
72.3880907228
 20
173.2821654164
 11
72.3486475014
 21
173.0516369442
  0
LINE
  5
25B
100
AcDbEntity
  8
_30_VOLUMEN
100
AcDbLine
 62
7
  6
CONTINUOUS
 10
68.1627210177
 20
167.7128443344
 11
68.3916000352
 21
168.7567987603
  0
LINE
  5
25C
100
AcDbEntity
  8
_30_VOLUMEN
100
AcDbLine
 62
7
  6
CONTINUOUS
 10
69.3268336735
 20
168.5517559434
 11
69.097954656
 21
167.5078015175
  0
LINE
  5
25D
100
AcDbEntity
  8
_30_VOLUMEN
100
AcDbLine
 62
7
  6
CONTINUOUS
 10
69.4720480415
 20
167.4257844061
 11
69.6768345353
 21
168.359848913
  0
LINE
  5
25E
100
AcDbEntity
  8
_30_VOLUMEN
100
AcDbLine
 62
7
  6
CONTINUOUS
 10
70.7090974772
 20
166.8090546425
 11
70.7813750653
 21
167.1387244777
  0
LINE
  5
25F
100
AcDbEntity
  8
_30_VOLUMEN
100
AcDbLine
 62
7
  6
CONTINUOUS
 10
71.0825316708
 20
168.5123487388
 11
71.1668555465
 21
168.8969636513
  0
LINE
  5
260
100
AcDbEntity
  8
_30_VOLUMEN
100
AcDbLine
 62
7
  6
CONTINUOUS
 10
72.6941823646
 20
172.8864753259
 11
72.7578838788
 21
173.1677546208
  0
LINE
  5
261
100
AcDbEntity
  8
_30_VOLUMEN
100
AcDbLine
 62
7
  6
CONTINUOUS
 10
74.8363385532
 20
180.8749585573
 11
74.7642340038
 21
180.626517236
  0
LINE
  5
262
100
AcDbEntity
  8
_30_VOLUMEN
100
AcDbLine
 62
7
  6
CONTINUOUS
 10
77.4449159094
 20
179.406088987
 11
77.5170204472
 21
179.6545303203
  0
LINE
  5
263
100
AcDbEntity
  8
_30_VOLUMEN
100
AcDbLine
 62
7
  6
CONTINUOUS
 10
74.3916502805
 20
178.7057103567
 11
74.3343539408
 21
178.5346316242
  0
LINE
  5
264
100
AcDbEntity
  8
_30_VOLUMEN
100
AcDbLine
 62
7
  6
CONTINUOUS
 10
71.5829690063
 20
170.1829567761
 11
71.6557917757
 21
170.3958461665
  0
LINE
  5
265
100
AcDbEntity
  8
_30_VOLUMEN
100
AcDbLine
 62
7
  6
CONTINUOUS
 10
108.7854672968
 20
181.1988072759
 11
109.0020762073
 21
181.3452057279
  0
LINE
  5
266
100
AcDbEntity
  8
_30_VOLUMEN
100
AcDbLine
 62
7
  6
CONTINUOUS
 10
113.8344598054
 20
176.0496752897
 11
113.5846810746
 21
175.9724582173
  0
LINE
  5
267
100
AcDbEntity
  8
_30_VOLUMEN
100
AcDbLine
 62
7
  6
CONTINUOUS
 10
70.6717656493
 20
131.0880422291
 11
70.6717656493
 21
133.0880422291
  0
LINE
  5
268
100
AcDbEntity
  8
_30_VOLUMEN
100
AcDbLine
 62
7
  6
CONTINUOUS
 10
71.3058556817
 20
170.7533480769
 11
71.2934270296
 21
170.5197997571
  0
LINE
  5
269
100
AcDbEntity
  8
_30_VOLUMEN
100
AcDbLine
 62
7
  6
CONTINUOUS
 10
71.6557917757
 20
170.3958461665
 11
71.6864260367
 21
170.6826166072
  0
LINE
  5
26A
100
AcDbEntity
  8
_30_VOLUMEN
100
AcDbLine
 62
7
  6
CONTINUOUS
 10
75.1120449
 20
180.4306685924
 11
75.1438546415
 21
180.6398614841
  0
LINE
  5
26B
100
AcDbEntity
  8
_30_VOLUMEN
100
AcDbLine
 62
7
  6
CONTINUOUS
 10
77.1692095042
 20
179.8503790119
 11
77.1373997938
 21
179.6411860882
  0
LINE
  5
26C
100
AcDbEntity
  8
_30_VOLUMEN
100
AcDbLine
 62
7
  6
CONTINUOUS
 10
108.8013074014
 20
181.6239034139
 11
108.5407430052
 21
181.4312212838
  0
LINE
  5
26D
100
AcDbEntity
  8
_30_VOLUMEN
100
AcDbLine
 62
7
  6
CONTINUOUS
 10
109.2523438193
 20
178.9948589768
 11
109.5129078591
 21
179.1875411989
  0
LINE
  5
26E
100
AcDbEntity
  8
_30_VOLUMEN
100
AcDbLine
 62
7
  6
CONTINUOUS
 10
109.2681835674
 20
179.4199552068
 11
109.051574657
 21
179.2735567548
  0
LINE
  5
26F
100
AcDbEntity
  8
_30_VOLUMEN
100
AcDbLine
 62
7
  6
CONTINUOUS
 10
113.5846810746
 20
175.9724582173
 11
113.3626888918
 21
175.8463336187
  0
LINE
  5
270
100
AcDbEntity
  8
_30_VOLUMEN
100
AcDbLine
 62
7
  6
CONTINUOUS
 10
113.5849077554
 20
175.5844190002
 11
113.6959037691
 21
175.6474812553
  0
LINE
  5
271
100
AcDbEntity
  8
_30_VOLUMEN
100
AcDbLine
 62
7
  6
CONTINUOUS
 10
115.4945709586
 20
173.9427317187
 11
115.2008198413
 21
173.8179667387
  0
LINE
  5
272
100
AcDbEntity
  8
_30_VOLUMEN
100
AcDbLine
 62
7
  6
CONTINUOUS
 10
115.5526572948
 20
172.9895880941
 11
113.0851475802
 21
171.9415621218
  0
LINE
  5
273
100
AcDbEntity
  8
_30_VOLUMEN
100
AcDbLine
 62
7
  6
CONTINUOUS
 10
113.2170865623
 20
171.6309202782
 11
115.6845962769
 21
172.6789462505
  0
LINE
  5
274
100
AcDbEntity
  8
_30_VOLUMEN
100
AcDbLine
 62
7
  6
CONTINUOUS
 10
116.0364332271
 20
171.8505687909
 11
116.3301843444
 21
171.975333771
  0
LINE
  5
275
100
AcDbEntity
  8
_30_VOLUMEN
100
AcDbLine
 62
7
  6
CONTINUOUS
 10
72.7578838788
 20
173.1677546208
 11
72.7397379478
 21
173.4258100334
  0
LINE
  5
276
100
AcDbEntity
  8
_30_VOLUMEN
100
AcDbLine
 62
7
  6
CONTINUOUS
 10
74.7238656635
 20
178.50704085
 11
74.7178618057
 21
178.8024343396
  0
LINE
  5
277
100
AcDbEntity
  8
_30_VOLUMEN
100
AcDbLine
 62
7
  6
CONTINUOUS
 10
75.1717656493
 20
163.0880422291
 11
75.171786438
 21
150.5171113042
  0
LINE
  5
278
100
AcDbEntity
  8
_30_VOLUMEN
100
AcDbLine
 62
7
  6
CONTINUOUS
 10
108.5407430052
 20
181.4312212838
 11
107.8814125034
 21
180.736967992
  0
LINE
  5
279
100
AcDbEntity
  8
_30_VOLUMEN
100
AcDbLine
 62
7
  6
CONTINUOUS
 10
108.1261367951
 20
180.5045539841
 11
108.7854672968
 21
181.1988072759
  0
LINE
  5
27A
100
AcDbEntity
  8
_30_VOLUMEN
100
AcDbLine
 62
7
  6
CONTINUOUS
 10
111.9534961983
 20
176.7954745624
 11
111.6903367152
 21
176.6149111035
  0
LINE
  5
27B
100
AcDbEntity
  8
_30_VOLUMEN
100
AcDbLine
 62
7
  6
CONTINUOUS
 10
112.1358767356
 20
175.9655655373
 11
112.3990362187
 21
176.1461289962
  0
LINE
  5
27C
100
AcDbEntity
  8
_30_VOLUMEN
100
AcDbLine
 62
7
  6
CONTINUOUS
 10
113.1972535749
 20
173.9408905512
 11
113.0307595544
 21
173.8462971686
  0
LINE
  5
27D
100
AcDbEntity
  8
_30_VOLUMEN
100
AcDbLine
 62
7
  6
CONTINUOUS
 10
113.1419824044
 20
173.5213202949
 11
113.4194724386
 21
173.6789759327
  0
LINE
  5
27E
100
AcDbEntity
  8
_30_VOLUMEN
100
AcDbLine
 62
7
  6
CONTINUOUS
 10
69.3006235699
 20
168.7302603795
 11
69.3268336735
 21
168.5517559434
  0
LINE
  5
27F
100
AcDbEntity
  8
_30_VOLUMEN
100
AcDbLine
 62
7
  6
CONTINUOUS
 10
74.7642340038
 20
180.626517236
 11
74.7812041367
 21
180.286628312
  0
LINE
  5
280
100
AcDbEntity
  8
_30_VOLUMEN
100
AcDbLine
 62
7
  6
CONTINUOUS
 10
77.5170204472
 20
179.6545303203
 11
77.5000502987
 21
179.9944192603
  0
LINE
  5
281
100
AcDbEntity
  8
_30_VOLUMEN
100
AcDbLine
 62
7
  6
CONTINUOUS
 10
105.9387624501
 20
184.5724033425
 11
104.3454973274
 21
182.0304540414
  0
LINE
  5
282
100
AcDbEntity
  8
_30_VOLUMEN
100
AcDbLine
 62
7
  6
CONTINUOUS
 10
104.6314666238
 20
181.8512117151
 11
106.2247317465
 21
184.3931610162
  0
LINE
  5
283
100
AcDbEntity
  8
_30_VOLUMEN
100
AcDbLine
 62
7
  6
CONTINUOUS
 10
106.8120644529
 20
184.037507014
 11
105.0246790293
 21
181.6280976782
  0
LINE
  5
284
100
AcDbEntity
  8
_30_VOLUMEN
100
AcDbLine
 62
7
  6
CONTINUOUS
 10
105.2957375796
 20
181.4270168181
 11
106.8549461678
 21
183.52884202
  0
LINE
  5
285
100
AcDbEntity
  8
_30_VOLUMEN
100
AcDbLine
 62
7
  6
CONTINUOUS
 10
108.348062926
 20
182.8980487905
 11
106.826883837
 21
180.8474876468
  0
LINE
  5
286
100
AcDbEntity
  8
_30_VOLUMEN
100
AcDbLine
 62
7
  6
CONTINUOUS
 10
106.8317360527
 20
180.2875585945
 11
108.6191214763
 21
182.6969679303
  0
LINE
  5
287
100
AcDbEntity
  8
_30_VOLUMEN
100
AcDbLine
 62
7
  6
CONTINUOUS
 10
109.9275140692
 20
180.1142084986
 11
109.2681835674
 21
179.4199552068
  0
LINE
  5
288
100
AcDbEntity
  8
_30_VOLUMEN
100
AcDbLine
 62
7
  6
CONTINUOUS
 10
109.5129078591
 20
179.1875411989
 11
110.1722383609
 21
179.8817944908
  0
LINE
  5
289
100
AcDbEntity
  8
_30_VOLUMEN
100
AcDbLine
 62
7
  6
CONTINUOUS
 10
112.2248662558
 20
175.3939650242
 11
112.0306609319
 21
175.2189330762
  0
LINE
  5
28A
100
AcDbEntity
  8
_30_VOLUMEN
100
AcDbLine
 62
7
  6
CONTINUOUS
 10
113.3626888918
 20
175.8463336187
 11
113.1684835679
 21
175.6713016708
  0
LINE
  5
28B
100
AcDbEntity
  8
_30_VOLUMEN
100
AcDbLine
 62
7
  6
CONTINUOUS
 10
114.3517621907
 20
168.2169674576
 11
116.9814178418
 21
169.9184108484
  0
LINE
  5
28C
100
AcDbEntity
  8
_30_VOLUMEN
100
AcDbLine
 62
7
  6
CONTINUOUS
 10
114.9303148091
 20
168.9708725973
 11
114.2575772329
 21
168.5410591788
  0
LINE
  5
28D
100
AcDbEntity
  8
_30_VOLUMEN
100
AcDbLine
 62
7
  6
CONTINUOUS
 10
116.6734520092
 20
170.0632213845
 11
115.1597929372
 21
169.0961393197
  0
LINE
  5
28E
100
AcDbEntity
  8
_30_VOLUMEN
100
AcDbLine
 62
7
  6
CONTINUOUS
 10
114.7977037367
 20
165.6663342714
 11
116.163435695
 21
166.4054818692
  0
LINE
  5
28F
100
AcDbEntity
  8
_30_VOLUMEN
100
AcDbLine
 62
7
  6
CONTINUOUS
 10
115.9823863211
 20
166.7176105883
 11
114.7334171009
 21
166.0548012956
  0
LINE
  5
290
100
AcDbEntity
  8
_30_VOLUMEN
100
AcDbLine
 62
7
  6
CONTINUOUS
 10
117.1801925629
 20
166.5167274709
 11
117.000456313
 21
166.4299691094
  0
LINE
  5
291
100
AcDbEntity
  8
_30_VOLUMEN
100
AcDbLine
 62
7
  6
CONTINUOUS
 10
117.0555590836
 20
166.0969977373
 11
117.2352953336
 21
166.1837560988
  0
LINE
  5
292
100
AcDbEntity
  8
_30_VOLUMEN
100
AcDbLine
 62
7
  6
CONTINUOUS
 10
69.6244143455
 20
168.716857864
 11
69.5479015976
 21
168.9639767389
  0
LINE
  5
293
100
AcDbEntity
  8
_30_VOLUMEN
100
AcDbLine
 62
7
  6
CONTINUOUS
 10
72.3456867464
 20
173.4894706015
 11
72.3880907228
 21
173.2821654164
  0
LINE
  5
294
100
AcDbEntity
  8
_30_VOLUMEN
100
AcDbLine
 62
7
  6
CONTINUOUS
 10
71.6864260367
 20
170.6826166072
 11
71.6384605557
 21
170.9368238618
  0
LINE
  5
295
100
AcDbEntity
  8
0
100
AcDbLine
 62
7
  6
CONTINUOUS
 10
81.6717656493
 20
130.8880422291
 11
81.6717656493
 21
131.0880422291
  0
LINE
  5
296
100
AcDbEntity
  8
_30_VOLUMEN
100
AcDbLine
 62
7
  6
CONTINUOUS
 10
107.9911028041
 20
180.2806840484
 11
108.1261367951
 21
180.5045539841
  0
LINE
  5
297
100
AcDbEntity
  8
_30_VOLUMEN
100
AcDbLine
 62
7
  6
CONTINUOUS
 10
107.8814125034
 20
180.736967992
 11
107.7024231497
 21
180.4668145078
  0
LINE
  5
298
100
AcDbEntity
  8
_30_VOLUMEN
100
AcDbLine
 62
7
  6
CONTINUOUS
 10
110.1722383609
 20
179.8817944908
 11
110.3512280711
 21
180.151947883
  0
LINE
  5
299
100
AcDbEntity
  8
_30_VOLUMEN
100
AcDbLine
 62
7
  6
CONTINUOUS
 10
112.2528797956
 20
174.9570184576
 11
112.3915871126
 21
175.1005192781
  0
LINE
  5
29A
100
AcDbEntity
  8
_30_VOLUMEN
100
AcDbLine
 62
7
  6
CONTINUOUS
 10
113.4462004384
 20
175.4409181798
 11
113.5849077554
 21
175.5844190002
  0
LINE
  5
29B
100
AcDbEntity
  8
_30_VOLUMEN
100
AcDbLine
 62
7
  6
CONTINUOUS
 10
114.44607238
 20
174.4563214893
 11
114.5847793791
 21
174.5998228694
  0
LINE
  5
29C
100
AcDbEntity
  8
_30_VOLUMEN
100
AcDbLine
 62
7
  6
CONTINUOUS
 10
71.2396844558
 20
170.9543329167
 11
71.3058556817
 21
170.7533480769
  0
LINE
  5
29D
100
AcDbEntity
  8
_30_VOLUMEN
100
AcDbLine
 62
7
  6
CONTINUOUS
 10
74.3639281698
 20
178.873593057
 11
74.3916502805
 21
178.7057103567
  0
LINE
  5
29E
100
AcDbEntity
  8
_30_VOLUMEN
100
AcDbLine
 62
7
  6
CONTINUOUS
 10
84.6717656493
 20
141.1944253143
 11
84.6717656493
 21
140.1731484827
  0
LINE
  5
29F
100
AcDbEntity
  8
0
100
AcDbLine
 62
7
  6
CONTINUOUS
 10
84.6717656493
 20
82.3880422291
 11
84.6717656493
 21
130.8880422291
  0
LINE
  5
2A0
100
AcDbEntity
  8
_30_VOLUMEN
100
AcDbLine
 62
7
  6
CONTINUOUS
 10
85.2342656493
 20
141.0667657551
 11
85.2342656493
 21
136.0880422291
  0
LINE
  5
2A1
100
AcDbEntity
  8
_30_VOLUMEN
100
AcDbLine
 62
7
  6
CONTINUOUS
 10
85.7967656493
 20
136.0880422291
 11
85.7967656493
 21
142.0880422291
  0
LINE
  5
2A2
100
AcDbEntity
  8
_30_VOLUMEN
100
AcDbLine
 62
7
  6
CONTINUOUS
 10
86.5467656046
 20
138.8965528902
 11
86.5467656046
 21
138.2582549151
  0
LINE
  5
2A3
100
AcDbEntity
  8
_30_VOLUMEN
100
AcDbLine
 62
7
  6
CONTINUOUS
 10
87.8592655599
 20
138.2582549151
 11
87.8592655599
 21
138.8965528902
  0
LINE
  5
2A4
100
AcDbEntity
  8
_30_VOLUMEN
100
AcDbLine
 62
7
  6
CONTINUOUS
 10
88.6092656493
 20
136.7263401147
 11
88.6092656493
 21
136.0880422291
  0
LINE
  5
2A5
100
AcDbEntity
  8
_30_VOLUMEN
100
AcDbLine
 62
7
  6
CONTINUOUS
 10
88.7967657387
 20
141.1944253143
 11
88.7030155599
 21
140.6837870773
  0
LINE
  5
2A6
100
AcDbEntity
  8
_30_VOLUMEN
100
AcDbLine
 62
7
  6
CONTINUOUS
 10
89.1717656493
 20
140.6837870773
 11
89.3592654705
 21
141.0667657551
  0
LINE
  5
2A7
100
AcDbEntity
  8
_30_VOLUMEN
100
AcDbLine
 62
7
  6
CONTINUOUS
 10
110.0625480602
 20
180.3380784344
 11
109.9275140692
 21
180.1142084986
  0
LINE
  5
2A8
100
AcDbEntity
  8
_30_VOLUMEN
100
AcDbLine
 62
7
  6
CONTINUOUS
 10
85.2342656493
 20
142.0880422291
 11
84.6717656493
 21
141.1944253143
  0
LINE
  5
2A9
100
AcDbEntity
  8
_30_VOLUMEN
100
AcDbLine
 62
7
  6
CONTINUOUS
 10
84.6717656493
 20
140.1731484827
 11
85.2342656493
 21
141.0667657551
  0
LINE
  5
2AA
100
AcDbEntity
  8
_30_VOLUMEN
100
AcDbLine
 62
7
  6
CONTINUOUS
 10
89.1717656493
 20
141.7050635513
 11
88.7967657387
 21
141.1944253143
  0
LINE
  5
2AB
100
AcDbEntity
  8
_30_VOLUMEN
100
AcDbLine
 62
7
  6
CONTINUOUS
 10
113.4194724386
 20
173.6789759327
 11
113.5858905007
 21
173.902916482
  0
LINE
  5
2AC
100
AcDbEntity
  8
_30_VOLUMEN
100
AcDbLine
 62
7
  6
CONTINUOUS
 10
114.3625605154
 20
174.861737488
 11
114.2793515232
 21
174.7497672354
  0
LINE
  5
2AD
100
AcDbEntity
  8
_30_VOLUMEN
100
AcDbLine
 62
7
  6
CONTINUOUS
 10
89.3592654705
 20
141.0667657551
 11
89.6405154705
 21
141.3220848736
  0
LINE
  5
2AE
100
AcDbEntity
  8
_30_VOLUMEN
100
AcDbLine
 62
7
  6
CONTINUOUS
 10
89.5467658281
 20
141.9603826698
 11
89.1717656493
 21
141.7050635513
  0
LINE
  5
2AF
100
AcDbEntity
  8
0
100
AcDbLine
 62
7
  6
CONTINUOUS
 10
103.6717656493
 20
130.8880422291
 11
81.6717656493
 21
130.8880422291
  0
LINE
  5
2B0
100
AcDbEntity
  8
_30_VOLUMEN
100
AcDbLine
 62
7
  6
CONTINUOUS
 10
114.6717656493
 20
131.0880422291
 11
70.6717656493
 21
131.0880422291
  0
LINE
  5
2B1
100
AcDbEntity
  8
_30_VOLUMEN
100
AcDbLine
 62
7
  6
CONTINUOUS
 10
72.7397379478
 20
173.4258100334
 11
72.6064137376
 21
173.7389193148
  0
LINE
  5
2B2
100
AcDbEntity
  8
_30_VOLUMEN
100
AcDbLine
 62
7
  6
CONTINUOUS
 10
74.7178618057
 20
178.8024343396
 11
74.6268394974
 21
179.0946317971
  0
LINE
  5
2B3
100
AcDbEntity
  8
_30_VOLUMEN
100
AcDbLine
 62
7
  6
CONTINUOUS
 10
77.1161884799
 20
180.0660486226
 11
77.1692095042
 21
179.8503790119
  0
LINE
  5
2B4
100
AcDbEntity
  8
_30_VOLUMEN
100
AcDbLine
 62
7
  6
CONTINUOUS
 10
91.4217656493
 20
140.6837870773
 11
91.4217656493
 21
140.4284676012
  0
LINE
  5
2B5
100
AcDbEntity
  8
_30_VOLUMEN
100
AcDbLine
 62
7
  6
CONTINUOUS
 10
91.9842656493
 20
136.0880422291
 11
91.9842656493
 21
136.7263401147
  0
LINE
  5
2B6
100
AcDbEntity
  8
_30_VOLUMEN
100
AcDbLine
 62
7
  6
CONTINUOUS
 10
91.9842656493
 20
140.4284676012
 11
91.9842656493
 21
140.6837870773
  0
LINE
  5
2B7
100
AcDbEntity
  8
_30_VOLUMEN
100
AcDbLine
 62
7
  6
CONTINUOUS
 10
93.1717656493
 20
141.3380422291
 11
93.1717656493
 21
136.8380422291
  0
LINE
  5
2B8
100
AcDbEntity
  8
_30_VOLUMEN
100
AcDbLine
 62
7
  6
CONTINUOUS
 10
91.8905154705
 20
139.9178293642
 11
91.9842656493
 21
140.4284676012
  0
LINE
  5
2B9
100
AcDbEntity
  8
_30_VOLUMEN
100
AcDbLine
 62
7
  6
CONTINUOUS
 10
107.7024231497
 20
180.4668145078
 11
107.6081763543
 21
180.2042090194
  0
LINE
  5
2BA
100
AcDbEntity
  8
_30_VOLUMEN
100
AcDbLine
 62
7
  6
CONTINUOUS
 10
91.4217656493
 20
140.4284676012
 11
91.2342658281
 21
139.9178293642
  0
LINE
  5
2BB
100
AcDbEntity
  8
_30_VOLUMEN
100
AcDbLine
 62
7
  6
CONTINUOUS
 10
91.7030156493
 20
139.5348506864
 11
91.8905154705
 21
139.9178293642
  0
LINE
  5
2BC
100
AcDbEntity
  8
_30_VOLUMEN
100
AcDbLine
 62
7
  6
CONTINUOUS
 10
113.3081736302
 20
174.133299973
 11
113.1972535749
 21
173.9408905512
  0
LINE
  5
2BD
100
AcDbEntity
  8
_30_VOLUMEN
100
AcDbLine
 62
7
  6
CONTINUOUS
 10
112.0306609319
 20
175.2189330762
 11
111.8365312679
 21
174.9145545322
  0
LINE
  5
2BE
100
AcDbEntity
  8
_30_VOLUMEN
100
AcDbLine
 62
7
  6
CONTINUOUS
 10
91.2342658281
 20
139.9178293642
 11
88.6092656493
 21
136.7263401147
  0
LINE
  5
2BF
100
AcDbEntity
  8
_30_VOLUMEN
100
AcDbLine
 62
7
  6
CONTINUOUS
 10
89.3592654705
 20
136.7263401147
 11
91.7030156493
 21
139.5348506864
  0
LINE
  5
2C0
100
AcDbEntity
  8
_30_VOLUMEN
100
AcDbLine
 62
7
  6
CONTINUOUS
 10
117.2352953336
 20
166.1837560988
 11
117.4596371548
 21
166.391927091
  0
LINE
  5
2C1
100
AcDbEntity
  8
_30_VOLUMEN
100
AcDbLine
 62
7
  6
CONTINUOUS
 10
95.1405155823
 20
139.5188932415
 11
94.9295780823
 21
139.4231485721
  0
LINE
  5
2C2
100
AcDbEntity
  8
_30_VOLUMEN
100
AcDbLine
 62
7
  6
CONTINUOUS
 10
100.4139528811
 20
139.9018719193
 11
100.0623909175
 21
139.8061272498
  0
LINE
  5
2C3
100
AcDbEntity
  8
_30_VOLUMEN
100
AcDbLine
 62
7
  6
CONTINUOUS
 10
94.8592656493
 20
138.8486805555
 11
95.2108282164
 21
138.9444252249
  0
LINE
  5
2C4
100
AcDbEntity
  8
_30_VOLUMEN
100
AcDbLine
 62
7
  6
CONTINUOUS
 10
102.3827034175
 20
136.8380422291
 11
102.8045784175
 21
136.9337869069
  0
LINE
  5
2C5
100
AcDbEntity
  8
_30_VOLUMEN
100
AcDbLine
 62
7
  6
CONTINUOUS
 10
99.9920778811
 20
139.3274039027
 11
100.4139528811
 21
139.4231485721
  0
LINE
  5
2C6
100
AcDbEntity
  8
_30_VOLUMEN
100
AcDbLine
 62
7
  6
CONTINUOUS
 10
101.8202031493
 20
139.9018719193
 11
101.3983281493
 21
139.8061272498
  0
LINE
  5
2C7
100
AcDbEntity
  8
_30_VOLUMEN
100
AcDbLine
 62
7
  6
CONTINUOUS
 10
97.5311405152
 20
139.9018719193
 11
97.1092655152
 21
139.8061272498
  0
LINE
  5
2C8
100
AcDbEntity
  8
_30_VOLUMEN
100
AcDbLine
 62
7
  6
CONTINUOUS
 10
97.5311405152
 20
136.8380422291
 11
98.0233281493
 21
136.9337869069
  0
LINE
  5
2C9
100
AcDbEntity
  8
_30_VOLUMEN
100
AcDbLine
 62
7
  6
CONTINUOUS
 10
97.9530155152
 20
137.3167656433
 11
97.4608282834
 21
137.2210209403
  0
LINE
  5
2CA
100
AcDbEntity
  8
_30_VOLUMEN
100
AcDbLine
 62
7
  6
CONTINUOUS
 10
68.623087336
 20
136.0880422291
 11
68.9077679364
 21
136.0880422291
  0
LINE
  5
2CB
100
AcDbEntity
  8
_30_VOLUMEN
100
AcDbLine
 62
7
  6
CONTINUOUS
 10
85.2342656493
 20
136.0880422291
 11
85.7967656493
 21
136.0880422291
  0
LINE
  5
2CC
100
AcDbEntity
  8
_30_VOLUMEN
100
AcDbLine
 62
7
  6
CONTINUOUS
 10
88.6092656493
 20
136.0880422291
 11
91.9842656493
 21
136.0880422291
  0
LINE
  5
2CD
100
AcDbEntity
  8
_30_VOLUMEN
100
AcDbLine
 62
7
  6
CONTINUOUS
 10
116.4357634014
 20
136.0880422291
 11
116.7204430193
 21
136.0880422291
  0
LINE
  5
2CE
100
AcDbEntity
  8
_30_VOLUMEN
100
AcDbLine
 62
7
  6
CONTINUOUS
 10
91.9842656493
 20
136.7263401147
 11
89.3592654705
 21
136.7263401147
  0
LINE
  5
2CF
100
AcDbEntity
  8
_30_VOLUMEN
100
AcDbLine
 62
7
  6
CONTINUOUS
 10
93.1717656493
 20
136.8380422291
 11
93.5936406493
 21
136.8380422291
  0
LINE
  5
2D0
100
AcDbEntity
  8
_30_VOLUMEN
100
AcDbLine
 62
7
  6
CONTINUOUS
 10
99.1483282834
 20
136.8380422291
 11
99.4998906493
 21
136.8380422291
  0
LINE
  5
2D1
100
AcDbEntity
  8
_30_VOLUMEN
100
AcDbLine
 62
7
  6
CONTINUOUS
 10
101.9608284175
 20
136.8380422291
 11
102.3827034175
 21
136.8380422291
  0
LINE
  5
2D2
100
AcDbEntity
  8
_30_VOLUMEN
100
AcDbLine
 62
7
  6
CONTINUOUS
 10
102.3827034175
 20
137.2210209403
 11
101.9608284175
 21
137.2210209403
  0
LINE
  5
2D3
100
AcDbEntity
  8
_30_VOLUMEN
100
AcDbLine
 62
7
  6
CONTINUOUS
 10
101.3280159175
 20
137.6039996516
 11
100.9764531493
 21
137.6039996516
  0
LINE
  5
2D4
100
AcDbEntity
  8
_30_VOLUMEN
100
AcDbLine
 62
7
  6
CONTINUOUS
 10
98.5858280152
 20
137.7954890576
 11
98.2342656493
 21
137.7954890576
  0
LINE
  5
2D5
100
AcDbEntity
  8
_30_VOLUMEN
100
AcDbLine
 62
7
  6
CONTINUOUS
 10
86.5467656046
 20
138.2582549151
 11
87.8592655599
 21
138.2582549151
  0
LINE
  5
2D6
100
AcDbEntity
  8
_30_VOLUMEN
100
AcDbLine
 62
7
  6
CONTINUOUS
 10
96.6873905152
 20
138.3699570742
 11
98.5858280152
 21
138.3699570742
  0
LINE
  5
2D7
100
AcDbEntity
  8
_30_VOLUMEN
100
AcDbLine
 62
7
  6
CONTINUOUS
 10
98.2342656493
 20
138.752935886
 11
96.7577031493
 21
138.752935886
  0
LINE
  5
2D8
100
AcDbEntity
  8
_30_VOLUMEN
100
AcDbLine
 62
7
  6
CONTINUOUS
 10
93.5936406493
 20
138.8486805555
 11
94.8592656493
 21
138.8486805555
  0
LINE
  5
2D9
100
AcDbEntity
  8
_30_VOLUMEN
100
AcDbLine
 62
7
  6
CONTINUOUS
 10
87.8592655599
 20
138.8965528902
 11
86.5467656046
 21
138.8965528902
  0
LINE
  5
2DA
100
AcDbEntity
  8
_30_VOLUMEN
100
AcDbLine
 62
7
  6
CONTINUOUS
 10
97.1092655152
 20
136.9337869069
 11
97.5311405152
 21
136.8380422291
  0
LINE
  5
2DB
100
AcDbEntity
  8
_30_VOLUMEN
100
AcDbLine
 62
7
  6
CONTINUOUS
 10
101.5389534175
 20
136.9337869069
 11
101.9608284175
 21
136.8380422291
  0
LINE
  5
2DC
100
AcDbEntity
  8
_30_VOLUMEN
100
AcDbLine
 62
7
  6
CONTINUOUS
 10
97.4608282834
 20
137.2210209403
 11
97.1795781493
 21
137.3167656433
  0
LINE
  5
2DD
100
AcDbEntity
  8
_30_VOLUMEN
100
AcDbLine
 62
7
  6
CONTINUOUS
 10
96.8983280152
 20
137.0295315847
 11
97.1092655152
 21
136.9337869069
  0
LINE
  5
2DE
100
AcDbEntity
  8
_30_VOLUMEN
100
AcDbLine
 62
7
  6
CONTINUOUS
 10
69.2000183156
 20
168.8674894142
 11
69.3006235699
 21
168.7302603795
  0
LINE
  5
2DF
100
AcDbEntity
  8
_30_VOLUMEN
100
AcDbLine
 62
7
  6
CONTINUOUS
 10
71.6384605557
 20
170.9368238618
 11
71.4697068347
 21
171.2323489768
  0
LINE
  5
2E0
100
AcDbEntity
  8
_30_VOLUMEN
100
AcDbLine
 62
7
  6
CONTINUOUS
 10
91.2342658281
 20
141.0667657551
 11
91.4217656493
 21
140.6837870773
  0
LINE
  5
2E1
100
AcDbEntity
  8
_30_VOLUMEN
100
AcDbLine
 62
7
  6
CONTINUOUS
 10
77.5000502987
 20
179.9944192603
 11
77.4024923632
 21
180.2558131535
  0
LINE
  5
2E2
100
AcDbEntity
  8
_30_VOLUMEN
100
AcDbLine
 62
7
  6
CONTINUOUS
 10
91.9842656493
 20
140.6837870773
 11
91.8905154705
 21
141.1944253143
  0
LINE
  5
2E3
100
AcDbEntity
  8
_30_VOLUMEN
100
AcDbLine
 62
7
  6
CONTINUOUS
 10
93.5936406493
 20
136.8380422291
 11
93.5936406493
 21
138.8486805555
  0
LINE
  5
2E4
100
AcDbEntity
  8
_30_VOLUMEN
100
AcDbLine
 62
7
  6
CONTINUOUS
 10
93.5936406493
 20
139.4231485721
 11
93.5936406493
 21
140.8593188819
  0
LINE
  5
2E5
100
AcDbEntity
  8
_30_VOLUMEN
100
AcDbLine
 62
7
  6
CONTINUOUS
 10
95.3514530823
 20
140.2848508653
 11
95.3514530823
 21
139.9976165887
  0
LINE
  5
2E6
100
AcDbEntity
  8
_30_VOLUMEN
100
AcDbLine
 62
7
  6
CONTINUOUS
 10
95.7733280823
 20
139.9018719193
 11
95.7733280823
 21
140.2848508653
  0
LINE
  5
2E7
100
AcDbEntity
  8
_30_VOLUMEN
100
AcDbLine
 62
7
  6
CONTINUOUS
 10
96.6873905152
 20
138.1784677353
 11
96.6873905152
 21
138.3699570742
  0
LINE
  5
2E8
100
AcDbEntity
  8
_30_VOLUMEN
100
AcDbLine
 62
7
  6
CONTINUOUS
 10
96.7577031493
 20
138.752935886
 11
96.7577031493
 21
138.8486805555
  0
LINE
  5
2E9
100
AcDbEntity
  8
_30_VOLUMEN
100
AcDbLine
 62
7
  6
CONTINUOUS
 10
96.4061405823
 20
138.9444252249
 11
96.3358281493
 21
138.3699570742
  0
LINE
  5
2EA
100
AcDbEntity
  8
_30_VOLUMEN
100
AcDbLine
 62
7
  6
CONTINUOUS
 10
95.3514530823
 20
139.9976165887
 11
95.2811406493
 21
139.7103825804
  0
LINE
  5
2EB
100
AcDbEntity
  8
_30_VOLUMEN
100
AcDbLine
 62
7
  6
CONTINUOUS
 10
95.7030156493
 20
139.614637911
 11
95.7733280823
 21
139.9018719193
  0
LINE
  5
2EC
100
AcDbEntity
  8
_30_VOLUMEN
100
AcDbLine
 62
7
  6
CONTINUOUS
 10
110.5501627871
 20
176.3805604457
 11
111.1232237674
 21
178.0930962309
  0
LINE
  5
2ED
100
AcDbEntity
  8
_30_VOLUMEN
100
AcDbLine
 62
7
  6
CONTINUOUS
 10
110.3512280711
 20
180.151947883
 11
110.4454746023
 21
180.4145535605
  0
LINE
  5
2EE
100
AcDbEntity
  8
_30_VOLUMEN
100
AcDbLine
 62
7
  6
CONTINUOUS
 10
96.5467656493
 20
139.3274039027
 11
96.4061405823
 21
138.9444252249
  0
LINE
  5
2EF
100
AcDbEntity
  8
_30_VOLUMEN
100
AcDbLine
 62
7
  6
CONTINUOUS
 10
96.7577031493
 20
138.8486805555
 11
96.8280157834
 21
139.0401698943
  0
LINE
  5
2F0
100
AcDbEntity
  8
_30_VOLUMEN
100
AcDbLine
 62
7
  6
CONTINUOUS
 10
114.5847793791
 20
174.5998228694
 11
114.723410978
 21
174.8726702527
  0
LINE
  5
2F1
100
AcDbEntity
  8
_30_VOLUMEN
100
AcDbLine
 62
7
  6
CONTINUOUS
 10
95.4920781493
 20
139.2316592332
 11
95.7030156493
 21
139.614637911
  0
LINE
  5
2F2
100
AcDbEntity
  8
_30_VOLUMEN
100
AcDbLine
 62
7
  6
CONTINUOUS
 10
95.2811406493
 20
139.7103825804
 11
95.1405155823
 21
139.5188932415
  0
LINE
  5
2F3
100
AcDbEntity
  8
_30_VOLUMEN
100
AcDbLine
 62
7
  6
CONTINUOUS
 10
96.6873905152
 20
139.5188932415
 11
96.5467656493
 21
139.3274039027
  0
LINE
  5
2F4
100
AcDbEntity
  8
_30_VOLUMEN
100
AcDbLine
 62
7
  6
CONTINUOUS
 10
96.8280157834
 20
139.0401698943
 11
97.0389532834
 21
139.3274039027
  0
LINE
  5
2F5
100
AcDbEntity
  8
_30_VOLUMEN
100
AcDbLine
 62
7
  6
CONTINUOUS
 10
117.2877714359
 20
166.6485614282
 11
117.1801925629
 21
166.5167274709
  0
LINE
  5
2F6
100
AcDbEntity
  8
_30_VOLUMEN
100
AcDbLine
 62
7
  6
CONTINUOUS
 10
95.2108282164
 20
138.9444252249
 11
95.4920781493
 21
139.2316592332
  0
LINE
  5
2F7
100
AcDbEntity
  8
_30_VOLUMEN
100
AcDbLine
 62
7
  6
CONTINUOUS
 10
96.8983280152
 20
139.7103825804
 11
96.6873905152
 21
139.5188932415
  0
LINE
  5
2F8
100
AcDbEntity
  8
_30_VOLUMEN
100
AcDbLine
 62
7
  6
CONTINUOUS
 10
99.8514530152
 20
139.7103825804
 11
99.6405155152
 21
139.5188932415
  0
LINE
  5
2F9
100
AcDbEntity
  8
_30_VOLUMEN
100
AcDbLine
 62
7
  6
CONTINUOUS
 10
98.1639530152
 20
137.5082549822
 11
97.9530155152
 21
137.3167656433
  0
LINE
  5
2FA
100
AcDbEntity
  8
_30_VOLUMEN
100
AcDbLine
 62
7
  6
CONTINUOUS
 10
97.0389532834
 20
139.3274039027
 11
97.1795781493
 21
139.4231485721
  0
LINE
  5
2FB
100
AcDbEntity
  8
_30_VOLUMEN
100
AcDbLine
 62
7
  6
CONTINUOUS
 10
99.7108281493
 20
139.1359145638
 11
99.9920778811
 21
139.3274039027
  0
LINE
  5
2FC
100
AcDbEntity
  8
_30_VOLUMEN
100
AcDbLine
 62
7
  6
CONTINUOUS
 10
101.3983281493
 20
139.8061272498
 11
101.1170784175
 21
139.614637911
  0
LINE
  5
2FD
100
AcDbEntity
  8
_30_VOLUMEN
100
AcDbLine
 62
7
  6
CONTINUOUS
 10
101.3983281493
 20
139.3274039027
 11
101.5389534175
 21
139.4231485721
  0
LINE
  5
2FE
100
AcDbEntity
  8
_30_VOLUMEN
100
AcDbLine
 62
7
  6
CONTINUOUS
 10
98.0233281493
 20
136.9337869069
 11
98.3045782834
 21
137.1252762709
  0
LINE
  5
2FF
100
AcDbEntity
  8
_30_VOLUMEN
100
AcDbLine
 62
7
  6
CONTINUOUS
 10
97.1092655152
 20
139.8061272498
 11
96.8983280152
 21
139.7103825804
  0
LINE
  5
300
100
AcDbEntity
  8
_30_VOLUMEN
100
AcDbLine
 62
7
  6
CONTINUOUS
 10
100.0623909175
 20
139.8061272498
 11
99.8514530152
 21
139.7103825804
  0
LINE
  5
301
100
AcDbEntity
  8
_30_VOLUMEN
100
AcDbLine
 62
7
  6
CONTINUOUS
 10
97.1795781493
 20
139.4231485721
 11
97.4608282834
 21
139.5188932415
  0
LINE
  5
302
100
AcDbEntity
  8
_30_VOLUMEN
100
AcDbLine
 62
7
  6
CONTINUOUS
 10
101.5389534175
 20
139.4231485721
 11
101.8202031493
 21
139.5188932415
  0
LINE
  5
303
100
AcDbEntity
  8
_30_VOLUMEN
100
AcDbLine
 62
7
  6
CONTINUOUS
 10
102.6639531493
 20
137.3167656433
 11
102.3827034175
 21
137.2210209403
  0
LINE
  5
304
100
AcDbEntity
  8
_30_VOLUMEN
100
AcDbLine
 62
7
  6
CONTINUOUS
 10
89.6405154705
 20
141.3220848736
 11
90.1092658281
 21
141.4497444328
  0
LINE
  5
305
100
AcDbEntity
  8
_30_VOLUMEN
100
AcDbLine
 62
7
  6
CONTINUOUS
 10
90.2030154705
 20
142.0880422291
 11
89.5467658281
 21
141.9603826698
  0
LINE
  5
306
100
AcDbEntity
  8
_30_VOLUMEN
100
AcDbLine
 62
7
  6
CONTINUOUS
 10
102.8748906493
 20
139.1359145638
 11
103.2264534175
 21
139.1359145638
  0
LINE
  5
307
100
AcDbEntity
  8
_30_VOLUMEN
100
AcDbLine
 62
7
  6
CONTINUOUS
 10
94.9295780823
 20
139.4231485721
 11
93.5936406493
 21
139.4231485721
  0
LINE
  5
308
100
AcDbEntity
  8
_30_VOLUMEN
100
AcDbLine
 62
7
  6
CONTINUOUS
 10
101.8202031493
 20
139.5188932415
 11
102.2420781493
 21
139.5188932415
  0
LINE
  5
309
100
AcDbEntity
  8
_30_VOLUMEN
100
AcDbLine
 62
7
  6
CONTINUOUS
 10
102.2420781493
 20
139.9018719193
 11
101.8202031493
 21
139.9018719193
  0
LINE
  5
30A
100
AcDbEntity
  8
_30_VOLUMEN
100
AcDbLine
 62
7
  6
CONTINUOUS
 10
99.4998906493
 20
139.9018719193
 11
99.1483282834
 21
139.9018719193
  0
LINE
  5
30B
100
AcDbEntity
  8
_30_VOLUMEN
100
AcDbLine
 62
7
  6
CONTINUOUS
 10
88.7030155599
 20
140.6837870773
 11
89.1717656493
 21
140.6837870773
  0
LINE
  5
30C
100
AcDbEntity
  8
_30_VOLUMEN
100
AcDbLine
 62
7
  6
CONTINUOUS
 10
93.5936406493
 20
140.8593188819
 11
94.9295780823
 21
140.8593188819
  0
LINE
  5
30D
100
AcDbEntity
  8
_30_VOLUMEN
100
AcDbLine
 62
7
  6
CONTINUOUS
 10
94.8592656493
 20
141.3380422291
 11
93.1717656493
 21
141.3380422291
  0
LINE
  5
30E
100
AcDbEntity
  8
_30_VOLUMEN
100
AcDbLine
 62
7
  6
CONTINUOUS
 10
90.1092658281
 20
141.4497444328
 11
90.4842654705
 21
141.4497444328
  0
LINE
  5
30F
100
AcDbEntity
  8
_30_VOLUMEN
100
AcDbLine
 62
7
  6
CONTINUOUS
 10
90.5780156493
 20
142.0880422291
 11
90.2030154705
 21
142.0880422291
  0
LINE
  5
310
100
AcDbEntity
  8
_30_VOLUMEN
100
AcDbLine
 62
7
  6
CONTINUOUS
 10
85.7967656493
 20
142.0880422291
 11
85.2342656493
 21
142.0880422291
  0
LINE
  5
311
100
AcDbEntity
  8
_30_VOLUMEN
100
AcDbLine
 62
7
  6
CONTINUOUS
 10
101.9608284175
 20
137.2210209403
 11
101.5389534175
 21
137.3167656433
  0
LINE
  5
312
100
AcDbEntity
  8
_30_VOLUMEN
100
AcDbLine
 62
7
  6
CONTINUOUS
 10
97.4608282834
 20
139.5188932415
 11
97.8827032834
 21
139.4231485721
  0
LINE
  5
313
100
AcDbEntity
  8
_30_VOLUMEN
100
AcDbLine
 62
7
  6
CONTINUOUS
 10
97.9530155152
 20
139.8061272498
 11
97.5311405152
 21
139.9018719193
  0
LINE
  5
314
100
AcDbEntity
  8
_30_VOLUMEN
100
AcDbLine
 62
7
  6
CONTINUOUS
 10
91.1405156493
 20
141.9603826698
 11
90.5780156493
 21
142.0880422291
  0
LINE
  5
315
100
AcDbEntity
  8
_30_VOLUMEN
100
AcDbLine
 62
7
  6
CONTINUOUS
 10
102.2420781493
 20
139.5188932415
 11
102.6639531493
 21
139.4231485721
  0
LINE
  5
316
100
AcDbEntity
  8
_30_VOLUMEN
100
AcDbLine
 62
7
  6
CONTINUOUS
 10
102.6639531493
 20
139.8061272498
 11
102.2420781493
 21
139.9018719193
  0
LINE
  5
317
100
AcDbEntity
  8
_30_VOLUMEN
100
AcDbLine
 62
7
  6
CONTINUOUS
 10
90.4842654705
 20
141.4497444328
 11
90.9530158281
 21
141.3220848736
  0
LINE
  5
318
100
AcDbEntity
  8
_30_VOLUMEN
100
AcDbLine
 62
7
  6
CONTINUOUS
 10
95.2108282164
 20
141.2422975596
 11
94.8592656493
 21
141.3380422291
  0
LINE
  5
319
100
AcDbEntity
  8
_30_VOLUMEN
100
AcDbLine
 62
7
  6
CONTINUOUS
 10
101.3983281493
 20
138.4657017436
 11
102.5936409175
 21
137.9869783964
  0
LINE
  5
31A
100
AcDbEntity
  8
_30_VOLUMEN
100
AcDbLine
 62
7
  6
CONTINUOUS
 10
102.8045784175
 20
138.2742124047
 11
101.6092656493
 21
138.752935886
  0
LINE
  5
31B
100
AcDbEntity
  8
_30_VOLUMEN
100
AcDbLine
 62
7
  6
CONTINUOUS
 10
101.3280159175
 20
137.0295315847
 11
101.5389534175
 21
136.9337869069
  0
LINE
  5
31C
100
AcDbEntity
  8
_30_VOLUMEN
100
AcDbLine
 62
7
  6
CONTINUOUS
 10
94.9295780823
 20
140.8593188819
 11
95.1405155823
 21
140.7635742124
  0
LINE
  5
31D
100
AcDbEntity
  8
_30_VOLUMEN
100
AcDbLine
 62
7
  6
CONTINUOUS
 10
97.1795781493
 20
137.3167656433
 11
97.0389532834
 21
137.4125103127
  0
LINE
  5
31E
100
AcDbEntity
  8
_30_VOLUMEN
100
AcDbLine
 62
7
  6
CONTINUOUS
 10
91.5155158281
 20
141.7050635513
 11
91.1405156493
 21
141.9603826698
  0
LINE
  5
31F
100
AcDbEntity
  8
_30_VOLUMEN
100
AcDbLine
 62
7
  6
CONTINUOUS
 10
101.5389534175
 20
137.3167656433
 11
101.3983281493
 21
137.4125103127
  0
LINE
  5
320
100
AcDbEntity
  8
_30_VOLUMEN
100
AcDbLine
 62
7
  6
CONTINUOUS
 10
98.3045782834
 20
139.5188932415
 11
97.9530155152
 21
139.8061272498
  0
LINE
  5
321
100
AcDbEntity
  8
_30_VOLUMEN
100
AcDbLine
 62
7
  6
CONTINUOUS
 10
90.9530158281
 20
141.3220848736
 11
91.2342658281
 21
141.0667657551
  0
LINE
  5
322
100
AcDbEntity
  8
_30_VOLUMEN
100
AcDbLine
 62
7
  6
CONTINUOUS
 10
96.6873905152
 20
137.2210209403
 11
96.8983280152
 21
137.0295315847
  0
LINE
  5
323
100
AcDbEntity
  8
_30_VOLUMEN
100
AcDbLine
 62
7
  6
CONTINUOUS
 10
97.8827032834
 20
139.4231485721
 11
98.0936407834
 21
139.2316592332
  0
LINE
  5
324
100
AcDbEntity
  8
_30_VOLUMEN
100
AcDbLine
 62
7
  6
CONTINUOUS
 10
101.1170784175
 20
137.2210209403
 11
101.3280159175
 21
137.0295315847
  0
LINE
  5
325
100
AcDbEntity
  8
_30_VOLUMEN
100
AcDbLine
 62
7
  6
CONTINUOUS
 10
95.4920781493
 20
140.9550635513
 11
95.2108282164
 21
141.2422975596
  0
LINE
  5
326
100
AcDbEntity
  8
_30_VOLUMEN
100
AcDbLine
 62
7
  6
CONTINUOUS
 10
69.5479015976
 20
168.9639767389
 11
69.3346448013
 21
169.1834897308
  0
LINE
  5
327
100
AcDbEntity
  8
_30_VOLUMEN
100
AcDbLine
 62
7
  6
CONTINUOUS
 10
71.0949134365
 20
171.1227542477
 11
71.2396844558
 21
170.9543329167
  0
LINE
  5
328
100
AcDbEntity
  8
_30_VOLUMEN
100
AcDbLine
 62
7
  6
CONTINUOUS
 10
91.8905154705
 20
141.1944253143
 11
91.5155158281
 21
141.7050635513
  0
LINE
  5
329
100
AcDbEntity
  8
_30_VOLUMEN
100
AcDbLine
 62
7
  6
CONTINUOUS
 10
96.5467656493
 20
137.4125103127
 11
96.6873905152
 21
137.2210209403
  0
LINE
  5
32A
100
AcDbEntity
  8
_30_VOLUMEN
100
AcDbLine
 62
7
  6
CONTINUOUS
 10
97.0389532834
 20
137.4125103127
 11
96.8280157834
 21
137.6997443881
  0
LINE
  5
32B
100
AcDbEntity
  8
_30_VOLUMEN
100
AcDbLine
 62
7
  6
CONTINUOUS
 10
95.1405155823
 20
140.7635742124
 11
95.2811406493
 21
140.5720848736
  0
LINE
  5
32C
100
AcDbEntity
  8
_30_VOLUMEN
100
AcDbLine
 62
7
  6
CONTINUOUS
 10
72.2214356531
 20
173.673552461
 11
72.3456867464
 21
173.4894706015
  0
LINE
  5
32D
100
AcDbEntity
  8
_30_VOLUMEN
100
AcDbLine
 62
7
  6
CONTINUOUS
 10
95.7030156493
 20
140.5720848736
 11
95.4920781493
 21
140.9550635513
  0
LINE
  5
32E
100
AcDbEntity
  8
_30_VOLUMEN
100
AcDbLine
 62
7
  6
CONTINUOUS
 10
75.205360857
 20
180.2542472833
 11
75.1120449
 21
180.4306685924
  0
LINE
  5
32F
100
AcDbEntity
  8
_30_VOLUMEN
100
AcDbLine
 62
7
  6
CONTINUOUS
 10
78.1000356399
 20
181.2394412698
 11
77.4522113128
 21
182.9147726243
  0
LINE
  5
330
100
AcDbEntity
  8
_30_VOLUMEN
100
AcDbLine
 62
7
  6
CONTINUOUS
 10
78.4988050481
 20
180.25806973
 11
78.2108834835
 21
181.0026616808
  0
LINE
  5
331
100
AcDbEntity
  8
_30_VOLUMEN
100
AcDbLine
 62
7
  6
CONTINUOUS
 10
77.1182666421
 20
182.9802968408
 11
78.2310872215
 21
180.0525620286
  0
LINE
  5
332
100
AcDbEntity
  8
_30_VOLUMEN
100
AcDbLine
 62
7
  6
CONTINUOUS
 10
96.4061405823
 20
137.7954890576
 11
96.5467656493
 21
137.4125103127
  0
LINE
  5
333
100
AcDbEntity
  8
_30_VOLUMEN
100
AcDbLine
 62
7
  6
CONTINUOUS
 10
96.8280157834
 20
137.6997443881
 11
96.7577031493
 21
137.891233727
  0
LINE
  5
334
100
AcDbEntity
  8
_30_VOLUMEN
100
AcDbLine
 62
7
  6
CONTINUOUS
 10
95.2811406493
 20
140.5720848736
 11
95.3514530823
 21
140.2848508653
  0
LINE
  5
335
100
AcDbEntity
  8
_30_VOLUMEN
100
AcDbLine
 62
7
  6
CONTINUOUS
 10
95.7733280823
 20
140.2848508653
 11
95.7030156493
 21
140.5720848736
  0
LINE
  5
336
100
AcDbEntity
  8
_30_VOLUMEN
100
AcDbLine
 62
7
  6
CONTINUOUS
 10
96.7577031493
 20
137.891233727
 11
96.6873905152
 21
138.1784677353
  0
LINE
  5
337
100
AcDbEntity
  8
_30_VOLUMEN
100
AcDbLine
 62
7
  6
CONTINUOUS
 10
96.3358281493
 20
138.3699570742
 11
96.4061405823
 21
137.7954890576
  0
LINE
  5
338
100
AcDbEntity
  8
_30_VOLUMEN
100
AcDbLine
 62
7
  6
CONTINUOUS
 10
98.2342656493
 20
138.9444252249
 11
98.2342656493
 21
138.752935886
  0
LINE
  5
339
100
AcDbEntity
  8
_30_VOLUMEN
100
AcDbLine
 62
7
  6
CONTINUOUS
 10
98.5858280152
 20
138.3699570742
 11
98.5858280152
 21
138.752935886
  0
LINE
  5
33A
100
AcDbEntity
  8
_30_VOLUMEN
100
AcDbLine
 62
7
  6
CONTINUOUS
 10
99.1483282834
 20
139.9018719193
 11
99.1483282834
 21
136.8380422291
  0
LINE
  5
33B
100
AcDbEntity
  8
_30_VOLUMEN
100
AcDbLine
 62
7
  6
CONTINUOUS
 10
99.4998906493
 20
136.8380422291
 11
99.4998906493
 21
138.752935886
  0
LINE
  5
33C
100
AcDbEntity
  8
_30_VOLUMEN
100
AcDbLine
 62
7
  6
CONTINUOUS
 10
99.4998906493
 20
139.3274039027
 11
99.4998906493
 21
139.9018719193
  0
LINE
  5
33D
100
AcDbEntity
  8
_30_VOLUMEN
100
AcDbLine
 62
7
  6
CONTINUOUS
 10
100.4139528811
 20
139.4231485721
 11
100.4139528811
 21
139.9018719193
  0
LINE
  5
33E
100
AcDbEntity
  8
0
100
AcDbLine
 62
7
  6
CONTINUOUS
 10
100.6717656493
 20
82.3880422291
 11
100.6717656493
 21
130.8880422291
  0
LINE
  5
33F
100
AcDbEntity
  8
_30_VOLUMEN
100
AcDbLine
 62
7
  6
CONTINUOUS
 10
100.9764531493
 20
139.3274039027
 11
100.9764531493
 21
139.1359145638
  0
LINE
  5
340
100
AcDbEntity
  8
_30_VOLUMEN
100
AcDbLine
 62
7
  6
CONTINUOUS
 10
106.826883837
 20
180.8474876468
 11
107.2186522783
 21
183.7358857238
  0
LINE
  5
341
100
AcDbEntity
  8
_30_VOLUMEN
100
AcDbLine
 62
7
  6
CONTINUOUS
 10
106.8549461678
 20
183.52884202
 11
106.4251482273
 21
180.5891798848
  0
LINE
  5
342
100
AcDbEntity
  8
_30_VOLUMEN
100
AcDbLine
 62
7
  6
CONTINUOUS
 10
98.5155157834
 20
137.4125103127
 11
98.5858280152
 21
137.7954890576
  0
LINE
  5
343
100
AcDbEntity
  8
_30_VOLUMEN
100
AcDbLine
 62
7
  6
CONTINUOUS
 10
107.9408114022
 20
180.0643621409
 11
107.9911028041
 21
180.2806840484
  0
LINE
  5
344
100
AcDbEntity
  8
_30_VOLUMEN
100
AcDbLine
 62
7
  6
CONTINUOUS
 10
110.1128395852
 20
180.5544004715
 11
110.0625480602
 21
180.3380784344
  0
LINE
  5
345
100
AcDbEntity
  8
_30_VOLUMEN
100
AcDbLine
 62
7
  6
CONTINUOUS
 10
98.2342656493
 20
137.7954890576
 11
98.1639530152
 21
137.5082549822
  0
LINE
  5
346
100
AcDbEntity
  8
_30_VOLUMEN
100
AcDbLine
 62
7
  6
CONTINUOUS
 10
111.4322595867
 20
180.0253381167
 11
110.9084329829
 21
178.3534251938
  0
LINE
  5
347
100
AcDbEntity
  8
_30_VOLUMEN
100
AcDbLine
 62
7
  6
CONTINUOUS
 10
110.7696544443
 20
178.0201488837
 11
110.3353720027
 21
176.6408894086
  0
LINE
  5
348
100
AcDbEntity
  8
_30_VOLUMEN
100
AcDbLine
 62
7
  6
CONTINUOUS
 10
111.2127675198
 20
178.3857501753
 11
111.6470503711
 21
179.7650091538
  0
LINE
  5
349
100
AcDbEntity
  8
_30_VOLUMEN
100
AcDbLine
 62
7
  6
CONTINUOUS
 10
112.1697461646
 20
174.7157021798
 11
112.2528797956
 21
174.9570184576
  0
LINE
  5
34A
100
AcDbEntity
  8
_30_VOLUMEN
100
AcDbLine
 62
7
  6
CONTINUOUS
 10
113.1684835679
 20
175.6713016708
 11
113.0576389904
 21
175.34954629
  0
LINE
  5
34B
100
AcDbEntity
  8
_30_VOLUMEN
100
AcDbLine
 62
7
  6
CONTINUOUS
 10
113.5858905007
 20
173.902916482
 11
113.6967357142
 21
174.2246707434
  0
LINE
  5
34C
100
AcDbEntity
  8
_30_VOLUMEN
100
AcDbLine
 62
7
  6
CONTINUOUS
 10
114.4179831221
 20
175.0226146186
 11
114.3625605154
 21
174.861737488
  0
LINE
  5
34D
100
AcDbEntity
  8
_30_VOLUMEN
100
AcDbLine
 62
7
  6
CONTINUOUS
 10
101.3280159175
 20
139.1359145638
 11
101.3983281493
 21
139.3274039027
  0
LINE
  5
34E
100
AcDbEntity
  8
_30_VOLUMEN
100
AcDbLine
 62
7
  6
CONTINUOUS
 10
101.1170784175
 20
139.614637911
 11
100.9764531493
 21
139.3274039027
  0
LINE
  5
34F
100
AcDbEntity
  8
_30_VOLUMEN
100
AcDbLine
 62
7
  6
CONTINUOUS
 10
99.4998906493
 20
138.752935886
 11
99.7108281493
 21
139.1359145638
  0
LINE
  5
350
100
AcDbEntity
  8
_30_VOLUMEN
100
AcDbLine
 62
7
  6
CONTINUOUS
 10
117.4596371548
 20
166.391927091
 11
117.6118218093
 21
166.6451724088
  0
LINE
  5
351
100
AcDbEntity
  8
_30_VOLUMEN
100
AcDbLine
 62
7
  6
CONTINUOUS
 10
99.6405155152
 20
139.5188932415
 11
99.4998906493
 21
139.3274039027
  0
LINE
  5
352
100
AcDbEntity
  8
_30_VOLUMEN
100
AcDbLine
 62
7
  6
CONTINUOUS
 10
98.3045782834
 20
137.1252762709
 11
98.5155157834
 21
137.4125103127
  0
LINE
  5
353
100
AcDbEntity
  8
_30_VOLUMEN
100
AcDbLine
 62
7
  6
CONTINUOUS
 10
102.8045784175
 20
137.4125103127
 11
102.6639531493
 21
137.3167656433
  0
LINE
  5
354
100
AcDbEntity
  8
_30_VOLUMEN
100
AcDbLine
 62
7
  6
CONTINUOUS
 10
102.8045784175
 20
136.9337869069
 11
103.0858281493
 21
137.1252762709
  0
LINE
  5
355
100
AcDbEntity
  8
_30_VOLUMEN
100
AcDbLine
 62
7
  6
CONTINUOUS
 10
102.8748906493
 20
139.7103825804
 11
102.6639531493
 21
139.8061272498
  0
LINE
  5
356
100
AcDbEntity
  8
_30_VOLUMEN
100
AcDbLine
 62
7
  6
CONTINUOUS
 10
102.6639531493
 20
139.4231485721
 11
102.8045784175
 21
139.3274039027
  0
LINE
  5
357
100
AcDbEntity
  8
_30_VOLUMEN
100
AcDbLine
 62
7
  6
CONTINUOUS
 10
101.6092656493
 20
138.752935886
 11
101.3983281493
 21
138.9444252249
  0
LINE
  5
358
100
AcDbEntity
  8
_30_VOLUMEN
100
AcDbLine
 62
7
  6
CONTINUOUS
 10
102.5936409175
 20
137.9869783964
 11
102.8045784175
 21
137.7954890576
  0
LINE
  5
359
100
AcDbEntity
  8
_30_VOLUMEN
100
AcDbLine
 62
7
  6
CONTINUOUS
 10
103.0858281493
 20
139.5188932415
 11
102.8748906493
 21
139.7103825804
  0
LINE
  5
35A
100
AcDbEntity
  8
_30_VOLUMEN
100
AcDbLine
 62
7
  6
CONTINUOUS
 10
101.1170784175
 20
138.752935886
 11
101.3983281493
 21
138.4657017436
  0
LINE
  5
35B
100
AcDbEntity
  8
_30_VOLUMEN
100
AcDbLine
 62
7
  6
CONTINUOUS
 10
103.0858281493
 20
137.9869783964
 11
102.8045784175
 21
138.2742124047
  0
LINE
  5
35C
100
AcDbEntity
  8
_30_VOLUMEN
100
AcDbLine
 62
7
  6
CONTINUOUS
 10
72.6064137376
 20
173.7389193148
 11
72.4245734667
 21
173.9505281267
  0
LINE
  5
35D
100
AcDbEntity
  8
_30_VOLUMEN
100
AcDbLine
 62
7
  6
CONTINUOUS
 10
74.2511884229
 20
179.0382807225
 11
74.3639281698
 21
178.873593057
  0
LINE
  5
35E
100
AcDbEntity
  8
_30_VOLUMEN
100
AcDbLine
 62
7
  6
CONTINUOUS
 10
74.6268394974
 20
179.0946317971
 11
74.5140997504
 21
179.2593194625
  0
LINE
  5
35F
100
AcDbEntity
  8
_30_VOLUMEN
100
AcDbLine
 62
7
  6
CONTINUOUS
 10
74.7812041367
 20
180.286628312
 11
74.9190568489
 21
180.0644828805
  0
LINE
  5
360
100
AcDbEntity
  8
_30_VOLUMEN
100
AcDbLine
 62
7
  6
CONTINUOUS
 10
98.5155157834
 20
139.1359145638
 11
98.3045782834
 21
139.5188932415
  0
LINE
  5
361
100
AcDbEntity
  8
_30_VOLUMEN
100
AcDbLine
 62
7
  6
CONTINUOUS
 10
98.0936407834
 20
139.2316592332
 11
98.2342656493
 21
138.9444252249
  0
LINE
  5
362
100
AcDbEntity
  8
_30_VOLUMEN
100
AcDbLine
 62
7
  6
CONTINUOUS
 10
100.9764531493
 20
137.6039996516
 11
101.1170784175
 21
137.2210209403
  0
LINE
  5
363
100
AcDbEntity
  8
_30_VOLUMEN
100
AcDbLine
 62
7
  6
CONTINUOUS
 10
101.3983281493
 20
137.4125103127
 11
101.3280159175
 21
137.6039996516
  0
LINE
  5
364
100
AcDbEntity
  8
_30_VOLUMEN
100
AcDbLine
 62
7
  6
CONTINUOUS
 10
100.9764531493
 20
139.1359145638
 11
101.1170784175
 21
138.752935886
  0
LINE
  5
365
100
AcDbEntity
  8
_30_VOLUMEN
100
AcDbLine
 62
7
  6
CONTINUOUS
 10
101.3983281493
 20
138.9444252249
 11
101.3280159175
 21
139.1359145638
  0
LINE
  5
366
100
AcDbEntity
  8
_30_VOLUMEN
100
AcDbLine
 62
7
  6
CONTINUOUS
 10
102.8045784175
 20
137.7954890576
 11
102.8748906493
 21
137.6039996516
  0
LINE
  5
367
100
AcDbEntity
  8
_30_VOLUMEN
100
AcDbLine
 62
7
  6
CONTINUOUS
 10
98.5858280152
 20
138.752935886
 11
98.5155157834
 21
139.1359145638
  0
LINE
  5
368
100
AcDbEntity
  8
_30_VOLUMEN
100
AcDbLine
 62
7
  6
CONTINUOUS
 10
103.2264534175
 20
137.4125103127
 11
103.2264534175
 21
137.6039996516
  0
LINE
  5
369
100
AcDbEntity
  8
0
100
AcDbLine
 62
7
  6
CONTINUOUS
 10
103.6717656493
 20
130.8880422291
 11
103.6717656493
 21
131.0880422291
  0
LINE
  5
36A
100
AcDbEntity
  8
_30_VOLUMEN
100
AcDbLine
 62
7
  6
CONTINUOUS
 10
107.6081763543
 20
180.2042090194
 11
107.5955044938
 21
179.8641320636
  0
LINE
  5
36B
100
AcDbEntity
  8
_30_VOLUMEN
100
AcDbLine
 62
7
  6
CONTINUOUS
 10
102.8748906493
 20
137.6039996516
 11
102.8045784175
 21
137.4125103127
  0
LINE
  5
36C
100
AcDbEntity
  8
_30_VOLUMEN
100
AcDbLine
 62
7
  6
CONTINUOUS
 10
103.0858281493
 20
137.1252762709
 11
103.2264534175
 21
137.4125103127
  0
LINE
  5
36D
100
AcDbEntity
  8
_30_VOLUMEN
100
AcDbLine
 62
7
  6
CONTINUOUS
 10
71.4697068347
 20
171.2323489768
 11
71.2645416558
 21
171.4214292517
  0
LINE
  5
36E
100
AcDbEntity
  8
_30_VOLUMEN
100
AcDbLine
 62
7
  6
CONTINUOUS
 10
103.2264534175
 20
137.6039996516
 11
103.0858281493
 21
137.9869783964
  0
LINE
  5
36F
100
AcDbEntity
  8
_30_VOLUMEN
100
AcDbLine
 62
7
  6
CONTINUOUS
 10
102.8045784175
 20
139.3274039027
 11
102.8748906493
 21
139.1359145638
  0
LINE
  5
370
100
AcDbEntity
  8
_30_VOLUMEN
100
AcDbLine
 62
7
  6
CONTINUOUS
 10
103.2264534175
 20
139.1359145638
 11
103.0858281493
 21
139.5188932415
  0
LINE
  5
371
100
AcDbEntity
  8
_30_VOLUMEN
100
AcDbLine
 62
7
  6
CONTINUOUS
 10
110.1717448607
 20
150.5171113042
 11
110.1717656493
 21
163.0880422291
  0
LINE
  5
372
100
AcDbEntity
  8
_30_VOLUMEN
100
AcDbLine
 62
7
  6
CONTINUOUS
 10
110.4454746023
 20
180.4145535605
 11
110.4581464474
 21
180.7546305002
  0
LINE
  5
373
100
AcDbEntity
  8
_30_VOLUMEN
100
AcDbLine
 62
7
  6
CONTINUOUS
 10
111.8365312679
 20
174.9145545322
 11
111.8089713861
 21
174.575422833
  0
LINE
  5
374
100
AcDbEntity
  8
_30_VOLUMEN
100
AcDbLine
 62
7
  6
CONTINUOUS
 10
113.4185651711
 20
175.2311324919
 11
113.4462004384
 21
175.4409181798
  0
LINE
  5
375
100
AcDbEntity
  8
_30_VOLUMEN
100
AcDbLine
 62
7
  6
CONTINUOUS
 10
113.3358092155
 20
174.3430851012
 11
113.3081736302
 21
174.133299973
  0
LINE
  5
376
100
AcDbEntity
  8
_30_VOLUMEN
100
AcDbLine
 62
7
  6
CONTINUOUS
 10
114.723410978
 20
174.8726702527
 11
114.7787575486
 21
175.1628945059
  0
LINE
  5
377
100
AcDbEntity
  8
_30_VOLUMEN
100
AcDbLine
 62
7
  6
CONTINUOUS
 10
69.0250178761
 20
168.96344289
 11
69.2000183156
 21
168.8674894142
  0
LINE
  5
378
100
AcDbEntity
  8
_30_VOLUMEN
100
AcDbLine
 62
7
  6
CONTINUOUS
 10
69.3346448013
 20
169.1834897308
 11
69.1596443618
 21
169.2794432067
  0
LINE
  5
379
100
AcDbEntity
  8
_30_VOLUMEN
100
AcDbLine
 62
7
  6
CONTINUOUS
 10
70.8715426857
 20
171.2586123889
 11
71.0949134365
 21
171.1227542477
  0
LINE
  5
37A
100
AcDbEntity
  8
_30_VOLUMEN
100
AcDbLine
 62
7
  6
CONTINUOUS
 10
72.4245734667
 20
173.9505281267
 11
72.1608858012
 21
174.1389130322
  0
LINE
  5
37B
100
AcDbEntity
  8
_30_VOLUMEN
100
AcDbLine
 62
7
  6
CONTINUOUS
 10
72.0153371247
 20
173.8344104332
 11
72.2214356531
 21
173.673552461
  0
LINE
  5
37C
100
AcDbEntity
  8
_30_VOLUMEN
100
AcDbLine
 62
7
  6
CONTINUOUS
 10
72.4560968012
 20
178.2528743699
 11
74.7797558977
 21
176.3553474523
  0
LINE
  5
37D
100
AcDbEntity
  8
_30_VOLUMEN
100
AcDbLine
 62
7
  6
CONTINUOUS
 10
74.9190568489
 20
180.0644828805
 11
75.0972044939
 21
179.8815857504
  0
LINE
  5
37E
100
AcDbEntity
  8
_30_VOLUMEN
100
AcDbLine
 62
7
  6
CONTINUOUS
 10
75.2944346171
 20
180.1627987823
 11
75.205360857
 21
180.2542472833
  0
LINE
  5
37F
100
AcDbEntity
  8
_30_VOLUMEN
100
AcDbLine
 62
7
  6
CONTINUOUS
 10
76.9825778397
 20
180.2032213741
 11
77.1161884799
 21
180.0660486226
  0
LINE
  5
380
100
AcDbEntity
  8
_30_VOLUMEN
100
AcDbLine
 62
7
  6
CONTINUOUS
 10
77.4024923632
 20
180.2558131535
 11
77.1798079629
 21
180.4844344059
  0
LINE
  5
381
100
AcDbEntity
  8
_30_VOLUMEN
100
AcDbLine
 62
7
  6
CONTINUOUS
 10
113.0576389904
 20
175.34954629
 11
113.0577901086
 21
175.0908537241
  0
LINE
  5
382
100
AcDbEntity
  8
_30_VOLUMEN
100
AcDbLine
 62
7
  6
CONTINUOUS
 10
113.6967357142
 20
174.2246707434
 11
113.696584278
 21
174.483363869
  0
LINE
  5
383
100
AcDbEntity
  8
_30_VOLUMEN
100
AcDbLine
 62
7
  6
CONTINUOUS
 10
114.6717656493
 20
131.0880422291
 11
114.6717656493
 21
133.0880422291
  0
LINE
  5
384
100
AcDbEntity
  8
_30_VOLUMEN
100
AcDbLine
 62
7
  6
CONTINUOUS
 10
117.3231933522
 20
166.8254684408
 11
117.2877714359
 21
166.6485614282
  0
LINE
  5
385
100
AcDbEntity
  8
_30_VOLUMEN
100
AcDbLine
 62
7
  6
CONTINUOUS
 10
68.4531542334
 20
170.3023694672
 11
70.3253721235
 21
169.6619425701
  0
LINE
  5
386
100
AcDbEntity
  8
_30_VOLUMEN
100
AcDbLine
 62
7
  6
CONTINUOUS
 10
70.4346062776
 20
169.9812766557
 11
68.5623883875
 21
170.6217035527
  0
LINE
  5
387
100
AcDbEntity
  8
_30_VOLUMEN
100
AcDbLine
 62
7
  6
CONTINUOUS
 10
69.4052978902
 20
172.9622309437
 11
72.1119876585
 21
171.6684649301
  0
LINE
  5
388
100
AcDbEntity
  8
_30_VOLUMEN
100
AcDbLine
 62
7
  6
CONTINUOUS
 10
71.9120014719
 20
172.1381291474
 11
69.8963813896
 21
173.1015719435
  0
LINE
  5
389
100
AcDbEntity
  8
_30_VOLUMEN
100
AcDbLine
 62
7
  6
CONTINUOUS
 10
71.2645416558
 20
171.4214292517
 11
70.9807767877
 21
171.5779463222
  0
LINE
  5
38A
100
AcDbEntity
  8
_30_VOLUMEN
100
AcDbLine
 62
7
  6
CONTINUOUS
 10
74.993227676
 20
176.6167591007
 11
73.9549970011
 21
177.4645902886
  0
LINE
  5
38B
100
AcDbEntity
  8
_30_VOLUMEN
100
AcDbLine
 62
7
  6
CONTINUOUS
 10
73.6583597049
 20
177.7068277386
 11
72.9167663261
 21
178.3124214766
  0
LINE
  5
38C
100
AcDbEntity
  8
_30_VOLUMEN
100
AcDbLine
 62
7
  6
CONTINUOUS
 10
74.1028696363
 20
179.1593995606
 11
74.2511884229
 21
179.0382807225
  0
LINE
  5
38D
100
AcDbEntity
  8
_30_VOLUMEN
100
AcDbLine
 62
7
  6
CONTINUOUS
 10
74.5140997504
 20
179.2593194625
 11
74.3163414145
 21
179.4208112089
  0
LINE
  5
38E
100
AcDbEntity
  8
_30_VOLUMEN
100
AcDbLine
 62
7
  6
CONTINUOUS
 10
107.9752627919
 20
179.8555880076
 11
107.9408114022
 21
180.0643621409
  0
LINE
  5
38F
100
AcDbEntity
  8
_30_VOLUMEN
100
AcDbLine
 62
7
  6
CONTINUOUS
 10
117.6118218093
 20
166.6451724088
 11
117.6288762055
 21
166.9330694554
  0
LINE
  5
390
100
AcDbEntity
  8
_30_VOLUMEN
100
AcDbLine
 62
7
  6
CONTINUOUS
 10
116.8036657006
 20
166.0553124019
 11
117.0555590836
 21
166.0969977373
  0
LINE
  5
391
100
AcDbEntity
  8
_30_VOLUMEN
100
AcDbLine
 62
7
  6
CONTINUOUS
 10
117.000456313
 20
166.4299691094
 11
116.8115362316
 21
166.3987051006
  0
LINE
  5
392
100
AcDbEntity
  8
_30_VOLUMEN
100
AcDbLine
 62
7
  6
CONTINUOUS
 10
114.5038223634
 20
167.4421811661
 11
115.8262618743
 21
167.6610290526
  0
LINE
  5
393
100
AcDbEntity
  8
_30_VOLUMEN
100
AcDbLine
 62
7
  6
CONTINUOUS
 10
116.2041016842
 20
167.7235570118
 11
117.1487013853
 21
167.8798769391
  0
LINE
  5
394
100
AcDbEntity
  8
_30_VOLUMEN
100
AcDbLine
 62
7
  6
CONTINUOUS
 10
117.4084651229
 20
168.264954944
 11
114.4487195927
 21
167.7751525382
  0
LINE
  5
395
100
AcDbEntity
  8
_30_VOLUMEN
100
AcDbLine
 62
7
  6
CONTINUOUS
 10
67.7786989418
 20
167.4515220921
 11
70.7090974772
 21
166.8090546425
  0
LINE
  5
396
100
AcDbEntity
  8
_30_VOLUMEN
100
AcDbLine
 62
7
  6
CONTINUOUS
 10
70.7813750653
 20
167.1387244777
 11
69.4720480415
 21
167.4257844061
  0
LINE
  5
397
100
AcDbEntity
  8
_30_VOLUMEN
100
AcDbLine
 62
7
  6
CONTINUOUS
 10
69.097954656
 20
167.5078015175
 11
68.1627210177
 21
167.7128443344
  0
LINE
  5
398
100
AcDbEntity
  8
_30_VOLUMEN
100
AcDbLine
 62
7
  6
CONTINUOUS
 10
68.8379710087
 20
169.0044514841
 11
69.0250178761
 21
168.96344289
  0
LINE
  5
399
100
AcDbEntity
  8
_30_VOLUMEN
100
AcDbLine
 62
7
  6
CONTINUOUS
 10
69.1596443618
 20
169.2794432067
 11
68.9102485968
 21
169.3341213193
  0
LINE
  5
39A
100
AcDbEntity
  8
_30_VOLUMEN
100
AcDbLine
 62
7
  6
CONTINUOUS
 10
68.9993247956
 20
171.8990392859
 11
70.8715426857
 21
171.2586123889
  0
LINE
  5
39B
100
AcDbEntity
  8
_30_VOLUMEN
100
AcDbLine
 62
7
  6
CONTINUOUS
 10
70.9807767877
 20
171.5779463222
 11
69.1085588976
 21
172.2183732192
  0
LINE
  5
39C
100
AcDbEntity
  8
_30_VOLUMEN
100
AcDbLine
 62
7
  6
CONTINUOUS
 10
71.1514999869
 20
174.2473144694
 11
72.0153371247
 21
173.8344104332
  0
LINE
  5
39D
100
AcDbEntity
  8
_30_VOLUMEN
100
AcDbLine
 62
7
  6
CONTINUOUS
 10
72.1608858012
 20
174.1389130322
 11
71.2970486634
 21
174.5518170684
  0
LINE
  5
39E
100
AcDbEntity
  8
_30_VOLUMEN
100
AcDbLine
 62
7
  6
CONTINUOUS
 10
75.8225217758
 20
178.8950805366
 11
76.0409641039
 21
178.7514319644
  0
LINE
  5
39F
100
AcDbEntity
  8
_30_VOLUMEN
100
AcDbLine
 62
7
  6
CONTINUOUS
 10
75.0972044939
 20
179.8815857504
 11
75.3156468221
 21
179.7379371782
  0
LINE
  5
3A0
100
AcDbEntity
  8
_30_VOLUMEN
100
AcDbLine
 62
7
  6
CONTINUOUS
 10
79.1032758982
 20
181.687687091
 11
79.7481552457
 21
181.2171059314
  0
LINE
  5
3A1
100
AcDbEntity
  8
_30_VOLUMEN
100
AcDbLine
 62
7
  6
CONTINUOUS
 10
77.4522113128
 20
182.9147726243
 11
78.9031891195
 21
181.8559643742
  0
LINE
  5
3A2
100
AcDbEntity
  8
_30_VOLUMEN
100
AcDbLine
 62
7
  6
CONTINUOUS
 10
107.5955044938
 20
179.8641320636
 11
107.6707433625
 21
179.6166222087
  0
LINE
  5
3A3
100
AcDbEntity
  8
_30_VOLUMEN
100
AcDbLine
 62
7
  6
CONTINUOUS
 10
114.4487195927
 20
167.7751525382
 11
114.5038223634
 21
167.4421811661
  0
LINE
  5
3A4
100
AcDbEntity
  8
_30_VOLUMEN
100
AcDbLine
 62
7
  6
CONTINUOUS
 10
114.7334171009
 20
166.0548012956
 11
114.7977037367
 21
165.6663342714
  0
LINE
  5
3A5
100
AcDbEntity
  8
_30_VOLUMEN
100
AcDbLine
 62
7
  6
CONTINUOUS
 10
110.0783881648
 20
180.7631745724
 11
110.1128395852
 21
180.5544004715
  0
LINE
  5
3A6
100
AcDbEntity
  8
_30_VOLUMEN
100
AcDbLine
 62
7
  6
CONTINUOUS
 10
113.4464275927
 20
175.0528784913
 11
113.4185651711
 21
175.2311324919
  0
LINE
  5
3A7
100
AcDbEntity
  8
_30_VOLUMEN
100
AcDbLine
 62
7
  6
CONTINUOUS
 10
113.6959037691
 20
175.6474812553
 11
113.8901846485
 21
175.6931672885
  0
LINE
  5
3A8
100
AcDbEntity
  8
_30_VOLUMEN
100
AcDbLine
 62
7
  6
CONTINUOUS
 10
70.6943883611
 20
169.9518630575
 11
70.4346062776
 21
169.9812766557
  0
LINE
  5
3A9
100
AcDbEntity
  8
_30_VOLUMEN
100
AcDbLine
 62
7
  6
CONTINUOUS
 10
116.6055621407
 20
166.0795428042
 11
116.8036657006
 21
166.0553124019
  0
LINE
  5
3AA
100
AcDbEntity
  8
_30_VOLUMEN
100
AcDbLine
 62
7
  6
CONTINUOUS
 10
116.8115362316
 20
166.3987051006
 11
116.6134326717
 21
166.4229355029
  0
LINE
  5
3AB
100
AcDbEntity
  8
_30_VOLUMEN
100
AcDbLine
 62
7
  6
CONTINUOUS
 10
70.3253721235
 20
169.6619425701
 11
70.6455484284
 21
169.6118703471
  0
LINE
  5
3AC
100
AcDbEntity
  8
_30_VOLUMEN
100
AcDbLine
 62
7
  6
CONTINUOUS
 10
70.8968854181
 20
174.3066719626
 11
71.1514999869
 21
174.2473144694
  0
LINE
  5
3AD
100
AcDbEntity
  8
_30_VOLUMEN
100
AcDbLine
 62
7
  6
CONTINUOUS
 10
71.2970486634
 20
174.5518170684
 11
70.9848447962
 21
174.6387015718
  0
LINE
  5
3AE
100
AcDbEntity
  8
_30_VOLUMEN
100
AcDbLine
 62
7
  6
CONTINUOUS
 10
73.9189720871
 20
179.2369493451
 11
74.1028696363
 21
179.1593995606
  0
LINE
  5
3AF
100
AcDbEntity
  8
_30_VOLUMEN
100
AcDbLine
 62
7
  6
CONTINUOUS
 10
74.3163414145
 20
179.4208112089
 11
74.1324438653
 21
179.4983609935
  0
LINE
  5
3B0
100
AcDbEntity
  8
_30_VOLUMEN
100
AcDbLine
 62
7
  6
CONTINUOUS
 10
76.2381942271
 20
179.0326449962
 11
76.064288779
 21
179.130569318
  0
LINE
  5
3B1
100
AcDbEntity
  8
_30_VOLUMEN
100
AcDbLine
 62
7
  6
CONTINUOUS
 10
75.4683400652
 20
180.0648744605
 11
75.2944346171
 21
180.1627987823
  0
LINE
  5
3B2
100
AcDbEntity
  8
_30_VOLUMEN
100
AcDbLine
 62
7
  6
CONTINUOUS
 10
76.168186673
 20
181.281175217
 11
75.9942812249
 21
181.3790995387
  0
LINE
  5
3B3
100
AcDbEntity
  8
_30_VOLUMEN
100
AcDbLine
 62
7
  6
CONTINUOUS
 10
80.0158730722
 20
181.4226136328
 11
77.4752234038
 21
183.254306848
  0
LINE
  5
3B4
100
AcDbEntity
  8
_30_VOLUMEN
100
AcDbLine
 62
7
  6
CONTINUOUS
 10
110.4581464474
 20
180.7546305002
 11
110.3829078006
 21
181.0021401213
  0
LINE
  5
3B5
100
AcDbEntity
  8
_30_VOLUMEN
100
AcDbLine
 62
7
  6
CONTINUOUS
 10
111.8089713861
 20
174.575422833
 11
111.8924072098
 21
174.2993539541
  0
LINE
  5
3B6
100
AcDbEntity
  8
_30_VOLUMEN
100
AcDbLine
 62
7
  6
CONTINUOUS
 10
113.696584278
 20
174.483363869
 11
113.6131484495
 21
174.7594327452
  0
LINE
  5
3B7
100
AcDbEntity
  8
_30_VOLUMEN
100
AcDbLine
 62
7
  6
CONTINUOUS
 10
113.7238627113
 20
170.3775781078
 11
113.8180476691
 21
170.0534863866
  0
LINE
  5
3B8
100
AcDbEntity
  8
_30_VOLUMEN
100
AcDbLine
 62
7
  6
CONTINUOUS
 10
114.2575772329
 20
168.5410591788
 11
114.3517621907
 21
168.2169674576
  0
LINE
  5
3B9
100
AcDbEntity
  8
_30_VOLUMEN
100
AcDbLine
 62
7
  6
CONTINUOUS
 10
114.6163647101
 20
170.0511791586
 11
114.9303148091
 21
168.9708725973
  0
LINE
  5
3BA
100
AcDbEntity
  8
_30_VOLUMEN
100
AcDbLine
 62
7
  6
CONTINUOUS
 10
115.1597929372
 20
169.0961393197
 11
114.8772380637
 21
170.0684144831
  0
LINE
  5
3BB
100
AcDbEntity
  8
_30_VOLUMEN
100
AcDbLine
 62
7
  6
CONTINUOUS
 10
112.2253952897
 20
174.4885407414
 11
112.1697461646
 21
174.7157021798
  0
LINE
  5
3BC
100
AcDbEntity
  8
_30_VOLUMEN
100
AcDbLine
 62
7
  6
CONTINUOUS
 10
113.0577901086
 20
175.0908537241
 11
113.1134395517
 21
174.863691726
  0
LINE
  5
3BD
100
AcDbEntity
  8
_30_VOLUMEN
100
AcDbLine
 62
7
  6
CONTINUOUS
 10
113.2801604085
 20
174.5702459799
 11
113.3358092155
 21
174.3430851012
  0
LINE
  5
3BE
100
AcDbEntity
  8
_30_VOLUMEN
100
AcDbLine
 62
7
  6
CONTINUOUS
 10
115.8262618743
 20
167.6610290526
 11
115.9823863211
 21
166.7176105883
  0
LINE
  5
3BF
100
AcDbEntity
  8
_30_VOLUMEN
100
AcDbLine
 62
7
  6
CONTINUOUS
 10
116.3785936511
 20
166.6691485135
 11
116.2041016842
 21
167.7235570118
  0
LINE
  5
3C0
100
AcDbEntity
  8
_30_VOLUMEN
100
AcDbLine
 62
7
  6
CONTINUOUS
 10
117.1487013853
 20
167.8798769391
 11
117.3231933522
 21
166.8254684408
  0
LINE
  5
3C1
100
AcDbEntity
  8
_30_VOLUMEN
100
AcDbLine
 62
7
  6
CONTINUOUS
 10
117.6288762055
 20
166.9330694554
 11
117.4084651229
 21
168.264954944
  0
LINE
  5
3C2
100
AcDbEntity
  8
_30_VOLUMEN
100
AcDbLine
 62
7
  6
CONTINUOUS
 10
114.3901207006
 20
175.2008686192
 11
114.4179831221
 21
175.0226146186
  0
LINE
  5
3C3
100
AcDbEntity
  8
_30_VOLUMEN
100
AcDbLine
 62
7
  6
CONTINUOUS
 10
70.9119821498
 20
169.9963311168
 11
70.6943883611
 21
169.9518630575
  0
LINE
  5
3C4
100
AcDbEntity
  8
_30_VOLUMEN
100
AcDbLine
 62
7
  6
CONTINUOUS
 10
71.1668555465
 20
168.8969636513
 11
69.6244143455
 21
168.716857864
  0
LINE
  5
3C5
100
AcDbEntity
  8
_30_VOLUMEN
100
AcDbLine
 62
7
  6
CONTINUOUS
 10
69.6768345353
 20
168.359848913
 11
71.0825316708
 21
168.5123487388
  0
LINE
  5
3C6
100
AcDbEntity
  8
_30_VOLUMEN
100
AcDbLine
 62
7
  6
CONTINUOUS
 10
112.8644162953
 20
173.4930117576
 11
113.1419824044
 21
173.5213202949
  0
LINE
  5
3C7
100
AcDbEntity
  8
_30_VOLUMEN
100
AcDbLine
 62
7
  6
CONTINUOUS
 10
70.6455484284
 20
169.6118703471
 11
70.9235363246
 21
169.6356793103
  0
LINE
  5
3C8
100
AcDbEntity
  8
_30_VOLUMEN
100
AcDbLine
 62
7
  6
CONTINUOUS
 10
68.6388780628
 20
168.9905151196
 11
68.8379710087
 21
169.0044514841
  0
LINE
  5
3C9
100
AcDbEntity
  8
_30_VOLUMEN
100
AcDbLine
 62
7
  6
CONTINUOUS
 10
68.9102485968
 20
169.3341213193
 11
68.7111556509
 21
169.3201849549
  0
LINE
  5
3CA
100
AcDbEntity
  8
_30_VOLUMEN
100
AcDbLine
 62
7
  6
CONTINUOUS
 10
113.8180476691
 20
170.0534863866
 11
114.6163647101
 21
170.0511791586
  0
LINE
  5
3CB
100
AcDbEntity
  8
_30_VOLUMEN
100
AcDbLine
 62
7
  6
CONTINUOUS
 10
114.8772380637
 20
170.0684144831
 11
116.6734520092
 21
170.0632213845
  0
LINE
  5
3CC
100
AcDbEntity
  8
_30_VOLUMEN
100
AcDbLine
 62
7
  6
CONTINUOUS
 10
116.8558376584
 20
170.3505339674
 11
113.7238627113
 21
170.3775781078
  0
LINE
  5
3CD
100
AcDbEntity
  8
_30_VOLUMEN
100
AcDbLine
 62
7
  6
CONTINUOUS
 10
113.0307595544
 20
173.8462971686
 11
112.808691491
 21
173.8495197809
  0
LINE
  5
3CE
100
AcDbEntity
  8
_30_VOLUMEN
100
AcDbLine
 62
7
  6
CONTINUOUS
 10
70.9848447962
 20
174.6387015718
 11
70.7059719295
 21
174.6473082446
  0
LINE
  5
3CF
100
AcDbEntity
  8
_30_VOLUMEN
100
AcDbLine
 62
7
  6
CONTINUOUS
 10
76.0409641039
 20
178.7514319644
 11
76.3845320526
 21
178.6405550546
  0
LINE
  5
3D0
100
AcDbEntity
  8
_30_VOLUMEN
100
AcDbLine
 62
7
  6
CONTINUOUS
 10
77.1798079629
 20
180.4844344059
 11
76.9210707644
 21
180.5888346125
  0
LINE
  5
3D1
100
AcDbEntity
  8
_30_VOLUMEN
100
AcDbLine
 62
7
  6
CONTINUOUS
 10
75.7970511017
 20
181.0978865069
 11
75.9264196698
 21
181.0456864356
  0
LINE
  5
3D2
100
AcDbEntity
  8
_30_VOLUMEN
100
AcDbLine
 62
7
  6
CONTINUOUS
 10
116.3261175488
 20
166.2043431841
 11
116.6055621407
 21
166.0795428042
  0
LINE
  5
3D3
100
AcDbEntity
  8
_30_VOLUMEN
100
AcDbLine
 62
7
  6
CONTINUOUS
 10
116.163435695
 20
166.4054818692
 11
116.3261175488
 21
166.2043431841
  0
LINE
  5
3D4
100
AcDbEntity
  8
_30_VOLUMEN
100
AcDbLine
 62
7
  6
CONTINUOUS
 10
107.6707433625
 20
179.6166222087
 11
107.8307248279
 21
179.3766603902
  0
LINE
  5
3D5
100
AcDbEntity
  8
_30_VOLUMEN
100
AcDbLine
 62
7
  6
CONTINUOUS
 10
108.0944570348
 20
179.6543617134
 11
107.9752627919
 21
179.8555880076
  0
LINE
  5
3D6
100
AcDbEntity
  8
_30_VOLUMEN
100
AcDbLine
 62
7
  6
CONTINUOUS
 10
116.4691183381
 20
166.513084154
 11
116.3785936511
 21
166.6691485135
  0
LINE
  5
3D7
100
AcDbEntity
  8
_30_VOLUMEN
100
AcDbLine
 62
7
  6
CONTINUOUS
 10
111.8924072098
 20
174.2993539541
 11
112.1147021095
 21
173.908092213
  0
LINE
  5
3D8
100
AcDbEntity
  8
_30_VOLUMEN
100
AcDbLine
 62
7
  6
CONTINUOUS
 10
112.4476901894
 20
174.0972790004
 11
112.2253952897
 21
174.4885407414
  0
LINE
  5
3D9
100
AcDbEntity
  8
_30_VOLUMEN
100
AcDbLine
 62
7
  6
CONTINUOUS
 10
112.3915871126
 20
175.1005192781
 11
112.2248662558
 21
175.3939650242
  0
LINE
  5
3DA
100
AcDbEntity
  8
_30_VOLUMEN
100
AcDbLine
 62
7
  6
CONTINUOUS
 10
113.1134395517
 20
174.863691726
 11
113.2801604085
 21
174.5702459799
  0
LINE
  5
3DB
100
AcDbEntity
  8
_30_VOLUMEN
100
AcDbLine
 62
7
  6
CONTINUOUS
 10
113.0851475802
 20
171.9415621218
 11
113.2170865623
 21
171.6309202782
  0
LINE
  5
3DC
100
AcDbEntity
  8
_30_VOLUMEN
100
AcDbLine
 62
7
  6
CONTINUOUS
 10
115.2008198413
 20
173.8179667387
 11
115.5526572948
 21
172.9895880941
  0
LINE
  5
3DD
100
AcDbEntity
  8
_30_VOLUMEN
100
AcDbLine
 62
7
  6
CONTINUOUS
 10
115.6845962769
 20
172.6789462505
 11
116.0364332271
 21
171.8505687909
  0
LINE
  5
3DE
100
AcDbEntity
  8
_30_VOLUMEN
100
AcDbLine
 62
7
  6
CONTINUOUS
 10
116.3301843444
 20
171.975333771
 11
115.4945709586
 21
173.9427317187
  0
LINE
  5
3DF
100
AcDbEntity
  8
_30_VOLUMEN
100
AcDbLine
 62
7
  6
CONTINUOUS
 10
114.7787575486
 20
175.1628945059
 11
114.6953217201
 21
175.438963382
  0
LINE
  5
3E0
100
AcDbEntity
  8
_30_VOLUMEN
100
AcDbLine
 62
7
  6
CONTINUOUS
 10
116.9814178418
 20
169.9184108484
 11
116.8558376584
 21
170.3505339674
  0
LINE
  5
3E1
100
AcDbEntity
  8
_30_VOLUMEN
100
AcDbLine
 62
7
  6
CONTINUOUS
 10
110.9084329829
 20
178.3534251938
 11
109.1182243609
 21
178.1160866996
  0
LINE
  5
3E2
100
AcDbEntity
  8
_30_VOLUMEN
100
AcDbLine
 62
7
  6
CONTINUOUS
 10
109.3330151453
 20
177.8557577367
 11
110.7696544443
 21
178.0201488837
  0
LINE
  5
3E3
100
AcDbEntity
  8
_30_VOLUMEN
100
AcDbLine
 62
7
  6
CONTINUOUS
 10
112.6494072285
 20
178.5501408258
 11
111.2127675198
 21
178.3857501753
  0
LINE
  5
3E4
100
AcDbEntity
  8
_30_VOLUMEN
100
AcDbLine
 62
7
  6
CONTINUOUS
 10
111.1232237674
 20
178.0930962309
 11
112.8641980129
 21
178.2898118629
  0
LINE
  5
3E5
100
AcDbEntity
  8
_30_VOLUMEN
100
AcDbLine
 62
7
  6
CONTINUOUS
 10
108.6559763467
 20
178.85700477
 11
108.9949474184
 21
178.8871962343
  0
LINE
  5
3E6
100
AcDbEntity
  8
_30_VOLUMEN
100
AcDbLine
 62
7
  6
CONTINUOUS
 10
70.6756015273
 20
174.2877517793
 11
70.8968854181
 21
174.3066719626
  0
LINE
  5
3E7
100
AcDbEntity
  8
_30_VOLUMEN
100
AcDbLine
 62
7
  6
CONTINUOUS
 10
76.4926884001
 20
179.0132166034
 11
76.2381942271
 21
179.0326449962
  0
LINE
  5
3E8
100
AcDbEntity
  8
_30_VOLUMEN
100
AcDbLine
 62
7
  6
CONTINUOUS
 10
75.3156468221
 20
179.7379371782
 11
75.6549717296
 21
179.7120320983
  0
LINE
  5
3E9
100
AcDbEntity
  8
_30_VOLUMEN
100
AcDbLine
 62
7
  6
CONTINUOUS
 10
74.1324438653
 20
179.4983609935
 11
73.8279497788
 21
179.5291468026
  0
LINE
  5
3EA
100
AcDbEntity
  8
_30_VOLUMEN
100
AcDbLine
 62
7
  6
CONTINUOUS
 10
112.5312774346
 20
173.5625169875
 11
112.8644162953
 21
173.4930117576
  0
LINE
  5
3EB
100
AcDbEntity
  8
_30_VOLUMEN
100
AcDbLine
 62
7
  6
CONTINUOUS
 10
75.9942812249
 20
181.3790995387
 11
75.6952502031
 21
181.44425215
  0
LINE
  5
3EC
100
AcDbEntity
  8
_30_VOLUMEN
100
AcDbLine
 62
7
  6
CONTINUOUS
 10
76.7683775213
 20
180.2618973302
 11
76.9825778397
 21
180.2032213741
  0
LINE
  5
3ED
100
AcDbEntity
  8
_30_VOLUMEN
100
AcDbLine
 62
7
  6
CONTINUOUS
 10
116.6134326717
 20
166.4229355029
 11
116.4691183381
 21
166.513084154
  0
LINE
  5
3EE
100
AcDbEntity
  8
_30_VOLUMEN
100
AcDbLine
 62
7
  6
CONTINUOUS
 10
107.8307248279
 20
179.3766603902
 11
108.1570238057
 21
179.0667751202
  0
LINE
  5
3EF
100
AcDbEntity
  8
_30_VOLUMEN
100
AcDbLine
 62
7
  6
CONTINUOUS
 10
112.6143350101
 20
173.9331803768
 11
112.4476901894
 21
174.0972790004
  0
LINE
  5
3F0
100
AcDbEntity
  8
_30_VOLUMEN
100
AcDbLine
 62
7
  6
CONTINUOUS
 10
112.1147021095
 20
173.908092213
 11
112.3091339565
 21
173.6950855947
  0
LINE
  5
3F1
100
AcDbEntity
  8
_30_VOLUMEN
100
AcDbLine
 62
7
  6
CONTINUOUS
 10
109.1182243609
 20
178.1160866996
 11
109.3330151453
 21
177.8557577367
  0
LINE
  5
3F2
100
AcDbEntity
  8
_30_VOLUMEN
100
AcDbLine
 62
7
  6
CONTINUOUS
 10
110.3353720027
 20
176.6408894086
 11
110.5501627871
 21
176.3805604457
  0
LINE
  5
3F3
100
AcDbEntity
  8
_30_VOLUMEN
100
AcDbLine
 62
7
  6
CONTINUOUS
 10
111.6903367152
 20
176.6149111035
 11
112.1358767356
 21
175.9655655373
  0
LINE
  5
3F4
100
AcDbEntity
  8
_30_VOLUMEN
100
AcDbLine
 62
7
  6
CONTINUOUS
 10
112.3990362187
 20
176.1461289962
 11
111.9534961983
 21
176.7954745624
  0
LINE
  5
3F5
100
AcDbEntity
  8
_30_VOLUMEN
100
AcDbLine
 62
7
  6
CONTINUOUS
 10
110.3829078006
 20
181.0021401213
 11
110.2229260979
 21
181.2421021574
  0
LINE
  5
3F6
100
AcDbEntity
  8
_30_VOLUMEN
100
AcDbLine
 62
7
  6
CONTINUOUS
 10
109.9591939219
 20
180.9644008666
 11
110.0783881648
 21
180.7631745724
  0
LINE
  5
3F7
100
AcDbEntity
  8
_30_VOLUMEN
100
AcDbLine
 62
7
  6
CONTINUOUS
 10
113.6131484495
 20
174.7594327452
 11
113.4464275927
 21
175.0528784913
  0
LINE
  5
3F8
100
AcDbEntity
  8
_30_VOLUMEN
100
AcDbLine
 62
7
  6
CONTINUOUS
 10
114.2793515232
 20
174.7497672354
 11
114.44607238
 21
174.4563214893
  0
LINE
  5
3F9
100
AcDbEntity
  8
_30_VOLUMEN
100
AcDbLine
 62
7
  6
CONTINUOUS
 10
114.2233998438
 20
175.4943143653
 11
114.3901207006
 21
175.2008686192
  0
LINE
  5
3FA
100
AcDbEntity
  8
_30_VOLUMEN
100
AcDbLine
 62
7
  6
CONTINUOUS
 10
114.6953217201
 20
175.438963382
 11
114.5563878848
 21
175.6835011306
  0
LINE
  5
3FB
100
AcDbEntity
  8
_30_VOLUMEN
100
AcDbLine
 62
7
  6
CONTINUOUS
 10
70.7059719295
 20
174.6473082446
 11
70.3785830225
 21
174.5544144383
  0
LINE
  5
3FC
100
AcDbEntity
  8
_30_VOLUMEN
100
AcDbLine
 62
7
  6
CONTINUOUS
 10
75.6549717296
 20
179.7120320983
 11
75.9052237993
 21
179.7775764177
  0
LINE
  5
3FD
100
AcDbEntity
  8
_30_VOLUMEN
100
AcDbLine
 62
7
  6
CONTINUOUS
 10
73.8279497788
 20
179.5291468026
 11
73.5373163405
 21
179.4759907629
  0
LINE
  5
3FE
100
AcDbEntity
  8
_30_VOLUMEN
100
AcDbLine
 62
7
  6
CONTINUOUS
 10
76.3845320526
 20
178.6405550546
 11
76.7196148997
 21
178.6996226429
  0
LINE
  5
3FF
100
AcDbEntity
  8
_30_VOLUMEN
100
AcDbLine
 62
7
  6
CONTINUOUS
 10
75.678297327
 20
180.0911703502
 11
75.4683400652
 21
180.0648744605
  0
LINE
  5
400
100
AcDbEntity
  8
_30_VOLUMEN
100
AcDbLine
 62
7
  6
CONTINUOUS
 10
76.5584202595
 20
180.2356014405
 11
76.7683775213
 21
180.2618973302
  0
LINE
  5
401
100
AcDbEntity
  8
_30_VOLUMEN
100
AcDbLine
 62
7
  6
CONTINUOUS
 10
109.3976745946
 20
181.7617577938
 11
109.0587035383
 21
181.7315663457
  0
LINE
  5
402
100
AcDbEntity
  8
_30_VOLUMEN
100
AcDbLine
 62
7
  6
CONTINUOUS
 10
75.6952502031
 20
181.44425215
 11
75.4004612533
 21
181.424432081
  0
LINE
  5
403
100
AcDbEntity
  8
_30_VOLUMEN
100
AcDbLine
 62
7
  6
CONTINUOUS
 10
73.7489360004
 20
179.230558278
 11
73.9189720871
 21
179.2369493451
  0
LINE
  5
404
100
AcDbEntity
  8
_30_VOLUMEN
100
AcDbLine
 62
7
  6
CONTINUOUS
 10
76.9210707644
 20
180.5888346125
 11
76.5817458569
 21
180.6147396924
  0
LINE
  5
405
100
AcDbEntity
  8
_30_VOLUMEN
100
AcDbLine
 62
7
  6
CONTINUOUS
 10
75.627388648
 20
181.1108390468
 11
75.7970511017
 21
181.0978865069
  0
LINE
  5
406
100
AcDbEntity
  8
_30_VOLUMEN
100
AcDbLine
 62
7
  6
CONTINUOUS
 10
108.8381338828
 20
179.2121773715
 11
108.6278609808
 21
179.2358172461
  0
LINE
  5
407
100
AcDbEntity
  8
_30_VOLUMEN
100
AcDbLine
 62
7
  6
CONTINUOUS
 10
109.2155171046
 20
181.4065852409
 11
109.4257899758
 21
181.3829453339
  0
LINE
  5
408
100
AcDbEntity
  8
_30_VOLUMEN
100
AcDbLine
 62
7
  6
CONTINUOUS
 10
114.1675992825
 20
175.9801689294
 11
113.8344598054
 21
176.0496752897
  0
LINE
  5
409
100
AcDbEntity
  8
_30_VOLUMEN
100
AcDbLine
 62
7
  6
CONTINUOUS
 10
108.4049162375
 20
178.9193801851
 11
108.6559763467
 21
178.85700477
  0
LINE
  5
40A
100
AcDbEntity
  8
_30_VOLUMEN
100
AcDbLine
 62
7
  6
CONTINUOUS
 10
112.808691491
 20
173.8495197809
 11
112.6143350101
 21
173.9331803768
  0
LINE
  5
40B
100
AcDbEntity
  8
_30_VOLUMEN
100
AcDbLine
 62
7
  6
CONTINUOUS
 10
113.8901846485
 20
175.6931672885
 11
114.0845414085
 21
175.6095061108
  0
LINE
  5
40C
100
AcDbEntity
  8
_30_VOLUMEN
100
AcDbLine
 62
7
  6
CONTINUOUS
 10
108.6278609808
 20
179.2358172461
 11
108.4207560126
 21
179.3444764434
  0
LINE
  5
40D
100
AcDbEntity
  8
_30_VOLUMEN
100
AcDbLine
 62
7
  6
CONTINUOUS
 10
108.1570238057
 20
179.0667751202
 11
108.4049162375
 21
178.9193801851
  0
LINE
  5
40E
100
AcDbEntity
  8
_30_VOLUMEN
100
AcDbLine
 62
7
  6
CONTINUOUS
 10
112.3091339565
 20
173.6950855947
 11
112.5312774346
 21
173.5625169875
  0
LINE
  5
40F
100
AcDbEntity
  8
_30_VOLUMEN
100
AcDbLine
 62
7
  6
CONTINUOUS
 10
114.3897424281
 20
175.8476008736
 11
114.1675992825
 21
175.9801689294
  0
LINE
  5
410
100
AcDbEntity
  8
_30_VOLUMEN
100
AcDbLine
 62
7
  6
CONTINUOUS
 10
104.3454973274
 20
182.0304540414
 11
104.6314666238
 21
181.8512117151
  0
LINE
  5
411
100
AcDbEntity
  8
_30_VOLUMEN
100
AcDbLine
 62
7
  6
CONTINUOUS
 10
105.0246790293
 20
181.6280976782
 11
105.2957375796
 21
181.4270168181
  0
LINE
  5
412
100
AcDbEntity
  8
_30_VOLUMEN
100
AcDbLine
 62
7
  6
CONTINUOUS
 10
106.4251482273
 20
180.5891798848
 11
106.8317360527
 21
180.2875585945
  0
LINE
  5
413
100
AcDbEntity
  8
_30_VOLUMEN
100
AcDbLine
 62
7
  6
CONTINUOUS
 10
114.0845414085
 20
175.6095061108
 11
114.2233998438
 21
175.4943143653
  0
LINE
  5
414
100
AcDbEntity
  8
_30_VOLUMEN
100
AcDbLine
 62
7
  6
CONTINUOUS
 10
108.4207560126
 20
179.3444764434
 11
108.0944570348
 21
179.6543617134
  0
LINE
  5
415
100
AcDbEntity
  8
_30_VOLUMEN
100
AcDbLine
 62
7
  6
CONTINUOUS
 10
109.6328949441
 20
181.2742861366
 11
109.9591939219
 21
180.9644008666
  0
LINE
  5
416
100
AcDbEntity
  8
_30_VOLUMEN
100
AcDbLine
 62
7
  6
CONTINUOUS
 10
110.2229260979
 20
181.2421021574
 11
109.8966271201
 21
181.5519874274
  0
LINE
  5
417
100
AcDbEntity
  8
_30_VOLUMEN
100
AcDbLine
 62
7
  6
CONTINUOUS
 10
114.5563878848
 20
175.6835011306
 11
114.3897424281
 21
175.8476008736
  0
LINE
  5
418
100
AcDbEntity
  8
_30_VOLUMEN
100
AcDbLine
 62
7
  6
CONTINUOUS
 10
112.8641980129
 20
178.2898118629
 11
112.6494072285
 21
178.5501408258
  0
LINE
  5
419
100
AcDbEntity
  8
_30_VOLUMEN
100
AcDbLine
 62
7
  6
CONTINUOUS
 10
111.6470503711
 20
179.7650091538
 11
111.4322595867
 21
180.0253381167
  0
LINE
  5
41A
100
AcDbEntity
  8
0
100
AcDbLine
 62
7
  6
CONTINUOUS
 10
99.1717656493
 20
80.8880422291
 11
100.6717656493
 21
82.3880422291
  0
LINE
  5
41B
100
AcDbEntity
  8
_30_VOLUMEN
100
AcDbLine
 62
7
  6
CONTINUOUS
 10
76.5817458569
 20
180.6147396924
 11
76.3314937872
 21
180.549195373
  0
LINE
  5
41C
100
AcDbEntity
  8
_30_VOLUMEN
100
AcDbLine
 62
7
  6
CONTINUOUS
 10
109.6487349255
 20
181.6993821449
 11
109.3976745946
 21
181.7617577938
  0
LINE
  5
41D
100
AcDbEntity
  8
_30_VOLUMEN
100
AcDbLine
 62
7
  6
CONTINUOUS
 10
109.4257899758
 20
181.3829453339
 11
109.6328949441
 21
181.2742861366
  0
LINE
  5
41E
100
AcDbEntity
  8
_30_VOLUMEN
100
AcDbLine
 62
7
  6
CONTINUOUS
 10
109.8966271201
 20
181.5519874274
 11
109.6487349255
 21
181.6993821449
  0
LINE
  5
41F
100
AcDbEntity
  8
_30_VOLUMEN
100
AcDbLine
 62
7
  6
CONTINUOUS
 10
106.2247317465
 20
184.3931610162
 11
105.9387624501
 21
184.5724033425
  0
LINE
  5
420
100
AcDbEntity
  8
_30_VOLUMEN
100
AcDbLine
 62
7
  6
CONTINUOUS
 10
108.6191214763
 20
182.6969679303
 11
108.348062926
 21
182.8980487905
  0
LINE
  5
421
100
AcDbEntity
  8
_30_VOLUMEN
100
AcDbLine
 62
7
  6
CONTINUOUS
 10
107.2186522783
 20
183.7358857238
 11
106.8120644529
 21
184.037507014
  0
LINE
  5
422
100
AcDbEntity
  8
0
100
AcDbLine
 62
7
  6
CONTINUOUS
 10
196.4338385254
 20
80.8880422291
 11
209.4338385254
 21
80.8880422291
  0
LINE
  5
423
100
AcDbEntity
  8
0
100
AcDbLine
 62
7
  6
CONTINUOUS
 10
194.9338385254
 20
82.3880422291
 11
210.9338385254
 21
82.3880422291
  0
LINE
  5
424
100
AcDbEntity
  8
0
100
AcDbLine
 62
7
  6
CONTINUOUS
 10
194.9338385254
 20
82.3880422291
 11
196.4338385254
 21
80.8880422291
  0
LINE
  5
425
100
AcDbEntity
  8
_30_VOLUMEN
100
AcDbLine
 62
7
  6
CONTINUOUS
 10
179.8647011021
 20
139.9550979622
 11
179.8641725857
 21
139.9898178848
  0
LINE
  5
426
100
AcDbEntity
  8
_30_VOLUMEN
100
AcDbLine
 62
7
  6
CONTINUOUS
 10
179.7338399615
 20
136.1847867262
 11
179.7338385254
 21
136.1903818841
  0
LINE
  5
427
100
AcDbEntity
  8
_30_VOLUMEN
100
AcDbLine
 62
7
  6
CONTINUOUS
 10
179.7338399615
 20
141.5580422291
 11
179.7338385254
 21
141.5656806666
  0
LINE
  5
428
100
AcDbEntity
  8
_30_VOLUMEN
100
AcDbLine
 62
7
  6
CONTINUOUS
 10
179.7338385254
 20
142.1403905812
 11
179.7338385254
 21
141.7620839651
  0
LINE
  5
429
100
AcDbEntity
  8
_30_VOLUMEN
100
AcDbLine
 62
7
  6
CONTINUOUS
 10
179.7338385254
 20
136.7199251751
 11
179.7338385254
 21
136.6455417758
  0
LINE
  5
42A
100
AcDbEntity
  8
_30_VOLUMEN
100
AcDbLine
 62
7
  6
CONTINUOUS
 10
179.7348369425
 20
137.0078207984
 11
179.7348369425
 21
137.7528761561
  0
LINE
  5
42B
100
AcDbEntity
  8
_30_VOLUMEN
100
AcDbLine
 62
7
  6
CONTINUOUS
 10
179.7348369425
 20
138.2028761561
 11
179.7348369425
 21
138.9479315137
  0
LINE
  5
42C
100
AcDbEntity
  8
_30_VOLUMEN
100
AcDbLine
 62
7
  6
CONTINUOUS
 10
179.7348369425
 20
139.3979315137
 11
179.7348369425
 21
140.1429868714
  0
LINE
  5
42D
100
AcDbEntity
  8
_30_VOLUMEN
100
AcDbLine
 62
7
  6
CONTINUOUS
 10
179.7348369425
 20
140.5929868714
 11
179.7348369425
 21
141.3380422291
  0
LINE
  5
42E
100
AcDbEntity
  8
_30_VOLUMEN
100
AcDbLine
 62
7
  6
CONTINUOUS
 10
179.7877212333
 20
139.8930977996
 11
179.7877212333
 21
139.7765378221
  0
LINE
  5
42F
100
AcDbEntity
  8
_30_VOLUMEN
100
AcDbLine
 62
7
  6
CONTINUOUS
 10
179.7877212333
 20
137.7900578845
 11
179.7877212333
 21
137.6610978842
  0
LINE
  5
430
100
AcDbEntity
  8
_30_VOLUMEN
100
AcDbLine
 62
7
  6
CONTINUOUS
 10
179.8210136845
 20
139.387177883
 11
179.8210136845
 21
138.0876578917
  0
LINE
  5
431
100
AcDbEntity
  8
_30_VOLUMEN
100
AcDbLine
 62
7
  6
CONTINUOUS
 10
179.8647011021
 20
138.0901378783
 11
179.8647011021
 21
139.9550979622
  0
LINE
  5
432
100
AcDbEntity
  8
_30_VOLUMEN
100
AcDbLine
 62
7
  6
CONTINUOUS
 10
179.9145080738
 20
137.6635778846
 11
179.9145080738
 21
137.7900578845
  0
LINE
  5
433
100
AcDbEntity
  8
_30_VOLUMEN
100
AcDbLine
 62
7
  6
CONTINUOUS
 10
180.0798402292
 20
141.2521144794
 11
180.0798402292
 21
136.0871983415
  0
LINE
  5
434
100
AcDbEntity
  8
_30_VOLUMEN
100
AcDbLine
 62
7
  6
CONTINUOUS
 10
180.1630200862
 20
135.7188447469
 11
180.1630220071
 21
141.6688447469
  0
LINE
  5
435
100
AcDbEntity
  8
_26_BEZUGSACHSEN
100
AcDbLine
 62
7
  6
CONTINUOUS
 10
180.4338385254
 20
142.9615745349
 11
180.4338385254
 21
142.5955469427
  0
LINE
  5
436
100
AcDbEntity
  8
_26_BEZUGSACHSEN
100
AcDbLine
 62
7
  6
CONTINUOUS
 10
180.4338385254
 20
135.7188447469
 11
180.4338385254
 21
135.4859579907
  0
LINE
  5
437
100
AcDbEntity
  8
_30_VOLUMEN
100
AcDbLine
 62
7
  6
CONTINUOUS
 10
180.8766382292
 20
141.6688447469
 11
180.8766362461
 21
135.7188447469
  0
LINE
  5
438
100
AcDbEntity
  8
_26_BEZUGSACHSEN
100
AcDbLine
 62
7
  6
CONTINUOUS
 10
180.9338385254
 20
131.0880422291
 11
180.9338385254
 21
133.0880422291
  0
LINE
  5
439
100
AcDbEntity
  8
_30_VOLUMEN
100
AcDbLine
 62
7
  6
CONTINUOUS
 10
179.912954845
 20
137.6238978841
 11
179.9145080738
 21
137.6635778846
  0
LINE
  5
43A
100
AcDbEntity
  8
_30_VOLUMEN
100
AcDbLine
 62
7
  6
CONTINUOUS
 10
179.7894277685
 20
139.9253379019
 11
179.7877212333
 21
139.8930977996
  0
LINE
  5
43B
100
AcDbEntity
  8
_30_VOLUMEN
100
AcDbLine
 62
7
  6
CONTINUOUS
 10
179.9086418799
 20
137.6189378842
 11
179.912954845
 21
137.6238978841
  0
LWPOLYLINE
  5
43C
100
AcDbEntity
  8
_26_BEZUGSACHSEN
100
AcDbPolyline
 62
7
  6
CONTINUOUS
 90
4
 70
0
 10
194.0893010347
 20
149.2279167323
 10
194.0471385388
 20
149.1539545323
 10
194.0047213997
 20
149.0823660116
 10
193.9850559691
 20
149.0503837946
  0
LWPOLYLINE
  5
43D
100
AcDbEntity
  8
_26_BEZUGSACHSEN
100
AcDbPolyline
 62
7
  6
CONTINUOUS
 90
4
 70
0
 10
193.9748923289
 20
149.0338544975
 10
193.9621558464
 20
149.0131409442
 10
193.9194478301
 20
148.9461224781
 10
193.8766490903
 20
148.8812444587
  0
LWPOLYLINE
  5
43E
100
AcDbEntity
  8
_26_BEZUGSACHSEN
100
AcDbPolyline
 62
7
  6
CONTINUOUS
 90
54
 70
0
 10
193.8766490903
 20
148.8812444587
 10
193.8338504014
 20
148.8184902613
 10
193.7910943983
 20
148.7577751259
 10
193.7484149562
 20
148.6990163111
 10
193.7058943759
 20
148.6422070423
 10
193.6636357303
 20
148.5873694795
 10
193.6216858002
 20
148.5344505069
 10
193.5800978357
 20
148.4834027822
 10
193.5389792267
 20
148.4342477627
 10
193.4984198192
 20
148.3869854813
 10
193.4584140882
 20
148.3415093791
 10
193.4189187617
 20
148.2976816623
 10
193.380019115
 20
148.2555142913
 10
193.3416940184
 20
148.2149033195
 10
193.3037281181
 20
148.175553313
 10
193.2661112215
 20
148.1373996472
 10
193.2288955644
 20
148.1004441528
 10
193.1919481686
 20
148.0645098543
 10
193.155259366
 20
148.0295498132
 10
193.1188684242
 20
147.9955654027
 10
193.0827104679
 20
147.9624618643
 10
193.0467906776
 20
147.9302131064
 10
193.0111275405
 20
147.8988062516
 10
192.9756728932
 20
147.8681719324
 10
192.9404381909
 20
147.8382955552
 10
192.905430444
 20
147.809159492
 10
192.8705922931
 20
147.7806947735
 10
192.8359290062
 20
147.7528863193
 10
192.8014500022
 20
147.7257227694
 10
192.7671021555
 20
147.6991452372
 10
192.7328912664
 20
147.673142998
 10
192.6988230009
 20
147.6477056333
 10
192.6648422978
 20
147.622778937
 10
192.6309467941
 20
147.5983497289
 10
192.5971478146
 20
147.574414869
 10
192.5634095227
 20
147.5509385606
 10
192.5297111632
 20
147.5278974225
 10
192.496080739
 20
147.5053019161
 10
192.462555183
 20
147.4831673876
 10
192.4291328557
 20
147.4614830406
 10
192.3958224298
 20
147.4402449758
 10
192.3626766953
 20
147.4194766125
 10
192.3296989049
 20
147.3991692246
 10
192.2968927686
 20
147.3793146173
 10
192.2643122089
 20
147.3599344225
 10
192.2319607536
 20
147.3410192353
 10
192.1998416642
 20
147.3225597159
 10
192.1680088682
 20
147.3045751289
 10
192.1364655933
 20
147.2870551511
 10
192.1052151567
 20
147.2699897999
 10
192.0743119881
 20
147.2533965763
 10
192.0437597548
 20
147.2372648419
 10
192.0135610632
 20
147.2215836624
 10
191.9837690758
 20
147.2063680146
  0
LINE
  5
43F
100
AcDbEntity
  8
_30_VOLUMEN
100
AcDbLine
 62
7
  6
CONTINUOUS
 10
179.7934541451
 20
137.8396578788
 11
179.790986481
 21
137.8371778784
  0
LWPOLYLINE
  5
440
100
AcDbEntity
  8
_26_BEZUGSACHSEN
100
AcDbPolyline
 62
7
  6
CONTINUOUS
 90
7
 70
0
 10
191.9837690758
 20
147.2063680146
 10
191.9544203117
 20
147.1916232229
 10
191.9254842963
 20
147.1773210255
 10
191.8969135717
 20
147.1634263732
 10
191.8687354264
 20
147.1499415346
 10
191.8409274356
 20
147.1368450214
 10
191.8133668139
 20
147.1240702013
  0
LWPOLYLINE
  5
441
100
AcDbEntity
  8
_26_BEZUGSACHSEN
100
AcDbPolyline
 62
7
  6
CONTINUOUS
 90
8
 70
0
 10
191.8133668139
 20
147.1240702013
 10
191.786022238
 20
147.1115957047
 10
191.7589284873
 20
147.0994306981
 10
191.7320613612
 20
147.0875576775
 10
191.7054193484
 20
147.0759697362
 10
191.6790068931
 20
147.0646626685
 10
191.6528085356
 20
147.0536239956
 10
191.6268262833
 20
147.0428489933
  0
LINE
  5
442
100
AcDbEntity
  8
0
100
AcDbLine
 62
7
  6
CONTINUOUS
 10
191.9338385254
 20
131.0880422291
 11
191.9338385254
 21
130.8880422291
  0
LINE
  5
443
100
AcDbEntity
  8
0
100
AcDbLine
 62
7
  6
CONTINUOUS
 10
194.9338385254
 20
130.8880422291
 11
194.9338385254
 21
82.3880422291
  0
LINE
  5
444
100
AcDbEntity
  8
_26_BEZUGSACHSEN
100
AcDbLine
 62
7
  6
CONTINUOUS
 10
195.8578772904
 20
157.6572446584
 11
194.6485081754
 21
150.7985715833
  0
LWPOLYLINE
  5
445
100
AcDbEntity
  8
_26_BEZUGSACHSEN
100
AcDbPolyline
 62
7
  6
CONTINUOUS
 90
17
 70
0
 10
194.6485149496
 20
150.7986096453
 10
194.6272940866
 20
150.6858189337
 10
194.6019843601
 20
150.5667908171
 10
194.5743592521
 20
150.450726378
 10
194.54463141
 20
150.3378001329
 10
194.5129883201
 20
150.2280231834
 10
194.4796444597
 20
150.1214647968
 10
194.4448292037
 20
150.0182151888
 10
194.4086998822
 20
149.9181847526
 10
194.3714409222
 20
149.8214071799
 10
194.3332121243
 20
149.7278733734
 10
194.2940731022
 20
149.6373540872
 10
194.2541759335
 20
149.5498149357
 10
194.2136823431
 20
149.4652499123
 10
194.1726287406
 20
149.3834299174
 10
194.1311303335
 20
149.3043266421
 10
194.0893010347
 20
149.2279167323
  0
LINE
  5
446
100
AcDbEntity
  8
_30_VOLUMEN
100
AcDbLine
 62
7
  6
CONTINUOUS
 10
195.2338385254
 20
169.5929387938
 11
195.2338385254
 21
179.0402700314
  0
LINE
  5
447
100
AcDbEntity
  8
_30_VOLUMEN
100
AcDbLine
 62
7
  6
CONTINUOUS
 10
195.2338385254
 20
179.0477284302
 11
195.2338385254
 21
187.164172866
  0
LINE
  5
448
100
AcDbEntity
  8
_26_BEZUGSACHSEN
100
AcDbLine
 62
7
  6
CONTINUOUS
 10
195.9338385254
 20
158.5254855467
 11
195.9338385254
 21
193.1448115812
  0
LINE
  5
449
100
AcDbEntity
  8
0
100
AcDbLine
 62
7
  6
CONTINUOUS
 10
191.9338385254
 20
130.8880422291
 11
213.9338385254
 21
130.8880422291
  0
LINE
  5
44A
100
AcDbEntity
  8
_30_VOLUMEN
100
AcDbLine
 62
7
  6
CONTINUOUS
 10
180.9338385254
 20
131.0880422291
 11
224.9338385254
 21
131.0880422291
  0
LINE
  5
44B
100
AcDbEntity
  8
_30_VOLUMEN
100
AcDbLine
 62
7
  6
CONTINUOUS
 10
180.8766362461
 20
135.7188447469
 11
180.1630200862
 21
135.7188447469
  0
LINE
  5
44C
100
AcDbEntity
  8
_30_VOLUMEN
100
AcDbLine
 62
7
  6
CONTINUOUS
 10
224.1690355753
 20
136.0880422291
 11
226.1236497309
 21
136.0880422291
  0
LINE
  5
44D
100
AcDbEntity
  8
_30_VOLUMEN
100
AcDbLine
 62
7
  6
CONTINUOUS
 10
180.0798402292
 20
136.1815820985
 11
180.0237977658
 21
136.1815820985
  0
LINE
  5
44E
100
AcDbEntity
  8
_30_VOLUMEN
100
AcDbLine
 62
7
  6
CONTINUOUS
 10
179.9230869916
 20
136.1847867262
 11
179.7338399615
 21
136.1847867262
  0
LINE
  5
44F
100
AcDbEntity
  8
_30_VOLUMEN
100
AcDbLine
 62
7
  6
CONTINUOUS
 10
226.1236497309
 20
136.7263401147
 11
225.8961411661
 21
136.7263401147
  0
LINE
  5
450
100
AcDbEntity
  8
_30_VOLUMEN
100
AcDbLine
 62
7
  6
CONTINUOUS
 10
225.0917801039
 20
136.7263401147
 11
225.7753816814
 21
136.7263401147
  0
LINE
  5
451
100
AcDbEntity
  8
_30_VOLUMEN
100
AcDbLine
 62
7
  6
CONTINUOUS
 10
225.9090545847
 20
136.8380422291
 11
226.1284499685
 21
136.8380422291
  0
LINE
  5
452
100
AcDbEntity
  8
_30_VOLUMEN
100
AcDbLine
 62
7
  6
CONTINUOUS
 10
180.0798402292
 20
137.0973474402
 11
179.7806257724
 21
137.0973474402
  0
LINE
  5
453
100
AcDbEntity
  8
_30_VOLUMEN
100
AcDbLine
 62
7
  6
CONTINUOUS
 10
179.7911610075
 20
137.6189378842
 11
179.9086418799
 21
137.6189378842
  0
LINE
  5
454
100
AcDbEntity
  8
_30_VOLUMEN
100
AcDbLine
 62
7
  6
CONTINUOUS
 10
180.0798402292
 20
137.6238978841
 11
179.912954845
 21
137.6238978841
  0
LINE
  5
455
100
AcDbEntity
  8
_30_VOLUMEN
100
AcDbLine
 62
7
  6
CONTINUOUS
 10
180.0798402292
 20
137.6635778846
 11
179.9145080738
 21
137.6635778846
  0
LINE
  5
456
100
AcDbEntity
  8
_30_VOLUMEN
100
AcDbLine
 62
7
  6
CONTINUOUS
 10
179.7934541451
 20
137.7528761561
 11
179.7348369425
 21
137.7528761561
  0
LINE
  5
457
100
AcDbEntity
  8
_30_VOLUMEN
100
AcDbLine
 62
7
  6
CONTINUOUS
 10
180.0798402292
 20
137.8371778784
 11
179.9034761757
 21
137.8371778784
  0
LINE
  5
458
100
AcDbEntity
  8
_30_VOLUMEN
100
AcDbLine
 62
7
  6
CONTINUOUS
 10
179.8210136845
 20
138.2028761561
 11
179.7348369425
 21
138.2028761561
  0
LINE
  5
459
100
AcDbEntity
  8
_30_VOLUMEN
100
AcDbLine
 62
7
  6
CONTINUOUS
 10
225.0917801039
 20
138.2582549151
 11
225.629209042
 21
138.2582549151
  0
LINE
  5
45A
100
AcDbEntity
  8
_30_VOLUMEN
100
AcDbLine
 62
7
  6
CONTINUOUS
 10
225.0917801039
 20
138.8965528902
 11
225.629209042
 21
138.8965528902
  0
LINE
  5
45B
100
AcDbEntity
  8
_30_VOLUMEN
100
AcDbLine
 62
7
  6
CONTINUOUS
 10
179.8210136845
 20
138.9479315137
 11
179.7348369425
 21
138.9479315137
  0
LINE
  5
45C
100
AcDbEntity
  8
_30_VOLUMEN
100
AcDbLine
 62
7
  6
CONTINUOUS
 10
179.8210136845
 20
139.3979315137
 11
179.7348369425
 21
139.3979315137
  0
LINE
  5
45D
100
AcDbEntity
  8
_30_VOLUMEN
100
AcDbLine
 62
7
  6
CONTINUOUS
 10
225.3878714429
 20
139.9178293642
 11
226.0892610925
 21
139.9178293642
  0
LINE
  5
45E
100
AcDbEntity
  8
_30_VOLUMEN
100
AcDbLine
 62
7
  6
CONTINUOUS
 10
180.0798402292
 20
139.9550979622
 11
179.8647011021
 21
139.9550979622
  0
LINE
  5
45F
100
AcDbEntity
  8
_30_VOLUMEN
100
AcDbLine
 62
7
  6
CONTINUOUS
 10
180.0798402292
 20
139.9898178848
 11
179.8641725857
 21
139.9898178848
  0
LINE
  5
460
100
AcDbEntity
  8
_30_VOLUMEN
100
AcDbLine
 62
7
  6
CONTINUOUS
 10
180.0798402292
 20
139.999737831
 11
179.8589466906
 21
139.999737831
  0
LINE
  5
461
100
AcDbEntity
  8
_30_VOLUMEN
100
AcDbLine
 62
7
  6
CONTINUOUS
 10
180.0798402292
 20
140.1429868714
 11
179.7348369425
 21
140.1429868714
  0
LINE
  5
462
100
AcDbEntity
  8
_30_VOLUMEN
100
AcDbLine
 62
7
  6
CONTINUOUS
 10
223.9635793702
 20
140.1731484827
 11
224.7108906675
 21
140.1731484827
  0
LINE
  5
463
100
AcDbEntity
  8
_30_VOLUMEN
100
AcDbLine
 62
7
  6
CONTINUOUS
 10
225.3990894699
 20
140.4284676012
 11
226.1001394817
 21
140.4284676012
  0
LINE
  5
464
100
AcDbEntity
  8
_30_VOLUMEN
100
AcDbLine
 62
7
  6
CONTINUOUS
 10
180.0798402292
 20
140.5929868714
 11
179.7348369425
 21
140.5929868714
  0
LINE
  5
465
100
AcDbEntity
  8
_30_VOLUMEN
100
AcDbLine
 62
7
  6
CONTINUOUS
 10
180.0798402292
 20
140.6197379049
 11
179.8381740476
 21
140.6197379049
  0
LINE
  5
466
100
AcDbEntity
  8
_30_VOLUMEN
100
AcDbLine
 62
7
  6
CONTINUOUS
 10
225.0917801039
 20
140.6837870773
 11
226.1001394817
 21
140.6837870773
  0
LINE
  5
467
100
AcDbEntity
  8
_30_VOLUMEN
100
AcDbLine
 62
7
  6
CONTINUOUS
 10
225.8961411661
 20
141.0667657551
 11
226.0892610925
 21
141.0667657551
  0
LINE
  5
468
100
AcDbEntity
  8
_30_VOLUMEN
100
AcDbLine
 62
7
  6
CONTINUOUS
 10
223.9635793702
 20
141.1944253143
 11
224.7108906675
 21
141.1944253143
  0
LINE
  5
469
100
AcDbEntity
  8
_30_VOLUMEN
100
AcDbLine
 62
7
  6
CONTINUOUS
 10
225.097646314
 20
141.1944253143
 11
225.8079368834
 21
141.1944253143
  0
LINE
  5
46A
100
AcDbEntity
  8
_30_VOLUMEN
100
AcDbLine
 62
7
  6
CONTINUOUS
 10
180.0798402292
 20
141.2198978647
 11
179.8381740476
 21
141.2198978647
  0
LINE
  5
46B
100
AcDbEntity
  8
_30_VOLUMEN
100
AcDbLine
 62
7
  6
CONTINUOUS
 10
225.9349585492
 20
141.3220848736
 11
226.0700849593
 21
141.3220848736
  0
LINE
  5
46C
100
AcDbEntity
  8
_30_VOLUMEN
100
AcDbLine
 62
7
  6
CONTINUOUS
 10
180.0149184305
 20
141.3380422291
 11
179.7348369425
 21
141.3380422291
  0
LINE
  5
46D
100
AcDbEntity
  8
_30_VOLUMEN
100
AcDbLine
 62
7
  6
CONTINUOUS
 10
226.1168775078
 20
141.3380422291
 11
226.1284499685
 21
141.3380422291
  0
LINE
  5
46E
100
AcDbEntity
  8
_30_VOLUMEN
100
AcDbLine
 62
7
  6
CONTINUOUS
 10
225.9918868961
 20
141.4497444328
 11
226.0304799039
 21
141.4497444328
  0
LINE
  5
46F
100
AcDbEntity
  8
_30_VOLUMEN
100
AcDbLine
 62
7
  6
CONTINUOUS
 10
179.934458667
 20
141.5580422291
 11
179.7338399615
 21
141.5580422291
  0
LINE
  5
470
100
AcDbEntity
  8
_30_VOLUMEN
100
AcDbLine
 62
7
  6
CONTINUOUS
 10
180.8766382292
 20
141.6688447469
 11
180.1630220071
 21
141.6688447469
  0
LINE
  5
471
100
AcDbEntity
  8
_30_VOLUMEN
100
AcDbLine
 62
7
  6
CONTINUOUS
 10
225.1599492963
 20
141.7050635513
 11
225.8683103963
 21
141.7050635513
  0
LINE
  5
472
100
AcDbEntity
  8
_30_VOLUMEN
100
AcDbLine
 62
7
  6
CONTINUOUS
 10
225.2157678879
 20
141.9603826698
 11
225.9224090794
 21
141.9603826698
  0
LINE
  5
473
100
AcDbEntity
  8
_30_VOLUMEN
100
AcDbLine
 62
7
  6
CONTINUOUS
 10
224.1690355753
 20
142.0880422291
 11
225.0917801039
 21
142.0880422291
  0
LINE
  5
474
100
AcDbEntity
  8
_30_VOLUMEN
100
AcDbLine
 62
7
  6
CONTINUOUS
 10
225.2979900307
 20
142.0880422291
 11
226.0391671518
 21
142.0880422291
  0
LINE
  5
475
100
AcDbEntity
  8
_30_VOLUMEN
100
AcDbLine
 62
7
  6
CONTINUOUS
 10
180.4820846717
 20
142.5955469427
 11
179.7806259814
 21
142.5955469427
  0
LINE
  5
476
100
AcDbEntity
  8
_30_VOLUMEN
100
AcDbLine
 62
7
  6
CONTINUOUS
 10
180.4338385254
 20
142.6059566303
 11
179.7826395039
 21
142.6059566303
  0
LINE
  5
477
100
AcDbEntity
  8
_30_VOLUMEN
100
AcDbLine
 62
7
  6
CONTINUOUS
 10
209.9338385254
 20
158.5254855467
 11
209.9338385254
 21
193.1448115812
  0
LINE
  5
478
100
AcDbEntity
  8
_30_VOLUMEN
100
AcDbLine
 62
7
  6
CONTINUOUS
 10
210.6338385254
 20
184.5724033425
 11
210.6338385254
 21
165.6663342714
  0
LINE
  5
479
100
AcDbEntity
  8
0
100
AcDbLine
 62
7
  6
CONTINUOUS
 10
210.9338385254
 20
130.8880422291
 11
210.9338385254
 21
82.3880422291
  0
LINE
  5
47A
100
AcDbEntity
  8
0
100
AcDbLine
 62
7
  6
CONTINUOUS
 10
213.9338385254
 20
131.0880422291
 11
213.9338385254
 21
130.8880422291
  0
LINE
  5
47B
100
AcDbEntity
  8
_26_BEZUGSACHSEN
100
AcDbLine
 62
7
  6
CONTINUOUS
 10
190.2471117267
 20
146.6942029948
 11
183.1202549016
 21
145.9451401584
  0
LINE
  5
47C
100
AcDbEntity
  8
_30_VOLUMEN
100
AcDbLine
 62
7
  6
CONTINUOUS
 10
215.620565324
 20
146.6942029948
 11
222.7474221491
 21
145.9451401584
  0
LWPOLYLINE
  5
47D
100
AcDbEntity
  8
_30_VOLUMEN
100
AcDbPolyline
 62
7
  6
CONTINUOUS
 90
7
 70
0
 10
214.2418550542
 20
147.0424359438
 10
214.2158814033
 20
147.0532007323
 10
214.1896880592
 20
147.0642304976
 10
214.1632770446
 20
147.0755300247
 10
214.1366321579
 20
147.0871121829
 10
214.1097580222
 20
147.0989811861
 10
214.0826529694
 20
147.1111441003
  0
LWPOLYLINE
  5
47E
100
AcDbEntity
  8
_30_VOLUMEN
100
AcDbPolyline
 62
7
  6
CONTINUOUS
 90
8
 70
0
 10
214.0826529694
 20
147.1111441003
 10
214.0552915666
 20
147.1236190827
 10
214.0277099366
 20
147.1363964713
 10
213.9998754532
 20
147.1494983428
 10
213.9716601555
 20
147.1629939248
 10
213.9430362247
 20
147.1769076043
 10
213.9140364468
 20
147.1912347852
 10
213.8846245062
 20
147.2060051501
  0
LWPOLYLINE
  5
47F
100
AcDbEntity
  8
_30_VOLUMEN
100
AcDbPolyline
 62
7
  6
CONTINUOUS
 90
54
 70
0
 10
213.8846245062
 20
147.2060051501
 10
213.8547730067
 20
147.2212453889
 10
213.8245153954
 20
147.2369517316
 10
213.793906698
 20
147.2531082351
 10
213.7629498421
 20
147.2697256256
 10
213.7316481659
 20
147.2868146775
 10
213.7000569714
 20
147.3043573687
 10
213.6681795605
 20
147.3223636225
 10
213.6360191576
 20
147.3408436934
 10
213.6036305681
 20
147.3597777299
 10
213.5710170371
 20
147.3791749768
 10
213.5381820722
 20
147.3990447421
 10
213.5051804554
 20
147.4193647498
 10
213.4720158631
 20
147.440143069
 10
213.4386915234
 20
147.4613882898
 10
213.4052610847
 20
147.4830762769
 10
213.3717333322
 20
147.505210662
 10
213.3381064282
 20
147.5278021713
 10
213.3044176843
 20
147.5508349938
 10
213.2706958484
 20
147.5742979201
 10
213.2369193067
 20
147.5982146799
 10
213.2030502033
 20
147.6226222938
 10
213.1691000868
 20
147.6475235634
 10
213.1350662752
 20
147.6729317193
 10
213.1008909124
 20
147.698902917
 10
213.0665796284
 20
147.7254475213
 10
213.0321382028
 20
147.7525761883
 10
212.9975107879
 20
147.7803499078
 10
212.9627068256
 20
147.8087800457
 10
212.9277315576
 20
147.8378817355
 10
212.8925248846
 20
147.8677263064
 10
212.8570938515
 20
147.8983315162
 10
212.8214499471
 20
147.9297120966
 10
212.7855423381
 20
147.9619399929
 10
212.7493895936
 20
147.9950283366
 10
212.712996982
 20
148.0290034792
 10
212.6762970699
 20
148.0639630019
 10
212.6393296541
 20
148.0999055754
 10
212.6020848568
 20
148.1368788951
 10
212.5644261679
 20
148.1750641242
 10
212.5264052436
 20
148.2144609564
 10
212.488013069
 20
148.2551337781
 10
212.4490335472
 20
148.2973798409
 10
212.4094394742
 20
148.3413111747
 10
212.3693232003
 20
148.3869095721
 10
212.3286600765
 20
148.4342923063
 10
212.2874492877
 20
148.4835601444
 10
212.2457759416
 20
148.5347183915
 10
212.203751285
 20
148.5877405229
 10
212.1614291632
 20
148.6426724839
 10
212.1188554378
 20
148.6995678065
 10
212.0761345656
 20
148.7584016218
 10
212.0333493226
 20
148.8191789867
 10
211.9905324937
 20
148.8819830775
  0
LINE
  5
480
100
AcDbEntity
  8
_30_VOLUMEN
100
AcDbLine
 62
7
  6
CONTINUOUS
 10
210.0097997603
 20
157.6572446584
 11
211.2191688753
 21
150.7985715833
  0
LWPOLYLINE
  5
481
100
AcDbEntity
  8
_30_VOLUMEN
100
AcDbPolyline
 62
7
  6
CONTINUOUS
 90
4
 70
0
 10
211.9905324937
 20
148.8819830775
 10
211.9477256743
 20
148.946899084
 10
211.9050195732
 20
149.0139422813
 10
211.8926808499
 20
149.0340174581
  0
LWPOLYLINE
  5
482
100
AcDbEntity
  8
_30_VOLUMEN
100
AcDbPolyline
 62
7
  6
CONTINUOUS
 90
4
 70
0
 10
211.8826069992
 20
149.0504076736
 10
211.8624650684
 20
149.0831787158
 10
211.8200658793
 20
149.154767679
 10
211.7779279848
 20
149.2287186218
  0
LINE
  5
483
100
AcDbEntity
  8
_30_VOLUMEN
100
AcDbLine
 62
7
  6
CONTINUOUS
 10
223.9635793702
 20
141.1944253143
 11
223.9635793702
 21
140.1731484827
  0
LINE
  5
484
100
AcDbEntity
  8
_30_VOLUMEN
100
AcDbLine
 62
7
  6
CONTINUOUS
 10
224.1690355753
 20
140.1731484827
 11
224.1690355753
 21
136.0880422291
  0
LINE
  5
485
100
AcDbEntity
  8
_30_VOLUMEN
100
AcDbLine
 62
7
  6
CONTINUOUS
 10
224.7108906675
 20
141.1944253143
 11
224.7108906675
 21
140.1731484827
  0
LINE
  5
486
100
AcDbEntity
  8
_30_VOLUMEN
100
AcDbLine
 62
7
  6
CONTINUOUS
 10
224.9093611301
 20
141.0667657551
 11
224.9093611301
 21
136.0880422291
  0
LINE
  5
487
100
AcDbEntity
  8
_30_VOLUMEN
100
AcDbLine
 62
7
  6
CONTINUOUS
 10
224.9338385254
 20
133.0880422291
 11
224.9338385254
 21
131.0880422291
  0
LINE
  5
488
100
AcDbEntity
  8
_30_VOLUMEN
100
AcDbLine
 62
7
  6
CONTINUOUS
 10
225.0917801039
 20
136.0880422291
 11
225.0917801039
 21
142.0880422291
  0
LINE
  5
489
100
AcDbEntity
  8
_30_VOLUMEN
100
AcDbLine
 62
7
  6
CONTINUOUS
 10
225.3107099432
 20
138.8965528902
 11
225.3107099432
 21
138.2582549151
  0
LINE
  5
48A
100
AcDbEntity
  8
_30_VOLUMEN
100
AcDbLine
 62
7
  6
CONTINUOUS
 10
225.3990894699
 20
140.4284676012
 11
225.3990894699
 21
140.6837870773
  0
LINE
  5
48B
100
AcDbEntity
  8
_30_VOLUMEN
100
AcDbLine
 62
7
  6
CONTINUOUS
 10
225.4338385254
 20
135.4859579907
 11
225.4338385254
 21
136.0880422291
  0
LINE
  5
48C
100
AcDbEntity
  8
_30_VOLUMEN
100
AcDbLine
 62
7
  6
CONTINUOUS
 10
225.4338385254
 20
142.0880422291
 11
225.4338385254
 21
142.9615745349
  0
LINE
  5
48D
100
AcDbEntity
  8
_30_VOLUMEN
100
AcDbLine
 62
7
  6
CONTINUOUS
 10
225.629209042
 20
138.2582549151
 11
225.629209042
 21
138.8965528902
  0
LINE
  5
48E
100
AcDbEntity
  8
_30_VOLUMEN
100
AcDbLine
 62
7
  6
CONTINUOUS
 10
225.7753816814
 20
136.7263401147
 11
225.7753816814
 21
136.0880422291
  0
LINE
  5
48F
100
AcDbEntity
  8
_30_VOLUMEN
100
AcDbLine
 62
7
  6
CONTINUOUS
 10
226.1001394817
 20
140.6837870773
 11
226.1001394817
 21
140.4284676012
  0
LINE
  5
490
100
AcDbEntity
  8
_30_VOLUMEN
100
AcDbLine
 62
7
  6
CONTINUOUS
 10
226.1236497309
 20
136.0880422291
 11
226.1236497309
 21
136.7263401147
  0
LINE
  5
491
100
AcDbEntity
  8
_30_VOLUMEN
100
AcDbLine
 62
7
  6
CONTINUOUS
 10
226.1236497309
 20
140.4284676012
 11
226.1236497309
 21
140.6837870773
  0
LINE
  5
492
100
AcDbEntity
  8
_30_VOLUMEN
100
AcDbLine
 62
7
  6
CONTINUOUS
 10
226.1284499685
 20
141.3380422291
 11
226.1284499685
 21
136.8380422291
  0
LINE
  5
493
100
AcDbEntity
  8
_30_VOLUMEN
100
AcDbLine
 62
7
  6
CONTINUOUS
 10
209.9338385254
 20
165.6663342714
 11
210.6338385254
 21
165.6663342714
  0
LINE
  5
494
100
AcDbEntity
  8
_30_VOLUMEN
100
AcDbLine
 62
7
  6
CONTINUOUS
 10
209.9338385254
 20
166.0548012956
 11
210.6338385254
 21
166.0548012956
  0
LINE
  5
495
100
AcDbEntity
  8
_30_VOLUMEN
100
AcDbLine
 62
7
  6
CONTINUOUS
 10
209.9338385254
 20
166.7176105883
 11
210.6338385254
 21
166.7176105883
  0
LINE
  5
496
100
AcDbEntity
  8
_30_VOLUMEN
100
AcDbLine
 62
7
  6
CONTINUOUS
 10
209.9338385254
 20
166.8090546425
 11
210.6338385254
 21
166.8090546425
  0
LINE
  5
497
100
AcDbEntity
  8
_30_VOLUMEN
100
AcDbLine
 62
7
  6
CONTINUOUS
 10
209.9338385254
 20
167.4515220921
 11
210.6338385254
 21
167.4515220921
  0
LINE
  5
498
100
AcDbEntity
  8
_30_VOLUMEN
100
AcDbLine
 62
7
  6
CONTINUOUS
 10
209.9338385254
 20
168.770201433
 11
210.6338385254
 21
168.770201433
  0
LINE
  5
499
100
AcDbEntity
  8
_30_VOLUMEN
100
AcDbLine
 62
7
  6
CONTINUOUS
 10
209.9338385254
 20
169.0312568295
 11
210.6338385254
 21
169.0312568295
  0
LINE
  5
49A
100
AcDbEntity
  8
_30_VOLUMEN
100
AcDbLine
 62
7
  6
CONTINUOUS
 10
209.9338385254
 20
169.2100281116
 11
210.6338385254
 21
169.2100281116
  0
LINE
  5
49B
100
AcDbEntity
  8
_30_VOLUMEN
100
AcDbLine
 62
7
  6
CONTINUOUS
 10
209.9338385254
 20
169.3201849549
 11
210.6338385254
 21
169.3201849549
  0
LINE
  5
49C
100
AcDbEntity
  8
_30_VOLUMEN
100
AcDbLine
 62
7
  6
CONTINUOUS
 10
209.9338385254
 20
169.3341213193
 11
210.6338385254
 21
169.3341213193
  0
LINE
  5
49D
100
AcDbEntity
  8
_30_VOLUMEN
100
AcDbLine
 62
7
  6
CONTINUOUS
 10
195.9338385254
 20
169.5929387938
 11
195.2338385254
 21
169.5929387938
  0
LINE
  5
49E
100
AcDbEntity
  8
_30_VOLUMEN
100
AcDbLine
 62
7
  6
CONTINUOUS
 10
209.9338385254
 20
169.6118703471
 11
210.6338385254
 21
169.6118703471
  0
LINE
  5
49F
100
AcDbEntity
  8
_30_VOLUMEN
100
AcDbLine
 62
7
  6
CONTINUOUS
 10
209.9338385254
 20
169.6619425701
 11
210.6338385254
 21
169.6619425701
  0
LINE
  5
4A0
100
AcDbEntity
  8
_30_VOLUMEN
100
AcDbLine
 62
7
  6
CONTINUOUS
 10
195.9338385254
 20
169.7016594295
 11
195.2338385254
 21
169.7016594295
  0
LINE
  5
4A1
100
AcDbEntity
  8
_30_VOLUMEN
100
AcDbLine
 62
7
  6
CONTINUOUS
 10
209.9338385254
 20
170.3023694672
 11
210.6338385254
 21
170.3023694672
  0
LINE
  5
4A2
100
AcDbEntity
  8
_30_VOLUMEN
100
AcDbLine
 62
7
  6
CONTINUOUS
 10
195.9338385254
 20
170.3040233867
 11
195.2338385254
 21
170.3040233867
  0
LINE
  5
4A3
100
AcDbEntity
  8
_30_VOLUMEN
100
AcDbLine
 62
7
  6
CONTINUOUS
 10
195.9338385254
 20
170.3322390742
 11
195.2338385254
 21
170.3322390742
  0
LINE
  5
4A4
100
AcDbEntity
  8
_30_VOLUMEN
100
AcDbLine
 62
7
  6
CONTINUOUS
 10
195.9338385254
 20
170.3757273833
 11
195.2338385254
 21
170.3757273833
  0
LINE
  5
4A5
100
AcDbEntity
  8
_30_VOLUMEN
100
AcDbLine
 62
7
  6
CONTINUOUS
 10
195.9338385254
 20
170.5214646886
 11
195.2338385254
 21
170.5214646886
  0
LINE
  5
4A6
100
AcDbEntity
  8
_30_VOLUMEN
100
AcDbLine
 62
7
  6
CONTINUOUS
 10
209.9338385254
 20
170.6217035527
 11
210.6338385254
 21
170.6217035527
  0
LINE
  5
4A7
100
AcDbEntity
  8
_30_VOLUMEN
100
AcDbLine
 62
7
  6
CONTINUOUS
 10
209.9338385254
 20
170.7533480769
 11
210.6338385254
 21
170.7533480769
  0
LINE
  5
4A8
100
AcDbEntity
  8
_30_VOLUMEN
100
AcDbLine
 62
7
  6
CONTINUOUS
 10
195.9338385254
 20
170.8434884554
 11
195.2338385254
 21
170.8434884554
  0
LINE
  5
4A9
100
AcDbEntity
  8
_30_VOLUMEN
100
AcDbLine
 62
7
  6
CONTINUOUS
 10
209.9338385254
 20
170.9543329167
 11
210.6338385254
 21
170.9543329167
  0
LINE
  5
4AA
100
AcDbEntity
  8
_30_VOLUMEN
100
AcDbLine
 62
7
  6
CONTINUOUS
 10
195.9338385254
 20
171.1220239741
 11
195.2338385254
 21
171.1220239741
  0
LINE
  5
4AB
100
AcDbEntity
  8
_30_VOLUMEN
100
AcDbLine
 62
7
  6
CONTINUOUS
 10
209.9338385254
 20
171.1227542477
 11
210.6338385254
 21
171.1227542477
  0
LINE
  5
4AC
100
AcDbEntity
  8
_30_VOLUMEN
100
AcDbLine
 62
7
  6
CONTINUOUS
 10
209.9338385254
 20
171.2586123889
 11
210.6338385254
 21
171.2586123889
  0
LINE
  5
4AD
100
AcDbEntity
  8
_30_VOLUMEN
100
AcDbLine
 62
7
  6
CONTINUOUS
 10
195.9338385254
 20
171.4963383313
 11
195.2338385254
 21
171.4963383313
  0
LINE
  5
4AE
100
AcDbEntity
  8
_30_VOLUMEN
100
AcDbLine
 62
7
  6
CONTINUOUS
 10
195.9338385254
 20
171.7313842568
 11
195.2338385254
 21
171.7313842568
  0
LINE
  5
4AF
100
AcDbEntity
  8
_30_VOLUMEN
100
AcDbLine
 62
7
  6
CONTINUOUS
 10
209.9338385254
 20
171.8990392859
 11
210.6338385254
 21
171.8990392859
  0
LINE
  5
4B0
100
AcDbEntity
  8
_30_VOLUMEN
100
AcDbLine
 62
7
  6
CONTINUOUS
 10
195.9338385254
 20
172.1209725197
 11
195.2338385254
 21
172.1209725197
  0
LINE
  5
4B1
100
AcDbEntity
  8
_30_VOLUMEN
100
AcDbLine
 62
7
  6
CONTINUOUS
 10
209.9338385254
 20
172.2183732192
 11
210.6338385254
 21
172.2183732192
  0
LINE
  5
4B2
100
AcDbEntity
  8
_30_VOLUMEN
100
AcDbLine
 62
7
  6
CONTINUOUS
 10
195.9338385254
 20
172.3125315419
 11
195.2338385254
 21
172.3125315419
  0
LINE
  5
4B3
100
AcDbEntity
  8
_30_VOLUMEN
100
AcDbLine
 62
7
  6
CONTINUOUS
 10
195.9338385254
 20
172.460600971
 11
195.2338385254
 21
172.460600971
  0
LINE
  5
4B4
100
AcDbEntity
  8
_30_VOLUMEN
100
AcDbLine
 62
7
  6
CONTINUOUS
 10
209.9338385254
 20
172.9622309437
 11
210.6338385254
 21
172.9622309437
  0
LINE
  5
4B5
100
AcDbEntity
  8
_30_VOLUMEN
100
AcDbLine
 62
7
  6
CONTINUOUS
 10
195.9338385254
 20
173.4297551418
 11
195.2338385254
 21
173.4297551418
  0
LINE
  5
4B6
100
AcDbEntity
  8
_30_VOLUMEN
100
AcDbLine
 62
7
  6
CONTINUOUS
 10
195.9338385254
 20
173.7694024222
 11
195.2338385254
 21
173.7694024222
  0
LINE
  5
4B7
100
AcDbEntity
  8
_30_VOLUMEN
100
AcDbLine
 62
7
  6
CONTINUOUS
 10
195.9338385254
 20
173.9196639061
 11
195.2338385254
 21
173.9196639061
  0
LINE
  5
4B8
100
AcDbEntity
  8
_30_VOLUMEN
100
AcDbLine
 62
7
  6
CONTINUOUS
 10
209.9338385254
 20
174.1802413394
 11
210.6338385254
 21
174.1802413394
  0
LINE
  5
4B9
100
AcDbEntity
  8
_30_VOLUMEN
100
AcDbLine
 62
7
  6
CONTINUOUS
 10
195.9338385254
 20
174.3044607509
 11
195.2338385254
 21
174.3044607509
  0
LINE
  5
4BA
100
AcDbEntity
  8
_30_VOLUMEN
100
AcDbLine
 62
7
  6
CONTINUOUS
 10
195.9338385254
 20
174.3558273571
 11
195.2338385254
 21
174.3558273571
  0
LINE
  5
4BB
100
AcDbEntity
  8
_30_VOLUMEN
100
AcDbLine
 62
7
  6
CONTINUOUS
 10
210.6338385254
 20
174.4064667656
 11
209.9338385254
 21
174.4064667656
  0
LINE
  5
4BC
100
AcDbEntity
  8
_30_VOLUMEN
100
AcDbLine
 62
7
  6
CONTINUOUS
 10
210.6338385254
 20
174.5544144383
 11
209.9338385254
 21
174.5544144383
  0
LINE
  5
4BD
100
AcDbEntity
  8
_30_VOLUMEN
100
AcDbLine
 62
7
  6
CONTINUOUS
 10
195.9338385254
 20
174.5815695223
 11
195.2338385254
 21
174.5815695223
  0
LINE
  5
4BE
100
AcDbEntity
  8
_30_VOLUMEN
100
AcDbLine
 62
7
  6
CONTINUOUS
 10
210.6338385254
 20
174.6473082446
 11
209.9338385254
 21
174.6473082446
  0
LINE
  5
4BF
100
AcDbEntity
  8
_30_VOLUMEN
100
AcDbLine
 62
7
  6
CONTINUOUS
 10
209.9338385254
 20
174.9145545322
 11
210.6338385254
 21
174.9145545322
  0
LINE
  5
4C0
100
AcDbEntity
  8
_30_VOLUMEN
100
AcDbLine
 62
7
  6
CONTINUOUS
 10
195.9338385254
 20
174.9964623007
 11
195.2338385254
 21
174.9964623007
  0
LINE
  5
4C1
100
AcDbEntity
  8
_30_VOLUMEN
100
AcDbLine
 62
7
  6
CONTINUOUS
 10
195.9338385254
 20
175.0719505493
 11
195.2338385254
 21
175.0719505493
  0
LINE
  5
4C2
100
AcDbEntity
  8
_30_VOLUMEN
100
AcDbLine
 62
7
  6
CONTINUOUS
 10
195.9338385254
 20
175.2151361816
 11
195.2338385254
 21
175.2151361816
  0
LINE
  5
4C3
100
AcDbEntity
  8
_30_VOLUMEN
100
AcDbLine
 62
7
  6
CONTINUOUS
 10
209.9338385254
 20
175.2189330762
 11
210.6338385254
 21
175.2189330762
  0
LINE
  5
4C4
100
AcDbEntity
  8
_30_VOLUMEN
100
AcDbLine
 62
7
  6
CONTINUOUS
 10
209.9338385254
 20
175.3939650242
 11
210.6338385254
 21
175.3939650242
  0
LINE
  5
4C5
100
AcDbEntity
  8
_30_VOLUMEN
100
AcDbLine
 62
7
  6
CONTINUOUS
 10
195.9338385254
 20
175.4976120889
 11
195.2338385254
 21
175.4976120889
  0
LINE
  5
4C6
100
AcDbEntity
  8
_30_VOLUMEN
100
AcDbLine
 62
7
  6
CONTINUOUS
 10
209.9338385254
 20
175.6713016708
 11
210.6338385254
 21
175.6713016708
  0
LINE
  5
4C7
100
AcDbEntity
  8
_30_VOLUMEN
100
AcDbLine
 62
7
  6
CONTINUOUS
 10
195.9338385254
 20
175.796037262
 11
195.2338385254
 21
175.796037262
  0
LINE
  5
4C8
100
AcDbEntity
  8
_30_VOLUMEN
100
AcDbLine
 62
7
  6
CONTINUOUS
 10
209.9338385254
 20
175.8463336187
 11
210.6338385254
 21
175.8463336187
  0
LINE
  5
4C9
100
AcDbEntity
  8
_30_VOLUMEN
100
AcDbLine
 62
7
  6
CONTINUOUS
 10
210.6338385254
 20
175.9655655373
 11
209.9338385254
 21
175.9655655373
  0
LINE
  5
4CA
100
AcDbEntity
  8
_30_VOLUMEN
100
AcDbLine
 62
7
  6
CONTINUOUS
 10
195.9338385254
 20
176.1621586596
 11
195.2338385254
 21
176.1621586596
  0
LINE
  5
4CB
100
AcDbEntity
  8
_30_VOLUMEN
100
AcDbLine
 62
7
  6
CONTINUOUS
 10
195.9338385254
 20
176.2135403506
 11
195.2338385254
 21
176.2135403506
  0
LINE
  5
4CC
100
AcDbEntity
  8
_30_VOLUMEN
100
AcDbLine
 62
7
  6
CONTINUOUS
 10
209.9338385254
 20
176.3553474523
 11
210.6338385254
 21
176.3553474523
  0
LINE
  5
4CD
100
AcDbEntity
  8
_30_VOLUMEN
100
AcDbLine
 62
7
  6
CONTINUOUS
 10
195.9338385254
 20
176.3925223909
 11
195.2338385254
 21
176.3925223909
  0
LINE
  5
4CE
100
AcDbEntity
  8
_30_VOLUMEN
100
AcDbLine
 62
7
  6
CONTINUOUS
 10
195.9338385254
 20
178.1519030645
 11
195.2338385254
 21
178.1519030645
  0
LINE
  5
4CF
100
AcDbEntity
  8
_30_VOLUMEN
100
AcDbLine
 62
7
  6
CONTINUOUS
 10
209.9338385254
 20
178.2528743699
 11
210.6338385254
 21
178.2528743699
  0
LINE
  5
4D0
100
AcDbEntity
  8
_30_VOLUMEN
100
AcDbLine
 62
7
  6
CONTINUOUS
 10
195.9338385254
 20
178.7499707478
 11
195.2338385254
 21
178.7499707478
  0
LINE
  5
4D1
100
AcDbEntity
  8
_30_VOLUMEN
100
AcDbLine
 62
7
  6
CONTINUOUS
 10
195.9338385254
 20
179.0402700314
 11
195.2338385254
 21
179.0402700314
  0
LINE
  5
4D2
100
AcDbEntity
  8
_30_VOLUMEN
100
AcDbLine
 62
7
  6
CONTINUOUS
 10
195.9338385254
 20
179.1744469138
 11
195.2338385254
 21
179.1744469138
  0
LINE
  5
4D3
100
AcDbEntity
  8
_30_VOLUMEN
100
AcDbLine
 62
7
  6
CONTINUOUS
 10
209.9338385254
 20
179.2985209633
 11
210.6338385254
 21
179.2985209633
  0
LINE
  5
4D4
100
AcDbEntity
  8
_30_VOLUMEN
100
AcDbLine
 62
7
  6
CONTINUOUS
 10
209.9338385254
 20
179.4759907629
 11
210.6338385254
 21
179.4759907629
  0
LINE
  5
4D5
100
AcDbEntity
  8
_30_VOLUMEN
100
AcDbLine
 62
7
  6
CONTINUOUS
 10
209.9338385254
 20
179.5291468026
 11
210.6338385254
 21
179.5291468026
  0
LINE
  5
4D6
100
AcDbEntity
  8
_30_VOLUMEN
100
AcDbLine
 62
7
  6
CONTINUOUS
 10
209.9338385254
 20
179.6411860882
 11
210.6338385254
 21
179.6411860882
  0
LINE
  5
4D7
100
AcDbEntity
  8
_30_VOLUMEN
100
AcDbLine
 62
7
  6
CONTINUOUS
 10
209.9338385254
 20
179.7120320983
 11
210.6338385254
 21
179.7120320983
  0
LINE
  5
4D8
100
AcDbEntity
  8
_30_VOLUMEN
100
AcDbLine
 62
7
  6
CONTINUOUS
 10
209.9338385254
 20
179.7379371782
 11
210.6338385254
 21
179.7379371782
  0
LINE
  5
4D9
100
AcDbEntity
  8
_30_VOLUMEN
100
AcDbLine
 62
7
  6
CONTINUOUS
 10
209.9338385254
 20
179.8815857504
 11
210.6338385254
 21
179.8815857504
  0
LINE
  5
4DA
100
AcDbEntity
  8
_30_VOLUMEN
100
AcDbLine
 62
7
  6
CONTINUOUS
 10
209.9338385254
 20
180.0644828805
 11
210.6338385254
 21
180.0644828805
  0
LINE
  5
4DB
100
AcDbEntity
  8
_30_VOLUMEN
100
AcDbLine
 62
7
  6
CONTINUOUS
 10
209.9338385254
 20
180.286628312
 11
210.6338385254
 21
180.286628312
  0
LINE
  5
4DC
100
AcDbEntity
  8
_30_VOLUMEN
100
AcDbLine
 62
7
  6
CONTINUOUS
 10
195.9338385254
 20
180.3879206281
 11
195.2338385254
 21
180.3879206281
  0
LINE
  5
4DD
100
AcDbEntity
  8
0
100
AcDbLine
 62
7
  6
CONTINUOUS
 10
210.9338385254
 20
82.3880422291
 11
209.4338385254
 21
80.8880422291
  0
LINE
  5
4DE
100
AcDbEntity
  8
_30_VOLUMEN
100
AcDbLine
 62
7
  6
CONTINUOUS
 10
209.9338385254
 20
180.626517236
 11
210.6338385254
 21
180.626517236
  0
LINE
  5
4DF
100
AcDbEntity
  8
_30_VOLUMEN
100
AcDbLine
 62
7
  6
CONTINUOUS
 10
195.9338385254
 20
180.6542030896
 11
195.2338385254
 21
180.6542030896
  0
LINE
  5
4E0
100
AcDbEntity
  8
_30_VOLUMEN
100
AcDbLine
 62
7
  6
CONTINUOUS
 10
195.9338385254
 20
180.8419905573
 11
195.2338385254
 21
180.8419905573
  0
LINE
  5
4E1
100
AcDbEntity
  8
_30_VOLUMEN
100
AcDbLine
 62
7
  6
CONTINUOUS
 10
209.9338385254
 20
180.8749585573
 11
210.6338385254
 21
180.8749585573
  0
LINE
  5
4E2
100
AcDbEntity
  8
_30_VOLUMEN
100
AcDbLine
 62
7
  6
CONTINUOUS
 10
209.9338385254
 20
181.0776756281
 11
210.6338385254
 21
181.0776756281
  0
LINE
  5
4E3
100
AcDbEntity
  8
_30_VOLUMEN
100
AcDbLine
 62
7
  6
CONTINUOUS
 10
195.9338385254
 20
181.1707441533
 11
195.2338385254
 21
181.1707441533
  0
LINE
  5
4E4
100
AcDbEntity
  8
_30_VOLUMEN
100
AcDbLine
 62
7
  6
CONTINUOUS
 10
209.9338385254
 20
181.2739159798
 11
210.6338385254
 21
181.2739159798
  0
LINE
  5
4E5
100
AcDbEntity
  8
_30_VOLUMEN
100
AcDbLine
 62
7
  6
CONTINUOUS
 10
209.9338385254
 20
181.424432081
 11
210.6338385254
 21
181.424432081
  0
LINE
  5
4E6
100
AcDbEntity
  8
_30_VOLUMEN
100
AcDbLine
 62
7
  6
CONTINUOUS
 10
195.9338385254
 20
181.4369822341
 11
195.2338385254
 21
181.4369822341
  0
LINE
  5
4E7
100
AcDbEntity
  8
_30_VOLUMEN
100
AcDbLine
 62
7
  6
CONTINUOUS
 10
209.9338385254
 20
181.44425215
 11
210.6338385254
 21
181.44425215
  0
LINE
  5
4E8
100
AcDbEntity
  8
_30_VOLUMEN
100
AcDbLine
 62
7
  6
CONTINUOUS
 10
195.9338385254
 20
181.7798711457
 11
195.2338385254
 21
181.7798711457
  0
LINE
  5
4E9
100
AcDbEntity
  8
_30_VOLUMEN
100
AcDbLine
 62
7
  6
CONTINUOUS
 10
195.9338385254
 20
181.8262103434
 11
195.2338385254
 21
181.8262103434
  0
LINE
  5
4EA
100
AcDbEntity
  8
_30_VOLUMEN
100
AcDbLine
 62
7
  6
CONTINUOUS
 10
195.9338385254
 20
182.0157971547
 11
195.2338385254
 21
182.0157971547
  0
LINE
  5
4EB
100
AcDbEntity
  8
_30_VOLUMEN
100
AcDbLine
 62
7
  6
CONTINUOUS
 10
195.9338385254
 20
182.3324557008
 11
195.2338385254
 21
182.3324557008
  0
LINE
  5
4EC
100
AcDbEntity
  8
_30_VOLUMEN
100
AcDbLine
 62
7
  6
CONTINUOUS
 10
195.9338385254
 20
182.675345051
 11
195.2338385254
 21
182.675345051
  0
LINE
  5
4ED
100
AcDbEntity
  8
_30_VOLUMEN
100
AcDbLine
 62
7
  6
CONTINUOUS
 10
195.9338385254
 20
182.9173930321
 11
195.2338385254
 21
182.9173930321
  0
LINE
  5
4EE
100
AcDbEntity
  8
_30_VOLUMEN
100
AcDbLine
 62
7
  6
CONTINUOUS
 10
209.9338385254
 20
182.9802968408
 11
210.6338385254
 21
182.9802968408
  0
LINE
  5
4EF
100
AcDbEntity
  8
_30_VOLUMEN
100
AcDbLine
 62
7
  6
CONTINUOUS
 10
195.9338385254
 20
183.070695571
 11
195.2338385254
 21
183.070695571
  0
LINE
  5
4F0
100
AcDbEntity
  8
_30_VOLUMEN
100
AcDbLine
 62
7
  6
CONTINUOUS
 10
195.9338385254
 20
183.2119026215
 11
195.2338385254
 21
183.2119026215
  0
LINE
  5
4F1
100
AcDbEntity
  8
_30_VOLUMEN
100
AcDbLine
 62
7
  6
CONTINUOUS
 10
195.9338385254
 20
183.2522691799
 11
195.2338385254
 21
183.2522691799
  0
LINE
  5
4F2
100
AcDbEntity
  8
_30_VOLUMEN
100
AcDbLine
 62
7
  6
CONTINUOUS
 10
209.9338385254
 20
183.254306848
 11
210.6338385254
 21
183.254306848
  0
LINE
  5
4F3
100
AcDbEntity
  8
_30_VOLUMEN
100
AcDbLine
 62
7
  6
CONTINUOUS
 10
195.9338385254
 20
184.1012155974
 11
195.2338385254
 21
184.1012155974
  0
LINE
  5
4F4
100
AcDbEntity
  8
_30_VOLUMEN
100
AcDbLine
 62
7
  6
CONTINUOUS
 10
195.9338385254
 20
184.3035859943
 11
195.2338385254
 21
184.3035859943
  0
LINE
  5
4F5
100
AcDbEntity
  8
_30_VOLUMEN
100
AcDbLine
 62
7
  6
CONTINUOUS
 10
195.9338385254
 20
184.3880664839
 11
195.2338385254
 21
184.3880664839
  0
LINE
  5
4F6
100
AcDbEntity
  8
_30_VOLUMEN
100
AcDbLine
 62
7
  6
CONTINUOUS
 10
210.6338385254
 20
184.5724033425
 11
209.9338385254
 21
184.5724033425
  0
LINE
  5
4F7
100
AcDbEntity
  8
_30_VOLUMEN
100
AcDbLine
 62
7
  6
CONTINUOUS
 10
195.9338385254
 20
184.5868259621
 11
195.2338385254
 21
184.5868259621
  0
LINE
  5
4F8
100
AcDbEntity
  8
_30_VOLUMEN
100
AcDbLine
 62
7
  6
CONTINUOUS
 10
195.9338385254
 20
184.8998047585
 11
195.2338385254
 21
184.8998047585
  0
LINE
  5
4F9
100
AcDbEntity
  8
_30_VOLUMEN
100
AcDbLine
 62
7
  6
CONTINUOUS
 10
195.9338385254
 20
185.1849032239
 11
195.2338385254
 21
185.1849032239
  0
LINE
  5
4FA
100
AcDbEntity
  8
_30_VOLUMEN
100
AcDbLine
 62
7
  6
CONTINUOUS
 10
195.9338385254
 20
185.3854612001
 11
195.2338385254
 21
185.3854612001
  0
LINE
  5
4FB
100
AcDbEntity
  8
_30_VOLUMEN
100
AcDbLine
 62
7
  6
CONTINUOUS
 10
195.9338385254
 20
185.5293593475
 11
195.2338385254
 21
185.5293593475
  0
LINE
  5
4FC
100
AcDbEntity
  8
_30_VOLUMEN
100
AcDbLine
 62
7
  6
CONTINUOUS
 10
195.9338385254
 20
185.5878176744
 11
195.2338385254
 21
185.5878176744
  0
LINE
  5
4FD
100
AcDbEntity
  8
_30_VOLUMEN
100
AcDbLine
 62
7
  6
CONTINUOUS
 10
195.9338385254
 20
186.0490744795
 11
195.2338385254
 21
186.0490744795
  0
LINE
  5
4FE
100
AcDbEntity
  8
_30_VOLUMEN
100
AcDbLine
 62
7
  6
CONTINUOUS
 10
195.9338385254
 20
186.3488269473
 11
195.2338385254
 21
186.3488269473
  0
LINE
  5
4FF
100
AcDbEntity
  8
_30_VOLUMEN
100
AcDbLine
 62
7
  6
CONTINUOUS
 10
195.9338385254
 20
187.164172866
 11
195.2338385254
 21
187.164172866
  0
LINE
  5
500
100
AcDbEntity
  8
_26_BEZUGSACHSEN
100
AcDbLine
 62
7
  6
CONTINUOUS
 10
206.9338385254
 20
196.1448115812
 11
198.9338385254
 21
196.1448115812
  0
LINE
  5
501
100
AcDbEntity
  8
_26_BEZUGSACHSEN
100
AcDbLine
 62
7
  6
CONTINUOUS
 10
60.4067872966
 20
33.6721582087
 11
60.4067872966
 21
41.6721582087
  0
LINE
  5
502
100
AcDbEntity
  8
_26_BEZUGSACHSEN
100
AcDbLine
 62
7
  6
CONTINUOUS
 10
63.2232335598
 20
45.247648417
 11
63.2233075844
 21
45.2478221895
  0
LWPOLYLINE
  5
503
100
AcDbEntity
  8
_26_BEZUGSACHSEN
100
AcDbPolyline
 62
7
  6
CONTINUOUS
 90
3
 70
0
 10
63.2232339685
 20
45.247648021
 10
63.2104688197
 20
45.2180713725
 10
63.1835397269
 20
45.1586513572
  0
LWPOLYLINE
  5
504
100
AcDbEntity
  8
_30_VOLUMEN
100
AcDbPolyline
 62
7
  6
CONTINUOUS
 90
3
 70
0
 10
63.1780514571
 20
30.197784277
 10
63.2105362295
 20
30.1260908811
 10
63.2232335473
 20
30.0966693853
  0
LINE
  5
505
100
AcDbEntity
  8
_30_VOLUMEN
100
AcDbLine
 62
7
  6
CONTINUOUS
 10
63.2232331386
 20
30.0966689893
 11
63.2236196213
 21
30.095762205
  0
LWPOLYLINE
  5
506
100
AcDbEntity
  8
_30_VOLUMEN
100
AcDbPolyline
 62
7
  6
CONTINUOUS
 90
7
 70
0
 10
63.1326618078
 20
30.2916388584
 10
63.1260199845
 20
30.3010880314
 10
63.119771242
 20
30.3104445872
 10
63.1224651978
 20
30.305955128
 10
63.1335087125
 20
30.2863956241
 10
63.1522099534
 20
30.2507668996
 10
63.1780514571
 20
30.197784277
  0
LINE
  5
507
100
AcDbEntity
  8
_30_VOLUMEN
100
AcDbLine
 62
7
  6
CONTINUOUS
 10
67.7786989418
 20
30.6721582087
 11
67.7786989418
 21
29.9721582087
  0
LINE
  5
508
100
AcDbEntity
  8
_30_VOLUMEN
100
AcDbLine
 62
7
  6
CONTINUOUS
 10
68.0678092941
 20
30.6721582087
 11
68.0678092941
 21
29.9721582087
  0
LINE
  5
509
100
AcDbEntity
  8
_30_VOLUMEN
100
AcDbLine
 62
7
  6
CONTINUOUS
 10
68.1903895266
 20
30.6721582087
 11
68.1903895266
 21
29.9721582087
  0
LINE
  5
50A
100
AcDbEntity
  8
_30_VOLUMEN
100
AcDbLine
 62
7
  6
CONTINUOUS
 10
68.4256212665
 20
30.6721582087
 11
68.4256212665
 21
29.9721582087
  0
LINE
  5
50B
100
AcDbEntity
  8
_30_VOLUMEN
100
AcDbLine
 62
7
  6
CONTINUOUS
 10
68.4531542334
 20
30.6721582087
 11
68.4531542334
 21
29.9721582087
  0
LINE
  5
50C
100
AcDbEntity
  8
_30_VOLUMEN
100
AcDbLine
 62
7
  6
CONTINUOUS
 10
68.5623883875
 20
30.6721582087
 11
68.5623883875
 21
29.9721582087
  0
LINE
  5
50D
100
AcDbEntity
  8
_30_VOLUMEN
100
AcDbLine
 62
7
  6
CONTINUOUS
 10
68.8474378116
 20
44.6721582087
 11
68.8474378116
 21
45.3721582087
  0
LINE
  5
50E
100
AcDbEntity
  8
_30_VOLUMEN
100
AcDbLine
 62
7
  6
CONTINUOUS
 10
68.9151726085
 20
44.6721582087
 11
68.9151726085
 21
45.3721582087
  0
LINE
  5
50F
100
AcDbEntity
  8
_30_VOLUMEN
100
AcDbLine
 62
7
  6
CONTINUOUS
 10
68.9993247956
 20
30.6721582087
 11
68.9993247956
 21
29.9721582087
  0
LINE
  5
510
100
AcDbEntity
  8
_30_VOLUMEN
100
AcDbLine
 62
7
  6
CONTINUOUS
 10
69.0003367798
 20
44.6721582087
 11
69.0003367798
 21
45.3721582087
  0
LINE
  5
511
100
AcDbEntity
  8
_30_VOLUMEN
100
AcDbLine
 62
7
  6
CONTINUOUS
 10
69.1085588976
 20
30.6721582087
 11
69.1085588976
 21
29.9721582087
  0
LWPOLYLINE
  5
512
100
AcDbEntity
  8
_26_BEZUGSACHSEN
100
AcDbPolyline
 62
7
  6
CONTINUOUS
 90
6
 70
0
 10
63.4623636578
 20
45.3799558107
 10
63.2672776737
 20
45.2270095232
 10
63.0377465162
 20
45.039635345
 10
62.8173360284
 20
44.851312434
 10
62.6058915056
 20
44.6619746203
 10
62.4466548216
 20
44.5123296315
  0
LINE
  5
513
100
AcDbEntity
  8
_26_BEZUGSACHSEN
100
AcDbLine
 62
7
  6
CONTINUOUS
 10
63.461422878
 20
45.3792310099
 11
63.4623636578
 21
45.3799558107
  0
LINE
  5
514
100
AcDbEntity
  8
_30_VOLUMEN
100
AcDbLine
 62
7
  6
CONTINUOUS
 10
63.4614618301
 20
29.965055385
 11
63.4623636578
 21
29.9643606067
  0
LWPOLYLINE
  5
515
100
AcDbEntity
  8
_30_VOLUMEN
100
AcDbPolyline
 62
7
  6
CONTINUOUS
 90
6
 70
0
 10
62.4466548216
 20
30.8319867859
 10
62.6058915056
 20
30.6823417971
 10
62.8173360284
 20
30.4930039834
 10
63.0377465162
 20
30.3046810724
 10
63.2672776737
 20
30.1173068942
 10
63.4623636578
 20
29.9643606067
  0
LINE
  5
516
100
AcDbEntity
  8
_30_VOLUMEN
100
AcDbLine
 62
7
  6
CONTINUOUS
 10
69.2093867581
 20
44.6721582087
 11
69.2093867581
 21
45.3721582087
  0
LINE
  5
517
100
AcDbEntity
  8
_30_VOLUMEN
100
AcDbLine
 62
7
  6
CONTINUOUS
 10
69.4052978902
 20
30.6721582087
 11
69.4052978902
 21
29.9721582087
  0
LINE
  5
518
100
AcDbEntity
  8
_30_VOLUMEN
100
AcDbLine
 62
7
  6
CONTINUOUS
 10
69.4145753116
 20
44.6721582087
 11
69.4145753116
 21
45.3721582087
  0
LINE
  5
519
100
AcDbEntity
  8
_30_VOLUMEN
100
AcDbLine
 62
7
  6
CONTINUOUS
 10
69.6885195985
 20
44.6721582087
 11
69.6885195985
 21
45.3721582087
  0
LINE
  5
51A
100
AcDbEntity
  8
_30_VOLUMEN
100
AcDbLine
 62
7
  6
CONTINUOUS
 10
69.8474684109
 20
44.6721582087
 11
69.8474684109
 21
45.3721582087
  0
LINE
  5
51B
100
AcDbEntity
  8
_30_VOLUMEN
100
AcDbLine
 62
7
  6
CONTINUOUS
 10
69.9874925963
 20
30.6721582087
 11
69.9874925963
 21
29.9721582087
  0
LINE
  5
51C
100
AcDbEntity
  8
_30_VOLUMEN
100
AcDbLine
 62
7
  6
CONTINUOUS
 10
70.1663723897
 20
29.9721582087
 11
70.1663723897
 21
30.6721582087
  0
LINE
  5
51D
100
AcDbEntity
  8
_30_VOLUMEN
100
AcDbLine
 62
7
  6
CONTINUOUS
 10
70.3785830225
 20
29.9721582087
 11
70.3785830225
 21
30.6721582087
  0
LINE
  5
51E
100
AcDbEntity
  8
_30_VOLUMEN
100
AcDbLine
 62
7
  6
CONTINUOUS
 10
70.4111032963
 20
44.6721582087
 11
70.4111032963
 21
45.3721582087
  0
LINE
  5
51F
100
AcDbEntity
  8
_30_VOLUMEN
100
AcDbLine
 62
7
  6
CONTINUOUS
 10
70.7059719295
 20
29.9721582087
 11
70.7059719295
 21
30.6721582087
  0
LINE
  5
520
100
AcDbEntity
  8
_30_VOLUMEN
100
AcDbLine
 62
7
  6
CONTINUOUS
 10
70.8736018275
 20
44.6721582087
 11
70.8736018275
 21
45.3721582087
  0
LINE
  5
521
100
AcDbEntity
  8
_30_VOLUMEN
100
AcDbLine
 62
7
  6
CONTINUOUS
 10
70.9629263919
 20
44.6721582087
 11
70.9629263919
 21
45.3721582087
  0
LINE
  5
522
100
AcDbEntity
  8
_30_VOLUMEN
100
AcDbLine
 62
7
  6
CONTINUOUS
 10
70.9848447962
 20
29.9721582087
 11
70.9848447962
 21
30.6721582087
  0
LINE
  5
523
100
AcDbEntity
  8
_30_VOLUMEN
100
AcDbLine
 62
7
  6
CONTINUOUS
 10
71.2467614319
 20
44.6721582087
 11
71.2467614319
 21
45.3721582087
  0
LINE
  5
524
100
AcDbEntity
  8
_30_VOLUMEN
100
AcDbLine
 62
7
  6
CONTINUOUS
 10
71.2970486634
 20
29.9721582087
 11
71.2970486634
 21
30.6721582087
  0
LINE
  5
525
100
AcDbEntity
  8
_30_VOLUMEN
100
AcDbLine
 62
7
  6
CONTINUOUS
 10
72.1608858012
 20
29.9721582087
 11
72.1608858012
 21
30.6721582087
  0
LINE
  5
526
100
AcDbEntity
  8
_30_VOLUMEN
100
AcDbLine
 62
7
  6
CONTINUOUS
 10
72.4245734667
 20
29.9721582087
 11
72.4245734667
 21
30.6721582087
  0
LINE
  5
527
100
AcDbEntity
  8
_30_VOLUMEN
100
AcDbLine
 62
7
  6
CONTINUOUS
 10
72.4384831244
 20
44.6721582087
 11
72.4384831244
 21
45.3721582087
  0
LINE
  5
528
100
AcDbEntity
  8
_30_VOLUMEN
100
AcDbLine
 62
7
  6
CONTINUOUS
 10
72.4560968012
 20
30.6721582087
 11
72.4560968012
 21
29.9721582087
  0
LINE
  5
529
100
AcDbEntity
  8
_30_VOLUMEN
100
AcDbLine
 62
7
  6
CONTINUOUS
 10
72.9262694521
 20
44.6721582087
 11
72.9262694521
 21
45.3721582087
  0
LINE
  5
52A
100
AcDbEntity
  8
_30_VOLUMEN
100
AcDbLine
 62
7
  6
CONTINUOUS
 10
73.1636537944
 20
44.6721582087
 11
73.1636537944
 21
45.3721582087
  0
LINE
  5
52B
100
AcDbEntity
  8
_30_VOLUMEN
100
AcDbLine
 62
7
  6
CONTINUOUS
 10
73.3099839141
 20
30.6721582087
 11
73.3099839141
 21
29.9721582087
  0
LINE
  5
52C
100
AcDbEntity
  8
_30_VOLUMEN
100
AcDbLine
 62
7
  6
CONTINUOUS
 10
73.5373163405
 20
30.6721582087
 11
73.5373163405
 21
29.9721582087
  0
LINE
  5
52D
100
AcDbEntity
  8
_30_VOLUMEN
100
AcDbLine
 62
7
  6
CONTINUOUS
 10
73.7469266035
 20
44.6721582087
 11
73.7469266035
 21
45.3721582087
  0
LINE
  5
52E
100
AcDbEntity
  8
_30_VOLUMEN
100
AcDbLine
 62
7
  6
CONTINUOUS
 10
73.8279497788
 20
30.6721582087
 11
73.8279497788
 21
29.9721582087
  0
LINE
  5
52F
100
AcDbEntity
  8
_30_VOLUMEN
100
AcDbLine
 62
7
  6
CONTINUOUS
 10
74.1324438653
 20
30.6721582087
 11
74.1324438653
 21
29.9721582087
  0
LINE
  5
530
100
AcDbEntity
  8
_30_VOLUMEN
100
AcDbLine
 62
7
  6
CONTINUOUS
 10
74.1422278469
 20
44.6721582087
 11
74.1422278469
 21
45.3721582087
  0
LINE
  5
531
100
AcDbEntity
  8
_30_VOLUMEN
100
AcDbLine
 62
7
  6
CONTINUOUS
 10
74.3163414145
 20
30.6721582087
 11
74.3163414145
 21
29.9721582087
  0
LINE
  5
532
100
AcDbEntity
  8
_30_VOLUMEN
100
AcDbLine
 62
7
  6
CONTINUOUS
 10
74.3375126641
 20
44.6721582087
 11
74.3375126641
 21
45.3721582087
  0
LINE
  5
533
100
AcDbEntity
  8
_26_BEZUGSACHSEN
100
AcDbLine
 62
7
  6
CONTINUOUS
 10
64.7154132949
 20
46.7908959018
 11
72.1727534449
 21
50.2683107232
  0
LINE
  5
534
100
AcDbEntity
  8
_30_VOLUMEN
100
AcDbLine
 62
7
  6
CONTINUOUS
 10
64.7154132949
 20
28.5534205156
 11
72.1727534449
 21
25.0760056942
  0
LINE
  5
535
100
AcDbEntity
  8
_30_VOLUMEN
100
AcDbLine
 62
7
  6
CONTINUOUS
 10
74.5140997504
 20
30.6721582087
 11
74.5140997504
 21
29.9721582087
  0
LINE
  5
536
100
AcDbEntity
  8
_30_VOLUMEN
100
AcDbLine
 62
7
  6
CONTINUOUS
 10
74.6015555597
 20
44.6721582087
 11
74.6015555597
 21
45.3721582087
  0
LINE
  5
537
100
AcDbEntity
  8
_30_VOLUMEN
100
AcDbLine
 62
7
  6
CONTINUOUS
 10
74.6268394974
 20
30.6721582087
 11
74.6268394974
 21
29.9721582087
  0
LINE
  5
538
100
AcDbEntity
  8
_30_VOLUMEN
100
AcDbLine
 62
7
  6
CONTINUOUS
 10
74.7178618057
 20
30.6721582087
 11
74.7178618057
 21
29.9721582087
  0
LINE
  5
539
100
AcDbEntity
  8
_30_VOLUMEN
100
AcDbLine
 62
7
  6
CONTINUOUS
 10
74.7238656635
 20
30.6721582087
 11
74.7238656635
 21
29.9721582087
  0
LINE
  5
53A
100
AcDbEntity
  8
_30_VOLUMEN
100
AcDbLine
 62
7
  6
CONTINUOUS
 10
74.7642340038
 20
30.6721582087
 11
74.7642340038
 21
29.9721582087
  0
LINE
  5
53B
100
AcDbEntity
  8
_30_VOLUMEN
100
AcDbLine
 62
7
  6
CONTINUOUS
 10
74.8363385532
 20
30.6721582087
 11
74.8363385532
 21
29.9721582087
  0
LINE
  5
53C
100
AcDbEntity
  8
_30_VOLUMEN
100
AcDbLine
 62
7
  6
CONTINUOUS
 10
74.9529799827
 20
30.6721582087
 11
74.9529799827
 21
29.9721582087
  0
LINE
  5
53D
100
AcDbEntity
  8
_30_VOLUMEN
100
AcDbLine
 62
7
  6
CONTINUOUS
 10
75.154452178
 20
30.6721582087
 11
75.154452178
 21
29.9721582087
  0
LINE
  5
53E
100
AcDbEntity
  8
_30_VOLUMEN
100
AcDbLine
 62
7
  6
CONTINUOUS
 10
75.4004612533
 20
30.6721582087
 11
75.4004612533
 21
29.9721582087
  0
LINE
  5
53F
100
AcDbEntity
  8
_30_VOLUMEN
100
AcDbLine
 62
7
  6
CONTINUOUS
 10
75.6952502031
 20
30.6721582087
 11
75.6952502031
 21
29.9721582087
  0
LINE
  5
540
100
AcDbEntity
  8
_30_VOLUMEN
100
AcDbLine
 62
7
  6
CONTINUOUS
 10
75.9942812249
 20
30.6721582087
 11
75.9942812249
 21
29.9721582087
  0
LINE
  5
541
100
AcDbEntity
  8
_30_VOLUMEN
100
AcDbLine
 62
7
  6
CONTINUOUS
 10
76.168186673
 20
30.6721582087
 11
76.168186673
 21
29.9721582087
  0
LINE
  5
542
100
AcDbEntity
  8
_30_VOLUMEN
100
AcDbLine
 62
7
  6
CONTINUOUS
 10
76.3314937872
 20
30.6721582087
 11
76.3314937872
 21
29.9721582087
  0
LINE
  5
543
100
AcDbEntity
  8
_30_VOLUMEN
100
AcDbLine
 62
7
  6
CONTINUOUS
 10
76.5817458569
 20
30.6721582087
 11
76.5817458569
 21
29.9721582087
  0
LINE
  5
544
100
AcDbEntity
  8
_30_VOLUMEN
100
AcDbLine
 62
7
  6
CONTINUOUS
 10
76.7830226402
 20
44.6721582087
 11
76.7830226402
 21
45.3721582087
  0
LINE
  5
545
100
AcDbEntity
  8
_30_VOLUMEN
100
AcDbLine
 62
7
  6
CONTINUOUS
 10
76.9124500693
 20
44.6721582087
 11
76.9124500693
 21
45.3721582087
  0
LINE
  5
546
100
AcDbEntity
  8
_30_VOLUMEN
100
AcDbLine
 62
7
  6
CONTINUOUS
 10
76.9210707644
 20
30.6721582087
 11
76.9210707644
 21
29.9721582087
  0
LINE
  5
547
100
AcDbEntity
  8
_30_VOLUMEN
100
AcDbLine
 62
7
  6
CONTINUOUS
 10
77.1182666421
 20
30.6721582087
 11
77.1182666421
 21
29.9721582087
  0
LINE
  5
548
100
AcDbEntity
  8
_30_VOLUMEN
100
AcDbLine
 62
7
  6
CONTINUOUS
 10
77.1201589223
 20
44.6721582087
 11
77.1201589223
 21
45.3721582087
  0
LINE
  5
549
100
AcDbEntity
  8
_30_VOLUMEN
100
AcDbLine
 62
7
  6
CONTINUOUS
 10
77.3176394783
 20
44.6721582087
 11
77.3176394783
 21
45.3721582087
  0
LINE
  5
54A
100
AcDbEntity
  8
_30_VOLUMEN
100
AcDbLine
 62
7
  6
CONTINUOUS
 10
77.4752234038
 20
30.6721582087
 11
77.4752234038
 21
29.9721582087
  0
LINE
  5
54B
100
AcDbEntity
  8
_30_VOLUMEN
100
AcDbLine
 62
7
  6
CONTINUOUS
 10
77.6036303202
 20
44.6721582087
 11
77.6036303202
 21
45.3721582087
  0
LINE
  5
54C
100
AcDbEntity
  8
_30_VOLUMEN
100
AcDbLine
 62
7
  6
CONTINUOUS
 10
77.967903716
 20
44.6721582087
 11
77.967903716
 21
45.3721582087
  0
LINE
  5
54D
100
AcDbEntity
  8
_30_VOLUMEN
100
AcDbLine
 62
7
  6
CONTINUOUS
 10
78.2725778282
 20
44.6721582087
 11
78.2725778282
 21
45.3721582087
  0
LINE
  5
54E
100
AcDbEntity
  8
_30_VOLUMEN
100
AcDbLine
 62
7
  6
CONTINUOUS
 10
78.5670231881
 20
44.6721582087
 11
78.5670231881
 21
45.3721582087
  0
LINE
  5
54F
100
AcDbEntity
  8
_30_VOLUMEN
100
AcDbLine
 62
7
  6
CONTINUOUS
 10
78.7567676307
 20
44.6721582087
 11
78.7567676307
 21
45.3721582087
  0
LINE
  5
550
100
AcDbEntity
  8
_30_VOLUMEN
100
AcDbLine
 62
7
  6
CONTINUOUS
 10
79.0724751257
 20
44.6721582087
 11
79.0724751257
 21
45.3721582087
  0
LINE
  5
551
100
AcDbEntity
  8
_30_VOLUMEN
100
AcDbLine
 62
7
  6
CONTINUOUS
 10
79.629304466
 20
44.6721582087
 11
79.629304466
 21
45.3721582087
  0
LINE
  5
552
100
AcDbEntity
  8
_30_VOLUMEN
100
AcDbLine
 62
7
  6
CONTINUOUS
 10
79.9048727298
 20
44.6721582087
 11
79.9048727298
 21
45.3721582087
  0
LINE
  5
553
100
AcDbEntity
  8
_30_VOLUMEN
100
AcDbLine
 62
7
  6
CONTINUOUS
 10
80.0158730722
 20
30.6721582087
 11
80.0158730722
 21
29.9721582087
  0
LINE
  5
554
100
AcDbEntity
  8
_30_VOLUMEN
100
AcDbLine
 62
7
  6
CONTINUOUS
 10
80.4985092359
 20
44.6721582087
 11
80.4985092359
 21
45.3721582087
  0
LINE
  5
555
100
AcDbEntity
  8
_30_VOLUMEN
100
AcDbLine
 62
7
  6
CONTINUOUS
 10
80.5473802421
 20
44.6721582087
 11
80.5473802421
 21
45.3721582087
  0
LINE
  5
556
100
AcDbEntity
  8
_30_VOLUMEN
100
AcDbLine
 62
7
  6
CONTINUOUS
 10
80.6811228738
 20
44.6721582087
 11
80.6811228738
 21
45.3721582087
  0
LINE
  5
557
100
AcDbEntity
  8
_30_VOLUMEN
100
AcDbLine
 62
7
  6
CONTINUOUS
 10
80.9291287496
 20
44.6721582087
 11
80.9291287496
 21
45.3721582087
  0
LINE
  5
558
100
AcDbEntity
  8
_30_VOLUMEN
100
AcDbLine
 62
7
  6
CONTINUOUS
 10
81.206526879
 20
44.6721582087
 11
81.206526879
 21
45.3721582087
  0
LINE
  5
559
100
AcDbEntity
  8
_30_VOLUMEN
100
AcDbLine
 62
7
  6
CONTINUOUS
 10
81.4578369376
 20
44.6721582087
 11
81.4578369376
 21
45.3721582087
  0
LINE
  5
55A
100
AcDbEntity
  8
_30_VOLUMEN
100
AcDbLine
 62
7
  6
CONTINUOUS
 10
81.7385392498
 20
44.6721582087
 11
81.7385392498
 21
45.3721582087
  0
LINE
  5
55B
100
AcDbEntity
  8
_30_VOLUMEN
100
AcDbLine
 62
7
  6
CONTINUOUS
 10
82.0780254343
 20
44.6721582087
 11
82.0780254343
 21
45.3721582087
  0
LINE
  5
55C
100
AcDbEntity
  8
_30_VOLUMEN
100
AcDbLine
 62
7
  6
CONTINUOUS
 10
82.2510725506
 20
44.6721582087
 11
82.2510725506
 21
45.3721582087
  0
LINE
  5
55D
100
AcDbEntity
  8
_30_VOLUMEN
100
AcDbLine
 62
7
  6
CONTINUOUS
 10
82.3686403773
 20
44.6721582087
 11
82.3686403773
 21
45.3721582087
  0
LINE
  5
55E
100
AcDbEntity
  8
_30_VOLUMEN
100
AcDbLine
 62
7
  6
CONTINUOUS
 10
82.4307287498
 20
44.6721582087
 11
82.4307287498
 21
45.3721582087
  0
LINE
  5
55F
100
AcDbEntity
  8
_30_VOLUMEN
100
AcDbLine
 62
7
  6
CONTINUOUS
 10
82.5225554645
 20
44.6721582087
 11
82.5225554645
 21
45.3721582087
  0
LINE
  5
560
100
AcDbEntity
  8
_30_VOLUMEN
100
AcDbLine
 62
7
  6
CONTINUOUS
 10
82.7150819684
 20
44.6721582087
 11
82.7150819684
 21
45.3721582087
  0
LINE
  5
561
100
AcDbEntity
  8
_30_VOLUMEN
100
AcDbLine
 62
7
  6
CONTINUOUS
 10
82.7606484537
 20
44.6721582087
 11
82.7606484537
 21
45.3721582087
  0
LINE
  5
562
100
AcDbEntity
  8
_30_VOLUMEN
100
AcDbLine
 62
7
  6
CONTINUOUS
 10
82.9051874045
 20
44.6721582087
 11
82.9051874045
 21
45.3721582087
  0
LINE
  5
563
100
AcDbEntity
  8
_30_VOLUMEN
100
AcDbLine
 62
7
  6
CONTINUOUS
 10
84.6717656493
 20
16.6424173639
 11
84.6717656493
 21
15.8951060666
  0
LINE
  5
564
100
AcDbEntity
  8
0
100
AcDbLine
 62
7
  6
CONTINUOUS
 10
94.6717657685
 20
47.289179531
 11
94.8592657685
 21
47.3530093106
  0
LINE
  5
565
100
AcDbEntity
  8
_30_VOLUMEN
100
AcDbLine
 62
7
  6
CONTINUOUS
 10
117.6288762055
 20
29.9721582087
 11
104.3454973274
 21
29.9721582087
  0
LINE
  5
566
100
AcDbEntity
  8
_30_VOLUMEN
100
AcDbLine
 62
7
  6
CONTINUOUS
 10
80.0158730722
 20
29.9721582087
 11
67.7786989418
 21
29.9721582087
  0
LINE
  5
567
100
AcDbEntity
  8
_30_VOLUMEN
100
AcDbLine
 62
7
  6
CONTINUOUS
 10
85.1358456741
 20
44.6721582087
 11
85.1358456741
 21
45.3721582087
  0
LINE
  5
568
100
AcDbEntity
  8
_30_VOLUMEN
100
AcDbLine
 62
7
  6
CONTINUOUS
 10
85.2342656493
 20
16.4369611588
 11
85.2342656493
 21
15.696635604
  0
LINE
  5
569
100
AcDbEntity
  8
_30_VOLUMEN
100
AcDbLine
 62
7
  6
CONTINUOUS
 10
85.2454106194
 20
44.6721582087
 11
85.2454106194
 21
45.3721582087
  0
LINE
  5
56A
100
AcDbEntity
  8
_30_VOLUMEN
100
AcDbLine
 62
7
  6
CONTINUOUS
 10
85.7967656493
 20
16.2482375824
 11
85.7967656493
 21
15.5142166301
  0
LINE
  5
56B
100
AcDbEntity
  8
_30_VOLUMEN
100
AcDbLine
 62
7
  6
CONTINUOUS
 10
86.5467656046
 20
16.0218839737
 11
86.5467656046
 21
15.2952867908
  0
LINE
  5
56C
100
AcDbEntity
  8
0
100
AcDbLine
 62
7
  6
CONTINUOUS
 10
93.0467655301
 20
47.6721582087
 11
92.6717655301
 21
47.2253497513
  0
LINE
  5
56D
100
AcDbEntity
  8
0
100
AcDbLine
 62
7
  6
CONTINUOUS
 10
92.6717655301
 20
46.7147113355
 11
93.0467655301
 21
47.1615199717
  0
LINE
  5
56E
100
AcDbEntity
  8
0
100
AcDbLine
 62
7
  6
CONTINUOUS
 10
94.4842657685
 20
47.1615199717
 11
94.6717657685
 21
47.289179531
  0
LINE
  5
56F
100
AcDbEntity
  8
0
100
AcDbLine
 62
7
  6
CONTINUOUS
 10
94.6092656493
 20
46.5232219966
 11
94.2342656493
 21
46.2679028781
  0
LINE
  5
570
100
AcDbEntity
  8
0
100
AcDbLine
 62
7
  6
CONTINUOUS
 10
94.4842657685
 20
46.0764135393
 11
94.6717657685
 21
46.2040730985
  0
LINE
  5
571
100
AcDbEntity
  8
0
100
AcDbLine
 62
7
  6
CONTINUOUS
 10
94.6092656493
 20
47.6083284291
 11
94.2967657685
 21
47.4168390902
  0
LINE
  5
572
100
AcDbEntity
  8
0
100
AcDbLine
 62
7
  6
CONTINUOUS
 10
94.6717657685
 20
46.2040730985
 11
94.8592657685
 21
46.2679028781
  0
LINE
  5
573
100
AcDbEntity
  8
0
100
AcDbLine
 62
7
  6
CONTINUOUS
 10
95.4842658877
 20
45.0551369312
 11
95.2967658877
 21
44.9913071515
  0
LINE
  5
574
100
AcDbEntity
  8
_30_VOLUMEN
100
AcDbLine
 62
7
  6
CONTINUOUS
 10
63.4086318769
 20
30.6721582087
 11
121.9349085474
 21
30.6721582087
  0
LINE
  5
575
100
AcDbEntity
  8
_30_VOLUMEN
100
AcDbLine
 62
7
  6
CONTINUOUS
 10
87.8592655599
 20
15.6928533314
 11
87.8592655599
 21
14.976787692
  0
LINE
  5
576
100
AcDbEntity
  8
_30_VOLUMEN
100
AcDbLine
 62
7
  6
CONTINUOUS
 10
88.229928744
 20
59.7293585049
 11
88.229928744
 21
60.4429747269
  0
LINE
  5
577
100
AcDbEntity
  8
_30_VOLUMEN
100
AcDbLine
 62
7
  6
CONTINUOUS
 10
88.6092656493
 20
15.5419504883
 11
88.6092656493
 21
14.8306150526
  0
LINE
  5
578
100
AcDbEntity
  8
_30_VOLUMEN
100
AcDbLine
 62
7
  6
CONTINUOUS
 10
88.7030155599
 20
15.5249456814
 11
88.7030155599
 21
14.8141394247
  0
LINE
  5
579
100
AcDbEntity
  8
_30_VOLUMEN
100
AcDbLine
 62
7
  6
CONTINUOUS
 10
88.7967657387
 20
15.50835042
 11
88.7967657387
 21
14.7980598507
  0
LINE
  5
57A
100
AcDbEntity
  8
0
100
AcDbLine
 62
7
  6
CONTINUOUS
 10
89.1717656493
 20
47.6721582087
 11
89.1717656493
 21
44.6721582087
  0
LINE
  5
57B
100
AcDbEntity
  8
_30_VOLUMEN
100
AcDbLine
 62
7
  6
CONTINUOUS
 10
89.1717656493
 20
15.4460474378
 11
89.1717656493
 21
14.7376863377
  0
LINE
  5
57C
100
AcDbEntity
  8
0
100
AcDbLine
 62
7
  6
CONTINUOUS
 10
89.5467656493
 20
44.6721582087
 11
89.5467656493
 21
47.0338604125
  0
LINE
  5
57D
100
AcDbEntity
  8
_30_VOLUMEN
100
AcDbLine
 62
7
  6
CONTINUOUS
 10
89.5467658281
 20
15.3902288462
 11
89.5467658281
 21
14.6835876547
  0
LINE
  5
57E
100
AcDbEntity
  8
_30_VOLUMEN
100
AcDbLine
 62
7
  6
CONTINUOUS
 10
90.2030154705
 20
15.3080067033
 11
90.2030154705
 21
14.6038840523
  0
LINE
  5
57F
100
AcDbEntity
  8
0
100
AcDbLine
 62
7
  6
CONTINUOUS
 10
91.6092656493
 20
47.6721582087
 11
90.6717656493
 21
44.9913071515
  0
LINE
  5
580
100
AcDbEntity
  8
0
100
AcDbLine
 62
7
  6
CONTINUOUS
 10
90.9217655897
 20
44.6721582087
 11
91.7967656493
 21
47.0338604125
  0
LINE
  5
581
100
AcDbEntity
  8
0
100
AcDbLine
 62
7
  6
CONTINUOUS
 10
94.3592655301
 20
46.9700306328
 11
94.4842657685
 21
47.1615199717
  0
LINE
  5
582
100
AcDbEntity
  8
0
100
AcDbLine
 62
7
  6
CONTINUOUS
 10
94.2967657685
 20
47.4168390902
 11
94.1092657685
 21
47.1615199717
  0
LINE
  5
583
100
AcDbEntity
  8
0
100
AcDbLine
 62
7
  6
CONTINUOUS
 10
94.3592655301
 20
45.94875398
 11
94.4842657685
 21
46.0764135393
  0
LINE
  5
584
100
AcDbEntity
  8
0
100
AcDbLine
 62
7
  6
CONTINUOUS
 10
95.6717658877
 20
45.1827964904
 11
95.4842658877
 21
45.0551369312
  0
LINE
  5
585
100
AcDbEntity
  8
0
100
AcDbLine
 62
7
  6
CONTINUOUS
 10
95.5467656493
 20
44.7359879939
 11
95.8592658877
 21
44.9274773496
  0
LINE
  5
586
100
AcDbEntity
  8
_30_VOLUMEN
100
AcDbLine
 62
7
  6
CONTINUOUS
 10
90.5780156493
 20
15.2697875543
 11
90.5780156493
 21
14.5668295822
  0
LINE
  5
587
100
AcDbEntity
  8
_30_VOLUMEN
100
AcDbLine
 62
7
  6
CONTINUOUS
 10
91.1405156493
 20
15.2243237154
 11
91.1405156493
 21
14.5227462629
  0
LINE
  5
588
100
AcDbEntity
  8
_30_VOLUMEN
100
AcDbLine
 62
7
  6
CONTINUOUS
 10
91.5155158281
 20
15.201887041
 11
91.5155158281
 21
14.5009889169
  0
LINE
  5
589
100
AcDbEntity
  8
0
100
AcDbLine
 62
7
  6
CONTINUOUS
 10
91.7967656493
 20
47.0338604125
 11
91.7967656493
 21
44.6721582087
  0
LINE
  5
58A
100
AcDbEntity
  8
_30_VOLUMEN
100
AcDbLine
 62
7
  6
CONTINUOUS
 10
91.8905154705
 20
15.1857256735
 11
91.8905154705
 21
14.4853160745
  0
LINE
  5
58B
100
AcDbEntity
  8
_30_VOLUMEN
100
AcDbLine
 62
7
  6
CONTINUOUS
 10
91.9842656493
 20
15.1826641337
 11
91.9842656493
 21
14.4823470031
  0
LINE
  5
58C
100
AcDbEntity
  8
0
100
AcDbLine
 62
7
  6
CONTINUOUS
 10
92.1717656493
 20
44.6721582087
 11
92.1717656493
 21
47.6721582087
  0
LINE
  5
58D
100
AcDbEntity
  8
0
100
AcDbLine
 62
7
  6
CONTINUOUS
 10
92.6717655301
 20
47.2253497513
 11
92.6717655301
 21
46.7147113355
  0
LINE
  5
58E
100
AcDbEntity
  8
_30_VOLUMEN
100
AcDbLine
 62
7
  6
CONTINUOUS
 10
92.679928744
 20
60.1721567279
 11
92.679928744
 21
60.8721567726
  0
LINE
  5
58F
100
AcDbEntity
  8
0
100
AcDbLine
 62
7
  6
CONTINUOUS
 10
93.9842655301
 20
46.8423708948
 11
93.9217657685
 21
46.3955624374
  0
LINE
  5
590
100
AcDbEntity
  8
0
100
AcDbLine
 62
7
  6
CONTINUOUS
 10
94.2342656493
 20
46.3955624374
 11
94.2967657685
 21
46.7785411151
  0
LINE
  5
591
100
AcDbEntity
  8
0
100
AcDbLine
 62
7
  6
CONTINUOUS
 10
94.2967657685
 20
46.7785411151
 11
94.3592655301
 21
46.9700306328
  0
LINE
  5
592
100
AcDbEntity
  8
0
100
AcDbLine
 62
7
  6
CONTINUOUS
 10
94.2967657685
 20
45.7572645517
 11
94.3592655301
 21
45.94875398
  0
LINE
  5
593
100
AcDbEntity
  8
0
100
AcDbLine
 62
7
  6
CONTINUOUS
 10
94.1092657685
 20
47.1615199717
 11
93.9842655301
 21
46.8423708948
  0
LINE
  5
594
100
AcDbEntity
  8
0
100
AcDbLine
 62
7
  6
CONTINUOUS
 10
95.7967654109
 20
45.374285874
 11
95.6717658877
 21
45.1827964904
  0
LINE
  5
595
100
AcDbEntity
  8
0
100
AcDbLine
 62
7
  6
CONTINUOUS
 10
95.8592658877
 20
44.9274773496
 11
96.0467658877
 21
45.1827964904
  0
LINE
  5
596
100
AcDbEntity
  8
0
100
AcDbLine
 62
7
  6
CONTINUOUS
 10
89.5467656493
 20
47.0338604125
 11
90.4217656195
 21
44.6721582087
  0
LINE
  5
597
100
AcDbEntity
  8
0
100
AcDbLine
 62
7
  6
CONTINUOUS
 10
93.0467655301
 20
47.1615199717
 11
93.0467655301
 21
44.6721582087
  0
LINE
  5
598
100
AcDbEntity
  8
_30_VOLUMEN
100
AcDbLine
 62
7
  6
CONTINUOUS
 10
93.1717656493
 20
15.1777144503
 11
93.1717656493
 21
14.4775467655
  0
LINE
  5
599
100
AcDbEntity
  8
0
100
AcDbLine
 62
7
  6
CONTINUOUS
 10
93.4217655301
 20
44.6721582087
 11
93.4217655301
 21
47.6721582087
  0
LINE
  5
59A
100
AcDbEntity
  8
0
100
AcDbLine
 62
7
  6
CONTINUOUS
 10
93.9217657685
 20
46.3955624374
 11
93.9217657685
 21
45.94875398
  0
LINE
  5
59B
100
AcDbEntity
  8
0
100
AcDbLine
 62
7
  6
CONTINUOUS
 10
94.2342656493
 20
46.2679028781
 11
94.2342656493
 21
46.3955624374
  0
LINE
  5
59C
100
AcDbEntity
  8
0
100
AcDbLine
 62
7
  6
CONTINUOUS
 10
94.2967657685
 20
45.5657752129
 11
94.2967657685
 21
45.7572645517
  0
LINE
  5
59D
100
AcDbEntity
  8
_30_VOLUMEN
100
AcDbLine
 62
7
  6
CONTINUOUS
 10
94.8592656493
 20
15.278747487
 11
94.8592656493
 21
14.5755168133
  0
LINE
  5
59E
100
AcDbEntity
  8
_30_VOLUMEN
100
AcDbLine
 62
7
  6
CONTINUOUS
 10
95.2108282164
 20
15.3158803145
 11
95.2108282164
 21
14.6115172532
  0
LINE
  5
59F
100
AcDbEntity
  8
_30_VOLUMEN
100
AcDbLine
 62
7
  6
CONTINUOUS
 10
95.4920781493
 20
15.3496171929
 11
95.4920781493
 21
14.6442221874
  0
LINE
  5
5A0
100
AcDbEntity
  8
0
100
AcDbLine
 62
7
  6
CONTINUOUS
 10
95.8592658877
 20
45.5657752129
 11
95.7967654109
 21
45.374285874
  0
LINE
  5
5A1
100
AcDbEntity
  8
0
100
AcDbLine
 62
7
  6
CONTINUOUS
 10
96.0467658877
 20
45.1827964904
 11
96.1717654109
 21
45.5019454332
  0
LINE
  5
5A2
100
AcDbEntity
  8
0
100
AcDbLine
 62
7
  6
CONTINUOUS
 10
90.6717656493
 20
44.9913071515
 11
89.7342656493
 21
47.6721582087
  0
LINE
  5
5A3
100
AcDbEntity
  8
0
100
AcDbLine
 62
7
  6
CONTINUOUS
 10
93.9217657685
 20
45.94875398
 11
93.9842655301
 21
45.5019454332
  0
LINE
  5
5A4
100
AcDbEntity
  8
_30_VOLUMEN
100
AcDbLine
 62
7
  6
CONTINUOUS
 10
95.7030156493
 20
15.3772815901
 11
95.7030156493
 21
14.6710381612
  0
LINE
  5
5A5
100
AcDbEntity
  8
_30_VOLUMEN
100
AcDbLine
 62
7
  6
CONTINUOUS
 10
95.7733280823
 20
15.3869543623
 11
95.7733280823
 21
14.6804138105
  0
LINE
  5
5A6
100
AcDbEntity
  8
0
100
AcDbLine
 62
7
  6
CONTINUOUS
 10
95.8592658877
 20
45.7572645517
 11
95.8592658877
 21
45.5657752129
  0
LINE
  5
5A7
100
AcDbEntity
  8
0
100
AcDbLine
 62
7
  6
CONTINUOUS
 10
96.1717654109
 20
45.5019454332
 11
96.1717654109
 21
45.8210944208
  0
LINE
  5
5A8
100
AcDbEntity
  8
_30_VOLUMEN
100
AcDbLine
 62
7
  6
CONTINUOUS
 10
96.3358281493
 20
15.4725040223
 11
96.3358281493
 21
14.763324847
  0
LINE
  5
5A9
100
AcDbEntity
  8
_30_VOLUMEN
100
AcDbLine
 62
7
  6
CONTINUOUS
 10
96.4061405823
 20
15.4842235626
 11
96.4061405823
 21
14.7746814075
  0
LINE
  5
5AA
100
AcDbEntity
  8
_30_VOLUMEN
100
AcDbLine
 62
7
  6
CONTINUOUS
 10
96.5467656493
 20
15.5083504357
 11
96.5467656493
 21
14.7980598658
  0
LINE
  5
5AB
100
AcDbEntity
  8
_30_VOLUMEN
100
AcDbLine
 62
7
  6
CONTINUOUS
 10
96.6873905152
 20
15.5333967949
 11
96.6873905152
 21
14.8223276418
  0
LINE
  5
5AC
100
AcDbEntity
  8
_30_VOLUMEN
100
AcDbLine
 62
7
  6
CONTINUOUS
 10
96.8983280152
 20
15.5726973427
 11
96.8983280152
 21
14.8604031125
  0
LINE
  5
5AD
100
AcDbEntity
  8
_30_VOLUMEN
100
AcDbLine
 62
7
  6
CONTINUOUS
 10
97.1092655152
 20
15.6140849714
 11
97.1092655152
 21
14.9004961055
  0
LINE
  5
5AE
100
AcDbEntity
  8
_30_VOLUMEN
100
AcDbLine
 62
7
  6
CONTINUOUS
 10
97.159928744
 20
59.7199787821
 11
97.159928744
 21
60.4338890751
  0
LINE
  5
5AF
100
AcDbEntity
  8
_30_VOLUMEN
100
AcDbLine
 62
7
  6
CONTINUOUS
 10
97.5311405152
 20
15.703169249
 11
97.5311405152
 21
14.9867779846
  0
LINE
  5
5B0
100
AcDbEntity
  8
_30_VOLUMEN
100
AcDbLine
 62
7
  6
CONTINUOUS
 10
97.9530155152
 20
15.8007522216
 11
97.9530155152
 21
15.0812662419
  0
LINE
  5
5B1
100
AcDbEntity
  8
_30_VOLUMEN
100
AcDbLine
 62
7
  6
CONTINUOUS
 10
98.3045782834
 20
15.8886455941
 11
98.3045782834
 21
15.1663495845
  0
LINE
  5
5B2
100
AcDbEntity
  8
0
100
AcDbLine
 62
7
  6
CONTINUOUS
 10
94.1092657685
 20
45.1827964904
 11
94.2967657685
 21
44.9274773496
  0
LINE
  5
5B3
100
AcDbEntity
  8
0
100
AcDbLine
 62
7
  6
CONTINUOUS
 10
94.4842657685
 20
45.1827964904
 11
94.3592655301
 21
45.374285874
  0
LINE
  5
5B4
100
AcDbEntity
  8
0
100
AcDbLine
 62
7
  6
CONTINUOUS
 10
93.9842655301
 20
45.5019454332
 11
94.1092657685
 21
45.1827964904
  0
LINE
  5
5B5
100
AcDbEntity
  8
0
100
AcDbLine
 62
7
  6
CONTINUOUS
 10
94.3592655301
 20
45.374285874
 11
94.2967657685
 21
45.5657752129
  0
LINE
  5
5B6
100
AcDbEntity
  8
0
100
AcDbLine
 62
7
  6
CONTINUOUS
 10
95.7967654109
 20
45.94875398
 11
95.8592658877
 21
45.7572645517
  0
LINE
  5
5B7
100
AcDbEntity
  8
_30_VOLUMEN
100
AcDbLine
 62
7
  6
CONTINUOUS
 10
98.5155157834
 20
15.9442824642
 11
98.5155157834
 21
15.2201965044
  0
LINE
  5
5B8
100
AcDbEntity
  8
_30_VOLUMEN
100
AcDbLine
 62
7
  6
CONTINUOUS
 10
98.5858280152
 20
15.9633151642
 11
98.5858280152
 21
15.2386148788
  0
LINE
  5
5B9
100
AcDbEntity
  8
_30_VOLUMEN
100
AcDbLine
 62
7
  6
CONTINUOUS
 10
99.1483282834
 20
16.1244405466
 11
99.1483282834
 21
15.3944981779
  0
LINE
  5
5BA
100
AcDbEntity
  8
_30_VOLUMEN
100
AcDbLine
 62
7
  6
CONTINUOUS
 10
99.4998906493
 20
16.2332517771
 11
99.4998906493
 21
15.499726926
  0
LINE
  5
5BB
100
AcDbEntity
  8
_30_VOLUMEN
100
AcDbLine
 62
7
  6
CONTINUOUS
 10
99.6405155152
 20
16.2785487585
 11
99.6405155152
 21
15.5435223423
  0
LINE
  5
5BC
100
AcDbEntity
  8
_30_VOLUMEN
100
AcDbLine
 62
7
  6
CONTINUOUS
 10
99.8514530152
 20
16.3484134783
 11
99.8514530152
 21
15.6110592033
  0
LINE
  5
5BD
100
AcDbEntity
  8
_30_VOLUMEN
100
AcDbLine
 62
7
  6
CONTINUOUS
 10
100.0623909175
 20
16.4206016035
 11
100.0623909175
 21
15.6808267769
  0
LINE
  5
5BE
100
AcDbEntity
  8
_30_VOLUMEN
100
AcDbLine
 62
7
  6
CONTINUOUS
 10
100.4139528811
 20
16.5461425676
 11
100.4139528811
 21
15.8021207861
  0
LINE
  5
5BF
100
AcDbEntity
  8
_30_VOLUMEN
100
AcDbLine
 62
7
  6
CONTINUOUS
 10
100.4505371022
 20
44.6721582087
 11
100.4505371022
 21
45.3721582087
  0
LINE
  5
5C0
100
AcDbEntity
  8
_30_VOLUMEN
100
AcDbLine
 62
7
  6
CONTINUOUS
 10
100.5772099348
 20
44.6721582087
 11
100.5772099348
 21
45.3721582087
  0
LINE
  5
5C1
100
AcDbEntity
  8
0
100
AcDbLine
 62
7
  6
CONTINUOUS
 10
95.2342654109
 20
44.6721582087
 11
95.5467656493
 21
44.7359879939
  0
LINE
  5
5C2
100
AcDbEntity
  8
0
100
AcDbLine
 62
7
  6
CONTINUOUS
 10
94.9217655301
 20
46.5870517763
 11
94.6092656493
 21
46.5232219966
  0
LINE
  5
5C3
100
AcDbEntity
  8
_26_BEZUGSACHSEN
100
AcDbLine
 62
7
  6
CONTINUOUS
 10
63.4086318769
 20
44.6721582087
 11
121.9349085474
 21
44.6721582087
  0
LINE
  5
5C4
100
AcDbEntity
  8
0
100
AcDbLine
 62
7
  6
CONTINUOUS
 10
95.2967658877
 20
44.9913071515
 11
94.8592657685
 21
44.9913071515
  0
LINE
  5
5C5
100
AcDbEntity
  8
_30_VOLUMEN
100
AcDbLine
 62
7
  6
CONTINUOUS
 10
68.8474378116
 20
45.3721582087
 11
85.2454106194
 21
45.3721582087
  0
LINE
  5
5C6
100
AcDbEntity
  8
_30_VOLUMEN
100
AcDbLine
 62
7
  6
CONTINUOUS
 10
100.4505371022
 20
45.3721582087
 11
104.8301506535
 21
45.3721582087
  0
LINE
  5
5C7
100
AcDbEntity
  8
_30_VOLUMEN
100
AcDbLine
 62
7
  6
CONTINUOUS
 10
105.0712393382
 20
45.3721582087
 11
105.4574630225
 21
45.3721582087
  0
LINE
  5
5C8
100
AcDbEntity
  8
_30_VOLUMEN
100
AcDbLine
 62
7
  6
CONTINUOUS
 10
105.7226305551
 20
45.3721582087
 11
116.2483166362
 21
45.3721582087
  0
LINE
  5
5C9
100
AcDbEntity
  8
0
100
AcDbLine
 62
7
  6
CONTINUOUS
 10
94.6092656493
 20
44.7359879939
 11
94.9217655301
 21
44.6721582087
  0
LINE
  5
5CA
100
AcDbEntity
  8
0
100
AcDbLine
 62
7
  6
CONTINUOUS
 10
94.8592657685
 20
44.9913071515
 11
94.6717657685
 21
45.0551369312
  0
LINE
  5
5CB
100
AcDbEntity
  8
0
100
AcDbLine
 62
7
  6
CONTINUOUS
 10
94.2967657685
 20
44.9274773496
 11
94.6092656493
 21
44.7359879939
  0
LINE
  5
5CC
100
AcDbEntity
  8
0
100
AcDbLine
 62
7
  6
CONTINUOUS
 10
94.6717657685
 20
45.0551369312
 11
94.4842657685
 21
45.1827964904
  0
LINE
  5
5CD
100
AcDbEntity
  8
0
100
AcDbLine
 62
7
  6
CONTINUOUS
 10
95.6717658877
 20
46.0764135393
 11
95.7967654109
 21
45.94875398
  0
LINE
  5
5CE
100
AcDbEntity
  8
0
100
AcDbLine
 62
7
  6
CONTINUOUS
 10
95.9842654109
 20
47.1615199717
 11
95.7967654109
 21
47.4168390902
  0
LINE
  5
5CF
100
AcDbEntity
  8
0
100
AcDbLine
 62
7
  6
CONTINUOUS
 10
95.6092654109
 20
47.1615199717
 11
95.7342656493
 21
46.9700306328
  0
LINE
  5
5D0
100
AcDbEntity
  8
0
100
AcDbLine
 62
7
  6
CONTINUOUS
 10
96.1717654109
 20
45.8210944208
 11
96.0467658877
 21
46.1402433189
  0
LINE
  5
5D1
100
AcDbEntity
  8
0
100
AcDbLine
 62
7
  6
CONTINUOUS
 10
96.0467658877
 20
46.9700306328
 11
95.9842654109
 21
47.1615199717
  0
LINE
  5
5D2
100
AcDbEntity
  8
_30_VOLUMEN
100
AcDbLine
 62
7
  6
CONTINUOUS
 10
100.9764531493
 20
16.7608654336
 11
100.9764531493
 21
16.0094675742
  0
LINE
  5
5D3
100
AcDbEntity
  8
_30_VOLUMEN
100
AcDbLine
 62
7
  6
CONTINUOUS
 10
101.1170784175
 20
16.817262087
 11
101.1170784175
 21
16.0639030212
  0
LINE
  5
5D4
100
AcDbEntity
  8
_30_VOLUMEN
100
AcDbLine
 62
7
  6
CONTINUOUS
 10
101.2679406446
 20
44.6721582087
 11
101.2679406446
 21
45.3721582087
  0
LINE
  5
5D5
100
AcDbEntity
  8
_30_VOLUMEN
100
AcDbLine
 62
7
  6
CONTINUOUS
 10
101.3119123144
 20
44.6721582087
 11
101.3119123144
 21
45.3721582087
  0
LINE
  5
5D6
100
AcDbEntity
  8
_30_VOLUMEN
100
AcDbLine
 62
7
  6
CONTINUOUS
 10
101.3625815113
 20
44.6721582087
 11
101.3625815113
 21
45.3721582087
  0
LINE
  5
5D7
100
AcDbEntity
  8
_30_VOLUMEN
100
AcDbLine
 62
7
  6
CONTINUOUS
 10
101.3983281493
 20
16.9333755315
 11
101.3983281493
 21
16.1759467533
  0
LINE
  5
5D8
100
AcDbEntity
  8
_30_VOLUMEN
100
AcDbLine
 62
7
  6
CONTINUOUS
 10
101.5212863454
 20
44.6721582087
 11
101.5212863454
 21
45.3721582087
  0
LINE
  5
5D9
100
AcDbEntity
  8
_30_VOLUMEN
100
AcDbLine
 62
7
  6
CONTINUOUS
 10
101.8202031493
 20
17.1159890299
 11
101.8202031493
 21
16.3520716397
  0
LINE
  5
5DA
100
AcDbEntity
  8
_30_VOLUMEN
100
AcDbLine
 62
7
  6
CONTINUOUS
 10
101.8520896128
 20
44.6721582087
 11
101.8520896128
 21
45.3721582087
  0
LINE
  5
5DB
100
AcDbEntity
  8
_30_VOLUMEN
100
AcDbLine
 62
7
  6
CONTINUOUS
 10
102.1322224414
 20
44.6721582087
 11
102.1322224414
 21
45.3721582087
  0
LINE
  5
5DC
100
AcDbEntity
  8
_30_VOLUMEN
100
AcDbLine
 62
7
  6
CONTINUOUS
 10
102.2420781493
 20
17.3089777436
 11
102.2420781493
 21
16.538083385
  0
LINE
  5
5DD
100
AcDbEntity
  8
_30_VOLUMEN
100
AcDbLine
 62
7
  6
CONTINUOUS
 10
102.5017538712
 20
44.6721582087
 11
102.5017538712
 21
45.3721582087
  0
LINE
  5
5DE
100
AcDbEntity
  8
_30_VOLUMEN
100
AcDbLine
 62
7
  6
CONTINUOUS
 10
102.6639531493
 20
17.5126396389
 11
102.6639531493
 21
16.7342454912
  0
LINE
  5
5DF
100
AcDbEntity
  8
_30_VOLUMEN
100
AcDbLine
 62
7
  6
CONTINUOUS
 10
102.7312188868
 20
44.6721582087
 11
102.7312188868
 21
45.3721582087
  0
LINE
  5
5E0
100
AcDbEntity
  8
_30_VOLUMEN
100
AcDbLine
 62
7
  6
CONTINUOUS
 10
102.8748906493
 20
17.6185739846
 11
102.8748906493
 21
16.836221939
  0
LINE
  5
5E1
100
AcDbEntity
  8
_30_VOLUMEN
100
AcDbLine
 62
7
  6
CONTINUOUS
 10
103.0858281493
 20
17.7273016726
 11
103.0858281493
 21
16.940846088
  0
LINE
  5
5E2
100
AcDbEntity
  8
_30_VOLUMEN
100
AcDbLine
 62
7
  6
CONTINUOUS
 10
103.1074477729
 20
44.6721582087
 11
103.1074477729
 21
45.3721582087
  0
LINE
  5
5E3
100
AcDbEntity
  8
_30_VOLUMEN
100
AcDbLine
 62
7
  6
CONTINUOUS
 10
103.2264534175
 20
17.8013613924
 11
103.2264534175
 21
17.0120864248
  0
LINE
  5
5E4
100
AcDbEntity
  8
_30_VOLUMEN
100
AcDbLine
 62
7
  6
CONTINUOUS
 10
103.2862423495
 20
44.6721582087
 11
103.2862423495
 21
45.3721582087
  0
LINE
  5
5E5
100
AcDbEntity
  8
_30_VOLUMEN
100
AcDbLine
 62
7
  6
CONTINUOUS
 10
103.4143691132
 20
44.6721582087
 11
103.4143691132
 21
45.3721582087
  0
LINE
  5
5E6
100
AcDbEntity
  8
0
100
AcDbLine
 62
7
  6
CONTINUOUS
 10
94.9217655301
 20
47.6721582087
 11
94.6092656493
 21
47.6083284291
  0
LINE
  5
5E7
100
AcDbEntity
  8
0
100
AcDbLine
 62
7
  6
CONTINUOUS
 10
94.8592657685
 20
46.2679028781
 11
95.2967658877
 21
46.2679028781
  0
LINE
  5
5E8
100
AcDbEntity
  8
0
100
AcDbLine
 62
7
  6
CONTINUOUS
 10
95.2342654109
 20
46.5870517763
 11
94.9217655301
 21
46.5870517763
  0
LINE
  5
5E9
100
AcDbEntity
  8
0
100
AcDbLine
 62
7
  6
CONTINUOUS
 10
95.7342656493
 20
46.9700306328
 11
96.0467658877
 21
46.9700306328
  0
LINE
  5
5EA
100
AcDbEntity
  8
0
100
AcDbLine
 62
7
  6
CONTINUOUS
 10
94.8592657685
 20
47.3530093106
 11
95.2342654109
 21
47.3530093106
  0
LINE
  5
5EB
100
AcDbEntity
  8
0
100
AcDbLine
 62
7
  6
CONTINUOUS
 10
95.1717656493
 20
47.6721582087
 11
94.9217655301
 21
47.6721582087
  0
LINE
  5
5EC
100
AcDbEntity
  8
0
100
AcDbLine
 62
7
  6
CONTINUOUS
 10
93.4217655301
 20
47.6721582087
 11
93.0467655301
 21
47.6721582087
  0
LINE
  5
5ED
100
AcDbEntity
  8
0
100
AcDbLine
 62
7
  6
CONTINUOUS
 10
92.1717656493
 20
47.6721582087
 11
91.6092656493
 21
47.6721582087
  0
LINE
  5
5EE
100
AcDbEntity
  8
0
100
AcDbLine
 62
7
  6
CONTINUOUS
 10
89.7342656493
 20
47.6721582087
 11
89.1717656493
 21
47.6721582087
  0
LINE
  5
5EF
100
AcDbEntity
  8
0
100
AcDbLine
 62
7
  6
CONTINUOUS
 10
95.5467656493
 20
46.5232219966
 11
95.2342654109
 21
46.5870517763
  0
LINE
  5
5F0
100
AcDbEntity
  8
0
100
AcDbLine
 62
7
  6
CONTINUOUS
 10
95.4842658877
 20
47.6083284291
 11
95.1717656493
 21
47.6721582087
  0
LINE
  5
5F1
100
AcDbEntity
  8
0
100
AcDbLine
 62
7
  6
CONTINUOUS
 10
95.2967658877
 20
46.2679028781
 11
95.4842658877
 21
46.2040730985
  0
LINE
  5
5F2
100
AcDbEntity
  8
0
100
AcDbLine
 62
7
  6
CONTINUOUS
 10
95.2342654109
 20
47.3530093106
 11
95.4217654109
 21
47.289179531
  0
LINE
  5
5F3
100
AcDbEntity
  8
0
100
AcDbLine
 62
7
  6
CONTINUOUS
 10
95.8592658877
 20
46.3317326578
 11
95.5467656493
 21
46.5232219966
  0
LINE
  5
5F4
100
AcDbEntity
  8
0
100
AcDbLine
 62
7
  6
CONTINUOUS
 10
95.7967654109
 20
47.4168390902
 11
95.4842658877
 21
47.6083284291
  0
LINE
  5
5F5
100
AcDbEntity
  8
0
100
AcDbLine
 62
7
  6
CONTINUOUS
 10
95.4842658877
 20
46.2040730985
 11
95.6717658877
 21
46.0764135393
  0
LINE
  5
5F6
100
AcDbEntity
  8
0
100
AcDbLine
 62
7
  6
CONTINUOUS
 10
95.4217654109
 20
47.289179531
 11
95.6092654109
 21
47.1615199717
  0
LINE
  5
5F7
100
AcDbEntity
  8
0
100
AcDbLine
 62
7
  6
CONTINUOUS
 10
96.0467658877
 20
46.1402433189
 11
95.8592658877
 21
46.3317326578
  0
LINE
  5
5F8
100
AcDbEntity
  8
_30_VOLUMEN
100
AcDbLine
 62
7
  6
CONTINUOUS
 10
104.3454973274
 20
29.9721582087
 11
104.3454973274
 21
30.6721582087
  0
LINE
  5
5F9
100
AcDbEntity
  8
_30_VOLUMEN
100
AcDbLine
 62
7
  6
CONTINUOUS
 10
104.3848498616
 20
44.6721582087
 11
104.3848498616
 21
45.3721582087
  0
LINE
  5
5FA
100
AcDbEntity
  8
_30_VOLUMEN
100
AcDbLine
 62
7
  6
CONTINUOUS
 10
104.7142599461
 20
44.6721582087
 11
104.7142599461
 21
45.3721582087
  0
LINE
  5
5FB
100
AcDbEntity
  8
_30_VOLUMEN
100
AcDbLine
 62
7
  6
CONTINUOUS
 10
104.8301506535
 20
44.6721582087
 11
104.8301506535
 21
45.3721582087
  0
LINE
  5
5FC
100
AcDbEntity
  8
_30_VOLUMEN
100
AcDbLine
 62
7
  6
CONTINUOUS
 10
105.0712393382
 20
44.6721582087
 11
105.0712393382
 21
45.3721582087
  0
LINE
  5
5FD
100
AcDbEntity
  8
_30_VOLUMEN
100
AcDbLine
 62
7
  6
CONTINUOUS
 10
105.2307901207
 20
44.6721582087
 11
105.2307901207
 21
45.3721582087
  0
LINE
  5
5FE
100
AcDbEntity
  8
_30_VOLUMEN
100
AcDbLine
 62
7
  6
CONTINUOUS
 10
105.4574630225
 20
44.6721582087
 11
105.4574630225
 21
45.3721582087
  0
LINE
  5
5FF
100
AcDbEntity
  8
_30_VOLUMEN
100
AcDbLine
 62
7
  6
CONTINUOUS
 10
105.7226305551
 20
44.6721582087
 11
105.7226305551
 21
45.3721582087
  0
LINE
  5
600
100
AcDbEntity
  8
_30_VOLUMEN
100
AcDbLine
 62
7
  6
CONTINUOUS
 10
105.7297471002
 20
44.6721582087
 11
105.7297471002
 21
45.3721582087
  0
LINE
  5
601
100
AcDbEntity
  8
_30_VOLUMEN
100
AcDbLine
 62
7
  6
CONTINUOUS
 10
105.8253232105
 20
44.6721582087
 11
105.8253232105
 21
45.3721582087
  0
LINE
  5
602
100
AcDbEntity
  8
_30_VOLUMEN
100
AcDbLine
 62
7
  6
CONTINUOUS
 10
105.9387624501
 20
29.9721582087
 11
105.9387624501
 21
30.6721582087
  0
LINE
  5
603
100
AcDbEntity
  8
_30_VOLUMEN
100
AcDbLine
 62
7
  6
CONTINUOUS
 10
105.9810340977
 20
44.6721582087
 11
105.9810340977
 21
45.3721582087
  0
LINE
  5
604
100
AcDbEntity
  8
_30_VOLUMEN
100
AcDbLine
 62
7
  6
CONTINUOUS
 10
106.2247317465
 20
29.9721582087
 11
106.2247317465
 21
30.6721582087
  0
LINE
  5
605
100
AcDbEntity
  8
_30_VOLUMEN
100
AcDbLine
 62
7
  6
CONTINUOUS
 10
106.2747352872
 20
44.6721582087
 11
106.2747352872
 21
45.3721582087
  0
LINE
  5
606
100
AcDbEntity
  8
_30_VOLUMEN
100
AcDbLine
 62
7
  6
CONTINUOUS
 10
106.5790405303
 20
44.6721582087
 11
106.5790405303
 21
45.3721582087
  0
LINE
  5
607
100
AcDbEntity
  8
_30_VOLUMEN
100
AcDbLine
 62
7
  6
CONTINUOUS
 10
106.8120644529
 20
30.6721582087
 11
106.8120644529
 21
29.9721582087
  0
LINE
  5
608
100
AcDbEntity
  8
_30_VOLUMEN
100
AcDbLine
 62
7
  6
CONTINUOUS
 10
106.9434817111
 20
44.6721582087
 11
106.9434817111
 21
45.3721582087
  0
LINE
  5
609
100
AcDbEntity
  8
_30_VOLUMEN
100
AcDbLine
 62
7
  6
CONTINUOUS
 10
107.0532898324
 20
44.6721582087
 11
107.0532898324
 21
45.3721582087
  0
LINE
  5
60A
100
AcDbEntity
  8
_30_VOLUMEN
100
AcDbLine
 62
7
  6
CONTINUOUS
 10
107.2186522783
 20
30.6721582087
 11
107.2186522783
 21
29.9721582087
  0
LINE
  5
60B
100
AcDbEntity
  8
_30_VOLUMEN
100
AcDbLine
 62
7
  6
CONTINUOUS
 10
107.2479284414
 20
44.6721582087
 11
107.2479284414
 21
45.3721582087
  0
LINE
  5
60C
100
AcDbEntity
  8
_30_VOLUMEN
100
AcDbLine
 62
7
  6
CONTINUOUS
 10
108.348062926
 20
30.6721582087
 11
108.348062926
 21
29.9721582087
  0
LINE
  5
60D
100
AcDbEntity
  8
_30_VOLUMEN
100
AcDbLine
 62
7
  6
CONTINUOUS
 10
108.6191214763
 20
30.6721582087
 11
108.6191214763
 21
29.9721582087
  0
LINE
  5
60E
100
AcDbEntity
  8
_30_VOLUMEN
100
AcDbLine
 62
7
  6
CONTINUOUS
 10
108.8013074014
 20
30.6721582087
 11
108.8013074014
 21
29.9721582087
  0
LINE
  5
60F
100
AcDbEntity
  8
_30_VOLUMEN
100
AcDbLine
 62
7
  6
CONTINUOUS
 10
108.931998185
 20
44.6721582087
 11
108.931998185
 21
45.3721582087
  0
LINE
  5
610
100
AcDbEntity
  8
_30_VOLUMEN
100
AcDbLine
 62
7
  6
CONTINUOUS
 10
109.0512873919
 20
44.6721582087
 11
109.0512873919
 21
45.3721582087
  0
LINE
  5
611
100
AcDbEntity
  8
_30_VOLUMEN
100
AcDbLine
 62
7
  6
CONTINUOUS
 10
109.0587035383
 20
30.6721582087
 11
109.0587035383
 21
29.9721582087
  0
LINE
  5
612
100
AcDbEntity
  8
_30_VOLUMEN
100
AcDbLine
 62
7
  6
CONTINUOUS
 10
109.3645704165
 20
44.6721582087
 11
109.3645704165
 21
45.3721582087
  0
LINE
  5
613
100
AcDbEntity
  8
_30_VOLUMEN
100
AcDbLine
 62
7
  6
CONTINUOUS
 10
109.3976745946
 20
30.6721582087
 11
109.3976745946
 21
29.9721582087
  0
LINE
  5
614
100
AcDbEntity
  8
_30_VOLUMEN
100
AcDbLine
 62
7
  6
CONTINUOUS
 10
109.6487349255
 20
30.6721582087
 11
109.6487349255
 21
29.9721582087
  0
LINE
  5
615
100
AcDbEntity
  8
_30_VOLUMEN
100
AcDbLine
 62
7
  6
CONTINUOUS
 10
109.6774158375
 20
44.6721582087
 11
109.6774158375
 21
45.3721582087
  0
LINE
  5
616
100
AcDbEntity
  8
_30_VOLUMEN
100
AcDbLine
 62
7
  6
CONTINUOUS
 10
109.8966271201
 20
30.6721582087
 11
109.8966271201
 21
29.9721582087
  0
LINE
  5
617
100
AcDbEntity
  8
_30_VOLUMEN
100
AcDbLine
 62
7
  6
CONTINUOUS
 10
110.0342659237
 20
44.6721582087
 11
110.0342659237
 21
45.3721582087
  0
LINE
  5
618
100
AcDbEntity
  8
_30_VOLUMEN
100
AcDbLine
 62
7
  6
CONTINUOUS
 10
110.2229260979
 20
29.9721582087
 11
110.2229260979
 21
30.6721582087
  0
LINE
  5
619
100
AcDbEntity
  8
_30_VOLUMEN
100
AcDbLine
 62
7
  6
CONTINUOUS
 10
110.3013572767
 20
44.6721582087
 11
110.3013572767
 21
45.3721582087
  0
LINE
  5
61A
100
AcDbEntity
  8
_30_VOLUMEN
100
AcDbLine
 62
7
  6
CONTINUOUS
 10
110.3829078006
 20
29.9721582087
 11
110.3829078006
 21
30.6721582087
  0
LINE
  5
61B
100
AcDbEntity
  8
_30_VOLUMEN
100
AcDbLine
 62
7
  6
CONTINUOUS
 10
110.4581464474
 20
29.9721582087
 11
110.4581464474
 21
30.6721582087
  0
LINE
  5
61C
100
AcDbEntity
  8
_30_VOLUMEN
100
AcDbLine
 62
7
  6
CONTINUOUS
 10
110.523569009
 20
44.6721582087
 11
110.523569009
 21
45.3721582087
  0
LINE
  5
61D
100
AcDbEntity
  8
_30_VOLUMEN
100
AcDbLine
 62
7
  6
CONTINUOUS
 10
110.7009006118
 20
44.6721582087
 11
110.7009006118
 21
45.3721582087
  0
LINE
  5
61E
100
AcDbEntity
  8
_30_VOLUMEN
100
AcDbLine
 62
7
  6
CONTINUOUS
 10
110.7884734815
 20
44.6721582087
 11
110.7884734815
 21
45.3721582087
  0
LINE
  5
61F
100
AcDbEntity
  8
_30_VOLUMEN
100
AcDbLine
 62
7
  6
CONTINUOUS
 10
110.9084329829
 20
30.6721582087
 11
110.9084329829
 21
29.9721582087
  0
LINE
  5
620
100
AcDbEntity
  8
_30_VOLUMEN
100
AcDbLine
 62
7
  6
CONTINUOUS
 10
111.4322595867
 20
30.6721582087
 11
111.4322595867
 21
29.9721582087
  0
LINE
  5
621
100
AcDbEntity
  8
_30_VOLUMEN
100
AcDbLine
 62
7
  6
CONTINUOUS
 10
111.5216974043
 20
44.6721582087
 11
111.5216974043
 21
45.3721582087
  0
LINE
  5
622
100
AcDbEntity
  8
_30_VOLUMEN
100
AcDbLine
 62
7
  6
CONTINUOUS
 10
111.6470503711
 20
30.6721582087
 11
111.6470503711
 21
29.9721582087
  0
LINE
  5
623
100
AcDbEntity
  8
_30_VOLUMEN
100
AcDbLine
 62
7
  6
CONTINUOUS
 10
111.7724160694
 20
44.6721582087
 11
111.7724160694
 21
45.3721582087
  0
LINE
  5
624
100
AcDbEntity
  8
_30_VOLUMEN
100
AcDbLine
 62
7
  6
CONTINUOUS
 10
112.6494072285
 20
30.6721582087
 11
112.6494072285
 21
29.9721582087
  0
LINE
  5
625
100
AcDbEntity
  8
_30_VOLUMEN
100
AcDbLine
 62
7
  6
CONTINUOUS
 10
112.8641980129
 20
30.6721582087
 11
112.8641980129
 21
29.9721582087
  0
LINE
  5
626
100
AcDbEntity
  8
_30_VOLUMEN
100
AcDbLine
 62
7
  6
CONTINUOUS
 10
113.0307595544
 20
30.6721582087
 11
113.0307595544
 21
29.9721582087
  0
LINE
  5
627
100
AcDbEntity
  8
_30_VOLUMEN
100
AcDbLine
 62
7
  6
CONTINUOUS
 10
113.0576389904
 20
30.6721582087
 11
113.0576389904
 21
29.9721582087
  0
LINE
  5
628
100
AcDbEntity
  8
_30_VOLUMEN
100
AcDbLine
 62
7
  6
CONTINUOUS
 10
113.1646115389
 20
44.6721582087
 11
113.1646115389
 21
45.3721582087
  0
LINE
  5
629
100
AcDbEntity
  8
_30_VOLUMEN
100
AcDbLine
 62
7
  6
CONTINUOUS
 10
113.1684835679
 20
30.6721582087
 11
113.1684835679
 21
29.9721582087
  0
LINE
  5
62A
100
AcDbEntity
  8
_30_VOLUMEN
100
AcDbLine
 62
7
  6
CONTINUOUS
 10
113.3626888918
 20
30.6721582087
 11
113.3626888918
 21
29.9721582087
  0
LINE
  5
62B
100
AcDbEntity
  8
_30_VOLUMEN
100
AcDbLine
 62
7
  6
CONTINUOUS
 10
113.5846810746
 20
30.6721582087
 11
113.5846810746
 21
29.9721582087
  0
LINE
  5
62C
100
AcDbEntity
  8
_30_VOLUMEN
100
AcDbLine
 62
7
  6
CONTINUOUS
 10
113.6762573308
 20
44.6721582087
 11
113.6762573308
 21
45.3721582087
  0
LINE
  5
62D
100
AcDbEntity
  8
_30_VOLUMEN
100
AcDbLine
 62
7
  6
CONTINUOUS
 10
113.8344598054
 20
30.6721582087
 11
113.8344598054
 21
29.9721582087
  0
LINE
  5
62E
100
AcDbEntity
  8
_30_VOLUMEN
100
AcDbLine
 62
7
  6
CONTINUOUS
 10
113.8683020745
 20
44.6721582087
 11
113.8683020745
 21
45.3721582087
  0
LINE
  5
62F
100
AcDbEntity
  8
_30_VOLUMEN
100
AcDbLine
 62
7
  6
CONTINUOUS
 10
114.1675992825
 20
30.6721582087
 11
114.1675992825
 21
29.9721582087
  0
LINE
  5
630
100
AcDbEntity
  8
_30_VOLUMEN
100
AcDbLine
 62
7
  6
CONTINUOUS
 10
113.1707778537
 20
25.0760056942
 11
120.6281160184
 21
28.5534195898
  0
LINE
  5
631
100
AcDbEntity
  8
_26_BEZUGSACHSEN
100
AcDbLine
 62
7
  6
CONTINUOUS
 10
113.1707778537
 20
50.2683107232
 11
120.6281160184
 21
46.7908968276
  0
LINE
  5
632
100
AcDbEntity
  8
_30_VOLUMEN
100
AcDbLine
 62
7
  6
CONTINUOUS
 10
114.3897424281
 20
30.6721582087
 11
114.3897424281
 21
29.9721582087
  0
LINE
  5
633
100
AcDbEntity
  8
_30_VOLUMEN
100
AcDbLine
 62
7
  6
CONTINUOUS
 10
114.5563878848
 20
30.6721582087
 11
114.5563878848
 21
29.9721582087
  0
LINE
  5
634
100
AcDbEntity
  8
_30_VOLUMEN
100
AcDbLine
 62
7
  6
CONTINUOUS
 10
114.6684885678
 20
44.6721582087
 11
114.6684885678
 21
45.3721582087
  0
LINE
  5
635
100
AcDbEntity
  8
_30_VOLUMEN
100
AcDbLine
 62
7
  6
CONTINUOUS
 10
114.6953217201
 20
30.6721582087
 11
114.6953217201
 21
29.9721582087
  0
LINE
  5
636
100
AcDbEntity
  8
_30_VOLUMEN
100
AcDbLine
 62
7
  6
CONTINUOUS
 10
114.7787575486
 20
30.6721582087
 11
114.7787575486
 21
29.9721582087
  0
LINE
  5
637
100
AcDbEntity
  8
_30_VOLUMEN
100
AcDbLine
 62
7
  6
CONTINUOUS
 10
114.9565555918
 20
44.6721582087
 11
114.9565555918
 21
45.3721582087
  0
LINE
  5
638
100
AcDbEntity
  8
_30_VOLUMEN
100
AcDbLine
 62
7
  6
CONTINUOUS
 10
114.9863287184
 20
44.6721582087
 11
114.9863287184
 21
45.3721582087
  0
LINE
  5
639
100
AcDbEntity
  8
_30_VOLUMEN
100
AcDbLine
 62
7
  6
CONTINUOUS
 10
115.0037529812
 20
44.6721582087
 11
115.0037529812
 21
45.3721582087
  0
LINE
  5
63A
100
AcDbEntity
  8
_30_VOLUMEN
100
AcDbLine
 62
7
  6
CONTINUOUS
 10
115.2008198413
 20
30.6721582087
 11
115.2008198413
 21
29.9721582087
  0
LINE
  5
63B
100
AcDbEntity
  8
_30_VOLUMEN
100
AcDbLine
 62
7
  6
CONTINUOUS
 10
115.3552731405
 20
44.6721582087
 11
115.3552731405
 21
45.3721582087
  0
LINE
  5
63C
100
AcDbEntity
  8
_30_VOLUMEN
100
AcDbLine
 62
7
  6
CONTINUOUS
 10
115.4945709586
 20
30.6721582087
 11
115.4945709586
 21
29.9721582087
  0
LINE
  5
63D
100
AcDbEntity
  8
_30_VOLUMEN
100
AcDbLine
 62
7
  6
CONTINUOUS
 10
116.2483166362
 20
44.6721582087
 11
116.2483166362
 21
45.3721582087
  0
LINE
  5
63E
100
AcDbEntity
  8
_30_VOLUMEN
100
AcDbLine
 62
7
  6
CONTINUOUS
 10
116.3301843444
 20
30.6721582087
 11
116.3301843444
 21
29.9721582087
  0
LINE
  5
63F
100
AcDbEntity
  8
_30_VOLUMEN
100
AcDbLine
 62
7
  6
CONTINUOUS
 10
116.8558376584
 20
30.6721582087
 11
116.8558376584
 21
29.9721582087
  0
LWPOLYLINE
  5
640
100
AcDbEntity
  8
_30_VOLUMEN
100
AcDbPolyline
 62
7
  6
CONTINUOUS
 90
6
 70
0
 10
121.8811690147
 20
29.9643616647
 10
122.0798050746
 20
30.120143149
 10
122.3092564339
 20
30.3075814039
 10
122.5295840555
 20
30.4959691228
 10
122.740942516
 20
30.6853721902
 10
122.8968051077
 20
30.8319618128
  0
LINE
  5
641
100
AcDbEntity
  8
_30_VOLUMEN
100
AcDbLine
 62
7
  6
CONTINUOUS
 10
121.8820615194
 20
29.9650352612
 11
121.8811757823
 21
29.9643528676
  0
LINE
  5
642
100
AcDbEntity
  8
_26_BEZUGSACHSEN
100
AcDbLine
 62
7
  6
CONTINUOUS
 10
121.882099994
 20
45.3792515015
 11
121.8811757823
 21
45.3799635498
  0
LINE
  5
643
100
AcDbEntity
  8
_30_VOLUMEN
100
AcDbLine
 62
7
  6
CONTINUOUS
 10
116.9814178418
 20
30.6721582087
 11
116.9814178418
 21
29.9721582087
  0
LINE
  5
644
100
AcDbEntity
  8
_30_VOLUMEN
100
AcDbLine
 62
7
  6
CONTINUOUS
 10
117.4084651229
 20
30.6721582087
 11
117.4084651229
 21
29.9721582087
  0
LINE
  5
645
100
AcDbEntity
  8
_30_VOLUMEN
100
AcDbLine
 62
7
  6
CONTINUOUS
 10
117.6288762055
 20
30.6721582087
 11
117.6288762055
 21
29.9721582087
  0
LWPOLYLINE
  5
646
100
AcDbEntity
  8
_26_BEZUGSACHSEN
100
AcDbPolyline
 62
7
  6
CONTINUOUS
 90
6
 70
0
 10
122.8968051077
 20
44.5123546046
 10
122.740942516
 20
44.6589442272
 10
122.5295840555
 20
44.8483472946
 10
122.3092564339
 20
45.0367350135
 10
122.0798050746
 20
45.2241732684
 10
121.8811690147
 20
45.3799547527
  0
LWPOLYLINE
  5
647
100
AcDbEntity
  8
_26_BEZUGSACHSEN
100
AcDbPolyline
 62
7
  6
CONTINUOUS
 90
7
 70
0
 10
122.2093223917
 20
45.0548305436
 10
122.2164560645
 20
45.0447569207
 10
122.2235740553
 20
45.0341627698
 10
122.2215966564
 20
45.0374616147
 10
122.2111300361
 20
45.0558959394
 10
122.1928748749
 20
45.090489679
 10
122.1673564394
 20
45.1425518332
  0
LINE
  5
648
100
AcDbEntity
  8
_30_VOLUMEN
100
AcDbLine
 62
7
  6
CONTINUOUS
 10
122.120246424
 20
30.0965320095
 11
122.1203075713
 21
30.0966755555
  0
LWPOLYLINE
  5
649
100
AcDbEntity
  8
_30_VOLUMEN
100
AcDbPolyline
 62
7
  6
CONTINUOUS
 90
3
 70
0
 10
122.1202998188
 20
30.0966777092
 10
122.1350143585
 20
30.1307037577
 10
122.1600332194
 20
30.1856813245
  0
LWPOLYLINE
  5
64A
100
AcDbEntity
  8
_26_BEZUGSACHSEN
100
AcDbPolyline
 62
7
  6
CONTINUOUS
 90
3
 70
0
 10
122.1673564394
 20
45.1425518332
 10
122.1350813767
 20
45.2134600368
 10
122.1202994047
 20
45.2476396802
  0
LINE
  5
64B
100
AcDbEntity
  8
_26_BEZUGSACHSEN
100
AcDbLine
 62
7
  6
CONTINUOUS
 10
122.1199340274
 20
45.2485173048
 11
122.1203071573
 21
45.2476418339
  0
LINE
  5
64C
100
AcDbEntity
  8
_26_BEZUGSACHSEN
100
AcDbLine
 62
7
  6
CONTINUOUS
 10
124.936744002
 20
33.6721582087
 11
124.936744002
 21
41.6721582087
  0
ARC
  5
64D
100
AcDbEntity
  8
_30_VOLUMEN
100
AcDbCircle
 62
7
  6
CONTINUOUS
 10
81.1717656493
 20
153.0880422291
 40
45.0
100
AcDbArc
 50
15.2660363011
 51
70.8179100571
  0
ARC
  5
64E
100
AcDbEntity
  8
_30_VOLUMEN
100
AcDbCircle
 62
7
  6
CONTINUOUS
 10
84.8437630862
 20
155.78134301
 40
9.1092462686
100
AcDbArc
 50
263.6347853496
 51
266.0075282772
  0
ARC
  5
64F
100
AcDbEntity
  8
_30_VOLUMEN
100
AcDbCircle
 62
7
  6
CONTINUOUS
 10
83.1351137276
 20
140.5325199226
 40
6.2350090534
100
AcDbArc
 50
83.5654361667
 51
85.3957749161
  0
ARC
  5
650
100
AcDbEntity
  8
_30_VOLUMEN
100
AcDbCircle
 62
7
  6
CONTINUOUS
 10
78.2068549793
 20
151.1053535626
 40
3.0349859298
100
AcDbArc
 50
188.3586218425
 51
192.5401822592
  0
ARC
  5
651
100
AcDbEntity
  8
_26_BEZUGSACHSEN
100
AcDbCircle
 62
7
  6
CONTINUOUS
 10
68.65293085
 20
139.0072756211
 40
3.0000003432
100
AcDbArc
 50
200.3064770359
 51
260.5882987837
  0
ARC
  5
652
100
AcDbEntity
  8
_26_BEZUGSACHSEN
100
AcDbCircle
 62
7
  6
CONTINUOUS
 10
67.6717656493
 20
133.0880422291
 40
3.0
100
AcDbArc
 50
0.0
 51
80.5882904786
  0
ARC
  5
653
100
AcDbEntity
  8
_30_VOLUMEN
100
AcDbCircle
 62
7
  6
CONTINUOUS
 10
68.623087459
 20
139.0880422291
 40
3.0
100
AcDbArc
 50
200.2522459024
 51
269.9999976515
  0
ARC
  5
654
100
AcDbEntity
  8
_26_BEZUGSACHSEN
100
AcDbCircle
 62
7
  6
CONTINUOUS
 10
31.3462674161
 20
170.5880422291
 40
94.0
100
AcDbArc
 50
339.6940877577
 51
339.7477532578
  0
ARC
  5
655
100
AcDbEntity
  8
_30_VOLUMEN
100
AcDbCircle
 62
7
  6
CONTINUOUS
 10
31.3462674161
 20
170.5880422291
 40
94.0
100
AcDbArc
 50
339.747753079
 51
354.3400322592
  0
ARC
  5
656
100
AcDbEntity
  8
_26_BEZUGSACHSEN
100
AcDbCircle
 62
7
  6
CONTINUOUS
 10
70.4067872966
 20
162.3035854492
 40
10.0
100
AcDbArc
 50
164.7339636989
 51
185.6599677408
  0
ARC
  5
657
100
AcDbEntity
  8
_30_VOLUMEN
100
AcDbCircle
 62
7
  6
CONTINUOUS
 10
70.4067872966
 20
162.3035854492
 40
10.0
100
AcDbArc
 50
164.7339636989
 51
185.6599677408
  0
ARC
  5
658
100
AcDbEntity
  8
_26_BEZUGSACHSEN
100
AcDbCircle
 62
7
  6
CONTINUOUS
 10
104.1717656493
 20
153.0880422291
 40
45.0
100
AcDbArc
 50
109.1820899429
 51
164.7339636989
  0
ARC
  5
659
100
AcDbEntity
  8
_30_VOLUMEN
100
AcDbCircle
 62
7
  6
CONTINUOUS
 10
104.1717656493
 20
153.0880422291
 40
45.0
100
AcDbArc
 50
109.1820899429
 51
164.7339636989
  0
ARC
  5
65A
100
AcDbEntity
  8
_30_VOLUMEN
100
AcDbCircle
 62
7
  6
CONTINUOUS
 10
100.5241498467
 20
155.5123334582
 40
8.8391937355
100
AcDbArc
 50
273.9562206184
 51
276.4014657547
  0
ARC
  5
65B
100
AcDbEntity
  8
_30_VOLUMEN
100
AcDbCircle
 62
7
  6
CONTINUOUS
 10
102.208417571
 20
140.5325199226
 40
6.2350090534
100
AcDbArc
 50
94.6042250839
 51
96.4345638333
  0
ARC
  5
65C
100
AcDbEntity
  8
_30_VOLUMEN
100
AcDbCircle
 62
7
  6
CONTINUOUS
 10
107.1366763193
 20
151.1053535626
 40
3.0349859298
100
AcDbArc
 50
347.4598177408
 51
351.6413781575
  0
ARC
  5
65D
100
AcDbEntity
  8
_26_BEZUGSACHSEN
100
AcDbCircle
 62
7
  6
CONTINUOUS
 10
117.6717656493
 20
133.0880422291
 40
3.0
100
AcDbArc
 50
99.4117095214
 51
180.0
  0
ARC
  5
65E
100
AcDbEntity
  8
_30_VOLUMEN
100
AcDbCircle
 62
7
  6
CONTINUOUS
 10
116.7204438396
 20
139.0880422291
 40
3.0
100
AcDbArc
 50
269.9999843331
 51
339.7477476559
  0
ARC
  5
65F
100
AcDbEntity
  8
_26_BEZUGSACHSEN
100
AcDbCircle
 62
7
  6
CONTINUOUS
 10
116.7204438396
 20
139.0880422291
 40
3.0
100
AcDbArc
 50
335.0979034559
 51
339.5299627326
  0
ARC
  5
660
100
AcDbEntity
  8
_26_BEZUGSACHSEN
100
AcDbCircle
 62
7
  6
CONTINUOUS
 10
116.7204438396
 20
139.0880422291
 40
3.0
100
AcDbArc
 50
270.4103730818
 51
279.2997010532
  0
ARC
  5
661
100
AcDbEntity
  8
_26_BEZUGSACHSEN
100
AcDbCircle
 62
7
  6
CONTINUOUS
 10
116.6906001339
 20
139.0072747759
 40
2.9999999892
100
AcDbArc
 50
279.4117097843
 51
339.6935401875
  0
ARC
  5
662
100
AcDbEntity
  8
_26_BEZUGSACHSEN
100
AcDbCircle
 62
7
  6
CONTINUOUS
 10
153.9972638826
 20
170.5880422291
 40
94.0
100
AcDbArc
 50
185.6599677408
 51
187.6172938813
  0
ARC
  5
663
100
AcDbEntity
  8
_26_BEZUGSACHSEN
100
AcDbCircle
 62
7
  6
CONTINUOUS
 10
153.9972638826
 20
170.5880422291
 40
94.0
100
AcDbArc
 50
200.2522467422
 51
200.3064600385
  0
ARC
  5
664
100
AcDbEntity
  8
_30_VOLUMEN
100
AcDbCircle
 62
7
  6
CONTINUOUS
 10
153.9972638826
 20
170.5880422291
 40
94.0
100
AcDbArc
 50
185.6599677408
 51
200.2522467154
  0
ARC
  5
665
100
AcDbEntity
  8
_30_VOLUMEN
100
AcDbCircle
 62
7
  6
CONTINUOUS
 10
92.6717656493
 20
163.0880422291
 40
17.5
100
AcDbArc
 50
0.0
 51
180.0
  0
ARC
  5
666
100
AcDbEntity
  8
_26_BEZUGSACHSEN
100
AcDbCircle
 62
7
  6
CONTINUOUS
 10
114.936744002
 20
162.3035854492
 40
10.0
100
AcDbArc
 50
354.3400322592
 51
15.2660363011
  0
ARC
  5
667
100
AcDbEntity
  8
_30_VOLUMEN
100
AcDbCircle
 62
7
  6
CONTINUOUS
 10
114.936744002
 20
162.3035854492
 40
10.0
100
AcDbArc
 50
354.3400322592
 51
15.2660363011
  0
ARC
  5
668
100
AcDbEntity
  8
_26_BEZUGSACHSEN
100
AcDbCircle
 62
7
  6
CONTINUOUS
 10
92.6717656493
 20
186.1448115812
 40
10.0
100
AcDbArc
 50
70.8179100571
 51
109.1820899429
  0
ARC
  5
669
100
AcDbEntity
  8
_30_VOLUMEN
100
AcDbCircle
 62
7
  6
CONTINUOUS
 10
92.6717656493
 20
186.1448115812
 40
10.0
100
AcDbArc
 50
70.8179100571
 51
109.1820899429
  0
ARC
  5
66A
100
AcDbEntity
  8
_30_VOLUMEN
100
AcDbCircle
 62
7
  6
CONTINUOUS
 10
170.2738246463
 20
134.6533269083
 40
9.8690181478
100
AcDbArc
 50
9.0081353664
 51
9.5856483658
  0
ARC
  5
66B
100
AcDbEntity
  8
_30_VOLUMEN
100
AcDbCircle
 62
7
  6
CONTINUOUS
 10
171.5243073374
 20
134.8656617632
 40
8.6006366726
100
AcDbArc
 50
9.5780698767
 51
10.9906875776
  0
ARC
  5
66C
100
AcDbEntity
  8
_30_VOLUMEN
100
AcDbCircle
 62
7
  6
CONTINUOUS
 10
185.8781720571
 20
136.720854259
 40
6.1443335884
100
AcDbArc
 50
179.5542765856
 51
180.0086642402
  0
ARC
  5
66D
100
AcDbEntity
  8
_30_VOLUMEN
100
AcDbCircle
 62
7
  6
CONTINUOUS
 10
174.4119114711
 20
141.1085676614
 40
5.605433041
100
AcDbArc
 50
10.5220304828
 51
11.2719805495
  0
ARC
  5
66E
100
AcDbEntity
  8
_26_BEZUGSACHSEN
100
AcDbCircle
 62
7
  6
CONTINUOUS
 10
189.7244694104
 20
151.6668124717
 40
5.0
100
AcDbArc
 50
276.0
 51
350.0
  0
ARC
  5
66F
100
AcDbEntity
  8
_26_BEZUGSACHSEN
100
AcDbCircle
 62
7
  6
CONTINUOUS
 10
190.9338385254
 20
158.5254855467
 40
5.0
100
AcDbArc
 50
350.0
 51
360.0
  0
ARC
  5
670
100
AcDbEntity
  8
_26_BEZUGSACHSEN
100
AcDbCircle
 62
7
  6
CONTINUOUS
 10
183.4338385254
 20
135.4859579907
 40
3.0
100
AcDbArc
 50
180.0
 51
203.5564643091
  0
ARC
  5
671
100
AcDbEntity
  8
_26_BEZUGSACHSEN
100
AcDbCircle
 62
7
  6
CONTINUOUS
 10
183.4338402912
 20
142.9615744723
 40
3.0
100
AcDbArc
 50
96.0
 51
179.9999988041
  0
ARC
  5
672
100
AcDbEntity
  8
_26_BEZUGSACHSEN
100
AcDbCircle
 62
7
  6
CONTINUOUS
 10
177.9338385254
 20
133.0880422291
 40
3.0
100
AcDbArc
 50
0.0
 51
23.5564643091
  0
ARC
  5
673
100
AcDbEntity
  8
_26_BEZUGSACHSEN
100
AcDbCircle
 62
7
  6
CONTINUOUS
 10
190.9747396991
 20
143.7651149196
 40
3.0
100
AcDbArc
 50
96.2281332221
 51
98.991259223
  0
ARC
  5
674
100
AcDbEntity
  8
_30_VOLUMEN
100
AcDbCircle
 62
7
  6
CONTINUOUS
 10
179.4630031055
 20
139.6461340748
 40
0.3545993187
100
AcDbArc
 50
4.9451081439
 51
6.9435239406
  0
ARC
  5
675
100
AcDbEntity
  8
_30_VOLUMEN
100
AcDbCircle
 62
7
  6
CONTINUOUS
 10
180.0260865664
 20
137.9035495902
 40
0.159412027
100
AcDbArc
 50
187.8352060247
 51
190.4619722373
  0
ARC
  5
676
100
AcDbEntity
  8
_26_BEZUGSACHSEN
100
AcDbCircle
 62
7
  6
CONTINUOUS
 10
198.9338385254
 20
193.1448115812
 40
3.0
100
AcDbArc
 50
90.0
 51
180.0
  0
ARC
  5
677
100
AcDbEntity
  8
_30_VOLUMEN
100
AcDbCircle
 62
7
  6
CONTINUOUS
 10
216.1432076403
 20
151.6668124717
 40
5.0
100
AcDbArc
 50
190.0
 51
264.0
  0
ARC
  5
678
100
AcDbEntity
  8
_30_VOLUMEN
100
AcDbCircle
 62
7
  6
CONTINUOUS
 10
214.9338385254
 20
158.5254855467
 40
5.0
100
AcDbArc
 50
180.0
 51
190.0
  0
ARC
  5
679
100
AcDbEntity
  8
_30_VOLUMEN
100
AcDbCircle
 62
7
  6
CONTINUOUS
 10
222.4338385254
 20
135.4859579907
 40
3.0
100
AcDbArc
 50
336.4435356909
 51
360.0
  0
ARC
  5
67A
100
AcDbEntity
  8
_30_VOLUMEN
100
AcDbCircle
 62
7
  6
CONTINUOUS
 10
222.4338367595
 20
142.9615744723
 40
3.0
100
AcDbArc
 50
0.0000011959
 51
84.0
  0
ARC
  5
67B
100
AcDbEntity
  8
_30_VOLUMEN
100
AcDbCircle
 62
7
  6
CONTINUOUS
 10
227.9338385254
 20
133.0880422291
 40
3.0
100
AcDbArc
 50
156.4435356909
 51
180.0
  0
ARC
  5
67C
100
AcDbEntity
  8
_30_VOLUMEN
100
AcDbCircle
 62
7
  6
CONTINUOUS
 10
214.8929373516
 20
143.7651149196
 40
3.0
100
AcDbArc
 50
81.008740777
 51
83.7718667779
  0
ARC
  5
67D
100
AcDbEntity
  8
_30_VOLUMEN
100
AcDbCircle
 62
7
  6
CONTINUOUS
 10
206.9338385254
 20
193.1448115812
 40
3.0
100
AcDbArc
 50
0.0
 51
90.0
  0
ARC
  5
67E
100
AcDbEntity
  8
_30_VOLUMEN
100
AcDbCircle
 62
7
  6
CONTINUOUS
 10
65.8334795188
 20
11.4813888886
 40
15.0
100
AcDbArc
 50
44.3004186781
 51
65.0
  0
ARC
  5
67F
100
AcDbEntity
  8
_30_VOLUMEN
100
AcDbCircle
 62
7
  6
CONTINUOUS
 10
65.9832671001
 20
31.2723443337
 40
3.0
100
AcDbArc
 50
203.0911111662
 51
244.9999835949
  0
ARC
  5
680
100
AcDbEntity
  8
_30_VOLUMEN
100
AcDbCircle
 62
7
  6
CONTINUOUS
 10
63.4067872966
 20
33.6721582087
 40
3.0
100
AcDbArc
 50
180.0
 51
270.0
  0
ARC
  5
681
100
AcDbEntity
  8
_26_BEZUGSACHSEN
100
AcDbCircle
 62
7
  6
CONTINUOUS
 10
65.8334795188
 20
63.8629275288
 40
15.0
100
AcDbArc
 50
295.0
 51
315.6995813219
  0
ARC
  5
682
100
AcDbEntity
  8
_26_BEZUGSACHSEN
100
AcDbCircle
 62
7
  6
CONTINUOUS
 10
65.9832671001
 20
44.0719720837
 40
3.0
100
AcDbArc
 50
115.0000164051
 51
156.9240858399
  0
ARC
  5
683
100
AcDbEntity
  8
_26_BEZUGSACHSEN
100
AcDbCircle
 62
7
  6
CONTINUOUS
 10
63.4067872966
 20
41.6721582087
 40
3.0
100
AcDbArc
 50
90.0
 51
180.0
  0
ARC
  5
684
100
AcDbEntity
  8
_30_VOLUMEN
100
AcDbCircle
 62
7
  6
CONTINUOUS
 10
119.5100517798
 20
11.4813888886
 40
15.0
100
AcDbArc
 50
115.0
 51
135.6995813219
  0
ARC
  5
685
100
AcDbEntity
  8
_30_VOLUMEN
100
AcDbCircle
 62
7
  6
CONTINUOUS
 10
119.3602724517
 20
31.2723481822
 40
3.0
100
AcDbArc
 50
295.0014047284
 51
336.9248909879
  0
ARC
  5
686
100
AcDbEntity
  8
_30_VOLUMEN
100
AcDbCircle
 62
7
  6
CONTINUOUS
 10
121.936744002
 20
33.6721582087
 40
3.0
100
AcDbArc
 50
270.0
 51
360.0
  0
ARC
  5
687
100
AcDbEntity
  8
_30_VOLUMEN
100
AcDbCircle
 62
7
  6
CONTINUOUS
 10
92.6717656493
 20
37.6721582087
 40
23.2
100
AcDbArc
 50
78.8454990321
 51
101.037912094
  0
ARC
  5
688
100
AcDbEntity
  8
_30_VOLUMEN
100
AcDbCircle
 62
7
  6
CONTINUOUS
 10
92.6717656493
 20
37.6721582087
 40
23.2
100
AcDbArc
 50
290.9750063796
 51
297.0612950081
  0
ARC
  5
689
100
AcDbEntity
  8
_30_VOLUMEN
100
AcDbCircle
 62
7
  6
CONTINUOUS
 10
92.6717656493
 20
37.6721582087
 40
23.2
100
AcDbArc
 50
286.210207516
 51
289.4944146817
  0
ARC
  5
68A
100
AcDbEntity
  8
_30_VOLUMEN
100
AcDbCircle
 62
7
  6
CONTINUOUS
 10
92.6717656493
 20
37.6721582087
 40
23.2
100
AcDbArc
 50
279.0869827291
 51
284.768636333
  0
ARC
  5
68B
100
AcDbEntity
  8
_30_VOLUMEN
100
AcDbCircle
 62
7
  6
CONTINUOUS
 10
92.6717656493
 20
37.6721582087
 40
23.2
100
AcDbArc
 50
271.2349184454
 51
277.6827622086
  0
ARC
  5
68C
100
AcDbEntity
  8
_30_VOLUMEN
100
AcDbCircle
 62
7
  6
CONTINUOUS
 10
92.6717656493
 20
37.6721582087
 40
23.2
100
AcDbArc
 50
259.9150709475
 51
268.301870005
  0
ARC
  5
68D
100
AcDbEntity
  8
_30_VOLUMEN
100
AcDbCircle
 62
7
  6
CONTINUOUS
 10
92.6717656493
 20
37.6721582087
 40
23.2
100
AcDbArc
 50
254.6919466794
 51
258.0279006795
  0
ARC
  5
68E
100
AcDbEntity
  8
_30_VOLUMEN
100
AcDbCircle
 62
7
  6
CONTINUOUS
 10
92.6717656493
 20
37.6721582087
 40
23.2
100
AcDbArc
 50
249.8287286535
 51
252.7623205086
  0
ARC
  5
68F
100
AcDbEntity
  8
_30_VOLUMEN
100
AcDbCircle
 62
7
  6
CONTINUOUS
 10
92.6717656493
 20
37.6721582087
 40
22.5
100
AcDbArc
 50
224.3004186781
 51
315.6995813219
  0
ARC
  5
690
100
AcDbEntity
  8
_26_BEZUGSACHSEN
100
AcDbCircle
 62
7
  6
CONTINUOUS
 10
92.6717656493
 20
37.6721582087
 40
22.5
100
AcDbArc
 50
44.3004186781
 51
135.6995813219
  0
ARC
  5
691
100
AcDbEntity
  8
_30_VOLUMEN
100
AcDbCircle
 62
7
  6
CONTINUOUS
 10
92.6717656493
 20
37.6721582087
 40
15.25
100
AcDbArc
 50
210.3306245888
 51
329.6693753851
  0
ARC
  5
692
100
AcDbEntity
  8
_30_VOLUMEN
100
AcDbCircle
 62
7
  6
CONTINUOUS
 10
92.6717656493
 20
37.6721582087
 40
15.25
100
AcDbArc
 50
30.3453696803
 51
149.7009137404
  0
ARC
  5
693
100
AcDbEntity
  8
RUNDUNGEN
100
AcDbCircle
 62
7
  6
CONTINUOUS
 10
92.6717656493
 20
37.6721582087
 40
15.0
100
AcDbArc
 50
210.8977047032
 51
329.1022952964
  0
ARC
  5
694
100
AcDbEntity
  8
RUNDUNGEN
100
AcDbCircle
 62
7
  6
CONTINUOUS
 10
92.6717656493
 20
37.6721582087
 40
15.0
100
AcDbArc
 50
29.5131408175
 51
149.1022952964
  0
ARC
  5
695
100
AcDbEntity
  8
_26_BEZUGSACHSEN
100
AcDbCircle
 62
7
  6
CONTINUOUS
 10
119.3602724517
 20
44.0719682352
 40
3.0
100
AcDbArc
 50
23.0902764227
 51
64.9986174706
  0
ARC
  5
696
100
AcDbEntity
  8
_26_BEZUGSACHSEN
100
AcDbCircle
 62
7
  6
CONTINUOUS
 10
121.936744002
 20
41.6721582087
 40
3.0
100
AcDbArc
 50
0.0
 51
90.0
  0
ARC
  5
697
100
AcDbEntity
  8
_26_BEZUGSACHSEN
100
AcDbCircle
 62
7
  6
CONTINUOUS
 10
119.5100517798
 20
63.8629275288
 40
15.0
100
AcDbArc
 50
224.3004186781
 51
245.0
  0
SPLINE
  5
698
100
AcDbEntity
  8
_30_VOLUMEN
100
AcDbSpline
 62
7
  6
CONTINUOUS
 70
0
 71
3
 72
12
 73
8
 74
0
 42
0.0000001
 43
0.0000001
 44
0.0000000001
 40
0.0
 40
0.0
 40
0.0
 40
0.0
 40
0.3543054213
 40
0.6378754338
 40
0.7530217944
 40
0.8506784447
 40
1.0
 40
1.0
 40
1.0
 40
1.0
 10
78.1717656493
 20
147.5725469988
 30
0.0
 10
78.0588593154
 20
147.610370587
 30
0.0
 10
77.860998088
 20
147.696430078
 30
0.0
 10
77.6498337617
 20
147.8389950057
 30
0.0
 10
77.5300171666
 20
147.9562128411
 30
0.0
 10
77.4560070221
 20
148.0521100085
 30
0.0
 10
77.4217654818
 20
148.1336870385
 30
0.0
 10
77.4217654818
 20
148.1838703482
 30
0.0
  0
SPLINE
  5
699
100
AcDbEntity
  8
_30_VOLUMEN
100
AcDbSpline
 62
7
  6
CONTINUOUS
 70
0
 71
3
 72
11
 73
7
 74
0
 42
0.0000001
 43
0.0000001
 44
0.0000000001
 40
0.0
 40
0.0
 40
0.0
 40
0.0
 40
0.2500040052
 40
0.5000156189
 40
0.7499924178
 40
1.0
 40
1.0
 40
1.0
 40
1.0
 10
75.2442717492
 20
150.4463845204
 30
0.0
 10
75.3038744179
 20
150.1785042071
 30
0.0
 10
75.4974091842
 20
149.6562913282
 30
0.0
 10
75.9873714583
 20
148.98231392
 30
0.0
 10
76.6413085092
 20
148.465721777
 30
0.0
 10
77.1561485614
 20
148.25287866
 30
0.0
 10
77.4217654818
 20
148.1838703482
 30
0.0
  0
SPLINE
  5
69A
100
AcDbEntity
  8
_30_VOLUMEN
100
AcDbSpline
 62
7
  6
CONTINUOUS
 70
0
 71
3
 72
12
 73
8
 74
0
 42
0.0000001
 43
0.0000001
 44
0.0000000001
 40
0.0
 40
0.0
 40
0.0
 40
0.0
 40
0.1493215565
 40
0.2469782071
 40
0.3621245677
 40
0.6456945797
 40
1.0
 40
1.0
 40
1.0
 40
1.0
 10
107.9217658168
 20
148.1838703482
 30
0.0
 10
107.9217658168
 20
148.1336870381
 30
0.0
 10
107.8875242761
 20
148.0521100076
 30
0.0
 10
107.8135141311
 20
147.95621284
 30
0.0
 10
107.6936975358
 20
147.8389950049
 30
0.0
 10
107.4825332098
 20
147.6964300777
 30
0.0
 10
107.2846719829
 20
147.6103705869
 30
0.0
 10
107.1717656493
 20
147.5725469988
 30
0.0
  0
SPLINE
  5
69B
100
AcDbEntity
  8
_30_VOLUMEN
100
AcDbSpline
 62
7
  6
CONTINUOUS
 70
0
 71
3
 72
11
 73
7
 74
0
 42
0.0000001
 43
0.0000001
 44
0.0000000001
 40
0.0
 40
0.0
 40
0.0
 40
0.0
 40
0.2500040052
 40
0.5000156189
 40
0.7499924178
 40
1.0
 40
1.0
 40
1.0
 40
1.0
 10
110.0992595495
 20
150.4463845204
 30
0.0
 10
110.0396568807
 20
150.1785042071
 30
0.0
 10
109.8461221144
 20
149.6562913282
 30
0.0
 10
109.3561598403
 20
148.98231392
 30
0.0
 10
108.7022227894
 20
148.465721777
 30
0.0
 10
108.1873827372
 20
148.25287866
 30
0.0
 10
107.9217658168
 20
148.1838703482
 30
0.0
  0
SPLINE
  5
69C
100
AcDbEntity
  8
_30_VOLUMEN
100
AcDbSpline
 62
7
  6
CONTINUOUS
 70
0
 71
3
 72
12
 73
8
 74
0
 42
0.0000001
 43
0.0000001
 44
0.0000000001
 40
0.0
 40
0.0
 40
0.0
 40
0.0
 40
0.1000188933
 40
0.1816549752
 40
0.289551677
 40
0.5884562074
 40
1.0
 40
1.0
 40
1.0
 40
1.0
 10
179.7806261062
 20
137.097347117
 30
0.0
 10
179.774358791
 20
137.0973491035
 30
0.0
 10
179.7648079556
 20
137.0872452139
 30
0.0
 10
179.7582894766
 20
137.0709336312
 30
0.0
 10
179.7498217567
 20
137.0411719347
 30
0.0
 10
179.7428594644
 20
136.9904094301
 30
0.0
 10
179.7395249086
 20
136.9459623587
 30
0.0
 10
179.7381325389
 20
136.9202120996
 30
0.0
  0
SPLINE
  5
69D
100
AcDbEntity
  8
_30_VOLUMEN
100
AcDbSpline
 62
7
  6
CONTINUOUS
 70
0
 71
3
 72
9
 73
5
 74
0
 42
0.0000001
 43
0.0000001
 44
0.0000000001
 40
0.0
 40
0.0
 40
0.0
 40
0.0
 40
0.2237941112
 40
1.0
 40
1.0
 40
1.0
 40
1.0
 10
179.7381325389
 20
136.9202120996
 30
0.0
 10
179.7375597358
 20
136.9096187739
 30
0.0
 10
179.735384638
 20
136.8622627894
 30
0.0
 10
179.7344644145
 20
136.8148568475
 30
0.0
 10
179.7341073295
 20
136.7780630918
 30
0.0
  0
LINE
  5
69E
100
AcDbEntity
  8
_30_VOLUMEN
100
AcDbLine
 62
7
  6
CONTINUOUS
 10
179.7341073295
 20
136.7780630918
 11
179.7340243896
 21
136.7686526439
  0
SPLINE
  5
69F
100
AcDbEntity
  8
_30_VOLUMEN
100
AcDbSpline
 62
7
  6
CONTINUOUS
 70
0
 71
3
 72
10
 73
6
 74
0
 42
0.0000001
 43
0.0000001
 44
0.0000000001
 40
0.0
 40
0.0
 40
0.0
 40
0.0
 40
0.1192687739
 40
0.3164678023
 40
1.0
 40
1.0
 40
1.0
 40
1.0
 10
179.7806276892
 20
142.1455427008
 30
0.0
 10
179.7841930896
 20
142.1455420904
 30
0.0
 10
179.7928738411
 20
142.1396011212
 30
0.0
 10
179.8084080555
 20
142.1143501563
 30
0.0
 10
179.8174037643
 20
142.0891322974
 30
0.0
 10
179.8237068129
 20
142.0696953421
 30
0.0
  0
SPLINE
  5
6A0
100
AcDbEntity
  8
_30_VOLUMEN
100
AcDbSpline
 62
7
  6
CONTINUOUS
 70
0
 71
3
 72
9
 73
5
 74
0
 42
0.0000001
 43
0.0000001
 44
0.0000000001
 40
0.0
 40
0.0
 40
0.0
 40
0.0
 40
0.4123802294
 40
1.0
 40
1.0
 40
1.0
 40
1.0
 10
179.8237068129
 20
142.0696953421
 30
0.0
 10
179.8370714709
 20
142.0284822279
 30
0.0
 10
179.8619116653
 20
141.9261956841
 30
0.0
 10
179.8813194778
 20
141.8229527487
 30
0.0
 10
179.8916375224
 20
141.7620839651
 30
0.0
  0
SPLINE
  5
6A1
100
AcDbEntity
  8
_30_VOLUMEN
100
AcDbSpline
 62
7
  6
CONTINUOUS
 70
0
 71
3
 72
12
 73
8
 74
0
 42
0.0000001
 43
0.0000001
 44
0.0000000001
 40
0.0
 40
0.0
 40
0.0
 40
0.0
 40
0.0991078071
 40
0.1808565688
 40
0.2890183117
 40
0.5884056917
 40
1.0
 40
1.0
 40
1.0
 40
1.0
 10
179.7806259867
 20
142.5955469277
 30
0.0
 10
179.775047582
 20
142.5955465239
 30
0.0
 10
179.7666144686
 20
142.5863860805
 30
0.0
 10
179.7606957479
 20
142.5718309358
 30
0.0
 10
179.7528787875
 20
142.5450912244
 30
0.0
 10
179.7460684635
 20
142.4995508388
 30
0.0
 10
179.7425457907
 20
142.4596318321
 30
0.0
 10
179.7409792459
 20
142.4365177658
 30
0.0
  0
SPLINE
  5
6A2
100
AcDbEntity
  8
_30_VOLUMEN
100
AcDbSpline
 62
7
  6
CONTINUOUS
 70
0
 71
3
 72
9
 73
5
 74
0
 42
0.0000001
 43
0.0000001
 44
0.0000000001
 40
0.0
 40
0.0
 40
0.0
 40
0.0
 40
0.2043415737
 40
1.0
 40
1.0
 40
1.0
 40
1.0
 10
179.7409792459
 20
142.4365177658
 30
0.0
 10
179.7396147883
 20
142.4163854572
 30
0.0
 10
179.7345697598
 20
142.3177530512
 30
0.0
 10
179.7338388191
 20
142.2189608669
 30
0.0
 10
179.7338385357
 20
142.1403905204
 30
0.0
  0
SPLINE
  5
6A3
100
AcDbEntity
  8
_30_VOLUMEN
100
AcDbSpline
 62
7
  6
CONTINUOUS
 70
0
 71
3
 72
9
 73
5
 74
0
 42
0.0000001
 43
0.0000001
 44
0.0000000001
 40
0.0
 40
0.0
 40
0.0
 40
0.0
 40
0.188010839
 40
1.0
 40
1.0
 40
1.0
 40
1.0
 10
179.7806257778
 20
136.645542389
 30
0.0
 10
179.7821090432
 20
136.6455424972
 30
0.0
 10
179.7900042053
 20
136.6437110337
 30
0.0
 10
179.7954447529
 20
136.636936573
 30
0.0
 10
179.7992195005
 20
136.6317608625
 30
0.0
  0
SPLINE
  5
6A4
100
AcDbEntity
  8
_30_VOLUMEN
100
AcDbSpline
 62
7
  6
CONTINUOUS
 70
0
 71
3
 72
12
 73
8
 74
0
 42
0.0000001
 43
0.0000001
 44
0.0000000001
 40
0.0
 40
0.0
 40
0.0
 40
0.0
 40
0.0543098776
 40
0.1290007093
 40
0.3400949696
 40
0.6318528807
 40
1.0
 40
1.0
 40
1.0
 40
1.0
 10
179.7992195005
 20
136.6317608625
 30
0.0
 10
179.8042122036
 20
136.6249151635
 30
0.0
 10
179.8139048142
 20
136.6071382999
 30
0.0
 10
179.8342923979
 20
136.5581458928
 30
0.0
 10
179.8603958689
 20
136.4717062266
 30
0.0
 10
179.8924097382
 20
136.3396595056
 30
0.0
 10
179.912593543
 20
136.2386618548
 30
0.0
 10
179.9230869916
 20
136.1821935756
 30
0.0
  0
SPLINE
  5
6A5
100
AcDbEntity
  8
_30_VOLUMEN
100
AcDbSpline
 62
7
  6
CONTINUOUS
 70
0
 71
3
 72
11
 73
7
 74
0
 42
0.0000001
 43
0.0000001
 44
0.0000000001
 40
0.0
 40
0.0
 40
0.0
 40
0.0
 40
0.4163886691
 40
0.727247098
 40
0.9166185924
 40
1.0
 40
1.0
 40
1.0
 40
1.0
 10
179.8190841617
 20
140.7040578379
 30
0.0
 10
179.8201769685
 20
140.6918748679
 30
0.0
 10
179.8221714184
 20
140.6707840347
 30
0.0
 10
179.8268788698
 20
140.6436304457
 30
0.0
 10
179.8302395744
 20
140.6279599825
 30
0.0
 10
179.8357246253
 20
140.6197379049
 30
0.0
 10
179.8381740476
 20
140.6197379049
 30
0.0
  0
SPLINE
  5
6A6
100
AcDbEntity
  8
_30_VOLUMEN
100
AcDbSpline
 62
7
  6
CONTINUOUS
 70
0
 71
3
 72
11
 73
7
 74
0
 42
0.0000001
 43
0.0000001
 44
0.0000000001
 40
0.0
 40
0.0
 40
0.0
 40
0.0
 40
0.0845383763
 40
0.27851038
 40
0.5901678654
 40
1.0
 40
1.0
 40
1.0
 40
1.0
 10
179.8381740476
 20
141.2198978647
 30
0.0
 10
179.835625648
 20
141.2198978647
 30
0.0
 10
179.830266547
 20
141.2108494002
 30
0.0
 10
179.8268865305
 20
141.1948168236
 30
0.0
 10
179.8222260028
 20
141.1668324417
 30
0.0
 10
179.820187909
 20
141.1454028286
 30
0.0
 10
179.8190841617
 20
141.1330978897
 30
0.0
  0
SPLINE
  5
6A7
100
AcDbEntity
  8
_30_VOLUMEN
100
AcDbSpline
 62
7
  6
CONTINUOUS
 70
0
 71
3
 72
9
 73
5
 74
0
 42
0.0000001
 43
0.0000001
 44
0.0000000001
 40
0.0
 40
0.0
 40
0.0
 40
0.0
 40
0.2113799636
 40
1.0
 40
1.0
 40
1.0
 40
1.0
 10
179.8190841617
 20
141.1330978897
 30
0.0
 10
179.8177404854
 20
141.1181181433
 30
0.0
 10
179.8127208198
 20
141.0471324388
 30
0.0
 10
179.8115831114
 20
140.9759289644
 30
0.0
 10
179.8115831114
 20
140.9198178848
 30
0.0
  0
SPLINE
  5
6A8
100
AcDbEntity
  8
_30_VOLUMEN
100
AcDbSpline
 62
7
  6
CONTINUOUS
 70
0
 71
3
 72
9
 73
5
 74
0
 42
0.0000001
 43
0.0000001
 44
0.0000000001
 40
0.0
 40
0.0
 40
0.0
 40
0.0
 40
0.2770013233
 40
1.0
 40
1.0
 40
1.0
 40
1.0
 10
179.8115831114
 20
140.9198178848
 30
0.0
 10
179.8115831114
 20
140.8998809764
 30
0.0
 10
179.8120876417
 20
140.8279194268
 30
0.0
 10
179.8144351194
 20
140.7558868933
 30
0.0
 10
179.8190841617
 20
140.7040578379
 30
0.0
  0
SPLINE
  5
6A9
100
AcDbEntity
  8
_30_VOLUMEN
100
AcDbSpline
 62
7
  6
CONTINUOUS
 70
0
 71
3
 72
8
 73
4
 74
0
 42
0.0000001
 43
0.0000001
 44
0.0000000001
 40
0.0
 40
0.0
 40
0.0
 40
0.0
 40
1.0
 40
1.0
 40
1.0
 40
1.0
 10
179.8011713818
 20
139.7269378694
 30
0.0
 10
179.8028219569
 20
139.7269378694
 30
0.0
 10
179.8044037319
 20
139.725719405
 30
0.0
 10
179.8054472356
 20
139.724440539
 30
0.0
  0
SPLINE
  5
6AA
100
AcDbEntity
  8
_30_VOLUMEN
100
AcDbSpline
 62
7
  6
CONTINUOUS
 70
0
 71
3
 72
9
 73
5
 74
0
 42
0.0000001
 43
0.0000001
 44
0.0000000001
 40
0.0
 40
0.0
 40
0.0
 40
0.0
 40
0.3153198175
 40
1.0
 40
1.0
 40
1.0
 40
1.0
 10
179.8054472356
 20
139.724440539
 30
0.0
 10
179.8079019725
 20
139.721432136
 30
0.0
 10
179.8120853071
 20
139.709428104
 30
0.0
 10
179.8139730102
 20
139.6973699962
 30
0.0
 10
179.8150017202
 20
139.6890019192
 30
0.0
  0
SPLINE
  5
6AB
100
AcDbEntity
  8
_30_VOLUMEN
100
AcDbSpline
 62
7
  6
CONTINUOUS
 70
0
 71
3
 72
9
 73
5
 74
0
 42
0.0000001
 43
0.0000001
 44
0.0000000001
 40
0.0
 40
0.0
 40
0.0
 40
0.0
 40
0.2191636266
 40
1.0
 40
1.0
 40
1.0
 40
1.0
 10
179.8162825133
 20
139.6767009988
 30
0.0
 10
179.8165830923
 20
139.6732721132
 30
0.0
 10
179.8176772691
 20
139.6576030225
 30
0.0
 10
179.8182287962
 20
139.6419036245
 30
0.0
 10
179.8186094877
 20
139.6296462499
 30
0.0
  0
SPLINE
  5
6AC
100
AcDbEntity
  8
_30_VOLUMEN
100
AcDbSpline
 62
7
  6
CONTINUOUS
 70
0
 71
3
 72
9
 73
5
 74
0
 42
0.0000001
 43
0.0000001
 44
0.0000000001
 40
0.0
 40
0.0
 40
0.0
 40
0.0
 40
0.2445629805
 40
1.0
 40
1.0
 40
1.0
 40
1.0
 10
179.8186094877
 20
139.6296462499
 30
0.0
 10
179.8192231398
 20
139.6098880875
 30
0.0
 10
179.8207790149
 20
139.5290706952
 30
0.0
 10
179.8210136845
 20
139.4482388189
 30
0.0
 10
179.8210136845
 20
139.387177883
 30
0.0
  0
SPLINE
  5
6AD
100
AcDbEntity
  8
_30_VOLUMEN
100
AcDbSpline
 62
7
  6
CONTINUOUS
 70
0
 71
3
 72
9
 73
5
 74
0
 42
0.0000001
 43
0.0000001
 44
0.0000000001
 40
0.0
 40
0.0
 40
0.0
 40
0.0
 40
0.253875198
 40
1.0
 40
1.0
 40
1.0
 40
1.0
 10
179.8210136845
 20
138.0876578917
 30
0.0
 10
179.8210136845
 20
138.0731754487
 30
0.0
 10
179.8208664531
 20
138.0161322713
 30
0.0
 10
179.820436133
 20
137.9590721734
 30
0.0
 10
179.8188711064
 20
137.9165378775
 30
0.0
  0
SPLINE
  5
6AE
100
AcDbEntity
  8
_30_VOLUMEN
100
AcDbSpline
 62
7
  6
CONTINUOUS
 70
0
 71
3
 72
9
 73
5
 74
0
 42
0.0000001
 43
0.0000001
 44
0.0000000001
 40
0.0
 40
0.0
 40
0.0
 40
0.0
 40
0.6726881368
 40
1.0
 40
1.0
 40
1.0
 40
1.0
 10
179.8188711064
 20
137.9165378775
 30
0.0
 10
179.8183405094
 20
137.9021173124
 30
0.0
 10
179.817048851
 20
137.880736838
 30
0.0
 10
179.8133354968
 20
137.8594122623
 30
0.0
 10
179.8109223318
 20
137.852818571
 30
0.0
  0
LINE
  5
6AF
100
AcDbEntity
  8
_30_VOLUMEN
100
AcDbLine
 62
7
  6
CONTINUOUS
 10
179.8109223318
 20
137.852818571
 11
179.8095610893
 21
137.8495778804
  0
SPLINE
  5
6B0
100
AcDbEntity
  8
_30_VOLUMEN
100
AcDbSpline
 62
7
  6
CONTINUOUS
 70
0
 71
3
 72
9
 73
5
 74
0
 42
0.0000001
 43
0.0000001
 44
0.0000000001
 40
0.0
 40
0.0
 40
0.0
 40
0.0
 40
0.2583210655
 40
1.0
 40
1.0
 40
1.0
 40
1.0
 10
179.790986481
 20
137.8371778784
 30
0.0
 10
179.7900024765
 20
137.8361014651
 30
0.0
 10
179.7890015553
 20
137.8301308396
 30
0.0
 10
179.788557107
 20
137.8247310616
 30
0.0
 10
179.7883253582
 20
137.8205501926
 30
0.0
  0
SPLINE
  5
6B1
100
AcDbEntity
  8
_30_VOLUMEN
100
AcDbSpline
 62
7
  6
CONTINUOUS
 70
0
 71
3
 72
9
 73
5
 74
0
 42
0.0000001
 43
0.0000001
 44
0.0000000001
 40
0.0
 40
0.0
 40
0.0
 40
0.0
 40
0.223637307
 40
1.0
 40
1.0
 40
1.0
 40
1.0
 10
179.7883253582
 20
137.8205501926
 30
0.0
 10
179.788199518
 20
137.8182799692
 30
0.0
 10
179.7877690024
 20
137.8081211737
 30
0.0
 10
179.7877212333
 20
137.7979511222
 30
0.0
 10
179.7877212333
 20
137.7900578845
 30
0.0
  0
SPLINE
  5
6B2
100
AcDbEntity
  8
_30_VOLUMEN
100
AcDbSpline
 62
7
  6
CONTINUOUS
 70
0
 71
3
 72
11
 73
7
 74
0
 42
0.0000001
 43
0.0000001
 44
0.0000000001
 40
0.0
 40
0.0
 40
0.0
 40
0.0
 40
0.435284206
 40
0.7800367787
 40
0.955827379
 40
1.0
 40
1.0
 40
1.0
 40
1.0
 10
179.7877212333
 20
137.6610978842
 30
0.0
 10
179.7877212333
 20
137.6548883671
 30
0.0
 10
179.7875453449
 20
137.6438672138
 30
0.0
 10
179.7887951849
 20
137.629898271
 30
0.0
 10
179.7886647597
 20
137.622404606
 30
0.0
 10
179.790530866
 20
137.6189378842
 30
0.0
 10
179.7911610075
 20
137.6189378842
 30
0.0
  0
SPLINE
  5
6B3
100
AcDbEntity
  8
_30_VOLUMEN
100
AcDbSpline
 62
7
  6
CONTINUOUS
 70
0
 71
3
 72
9
 73
5
 74
0
 42
0.0000001
 43
0.0000001
 44
0.0000000001
 40
0.0
 40
0.0
 40
0.0
 40
0.0
 40
0.3396210603
 40
1.0
 40
1.0
 40
1.0
 40
1.0
 10
179.7934541451
 20
139.9451777943
 30
0.0
 10
179.7922059299
 20
139.9432470427
 30
0.0
 10
179.7908726768
 20
139.9363761724
 30
0.0
 10
179.7898903201
 20
139.9297844042
 30
0.0
 10
179.7894277685
 20
139.9253379019
 30
0.0
  0
SPLINE
  5
6B4
100
AcDbEntity
  8
_30_VOLUMEN
100
AcDbSpline
 62
7
  6
CONTINUOUS
 70
0
 71
3
 72
11
 73
7
 74
0
 42
0.0000001
 43
0.0000001
 44
0.0000000001
 40
0.0
 40
0.0
 40
0.0
 40
0.0
 40
0.4308534594
 40
0.7609808003
 40
0.9374749637
 40
1.0
 40
1.0
 40
1.0
 40
1.0
 10
179.7877212333
 20
139.7765378221
 30
0.0
 10
179.7877212333
 20
139.7693379749
 30
0.0
 10
179.787780177
 20
139.7566739669
 30
0.0
 10
179.7886295633
 20
139.7408508243
 30
0.0
 10
179.7896123792
 20
139.7316674779
 30
0.0
 10
179.7910080908
 20
139.727540276
 30
0.0
 10
179.7918617806
 20
139.7269378694
 30
0.0
  0
SPLINE
  5
6B5
100
AcDbEntity
  8
_30_VOLUMEN
100
AcDbSpline
 62
7
  6
CONTINUOUS
 70
0
 71
3
 72
11
 73
7
 74
0
 42
0.0000001
 43
0.0000001
 44
0.0000000001
 40
0.0
 40
0.0
 40
0.0
 40
0.0
 40
0.3383392941
 40
0.6165852615
 40
0.8351989334
 40
1.0
 40
1.0
 40
1.0
 40
1.0
 10
179.8916375224
 20
141.7620839651
 30
0.0
 10
179.9020267856
 20
141.7007950453
 30
0.0
 10
179.9238202836
 20
141.5895525983
 30
0.0
 10
179.9659544326
 20
141.4416272393
 30
0.0
 10
180.0142094596
 20
141.3297652923
 30
0.0
 10
180.0567831605
 20
141.2717406901
 30
0.0
 10
180.0798402292
 20
141.2521144794
 30
0.0
  0
SPLINE
  5
6B6
100
AcDbEntity
  8
_30_VOLUMEN
100
AcDbSpline
 62
7
  6
CONTINUOUS
 70
0
 71
3
 72
9
 73
5
 74
0
 42
0.0000001
 43
0.0000001
 44
0.0000000001
 40
0.0
 40
0.0
 40
0.0
 40
0.0
 40
0.2304603921
 40
1.0
 40
1.0
 40
1.0
 40
1.0
 10
180.000163456
 20
141.3374572441
 30
0.0
 10
179.9963450186
 20
141.3458060081
 30
0.0
 10
179.9805087796
 20
141.3823676017
 30
0.0
 10
179.9673324684
 20
141.4200414123
 30
0.0
 10
179.9581963532
 20
141.4493034596
 30
0.0
  0
SPLINE
  5
6B7
100
AcDbEntity
  8
_30_VOLUMEN
100
AcDbSpline
 62
7
  6
CONTINUOUS
 70
0
 71
3
 72
9
 73
5
 74
0
 42
0.0000001
 43
0.0000001
 44
0.0000000001
 40
0.0
 40
0.0
 40
0.0
 40
0.0
 40
0.2368104438
 40
1.0
 40
1.0
 40
1.0
 40
1.0
 10
179.9581963532
 20
141.4493034596
 30
0.0
 10
179.9555448453
 20
141.4577959697
 30
0.0
 10
179.9447141976
 20
141.493772188
 30
0.0
 10
179.9352462256
 20
141.5301511882
 30
0.0
 10
179.928597672
 20
141.5580422291
 30
0.0
  0
SPLINE
  5
6B8
100
AcDbEntity
  8
_30_VOLUMEN
100
AcDbSpline
 62
7
  6
CONTINUOUS
 70
0
 71
3
 72
13
 73
9
 74
0
 42
0.0000001
 43
0.0000001
 44
0.0000000001
 40
0.0
 40
0.0
 40
0.0
 40
0.0
 40
0.3726039687
 40
0.655583894
 40
0.7647703551
 40
0.8550527682
 40
0.930952653
 40
1.0
 40
1.0
 40
1.0
 40
1.0
 10
179.9230869916
 20
136.1821935756
 30
0.0
 10
179.935592471
 20
136.1148979778
 30
0.0
 10
179.9615607172
 20
135.9972534679
 30
0.0
 10
180.008234667
 20
135.863728845
 30
0.0
 10
180.0532724922
 20
135.7870204335
 30
0.0
 10
180.0867551109
 20
135.7485538961
 30
0.0
 10
180.1234500803
 20
135.7243561508
 30
0.0
 10
180.1503360278
 20
135.7188448545
 30
0.0
 10
180.1630200862
 20
135.7188447469
 30
0.0
  0
SPLINE
  5
6B9
100
AcDbEntity
  8
_30_VOLUMEN
100
AcDbSpline
 62
7
  6
CONTINUOUS
 70
0
 71
3
 72
8
 73
4
 74
0
 42
0.0000001
 43
0.0000001
 44
0.0000000001
 40
0.0
 40
0.0
 40
0.0
 40
0.0
 40
1.0
 40
1.0
 40
1.0
 40
1.0
 10
179.7771757688
 20
142.6045171067
 30
0.0
 10
179.7788308404
 20
142.6054159498
 30
0.0
 10
179.7807561079
 20
142.6059565857
 30
0.0
 10
179.7826395041
 20
142.6059566294
 30
0.0
  0
SPLINE
  5
6BA
100
AcDbEntity
  8
_30_VOLUMEN
100
AcDbSpline
 62
7
  6
CONTINUOUS
 70
0
 71
3
 72
11
 73
7
 74
0
 42
0.0000001
 43
0.0000001
 44
0.0000000001
 40
0.0
 40
0.0
 40
0.0
 40
0.0
 40
0.0856481715
 40
0.2771044023
 40
0.586342723
 40
1.0
 40
1.0
 40
1.0
 40
1.0
 10
179.8381740476
 20
140.6197379049
 30
0.0
 10
179.840700772
 20
140.6197379049
 30
0.0
 10
179.8462054523
 20
140.6282059517
 30
0.0
 10
179.8501416392
 20
140.6437854947
 30
0.0
 10
179.8554200911
 20
140.6709401058
 30
0.0
 10
179.8578840326
 20
140.6919262006
 30
0.0
 10
179.8592054234
 20
140.7040578379
 30
0.0
  0
SPLINE
  5
6BB
100
AcDbEntity
  8
_30_VOLUMEN
100
AcDbSpline
 62
7
  6
CONTINUOUS
 70
0
 71
3
 72
9
 73
5
 74
0
 42
0.0000001
 43
0.0000001
 44
0.0000000001
 40
0.0
 40
0.0
 40
0.0
 40
0.0
 40
0.2114180362
 40
1.0
 40
1.0
 40
1.0
 40
1.0
 10
179.8592054234
 20
140.7040578379
 30
0.0
 10
179.8608539115
 20
140.7191925434
 30
0.0
 10
179.8671655721
 20
140.7909411928
 30
0.0
 10
179.8686993774
 20
140.8630320768
 30
0.0
 10
179.8686993774
 20
140.9198178848
 30
0.0
  0
SPLINE
  5
6BC
100
AcDbEntity
  8
_30_VOLUMEN
100
AcDbSpline
 62
7
  6
CONTINUOUS
 70
0
 71
3
 72
9
 73
5
 74
0
 42
0.0000001
 43
0.0000001
 44
0.0000000001
 40
0.0
 40
0.0
 40
0.0
 40
0.0
 40
0.2773148434
 40
1.0
 40
1.0
 40
1.0
 40
1.0
 10
179.8686993774
 20
140.9198178848
 30
0.0
 10
179.8686993774
 20
140.9395572445
 30
0.0
 10
179.8680291364
 20
141.010722751
 30
0.0
 10
179.8647754837
 20
141.0819593817
 30
0.0
 10
179.8592054234
 20
141.1330978897
 30
0.0
  0
SPLINE
  5
6BD
100
AcDbEntity
  8
_30_VOLUMEN
100
AcDbSpline
 62
7
  6
CONTINUOUS
 70
0
 71
3
 72
11
 73
7
 74
0
 42
0.0000001
 43
0.0000001
 44
0.0000000001
 40
0.0
 40
0.0
 40
0.0
 40
0.0
 40
0.4072153469
 40
0.7171904618
 40
0.9131410051
 40
1.0
 40
1.0
 40
1.0
 40
1.0
 10
179.8592054234
 20
141.1330978897
 30
0.0
 10
179.8578708862
 20
141.1453502237
 30
0.0
 10
179.8553595578
 20
141.1666718865
 30
0.0
 10
179.8501313558
 20
141.1946464183
 30
0.0
 10
179.8461741098
 20
141.2105968436
 30
0.0
 10
179.8408029262
 20
141.2198978647
 30
0.0
 10
179.8381740476
 20
141.2198978647
 30
0.0
  0
SPLINE
  5
6BE
100
AcDbEntity
  8
_30_VOLUMEN
100
AcDbSpline
 62
7
  6
CONTINUOUS
 70
0
 71
3
 72
14
 73
10
 74
0
 42
0.0000001
 43
0.0000001
 44
0.0000000001
 40
0.0
 40
0.0
 40
0.0
 40
0.0
 40
0.4125752207
 40
0.5806029787
 40
0.721243479
 40
0.8335057902
 40
0.9167725648
 40
0.9712195409
 40
1.0
 40
1.0
 40
1.0
 40
1.0
 10
179.7338385348
 20
141.5656895853
 30
0.0
 10
179.7338387298
 20
141.6463489143
 30
0.0
 10
179.7343998353
 20
141.7598875046
 30
0.0
 10
179.7383196511
 20
141.9008031025
 30
0.0
 10
179.7425702889
 20
141.9830882454
 30
0.0
 10
179.7480781186
 20
142.0483489112
 30
0.0
 10
179.7556340884
 20
142.097310007
 30
0.0
 10
179.7632211834
 20
142.1277345505
 30
0.0
 10
179.7728481439
 20
142.1436962482
 30
0.0
 10
179.7782656721
 20
142.1452159433
 30
0.0
  0
SPLINE
  5
6BF
100
AcDbEntity
  8
_30_VOLUMEN
100
AcDbSpline
 62
7
  6
CONTINUOUS
 70
0
 71
3
 72
11
 73
7
 74
0
 42
0.0000001
 43
0.0000001
 44
0.0000000001
 40
0.0
 40
0.0
 40
0.0
 40
0.0
 40
0.3974724785
 40
0.7312431186
 40
0.9301283126
 40
1.0
 40
1.0
 40
1.0
 40
1.0
 10
179.9145080738
 20
137.7900578845
 30
0.0
 10
179.9145080738
 20
137.7964677932
 30
0.0
 10
179.9144935138
 20
137.8081566762
 30
0.0
 10
179.9129640151
 20
137.8234947036
 30
0.0
 10
179.9121550697
 20
137.8324440689
 30
0.0
 10
179.9094626519
 20
137.8371778784
 30
0.0
 10
179.908335854
 20
137.8371778784
 30
0.0
  0
SPLINE
  5
6C0
100
AcDbEntity
  8
_30_VOLUMEN
100
AcDbSpline
 62
7
  6
CONTINUOUS
 70
0
 71
3
 72
9
 73
5
 74
0
 42
0.0000001
 43
0.0000001
 44
0.0000000001
 40
0.0
 40
0.0
 40
0.0
 40
0.0
 40
0.2365934258
 40
1.0
 40
1.0
 40
1.0
 40
1.0
 10
179.9034761757
 20
137.8371778784
 30
0.0
 10
179.9015985899
 20
137.8371778784
 30
0.0
 10
179.8936618266
 20
137.8376809918
 30
0.0
 10
179.886024473
 20
137.8415948257
 30
0.0
 10
179.8816059255
 20
137.8457396796
 30
0.0
  0
SPLINE
  5
6C1
100
AcDbEntity
  8
_30_VOLUMEN
100
AcDbSpline
 62
7
  6
CONTINUOUS
 70
0
 71
3
 72
9
 73
5
 74
0
 42
0.0000001
 43
0.0000001
 44
0.0000000001
 40
0.0
 40
0.0
 40
0.0
 40
0.0
 40
0.1554587912
 40
1.0
 40
1.0
 40
1.0
 40
1.0
 10
179.8816059255
 20
137.8457396796
 30
0.0
 10
179.8804100242
 20
137.8468615045
 30
0.0
 10
179.8736026062
 20
137.8550309857
 30
0.0
 10
179.8709538306
 20
137.8658454599
 30
0.0
 10
179.8693246619
 20
137.8746030937
 30
0.0
  0
SPLINE
  5
6C2
100
AcDbEntity
  8
_30_VOLUMEN
100
AcDbSpline
 62
7
  6
CONTINUOUS
 70
0
 71
3
 72
9
 73
5
 74
0
 42
0.0000001
 43
0.0000001
 44
0.0000000001
 40
0.0
 40
0.0
 40
0.0
 40
0.0
 40
0.4683740896
 40
1.0
 40
1.0
 40
1.0
 40
1.0
 10
179.8681627684
 20
137.8818178536
 30
0.0
 10
179.8669868084
 20
137.8902805328
 30
0.0
 10
179.8664770534
 20
137.908568536
 30
0.0
 10
179.8659056027
 20
137.926782609
 30
0.0
 10
179.8657154733
 20
137.9364785663
 30
0.0
  0
SPLINE
  5
6C3
100
AcDbEntity
  8
_30_VOLUMEN
100
AcDbSpline
 62
7
  6
CONTINUOUS
 70
0
 71
3
 72
8
 73
4
 74
0
 42
0.0000001
 43
0.0000001
 44
0.0000000001
 40
0.0
 40
0.0
 40
0.0
 40
0.0
 40
1.0
 40
1.0
 40
1.0
 40
1.0
 10
179.8657154733
 20
137.9364785663
 30
0.0
 10
179.8647112687
 20
137.9876896081
 30
0.0
 10
179.8647011021
 20
138.0389169916
 30
0.0
 10
179.8647011021
 20
138.0901378783
 30
0.0
  0
SPLINE
  5
6C4
100
AcDbEntity
  8
_30_VOLUMEN
100
AcDbSpline
 62
7
  6
CONTINUOUS
 70
0
 71
3
 72
13
 73
9
 74
0
 42
0.0000001
 43
0.0000001
 44
0.0000000001
 40
0.0
 40
0.0
 40
0.0
 40
0.0
 40
0.0706025538
 40
0.1476268014
 40
0.2384791277
 40
0.347728941
 40
0.6296319369
 40
1.0
 40
1.0
 40
1.0
 40
1.0
 10
180.8766382292
 20
141.6688447469
 30
0.0
 10
180.8635649232
 20
141.6688448543
 30
0.0
 10
180.8359697722
 20
141.6742925434
 30
0.0
 10
180.7980894349
 20
141.6983947992
 30
0.0
 10
180.7634752065
 20
141.7368534952
 30
0.0
 10
180.7170125327
 20
141.8134555397
 30
0.0
 10
180.6687671883
 20
141.9470257028
 30
0.0
 10
180.6419387075
 20
142.064842227
 30
0.0
 10
180.6290263246
 20
142.1321958448
 30
0.0
  0
SPLINE
  5
6C5
100
AcDbEntity
  8
_30_VOLUMEN
100
AcDbSpline
 62
7
  6
CONTINUOUS
 70
0
 71
3
 72
12
 73
8
 74
0
 42
0.0000001
 43
0.0000001
 44
0.0000000001
 40
0.0
 40
0.0
 40
0.0
 40
0.0
 40
0.4126340471
 40
0.7188647725
 40
0.9128448386
 40
0.9680836488
 40
1.0
 40
1.0
 40
1.0
 40
1.0
 10
180.6290263246
 20
142.1321958448
 30
0.0
 10
180.616258627
 20
142.198794755
 30
0.0
 10
180.5920454893
 20
142.3146687663
 30
0.0
 10
180.5540738982
 20
142.4592479136
 30
0.0
 10
180.523035673
 20
142.5464760165
 30
0.0
 10
180.500094997
 20
142.5857506818
 30
0.0
 10
180.4873297631
 20
142.5955471751
 30
0.0
 10
180.4820846734
 20
142.5955469369
 30
0.0
  0
SPLINE
  5
6C6
100
AcDbEntity
  8
_30_VOLUMEN
100
AcDbSpline
 62
7
  6
CONTINUOUS
 70
0
 71
3
 72
9
 73
5
 74
0
 42
0.0000001
 43
0.0000001
 44
0.0000000001
 40
0.0
 40
0.0
 40
0.0
 40
0.0
 40
0.2165292976
 40
1.0
 40
1.0
 40
1.0
 40
1.0
 10
180.0798402292
 20
136.0871983415
 30
0.0
 10
180.0746278501
 20
136.0931888745
 30
0.0
 10
180.0521409211
 20
136.1222391576
 30
0.0
 10
180.0352896065
 20
136.1552482716
 30
0.0
 10
180.0237977658
 20
136.1815820985
 30
0.0
  0
LINE
  5
6C7
100
AcDbEntity
  8
_30_VOLUMEN
100
AcDbLine
 62
7
  6
CONTINUOUS
 10
180.0237977658
 20
136.1815820985
 11
180.0211194954
 21
136.1985655063
  0
SPLINE
  5
6C8
100
AcDbEntity
  8
_30_VOLUMEN
100
AcDbSpline
 62
7
  6
CONTINUOUS
 70
0
 71
3
 72
13
 73
9
 74
0
 42
0.0000001
 43
0.0000001
 44
0.0000000001
 40
0.0
 40
0.0
 40
0.0
 40
0.0
 40
0.4128702735
 40
0.7199353185
 40
0.8315177265
 40
0.9145122707
 40
0.9693680231
 40
1.0
 40
1.0
 40
1.0
 40
1.0
 10
179.9671927073
 20
136.5053683853
 30
0.0
 10
179.9506287452
 20
136.5902960421
 30
0.0
 10
179.9192495645
 20
136.7378484163
 30
0.0
 10
179.8745969072
 20
136.9066401509
 30
0.0
 10
179.8407769248
 20
137.0059892895
 30
0.0
 10
179.8195846727
 20
137.0543595235
 30
0.0
 10
179.8026275982
 20
137.0843313877
 30
0.0
 10
179.7870458454
 20
137.0973450821
 30
0.0
 10
179.7806261062
 20
137.097347117
 30
0.0
  0
SPLINE
  5
6C9
100
AcDbEntity
  8
_30_VOLUMEN
100
AcDbSpline
 62
7
  6
CONTINUOUS
 70
0
 71
3
 72
13
 73
9
 74
0
 42
0.0000001
 43
0.0000001
 44
0.0000000001
 40
0.0
 40
0.0
 40
0.0
 40
0.0
 40
0.3979226966
 40
0.6991670342
 40
0.8119597194
 40
0.899199866
 40
0.9612225623
 40
1.0
 40
1.0
 40
1.0
 40
1.0
 10
179.7338385357
 20
136.1903882272
 30
0.0
 10
179.7338387545
 20
136.2510447865
 30
0.0
 10
179.7346979029
 20
136.3575978222
 30
0.0
 10
179.7396218352
 20
136.4813924197
 30
0.0
 10
179.7471611626
 20
136.5573878085
 30
0.0
 10
179.753581979
 20
136.5969894057
 30
0.0
 10
179.7610489382
 20
136.6244352167
 30
0.0
 10
179.7684164536
 20
136.6387232185
 30
0.0
 10
179.7729625195
 20
136.6425011487
 30
0.0
  0
SPLINE
  5
6CA
100
AcDbEntity
  8
_30_VOLUMEN
100
AcDbSpline
 62
7
  6
CONTINUOUS
 70
0
 71
3
 72
8
 73
4
 74
0
 42
0.0000001
 43
0.0000001
 44
0.0000000001
 40
0.0
 40
0.0
 40
0.0
 40
0.0
 40
1.0
 40
1.0
 40
1.0
 40
1.0
 10
179.7729625195
 20
136.6425011487
 30
0.0
 10
179.7750761539
 20
136.6442576484
 30
0.0
 10
179.7778775527
 20
136.6455421886
 30
0.0
 10
179.7806257778
 20
136.645542389
 30
0.0
  0
SPLINE
  5
6CB
100
AcDbEntity
  8
_30_VOLUMEN
100
AcDbSpline
 62
7
  6
CONTINUOUS
 70
0
 71
3
 72
9
 73
5
 74
0
 42
0.0000001
 43
0.0000001
 44
0.0000000001
 40
0.0
 40
0.0
 40
0.0
 40
0.0
 40
0.4571821769
 40
1.0
 40
1.0
 40
1.0
 40
1.0
 10
180.1630220071
 20
141.6688447469
 30
0.0
 10
180.1458487206
 20
141.6688448926
 30
0.0
 10
180.1079166252
 20
141.6798685509
 30
0.0
 10
180.0799992079
 20
141.7064726991
 30
0.0
 10
180.0669267686
 20
141.7221208728
 30
0.0
  0
SPLINE
  5
6CC
100
AcDbEntity
  8
_30_VOLUMEN
100
AcDbSpline
 62
7
  6
CONTINUOUS
 70
0
 71
3
 72
10
 73
6
 74
0
 42
0.0000001
 43
0.0000001
 44
0.0000000001
 40
0.0
 40
0.0
 40
0.0
 40
0.0
 40
0.1774579475
 40
0.4020669722
 40
1.0
 40
1.0
 40
1.0
 40
1.0
 10
180.0669267686
 20
141.7221208728
 30
0.0
 10
180.0503186684
 20
141.7420013579
 30
0.0
 10
180.0196385284
 20
141.7927254328
 30
0.0
 10
179.965243471
 20
141.9284378313
 30
0.0
 10
179.9390348665
 20
142.0463801765
 30
0.0
 10
179.9230878355
 20
142.1321958448
 30
0.0
  0
SPLINE
  5
6CD
100
AcDbEntity
  8
_30_VOLUMEN
100
AcDbSpline
 62
7
  6
CONTINUOUS
 70
0
 71
3
 72
12
 73
8
 74
0
 42
0.0000001
 43
0.0000001
 44
0.0000000001
 40
0.0
 40
0.0
 40
0.0
 40
0.0
 40
0.4128228876
 40
0.7181436583
 40
0.9115744111
 40
0.9670959359
 40
1.0
 40
1.0
 40
1.0
 40
1.0
 10
179.9092177556
 20
142.2042424269
 30
0.0
 10
179.897954981
 20
142.2606668982
 30
0.0
 10
179.876754193
 20
142.3586784153
 30
0.0
 10
179.8436000649
 20
142.4809186857
 30
0.0
 10
179.8166321144
 20
142.55439471
 30
0.0
 10
179.7963845426
 20
142.5875306918
 30
0.0
 10
179.7852120203
 20
142.5955472596
 30
0.0
 10
179.7806259867
 20
142.5955469277
 30
0.0
  0
ELLIPSE
  5
6CE
100
AcDbEntity
  8
_30_VOLUMEN
100
AcDbEllipse
 62
7
  6
CONTINUOUS
 10
92.6717656493
 20
148.027631713
 30
0.0
 11
15.25
 21
0.0
 31
0.0
 40
0.1051042353
 41
-2.1590400674
 42
-0.9825525862
  0
ELLIPSE
  5
6CF
100
AcDbEntity
  8
_30_VOLUMEN
100
AcDbEllipse
 62
7
  6
CONTINUOUS
 10
92.6717656493
 20
148.0880422291
 30
0.0
 11
15.25
 21
0.0
 31
0.0
 40
0.109131603
 41
-0.936594676
 42
-0.3149248074
  0
ELLIPSE
  5
6D0
100
AcDbEntity
  8
_30_VOLUMEN
100
AcDbEllipse
 62
7
  6
CONTINUOUS
 10
92.6717656493
 20
148.0880422291
 30
0.0
 11
15.25
 21
-0.0
 31
0.0
 40
0.109131603
 41
-2.8266678462
 42
-2.2049979776
  0
ELLIPSE
  5
6D1
100
AcDbEntity
  8
_30_VOLUMEN
100
AcDbEllipse
 62
7
  6
CONTINUOUS
 10
202.9338385254
 20
137.7614409069
 30
0.0
 11
23.2
 21
-0.0
 31
0.0
 40
0.0470588328
 41
9.3439611225
 42
9.3530738459
  0
ELLIPSE
  5
6D2
100
AcDbEntity
  8
_30_VOLUMEN
100
AcDbEllipse
 62
7
  6
CONTINUOUS
 10
202.9338385254
 20
139.8232896192
 30
0.0
 11
23.2
 21
-0.0
 31
0.0
 40
0.0733333842
 41
3.0376941744
 42
3.0698885387
  0
ELLIPSE
  5
6D3
100
AcDbEntity
  8
_30_VOLUMEN
100
AcDbEllipse
 62
7
  6
CONTINUOUS
 10
202.9338385254
 20
140.6957016342
 30
0.0
 11
0.0
 21
27.8005078582
 31
0.0
 40
0.8345171289
 41
-1.7140661358
 42
-1.6125649363
  0
ELLIPSE
  5
6D4
100
AcDbEntity
  8
_30_VOLUMEN
100
AcDbEllipse
 62
7
  6
CONTINUOUS
 10
202.9338385254
 20
141.5135757419
 30
0.0
 11
0.0
 21
47.3872735856
 31
0.0
 40
0.4895829248
 41
-1.6125649363
 42
-1.6044772711
  0
ELLIPSE
  5
6D5
100
AcDbEntity
  8
_30_VOLUMEN
100
AcDbEllipse
 62
7
  6
CONTINUOUS
 10
202.9338385254
 20
144.1731408635
 30
0.0
 11
0.0
 21
126.3657013594
 31
0.0
 40
0.1835941221
 41
-1.6044772711
 42
-1.6004342863
  0
ELLIPSE
  5
6D6
100
AcDbEntity
  8
_30_VOLUMEN
100
AcDbEllipse
 62
7
  6
CONTINUOUS
 10
202.9338385254
 20
136.9391138151
 30
0.0
 11
-0.0
 21
126.3657013594
 31
0.0
 40
0.1835941221
 41
-1.5411583673
 42
-1.5371153825
  0
ELLIPSE
  5
6D7
100
AcDbEntity
  8
_30_VOLUMEN
100
AcDbEllipse
 62
7
  6
CONTINUOUS
 10
202.9338385254
 20
140.1305943959
 30
0.0
 11
0.0
 21
31.5915157237
 31
0.0
 40
0.7343743872
 41
4.7460699247
 42
4.7622479898
  0
ELLIPSE
  5
6D8
100
AcDbEntity
  8
_30_VOLUMEN
100
AcDbEllipse
 62
7
  6
CONTINUOUS
 10
202.9338385254
 20
140.9178300997
 30
0.0
 11
23.2
 21
0.0
 31
0.0
 40
0.680850658
 41
0.0498590094
 42
0.0660501701
  0
ELLIPSE
  5
6D9
100
AcDbEntity
  8
_30_VOLUMEN
100
AcDbEllipse
 62
7
  6
CONTINUOUS
 10
202.9338385254
 20
141.6128649807
 30
0.0
 11
23.2
 21
-0.0
 31
0.0
 40
0.2269503276
 41
0.0660501701
 42
0.0903708026
  0
ELLIPSE
  5
6DA
100
AcDbEntity
  8
_30_VOLUMEN
100
AcDbEllipse
 62
7
  6
CONTINUOUS
 10
202.9338385254
 20
147.8327292131
 30
0.0
 11
-0.0
 21
47.3872735856
 31
0.0
 40
0.4895829248
 41
4.5609487158
 42
4.5691191713
  0
ELLIPSE
  5
6DB
100
AcDbEntity
  8
_30_VOLUMEN
100
AcDbEllipse
 62
7
  6
CONTINUOUS
 10
202.9338385254
 20
144.0738577575
 30
0.0
 11
23.2
 21
-0.0
 31
0.0
 40
0.9078013102
 41
-0.143269809
 42
-0.1310319698
  0
ELLIPSE
  5
6DC
100
AcDbEntity
  8
_30_VOLUMEN
100
AcDbEllipse
 62
7
  6
CONTINUOUS
 10
202.9338385254
 20
142.1476161089
 30
0.0
 11
23.2
 21
-0.0
 31
0.0
 40
0.2723401853
 41
-0.1310319698
 42
-0.1106784032
  0
ELLIPSE
  5
6DD
100
AcDbEntity
  8
_30_VOLUMEN
100
AcDbEllipse
 62
7
  6
CONTINUOUS
 10
202.9338385254
 20
152.8823719121
 30
0.0
 11
0.0
 21
36.8567479451
 31
0.0
 40
0.6294641088
 41
-1.9228514261
 42
-1.8971400701
  0
ELLIPSE
  5
6DE
100
AcDbEntity
  8
_30_VOLUMEN
100
AcDbEllipse
 62
7
  6
CONTINUOUS
 10
202.9338385254
 20
142.5682856294
 30
0.0
 11
23.2
 21
-0.0
 31
0.0
 40
0.1945289582
 41
-0.1351089492
 42
-0.1066135002
  0
ELLIPSE
  5
6DF
100
AcDbEntity
  8
_30_VOLUMEN
100
AcDbEllipse
 62
7
  6
CONTINUOUS
 10
202.9338385254
 20
144.0880408544
 30
0.0
 11
23.2
 21
-0.0
 31
0.0
 40
0.680850658
 41
-0.1514402646
 42
-0.1351089492
  0
ELLIPSE
  5
6E0
100
AcDbEntity
  8
_30_VOLUMEN
100
AcDbEllipse
 62
7
  6
CONTINUOUS
 10
202.9338385254
 20
146.4710215663
 30
0.0
 11
0.0
 21
31.5914931277
 31
0.0
 40
0.7343749125
 41
-1.738608704
 42
-1.7222365914
  0
ELLIPSE
  5
6E1
100
AcDbEntity
  8
_30_VOLUMEN
100
AcDbEllipse
 62
7
  6
CONTINUOUS
 10
202.9338385254
 20
162.3007650328
 30
0.0
 11
0.0
 21
126.3657013594
 31
0.0
 40
0.1835941221
 41
-1.7427086693
 42
-1.738608704
  0
ELLIPSE
  5
6E2
100
AcDbEntity
  8
_30_VOLUMEN
100
AcDbEllipse
 62
7
  6
CONTINUOUS
 10
202.9338385254
 20
140.8540002288
 30
0.0
 11
23.2
 21
-0.0
 31
0.0
 40
0.2723401853
 41
0.0741519796
 42
0.0944290732
  0
ELLIPSE
  5
6E3
100
AcDbEntity
  8
_30_VOLUMEN
100
AcDbEllipse
 62
7
  6
CONTINUOUS
 10
202.9338385254
 20
139.761801534
 30
0.0
 11
23.2
 21
0.0
 31
0.0
 40
0.9078013102
 41
0.0620009146
 42
0.0741519796
  0
ELLIPSE
  5
6E4
100
AcDbEntity
  8
_30_VOLUMEN
100
AcDbEllipse
 62
7
  6
CONTINUOUS
 10
202.9338385254
 20
138.1305934574
 30
0.0
 11
0.0
 21
47.3872735856
 31
0.0
 40
0.4895829248
 41
-1.5168909139
 42
-1.5087954121
  0
ELLIPSE
  5
6E5
100
AcDbEntity
  8
_30_VOLUMEN
100
AcDbEllipse
 62
7
  6
CONTINUOUS
 10
202.9338385254
 20
143.8327257611
 30
0.0
 11
0.0
 21
63.1830314474
 31
0.0
 40
0.3671871936
 41
-1.6327972414
 42
-1.6247017397
  0
ELLIPSE
  5
6E6
100
AcDbEntity
  8
_30_VOLUMEN
100
AcDbEllipse
 62
7
  6
CONTINUOUS
 10
202.9338385254
 20
141.665549331
 30
0.0
 11
-0.0
 21
28.2066840167
 31
0.0
 40
0.822500085
 41
-1.7468115436
 42
-1.6327972414
  0
ELLIPSE
  5
6E7
100
AcDbEntity
  8
_30_VOLUMEN
100
AcDbEllipse
 62
7
  6
CONTINUOUS
 10
202.9338385254
 20
153.9036436574
 30
0.0
 11
-0.0
 21
36.856733195
 31
0.0
 40
0.6294643608
 41
-1.9228514261
 42
-1.8971400701
  0
ELLIPSE
  5
6E8
100
AcDbEntity
  8
_30_VOLUMEN
100
AcDbEllipse
 62
7
  6
CONTINUOUS
 10
202.9338385254
 20
142.5682856294
 30
0.0
 11
22.5
 21
-0.0
 31
0.0
 40
0.1945289582
 41
-0.1393393327
 42
-0.1099435886
  0
ELLIPSE
  5
6E9
100
AcDbEntity
  8
_30_VOLUMEN
100
AcDbEllipse
 62
7
  6
CONTINUOUS
 10
202.9338385254
 20
144.0880408544
 30
0.0
 11
22.5
 21
0.0
 31
0.0
 40
0.680850658
 41
-0.1561898301
 42
-0.1393393327
  0
ELLIPSE
  5
6EA
100
AcDbEntity
  8
_30_VOLUMEN
100
AcDbEllipse
 62
7
  6
CONTINUOUS
 10
202.9338385254
 20
146.4710215663
 30
0.0
 11
0.0
 21
30.6383015247
 31
0.0
 40
0.7343749125
 41
-1.7438814791
 42
-1.7269861569
  0
ELLIPSE
  5
6EB
100
AcDbEntity
  8
_30_VOLUMEN
100
AcDbEllipse
 62
7
  6
CONTINUOUS
 10
202.9338385254
 20
162.3007650328
 30
0.0
 11
0.0
 21
122.5529431287
 31
0.0
 40
0.1835941221
 41
-1.7453886702
 42
-1.7438814791
  0
ELLIPSE
  5
6EC
100
AcDbEntity
  8
_30_VOLUMEN
100
AcDbEllipse
 62
7
  6
CONTINUOUS
 10
202.9338385254
 20
143.8327257611
 30
0.0
 11
-0.0
 21
61.2766468779
 31
0.0
 40
0.3671871936
 41
-1.6347287513
 42
-1.6263805001
  0
ELLIPSE
  5
6ED
100
AcDbEntity
  8
_30_VOLUMEN
100
AcDbEllipse
 62
7
  6
CONTINUOUS
 10
202.9338385254
 20
141.665549331
 30
0.0
 11
-0.0
 21
27.3556202748
 31
0.0
 40
0.822500085
 41
-1.7451347956
 42
-1.6954674749
  0
ELLIPSE
  5
6EE
100
AcDbEntity
  8
_30_VOLUMEN
100
AcDbEllipse
 62
7
  6
CONTINUOUS
 10
202.9338385254
 20
141.665549331
 30
0.0
 11
-0.0
 21
27.3556202748
 31
0.0
 40
0.822500085
 41
-1.6722130721
 42
-1.6347287513
  0
ELLIPSE
  5
6EF
100
AcDbEntity
  8
_30_VOLUMEN
100
AcDbEllipse
 62
7
  6
CONTINUOUS
 10
202.9338385254
 20
140.4809566658
 30
0.0
 11
23.2
 21
-0.0
 31
0.0
 40
0.1999986589
 41
-3.0376941744
 42
-3.0355444065
  0
ELLIPSE
  5
6F0
100
AcDbEntity
  8
_30_VOLUMEN
100
AcDbEllipse
 62
7
  6
CONTINUOUS
 10
202.9338385254
 20
153.9036436574
 30
0.0
 11
0.0
 21
35.74467659
 31
0.0
 40
0.6294643608
 41
-1.9343047232
 42
-1.9076884867
  0
ENDSEC
  0
SECTION
  2
OBJECTS
  0
DICTIONARY
  5
C
100
AcDbDictionary
280
0
281
1
  3
ACAD_GROUP
350
D
  3
ACAD_MLINESTYLE
350
17
  3
ACAD_LAYOUT
350
1A
  3
ACAD_PLOTSETTINGS
350
19
  3
ACAD_PLOTSTYLENAME
350
E
  0
DICTIONARY
  5
D
102
{ACAD_REACTORS
330
C
102
}
100
AcDbDictionary
280
0
281
1
  0
ACDBDICTIONARYWDFLT
  5
E
102
{ACAD_REACTORS
330
C
102
}
100
AcDbDictionary
281
1
  3
Normal
350
F
100
AcDbDictionaryWithDefault
340
F
  0
DICTIONARY
  5
17
102
{ACAD_REACTORS
330
C
102
}
100
AcDbDictionary
280
0
281
1
  3
Standard
350
18
  0
DICTIONARY
  5
19
102
{ACAD_REACTORS
330
C
102
}
100
AcDbDictionary
281
1
  0
DICTIONARY
  5
1A
102
{ACAD_REACTORS
330
C
102
}
100
AcDbDictionary
281
1
  3
Model
350
6F1
  3
Layout1
350
6F2
  0
ACDBPLACEHOLDER
  5
F
102
{ACAD_REACTORS
330
E
102
}
  0
MLINESTYLE
  5
18
102
{ACAD_REACTORS
330
17
102
}
100
AcDbMlineStyle
  2
STANDARD
 70
0
  3

 62
256
 51
90.0
 52
90.0
 71
2
 49
0.5
 62
256
  6
BYLAYER
 49
-0.5
 62
256
  6
BYLAYER
  0
LAYOUT
  5
6F1
102
{ACAD_REACTORS
330
1A
102
}
100
AcDbPlotSettings
  1

  2
none_device
  4
ISO_A4_(297.00_x_210.00_MM)
  6

 40
0.0
 41
0.0
 42
0.0
 43
0.0
 44
297.0
 45
210.0
 46
0.0
 47
0.0
 48
0.0
 49
0.0
140
0.0
141
0.0
142
1.0
143
1.0
 70
1024
 72
1
 73
0
 74
0
  7

 75
0
147
1.0
148
0.0
149
0.0
100
AcDbLayout
  1
Model
 70
0
 71
0
 10
0.0
 20
0.0
 11
297.0
 21
210.0
 12
0.0
 22
0.0
 32
0.0
 14
0.0
 24
0.0
 34
0.0
 15
0.0
 25
0.0
 35
0.0
146
0.0
 13
0.0
 23
0.0
 33
0.0
 16
1.0
 26
0.0
 36
0.0
 17
0.0
 27
1.0
 37
0.0
 76
0
330
20E
345
0
346
0
  0
LAYOUT
  5
6F2
102
{ACAD_REACTORS
330
1A
102
}
100
AcDbPlotSettings
  1

  2
none_device
  4
ISO_A4_(297.00_x_210.00_MM)
  6

 40
0.0
 41
0.0
 42
0.0
 43
0.0
 44
297.0
 45
210.0
 46
0.0
 47
0.0
 48
0.0
 49
0.0
140
0.0
141
0.0
142
1.0
143
1.0
 70
0
 72
1
 73
0
 74
0
  7

 75
0
147
1.0
148
0.0
149
0.0
100
AcDbLayout
  1
Layout1
 70
0
 71
1
 10
0.0
 20
0.0
 11
297.0
 21
210.0
 12
0.0
 22
0.0
 32
0.0
 14
0.0
 24
0.0
 34
0.0
 15
0.0
 25
0.0
 35
0.0
146
0.0
 13
0.0
 23
0.0
 33
0.0
 16
1.0
 26
0.0
 36
0.0
 17
0.0
 27
1.0
 37
0.0
 76
0
330
20F
345
0
346
0
  0
ENDSEC
  0
EOF
