999
DXF file: 001-m36423-p-12.dxf
999
Pro/ENGINEER 2022162 by Parametric Technology Corporation
  0
SECTION
  2
HEADER
  9
$ACADVER
  1
AC1015
  9
$DWGCODEPAGE
  3
ANSI_1252
  9
$EXTMAX
 10
420.0
 20
297.0
 30
0.0
  9
$EXTMIN
 10
0.0
 20
0.0
 30
0.0
  9
$LIMMIN
 10
0.0
 20
0.0
  9
$LIMMAX
 10
420.0
 20
297.0
  9
$VIEWCTR
 10
210.0
 20
148.5
  9
$VIEWSIZE
 40
297.0
  9
$CLAYER
  8
0
  9
$LTSCALE
 40
23.1
  9
$CELTYPE
  6
BYLAYER
  9
$DIMSCALE
 40
1.0
  9
$DIMASZ
 40
3.5
  9
$DIMEXO
 40
0.0
  9
$DIMDLI
 40
15.96
  9
$DIMEXE
 40
1.5
  9
$DIMCEN
 40
3.78
  9
$DIMLFAC
 40
1.0
  9
$DIMBLK
  1
_FILLED
  9
$DIMALT
 70
0
  9
$DIMALTF
 40
0.0393700787
  9
$DIMTXT
 40
3.5
  9
$DIMTOL
 70
1
  9
$DIMLIM
 70
0
  9
$DIMTFAC
 40
1.0
  9
$DIMTP
 40
0.01
  9
$DIMTM
 40
0.01
  9
$DIMGAP
 40
0.625
  9
$DIMDSEP
 70
46
  9
$AUNITS
 70
0
  9
$PDMODE
 70
3
  9
$PDSIZE
 40
0.3125
  9
$HANDSEED
  5
6F0
  9
$TILEMODE
 70
1
  9
$MEASUREMENT
 70
1
  9
$INSUNITS
 70
4
  0
ENDSEC
  0
SECTION
  2
CLASSES
  0
CLASS
  1
ACDBDICTIONARYWDFLT
  2
AcDbDictionaryWithDefault
  3
AutoCAD 2000
 90
0
280
0
281
0
  0
CLASS
  1
ACDBPLACEHOLDER
  2
AcDbPlaceHolder
  3
AutoCAD 2000
 90
0
280
0
281
0
  0
CLASS
  1
LAYOUT
  2
AcDbLayout
  3
AutoCAD 2000
 90
0
280
0
281
0
  0
ENDSEC
  0
SECTION
  2
TABLES
  0
TABLE
  2
VPORT
  5
8
100
AcDbSymbolTable
 70
2
  0
VPORT
  5
1F4
100
AcDbSymbolTableRecord
100
AcDbViewportTableRecord
  2
*ACTIVE
 70
0
 10
0.0
 20
0.0
 11
1.0
 21
1.0
 12
210.0
 22
148.5
 13
0.0
 23
0.0
 14
1.0
 24
1.0
 15
0.0
 25
0.0
 16
0.0
 26
0.0
 36
1.0
 17
0.0
 27
0.0
 37
0.0
 40
297.0
 41
1.4141414141
 42
50.0
 43
0.0
 44
0.0
 50
0.0
 51
0.0
 71
0
 72
100
 73
1
 74
1
 75
0
 76
0
 77
0
 78
0
  0
ENDTAB
  0
TABLE
  2
LTYPE
  5
5
100
AcDbSymbolTable
 70
6
  0
LTYPE
  5
14
100
AcDbSymbolTableRecord
100
AcDbLinetypeTableRecord
  2
BYBLOCK
 70
0
  3

 72
65
 73
0
 40
0.0
  0
LTYPE
  5
15
100
AcDbSymbolTableRecord
100
AcDbLinetypeTableRecord
  2
BYLAYER
 70
0
  3

 72
65
 73
0
 40
0.0
  0
LTYPE
  5
16
100
AcDbSymbolTableRecord
100
AcDbLinetypeTableRecord
  2
CONTINUOUS
 70
64
  3
Solid line
 72
65
 73
0
 40
0.0
  0
LTYPE
  5
1F5
100
AcDbSymbolTableRecord
100
AcDbLinetypeTableRecord
  2
CENTER
 70
64
  3
____ _ ____ _ ____ _ ____ _ ____ _ ____ _ ____
 72
65
 73
4
 40
0.6
 49
0.375
 74
0
 49
-0.075
 74
0
 49
0.075
 74
0
 49
-0.075
 74
0
  0
LTYPE
  5
1F6
100
AcDbSymbolTableRecord
100
AcDbLinetypeTableRecord
  2
HIDDEN
 70
64
  3
- - - - - - - - - - - - - - - - - - - -
 72
65
 73
2
 40
0.2
 49
0.1
 74
0
 49
-0.1
 74
0
  0
LTYPE
  5
1F7
100
AcDbSymbolTableRecord
100
AcDbLinetypeTableRecord
  2
PHANTOM
 70
64
  3
_____ _ _ _____ _ _ _____ _ _ _____
 72
65
 73
6
 40
0.8
 49
0.45
 74
0
 49
-0.05
 74
0
 49
0.1
 74
0
 49
-0.05
 74
0
 49
0.1
 74
0
 49
-0.05
 74
0
  0
LTYPE
  5
1F8
100
AcDbSymbolTableRecord
100
AcDbLinetypeTableRecord
  2
DOT
 70
64
  3
. . . . . . . . . . . . . . . . . . . .
 72
65
 73
2
 40
0.2
 49
0.1
 74
0
 49
-0.1
 74
0
  0
LTYPE
  5
1F9
100
AcDbSymbolTableRecord
100
AcDbLinetypeTableRecord
  2
DASHED
 70
64
  3
- - - - - - - - - - - - - - - - - - - -
 72
65
 73
2
 40
0.2
 49
0.1
 74
0
 49
-0.1
 74
0
  0
ENDTAB
  0
TABLE
  2
LAYER
  5
2
100
AcDbSymbolTable
 70
36
  0
LAYER
  5
10
100
AcDbSymbolTableRecord
100
AcDbLayerTableRecord
  2
0
 70
0
 62
7
  6
CONTINUOUS
370
-3
390
F
  0
LAYER
  5
1FA
100
AcDbSymbolTableRecord
100
AcDbLayerTableRecord
  2
DEFAULT_1
 70
0
 62
7
  6
CENTER
370
-3
390
F
  0
LAYER
  5
1FB
100
AcDbSymbolTableRecord
100
AcDbLayerTableRecord
  2
DEFAULT_2
 70
0
 62
8
  6
HIDDEN
370
-3
390
F
  0
LAYER
  5
1FC
100
AcDbSymbolTableRecord
100
AcDbLayerTableRecord
  2
DEFAULT_3
 70
0
 62
7
  6
PHANTOM
370
-3
390
F
  0
LAYER
  5
1FD
100
AcDbSymbolTableRecord
100
AcDbLayerTableRecord
  2
HILFEN
 70
0
 62
7
  6
CONTINUOUS
370
-3
390
F
  0
LAYER
  5
1FE
100
AcDbSymbolTableRecord
100
AcDbLayerTableRecord
  2
PLATZIERUNG
 70
0
 62
7
  6
CONTINUOUS
370
-3
390
F
  0
LAYER
  5
1FF
100
AcDbSymbolTableRecord
100
AcDbLayerTableRecord
  2
RUNDUNGEN
 70
0
 62
7
  6
CONTINUOUS
370
-3
390
F
  0
LAYER
  5
200
100
AcDbSymbolTableRecord
100
AcDbLayerTableRecord
  2
T_STARTBEZUEGE
 70
0
 62
7
  6
CONTINUOUS
370
-3
390
F
  0
LAYER
  5
201
100
AcDbSymbolTableRecord
100
AcDbLayerTableRecord
  2
_00_ASM_START_FEATURES
 70
0
 62
7
  6
CONTINUOUS
370
-3
390
F
  0
LAYER
  5
202
100
AcDbSymbolTableRecord
100
AcDbLayerTableRecord
  2
_00_HILFEN
 70
0
 62
7
  6
CONTINUOUS
370
-3
390
F
  0
LAYER
  5
203
100
AcDbSymbolTableRecord
100
AcDbLayerTableRecord
  2
_00_PLATZIERUNG
 70
0
 62
7
  6
CONTINUOUS
370
-3
390
F
  0
LAYER
  5
204
100
AcDbSymbolTableRecord
100
AcDbLayerTableRecord
  2
_00_PRT_START_FEATURES
 70
0
 62
7
  6
CONTINUOUS
370
-3
390
F
  0
LAYER
  5
205
100
AcDbSymbolTableRecord
100
AcDbLayerTableRecord
  2
_04_NOTIZEN
 70
0
 62
7
  6
CONTINUOUS
370
-3
390
F
  0
LAYER
  5
206
100
AcDbSymbolTableRecord
100
AcDbLayerTableRecord
  2
_21_KURVEN
 70
0
 62
7
  6
CONTINUOUS
370
-3
390
F
  0
LAYER
  5
207
100
AcDbSymbolTableRecord
100
AcDbLayerTableRecord
  2
_22_FLAECHEN
 70
0
 62
7
  6
CONTINUOUS
370
-3
390
F
  0
LAYER
  5
208
100
AcDbSymbolTableRecord
100
AcDbLayerTableRecord
  2
_26_BEZUGSACHSEN
 70
0
 62
7
  6
CONTINUOUS
370
-3
390
F
  0
LAYER
  5
209
100
AcDbSymbolTableRecord
100
AcDbLayerTableRecord
  2
_27_BEZUGSEBENEN
 70
0
 62
7
  6
CONTINUOUS
370
-3
390
F
  0
LAYER
  5
20A
100
AcDbSymbolTableRecord
100
AcDbLayerTableRecord
  2
_29_KOORDINATENSYSTEME
 70
0
 62
7
  6
CONTINUOUS
370
-3
390
F
  0
LAYER
  5
20B
100
AcDbSymbolTableRecord
100
AcDbLayerTableRecord
  2
_30_VOLUMEN
 70
0
 62
7
  6
CONTINUOUS
370
-3
390
F
  0
ENDTAB
  0
TABLE
  2
STYLE
  5
3
100
AcDbSymbolTable
 70
1
  0
STYLE
  5
11
100
AcDbSymbolTableRecord
100
AcDbTextStyleTableRecord
  2
STANDARD
 70
0
 40
0.0
 41
1.0
 50
0.0
 71
0
 42
0.2
  3
isonormlt-regular.ttf
  4

1001
ACAD
1000
Isonorm LT Regular
1071
34
  0
STYLE
  5
20C
100
AcDbSymbolTableRecord
100
AcDbTextStyleTableRecord
  2
TEXTSTYLE_1
 70
0
 40
0.0
 41
0.8
 50
0.0
 71
0
 42
0.2
  3
gdt
  4

  0
ENDTAB
  0
TABLE
  2
VIEW
  5
6
100
AcDbSymbolTable
 70
0
  0
ENDTAB
  0
TABLE
  2
UCS
  5
7
100
AcDbSymbolTable
 70
0
  0
ENDTAB
  0
TABLE
  2
APPID
  5
9
100
AcDbSymbolTable
 70
1
  0
APPID
  5
20D
100
AcDbSymbolTableRecord
100
AcDbRegAppTableRecord
  2
ACAD
 70
0
  0
ENDTAB
  0
TABLE
  2
BLOCK_RECORD
  5
1
100
AcDbSymbolTable
 70
0
  0
BLOCK_RECORD
  5
20E
100
AcDbSymbolTableRecord
100
AcDbBlockTableRecord
  2
*Model_Space
  0
BLOCK_RECORD
  5
20F
100
AcDbSymbolTableRecord
100
AcDbBlockTableRecord
  2
*Paper_Space
  0
BLOCK_RECORD
  5
210
100
AcDbSymbolTableRecord
100
AcDbBlockTableRecord
  2
_FILLED
  0
ENDTAB
  0
TABLE
  2
DIMSTYLE
  5
A
100
AcDbSymbolTable
 70
1
100
AcDbDimStyleTable
 71
0
  0
DIMSTYLE
105
211
100
AcDbSymbolTableRecord
100
AcDbDimStyleTableRecord
  2
STANDARD
 70
0
  3

  4

 40
1.0
 41
3.5
 42
0.0
 43
0.38
 44
1.5
 45
0.0
 46
0.0
 47
0.01
 48
0.01
140
3.5
141
0.09
142
0.0
143
25.4
144
1.0
145
0.0
146
1.0
147
0.625
 71
1
 72
0
 73
0
 74
0
 75
0
 76
0
 77
1
 78
8
 79
2
170
0
171
1
172
0
173
0
174
0
175
0
176
0
177
0
178
5
270
2
179
2
271
2
272
2
273
2
274
2
275
0
280
0
281
0
282
0
283
1
284
8
285
0
286
0
287
3
288
0
340
11
278
46
341
210
342
210
343
210
344
210
  0
ENDTAB
  0
ENDSEC
  0
SECTION
  2
BLOCKS
  0
BLOCK
  5
20
100
AcDbEntity
  8
0
100
AcDbBlockBegin
  2
*Model_Space
 70
0
 10
0.0
 20
0.0
 30
0.0
  3
*Model_Space
  1

  0
ENDBLK
  5
21
100
AcDbEntity
  8
0
100
AcDbBlockEnd
  0
BLOCK
  5
1C
100
AcDbEntity
  8
0
100
AcDbBlockBegin
  2
*Paper_Space
 70
0
 10
0.0
 20
0.0
 30
0.0
  3
*Paper_Space
  1

  0
ENDBLK
  5
1D
100
AcDbEntity
  8
0
100
AcDbBlockEnd
  0
BLOCK
  5
212
100
AcDbEntity
  8
0
100
AcDbBlockBegin
  2
_FILLED
 70
64
 10
0.0
 20
0.0
  3
_FILLED
  1

  0
SOLID
  5
213
100
AcDbEntity
  8
0
  6
BYBLOCK
 62
0
100
AcDbTrace
 10
0.0
 20
0.0
 11
-1.0
 21
0.125
 12
-1.0
 22
-0.125
 13
-1.0
 23
-0.125
  0
ENDBLK
  5
214
100
AcDbEntity
  8
0
  6
BYBLOCK
 62
0
100
AcDbBlockEnd
  0
ENDSEC
  0
SECTION
  2
ENTITIES
  0
MTEXT
  5
215
100
AcDbEntity
  8
_04_NOTIZEN
100
AcDbMText
 62
5
  6
CONTINUOUS
  7
STANDARD
 71
1
 72
1
 10
225.9019873961
 20
213.8938213268
 30
0.0
 11
1.0
 21
0.0
 31
0.0
 73
2
 44
0.9
  1
1-2 Pers
 40
3.5
 41
16.1
  0
MTEXT
  5
216
100
AcDbEntity
  8
_04_NOTIZEN
100
AcDbMText
 62
5
  6
CONTINUOUS
  7
STANDARD
 71
1
 72
1
 10
232.2179158947
 20
219.9451189401
 30
0.0
 11
0.0
 21
1.0
 31
0.0
 73
2
 44
0.9
  1
RUD PSA INOX-STAR M16
 40
3.5
 41
49.378
  0
MTEXT
  5
217
100
AcDbEntity
  8
_04_NOTIZEN
100
AcDbMText
 62
5
  6
CONTINUOUS
  7
STANDARD
 71
2
 72
1
 10
131.6563248671
 20
42.1861446373
 30
0.0
 11
1.0
 21
0.0
 31
0.0
 73
2
 44
0.9
  1
RUD PSA INOX-STAR M16\P1-2 Pers
 40
3.5
 41
49.378
  0
LINE
  5
218
100
AcDbEntity
  8
0
100
AcDbLine
 62
7
  6
CONTINUOUS
 10
0.0
 20
0.0
 11
0.0
 21
297.0
  0
LINE
  5
219
100
AcDbEntity
  8
0
100
AcDbLine
 62
7
  6
CONTINUOUS
 10
0.0
 20
0.0
 11
420.0
 21
0.0
  0
LINE
  5
21A
100
AcDbEntity
  8
0
100
AcDbLine
 62
7
  6
CONTINUOUS
 10
0.0
 20
297.0
 11
420.0
 21
297.0
  0
LINE
  5
21B
100
AcDbEntity
  8
0
100
AcDbLine
 62
7
  6
CONTINUOUS
 10
420.0
 20
0.0
 11
420.0
 21
297.0
  0
LINE
  5
21C
100
AcDbEntity
  8
0
100
AcDbLine
 62
7
  6
CONTINUOUS
 10
137.0617831454
 20
86.361470009
 11
124.0617831454
 21
86.361470009
  0
LINE
  5
21D
100
AcDbEntity
  8
0
100
AcDbLine
 62
7
  6
CONTINUOUS
 10
138.5617831454
 20
87.861470009
 11
122.5617831454
 21
87.861470009
  0
LINE
  5
21E
100
AcDbEntity
  8
_30_VOLUMEN
100
AcDbLine
 62
7
  6
CONTINUOUS
 10
113.3519857624
 20
256.5122466866
 11
113.5174061441
 21
256.5842668268
  0
LINE
  5
21F
100
AcDbEntity
  8
_30_VOLUMEN
100
AcDbLine
 62
7
  6
CONTINUOUS
 10
111.4273338366
 20
254.9494185429
 11
111.2000014102
 21
254.7719487433
  0
LINE
  5
220
100
AcDbEntity
  8
_30_VOLUMEN
100
AcDbLine
 62
7
  6
CONTINUOUS
 10
115.3652408999
 20
258.727734628
 11
115.0082841382
 21
258.4537246207
  0
LINE
  5
221
100
AcDbEntity
  8
_30_VOLUMEN
100
AcDbLine
 62
7
  6
CONTINUOUS
 10
113.2904787494
 20
256.897859861
 11
113.0444696741
 21
256.7473437598
  0
LINE
  5
222
100
AcDbEntity
  8
_30_VOLUMEN
100
AcDbLine
 62
7
  6
CONTINUOUS
 10
114.2215112833
 20
256.022623153
 11
113.975502208
 21
255.8721070518
  0
LINE
  5
223
100
AcDbEntity
  8
_30_VOLUMEN
100
AcDbLine
 62
7
  6
CONTINUOUS
 10
114.6096323959
 20
254.1730504228
 11
114.8556414751
 21
254.32356652
  0
LINE
  5
224
100
AcDbEntity
  8
_30_VOLUMEN
100
AcDbLine
 62
7
  6
CONTINUOUS
 10
111.4827780581
 20
254.6136531421
 11
111.6389534965
 21
254.703986058
  0
LINE
  5
225
100
AcDbEntity
  8
_30_VOLUMEN
100
AcDbLine
 62
7
  6
CONTINUOUS
 10
114.2427234883
 20
255.5977615489
 11
114.4484377557
 21
255.7090292204
  0
LINE
  5
226
100
AcDbEntity
  8
_30_VOLUMEN
100
AcDbLine
 62
7
  6
CONTINUOUS
 10
113.7952412954
 20
255.2510041976
 11
114.0009564851
 21
255.3622727675
  0
LINE
  5
227
100
AcDbEntity
  8
_30_VOLUMEN
100
AcDbLine
 62
7
  6
CONTINUOUS
 10
114.5884201636
 20
254.5979120549
 11
114.3827058962
 21
254.4866443834
  0
LINE
  5
228
100
AcDbEntity
  8
_30_VOLUMEN
100
AcDbLine
 62
7
  6
CONTINUOUS
 10
108.3776664109
 20
249.6639821262
 11
108.5656190234
 21
249.7611795593
  0
LINE
  5
229
100
AcDbEntity
  8
_30_VOLUMEN
100
AcDbLine
 62
7
  6
CONTINUOUS
 10
113.7337352047
 20
255.6366182704
 11
113.5683148231
 21
255.5645981302
  0
LINE
  5
22A
100
AcDbEntity
  8
_30_VOLUMEN
100
AcDbLine
 62
7
  6
CONTINUOUS
 10
113.0444696741
 20
256.7473437598
 11
112.8429974789
 21
256.5511034081
  0
LINE
  5
22B
100
AcDbEntity
  8
_30_VOLUMEN
100
AcDbLine
 62
7
  6
CONTINUOUS
 10
113.1102187592
 20
256.2767579052
 11
113.3519857624
 21
256.5122466866
  0
LINE
  5
22C
100
AcDbEntity
  8
_30_VOLUMEN
100
AcDbLine
 62
7
  6
CONTINUOUS
 10
113.8164371659
 20
256.5191142155
 11
114.0582041692
 21
256.7546029969
  0
LINE
  5
22D
100
AcDbEntity
  8
_30_VOLUMEN
100
AcDbLine
 62
7
  6
CONTINUOUS
 10
113.975502208
 20
255.8721070518
 11
113.7337352047
 21
255.6366182704
  0
LINE
  5
22E
100
AcDbEntity
  8
_30_VOLUMEN
100
AcDbLine
 62
7
  6
CONTINUOUS
 10
114.0009564851
 20
255.3622727675
 11
114.2427234883
 21
255.5977615489
  0
LINE
  5
22F
100
AcDbEntity
  8
_30_VOLUMEN
100
AcDbLine
 62
7
  6
CONTINUOUS
 10
113.9543062751
 20
254.6039970979
 11
113.7125392719
 21
254.3685083166
  0
LINE
  5
230
100
AcDbEntity
  8
_30_VOLUMEN
100
AcDbLine
 62
7
  6
CONTINUOUS
 10
114.9107767827
 20
254.9118976956
 11
114.5884201636
 21
254.5979120549
  0
LINE
  5
231
100
AcDbEntity
  8
_30_VOLUMEN
100
AcDbLine
 62
7
  6
CONTINUOUS
 10
114.8556414751
 20
254.32356652
 11
115.1779980942
 21
254.6375521607
  0
LINE
  5
232
100
AcDbEntity
  8
_30_VOLUMEN
100
AcDbLine
 62
7
  6
CONTINUOUS
 10
116.7932066156
 20
257.3293921541
 11
115.990053136
 21
256.7128690498
  0
LINE
  5
233
100
AcDbEntity
  8
_30_VOLUMEN
100
AcDbLine
 62
7
  6
CONTINUOUS
 10
116.1009009796
 20
256.4760894607
 11
116.9932933943
 21
257.1611148709
  0
LINE
  5
234
100
AcDbEntity
  8
_30_VOLUMEN
100
AcDbLine
 62
7
  6
CONTINUOUS
 10
116.1211047176
 20
255.5259898085
 11
116.3888225442
 21
255.73149751
  0
LINE
  5
235
100
AcDbEntity
  8
_30_VOLUMEN
100
AcDbLine
 62
7
  6
CONTINUOUS
 10
117.6381727418
 20
256.6905337113
 11
117.9058905683
 21
256.8960414128
  0
LINE
  5
236
100
AcDbEntity
  8
_30_VOLUMEN
100
AcDbLine
 62
7
  6
CONTINUOUS
 10
106.3156387626
 20
244.6834558915
 11
106.0804070227
 21
244.5046846095
  0
LINE
  5
237
100
AcDbEntity
  8
_30_VOLUMEN
100
AcDbLine
 62
7
  6
CONTINUOUS
 10
108.2686005186
 20
250.0278422182
 11
108.0563898858
 21
249.8798945456
  0
LINE
  5
238
100
AcDbEntity
  8
_30_VOLUMEN
100
AcDbLine
 62
7
  6
CONTINUOUS
 10
108.9774049738
 20
245.5881079902
 11
108.8019996459
 21
245.4697588968
  0
LINE
  5
239
100
AcDbEntity
  8
_30_VOLUMEN
100
AcDbLine
 62
7
  6
CONTINUOUS
 10
106.3801052229
 20
244.3813919392
 11
106.5288955589
 21
244.4639428996
  0
LINE
  5
23A
100
AcDbEntity
  8
_30_VOLUMEN
100
AcDbLine
 62
7
  6
CONTINUOUS
 10
146.9487210344
 20
257.2049941257
 11
146.6913248976
 21
257.0973311939
  0
LINE
  5
23B
100
AcDbEntity
  8
_30_VOLUMEN
100
AcDbLine
 62
7
  6
CONTINUOUS
 10
108.8135538207
 20
245.1091070903
 11
109.1279529763
 21
245.2393604514
  0
LINE
  5
23C
100
AcDbEntity
  8
_30_VOLUMEN
100
AcDbLine
 62
7
  6
CONTINUOUS
 10
106.601173147
 20
244.7936127348
 11
106.3156387626
 21
244.6834558915
  0
LINE
  5
23D
100
AcDbEntity
  8
_30_VOLUMEN
100
AcDbLine
 62
7
  6
CONTINUOUS
 10
146.8920937034
 20
256.8186335079
 11
147.1055346007
 21
256.8800130209
  0
LINE
  5
23E
100
AcDbEntity
  8
_30_VOLUMEN
100
AcDbLine
 62
7
  6
CONTINUOUS
 10
146.9415921531
 20
254.7469845347
 11
146.7281513789
 21
254.6856051514
  0
LINE
  5
23F
100
AcDbEntity
  8
0
100
AcDbLine
 62
7
  6
CONTINUOUS
 10
124.0617831454
 20
86.361470009
 11
122.5617831454
 21
87.861470009
  0
LINE
  5
240
100
AcDbEntity
  8
_30_VOLUMEN
100
AcDbLine
 62
7
  6
CONTINUOUS
 10
108.0563898858
 20
249.8798945456
 11
107.8775100924
 21
249.6536691194
  0
LINE
  5
241
100
AcDbEntity
  8
_30_VOLUMEN
100
AcDbLine
 62
7
  6
CONTINUOUS
 10
111.2000014102
 20
254.7719487433
 11
110.3461142973
 21
253.7263021498
  0
LINE
  5
242
100
AcDbEntity
  8
_30_VOLUMEN
100
AcDbLine
 62
7
  6
CONTINUOUS
 10
110.8067838223
 20
253.7858492565
 11
111.4827780581
 21
254.6136531421
  0
LINE
  5
243
100
AcDbEntity
  8
_30_VOLUMEN
100
AcDbLine
 62
7
  6
CONTINUOUS
 10
112.2243714369
 20
254.0080594041
 11
111.548377201
 21
253.1802555185
  0
LINE
  5
244
100
AcDbEntity
  8
_30_VOLUMEN
100
AcDbLine
 62
7
  6
CONTINUOUS
 10
111.8450144972
 20
252.9380180686
 11
112.4854298318
 21
253.7222530137
  0
LINE
  5
245
100
AcDbEntity
  8
_30_VOLUMEN
100
AcDbLine
 62
7
  6
CONTINUOUS
 10
112.6697733938
 20
251.8287752323
 11
112.8832451721
 21
252.0901868806
  0
LINE
  5
246
100
AcDbEntity
  8
_30_VOLUMEN
100
AcDbLine
 62
7
  6
CONTINUOUS
 10
108.2230449152
 20
249.4885075203
 11
108.3776664109
 21
249.6639821262
  0
LINE
  5
247
100
AcDbEntity
  8
_30_VOLUMEN
100
AcDbLine
 62
7
  6
CONTINUOUS
 10
109.1279529763
 20
245.2393604514
 11
109.3215639962
 21
245.4109319777
  0
LINE
  5
248
100
AcDbEntity
  8
_30_VOLUMEN
100
AcDbLine
 62
7
  6
CONTINUOUS
 10
146.8849649145
 20
254.3606240142
 11
147.1423613155
 21
254.4682867568
  0
LINE
  5
249
100
AcDbEntity
  8
_30_VOLUMEN
100
AcDbLine
 62
7
  6
CONTINUOUS
 10
151.7244773015
 20
251.5231030696
 11
151.4746985707
 21
251.4458859972
  0
LINE
  5
24A
100
AcDbEntity
  8
_30_VOLUMEN
100
AcDbLine
 62
7
  6
CONTINUOUS
 10
112.8429974789
 20
256.5511034081
 11
112.7263560493
 21
256.3483863372
  0
LINE
  5
24B
100
AcDbEntity
  8
_30_VOLUMEN
100
AcDbLine
 62
7
  6
CONTINUOUS
 10
109.3215639962
 20
245.4109319777
 11
109.4729865024
 21
245.6563845561
  0
LINE
  5
24C
100
AcDbEntity
  8
_30_VOLUMEN
100
AcDbLine
 62
7
  6
CONTINUOUS
 10
115.1779980942
 20
254.6375521607
 11
115.3349334055
 21
254.8795167669
  0
LINE
  5
24D
100
AcDbEntity
  8
_30_VOLUMEN
100
AcDbLine
 62
7
  6
CONTINUOUS
 10
106.2816175313
 20
244.2302265402
 11
106.3801052229
 21
244.3813919392
  0
LINE
  5
24E
100
AcDbEntity
  8
_30_VOLUMEN
100
AcDbLine
 62
7
  6
CONTINUOUS
 10
109.1106217563
 20
245.7803381467
 11
108.9774049738
 21
245.5881079902
  0
LINE
  5
24F
100
AcDbEntity
  8
_30_VOLUMEN
100
AcDbLine
 62
7
  6
CONTINUOUS
 10
146.6913248976
 20
257.0973311939
 11
146.4307605013
 21
256.9046490638
  0
LINE
  5
250
100
AcDbEntity
  8
_30_VOLUMEN
100
AcDbLine
 62
7
  6
CONTINUOUS
 10
146.675484793
 20
256.6722350559
 11
146.8920937034
 21
256.8186335079
  0
LINE
  5
251
100
AcDbEntity
  8
_30_VOLUMEN
100
AcDbLine
 62
7
  6
CONTINUOUS
 10
147.1582010635
 20
254.8933829867
 11
146.9415921531
 21
254.7469845347
  0
LINE
  5
252
100
AcDbEntity
  8
_30_VOLUMEN
100
AcDbLine
 62
7
  6
CONTINUOUS
 10
151.4746985707
 20
251.4458859972
 11
151.2527063879
 21
251.3197613987
  0
LINE
  5
253
100
AcDbEntity
  8
_30_VOLUMEN
100
AcDbLine
 62
7
  6
CONTINUOUS
 10
151.4749252515
 20
251.0578467801
 11
151.5859212652
 21
251.1209090352
  0
LINE
  5
254
100
AcDbEntity
  8
_30_VOLUMEN
100
AcDbLine
 62
7
  6
CONTINUOUS
 10
153.3845884547
 20
249.4161594987
 11
153.0908373374
 21
249.2913945186
  0
LINE
  5
255
100
AcDbEntity
  8
_30_VOLUMEN
100
AcDbLine
 62
7
  6
CONTINUOUS
 10
153.4426747909
 20
248.463015874
 11
150.9751650763
 21
247.4149899017
  0
LINE
  5
256
100
AcDbEntity
  8
_30_VOLUMEN
100
AcDbLine
 62
7
  6
CONTINUOUS
 10
151.1071040584
 20
247.1043480581
 11
153.574613773
 21
248.1523740304
  0
LINE
  5
257
100
AcDbEntity
  8
_30_VOLUMEN
100
AcDbLine
 62
7
  6
CONTINUOUS
 10
153.9264507232
 20
247.3239965709
 11
154.2202018405
 21
247.4487615509
  0
LINE
  5
258
100
AcDbEntity
  8
_30_VOLUMEN
100
AcDbLine
 62
7
  6
CONTINUOUS
 10
113.0338721376
 20
256.113289264
 11
113.1102187592
 21
256.2767579052
  0
LINE
  5
259
100
AcDbEntity
  8
_30_VOLUMEN
100
AcDbLine
 62
7
  6
CONTINUOUS
 10
106.0804070227
 20
244.5046846095
 11
105.9578267902
 21
244.2436292129
  0
LINE
  5
25A
100
AcDbEntity
  8
_30_VOLUMEN
100
AcDbLine
 62
7
  6
CONTINUOUS
 10
107.8775100924
 20
249.6536691194
 11
107.2953153863
 21
248.4356587236
  0
LINE
  5
25B
100
AcDbEntity
  8
_30_VOLUMEN
100
AcDbLine
 62
7
  6
CONTINUOUS
 10
107.7863988857
 20
248.5749997235
 11
108.2230449152
 21
249.4885075203
  0
LINE
  5
25C
100
AcDbEntity
  8
_30_VOLUMEN
100
AcDbLine
 62
7
  6
CONTINUOUS
 10
110.2386649976
 20
248.5250647241
 11
109.802018968
 21
247.6115569273
  0
LINE
  5
25D
100
AcDbEntity
  8
_30_VOLUMEN
100
AcDbLine
 62
7
  6
CONTINUOUS
 10
110.0020051546
 20
247.14189271
 11
110.5841998607
 21
248.3599031058
  0
LINE
  5
25E
100
AcDbEntity
  8
_30_VOLUMEN
100
AcDbLine
 62
7
  6
CONTINUOUS
 10
112.4854298318
 20
253.7222530137
 11
112.6138831596
 21
253.9804686299
  0
LINE
  5
25F
100
AcDbEntity
  8
_30_VOLUMEN
100
AcDbLine
 62
7
  6
CONTINUOUS
 10
115.02741729
 20
255.1146138681
 11
114.9107767827
 21
254.9118976956
  0
LINE
  5
260
100
AcDbEntity
  8
_30_VOLUMEN
100
AcDbLine
 62
7
  6
CONTINUOUS
 10
147.1423613155
 20
254.4682867568
 11
147.4029253552
 21
254.6609689789
  0
LINE
  5
261
100
AcDbEntity
  8
_30_VOLUMEN
100
AcDbLine
 62
7
  6
CONTINUOUS
 10
149.8435136944
 20
252.2689023423
 11
149.5803542113
 21
252.0883388834
  0
LINE
  5
262
100
AcDbEntity
  8
_30_VOLUMEN
100
AcDbLine
 62
7
  6
CONTINUOUS
 10
150.0258942317
 20
251.4389933172
 11
150.2890537148
 21
251.6195567762
  0
LINE
  5
263
100
AcDbEntity
  8
_30_VOLUMEN
100
AcDbLine
 62
7
  6
CONTINUOUS
 10
151.087271071
 20
249.4143183312
 11
150.9207770506
 21
249.3197249485
  0
LINE
  5
264
100
AcDbEntity
  8
_30_VOLUMEN
100
AcDbLine
 62
7
  6
CONTINUOUS
 10
151.0319999005
 20
248.9947480749
 11
151.3094899347
 21
249.1524037126
  0
LINE
  5
265
100
AcDbEntity
  8
_30_VOLUMEN
100
AcDbLine
 62
7
  6
CONTINUOUS
 10
153.8724038172
 20
242.1910383682
 11
152.623434597
 21
241.5282290756
  0
LINE
  5
266
100
AcDbEntity
  8
_30_VOLUMEN
100
AcDbLine
 62
7
  6
CONTINUOUS
 10
155.0702100591
 20
241.9901552509
 11
154.8904738091
 21
241.9033968893
  0
LINE
  5
267
100
AcDbEntity
  8
_30_VOLUMEN
100
AcDbLine
 62
7
  6
CONTINUOUS
 10
154.9455765797
 20
241.5704255172
 11
155.1253128297
 21
241.6571838787
  0
LINE
  5
268
100
AcDbEntity
  8
_30_VOLUMEN
100
AcDbLine
 62
7
  6
CONTINUOUS
 10
112.7263560493
 20
256.3483863372
 11
112.6542514999
 21
256.0999450159
  0
LINE
  5
269
100
AcDbEntity
  8
_30_VOLUMEN
100
AcDbLine
 62
7
  6
CONTINUOUS
 10
112.2816677766
 20
254.1791381366
 11
112.2243714369
 21
254.0080594041
  0
LINE
  5
26A
100
AcDbEntity
  8
_30_VOLUMEN
100
AcDbLine
 62
7
  6
CONTINUOUS
 10
106.9985763937
 20
247.6918009992
 11
106.8893422917
 21
247.3724670659
  0
LINE
  5
26B
100
AcDbEntity
  8
_30_VOLUMEN
100
AcDbLine
 62
7
  6
CONTINUOUS
 10
106.4524058836
 20
246.0951313327
 11
106.3431717295
 21
245.7757972471
  0
LINE
  5
26C
100
AcDbEntity
  8
_30_VOLUMEN
100
AcDbLine
 62
7
  6
CONTINUOUS
 10
109.1834445257
 20
245.9932275371
 11
109.1106217563
 21
245.7803381467
  0
LINE
  5
26D
100
AcDbEntity
  8
_30_VOLUMEN
100
AcDbLine
 62
7
  6
CONTINUOUS
 10
109.4729865024
 20
245.6563845561
 11
109.5458092718
 21
245.8692739464
  0
LINE
  5
26E
100
AcDbEntity
  8
_30_VOLUMEN
100
AcDbLine
 62
7
  6
CONTINUOUS
 10
146.4307605013
 20
256.9046490638
 11
145.7714299995
 21
256.2103957719
  0
LINE
  5
26F
100
AcDbEntity
  8
_30_VOLUMEN
100
AcDbLine
 62
7
  6
CONTINUOUS
 10
146.0161542912
 20
255.9779817641
 11
146.675484793
 21
256.6722350559
  0
LINE
  5
270
100
AcDbEntity
  8
_30_VOLUMEN
100
AcDbLine
 62
7
  6
CONTINUOUS
 10
147.8175315653
 20
255.5876362786
 11
147.1582010635
 21
254.8933829867
  0
LINE
  5
271
100
AcDbEntity
  8
_30_VOLUMEN
100
AcDbLine
 62
7
  6
CONTINUOUS
 10
147.4029253552
 20
254.6609689789
 11
148.062255857
 21
255.3552222707
  0
LINE
  5
272
100
AcDbEntity
  8
_30_VOLUMEN
100
AcDbLine
 62
7
  6
CONTINUOUS
 10
150.1148837519
 20
250.8673928041
 11
149.9206784281
 21
250.6923608561
  0
LINE
  5
273
100
AcDbEntity
  8
_30_VOLUMEN
100
AcDbLine
 62
7
  6
CONTINUOUS
 10
151.2527063879
 20
251.3197613987
 11
151.058501064
 21
251.1447294507
  0
LINE
  5
274
100
AcDbEntity
  8
_30_VOLUMEN
100
AcDbLine
 62
7
  6
CONTINUOUS
 10
152.2417796868
 20
243.6903952376
 11
154.8714353379
 21
245.3918386283
  0
LINE
  5
275
100
AcDbEntity
  8
_30_VOLUMEN
100
AcDbLine
 62
7
  6
CONTINUOUS
 10
152.8203323052
 20
244.4443003772
 11
152.147594729
 21
244.0144869587
  0
LINE
  5
276
100
AcDbEntity
  8
_30_VOLUMEN
100
AcDbLine
 62
7
  6
CONTINUOUS
 10
154.5634695053
 20
245.5366491644
 11
153.0498104334
 21
244.5695670996
  0
LINE
  5
277
100
AcDbEntity
  8
_30_VOLUMEN
100
AcDbLine
 62
7
  6
CONTINUOUS
 10
152.6877212328
 20
241.1397620513
 11
154.0534531911
 21
241.8789096491
  0
LINE
  5
278
100
AcDbEntity
  8
_30_VOLUMEN
100
AcDbLine
 62
7
  6
CONTINUOUS
 10
105.9578267902
 20
244.2436292129
 11
105.6687164379
 21
242.924949872
  0
LINE
  5
279
100
AcDbEntity
  8
_30_VOLUMEN
100
AcDbLine
 62
7
  6
CONTINUOUS
 10
106.0527385139
 20
243.1862721144
 11
106.2816175313
 21
244.2302265402
  0
LINE
  5
27A
100
AcDbEntity
  8
_30_VOLUMEN
100
AcDbLine
 62
7
  6
CONTINUOUS
 10
107.2168511696
 20
244.0251837233
 11
106.9879721522
 21
242.9812292975
  0
LINE
  5
27B
100
AcDbEntity
  8
_30_VOLUMEN
100
AcDbLine
 62
7
  6
CONTINUOUS
 10
107.3620655376
 20
242.899212186
 11
107.5668520314
 21
243.833276693
  0
LINE
  5
27C
100
AcDbEntity
  8
_30_VOLUMEN
100
AcDbLine
 62
7
  6
CONTINUOUS
 10
108.5991149733
 20
242.2824824224
 11
108.6713925614
 21
242.6121522577
  0
LINE
  5
27D
100
AcDbEntity
  8
_30_VOLUMEN
100
AcDbLine
 62
7
  6
CONTINUOUS
 10
108.9725491669
 20
243.9857765187
 11
109.0568730426
 21
244.3703914313
  0
LINE
  5
27E
100
AcDbEntity
  8
_30_VOLUMEN
100
AcDbLine
 62
7
  6
CONTINUOUS
 10
110.5841998607
 20
248.3599031058
 11
110.6479013749
 21
248.6411824008
  0
LINE
  5
27F
100
AcDbEntity
  8
_30_VOLUMEN
100
AcDbLine
 62
7
  6
CONTINUOUS
 10
115.3349334055
 20
254.8795167669
 11
115.4070379433
 21
255.1279581002
  0
LINE
  5
280
100
AcDbEntity
  8
_30_VOLUMEN
100
AcDbLine
 62
7
  6
CONTINUOUS
 10
144.702081949
 20
259.510934794
 11
142.9146965254
 21
257.1015254581
  0
LINE
  5
281
100
AcDbEntity
  8
_30_VOLUMEN
100
AcDbLine
 62
7
  6
CONTINUOUS
 10
143.1857550757
 20
256.900444598
 11
144.7449636639
 21
259.0022697999
  0
LINE
  5
282
100
AcDbEntity
  8
_30_VOLUMEN
100
AcDbLine
 62
7
  6
CONTINUOUS
 10
146.2380804221
 20
258.3714765704
 11
144.7169013331
 21
256.3209154267
  0
LINE
  5
283
100
AcDbEntity
  8
_30_VOLUMEN
100
AcDbLine
 62
7
  6
CONTINUOUS
 10
144.7217535488
 20
255.7609863745
 11
146.5091389724
 21
258.1703957103
  0
LINE
  5
284
100
AcDbEntity
  8
_30_VOLUMEN
100
AcDbLine
 62
7
  6
CONTINUOUS
 10
150.1428972917
 20
250.4304462376
 11
150.2816046087
 21
250.573947058
  0
LINE
  5
285
100
AcDbEntity
  8
_30_VOLUMEN
100
AcDbLine
 62
7
  6
CONTINUOUS
 10
151.3362179345
 20
250.9143459597
 11
151.4749252515
 21
251.0578467801
  0
LINE
  5
286
100
AcDbEntity
  8
_30_VOLUMEN
100
AcDbLine
 62
7
  6
CONTINUOUS
 10
152.3360898761
 20
249.9297492692
 11
152.4747968752
 21
250.0732506493
  0
LINE
  5
287
100
AcDbEntity
  8
_30_VOLUMEN
100
AcDbLine
 62
7
  6
CONTINUOUS
 10
127.4367833242
 20
217.4338104498
 11
127.0617831454
 21
217.1784913313
  0
LINE
  5
288
100
AcDbEntity
  8
_30_VOLUMEN
100
AcDbLine
 62
7
  6
CONTINUOUS
 10
135.0695956454
 20
214.896576352
 11
135.3508457795
 21
214.9923210215
  0
LINE
  5
289
100
AcDbEntity
  8
_30_VOLUMEN
100
AcDbLine
 62
7
  6
CONTINUOUS
 10
109.5458092718
 20
245.8692739464
 11
109.5764435329
 21
246.1560443872
  0
LINE
  5
28A
100
AcDbEntity
  8
_30_VOLUMEN
100
AcDbLine
 62
7
  6
CONTINUOUS
 10
113.0020623961
 20
255.9040963724
 11
113.0338721376
 21
256.113289264
  0
LINE
  5
28B
100
AcDbEntity
  8
_30_VOLUMEN
100
AcDbLine
 62
7
  6
CONTINUOUS
 10
115.0592270003
 20
255.3238067918
 11
115.02741729
 21
255.1146138681
  0
LINE
  5
28C
100
AcDbEntity
  8
_30_VOLUMEN
100
AcDbLine
 62
7
  6
CONTINUOUS
 10
110.2781082189
 20
248.7555931963
 11
110.2386649976
 21
248.5250647241
  0
LINE
  5
28D
100
AcDbEntity
  8
_30_VOLUMEN
100
AcDbLine
 62
7
  6
CONTINUOUS
 10
145.8811203002
 20
255.7541118283
 11
146.0161542912
 21
255.9779817641
  0
LINE
  5
28E
100
AcDbEntity
  8
_30_VOLUMEN
100
AcDbLine
 62
7
  6
CONTINUOUS
 10
143.8287799462
 20
260.0458311224
 11
142.2355148236
 21
257.5038818214
  0
LINE
  5
28F
100
AcDbEntity
  8
_30_VOLUMEN
100
AcDbLine
 62
7
  6
CONTINUOUS
 10
142.5214841199
 20
257.3246394951
 11
144.1147492426
 21
259.8665887961
  0
LINE
  5
290
100
AcDbEntity
  8
_30_VOLUMEN
100
AcDbLine
 62
7
  6
CONTINUOUS
 10
123.1242831454
 20
217.561470009
 11
122.5617831454
 21
216.6678530943
  0
LINE
  5
291
100
AcDbEntity
  8
_30_VOLUMEN
100
AcDbLine
 62
7
  6
CONTINUOUS
 10
122.5617831454
 20
215.6465762626
 11
123.1242831454
 21
216.540193535
  0
LINE
  5
292
100
AcDbEntity
  8
_30_VOLUMEN
100
AcDbLine
 62
7
  6
CONTINUOUS
 10
145.7714299995
 20
256.2103957719
 11
145.5924406458
 21
255.9402422877
  0
LINE
  5
293
100
AcDbEntity
  8
_30_VOLUMEN
100
AcDbLine
 62
7
  6
CONTINUOUS
 10
148.062255857
 20
255.3552222707
 11
148.2412455672
 21
255.6253756629
  0
LINE
  5
294
100
AcDbEntity
  8
_30_VOLUMEN
100
AcDbLine
 62
7
  6
CONTINUOUS
 10
127.0617831454
 20
217.1784913313
 11
126.6867832348
 21
216.6678530943
  0
LINE
  5
295
100
AcDbEntity
  8
_30_VOLUMEN
100
AcDbLine
 62
7
  6
CONTINUOUS
 10
155.1253128297
 20
241.6571838787
 11
155.349654651
 21
241.8653548709
  0
LINE
  5
296
100
AcDbEntity
  8
_30_VOLUMEN
100
AcDbLine
 62
7
  6
CONTINUOUS
 10
127.2492829666
 20
216.540193535
 11
127.5305329666
 21
216.7955126535
  0
LINE
  5
297
100
AcDbEntity
  8
_30_VOLUMEN
100
AcDbLine
 62
7
  6
CONTINUOUS
 10
134.9289707795
 20
214.8008316826
 11
135.0695956454
 21
214.896576352
  0
LINE
  5
298
100
AcDbEntity
  8
_30_VOLUMEN
100
AcDbLine
 62
7
  6
CONTINUOUS
 10
137.6008456454
 20
214.6093423437
 11
137.8820953772
 21
214.8008316826
  0
LINE
  5
299
100
AcDbEntity
  8
_30_VOLUMEN
100
AcDbLine
 62
7
  6
CONTINUOUS
 10
133.0305330784
 20
214.9923210215
 11
132.8195955784
 21
214.896576352
  0
LINE
  5
29A
100
AcDbEntity
  8
_30_VOLUMEN
100
AcDbLine
 62
7
  6
CONTINUOUS
 10
134.9992830113
 20
215.2795550298
 11
134.7883455113
 21
215.1838103603
  0
LINE
  5
29B
100
AcDbEntity
  8
_30_VOLUMEN
100
AcDbLine
 62
7
  6
CONTINUOUS
 10
137.9524084136
 20
215.2795550298
 11
137.7414705113
 21
215.1838103603
  0
LINE
  5
29C
100
AcDbEntity
  8
_30_VOLUMEN
100
AcDbLine
 62
7
  6
CONTINUOUS
 10
139.4289709136
 20
214.896576352
 11
139.7102206454
 21
214.9923210215
  0
LINE
  5
29D
100
AcDbEntity
  8
_30_VOLUMEN
100
AcDbLine
 62
7
  6
CONTINUOUS
 10
140.5539706454
 20
212.7901934232
 11
140.2727209136
 21
212.6944487203
  0
LINE
  5
29E
100
AcDbEntity
  8
_30_VOLUMEN
100
AcDbLine
 62
7
  6
CONTINUOUS
 10
108.5617831454
 20
206.561470009
 11
108.5617831454
 21
208.561470009
  0
LINE
  5
29F
100
AcDbEntity
  8
_30_VOLUMEN
100
AcDbLine
 62
7
  6
CONTINUOUS
 10
109.1958731778
 20
246.2267758568
 11
109.1834445257
 21
245.9932275371
  0
LINE
  5
2A0
100
AcDbEntity
  8
_30_VOLUMEN
100
AcDbLine
 62
7
  6
CONTINUOUS
 10
127.0617831454
 20
216.1572148573
 11
127.2492829666
 21
216.540193535
  0
LINE
  5
2A1
100
AcDbEntity
  8
_30_VOLUMEN
100
AcDbLine
 62
7
  6
CONTINUOUS
 10
147.9525655563
 20
255.8115062143
 11
147.8175315653
 21
255.5876362786
  0
LINE
  5
2A2
100
AcDbEntity
  8
_30_VOLUMEN
100
AcDbLine
 62
7
  6
CONTINUOUS
 10
149.9206784281
 20
250.6923608561
 11
149.726548764
 21
250.3879823122
  0
LINE
  5
2A3
100
AcDbEntity
  8
_30_VOLUMEN
100
AcDbLine
 62
7
  6
CONTINUOUS
 10
133.1711581454
 20
215.1838103603
 11
133.0305330784
 21
214.9923210215
  0
LINE
  5
2A4
100
AcDbEntity
  8
_30_VOLUMEN
100
AcDbLine
 62
7
  6
CONTINUOUS
 10
151.3094899347
 20
249.1524037126
 11
151.4759079968
 21
249.376344262
  0
LINE
  5
2A5
100
AcDbEntity
  8
_30_VOLUMEN
100
AcDbLine
 62
7
  6
CONTINUOUS
 10
152.2525780115
 20
250.3351652679
 11
152.1693690193
 21
250.2231950153
  0
LINE
  5
2A6
100
AcDbEntity
  8
_30_VOLUMEN
100
AcDbLine
 62
7
  6
CONTINUOUS
 10
155.177788932
 20
242.1219892081
 11
155.0702100591
 21
241.9901552509
  0
LINE
  5
2A7
100
AcDbEntity
  8
_30_VOLUMEN
100
AcDbLine
 62
7
  6
CONTINUOUS
 10
129.1242833242
 20
215.3912571441
 11
126.4992831454
 21
212.1997678947
  0
LINE
  5
2A8
100
AcDbEntity
  8
_30_VOLUMEN
100
AcDbLine
 62
7
  6
CONTINUOUS
 10
127.2492829666
 20
212.1997678947
 11
129.5930331454
 21
215.0082784664
  0
LINE
  5
2A9
100
AcDbEntity
  8
_30_VOLUMEN
100
AcDbLine
 62
7
  6
CONTINUOUS
 10
133.1008457125
 20
214.4178530048
 11
133.3820956454
 21
214.7050870132
  0
LINE
  5
2AA
100
AcDbEntity
  8
_30_VOLUMEN
100
AcDbLine
 62
7
  6
CONTINUOUS
 10
134.7883455113
 20
215.1838103603
 11
134.5774080113
 21
214.9923210215
  0
LINE
  5
2AB
100
AcDbEntity
  8
_30_VOLUMEN
100
AcDbLine
 62
7
  6
CONTINUOUS
 10
137.7414705113
 20
215.1838103603
 11
137.5305330113
 21
214.9923210215
  0
LINE
  5
2AC
100
AcDbEntity
  8
_30_VOLUMEN
100
AcDbLine
 62
7
  6
CONTINUOUS
 10
136.0539705113
 20
212.9816827621
 11
135.8430330113
 21
212.7901934232
  0
LINE
  5
2AD
100
AcDbEntity
  8
_30_VOLUMEN
100
AcDbLine
 62
7
  6
CONTINUOUS
 10
139.2883456454
 20
215.2795550298
 11
139.0070959136
 21
215.0880656909
  0
LINE
  5
2AE
100
AcDbEntity
  8
_30_VOLUMEN
100
AcDbLine
 62
7
  6
CONTINUOUS
 10
139.2883456454
 20
214.8008316826
 11
139.4289709136
 21
214.896576352
  0
LINE
  5
2AF
100
AcDbEntity
  8
_30_VOLUMEN
100
AcDbLine
 62
7
  6
CONTINUOUS
 10
135.9133456454
 20
212.4072146868
 11
136.1945957795
 21
212.5987040508
  0
LINE
  5
2B0
100
AcDbEntity
  8
_30_VOLUMEN
100
AcDbLine
 62
7
  6
CONTINUOUS
 10
140.6945959136
 20
212.8859380927
 11
140.5539706454
 21
212.7901934232
  0
LINE
  5
2B1
100
AcDbEntity
  8
_30_VOLUMEN
100
AcDbLine
 62
7
  6
CONTINUOUS
 10
140.6945959136
 20
212.4072146868
 11
140.9758456454
 21
212.5987040508
  0
LINE
  5
2B2
100
AcDbEntity
  8
_30_VOLUMEN
100
AcDbLine
 62
7
  6
CONTINUOUS
 10
110.6479013749
 20
248.6411824008
 11
110.6297554439
 21
248.8992378134
  0
LINE
  5
2B3
100
AcDbEntity
  8
_30_VOLUMEN
100
AcDbLine
 62
7
  6
CONTINUOUS
 10
112.6542514999
 20
256.0999450159
 11
112.6712216328
 21
255.760056092
  0
LINE
  5
2B4
100
AcDbEntity
  8
_30_VOLUMEN
100
AcDbLine
 62
7
  6
CONTINUOUS
 10
112.6138831596
 20
253.9804686299
 11
112.6078793018
 21
254.2758621195
  0
LINE
  5
2B5
100
AcDbEntity
  8
_30_VOLUMEN
100
AcDbLine
 62
7
  6
CONTINUOUS
 10
113.0617831454
 20
238.561470009
 11
113.0618039341
 21
225.9905390841
  0
LINE
  5
2B6
100
AcDbEntity
  8
_30_VOLUMEN
100
AcDbLine
 62
7
  6
CONTINUOUS
 10
129.3117831454
 20
215.9018953811
 11
129.1242833242
 21
215.3912571441
  0
LINE
  5
2B7
100
AcDbEntity
  8
_30_VOLUMEN
100
AcDbLine
 62
7
  6
CONTINUOUS
 10
129.5930331454
 20
215.0082784664
 11
129.7805329666
 21
215.3912571441
  0
LINE
  5
2B8
100
AcDbEntity
  8
_30_VOLUMEN
100
AcDbLine
 62
7
  6
CONTINUOUS
 10
152.4747968752
 20
250.0732506493
 11
152.6134284741
 21
250.3460980326
  0
LINE
  5
2B9
100
AcDbEntity
  8
_30_VOLUMEN
100
AcDbLine
 62
7
  6
CONTINUOUS
 10
133.3820956454
 20
214.7050870132
 11
133.5930331454
 21
215.0880656909
  0
LINE
  5
2BA
100
AcDbEntity
  8
_30_VOLUMEN
100
AcDbLine
 62
7
  6
CONTINUOUS
 10
151.1981911264
 20
249.606727753
 11
151.087271071
 21
249.4143183312
  0
LINE
  5
2BB
100
AcDbEntity
  8
_30_VOLUMEN
100
AcDbLine
 62
7
  6
CONTINUOUS
 10
134.5774080113
 20
214.9923210215
 11
134.4367831454
 21
214.8008316826
  0
LINE
  5
2BC
100
AcDbEntity
  8
_30_VOLUMEN
100
AcDbLine
 62
7
  6
CONTINUOUS
 10
134.7180332795
 20
214.5135976743
 11
134.9289707795
 21
214.8008316826
  0
LINE
  5
2BD
100
AcDbEntity
  8
_30_VOLUMEN
100
AcDbLine
 62
7
  6
CONTINUOUS
 10
137.5305330113
 20
214.9923210215
 11
137.3899081454
 21
214.8008316826
  0
LINE
  5
2BE
100
AcDbEntity
  8
_30_VOLUMEN
100
AcDbLine
 62
7
  6
CONTINUOUS
 10
136.1945957795
 20
212.5987040508
 11
136.4055332795
 21
212.8859380927
  0
LINE
  5
2BF
100
AcDbEntity
  8
_30_VOLUMEN
100
AcDbLine
 62
7
  6
CONTINUOUS
 10
107.1906410661
 20
244.2036881595
 11
107.2168511696
 21
244.0251837233
  0
LINE
  5
2C0
100
AcDbEntity
  8
_30_VOLUMEN
100
AcDbLine
 62
7
  6
CONTINUOUS
 10
115.4070379433
 20
255.1279581002
 11
115.3900677948
 21
255.4678470402
  0
LINE
  5
2C1
100
AcDbEntity
  8
0
100
AcDbLine
 62
7
  6
CONTINUOUS
 10
119.5617831454
 20
206.361470009
 11
119.5617831454
 21
206.561470009
  0
LINE
  5
2C2
100
AcDbEntity
  8
_30_VOLUMEN
100
AcDbLine
 62
7
  6
CONTINUOUS
 10
122.5617831454
 20
216.6678530943
 11
122.5617831454
 21
215.6465762626
  0
LINE
  5
2C3
100
AcDbEntity
  8
0
100
AcDbLine
 62
7
  6
CONTINUOUS
 10
122.5617831454
 20
87.861470009
 11
122.5617831454
 21
206.361470009
  0
LINE
  5
2C4
100
AcDbEntity
  8
_30_VOLUMEN
100
AcDbLine
 62
7
  6
CONTINUOUS
 10
123.1242831454
 20
216.540193535
 11
123.1242831454
 21
211.561470009
  0
LINE
  5
2C5
100
AcDbEntity
  8
_30_VOLUMEN
100
AcDbLine
 62
7
  6
CONTINUOUS
 10
123.6867831454
 20
211.561470009
 11
123.6867831454
 21
217.561470009
  0
LINE
  5
2C6
100
AcDbEntity
  8
_30_VOLUMEN
100
AcDbLine
 62
7
  6
CONTINUOUS
 10
124.4367831007
 20
214.3699806701
 11
124.4367831007
 21
213.7316826951
  0
LINE
  5
2C7
100
AcDbEntity
  8
_30_VOLUMEN
100
AcDbLine
 62
7
  6
CONTINUOUS
 10
126.6867832348
 20
216.6678530943
 11
126.593033056
 21
216.1572148573
  0
LINE
  5
2C8
100
AcDbEntity
  8
_30_VOLUMEN
100
AcDbLine
 62
7
  6
CONTINUOUS
 10
129.7805329666
 20
215.3912571441
 11
129.8742831454
 21
215.9018953811
  0
LINE
  5
2C9
100
AcDbEntity
  8
_30_VOLUMEN
100
AcDbLine
 62
7
  6
CONTINUOUS
 10
133.2414705784
 20
215.4710443687
 11
133.1711581454
 21
215.1838103603
  0
LINE
  5
2CA
100
AcDbEntity
  8
_30_VOLUMEN
100
AcDbLine
 62
7
  6
CONTINUOUS
 10
148.4401802833
 20
251.8539882257
 11
149.0132412635
 21
253.5665240108
  0
LINE
  5
2CB
100
AcDbEntity
  8
_30_VOLUMEN
100
AcDbLine
 62
7
  6
CONTINUOUS
 10
145.5924406458
 20
255.9402422877
 11
145.4981938504
 21
255.6776367994
  0
LINE
  5
2CC
100
AcDbEntity
  8
_30_VOLUMEN
100
AcDbLine
 62
7
  6
CONTINUOUS
 10
148.2412455672
 20
255.6253756629
 11
148.3354920984
 21
255.8879813405
  0
LINE
  5
2CD
100
AcDbEntity
  8
_30_VOLUMEN
100
AcDbLine
 62
7
  6
CONTINUOUS
 10
134.4367831454
 20
214.8008316826
 11
134.2961580784
 21
214.4178530048
  0
LINE
  5
2CE
100
AcDbEntity
  8
_30_VOLUMEN
100
AcDbLine
 62
7
  6
CONTINUOUS
 10
134.6477206454
 20
214.3221083354
 11
134.7180332795
 21
214.5135976743
  0
LINE
  5
2CF
100
AcDbEntity
  8
_30_VOLUMEN
100
AcDbLine
 62
7
  6
CONTINUOUS
 10
139.0070959136
 20
215.0880656909
 11
138.8664706454
 21
214.8008316826
  0
LINE
  5
2D0
100
AcDbEntity
  8
_30_VOLUMEN
100
AcDbLine
 62
7
  6
CONTINUOUS
 10
137.3899081454
 20
214.226363666
 11
137.6008456454
 21
214.6093423437
  0
LINE
  5
2D1
100
AcDbEntity
  8
_30_VOLUMEN
100
AcDbLine
 62
7
  6
CONTINUOUS
 10
155.349654651
 20
241.8653548709
 11
155.5018393054
 21
242.1186001887
  0
LINE
  5
2D2
100
AcDbEntity
  8
_30_VOLUMEN
100
AcDbLine
 62
7
  6
CONTINUOUS
 10
110.2357042425
 20
248.9628983814
 11
110.2781082189
 21
248.7555931963
  0
LINE
  5
2D3
100
AcDbEntity
  8
_30_VOLUMEN
100
AcDbLine
 62
7
  6
CONTINUOUS
 10
109.5764435329
 20
246.1560443872
 11
109.5284780518
 21
246.4102516417
  0
LINE
  5
2D4
100
AcDbEntity
  8
_30_VOLUMEN
100
AcDbLine
 62
7
  6
CONTINUOUS
 10
112.2539456659
 20
254.347020837
 11
112.2816677766
 21
254.1791381366
  0
LINE
  5
2D5
100
AcDbEntity
  8
_30_VOLUMEN
100
AcDbLine
 62
7
  6
CONTINUOUS
 10
125.749283056
 20
213.7316826951
 11
125.749283056
 21
214.3699806701
  0
LINE
  5
2D6
100
AcDbEntity
  8
_30_VOLUMEN
100
AcDbLine
 62
7
  6
CONTINUOUS
 10
126.4992831454
 20
212.1997678947
 11
126.4992831454
 21
211.561470009
  0
LINE
  5
2D7
100
AcDbEntity
  8
_30_VOLUMEN
100
AcDbLine
 62
7
  6
CONTINUOUS
 10
129.3117831454
 20
216.1572148573
 11
129.3117831454
 21
215.9018953811
  0
LINE
  5
2D8
100
AcDbEntity
  8
_30_VOLUMEN
100
AcDbLine
 62
7
  6
CONTINUOUS
 10
129.8742831454
 20
211.561470009
 11
129.8742831454
 21
212.1997678947
  0
LINE
  5
2D9
100
AcDbEntity
  8
_30_VOLUMEN
100
AcDbLine
 62
7
  6
CONTINUOUS
 10
129.8742831454
 20
215.9018953811
 11
129.8742831454
 21
216.1572148573
  0
LINE
  5
2DA
100
AcDbEntity
  8
_30_VOLUMEN
100
AcDbLine
 62
7
  6
CONTINUOUS
 10
131.0617831454
 20
216.811470009
 11
131.0617831454
 21
212.311470009
  0
LINE
  5
2DB
100
AcDbEntity
  8
_30_VOLUMEN
100
AcDbLine
 62
7
  6
CONTINUOUS
 10
134.2961580784
 20
214.4178530048
 11
134.2258456454
 21
213.8433848541
  0
LINE
  5
2DC
100
AcDbEntity
  8
_30_VOLUMEN
100
AcDbLine
 62
7
  6
CONTINUOUS
 10
136.4055332795
 20
212.8859380927
 11
136.4758455113
 21
213.2689168375
  0
LINE
  5
2DD
100
AcDbEntity
  8
_30_VOLUMEN
100
AcDbLine
 62
7
  6
CONTINUOUS
 10
145.8308288983
 20
255.5377899209
 11
145.8811203002
 21
255.7541118283
  0
LINE
  5
2DE
100
AcDbEntity
  8
_30_VOLUMEN
100
AcDbLine
 62
7
  6
CONTINUOUS
 10
148.0028570814
 20
256.0278282514
 11
147.9525655563
 21
255.8115062143
  0
LINE
  5
2DF
100
AcDbEntity
  8
_30_VOLUMEN
100
AcDbLine
 62
7
  6
CONTINUOUS
 10
133.5930331454
 20
215.0880656909
 11
133.6633455784
 21
215.3752996992
  0
LINE
  5
2E0
100
AcDbEntity
  8
_30_VOLUMEN
100
AcDbLine
 62
7
  6
CONTINUOUS
 10
136.1242831454
 20
213.2689168375
 11
136.0539705113
 21
212.9816827621
  0
LINE
  5
2E1
100
AcDbEntity
  8
_30_VOLUMEN
100
AcDbLine
 62
7
  6
CONTINUOUS
 10
149.3222770828
 20
255.4987658966
 11
148.798450479
 21
253.8268529737
  0
LINE
  5
2E2
100
AcDbEntity
  8
_30_VOLUMEN
100
AcDbLine
 62
7
  6
CONTINUOUS
 10
148.6596719404
 20
253.4935766636
 11
148.2253894988
 21
252.1143171886
  0
LINE
  5
2E3
100
AcDbEntity
  8
_30_VOLUMEN
100
AcDbLine
 62
7
  6
CONTINUOUS
 10
149.1027850159
 20
253.8591779552
 11
149.5370678672
 21
255.2384369337
  0
LINE
  5
2E4
100
AcDbEntity
  8
_30_VOLUMEN
100
AcDbLine
 62
7
  6
CONTINUOUS
 10
150.0597636607
 20
250.1891299598
 11
150.1428972917
 21
250.4304462376
  0
LINE
  5
2E5
100
AcDbEntity
  8
_30_VOLUMEN
100
AcDbLine
 62
7
  6
CONTINUOUS
 10
151.058501064
 20
251.1447294507
 11
150.9476564865
 21
250.82297407
  0
LINE
  5
2E6
100
AcDbEntity
  8
_30_VOLUMEN
100
AcDbLine
 62
7
  6
CONTINUOUS
 10
151.4759079968
 20
249.376344262
 11
151.5867532103
 21
249.6980985233
  0
LINE
  5
2E7
100
AcDbEntity
  8
_30_VOLUMEN
100
AcDbLine
 62
7
  6
CONTINUOUS
 10
152.3080006183
 20
250.4960423986
 11
152.2525780115
 21
250.3351652679
  0
LINE
  5
2E8
100
AcDbEntity
  8
_30_VOLUMEN
100
AcDbLine
 62
7
  6
CONTINUOUS
 10
139.2180334136
 20
214.6093423437
 11
139.2883456454
 21
214.8008316826
  0
LINE
  5
2E9
100
AcDbEntity
  8
_30_VOLUMEN
100
AcDbLine
 62
7
  6
CONTINUOUS
 10
140.7649081454
 20
213.0774274316
 11
140.6945959136
 21
212.8859380927
  0
LINE
  5
2EA
100
AcDbEntity
  8
_30_VOLUMEN
100
AcDbLine
 62
7
  6
CONTINUOUS
 10
140.9758456454
 20
212.5987040508
 11
141.1164709136
 21
212.8859380927
  0
LINE
  5
2EB
100
AcDbEntity
  8
_30_VOLUMEN
100
AcDbLine
 62
7
  6
CONTINUOUS
 10
109.1297019519
 20
246.4277606967
 11
109.1958731778
 21
246.2267758568
  0
LINE
  5
2EC
100
AcDbEntity
  8
_30_VOLUMEN
100
AcDbLine
 62
7
  6
CONTINUOUS
 10
107.5144318416
 20
244.1902856439
 11
107.4379190937
 21
244.4374045189
  0
LINE
  5
2ED
100
AcDbEntity
  8
_30_VOLUMEN
100
AcDbLine
 62
7
  6
CONTINUOUS
 10
131.4836581454
 20
212.311470009
 11
131.4836581454
 21
214.3221083354
  0
LINE
  5
2EE
100
AcDbEntity
  8
_30_VOLUMEN
100
AcDbLine
 62
7
  6
CONTINUOUS
 10
131.4836581454
 20
214.896576352
 11
131.4836581454
 21
216.3327466618
  0
LINE
  5
2EF
100
AcDbEntity
  8
_30_VOLUMEN
100
AcDbLine
 62
7
  6
CONTINUOUS
 10
133.2414705784
 20
215.7582786452
 11
133.2414705784
 21
215.4710443687
  0
LINE
  5
2F0
100
AcDbEntity
  8
_30_VOLUMEN
100
AcDbLine
 62
7
  6
CONTINUOUS
 10
133.6633455784
 20
215.3752996992
 11
133.6633455784
 21
215.7582786452
  0
LINE
  5
2F1
100
AcDbEntity
  8
_30_VOLUMEN
100
AcDbLine
 62
7
  6
CONTINUOUS
 10
134.5774080113
 20
213.6518955152
 11
134.5774080113
 21
213.8433848541
  0
LINE
  5
2F2
100
AcDbEntity
  8
_30_VOLUMEN
100
AcDbLine
 62
7
  6
CONTINUOUS
 10
134.6477206454
 20
214.226363666
 11
134.6477206454
 21
214.3221083354
  0
LINE
  5
2F3
100
AcDbEntity
  8
_30_VOLUMEN
100
AcDbLine
 62
7
  6
CONTINUOUS
 10
136.1242831454
 20
214.4178530048
 11
136.1242831454
 21
214.226363666
  0
LINE
  5
2F4
100
AcDbEntity
  8
_30_VOLUMEN
100
AcDbLine
 62
7
  6
CONTINUOUS
 10
136.4758455113
 20
213.8433848541
 11
136.4758455113
 21
214.226363666
  0
LINE
  5
2F5
100
AcDbEntity
  8
_30_VOLUMEN
100
AcDbLine
 62
7
  6
CONTINUOUS
 10
137.0383457795
 20
215.3752996992
 11
137.0383457795
 21
212.311470009
  0
LINE
  5
2F6
100
AcDbEntity
  8
_30_VOLUMEN
100
AcDbLine
 62
7
  6
CONTINUOUS
 10
137.3899081454
 20
212.311470009
 11
137.3899081454
 21
214.226363666
  0
LINE
  5
2F7
100
AcDbEntity
  8
_30_VOLUMEN
100
AcDbLine
 62
7
  6
CONTINUOUS
 10
137.3899081454
 20
214.8008316826
 11
137.3899081454
 21
215.3752996992
  0
LINE
  5
2F8
100
AcDbEntity
  8
_30_VOLUMEN
100
AcDbLine
 62
7
  6
CONTINUOUS
 10
144.7169013331
 20
256.3209154267
 11
145.1086697744
 21
259.2093135037
  0
LINE
  5
2F9
100
AcDbEntity
  8
_30_VOLUMEN
100
AcDbLine
 62
7
  6
CONTINUOUS
 10
144.7449636639
 20
259.0022697999
 11
144.3151657234
 21
256.0626076647
  0
LINE
  5
2FA
100
AcDbEntity
  8
_30_VOLUMEN
100
AcDbLine
 62
7
  6
CONTINUOUS
 10
112.6078793018
 20
254.2758621195
 11
112.5168569935
 21
254.568059577
  0
LINE
  5
2FB
100
AcDbEntity
  8
_30_VOLUMEN
100
AcDbLine
 62
7
  6
CONTINUOUS
 10
115.006205976
 20
255.5394764026
 11
115.0592270003
 21
255.3238067918
  0
LINE
  5
2FC
100
AcDbEntity
  8
_30_VOLUMEN
100
AcDbLine
 62
7
  6
CONTINUOUS
 10
129.8742831454
 20
216.1572148573
 11
129.7805329666
 21
216.6678530943
  0
LINE
  5
2FD
100
AcDbEntity
  8
_30_VOLUMEN
100
AcDbLine
 62
7
  6
CONTINUOUS
 10
138.3039703772
 20
214.896576352
 11
138.3039703772
 21
215.3752996992
  0
LINE
  5
2FE
100
AcDbEntity
  8
0
100
AcDbLine
 62
7
  6
CONTINUOUS
 10
138.5617831454
 20
87.861470009
 11
138.5617831454
 21
206.361470009
  0
LINE
  5
2FF
100
AcDbEntity
  8
_30_VOLUMEN
100
AcDbLine
 62
7
  6
CONTINUOUS
 10
138.8664706454
 20
214.8008316826
 11
138.8664706454
 21
214.6093423437
  0
LINE
  5
300
100
AcDbEntity
  8
_30_VOLUMEN
100
AcDbLine
 62
7
  6
CONTINUOUS
 10
141.1164709136
 20
212.8859380927
 11
141.1164709136
 21
213.0774274316
  0
LINE
  5
301
100
AcDbEntity
  8
0
100
AcDbLine
 62
7
  6
CONTINUOUS
 10
141.5617831454
 20
206.361470009
 11
141.5617831454
 21
206.561470009
  0
LINE
  5
302
100
AcDbEntity
  8
_30_VOLUMEN
100
AcDbLine
 62
7
  6
CONTINUOUS
 10
145.4981938504
 20
255.6776367994
 11
145.4855219899
 21
255.3375598435
  0
LINE
  5
303
100
AcDbEntity
  8
_30_VOLUMEN
100
AcDbLine
 62
7
  6
CONTINUOUS
 10
149.726548764
 20
250.3879823122
 11
149.6989888823
 21
250.0488506129
  0
LINE
  5
304
100
AcDbEntity
  8
_30_VOLUMEN
100
AcDbLine
 62
7
  6
CONTINUOUS
 10
151.3085826672
 20
250.7045602718
 11
151.3362179345
 21
250.9143459597
  0
LINE
  5
305
100
AcDbEntity
  8
_30_VOLUMEN
100
AcDbLine
 62
7
  6
CONTINUOUS
 10
151.2258267116
 20
249.8165128811
 11
151.1981911264
 21
249.606727753
  0
LINE
  5
306
100
AcDbEntity
  8
_30_VOLUMEN
100
AcDbLine
 62
7
  6
CONTINUOUS
 10
152.6134284741
 20
250.3460980326
 11
152.6687750447
 21
250.6363222858
  0
LINE
  5
307
100
AcDbEntity
  8
_30_VOLUMEN
100
AcDbLine
 62
7
  6
CONTINUOUS
 10
155.2132108483
 20
242.2988962207
 11
155.177788932
 21
242.1219892081
  0
LINE
  5
308
100
AcDbEntity
  8
_30_VOLUMEN
100
AcDbLine
 62
7
  6
CONTINUOUS
 10
110.6297554439
 20
248.8992378134
 11
110.4964312337
 21
249.2123470948
  0
LINE
  5
309
100
AcDbEntity
  8
_30_VOLUMEN
100
AcDbLine
 62
7
  6
CONTINUOUS
 10
115.0082841382
 20
258.4537246207
 11
116.1211047176
 21
255.5259898085
  0
LINE
  5
30A
100
AcDbEntity
  8
_30_VOLUMEN
100
AcDbLine
 62
7
  6
CONTINUOUS
 10
115.3900677948
 20
255.4678470402
 11
115.2925098593
 21
255.7292409335
  0
LINE
  5
30B
100
AcDbEntity
  8
_30_VOLUMEN
100
AcDbLine
 62
7
  6
CONTINUOUS
 10
133.1711581454
 20
216.0455126535
 11
133.2414705784
 21
215.7582786452
  0
LINE
  5
30C
100
AcDbEntity
  8
_30_VOLUMEN
100
AcDbLine
 62
7
  6
CONTINUOUS
 10
133.6633455784
 20
215.7582786452
 11
133.5930331454
 21
216.0455126535
  0
LINE
  5
30D
100
AcDbEntity
  8
_30_VOLUMEN
100
AcDbLine
 62
7
  6
CONTINUOUS
 10
134.6477206454
 20
213.3646615069
 11
134.5774080113
 21
213.6518955152
  0
LINE
  5
30E
100
AcDbEntity
  8
_30_VOLUMEN
100
AcDbLine
 62
7
  6
CONTINUOUS
 10
136.4758455113
 20
214.226363666
 11
136.4055332795
 21
214.6093423437
  0
LINE
  5
30F
100
AcDbEntity
  8
_30_VOLUMEN
100
AcDbLine
 62
7
  6
CONTINUOUS
 10
134.2258456454
 20
213.8433848541
 11
134.2961580784
 21
213.2689168375
  0
LINE
  5
310
100
AcDbEntity
  8
_30_VOLUMEN
100
AcDbLine
 62
7
  6
CONTINUOUS
 10
150.9476564865
 20
250.82297407
 11
150.9478076047
 21
250.564281504
  0
LINE
  5
311
100
AcDbEntity
  8
_30_VOLUMEN
100
AcDbLine
 62
7
  6
CONTINUOUS
 10
148.0617623568
 20
225.9905390841
 11
148.0617831454
 21
238.561470009
  0
LINE
  5
312
100
AcDbEntity
  8
_30_VOLUMEN
100
AcDbLine
 62
7
  6
CONTINUOUS
 10
148.3354920984
 20
255.8879813405
 11
148.3481639435
 21
256.2280582801
  0
LINE
  5
313
100
AcDbEntity
  8
_30_VOLUMEN
100
AcDbLine
 62
7
  6
CONTINUOUS
 10
107.0900358118
 20
244.3409171941
 11
107.1906410661
 21
244.2036881595
  0
LINE
  5
314
100
AcDbEntity
  8
_30_VOLUMEN
100
AcDbLine
 62
7
  6
CONTINUOUS
 10
109.5284780518
 20
246.4102516417
 11
109.3597243308
 21
246.7057767568
  0
LINE
  5
315
100
AcDbEntity
  8
_30_VOLUMEN
100
AcDbLine
 62
7
  6
CONTINUOUS
 10
113.0953783531
 20
255.7276750632
 11
113.0020623961
 21
255.9040963724
  0
LINE
  5
316
100
AcDbEntity
  8
_30_VOLUMEN
100
AcDbLine
 62
7
  6
CONTINUOUS
 10
129.1242833242
 20
216.540193535
 11
129.3117831454
 21
216.1572148573
  0
LINE
  5
317
100
AcDbEntity
  8
_30_VOLUMEN
100
AcDbLine
 62
7
  6
CONTINUOUS
 10
115.990053136
 20
256.7128690498
 11
115.3422288089
 21
258.3882004043
  0
LINE
  5
318
100
AcDbEntity
  8
_30_VOLUMEN
100
AcDbLine
 62
7
  6
CONTINUOUS
 10
116.3888225442
 20
255.73149751
 11
116.1009009796
 21
256.4760894607
  0
LINE
  5
319
100
AcDbEntity
  8
_30_VOLUMEN
100
AcDbLine
 62
7
  6
CONTINUOUS
 10
134.2961580784
 20
213.2689168375
 11
134.4367831454
 21
212.8859380927
  0
LINE
  5
31A
100
AcDbEntity
  8
_30_VOLUMEN
100
AcDbLine
 62
7
  6
CONTINUOUS
 10
134.7180332795
 20
213.1731721681
 11
134.6477206454
 21
213.3646615069
  0
LINE
  5
31B
100
AcDbEntity
  8
_30_VOLUMEN
100
AcDbLine
 62
7
  6
CONTINUOUS
 10
138.8664706454
 20
213.0774274316
 11
139.0070959136
 21
212.6944487203
  0
LINE
  5
31C
100
AcDbEntity
  8
_30_VOLUMEN
100
AcDbLine
 62
7
  6
CONTINUOUS
 10
139.2883456454
 20
212.8859380927
 11
139.2180334136
 21
213.0774274316
  0
LINE
  5
31D
100
AcDbEntity
  8
_30_VOLUMEN
100
AcDbLine
 62
7
  6
CONTINUOUS
 10
138.8664706454
 20
214.6093423437
 11
139.0070959136
 21
214.226363666
  0
LINE
  5
31E
100
AcDbEntity
  8
_30_VOLUMEN
100
AcDbLine
 62
7
  6
CONTINUOUS
 10
139.2883456454
 20
214.4178530048
 11
139.2180334136
 21
214.6093423437
  0
LINE
  5
31F
100
AcDbEntity
  8
_30_VOLUMEN
100
AcDbLine
 62
7
  6
CONTINUOUS
 10
151.5867532103
 20
249.6980985233
 11
151.5866017741
 21
249.956791649
  0
LINE
  5
320
100
AcDbEntity
  8
_30_VOLUMEN
100
AcDbLine
 62
7
  6
CONTINUOUS
 10
152.5617831454
 20
206.561470009
 11
152.5617831454
 21
208.561470009
  0
LINE
  5
321
100
AcDbEntity
  8
_30_VOLUMEN
100
AcDbLine
 62
7
  6
CONTINUOUS
 10
155.5018393054
 20
242.1186001887
 11
155.5188937016
 21
242.4064972353
  0
LINE
  5
322
100
AcDbEntity
  8
_30_VOLUMEN
100
AcDbLine
 62
7
  6
CONTINUOUS
 10
128.8430333242
 20
216.7955126535
 11
129.1242833242
 21
216.540193535
  0
LINE
  5
323
100
AcDbEntity
  8
_30_VOLUMEN
100
AcDbLine
 62
7
  6
CONTINUOUS
 10
129.7805329666
 20
216.6678530943
 11
129.4055333242
 21
217.1784913313
  0
LINE
  5
324
100
AcDbEntity
  8
_30_VOLUMEN
100
AcDbLine
 62
7
  6
CONTINUOUS
 10
134.4367831454
 20
212.8859380927
 11
134.5774080113
 21
212.6944487203
  0
LINE
  5
325
100
AcDbEntity
  8
_30_VOLUMEN
100
AcDbLine
 62
7
  6
CONTINUOUS
 10
134.9289707795
 20
212.8859380927
 11
134.7180332795
 21
213.1731721681
  0
LINE
  5
326
100
AcDbEntity
  8
_30_VOLUMEN
100
AcDbLine
 62
7
  6
CONTINUOUS
 10
133.0305330784
 20
216.2370019924
 11
133.1711581454
 21
216.0455126535
  0
LINE
  5
327
100
AcDbEntity
  8
_30_VOLUMEN
100
AcDbLine
 62
7
  6
CONTINUOUS
 10
110.1114531492
 20
249.1469802409
 11
110.2357042425
 21
248.9628983814
  0
LINE
  5
328
100
AcDbEntity
  8
_30_VOLUMEN
100
AcDbLine
 62
7
  6
CONTINUOUS
 10
112.6712216328
 20
255.760056092
 11
112.809074345
 21
255.5379106604
  0
LINE
  5
329
100
AcDbEntity
  8
_30_VOLUMEN
100
AcDbLine
 62
7
  6
CONTINUOUS
 10
133.5930331454
 20
216.0455126535
 11
133.3820956454
 21
216.4284913313
  0
LINE
  5
32A
100
AcDbEntity
  8
_30_VOLUMEN
100
AcDbLine
 62
7
  6
CONTINUOUS
 10
136.4055332795
 20
214.6093423437
 11
136.1945957795
 21
214.9923210215
  0
LINE
  5
32B
100
AcDbEntity
  8
_30_VOLUMEN
100
AcDbLine
 62
7
  6
CONTINUOUS
 10
135.9836582795
 20
214.7050870132
 11
136.1242831454
 21
214.4178530048
  0
LINE
  5
32C
100
AcDbEntity
  8
_30_VOLUMEN
100
AcDbLine
 62
7
  6
CONTINUOUS
 10
140.6945959136
 20
213.2689168375
 11
140.7649081454
 21
213.0774274316
  0
LINE
  5
32D
100
AcDbEntity
  8
_30_VOLUMEN
100
AcDbLine
 62
7
  6
CONTINUOUS
 10
141.1164709136
 20
213.0774274316
 11
140.9758456454
 21
213.4604061764
  0
LINE
  5
32E
100
AcDbEntity
  8
_30_VOLUMEN
100
AcDbLine
 62
7
  6
CONTINUOUS
 10
140.6945959136
 20
214.8008316826
 11
140.7649081454
 21
214.6093423437
  0
LINE
  5
32F
100
AcDbEntity
  8
_30_VOLUMEN
100
AcDbLine
 62
7
  6
CONTINUOUS
 10
141.1164709136
 20
214.6093423437
 11
140.9758456454
 21
214.9923210215
  0
LINE
  5
330
100
AcDbEntity
  8
_30_VOLUMEN
100
AcDbLine
 62
7
  6
CONTINUOUS
 10
138.3039703772
 20
215.3752996992
 11
137.9524084136
 21
215.2795550298
  0
LINE
  5
331
100
AcDbEntity
  8
_30_VOLUMEN
100
AcDbLine
 62
7
  6
CONTINUOUS
 10
132.7492831454
 20
214.3221083354
 11
133.1008457125
 21
214.4178530048
  0
LINE
  5
332
100
AcDbEntity
  8
_30_VOLUMEN
100
AcDbLine
 62
7
  6
CONTINUOUS
 10
140.2727209136
 20
212.311470009
 11
140.6945959136
 21
212.4072146868
  0
LINE
  5
333
100
AcDbEntity
  8
_30_VOLUMEN
100
AcDbLine
 62
7
  6
CONTINUOUS
 10
137.8820953772
 20
214.8008316826
 11
138.3039703772
 21
214.896576352
  0
LINE
  5
334
100
AcDbEntity
  8
_30_VOLUMEN
100
AcDbLine
 62
7
  6
CONTINUOUS
 10
139.7102206454
 20
215.3752996992
 11
139.2883456454
 21
215.2795550298
  0
LINE
  5
335
100
AcDbEntity
  8
_30_VOLUMEN
100
AcDbLine
 62
7
  6
CONTINUOUS
 10
135.4211580113
 20
212.311470009
 11
135.9133456454
 21
212.4072146868
  0
LINE
  5
336
100
AcDbEntity
  8
_30_VOLUMEN
100
AcDbLine
 62
7
  6
CONTINUOUS
 10
135.8430330113
 20
212.7901934232
 11
135.3508457795
 21
212.6944487203
  0
LINE
  5
337
100
AcDbEntity
  8
0
100
AcDbLine
 62
7
  6
CONTINUOUS
 10
141.5617831454
 20
206.361470009
 11
119.5617831454
 21
206.361470009
  0
LINE
  5
338
100
AcDbEntity
  8
_30_VOLUMEN
100
AcDbLine
 62
7
  6
CONTINUOUS
 10
152.5617831454
 20
206.561470009
 11
108.5617831454
 21
206.561470009
  0
LINE
  5
339
100
AcDbEntity
  8
_30_VOLUMEN
100
AcDbLine
 62
7
  6
CONTINUOUS
 10
106.5131048321
 20
211.561470009
 11
106.7977854325
 21
211.561470009
  0
LINE
  5
33A
100
AcDbEntity
  8
_30_VOLUMEN
100
AcDbLine
 62
7
  6
CONTINUOUS
 10
123.1242831454
 20
211.561470009
 11
123.6867831454
 21
211.561470009
  0
LINE
  5
33B
100
AcDbEntity
  8
_30_VOLUMEN
100
AcDbLine
 62
7
  6
CONTINUOUS
 10
126.4992831454
 20
211.561470009
 11
129.8742831454
 21
211.561470009
  0
LINE
  5
33C
100
AcDbEntity
  8
_30_VOLUMEN
100
AcDbLine
 62
7
  6
CONTINUOUS
 10
154.3257808975
 20
211.561470009
 11
154.6104605154
 21
211.561470009
  0
LINE
  5
33D
100
AcDbEntity
  8
_30_VOLUMEN
100
AcDbLine
 62
7
  6
CONTINUOUS
 10
129.8742831454
 20
212.1997678947
 11
127.2492829666
 21
212.1997678947
  0
LINE
  5
33E
100
AcDbEntity
  8
_30_VOLUMEN
100
AcDbLine
 62
7
  6
CONTINUOUS
 10
131.0617831454
 20
212.311470009
 11
131.4836581454
 21
212.311470009
  0
LINE
  5
33F
100
AcDbEntity
  8
_30_VOLUMEN
100
AcDbLine
 62
7
  6
CONTINUOUS
 10
137.0383457795
 20
212.311470009
 11
137.3899081454
 21
212.311470009
  0
LINE
  5
340
100
AcDbEntity
  8
_30_VOLUMEN
100
AcDbLine
 62
7
  6
CONTINUOUS
 10
139.8508459136
 20
212.311470009
 11
140.2727209136
 21
212.311470009
  0
LINE
  5
341
100
AcDbEntity
  8
_30_VOLUMEN
100
AcDbLine
 62
7
  6
CONTINUOUS
 10
134.9992830113
 20
212.4072146868
 11
135.4211580113
 21
212.311470009
  0
LINE
  5
342
100
AcDbEntity
  8
_30_VOLUMEN
100
AcDbLine
 62
7
  6
CONTINUOUS
 10
135.3508457795
 20
212.6944487203
 11
135.0695956454
 21
212.7901934232
  0
LINE
  5
343
100
AcDbEntity
  8
_30_VOLUMEN
100
AcDbLine
 62
7
  6
CONTINUOUS
 10
134.7883455113
 20
212.5029593646
 11
134.9992830113
 21
212.4072146868
  0
LINE
  5
344
100
AcDbEntity
  8
_30_VOLUMEN
100
AcDbLine
 62
7
  6
CONTINUOUS
 10
135.0695956454
 20
212.7901934232
 11
134.9289707795
 21
212.8859380927
  0
LINE
  5
345
100
AcDbEntity
  8
_30_VOLUMEN
100
AcDbLine
 62
7
  6
CONTINUOUS
 10
129.4055333242
 20
217.1784913313
 11
129.0305331454
 21
217.4338104498
  0
LINE
  5
346
100
AcDbEntity
  8
_30_VOLUMEN
100
AcDbLine
 62
7
  6
CONTINUOUS
 10
139.4289709136
 20
212.7901934232
 11
139.2883456454
 21
212.8859380927
  0
LINE
  5
347
100
AcDbEntity
  8
_30_VOLUMEN
100
AcDbLine
 62
7
  6
CONTINUOUS
 10
136.1945957795
 20
214.9923210215
 11
135.8430330113
 21
215.2795550298
  0
LINE
  5
348
100
AcDbEntity
  8
_30_VOLUMEN
100
AcDbLine
 62
7
  6
CONTINUOUS
 10
134.5774080113
 20
212.6944487203
 11
134.7883455113
 21
212.5029593646
  0
LINE
  5
349
100
AcDbEntity
  8
_30_VOLUMEN
100
AcDbLine
 62
7
  6
CONTINUOUS
 10
135.7727207795
 20
214.896576352
 11
135.9836582795
 21
214.7050870132
  0
LINE
  5
34A
100
AcDbEntity
  8
_30_VOLUMEN
100
AcDbLine
 62
7
  6
CONTINUOUS
 10
139.0070959136
 20
212.6944487203
 11
139.2180334136
 21
212.5029593646
  0
LINE
  5
34B
100
AcDbEntity
  8
_30_VOLUMEN
100
AcDbLine
 62
7
  6
CONTINUOUS
 10
139.4992831454
 20
214.226363666
 11
139.2883456454
 21
214.4178530048
  0
LINE
  5
34C
100
AcDbEntity
  8
_30_VOLUMEN
100
AcDbLine
 62
7
  6
CONTINUOUS
 10
140.4836584136
 20
213.4604061764
 11
140.6945959136
 21
213.2689168375
  0
LINE
  5
34D
100
AcDbEntity
  8
_30_VOLUMEN
100
AcDbLine
 62
7
  6
CONTINUOUS
 10
133.3820956454
 20
216.4284913313
 11
133.1008457125
 21
216.7157253396
  0
LINE
  5
34E
100
AcDbEntity
  8
_30_VOLUMEN
100
AcDbLine
 62
7
  6
CONTINUOUS
 10
139.0070959136
 20
214.226363666
 11
139.2883456454
 21
213.9391295236
  0
LINE
  5
34F
100
AcDbEntity
  8
_30_VOLUMEN
100
AcDbLine
 62
7
  6
CONTINUOUS
 10
140.9758456454
 20
213.4604061764
 11
140.6945959136
 21
213.7476401847
  0
LINE
  5
350
100
AcDbEntity
  8
_30_VOLUMEN
100
AcDbLine
 62
7
  6
CONTINUOUS
 10
107.4379190937
 20
244.4374045189
 11
107.2246622974
 21
244.6569175108
  0
LINE
  5
351
100
AcDbEntity
  8
_30_VOLUMEN
100
AcDbLine
 62
7
  6
CONTINUOUS
 10
108.9849309326
 20
246.5961820277
 11
109.1297019519
 21
246.4277606967
  0
LINE
  5
352
100
AcDbEntity
  8
_30_VOLUMEN
100
AcDbLine
 62
7
  6
CONTINUOUS
 10
110.4964312337
 20
249.2123470948
 11
110.3145909628
 21
249.4239559067
  0
LINE
  5
353
100
AcDbEntity
  8
_30_VOLUMEN
100
AcDbLine
 62
7
  6
CONTINUOUS
 10
112.141205919
 20
254.5117085024
 11
112.2539456659
 21
254.347020837
  0
LINE
  5
354
100
AcDbEntity
  8
_30_VOLUMEN
100
AcDbLine
 62
7
  6
CONTINUOUS
 10
112.5168569935
 20
254.568059577
 11
112.4041172466
 21
254.7327472425
  0
LINE
  5
355
100
AcDbEntity
  8
_30_VOLUMEN
100
AcDbLine
 62
7
  6
CONTINUOUS
 10
152.3387370888
 20
243.2485803182
 11
152.3938398595
 21
242.915608946
  0
LINE
  5
356
100
AcDbEntity
  8
_30_VOLUMEN
100
AcDbLine
 62
7
  6
CONTINUOUS
 10
152.623434597
 20
241.5282290756
 11
152.6877212328
 21
241.1397620513
  0
LINE
  5
357
100
AcDbEntity
  8
_30_VOLUMEN
100
AcDbLine
 62
7
  6
CONTINUOUS
 10
153.7162793704
 20
243.1344568325
 11
153.8724038172
 21
242.1910383682
  0
LINE
  5
358
100
AcDbEntity
  8
_30_VOLUMEN
100
AcDbLine
 62
7
  6
CONTINUOUS
 10
145.865280288
 20
255.3290157876
 11
145.8308288983
 21
255.5377899209
  0
LINE
  5
359
100
AcDbEntity
  8
_30_VOLUMEN
100
AcDbLine
 62
7
  6
CONTINUOUS
 10
147.9684056609
 20
256.2366023523
 11
148.0028570814
 21
256.0278282514
  0
LINE
  5
35A
100
AcDbEntity
  8
_30_VOLUMEN
100
AcDbLine
 62
7
  6
CONTINUOUS
 10
151.3364450888
 20
250.5263062712
 11
151.3085826672
 21
250.7045602718
  0
LINE
  5
35B
100
AcDbEntity
  8
_30_VOLUMEN
100
AcDbLine
 62
7
  6
CONTINUOUS
 10
152.2801381967
 20
250.6742963992
 11
152.3080006183
 21
250.4960423986
  0
LINE
  5
35C
100
AcDbEntity
  8
_30_VOLUMEN
100
AcDbLine
 62
7
  6
CONTINUOUS
 10
127.5305329666
 20
216.7955126535
 11
127.9992833242
 21
216.9231722128
  0
LINE
  5
35D
100
AcDbEntity
  8
_30_VOLUMEN
100
AcDbLine
 62
7
  6
CONTINUOUS
 10
135.4211580113
 20
215.3752996992
 11
134.9992830113
 21
215.2795550298
  0
LINE
  5
35E
100
AcDbEntity
  8
_30_VOLUMEN
100
AcDbLine
 62
7
  6
CONTINUOUS
 10
128.0930329666
 20
217.561470009
 11
127.4367833242
 21
217.4338104498
  0
LINE
  5
35F
100
AcDbEntity
  8
_30_VOLUMEN
100
AcDbLine
 62
7
  6
CONTINUOUS
 10
140.2727209136
 20
212.6944487203
 11
139.8508459136
 21
212.6944487203
  0
LINE
  5
360
100
AcDbEntity
  8
_30_VOLUMEN
100
AcDbLine
 62
7
  6
CONTINUOUS
 10
139.2180334136
 20
213.0774274316
 11
138.8664706454
 21
213.0774274316
  0
LINE
  5
361
100
AcDbEntity
  8
_30_VOLUMEN
100
AcDbLine
 62
7
  6
CONTINUOUS
 10
136.4758455113
 20
213.2689168375
 11
136.1242831454
 21
213.2689168375
  0
LINE
  5
362
100
AcDbEntity
  8
_30_VOLUMEN
100
AcDbLine
 62
7
  6
CONTINUOUS
 10
124.4367831007
 20
213.7316826951
 11
125.749283056
 21
213.7316826951
  0
LINE
  5
363
100
AcDbEntity
  8
_30_VOLUMEN
100
AcDbLine
 62
7
  6
CONTINUOUS
 10
134.5774080113
 20
213.8433848541
 11
136.4758455113
 21
213.8433848541
  0
LINE
  5
364
100
AcDbEntity
  8
_30_VOLUMEN
100
AcDbLine
 62
7
  6
CONTINUOUS
 10
136.1242831454
 20
214.226363666
 11
134.6477206454
 21
214.226363666
  0
LINE
  5
365
100
AcDbEntity
  8
_30_VOLUMEN
100
AcDbLine
 62
7
  6
CONTINUOUS
 10
131.4836581454
 20
214.3221083354
 11
132.7492831454
 21
214.3221083354
  0
LINE
  5
366
100
AcDbEntity
  8
_30_VOLUMEN
100
AcDbLine
 62
7
  6
CONTINUOUS
 10
125.749283056
 20
214.3699806701
 11
124.4367831007
 21
214.3699806701
  0
LINE
  5
367
100
AcDbEntity
  8
_30_VOLUMEN
100
AcDbLine
 62
7
  6
CONTINUOUS
 10
140.7649081454
 20
214.6093423437
 11
141.1164709136
 21
214.6093423437
  0
LINE
  5
368
100
AcDbEntity
  8
_30_VOLUMEN
100
AcDbLine
 62
7
  6
CONTINUOUS
 10
132.8195955784
 20
214.896576352
 11
131.4836581454
 21
214.896576352
  0
LINE
  5
369
100
AcDbEntity
  8
_30_VOLUMEN
100
AcDbLine
 62
7
  6
CONTINUOUS
 10
139.7102206454
 20
214.9923210215
 11
140.1320956454
 21
214.9923210215
  0
LINE
  5
36A
100
AcDbEntity
  8
_30_VOLUMEN
100
AcDbLine
 62
7
  6
CONTINUOUS
 10
140.1320956454
 20
215.3752996992
 11
139.7102206454
 21
215.3752996992
  0
LINE
  5
36B
100
AcDbEntity
  8
_30_VOLUMEN
100
AcDbLine
 62
7
  6
CONTINUOUS
 10
137.3899081454
 20
215.3752996992
 11
137.0383457795
 21
215.3752996992
  0
LINE
  5
36C
100
AcDbEntity
  8
_30_VOLUMEN
100
AcDbLine
 62
7
  6
CONTINUOUS
 10
126.593033056
 20
216.1572148573
 11
127.0617831454
 21
216.1572148573
  0
LINE
  5
36D
100
AcDbEntity
  8
_30_VOLUMEN
100
AcDbLine
 62
7
  6
CONTINUOUS
 10
131.4836581454
 20
216.3327466618
 11
132.8195955784
 21
216.3327466618
  0
LINE
  5
36E
100
AcDbEntity
  8
_30_VOLUMEN
100
AcDbLine
 62
7
  6
CONTINUOUS
 10
132.7492831454
 20
216.811470009
 11
131.0617831454
 21
216.811470009
  0
LINE
  5
36F
100
AcDbEntity
  8
_30_VOLUMEN
100
AcDbLine
 62
7
  6
CONTINUOUS
 10
127.9992833242
 20
216.9231722128
 11
128.3742829666
 21
216.9231722128
  0
LINE
  5
370
100
AcDbEntity
  8
_30_VOLUMEN
100
AcDbLine
 62
7
  6
CONTINUOUS
 10
128.4680331454
 20
217.561470009
 11
128.0930329666
 21
217.561470009
  0
LINE
  5
371
100
AcDbEntity
  8
_30_VOLUMEN
100
AcDbLine
 62
7
  6
CONTINUOUS
 10
123.6867831454
 20
217.561470009
 11
123.1242831454
 21
217.561470009
  0
LINE
  5
372
100
AcDbEntity
  8
_30_VOLUMEN
100
AcDbLine
 62
7
  6
CONTINUOUS
 10
139.4289709136
 20
212.4072146868
 11
139.8508459136
 21
212.311470009
  0
LINE
  5
373
100
AcDbEntity
  8
_30_VOLUMEN
100
AcDbLine
 62
7
  6
CONTINUOUS
 10
139.8508459136
 20
212.6944487203
 11
139.4289709136
 21
212.7901934232
  0
LINE
  5
374
100
AcDbEntity
  8
_30_VOLUMEN
100
AcDbLine
 62
7
  6
CONTINUOUS
 10
135.3508457795
 20
214.9923210215
 11
135.7727207795
 21
214.896576352
  0
LINE
  5
375
100
AcDbEntity
  8
_30_VOLUMEN
100
AcDbLine
 62
7
  6
CONTINUOUS
 10
135.8430330113
 20
215.2795550298
 11
135.4211580113
 21
215.3752996992
  0
LINE
  5
376
100
AcDbEntity
  8
_30_VOLUMEN
100
AcDbLine
 62
7
  6
CONTINUOUS
 10
129.0305331454
 20
217.4338104498
 11
128.4680331454
 21
217.561470009
  0
LINE
  5
377
100
AcDbEntity
  8
_30_VOLUMEN
100
AcDbLine
 62
7
  6
CONTINUOUS
 10
140.1320956454
 20
214.9923210215
 11
140.5539706454
 21
214.896576352
  0
LINE
  5
378
100
AcDbEntity
  8
_30_VOLUMEN
100
AcDbLine
 62
7
  6
CONTINUOUS
 10
140.5539706454
 20
215.2795550298
 11
140.1320956454
 21
215.3752996992
  0
LINE
  5
379
100
AcDbEntity
  8
_30_VOLUMEN
100
AcDbLine
 62
7
  6
CONTINUOUS
 10
128.3742829666
 20
216.9231722128
 11
128.8430333242
 21
216.7955126535
  0
LINE
  5
37A
100
AcDbEntity
  8
_30_VOLUMEN
100
AcDbLine
 62
7
  6
CONTINUOUS
 10
133.1008457125
 20
216.7157253396
 11
132.7492831454
 21
216.811470009
  0
LINE
  5
37B
100
AcDbEntity
  8
_30_VOLUMEN
100
AcDbLine
 62
7
  6
CONTINUOUS
 10
139.2883456454
 20
213.9391295236
 11
140.4836584136
 21
213.4604061764
  0
LINE
  5
37C
100
AcDbEntity
  8
_30_VOLUMEN
100
AcDbLine
 62
7
  6
CONTINUOUS
 10
140.6945959136
 20
213.7476401847
 11
139.4992831454
 21
214.226363666
  0
LINE
  5
37D
100
AcDbEntity
  8
_30_VOLUMEN
100
AcDbLine
 62
7
  6
CONTINUOUS
 10
139.2180334136
 20
212.5029593646
 11
139.4289709136
 21
212.4072146868
  0
LINE
  5
37E
100
AcDbEntity
  8
_30_VOLUMEN
100
AcDbLine
 62
7
  6
CONTINUOUS
 10
132.8195955784
 20
216.3327466618
 11
133.0305330784
 21
216.2370019924
  0
LINE
  5
37F
100
AcDbEntity
  8
_30_VOLUMEN
100
AcDbLine
 62
7
  6
CONTINUOUS
 10
140.7649081454
 20
215.1838103603
 11
140.5539706454
 21
215.2795550298
  0
LINE
  5
380
100
AcDbEntity
  8
_30_VOLUMEN
100
AcDbLine
 62
7
  6
CONTINUOUS
 10
140.5539706454
 20
214.896576352
 11
140.6945959136
 21
214.8008316826
  0
LINE
  5
381
100
AcDbEntity
  8
_30_VOLUMEN
100
AcDbLine
 62
7
  6
CONTINUOUS
 10
140.9758456454
 20
214.9923210215
 11
140.7649081454
 21
215.1838103603
  0
LINE
  5
382
100
AcDbEntity
  8
_30_VOLUMEN
100
AcDbLine
 62
7
  6
CONTINUOUS
 10
109.3597243308
 20
246.7057767568
 11
109.154559152
 21
246.8948570316
  0
LINE
  5
383
100
AcDbEntity
  8
_30_VOLUMEN
100
AcDbLine
 62
7
  6
CONTINUOUS
 10
145.4855219899
 20
255.3375598435
 11
145.5607608586
 21
255.0900499886
  0
LINE
  5
384
100
AcDbEntity
  8
_30_VOLUMEN
100
AcDbLine
 62
7
  6
CONTINUOUS
 10
148.3481639435
 20
256.2280582801
 11
148.2729252967
 21
256.4755679012
  0
LINE
  5
385
100
AcDbEntity
  8
_30_VOLUMEN
100
AcDbLine
 62
7
  6
CONTINUOUS
 10
149.6989888823
 20
250.0488506129
 11
149.7824247059
 21
249.772781734
  0
LINE
  5
386
100
AcDbEntity
  8
_30_VOLUMEN
100
AcDbLine
 62
7
  6
CONTINUOUS
 10
151.6138802074
 20
245.8510058877
 11
151.7080651653
 21
245.5269141665
  0
LINE
  5
387
100
AcDbEntity
  8
_30_VOLUMEN
100
AcDbLine
 62
7
  6
CONTINUOUS
 10
152.147594729
 20
244.0144869587
 11
152.2417796868
 21
243.6903952376
  0
LINE
  5
388
100
AcDbEntity
  8
_30_VOLUMEN
100
AcDbLine
 62
7
  6
CONTINUOUS
 10
152.5063822062
 20
245.5246069386
 11
152.8203323052
 21
244.4443003772
  0
LINE
  5
389
100
AcDbEntity
  8
_30_VOLUMEN
100
AcDbLine
 62
7
  6
CONTINUOUS
 10
153.0498104334
 20
244.5695670996
 11
152.7672555598
 21
245.5418422631
  0
LINE
  5
38A
100
AcDbEntity
  8
_30_VOLUMEN
100
AcDbLine
 62
7
  6
CONTINUOUS
 10
150.1154127858
 20
249.9619685214
 11
150.0597636607
 21
250.1891299598
  0
LINE
  5
38B
100
AcDbEntity
  8
_30_VOLUMEN
100
AcDbLine
 62
7
  6
CONTINUOUS
 10
150.9478076047
 20
250.564281504
 11
151.0034570478
 21
250.3371195059
  0
LINE
  5
38C
100
AcDbEntity
  8
_30_VOLUMEN
100
AcDbLine
 62
7
  6
CONTINUOUS
 10
151.1701779046
 20
250.0436737598
 11
151.2258267116
 21
249.8165128811
  0
LINE
  5
38D
100
AcDbEntity
  8
_30_VOLUMEN
100
AcDbLine
 62
7
  6
CONTINUOUS
 10
154.2686111472
 20
242.1425762934
 11
154.0941191803
 21
243.1969847918
  0
LINE
  5
38E
100
AcDbEntity
  8
_30_VOLUMEN
100
AcDbLine
 62
7
  6
CONTINUOUS
 10
155.0387188814
 20
243.3533047191
 11
155.2132108483
 21
242.2988962207
  0
LINE
  5
38F
100
AcDbEntity
  8
_30_VOLUMEN
100
AcDbLine
 62
7
  6
CONTINUOUS
 10
155.5188937016
 20
242.4064972353
 11
155.298482619
 21
243.7383827239
  0
LINE
  5
390
100
AcDbEntity
  8
_30_VOLUMEN
100
AcDbLine
 62
7
  6
CONTINUOUS
 10
106.9150353722
 20
244.43687067
 11
107.0900358118
 21
244.3409171941
  0
LINE
  5
391
100
AcDbEntity
  8
_30_VOLUMEN
100
AcDbLine
 62
7
  6
CONTINUOUS
 10
107.2246622974
 20
244.6569175108
 11
107.0496618579
 21
244.7528709866
  0
LINE
  5
392
100
AcDbEntity
  8
_30_VOLUMEN
100
AcDbLine
 62
7
  6
CONTINUOUS
 10
108.7615601818
 20
246.7320401688
 11
108.9849309326
 21
246.5961820277
  0
LINE
  5
393
100
AcDbEntity
  8
_30_VOLUMEN
100
AcDbLine
 62
7
  6
CONTINUOUS
 10
110.3145909628
 20
249.4239559067
 11
110.0509032973
 21
249.6123408121
  0
LINE
  5
394
100
AcDbEntity
  8
_30_VOLUMEN
100
AcDbLine
 62
7
  6
CONTINUOUS
 10
109.9053546208
 20
249.3078382132
 11
110.1114531492
 21
249.1469802409
  0
LINE
  5
395
100
AcDbEntity
  8
_30_VOLUMEN
100
AcDbLine
 62
7
  6
CONTINUOUS
 10
110.3461142973
 20
253.7263021498
 11
112.6697733938
 21
251.8287752323
  0
LINE
  5
396
100
AcDbEntity
  8
_30_VOLUMEN
100
AcDbLine
 62
7
  6
CONTINUOUS
 10
112.8832451721
 20
252.0901868806
 11
111.8450144972
 21
252.9380180686
  0
LINE
  5
397
100
AcDbEntity
  8
_30_VOLUMEN
100
AcDbLine
 62
7
  6
CONTINUOUS
 10
111.548377201
 20
253.1802555185
 11
110.8067838223
 21
253.7858492565
  0
LINE
  5
398
100
AcDbEntity
  8
_30_VOLUMEN
100
AcDbLine
 62
7
  6
CONTINUOUS
 10
112.809074345
 20
255.5379106604
 11
112.98722199
 21
255.3550135304
  0
LINE
  5
399
100
AcDbEntity
  8
_30_VOLUMEN
100
AcDbLine
 62
7
  6
CONTINUOUS
 10
113.1844521132
 20
255.6362265622
 11
113.0953783531
 21
255.7276750632
  0
LINE
  5
39A
100
AcDbEntity
  8
_30_VOLUMEN
100
AcDbLine
 62
7
  6
CONTINUOUS
 10
114.8725953359
 20
255.676649154
 11
115.006205976
 21
255.5394764026
  0
LINE
  5
39B
100
AcDbEntity
  8
_30_VOLUMEN
100
AcDbLine
 62
7
  6
CONTINUOUS
 10
115.2925098593
 20
255.7292409335
 11
115.069825459
 21
255.9578621859
  0
LINE
  5
39C
100
AcDbEntity
  8
_30_VOLUMEN
100
AcDbLine
 62
7
  6
CONTINUOUS
 10
150.9751650763
 20
247.4149899017
 11
151.1071040584
 21
247.1043480581
  0
LINE
  5
39D
100
AcDbEntity
  8
_30_VOLUMEN
100
AcDbLine
 62
7
  6
CONTINUOUS
 10
151.5866017741
 20
249.956791649
 11
151.5031659456
 21
250.2328605251
  0
LINE
  5
39E
100
AcDbEntity
  8
_30_VOLUMEN
100
AcDbLine
 62
7
  6
CONTINUOUS
 10
152.6687750447
 20
250.6363222858
 11
152.5853392162
 21
250.912391162
  0
LINE
  5
39F
100
AcDbEntity
  8
_30_VOLUMEN
100
AcDbLine
 62
7
  6
CONTINUOUS
 10
154.8714353379
 20
245.3918386283
 11
154.7458551546
 21
245.8239617474
  0
LINE
  5
3A0
100
AcDbEntity
  8
_30_VOLUMEN
100
AcDbLine
 62
7
  6
CONTINUOUS
 10
107.2953153863
 20
248.4356587236
 11
110.0020051546
 21
247.14189271
  0
LINE
  5
3A1
100
AcDbEntity
  8
_30_VOLUMEN
100
AcDbLine
 62
7
  6
CONTINUOUS
 10
109.802018968
 20
247.6115569273
 11
107.7863988857
 21
248.5749997235
  0
LINE
  5
3A2
100
AcDbEntity
  8
_30_VOLUMEN
100
AcDbLine
 62
7
  6
CONTINUOUS
 10
109.154559152
 20
246.8948570316
 11
108.8707942838
 21
247.0513741021
  0
LINE
  5
3A3
100
AcDbEntity
  8
_30_VOLUMEN
100
AcDbLine
 62
7
  6
CONTINUOUS
 10
111.9928871324
 20
254.6328273405
 11
112.141205919
 21
254.5117085024
  0
LINE
  5
3A4
100
AcDbEntity
  8
_30_VOLUMEN
100
AcDbLine
 62
7
  6
CONTINUOUS
 10
112.4041172466
 20
254.7327472425
 11
112.2063589106
 21
254.8942389889
  0
LINE
  5
3A5
100
AcDbEntity
  8
_30_VOLUMEN
100
AcDbLine
 62
7
  6
CONTINUOUS
 10
145.9844745309
 20
255.1277894933
 11
145.865280288
 21
255.3290157876
  0
LINE
  5
3A6
100
AcDbEntity
  8
_30_VOLUMEN
100
AcDbLine
 62
7
  6
CONTINUOUS
 10
154.3591358342
 20
241.9865119339
 11
154.2686111472
 21
242.1425762934
  0
LINE
  5
3A7
100
AcDbEntity
  8
_30_VOLUMEN
100
AcDbLine
 62
7
  6
CONTINUOUS
 10
149.7824247059
 20
249.772781734
 11
150.0047196056
 21
249.3815199929
  0
LINE
  5
3A8
100
AcDbEntity
  8
_30_VOLUMEN
100
AcDbLine
 62
7
  6
CONTINUOUS
 10
150.3377076855
 20
249.5707067803
 11
150.1154127858
 21
249.9619685214
  0
LINE
  5
3A9
100
AcDbEntity
  8
_30_VOLUMEN
100
AcDbLine
 62
7
  6
CONTINUOUS
 10
150.2816046087
 20
250.573947058
 11
150.1148837519
 21
250.8673928041
  0
LINE
  5
3AA
100
AcDbEntity
  8
_30_VOLUMEN
100
AcDbLine
 62
7
  6
CONTINUOUS
 10
151.0034570478
 20
250.3371195059
 11
151.1701779046
 21
250.0436737598
  0
LINE
  5
3AB
100
AcDbEntity
  8
_30_VOLUMEN
100
AcDbLine
 62
7
  6
CONTINUOUS
 10
153.0908373374
 20
249.2913945186
 11
153.4426747909
 21
248.463015874
  0
LINE
  5
3AC
100
AcDbEntity
  8
_30_VOLUMEN
100
AcDbLine
 62
7
  6
CONTINUOUS
 10
153.574613773
 20
248.1523740304
 11
153.9264507232
 21
247.3239965709
  0
LINE
  5
3AD
100
AcDbEntity
  8
_30_VOLUMEN
100
AcDbLine
 62
7
  6
CONTINUOUS
 10
154.2202018405
 20
247.4487615509
 11
153.3845884547
 21
249.4161594987
  0
LINE
  5
3AE
100
AcDbEntity
  8
_30_VOLUMEN
100
AcDbLine
 62
7
  6
CONTINUOUS
 10
154.6936831967
 20
241.5287401818
 11
154.9455765797
 21
241.5704255172
  0
LINE
  5
3AF
100
AcDbEntity
  8
_30_VOLUMEN
100
AcDbLine
 62
7
  6
CONTINUOUS
 10
154.8904738091
 20
241.9033968893
 11
154.7015537277
 21
241.8721328805
  0
LINE
  5
3B0
100
AcDbEntity
  8
_30_VOLUMEN
100
AcDbLine
 62
7
  6
CONTINUOUS
 10
152.3938398595
 20
242.915608946
 11
153.7162793704
 21
243.1344568325
  0
LINE
  5
3B1
100
AcDbEntity
  8
_30_VOLUMEN
100
AcDbLine
 62
7
  6
CONTINUOUS
 10
154.0941191803
 20
243.1969847918
 11
155.0387188814
 21
243.3533047191
  0
LINE
  5
3B2
100
AcDbEntity
  8
_30_VOLUMEN
100
AcDbLine
 62
7
  6
CONTINUOUS
 10
105.6687164379
 20
242.924949872
 11
108.5991149733
 21
242.2824824224
  0
LINE
  5
3B3
100
AcDbEntity
  8
_30_VOLUMEN
100
AcDbLine
 62
7
  6
CONTINUOUS
 10
108.6713925614
 20
242.6121522577
 11
107.3620655376
 21
242.899212186
  0
LINE
  5
3B4
100
AcDbEntity
  8
_30_VOLUMEN
100
AcDbLine
 62
7
  6
CONTINUOUS
 10
106.9879721522
 20
242.9812292975
 11
106.0527385139
 21
243.1862721144
  0
LINE
  5
3B5
100
AcDbEntity
  8
_30_VOLUMEN
100
AcDbLine
 62
7
  6
CONTINUOUS
 10
106.7279885048
 20
244.477879264
 11
106.9150353722
 21
244.43687067
  0
LINE
  5
3B6
100
AcDbEntity
  8
_30_VOLUMEN
100
AcDbLine
 62
7
  6
CONTINUOUS
 10
107.0496618579
 20
244.7528709866
 11
106.8002660929
 21
244.8075490992
  0
LINE
  5
3B7
100
AcDbEntity
  8
_30_VOLUMEN
100
AcDbLine
 62
7
  6
CONTINUOUS
 10
106.3431717295
 20
245.7757972471
 11
108.2153896196
 21
245.1353703501
  0
LINE
  5
3B8
100
AcDbEntity
  8
_30_VOLUMEN
100
AcDbLine
 62
7
  6
CONTINUOUS
 10
108.3246237737
 20
245.4547044356
 11
106.4524058836
 21
246.0951313327
  0
LINE
  5
3B9
100
AcDbEntity
  8
_30_VOLUMEN
100
AcDbLine
 62
7
  6
CONTINUOUS
 10
106.8893422917
 20
247.3724670659
 11
108.7615601818
 21
246.7320401688
  0
LINE
  5
3BA
100
AcDbEntity
  8
_30_VOLUMEN
100
AcDbLine
 62
7
  6
CONTINUOUS
 10
108.8707942838
 20
247.0513741021
 11
106.9985763937
 21
247.6918009992
  0
LINE
  5
3BB
100
AcDbEntity
  8
_30_VOLUMEN
100
AcDbLine
 62
7
  6
CONTINUOUS
 10
109.041517483
 20
249.7207422494
 11
109.9053546208
 21
249.3078382132
  0
LINE
  5
3BC
100
AcDbEntity
  8
_30_VOLUMEN
100
AcDbLine
 62
7
  6
CONTINUOUS
 10
110.0509032973
 20
249.6123408121
 11
109.1870661595
 21
250.0252448483
  0
LINE
  5
3BD
100
AcDbEntity
  8
_30_VOLUMEN
100
AcDbLine
 62
7
  6
CONTINUOUS
 10
114.1282117232
 20
254.5060727761
 11
113.9543062751
 21
254.6039970979
  0
LINE
  5
3BE
100
AcDbEntity
  8
_30_VOLUMEN
100
AcDbLine
 62
7
  6
CONTINUOUS
 10
113.3583575613
 20
255.5383022405
 11
113.1844521132
 21
255.6362265622
  0
LINE
  5
3BF
100
AcDbEntity
  8
_30_VOLUMEN
100
AcDbLine
 62
7
  6
CONTINUOUS
 10
114.0582041692
 20
256.7546029969
 11
113.884298721
 21
256.8525273187
  0
LINE
  5
3C0
100
AcDbEntity
  8
_30_VOLUMEN
100
AcDbLine
 62
7
  6
CONTINUOUS
 10
113.7125392719
 20
254.3685083166
 11
113.9309816
 21
254.2248597443
  0
LINE
  5
3C1
100
AcDbEntity
  8
_30_VOLUMEN
100
AcDbLine
 62
7
  6
CONTINUOUS
 10
112.98722199
 20
255.3550135304
 11
113.2056643182
 21
255.2113649581
  0
LINE
  5
3C2
100
AcDbEntity
  8
_30_VOLUMEN
100
AcDbLine
 62
7
  6
CONTINUOUS
 10
117.9058905683
 20
256.8960414128
 11
115.3652408999
 21
258.727734628
  0
LINE
  5
3C3
100
AcDbEntity
  8
_30_VOLUMEN
100
AcDbLine
 62
7
  6
CONTINUOUS
 10
116.9932933943
 20
257.1611148709
 11
117.6381727418
 21
256.6905337113
  0
LINE
  5
3C4
100
AcDbEntity
  8
_30_VOLUMEN
100
AcDbLine
 62
7
  6
CONTINUOUS
 10
115.3422288089
 20
258.3882004043
 11
116.7932066156
 21
257.3293921541
  0
LINE
  5
3C5
100
AcDbEntity
  8
_30_VOLUMEN
100
AcDbLine
 62
7
  6
CONTINUOUS
 10
154.0534531911
 20
241.8789096491
 11
154.2161350449
 21
241.677770964
  0
LINE
  5
3C6
100
AcDbEntity
  8
_30_VOLUMEN
100
AcDbLine
 62
7
  6
CONTINUOUS
 10
149.5803542113
 20
252.0883388834
 11
150.0258942317
 21
251.4389933172
  0
LINE
  5
3C7
100
AcDbEntity
  8
_30_VOLUMEN
100
AcDbLine
 62
7
  6
CONTINUOUS
 10
150.2890537148
 20
251.6195567762
 11
149.8435136944
 21
252.2689023423
  0
LINE
  5
3C8
100
AcDbEntity
  8
_30_VOLUMEN
100
AcDbLine
 62
7
  6
CONTINUOUS
 10
145.5607608586
 20
255.0900499886
 11
145.720742324
 21
254.8500881701
  0
LINE
  5
3C9
100
AcDbEntity
  8
_30_VOLUMEN
100
AcDbLine
 62
7
  6
CONTINUOUS
 10
148.2729252967
 20
256.4755679012
 11
148.112943594
 21
256.7155299374
  0
LINE
  5
3CA
100
AcDbEntity
  8
_30_VOLUMEN
100
AcDbLine
 62
7
  6
CONTINUOUS
 10
147.849211418
 20
256.4378286466
 11
147.9684056609
 21
256.2366023523
  0
LINE
  5
3CB
100
AcDbEntity
  8
_30_VOLUMEN
100
AcDbLine
 62
7
  6
CONTINUOUS
 10
151.5031659456
 20
250.2328605251
 11
151.3364450888
 21
250.5263062712
  0
LINE
  5
3CC
100
AcDbEntity
  8
_30_VOLUMEN
100
AcDbLine
 62
7
  6
CONTINUOUS
 10
152.1693690193
 20
250.2231950153
 11
152.3360898761
 21
249.9297492692
  0
LINE
  5
3CD
100
AcDbEntity
  8
_30_VOLUMEN
100
AcDbLine
 62
7
  6
CONTINUOUS
 10
152.1134173399
 20
250.9677421453
 11
152.2801381967
 21
250.6742963992
  0
LINE
  5
3CE
100
AcDbEntity
  8
_30_VOLUMEN
100
AcDbLine
 62
7
  6
CONTINUOUS
 10
152.5853392162
 20
250.912391162
 11
152.4464053809
 21
251.1569289106
  0
LINE
  5
3CF
100
AcDbEntity
  8
_30_VOLUMEN
100
AcDbLine
 62
7
  6
CONTINUOUS
 10
151.5859212652
 20
251.1209090352
 11
151.7802021446
 21
251.1665950684
  0
LINE
  5
3D0
100
AcDbEntity
  8
_30_VOLUMEN
100
AcDbLine
 62
7
  6
CONTINUOUS
 10
155.298482619
 20
243.7383827239
 11
152.3387370888
 21
243.2485803182
  0
LINE
  5
3D1
100
AcDbEntity
  8
_30_VOLUMEN
100
AcDbLine
 62
7
  6
CONTINUOUS
 10
108.5844058572
 20
245.4252908374
 11
108.3246237737
 21
245.4547044356
  0
LINE
  5
3D2
100
AcDbEntity
  8
_30_VOLUMEN
100
AcDbLine
 62
7
  6
CONTINUOUS
 10
154.4955796368
 20
241.5529705841
 11
154.6936831967
 21
241.5287401818
  0
LINE
  5
3D3
100
AcDbEntity
  8
_30_VOLUMEN
100
AcDbLine
 62
7
  6
CONTINUOUS
 10
154.7015537277
 20
241.8721328805
 11
154.5034501678
 21
241.8963632828
  0
LINE
  5
3D4
100
AcDbEntity
  8
_30_VOLUMEN
100
AcDbLine
 62
7
  6
CONTINUOUS
 10
108.2153896196
 20
245.1353703501
 11
108.5355659245
 21
245.085298127
  0
LINE
  5
3D5
100
AcDbEntity
  8
_30_VOLUMEN
100
AcDbLine
 62
7
  6
CONTINUOUS
 10
108.7869029142
 20
249.7800997425
 11
109.041517483
 21
249.7207422494
  0
LINE
  5
3D6
100
AcDbEntity
  8
_30_VOLUMEN
100
AcDbLine
 62
7
  6
CONTINUOUS
 10
109.1870661595
 20
250.0252448483
 11
108.8748622923
 21
250.1121293518
  0
LINE
  5
3D7
100
AcDbEntity
  8
_30_VOLUMEN
100
AcDbLine
 62
7
  6
CONTINUOUS
 10
115.069825459
 20
255.9578621859
 11
114.8110882605
 21
256.0622623925
  0
LINE
  5
3D8
100
AcDbEntity
  8
_30_VOLUMEN
100
AcDbLine
 62
7
  6
CONTINUOUS
 10
113.6870685979
 20
256.5713142868
 11
113.8164371659
 21
256.5191142155
  0
LINE
  5
3D9
100
AcDbEntity
  8
_30_VOLUMEN
100
AcDbLine
 62
7
  6
CONTINUOUS
 10
111.8089895832
 20
254.710377125
 11
111.9928871324
 21
254.6328273405
  0
LINE
  5
3DA
100
AcDbEntity
  8
_30_VOLUMEN
100
AcDbLine
 62
7
  6
CONTINUOUS
 10
112.2063589106
 20
254.8942389889
 11
112.0224613614
 21
254.9717887734
  0
LINE
  5
3DB
100
AcDbEntity
  8
_30_VOLUMEN
100
AcDbLine
 62
7
  6
CONTINUOUS
 10
154.5034501678
 20
241.8963632828
 11
154.3591358342
 21
241.9865119339
  0
LINE
  5
3DC
100
AcDbEntity
  8
_30_VOLUMEN
100
AcDbLine
 62
7
  6
CONTINUOUS
 10
145.720742324
 20
254.8500881701
 11
146.0470413018
 21
254.5402029001
  0
LINE
  5
3DD
100
AcDbEntity
  8
_30_VOLUMEN
100
AcDbLine
 62
7
  6
CONTINUOUS
 10
146.3107735087
 20
254.8179042233
 11
145.9844745309
 21
255.1277894933
  0
LINE
  5
3DE
100
AcDbEntity
  8
_30_VOLUMEN
100
AcDbLine
 62
7
  6
CONTINUOUS
 10
150.5043525062
 20
249.4066081567
 11
150.3377076855
 21
249.5707067803
  0
LINE
  5
3DF
100
AcDbEntity
  8
_30_VOLUMEN
100
AcDbLine
 62
7
  6
CONTINUOUS
 10
150.0047196056
 20
249.3815199929
 11
150.1991514527
 21
249.1685133746
  0
LINE
  5
3E0
100
AcDbEntity
  8
_30_VOLUMEN
100
AcDbLine
 62
7
  6
CONTINUOUS
 10
147.008241857
 20
253.5895144795
 11
147.2230326414
 21
253.3291855166
  0
LINE
  5
3E1
100
AcDbEntity
  8
_30_VOLUMEN
100
AcDbLine
 62
7
  6
CONTINUOUS
 10
148.2253894988
 20
252.1143171886
 11
148.4401802833
 21
251.8539882257
  0
LINE
  5
3E2
100
AcDbEntity
  8
_30_VOLUMEN
100
AcDbLine
 62
7
  6
CONTINUOUS
 10
150.7542155091
 20
253.7632396428
 11
150.5394247246
 21
254.0235686057
  0
LINE
  5
3E3
100
AcDbEntity
  8
_30_VOLUMEN
100
AcDbLine
 62
7
  6
CONTINUOUS
 10
149.5370678672
 20
255.2384369337
 11
149.3222770828
 21
255.4987658966
  0
LINE
  5
3E4
100
AcDbEntity
  8
0
100
AcDbLine
 62
7
  6
CONTINUOUS
 10
137.0617831454
 20
86.361470009
 11
138.5617831454
 21
87.861470009
  0
LINE
  5
3E5
100
AcDbEntity
  8
_30_VOLUMEN
100
AcDbLine
 62
7
  6
CONTINUOUS
 10
108.8019996459
 20
245.4697588968
 11
108.5844058572
 21
245.4252908374
  0
LINE
  5
3E6
100
AcDbEntity
  8
_30_VOLUMEN
100
AcDbLine
 62
7
  6
CONTINUOUS
 10
148.798450479
 20
253.8268529737
 11
147.008241857
 21
253.5895144795
  0
LINE
  5
3E7
100
AcDbEntity
  8
_30_VOLUMEN
100
AcDbLine
 62
7
  6
CONTINUOUS
 10
109.0568730426
 20
244.3703914313
 11
107.5144318416
 21
244.1902856439
  0
LINE
  5
3E8
100
AcDbEntity
  8
_30_VOLUMEN
100
AcDbLine
 62
7
  6
CONTINUOUS
 10
147.2230326414
 20
253.3291855166
 11
148.6596719404
 21
253.4935766636
  0
LINE
  5
3E9
100
AcDbEntity
  8
_30_VOLUMEN
100
AcDbLine
 62
7
  6
CONTINUOUS
 10
150.5394247246
 20
254.0235686057
 11
149.1027850159
 21
253.8591779552
  0
LINE
  5
3EA
100
AcDbEntity
  8
_30_VOLUMEN
100
AcDbLine
 62
7
  6
CONTINUOUS
 10
149.0132412635
 20
253.5665240108
 11
150.7542155091
 21
253.7632396428
  0
LINE
  5
3EB
100
AcDbEntity
  8
_30_VOLUMEN
100
AcDbLine
 62
7
  6
CONTINUOUS
 10
107.5668520314
 20
243.833276693
 11
108.9725491669
 21
243.9857765187
  0
LINE
  5
3EC
100
AcDbEntity
  8
_30_VOLUMEN
100
AcDbLine
 62
7
  6
CONTINUOUS
 10
150.7544337914
 20
248.9664395376
 11
151.0319999005
 21
248.9947480749
  0
LINE
  5
3ED
100
AcDbEntity
  8
_30_VOLUMEN
100
AcDbLine
 62
7
  6
CONTINUOUS
 10
108.5355659245
 20
245.085298127
 11
108.8135538207
 21
245.1091070903
  0
LINE
  5
3EE
100
AcDbEntity
  8
_30_VOLUMEN
100
AcDbLine
 62
7
  6
CONTINUOUS
 10
108.5656190234
 20
249.7611795593
 11
108.7869029142
 21
249.7800997425
  0
LINE
  5
3EF
100
AcDbEntity
  8
_30_VOLUMEN
100
AcDbLine
 62
7
  6
CONTINUOUS
 10
106.5288955589
 20
244.4639428996
 11
106.7279885048
 21
244.477879264
  0
LINE
  5
3F0
100
AcDbEntity
  8
_30_VOLUMEN
100
AcDbLine
 62
7
  6
CONTINUOUS
 10
106.8002660929
 20
244.8075490992
 11
106.601173147
 21
244.7936127348
  0
LINE
  5
3F1
100
AcDbEntity
  8
_30_VOLUMEN
100
AcDbLine
 62
7
  6
CONTINUOUS
 10
151.7080651653
 20
245.5269141665
 11
152.5063822062
 21
245.5246069386
  0
LINE
  5
3F2
100
AcDbEntity
  8
_30_VOLUMEN
100
AcDbLine
 62
7
  6
CONTINUOUS
 10
152.7672555598
 20
245.5418422631
 11
154.5634695053
 21
245.5366491644
  0
LINE
  5
3F3
100
AcDbEntity
  8
_30_VOLUMEN
100
AcDbLine
 62
7
  6
CONTINUOUS
 10
154.7458551546
 20
245.8239617474
 11
151.6138802074
 21
245.8510058877
  0
LINE
  5
3F4
100
AcDbEntity
  8
_30_VOLUMEN
100
AcDbLine
 62
7
  6
CONTINUOUS
 10
150.9207770506
 20
249.3197249485
 11
150.6987089871
 21
249.3229475609
  0
LINE
  5
3F5
100
AcDbEntity
  8
_30_VOLUMEN
100
AcDbLine
 62
7
  6
CONTINUOUS
 10
108.8748622923
 20
250.1121293518
 11
108.5959894257
 21
250.1207360246
  0
LINE
  5
3F6
100
AcDbEntity
  8
_30_VOLUMEN
100
AcDbLine
 62
7
  6
CONTINUOUS
 10
150.4212949308
 20
249.0359447675
 11
150.7544337914
 21
248.9664395376
  0
LINE
  5
3F7
100
AcDbEntity
  8
_30_VOLUMEN
100
AcDbLine
 62
7
  6
CONTINUOUS
 10
113.884298721
 20
256.8525273187
 11
113.5852676992
 21
256.9176799299
  0
LINE
  5
3F8
100
AcDbEntity
  8
_30_VOLUMEN
100
AcDbLine
 62
7
  6
CONTINUOUS
 10
114.6583950174
 20
255.7353251102
 11
114.8725953359
 21
255.676649154
  0
LINE
  5
3F9
100
AcDbEntity
  8
_30_VOLUMEN
100
AcDbLine
 62
7
  6
CONTINUOUS
 10
113.9309816
 20
254.2248597443
 11
114.2745495487
 21
254.1139828346
  0
LINE
  5
3FA
100
AcDbEntity
  8
_30_VOLUMEN
100
AcDbLine
 62
7
  6
CONTINUOUS
 10
150.6987089871
 20
249.3229475609
 11
150.5043525062
 21
249.4066081567
  0
LINE
  5
3FB
100
AcDbEntity
  8
_30_VOLUMEN
100
AcDbLine
 62
7
  6
CONTINUOUS
 10
154.2161350449
 20
241.677770964
 11
154.4955796368
 21
241.5529705841
  0
LINE
  5
3FC
100
AcDbEntity
  8
_30_VOLUMEN
100
AcDbLine
 62
7
  6
CONTINUOUS
 10
150.1991514527
 20
249.1685133746
 11
150.4212949308
 21
249.0359447675
  0
LINE
  5
3FD
100
AcDbEntity
  8
_30_VOLUMEN
100
AcDbLine
 62
7
  6
CONTINUOUS
 10
142.2355148236
 20
257.5038818214
 11
142.5214841199
 21
257.3246394951
  0
LINE
  5
3FE
100
AcDbEntity
  8
_30_VOLUMEN
100
AcDbLine
 62
7
  6
CONTINUOUS
 10
142.9146965254
 20
257.1015254581
 11
143.1857550757
 21
256.900444598
  0
LINE
  5
3FF
100
AcDbEntity
  8
_30_VOLUMEN
100
AcDbLine
 62
7
  6
CONTINUOUS
 10
144.3151657234
 20
256.0626076647
 11
144.7217535488
 21
255.7609863745
  0
LINE
  5
400
100
AcDbEntity
  8
_30_VOLUMEN
100
AcDbLine
 62
7
  6
CONTINUOUS
 10
151.9745589047
 20
251.0829338908
 11
152.1134173399
 21
250.9677421453
  0
LINE
  5
401
100
AcDbEntity
  8
_30_VOLUMEN
100
AcDbLine
 62
7
  6
CONTINUOUS
 10
147.5229124402
 20
256.7477139165
 11
147.849211418
 21
256.4378286466
  0
LINE
  5
402
100
AcDbEntity
  8
_30_VOLUMEN
100
AcDbLine
 62
7
  6
CONTINUOUS
 10
148.112943594
 20
256.7155299374
 11
147.7866446163
 21
257.0254152073
  0
LINE
  5
403
100
AcDbEntity
  8
_30_VOLUMEN
100
AcDbLine
 62
7
  6
CONTINUOUS
 10
152.4464053809
 20
251.1569289106
 11
152.2797599242
 21
251.3210286536
  0
LINE
  5
404
100
AcDbEntity
  8
_30_VOLUMEN
100
AcDbLine
 62
7
  6
CONTINUOUS
 10
108.5959894257
 20
250.1207360246
 11
108.2686005186
 21
250.0278422182
  0
LINE
  5
405
100
AcDbEntity
  8
_30_VOLUMEN
100
AcDbLine
 62
7
  6
CONTINUOUS
 10
113.5449892257
 20
255.1854598783
 11
113.7952412954
 21
255.2510041976
  0
LINE
  5
406
100
AcDbEntity
  8
_30_VOLUMEN
100
AcDbLine
 62
7
  6
CONTINUOUS
 10
114.471763353
 20
256.0881674724
 11
114.2215112833
 21
256.022623153
  0
LINE
  5
407
100
AcDbEntity
  8
_30_VOLUMEN
100
AcDbLine
 62
7
  6
CONTINUOUS
 10
111.7179672749
 20
255.0025745825
 11
111.4273338366
 21
254.9494185429
  0
LINE
  5
408
100
AcDbEntity
  8
_30_VOLUMEN
100
AcDbLine
 62
7
  6
CONTINUOUS
 10
114.2745495487
 20
254.1139828346
 11
114.6096323959
 21
254.1730504228
  0
LINE
  5
409
100
AcDbEntity
  8
_30_VOLUMEN
100
AcDbLine
 62
7
  6
CONTINUOUS
 10
113.5683148231
 20
255.5645981302
 11
113.3583575613
 21
255.5383022405
  0
LINE
  5
40A
100
AcDbEntity
  8
_30_VOLUMEN
100
AcDbLine
 62
7
  6
CONTINUOUS
 10
114.4484377557
 20
255.7090292204
 11
114.6583950174
 21
255.7353251102
  0
LINE
  5
40B
100
AcDbEntity
  8
_30_VOLUMEN
100
AcDbLine
 62
7
  6
CONTINUOUS
 10
146.5459938428
 20
254.3304325499
 11
146.8849649145
 21
254.3606240142
  0
LINE
  5
40C
100
AcDbEntity
  8
_30_VOLUMEN
100
AcDbLine
 62
7
  6
CONTINUOUS
 10
147.2876920907
 20
257.2351855737
 11
146.9487210344
 21
257.2049941257
  0
LINE
  5
40D
100
AcDbEntity
  8
_30_VOLUMEN
100
AcDbLine
 62
7
  6
CONTINUOUS
 10
113.5852676992
 20
256.9176799299
 11
113.2904787494
 21
256.897859861
  0
LINE
  5
40E
100
AcDbEntity
  8
_30_VOLUMEN
100
AcDbLine
 62
7
  6
CONTINUOUS
 10
111.6389534965
 20
254.703986058
 11
111.8089895832
 21
254.710377125
  0
LINE
  5
40F
100
AcDbEntity
  8
_30_VOLUMEN
100
AcDbLine
 62
7
  6
CONTINUOUS
 10
114.3827058962
 20
254.4866443834
 11
114.1282117232
 21
254.5060727761
  0
LINE
  5
410
100
AcDbEntity
  8
_30_VOLUMEN
100
AcDbLine
 62
7
  6
CONTINUOUS
 10
113.2056643182
 20
255.2113649581
 11
113.5449892257
 21
255.1854598783
  0
LINE
  5
411
100
AcDbEntity
  8
_30_VOLUMEN
100
AcDbLine
 62
7
  6
CONTINUOUS
 10
114.8110882605
 20
256.0622623925
 11
114.471763353
 21
256.0881674724
  0
LINE
  5
412
100
AcDbEntity
  8
_30_VOLUMEN
100
AcDbLine
 62
7
  6
CONTINUOUS
 10
113.5174061441
 20
256.5842668268
 11
113.6870685979
 21
256.5713142868
  0
LINE
  5
413
100
AcDbEntity
  8
_30_VOLUMEN
100
AcDbLine
 62
7
  6
CONTINUOUS
 10
112.0224613614
 20
254.9717887734
 11
111.7179672749
 21
255.0025745825
  0
LINE
  5
414
100
AcDbEntity
  8
_30_VOLUMEN
100
AcDbLine
 62
7
  6
CONTINUOUS
 10
146.7281513789
 20
254.6856051514
 11
146.5178784769
 21
254.709245026
  0
LINE
  5
415
100
AcDbEntity
  8
_30_VOLUMEN
100
AcDbLine
 62
7
  6
CONTINUOUS
 10
147.1055346007
 20
256.8800130209
 11
147.3158074719
 21
256.8563731139
  0
LINE
  5
416
100
AcDbEntity
  8
_30_VOLUMEN
100
AcDbLine
 62
7
  6
CONTINUOUS
 10
152.0576167787
 20
251.4535967093
 11
151.7244773015
 21
251.5231030696
  0
LINE
  5
417
100
AcDbEntity
  8
_30_VOLUMEN
100
AcDbLine
 62
7
  6
CONTINUOUS
 10
146.2949337337
 20
254.392807965
 11
146.5459938428
 21
254.3304325499
  0
LINE
  5
418
100
AcDbEntity
  8
_30_VOLUMEN
100
AcDbLine
 62
7
  6
CONTINUOUS
 10
151.7802021446
 20
251.1665950684
 11
151.9745589047
 21
251.0829338908
  0
LINE
  5
419
100
AcDbEntity
  8
_30_VOLUMEN
100
AcDbLine
 62
7
  6
CONTINUOUS
 10
146.5178784769
 20
254.709245026
 11
146.3107735087
 21
254.8179042233
  0
LINE
  5
41A
100
AcDbEntity
  8
_30_VOLUMEN
100
AcDbLine
 62
7
  6
CONTINUOUS
 10
147.3158074719
 20
256.8563731139
 11
147.5229124402
 21
256.7477139165
  0
LINE
  5
41B
100
AcDbEntity
  8
_30_VOLUMEN
100
AcDbLine
 62
7
  6
CONTINUOUS
 10
146.0470413018
 20
254.5402029001
 11
146.2949337337
 21
254.392807965
  0
LINE
  5
41C
100
AcDbEntity
  8
_30_VOLUMEN
100
AcDbLine
 62
7
  6
CONTINUOUS
 10
147.7866446163
 20
257.0254152073
 11
147.5387524216
 21
257.1728099249
  0
LINE
  5
41D
100
AcDbEntity
  8
_30_VOLUMEN
100
AcDbLine
 62
7
  6
CONTINUOUS
 10
152.2797599242
 20
251.3210286536
 11
152.0576167787
 21
251.4535967093
  0
LINE
  5
41E
100
AcDbEntity
  8
_30_VOLUMEN
100
AcDbLine
 62
7
  6
CONTINUOUS
 10
144.1147492426
 20
259.8665887961
 11
143.8287799462
 21
260.0458311224
  0
LINE
  5
41F
100
AcDbEntity
  8
_30_VOLUMEN
100
AcDbLine
 62
7
  6
CONTINUOUS
 10
146.5091389724
 20
258.1703957103
 11
146.2380804221
 21
258.3714765704
  0
LINE
  5
420
100
AcDbEntity
  8
_30_VOLUMEN
100
AcDbLine
 62
7
  6
CONTINUOUS
 10
145.1086697744
 20
259.2093135037
 11
144.702081949
 21
259.510934794
  0
LINE
  5
421
100
AcDbEntity
  8
_30_VOLUMEN
100
AcDbLine
 62
7
  6
CONTINUOUS
 10
147.5387524216
 20
257.1728099249
 11
147.2876920907
 21
257.2351855737
  0
LINE
  5
422
100
AcDbEntity
  8
0
100
AcDbLine
 62
7
  6
CONTINUOUS
 10
227.4347619313
 20
86.361470009
 11
240.4347619313
 21
86.361470009
  0
LINE
  5
423
100
AcDbEntity
  8
0
100
AcDbLine
 62
7
  6
CONTINUOUS
 10
225.9347619313
 20
87.861470009
 11
241.9347619313
 21
87.861470009
  0
LINE
  5
424
100
AcDbEntity
  8
0
100
AcDbLine
 62
7
  6
CONTINUOUS
 10
225.9347619313
 20
87.861470009
 11
227.4347619313
 21
86.361470009
  0
LWPOLYLINE
  5
425
100
AcDbEntity
  8
_26_BEZUGSACHSEN
100
AcDbPolyline
 62
7
  6
CONTINUOUS
 90
7
 70
0
 10
222.9846924817
 20
222.6797957945
 10
222.9553437176
 20
222.6650510029
 10
222.9264077022
 20
222.6507488054
 10
222.8978369776
 20
222.6368541532
 10
222.8696588324
 20
222.6233693145
 10
222.8418508416
 20
222.6102728013
 10
222.8142902198
 20
222.5974979813
  0
LWPOLYLINE
  5
426
100
AcDbEntity
  8
_26_BEZUGSACHSEN
100
AcDbPolyline
 62
7
  6
CONTINUOUS
 90
8
 70
0
 10
222.8142902198
 20
222.5974979813
 10
222.7869456439
 20
222.5850234846
 10
222.7598518933
 20
222.5728584781
 10
222.7329847671
 20
222.5609854575
 10
222.7063427543
 20
222.5493975161
 10
222.679930299
 20
222.5380904485
 10
222.6537319415
 20
222.5270517755
 10
222.6277496892
 20
222.5162767733
  0
LINE
  5
427
100
AcDbEntity
  8
_30_VOLUMEN
100
AcDbLine
 62
7
  6
CONTINUOUS
 10
210.9095652858
 20
213.0923656641
 11
210.9138782509
 21
213.0973256641
  0
LINE
  5
428
100
AcDbEntity
  8
_30_VOLUMEN
100
AcDbLine
 62
7
  6
CONTINUOUS
 10
210.794377551
 20
213.3130856587
 11
210.7919098869
 21
213.3106056583
  0
LWPOLYLINE
  5
429
100
AcDbEntity
  8
_26_BEZUGSACHSEN
100
AcDbPolyline
 62
7
  6
CONTINUOUS
 90
4
 70
0
 10
224.9758157348
 20
224.5072822775
 10
224.9630792523
 20
224.4865687241
 10
224.920371236
 20
224.4195502581
 10
224.8775724962
 20
224.3546722386
  0
LWPOLYLINE
  5
42A
100
AcDbEntity
  8
_26_BEZUGSACHSEN
100
AcDbPolyline
 62
7
  6
CONTINUOUS
 90
54
 70
0
 10
224.8775724962
 20
224.3546722386
 10
224.8347738073
 20
224.2919180413
 10
224.7920178043
 20
224.2312029059
 10
224.7493383621
 20
224.1724440911
 10
224.7068177818
 20
224.1156348222
 10
224.6645591362
 20
224.0607972594
 10
224.6226092061
 20
224.0078782868
 10
224.5810212416
 20
223.9568305622
 10
224.5399026326
 20
223.9076755427
 10
224.4993432252
 20
223.8604132613
 10
224.4593374941
 20
223.814937159
 10
224.4198421676
 20
223.7711094422
 10
224.3809425209
 20
223.7289420713
 10
224.3426174244
 20
223.6883310994
 10
224.3046515241
 20
223.6489810929
 10
224.2670346274
 20
223.6108274272
 10
224.2298189703
 20
223.5738719328
 10
224.1928715745
 20
223.5379376342
 10
224.1561827719
 20
223.5029775932
 10
224.1197918302
 20
223.4689931827
 10
224.0836338738
 20
223.4358896442
 10
224.0477140835
 20
223.4036408864
 10
224.0120509464
 20
223.3722340316
 10
223.9765962991
 20
223.3415997123
 10
223.9413615968
 20
223.3117233352
 10
223.9063538499
 20
223.2825872719
 10
223.871515699
 20
223.2541225534
 10
223.8368524121
 20
223.2263140993
 10
223.8023734081
 20
223.1991505493
 10
223.7680255614
 20
223.1725730172
 10
223.7338146723
 20
223.1465707779
 10
223.6997464068
 20
223.1211334132
 10
223.6657657037
 20
223.0962067169
 10
223.6318702
 20
223.0717775088
 10
223.5980712205
 20
223.047842649
 10
223.5643329286
 20
223.0243663405
 10
223.5306345691
 20
223.0013252024
 10
223.4970041449
 20
222.978729696
 10
223.4634785889
 20
222.9565951675
 10
223.4300562616
 20
222.9349108205
 10
223.3967458357
 20
222.9136727558
 10
223.3636001012
 20
222.8929043924
 10
223.3306223108
 20
222.8725970046
 10
223.2978161745
 20
222.8527423972
 10
223.2652356148
 20
222.8333622024
 10
223.2328841595
 20
222.8144470152
 10
223.2007650701
 20
222.7959874959
 10
223.1689322742
 20
222.7780029089
 10
223.1373889992
 20
222.760482931
 10
223.1061385626
 20
222.7434175798
 10
223.0752353941
 20
222.7268243563
 10
223.0446831607
 20
222.7106926218
 10
223.0144844691
 20
222.6950114423
 10
222.9846924817
 20
222.6797957945
  0
LINE
  5
42B
100
AcDbEntity
  8
_30_VOLUMEN
100
AcDbLine
 62
7
  6
CONTINUOUS
 10
210.7903511744
 20
215.3987656819
 11
210.7886446392
 21
215.3665255796
  0
LWPOLYLINE
  5
42C
100
AcDbEntity
  8
_26_BEZUGSACHSEN
100
AcDbPolyline
 62
7
  6
CONTINUOUS
 90
4
 70
0
 10
225.0902244406
 20
224.7013445122
 10
225.0480619447
 20
224.6273823122
 10
225.0056448056
 20
224.5557937915
 10
224.985979375
 20
224.5238115745
  0
LINE
  5
42D
100
AcDbEntity
  8
_30_VOLUMEN
100
AcDbLine
 62
7
  6
CONTINUOUS
 10
210.865624508
 20
215.4285257422
 11
210.8650959916
 21
215.4632456647
  0
LINE
  5
42E
100
AcDbEntity
  8
_30_VOLUMEN
100
AcDbLine
 62
7
  6
CONTINUOUS
 10
210.7347633674
 20
217.031470009
 11
210.7347619313
 21
217.0391084466
  0
LINE
  5
42F
100
AcDbEntity
  8
_30_VOLUMEN
100
AcDbLine
 62
7
  6
CONTINUOUS
 10
210.7347633674
 20
211.6582145061
 11
210.7347619313
 21
211.6638096641
  0
LINE
  5
430
100
AcDbEntity
  8
_30_VOLUMEN
100
AcDbLine
 62
7
  6
CONTINUOUS
 10
210.7347619313
 20
217.6138183611
 11
210.7347619313
 21
217.235511745
  0
LINE
  5
431
100
AcDbEntity
  8
_30_VOLUMEN
100
AcDbLine
 62
7
  6
CONTINUOUS
 10
210.7347619313
 20
212.193352955
 11
210.7347619313
 21
212.1189695557
  0
LINE
  5
432
100
AcDbEntity
  8
_30_VOLUMEN
100
AcDbLine
 62
7
  6
CONTINUOUS
 10
210.7357603484
 20
212.4812485783
 11
210.7357603484
 21
213.226303936
  0
LINE
  5
433
100
AcDbEntity
  8
_30_VOLUMEN
100
AcDbLine
 62
7
  6
CONTINUOUS
 10
210.7357603484
 20
213.676303936
 11
210.7357603484
 21
214.4213592937
  0
LINE
  5
434
100
AcDbEntity
  8
_30_VOLUMEN
100
AcDbLine
 62
7
  6
CONTINUOUS
 10
210.7357603484
 20
214.8713592937
 11
210.7357603484
 21
215.6164146513
  0
LINE
  5
435
100
AcDbEntity
  8
_30_VOLUMEN
100
AcDbLine
 62
7
  6
CONTINUOUS
 10
210.7357603484
 20
216.0664146513
 11
210.7357603484
 21
216.811470009
  0
LINE
  5
436
100
AcDbEntity
  8
_30_VOLUMEN
100
AcDbLine
 62
7
  6
CONTINUOUS
 10
210.7886446392
 20
215.3665255796
 11
210.7886446392
 21
215.249965602
  0
LINE
  5
437
100
AcDbEntity
  8
_30_VOLUMEN
100
AcDbLine
 62
7
  6
CONTINUOUS
 10
210.7886446392
 20
213.2634856644
 11
210.7886446392
 21
213.1345256641
  0
LINE
  5
438
100
AcDbEntity
  8
_30_VOLUMEN
100
AcDbLine
 62
7
  6
CONTINUOUS
 10
210.8219370904
 20
214.8606056629
 11
210.8219370904
 21
213.5610856717
  0
LINE
  5
439
100
AcDbEntity
  8
_30_VOLUMEN
100
AcDbLine
 62
7
  6
CONTINUOUS
 10
210.865624508
 20
213.5635656582
 11
210.865624508
 21
215.4285257422
  0
LINE
  5
43A
100
AcDbEntity
  8
_30_VOLUMEN
100
AcDbLine
 62
7
  6
CONTINUOUS
 10
210.9154314797
 20
213.1370056645
 11
210.9154314797
 21
213.2634856644
  0
LINE
  5
43B
100
AcDbEntity
  8
_30_VOLUMEN
100
AcDbLine
 62
7
  6
CONTINUOUS
 10
211.0807636351
 20
216.7255422593
 11
211.0807636351
 21
211.5606261214
  0
LINE
  5
43C
100
AcDbEntity
  8
_30_VOLUMEN
100
AcDbLine
 62
7
  6
CONTINUOUS
 10
211.1639434921
 20
211.1922725268
 11
211.1639454131
 21
217.1422725268
  0
LINE
  5
43D
100
AcDbEntity
  8
_26_BEZUGSACHSEN
100
AcDbLine
 62
7
  6
CONTINUOUS
 10
211.4347619313
 20
218.4350023148
 11
211.4347619313
 21
218.0689747226
  0
LINE
  5
43E
100
AcDbEntity
  8
_26_BEZUGSACHSEN
100
AcDbLine
 62
7
  6
CONTINUOUS
 10
211.4347619313
 20
211.1922725268
 11
211.4347619313
 21
210.9593857707
  0
LINE
  5
43F
100
AcDbEntity
  8
_30_VOLUMEN
100
AcDbLine
 62
7
  6
CONTINUOUS
 10
211.8775616351
 20
217.1422725268
 11
211.877559652
 21
211.1922725268
  0
LINE
  5
440
100
AcDbEntity
  8
_26_BEZUGSACHSEN
100
AcDbLine
 62
7
  6
CONTINUOUS
 10
211.9347619313
 20
206.561470009
 11
211.9347619313
 21
208.561470009
  0
LINE
  5
441
100
AcDbEntity
  8
_30_VOLUMEN
100
AcDbLine
 62
7
  6
CONTINUOUS
 10
210.9138782509
 20
213.0973256641
 11
210.9154314797
 21
213.1370056645
  0
LINE
  5
442
100
AcDbEntity
  8
_26_BEZUGSACHSEN
100
AcDbLine
 62
7
  6
CONTINUOUS
 10
226.8588006963
 20
233.1306724383
 11
225.6494315813
 21
226.2719993633
  0
LWPOLYLINE
  5
443
100
AcDbEntity
  8
_26_BEZUGSACHSEN
100
AcDbPolyline
 62
7
  6
CONTINUOUS
 90
17
 70
0
 10
225.6494383555
 20
226.2720374253
 10
225.6282174926
 20
226.1592467137
 10
225.602907766
 20
226.0402185971
 10
225.575282658
 20
225.9241541579
 10
225.5455548159
 20
225.8112279128
 10
225.513911726
 20
225.7014509633
 10
225.4805678656
 20
225.5948925767
 10
225.4457526096
 20
225.4916429687
 10
225.4096232881
 20
225.3916125325
 10
225.3723643281
 20
225.2948349598
 10
225.3341355302
 20
225.2013011533
 10
225.2949965081
 20
225.1107818672
 10
225.2550993394
 20
225.0232427157
 10
225.214605749
 20
224.9386776922
 10
225.1735521465
 20
224.8568576974
 10
225.1320537394
 20
224.7777544221
 10
225.0902244406
 20
224.7013445122
  0
LINE
  5
444
100
AcDbEntity
  8
0
100
AcDbLine
 62
7
  6
CONTINUOUS
 10
222.9347619313
 20
206.561470009
 11
222.9347619313
 21
206.361470009
  0
LINE
  5
445
100
AcDbEntity
  8
0
100
AcDbLine
 62
7
  6
CONTINUOUS
 10
225.9347619313
 20
206.361470009
 11
225.9347619313
 21
87.861470009
  0
LINE
  5
446
100
AcDbEntity
  8
_30_VOLUMEN
100
AcDbLine
 62
7
  6
CONTINUOUS
 10
226.2347619313
 20
245.0663665737
 11
226.2347619313
 21
254.5136978113
  0
LINE
  5
447
100
AcDbEntity
  8
_30_VOLUMEN
100
AcDbLine
 62
7
  6
CONTINUOUS
 10
226.2347619313
 20
254.5211562101
 11
226.2347619313
 21
262.637600646
  0
LINE
  5
448
100
AcDbEntity
  8
_26_BEZUGSACHSEN
100
AcDbLine
 62
7
  6
CONTINUOUS
 10
226.9347619313
 20
233.9989133266
 11
226.9347619313
 21
268.6182393611
  0
LINE
  5
449
100
AcDbEntity
  8
_30_VOLUMEN
100
AcDbLine
 62
7
  6
CONTINUOUS
 10
240.9347619313
 20
233.9989133266
 11
240.9347619313
 21
268.6182393611
  0
LINE
  5
44A
100
AcDbEntity
  8
_30_VOLUMEN
100
AcDbLine
 62
7
  6
CONTINUOUS
 10
241.6347619313
 20
260.0458311224
 11
241.6347619313
 21
241.1397620513
  0
LINE
  5
44B
100
AcDbEntity
  8
0
100
AcDbLine
 62
7
  6
CONTINUOUS
 10
241.9347619313
 20
206.361470009
 11
241.9347619313
 21
87.861470009
  0
LINE
  5
44C
100
AcDbEntity
  8
0
100
AcDbLine
 62
7
  6
CONTINUOUS
 10
244.9347619313
 20
206.561470009
 11
244.9347619313
 21
206.361470009
  0
LINE
  5
44D
100
AcDbEntity
  8
_30_VOLUMEN
100
AcDbLine
 62
7
  6
CONTINUOUS
 10
241.0107231662
 20
233.1306724383
 11
242.2200922812
 21
226.2719993633
  0
LINE
  5
44E
100
AcDbEntity
  8
_30_VOLUMEN
100
AcDbLine
 62
7
  6
CONTINUOUS
 10
254.9645027761
 20
216.6678530943
 11
254.9645027761
 21
215.6465762626
  0
LINE
  5
44F
100
AcDbEntity
  8
_30_VOLUMEN
100
AcDbLine
 62
7
  6
CONTINUOUS
 10
255.1699589812
 20
215.6465762626
 11
255.1699589812
 21
211.561470009
  0
LINE
  5
450
100
AcDbEntity
  8
_30_VOLUMEN
100
AcDbLine
 62
7
  6
CONTINUOUS
 10
255.7118140734
 20
216.6678530943
 11
255.7118140734
 21
215.6465762626
  0
LINE
  5
451
100
AcDbEntity
  8
_30_VOLUMEN
100
AcDbLine
 62
7
  6
CONTINUOUS
 10
255.910284536
 20
216.540193535
 11
255.910284536
 21
211.561470009
  0
LINE
  5
452
100
AcDbEntity
  8
_30_VOLUMEN
100
AcDbLine
 62
7
  6
CONTINUOUS
 10
255.9347619313
 20
208.561470009
 11
255.9347619313
 21
206.561470009
  0
LINE
  5
453
100
AcDbEntity
  8
_30_VOLUMEN
100
AcDbLine
 62
7
  6
CONTINUOUS
 10
256.0927035099
 20
211.561470009
 11
256.0927035099
 21
217.561470009
  0
LINE
  5
454
100
AcDbEntity
  8
_30_VOLUMEN
100
AcDbLine
 62
7
  6
CONTINUOUS
 10
256.3116333491
 20
214.3699806701
 11
256.3116333491
 21
213.7316826951
  0
LINE
  5
455
100
AcDbEntity
  8
_30_VOLUMEN
100
AcDbLine
 62
7
  6
CONTINUOUS
 10
256.4000128758
 20
215.9018953811
 11
256.4000128758
 21
216.1572148573
  0
LINE
  5
456
100
AcDbEntity
  8
_30_VOLUMEN
100
AcDbLine
 62
7
  6
CONTINUOUS
 10
256.4347619313
 20
210.9593857707
 11
256.4347619313
 21
211.561470009
  0
LINE
  5
457
100
AcDbEntity
  8
_30_VOLUMEN
100
AcDbLine
 62
7
  6
CONTINUOUS
 10
256.4347619313
 20
217.561470009
 11
256.4347619313
 21
218.4350023148
  0
LINE
  5
458
100
AcDbEntity
  8
_30_VOLUMEN
100
AcDbLine
 62
7
  6
CONTINUOUS
 10
256.6301324479
 20
213.7316826951
 11
256.6301324479
 21
214.3699806701
  0
LINE
  5
459
100
AcDbEntity
  8
_30_VOLUMEN
100
AcDbLine
 62
7
  6
CONTINUOUS
 10
256.7763050873
 20
212.1997678947
 11
256.7763050873
 21
211.561470009
  0
LINE
  5
45A
100
AcDbEntity
  8
_30_VOLUMEN
100
AcDbLine
 62
7
  6
CONTINUOUS
 10
257.1010628876
 20
216.1572148573
 11
257.1010628876
 21
215.9018953811
  0
LINE
  5
45B
100
AcDbEntity
  8
_30_VOLUMEN
100
AcDbLine
 62
7
  6
CONTINUOUS
 10
257.1245731368
 20
211.561470009
 11
257.1245731368
 21
212.1997678947
  0
LINE
  5
45C
100
AcDbEntity
  8
_30_VOLUMEN
100
AcDbLine
 62
7
  6
CONTINUOUS
 10
257.1245731368
 20
215.9018953811
 11
257.1245731368
 21
216.1572148573
  0
LINE
  5
45D
100
AcDbEntity
  8
_30_VOLUMEN
100
AcDbLine
 62
7
  6
CONTINUOUS
 10
257.1293733744
 20
216.811470009
 11
257.1293733744
 21
212.311470009
  0
LINE
  5
45E
100
AcDbEntity
  8
0
100
AcDbLine
 62
7
  6
CONTINUOUS
 10
222.9347619313
 20
206.361470009
 11
244.9347619313
 21
206.361470009
  0
LINE
  5
45F
100
AcDbEntity
  8
_30_VOLUMEN
100
AcDbLine
 62
7
  6
CONTINUOUS
 10
211.9347619313
 20
206.561470009
 11
255.9347619313
 21
206.561470009
  0
LINE
  5
460
100
AcDbEntity
  8
_30_VOLUMEN
100
AcDbLine
 62
7
  6
CONTINUOUS
 10
211.877559652
 20
211.1922725268
 11
211.1639434921
 21
211.1922725268
  0
LINE
  5
461
100
AcDbEntity
  8
_30_VOLUMEN
100
AcDbLine
 62
7
  6
CONTINUOUS
 10
255.1699589812
 20
211.561470009
 11
257.1245731368
 21
211.561470009
  0
LINE
  5
462
100
AcDbEntity
  8
_30_VOLUMEN
100
AcDbLine
 62
7
  6
CONTINUOUS
 10
211.0807636351
 20
211.6550098784
 11
211.0247211717
 21
211.6550098784
  0
LINE
  5
463
100
AcDbEntity
  8
_30_VOLUMEN
100
AcDbLine
 62
7
  6
CONTINUOUS
 10
210.9240103975
 20
211.6582145061
 11
210.7347633674
 21
211.6582145061
  0
LWPOLYLINE
  5
464
100
AcDbEntity
  8
_30_VOLUMEN
100
AcDbPolyline
 62
7
  6
CONTINUOUS
 90
4
 70
0
 10
242.9914558997
 20
224.3554108575
 10
242.9486490802
 20
224.4203268639
 10
242.9059429791
 20
224.4873700613
 10
242.8936042558
 20
224.507445238
  0
LWPOLYLINE
  5
465
100
AcDbEntity
  8
_30_VOLUMEN
100
AcDbPolyline
 62
7
  6
CONTINUOUS
 90
4
 70
0
 10
242.8835304051
 20
224.5238354535
 10
242.8633884743
 20
224.5566064958
 10
242.8209892852
 20
224.628195459
 10
242.7788513907
 20
224.7021464017
  0
LINE
  5
466
100
AcDbEntity
  8
_30_VOLUMEN
100
AcDbLine
 62
7
  6
CONTINUOUS
 10
257.1245731368
 20
212.1997678947
 11
256.897064572
 21
212.1997678947
  0
LINE
  5
467
100
AcDbEntity
  8
_30_VOLUMEN
100
AcDbLine
 62
7
  6
CONTINUOUS
 10
256.0927035099
 20
212.1997678947
 11
256.7763050873
 21
212.1997678947
  0
LINE
  5
468
100
AcDbEntity
  8
_30_VOLUMEN
100
AcDbLine
 62
7
  6
CONTINUOUS
 10
256.9099779906
 20
212.311470009
 11
257.1293733744
 21
212.311470009
  0
LINE
  5
469
100
AcDbEntity
  8
_30_VOLUMEN
100
AcDbLine
 62
7
  6
CONTINUOUS
 10
211.0807636351
 20
212.5707752201
 11
210.7815491783
 21
212.5707752201
  0
LINE
  5
46A
100
AcDbEntity
  8
_30_VOLUMEN
100
AcDbLine
 62
7
  6
CONTINUOUS
 10
210.7920844134
 20
213.0923656641
 11
210.9095652858
 21
213.0923656641
  0
LINE
  5
46B
100
AcDbEntity
  8
_30_VOLUMEN
100
AcDbLine
 62
7
  6
CONTINUOUS
 10
211.0807636351
 20
213.0973256641
 11
210.9138782509
 21
213.0973256641
  0
LINE
  5
46C
100
AcDbEntity
  8
_30_VOLUMEN
100
AcDbLine
 62
7
  6
CONTINUOUS
 10
211.0807636351
 20
213.1370056645
 11
210.9154314797
 21
213.1370056645
  0
LINE
  5
46D
100
AcDbEntity
  8
_30_VOLUMEN
100
AcDbLine
 62
7
  6
CONTINUOUS
 10
210.794377551
 20
213.226303936
 11
210.7357603484
 21
213.226303936
  0
LINE
  5
46E
100
AcDbEntity
  8
_30_VOLUMEN
100
AcDbLine
 62
7
  6
CONTINUOUS
 10
211.0807636351
 20
213.3106056583
 11
210.9043995816
 21
213.3106056583
  0
LINE
  5
46F
100
AcDbEntity
  8
_30_VOLUMEN
100
AcDbLine
 62
7
  6
CONTINUOUS
 10
210.8219370904
 20
213.676303936
 11
210.7357603484
 21
213.676303936
  0
LINE
  5
470
100
AcDbEntity
  8
_30_VOLUMEN
100
AcDbLine
 62
7
  6
CONTINUOUS
 10
256.0927035099
 20
213.7316826951
 11
256.6301324479
 21
213.7316826951
  0
LINE
  5
471
100
AcDbEntity
  8
_30_VOLUMEN
100
AcDbLine
 62
7
  6
CONTINUOUS
 10
256.0927035099
 20
214.3699806701
 11
256.6301324479
 21
214.3699806701
  0
LINE
  5
472
100
AcDbEntity
  8
_30_VOLUMEN
100
AcDbLine
 62
7
  6
CONTINUOUS
 10
210.8219370904
 20
214.4213592937
 11
210.7357603484
 21
214.4213592937
  0
LINE
  5
473
100
AcDbEntity
  8
_30_VOLUMEN
100
AcDbLine
 62
7
  6
CONTINUOUS
 10
210.8219370904
 20
214.8713592937
 11
210.7357603484
 21
214.8713592937
  0
LINE
  5
474
100
AcDbEntity
  8
_30_VOLUMEN
100
AcDbLine
 62
7
  6
CONTINUOUS
 10
256.3887948489
 20
215.3912571441
 11
257.0901844984
 21
215.3912571441
  0
LINE
  5
475
100
AcDbEntity
  8
_30_VOLUMEN
100
AcDbLine
 62
7
  6
CONTINUOUS
 10
211.0807636351
 20
215.4285257422
 11
210.865624508
 21
215.4285257422
  0
LINE
  5
476
100
AcDbEntity
  8
_30_VOLUMEN
100
AcDbLine
 62
7
  6
CONTINUOUS
 10
211.0807636351
 20
215.4632456647
 11
210.8650959916
 21
215.4632456647
  0
LINE
  5
477
100
AcDbEntity
  8
_30_VOLUMEN
100
AcDbLine
 62
7
  6
CONTINUOUS
 10
211.0807636351
 20
215.4731656109
 11
210.8598700965
 21
215.4731656109
  0
LINE
  5
478
100
AcDbEntity
  8
_30_VOLUMEN
100
AcDbLine
 62
7
  6
CONTINUOUS
 10
211.0807636351
 20
215.6164146513
 11
210.7357603484
 21
215.6164146513
  0
LINE
  5
479
100
AcDbEntity
  8
_30_VOLUMEN
100
AcDbLine
 62
7
  6
CONTINUOUS
 10
254.9645027761
 20
215.6465762626
 11
255.7118140734
 21
215.6465762626
  0
LINE
  5
47A
100
AcDbEntity
  8
_30_VOLUMEN
100
AcDbLine
 62
7
  6
CONTINUOUS
 10
256.4000128758
 20
215.9018953811
 11
257.1010628876
 21
215.9018953811
  0
LINE
  5
47B
100
AcDbEntity
  8
_30_VOLUMEN
100
AcDbLine
 62
7
  6
CONTINUOUS
 10
211.0807636351
 20
216.0664146513
 11
210.7357603484
 21
216.0664146513
  0
LINE
  5
47C
100
AcDbEntity
  8
_30_VOLUMEN
100
AcDbLine
 62
7
  6
CONTINUOUS
 10
211.0807636351
 20
216.0931656848
 11
210.8390974536
 21
216.0931656848
  0
LINE
  5
47D
100
AcDbEntity
  8
_30_VOLUMEN
100
AcDbLine
 62
7
  6
CONTINUOUS
 10
256.0927035099
 20
216.1572148573
 11
257.1010628876
 21
216.1572148573
  0
LINE
  5
47E
100
AcDbEntity
  8
_30_VOLUMEN
100
AcDbLine
 62
7
  6
CONTINUOUS
 10
256.897064572
 20
216.540193535
 11
257.0901844984
 21
216.540193535
  0
LINE
  5
47F
100
AcDbEntity
  8
_30_VOLUMEN
100
AcDbLine
 62
7
  6
CONTINUOUS
 10
254.9645027761
 20
216.6678530943
 11
255.7118140734
 21
216.6678530943
  0
LINE
  5
480
100
AcDbEntity
  8
_30_VOLUMEN
100
AcDbLine
 62
7
  6
CONTINUOUS
 10
256.0985697199
 20
216.6678530943
 11
256.8088602893
 21
216.6678530943
  0
LINE
  5
481
100
AcDbEntity
  8
_30_VOLUMEN
100
AcDbLine
 62
7
  6
CONTINUOUS
 10
211.0807636351
 20
216.6933256446
 11
210.8390974536
 21
216.6933256446
  0
LINE
  5
482
100
AcDbEntity
  8
_30_VOLUMEN
100
AcDbLine
 62
7
  6
CONTINUOUS
 10
256.9358819552
 20
216.7955126535
 11
257.0710083652
 21
216.7955126535
  0
LINE
  5
483
100
AcDbEntity
  8
_30_VOLUMEN
100
AcDbLine
 62
7
  6
CONTINUOUS
 10
211.0158418364
 20
216.811470009
 11
210.7357603484
 21
216.811470009
  0
LINE
  5
484
100
AcDbEntity
  8
_30_VOLUMEN
100
AcDbLine
 62
7
  6
CONTINUOUS
 10
257.1178009137
 20
216.811470009
 11
257.1293733744
 21
216.811470009
  0
LINE
  5
485
100
AcDbEntity
  8
_30_VOLUMEN
100
AcDbLine
 62
7
  6
CONTINUOUS
 10
256.992810302
 20
216.9231722128
 11
257.0314033098
 21
216.9231722128
  0
LINE
  5
486
100
AcDbEntity
  8
_30_VOLUMEN
100
AcDbLine
 62
7
  6
CONTINUOUS
 10
210.9353820729
 20
217.031470009
 11
210.7347633674
 21
217.031470009
  0
LINE
  5
487
100
AcDbEntity
  8
_30_VOLUMEN
100
AcDbLine
 62
7
  6
CONTINUOUS
 10
211.8775616351
 20
217.1422725268
 11
211.1639454131
 21
217.1422725268
  0
LINE
  5
488
100
AcDbEntity
  8
_30_VOLUMEN
100
AcDbLine
 62
7
  6
CONTINUOUS
 10
256.1608727022
 20
217.1784913313
 11
256.8692338022
 21
217.1784913313
  0
LINE
  5
489
100
AcDbEntity
  8
_30_VOLUMEN
100
AcDbLine
 62
7
  6
CONTINUOUS
 10
256.2166912938
 20
217.4338104498
 11
256.9233324853
 21
217.4338104498
  0
LINE
  5
48A
100
AcDbEntity
  8
_30_VOLUMEN
100
AcDbLine
 62
7
  6
CONTINUOUS
 10
255.1699589812
 20
217.561470009
 11
256.0927035099
 21
217.561470009
  0
LINE
  5
48B
100
AcDbEntity
  8
_30_VOLUMEN
100
AcDbLine
 62
7
  6
CONTINUOUS
 10
256.2989134366
 20
217.561470009
 11
257.0400905577
 21
217.561470009
  0
LINE
  5
48C
100
AcDbEntity
  8
_26_BEZUGSACHSEN
100
AcDbLine
 62
7
  6
CONTINUOUS
 10
221.2480351326
 20
222.1676307748
 11
214.1211783075
 21
221.4185679383
  0
LINE
  5
48D
100
AcDbEntity
  8
_30_VOLUMEN
100
AcDbLine
 62
7
  6
CONTINUOUS
 10
211.4830080776
 20
218.0689747226
 11
210.7815493873
 21
218.0689747226
  0
LINE
  5
48E
100
AcDbEntity
  8
_30_VOLUMEN
100
AcDbLine
 62
7
  6
CONTINUOUS
 10
211.4347619313
 20
218.0793844102
 11
210.7835629098
 21
218.0793844102
  0
LINE
  5
48F
100
AcDbEntity
  8
_30_VOLUMEN
100
AcDbLine
 62
7
  6
CONTINUOUS
 10
246.6214887299
 20
222.1676307748
 11
253.748345555
 21
221.4185679383
  0
LWPOLYLINE
  5
490
100
AcDbEntity
  8
_30_VOLUMEN
100
AcDbPolyline
 62
7
  6
CONTINUOUS
 90
7
 70
0
 10
245.2427784601
 20
222.5158637237
 10
245.2168048092
 20
222.5266285122
 10
245.1906114651
 20
222.5376582775
 10
245.1642004505
 20
222.5489578047
 10
245.1375555638
 20
222.5605399628
 10
245.1106814281
 20
222.572408966
 10
245.0835763753
 20
222.5845718802
  0
LWPOLYLINE
  5
491
100
AcDbEntity
  8
_30_VOLUMEN
100
AcDbPolyline
 62
7
  6
CONTINUOUS
 90
8
 70
0
 10
245.0835763753
 20
222.5845718802
 10
245.0562149725
 20
222.5970468626
 10
245.0286333425
 20
222.6098242512
 10
245.0007988591
 20
222.6229261227
 10
244.9725835614
 20
222.6364217047
 10
244.9439596306
 20
222.6503353842
 10
244.9149598527
 20
222.6646625651
 10
244.8855479121
 20
222.67943293
  0
LWPOLYLINE
  5
492
100
AcDbEntity
  8
_30_VOLUMEN
100
AcDbPolyline
 62
7
  6
CONTINUOUS
 90
54
 70
0
 10
244.8855479121
 20
222.67943293
 10
244.8556964126
 20
222.6946731688
 10
244.8254388014
 20
222.7103795115
 10
244.7948301039
 20
222.7265360151
 10
244.763873248
 20
222.7431534056
 10
244.7325715718
 20
222.7602424575
 10
244.7009803773
 20
222.7777851487
 10
244.6691029664
 20
222.7957914024
 10
244.6369425635
 20
222.8142714733
 10
244.604553974
 20
222.8332055098
 10
244.571940443
 20
222.8526027567
 10
244.5391054781
 20
222.8724725221
 10
244.5061038613
 20
222.8927925297
 10
244.472939269
 20
222.913570849
 10
244.4396149293
 20
222.9348160698
 10
244.4061844906
 20
222.9565040568
 10
244.3726567381
 20
222.9786384419
 10
244.3390298342
 20
223.0012299512
 10
244.3053410902
 20
223.0242627738
 10
244.2716192543
 20
223.0477257
 10
244.2378427126
 20
223.0716424599
 10
244.2039736092
 20
223.0960500737
 10
244.1700234927
 20
223.1209513434
 10
244.1359896812
 20
223.1463594992
 10
244.1018143183
 20
223.172330697
 10
244.0675030343
 20
223.1988753012
 10
244.0330616087
 20
223.2260039683
 10
243.9984341938
 20
223.2537776877
 10
243.9636302315
 20
223.2822078257
 10
243.9286549635
 20
223.3113095155
 10
243.8934482905
 20
223.3411540863
 10
243.8580172574
 20
223.3717592961
 10
243.822373353
 20
223.4031398766
 10
243.786465744
 20
223.4353677729
 10
243.7503129995
 20
223.4684561165
 10
243.7139203879
 20
223.5024312592
 10
243.6772204758
 20
223.5373907818
 10
243.64025306
 20
223.5733333553
 10
243.6030082627
 20
223.6103066751
 10
243.5653495738
 20
223.6484919042
 10
243.5273286495
 20
223.6878887363
 10
243.4889364749
 20
223.728561558
 10
243.4499569531
 20
223.7708076208
 10
243.4103628801
 20
223.8147389546
 10
243.3702466062
 20
223.860337352
 10
243.3295834824
 20
223.9077200862
 10
243.2883726936
 20
223.9569879243
 10
243.2466993475
 20
224.0081461714
 10
243.2046746909
 20
224.0611683028
 10
243.1623525691
 20
224.1161002638
 10
243.1197788437
 20
224.1729955864
 10
243.0770579715
 20
224.2318294017
 10
243.0342727285
 20
224.2926067666
 10
242.9914558997
 20
224.3554108575
  0
LINE
  5
493
100
AcDbEntity
  8
_30_VOLUMEN
100
AcDbLine
 62
7
  6
CONTINUOUS
 10
240.9347619313
 20
241.1397620513
 11
241.6347619313
 21
241.1397620513
  0
LINE
  5
494
100
AcDbEntity
  8
_30_VOLUMEN
100
AcDbLine
 62
7
  6
CONTINUOUS
 10
240.9347619313
 20
241.5282290756
 11
241.6347619313
 21
241.5282290756
  0
LINE
  5
495
100
AcDbEntity
  8
_30_VOLUMEN
100
AcDbLine
 62
7
  6
CONTINUOUS
 10
240.9347619313
 20
242.1910383682
 11
241.6347619313
 21
242.1910383682
  0
LINE
  5
496
100
AcDbEntity
  8
_30_VOLUMEN
100
AcDbLine
 62
7
  6
CONTINUOUS
 10
240.9347619313
 20
242.2824824224
 11
241.6347619313
 21
242.2824824224
  0
LINE
  5
497
100
AcDbEntity
  8
_30_VOLUMEN
100
AcDbLine
 62
7
  6
CONTINUOUS
 10
240.9347619313
 20
242.924949872
 11
241.6347619313
 21
242.924949872
  0
LINE
  5
498
100
AcDbEntity
  8
0
100
AcDbLine
 62
7
  6
CONTINUOUS
 10
241.9347619313
 20
87.861470009
 11
240.4347619313
 21
86.361470009
  0
LINE
  5
499
100
AcDbEntity
  8
_30_VOLUMEN
100
AcDbLine
 62
7
  6
CONTINUOUS
 10
240.9347619313
 20
244.2436292129
 11
241.6347619313
 21
244.2436292129
  0
LINE
  5
49A
100
AcDbEntity
  8
_30_VOLUMEN
100
AcDbLine
 62
7
  6
CONTINUOUS
 10
240.9347619313
 20
244.5046846095
 11
241.6347619313
 21
244.5046846095
  0
LINE
  5
49B
100
AcDbEntity
  8
_30_VOLUMEN
100
AcDbLine
 62
7
  6
CONTINUOUS
 10
240.9347619313
 20
244.6834558915
 11
241.6347619313
 21
244.6834558915
  0
LINE
  5
49C
100
AcDbEntity
  8
_30_VOLUMEN
100
AcDbLine
 62
7
  6
CONTINUOUS
 10
240.9347619313
 20
244.7936127348
 11
241.6347619313
 21
244.7936127348
  0
LINE
  5
49D
100
AcDbEntity
  8
_30_VOLUMEN
100
AcDbLine
 62
7
  6
CONTINUOUS
 10
240.9347619313
 20
244.8075490992
 11
241.6347619313
 21
244.8075490992
  0
LINE
  5
49E
100
AcDbEntity
  8
_30_VOLUMEN
100
AcDbLine
 62
7
  6
CONTINUOUS
 10
226.9347619313
 20
245.0663665737
 11
226.2347619313
 21
245.0663665737
  0
LINE
  5
49F
100
AcDbEntity
  8
_30_VOLUMEN
100
AcDbLine
 62
7
  6
CONTINUOUS
 10
240.9347619313
 20
245.085298127
 11
241.6347619313
 21
245.085298127
  0
LINE
  5
4A0
100
AcDbEntity
  8
_30_VOLUMEN
100
AcDbLine
 62
7
  6
CONTINUOUS
 10
240.9347619313
 20
245.1353703501
 11
241.6347619313
 21
245.1353703501
  0
LINE
  5
4A1
100
AcDbEntity
  8
_30_VOLUMEN
100
AcDbLine
 62
7
  6
CONTINUOUS
 10
226.9347619313
 20
245.1750872095
 11
226.2347619313
 21
245.1750872095
  0
LINE
  5
4A2
100
AcDbEntity
  8
_30_VOLUMEN
100
AcDbLine
 62
7
  6
CONTINUOUS
 10
240.9347619313
 20
245.7757972471
 11
241.6347619313
 21
245.7757972471
  0
LINE
  5
4A3
100
AcDbEntity
  8
_30_VOLUMEN
100
AcDbLine
 62
7
  6
CONTINUOUS
 10
226.9347619313
 20
245.7774511666
 11
226.2347619313
 21
245.7774511666
  0
LINE
  5
4A4
100
AcDbEntity
  8
_30_VOLUMEN
100
AcDbLine
 62
7
  6
CONTINUOUS
 10
226.9347619313
 20
245.8056668541
 11
226.2347619313
 21
245.8056668541
  0
LINE
  5
4A5
100
AcDbEntity
  8
_30_VOLUMEN
100
AcDbLine
 62
7
  6
CONTINUOUS
 10
226.9347619313
 20
245.8491551632
 11
226.2347619313
 21
245.8491551632
  0
LINE
  5
4A6
100
AcDbEntity
  8
_30_VOLUMEN
100
AcDbLine
 62
7
  6
CONTINUOUS
 10
226.9347619313
 20
245.9948924685
 11
226.2347619313
 21
245.9948924685
  0
LINE
  5
4A7
100
AcDbEntity
  8
_30_VOLUMEN
100
AcDbLine
 62
7
  6
CONTINUOUS
 10
240.9347619313
 20
246.0951313327
 11
241.6347619313
 21
246.0951313327
  0
LINE
  5
4A8
100
AcDbEntity
  8
_30_VOLUMEN
100
AcDbLine
 62
7
  6
CONTINUOUS
 10
240.9347619313
 20
246.2267758568
 11
241.6347619313
 21
246.2267758568
  0
LINE
  5
4A9
100
AcDbEntity
  8
_30_VOLUMEN
100
AcDbLine
 62
7
  6
CONTINUOUS
 10
226.9347619313
 20
246.3169162354
 11
226.2347619313
 21
246.3169162354
  0
LINE
  5
4AA
100
AcDbEntity
  8
_30_VOLUMEN
100
AcDbLine
 62
7
  6
CONTINUOUS
 10
240.9347619313
 20
246.4277606967
 11
241.6347619313
 21
246.4277606967
  0
LINE
  5
4AB
100
AcDbEntity
  8
_30_VOLUMEN
100
AcDbLine
 62
7
  6
CONTINUOUS
 10
226.9347619313
 20
246.595451754
 11
226.2347619313
 21
246.595451754
  0
LINE
  5
4AC
100
AcDbEntity
  8
_30_VOLUMEN
100
AcDbLine
 62
7
  6
CONTINUOUS
 10
240.9347619313
 20
246.5961820277
 11
241.6347619313
 21
246.5961820277
  0
LINE
  5
4AD
100
AcDbEntity
  8
_30_VOLUMEN
100
AcDbLine
 62
7
  6
CONTINUOUS
 10
240.9347619313
 20
246.7320401688
 11
241.6347619313
 21
246.7320401688
  0
LINE
  5
4AE
100
AcDbEntity
  8
_30_VOLUMEN
100
AcDbLine
 62
7
  6
CONTINUOUS
 10
226.9347619313
 20
246.9697661113
 11
226.2347619313
 21
246.9697661113
  0
LINE
  5
4AF
100
AcDbEntity
  8
_30_VOLUMEN
100
AcDbLine
 62
7
  6
CONTINUOUS
 10
226.9347619313
 20
247.2048120367
 11
226.2347619313
 21
247.2048120367
  0
LINE
  5
4B0
100
AcDbEntity
  8
_30_VOLUMEN
100
AcDbLine
 62
7
  6
CONTINUOUS
 10
240.9347619313
 20
247.3724670659
 11
241.6347619313
 21
247.3724670659
  0
LINE
  5
4B1
100
AcDbEntity
  8
_30_VOLUMEN
100
AcDbLine
 62
7
  6
CONTINUOUS
 10
226.9347619313
 20
247.5944002996
 11
226.2347619313
 21
247.5944002996
  0
LINE
  5
4B2
100
AcDbEntity
  8
_30_VOLUMEN
100
AcDbLine
 62
7
  6
CONTINUOUS
 10
240.9347619313
 20
247.6918009992
 11
241.6347619313
 21
247.6918009992
  0
LINE
  5
4B3
100
AcDbEntity
  8
_30_VOLUMEN
100
AcDbLine
 62
7
  6
CONTINUOUS
 10
226.9347619313
 20
247.7859593219
 11
226.2347619313
 21
247.7859593219
  0
LINE
  5
4B4
100
AcDbEntity
  8
_30_VOLUMEN
100
AcDbLine
 62
7
  6
CONTINUOUS
 10
226.9347619313
 20
247.9340287509
 11
226.2347619313
 21
247.9340287509
  0
LINE
  5
4B5
100
AcDbEntity
  8
_30_VOLUMEN
100
AcDbLine
 62
7
  6
CONTINUOUS
 10
240.9347619313
 20
248.4356587236
 11
241.6347619313
 21
248.4356587236
  0
LINE
  5
4B6
100
AcDbEntity
  8
_30_VOLUMEN
100
AcDbLine
 62
7
  6
CONTINUOUS
 10
226.9347619313
 20
248.9031829218
 11
226.2347619313
 21
248.9031829218
  0
LINE
  5
4B7
100
AcDbEntity
  8
_30_VOLUMEN
100
AcDbLine
 62
7
  6
CONTINUOUS
 10
226.9347619313
 20
249.2428302021
 11
226.2347619313
 21
249.2428302021
  0
LINE
  5
4B8
100
AcDbEntity
  8
_30_VOLUMEN
100
AcDbLine
 62
7
  6
CONTINUOUS
 10
226.9347619313
 20
249.393091686
 11
226.2347619313
 21
249.393091686
  0
LINE
  5
4B9
100
AcDbEntity
  8
_30_VOLUMEN
100
AcDbLine
 62
7
  6
CONTINUOUS
 10
240.9347619313
 20
249.6536691194
 11
241.6347619313
 21
249.6536691194
  0
LINE
  5
4BA
100
AcDbEntity
  8
_30_VOLUMEN
100
AcDbLine
 62
7
  6
CONTINUOUS
 10
226.9347619313
 20
249.7778885308
 11
226.2347619313
 21
249.7778885308
  0
LINE
  5
4BB
100
AcDbEntity
  8
_30_VOLUMEN
100
AcDbLine
 62
7
  6
CONTINUOUS
 10
226.9347619313
 20
249.829255137
 11
226.2347619313
 21
249.829255137
  0
LINE
  5
4BC
100
AcDbEntity
  8
_30_VOLUMEN
100
AcDbLine
 62
7
  6
CONTINUOUS
 10
241.6347619313
 20
249.8798945456
 11
240.9347619313
 21
249.8798945456
  0
LINE
  5
4BD
100
AcDbEntity
  8
_30_VOLUMEN
100
AcDbLine
 62
7
  6
CONTINUOUS
 10
241.6347619313
 20
250.0278422182
 11
240.9347619313
 21
250.0278422182
  0
LINE
  5
4BE
100
AcDbEntity
  8
_30_VOLUMEN
100
AcDbLine
 62
7
  6
CONTINUOUS
 10
226.9347619313
 20
250.0549973022
 11
226.2347619313
 21
250.0549973022
  0
LINE
  5
4BF
100
AcDbEntity
  8
_30_VOLUMEN
100
AcDbLine
 62
7
  6
CONTINUOUS
 10
241.6347619313
 20
250.1207360246
 11
240.9347619313
 21
250.1207360246
  0
LINE
  5
4C0
100
AcDbEntity
  8
_30_VOLUMEN
100
AcDbLine
 62
7
  6
CONTINUOUS
 10
240.9347619313
 20
250.3879823122
 11
241.6347619313
 21
250.3879823122
  0
LINE
  5
4C1
100
AcDbEntity
  8
_30_VOLUMEN
100
AcDbLine
 62
7
  6
CONTINUOUS
 10
226.9347619313
 20
250.4698900807
 11
226.2347619313
 21
250.4698900807
  0
LINE
  5
4C2
100
AcDbEntity
  8
_30_VOLUMEN
100
AcDbLine
 62
7
  6
CONTINUOUS
 10
226.9347619313
 20
250.5453783293
 11
226.2347619313
 21
250.5453783293
  0
LINE
  5
4C3
100
AcDbEntity
  8
_30_VOLUMEN
100
AcDbLine
 62
7
  6
CONTINUOUS
 10
226.9347619313
 20
250.6885639615
 11
226.2347619313
 21
250.6885639615
  0
LINE
  5
4C4
100
AcDbEntity
  8
_30_VOLUMEN
100
AcDbLine
 62
7
  6
CONTINUOUS
 10
240.9347619313
 20
250.6923608561
 11
241.6347619313
 21
250.6923608561
  0
LINE
  5
4C5
100
AcDbEntity
  8
_30_VOLUMEN
100
AcDbLine
 62
7
  6
CONTINUOUS
 10
240.9347619313
 20
250.8673928041
 11
241.6347619313
 21
250.8673928041
  0
LINE
  5
4C6
100
AcDbEntity
  8
_30_VOLUMEN
100
AcDbLine
 62
7
  6
CONTINUOUS
 10
226.9347619313
 20
250.9710398688
 11
226.2347619313
 21
250.9710398688
  0
LINE
  5
4C7
100
AcDbEntity
  8
_30_VOLUMEN
100
AcDbLine
 62
7
  6
CONTINUOUS
 10
240.9347619313
 20
251.1447294507
 11
241.6347619313
 21
251.1447294507
  0
LINE
  5
4C8
100
AcDbEntity
  8
_30_VOLUMEN
100
AcDbLine
 62
7
  6
CONTINUOUS
 10
226.9347619313
 20
251.269465042
 11
226.2347619313
 21
251.269465042
  0
LINE
  5
4C9
100
AcDbEntity
  8
_30_VOLUMEN
100
AcDbLine
 62
7
  6
CONTINUOUS
 10
240.9347619313
 20
251.3197613987
 11
241.6347619313
 21
251.3197613987
  0
LINE
  5
4CA
100
AcDbEntity
  8
_30_VOLUMEN
100
AcDbLine
 62
7
  6
CONTINUOUS
 10
241.6347619313
 20
251.4389933172
 11
240.9347619313
 21
251.4389933172
  0
LINE
  5
4CB
100
AcDbEntity
  8
_30_VOLUMEN
100
AcDbLine
 62
7
  6
CONTINUOUS
 10
226.9347619313
 20
251.6355864395
 11
226.2347619313
 21
251.6355864395
  0
LINE
  5
4CC
100
AcDbEntity
  8
_30_VOLUMEN
100
AcDbLine
 62
7
  6
CONTINUOUS
 10
226.9347619313
 20
251.6869681305
 11
226.2347619313
 21
251.6869681305
  0
LINE
  5
4CD
100
AcDbEntity
  8
_30_VOLUMEN
100
AcDbLine
 62
7
  6
CONTINUOUS
 10
240.9347619313
 20
251.8287752323
 11
241.6347619313
 21
251.8287752323
  0
LINE
  5
4CE
100
AcDbEntity
  8
_30_VOLUMEN
100
AcDbLine
 62
7
  6
CONTINUOUS
 10
226.9347619313
 20
251.8659501708
 11
226.2347619313
 21
251.8659501708
  0
LINE
  5
4CF
100
AcDbEntity
  8
_30_VOLUMEN
100
AcDbLine
 62
7
  6
CONTINUOUS
 10
226.9347619313
 20
253.6253308444
 11
226.2347619313
 21
253.6253308444
  0
LINE
  5
4D0
100
AcDbEntity
  8
_30_VOLUMEN
100
AcDbLine
 62
7
  6
CONTINUOUS
 10
240.9347619313
 20
253.7263021498
 11
241.6347619313
 21
253.7263021498
  0
LINE
  5
4D1
100
AcDbEntity
  8
_30_VOLUMEN
100
AcDbLine
 62
7
  6
CONTINUOUS
 10
226.9347619313
 20
254.2233985278
 11
226.2347619313
 21
254.2233985278
  0
LINE
  5
4D2
100
AcDbEntity
  8
_30_VOLUMEN
100
AcDbLine
 62
7
  6
CONTINUOUS
 10
226.9347619313
 20
254.5136978113
 11
226.2347619313
 21
254.5136978113
  0
LINE
  5
4D3
100
AcDbEntity
  8
_30_VOLUMEN
100
AcDbLine
 62
7
  6
CONTINUOUS
 10
226.9347619313
 20
254.6478746937
 11
226.2347619313
 21
254.6478746937
  0
LINE
  5
4D4
100
AcDbEntity
  8
_30_VOLUMEN
100
AcDbLine
 62
7
  6
CONTINUOUS
 10
240.9347619313
 20
254.7719487433
 11
241.6347619313
 21
254.7719487433
  0
LINE
  5
4D5
100
AcDbEntity
  8
_30_VOLUMEN
100
AcDbLine
 62
7
  6
CONTINUOUS
 10
240.9347619313
 20
254.9494185429
 11
241.6347619313
 21
254.9494185429
  0
LINE
  5
4D6
100
AcDbEntity
  8
_30_VOLUMEN
100
AcDbLine
 62
7
  6
CONTINUOUS
 10
240.9347619313
 20
255.0025745825
 11
241.6347619313
 21
255.0025745825
  0
LINE
  5
4D7
100
AcDbEntity
  8
_30_VOLUMEN
100
AcDbLine
 62
7
  6
CONTINUOUS
 10
240.9347619313
 20
255.1146138681
 11
241.6347619313
 21
255.1146138681
  0
LINE
  5
4D8
100
AcDbEntity
  8
_30_VOLUMEN
100
AcDbLine
 62
7
  6
CONTINUOUS
 10
240.9347619313
 20
255.1854598783
 11
241.6347619313
 21
255.1854598783
  0
LINE
  5
4D9
100
AcDbEntity
  8
_30_VOLUMEN
100
AcDbLine
 62
7
  6
CONTINUOUS
 10
240.9347619313
 20
255.2113649581
 11
241.6347619313
 21
255.2113649581
  0
LINE
  5
4DA
100
AcDbEntity
  8
_30_VOLUMEN
100
AcDbLine
 62
7
  6
CONTINUOUS
 10
240.9347619313
 20
255.3550135304
 11
241.6347619313
 21
255.3550135304
  0
LINE
  5
4DB
100
AcDbEntity
  8
_30_VOLUMEN
100
AcDbLine
 62
7
  6
CONTINUOUS
 10
240.9347619313
 20
255.5379106604
 11
241.6347619313
 21
255.5379106604
  0
LINE
  5
4DC
100
AcDbEntity
  8
_30_VOLUMEN
100
AcDbLine
 62
7
  6
CONTINUOUS
 10
240.9347619313
 20
255.760056092
 11
241.6347619313
 21
255.760056092
  0
LINE
  5
4DD
100
AcDbEntity
  8
_30_VOLUMEN
100
AcDbLine
 62
7
  6
CONTINUOUS
 10
226.9347619313
 20
255.8613484081
 11
226.2347619313
 21
255.8613484081
  0
LINE
  5
4DE
100
AcDbEntity
  8
_30_VOLUMEN
100
AcDbLine
 62
7
  6
CONTINUOUS
 10
240.9347619313
 20
256.0999450159
 11
241.6347619313
 21
256.0999450159
  0
LINE
  5
4DF
100
AcDbEntity
  8
_30_VOLUMEN
100
AcDbLine
 62
7
  6
CONTINUOUS
 10
226.9347619313
 20
256.1276308695
 11
226.2347619313
 21
256.1276308695
  0
LINE
  5
4E0
100
AcDbEntity
  8
_30_VOLUMEN
100
AcDbLine
 62
7
  6
CONTINUOUS
 10
226.9347619313
 20
256.3154183373
 11
226.2347619313
 21
256.3154183373
  0
LINE
  5
4E1
100
AcDbEntity
  8
_30_VOLUMEN
100
AcDbLine
 62
7
  6
CONTINUOUS
 10
240.9347619313
 20
256.3483863372
 11
241.6347619313
 21
256.3483863372
  0
LINE
  5
4E2
100
AcDbEntity
  8
_30_VOLUMEN
100
AcDbLine
 62
7
  6
CONTINUOUS
 10
240.9347619313
 20
256.5511034081
 11
241.6347619313
 21
256.5511034081
  0
LINE
  5
4E3
100
AcDbEntity
  8
_30_VOLUMEN
100
AcDbLine
 62
7
  6
CONTINUOUS
 10
226.9347619313
 20
256.6441719332
 11
226.2347619313
 21
256.6441719332
  0
LINE
  5
4E4
100
AcDbEntity
  8
_30_VOLUMEN
100
AcDbLine
 62
7
  6
CONTINUOUS
 10
240.9347619313
 20
256.7473437598
 11
241.6347619313
 21
256.7473437598
  0
LINE
  5
4E5
100
AcDbEntity
  8
_30_VOLUMEN
100
AcDbLine
 62
7
  6
CONTINUOUS
 10
240.9347619313
 20
256.897859861
 11
241.6347619313
 21
256.897859861
  0
LINE
  5
4E6
100
AcDbEntity
  8
_30_VOLUMEN
100
AcDbLine
 62
7
  6
CONTINUOUS
 10
226.9347619313
 20
256.910410014
 11
226.2347619313
 21
256.910410014
  0
LINE
  5
4E7
100
AcDbEntity
  8
_30_VOLUMEN
100
AcDbLine
 62
7
  6
CONTINUOUS
 10
240.9347619313
 20
256.9176799299
 11
241.6347619313
 21
256.9176799299
  0
LINE
  5
4E8
100
AcDbEntity
  8
_30_VOLUMEN
100
AcDbLine
 62
7
  6
CONTINUOUS
 10
226.9347619313
 20
257.2532989256
 11
226.2347619313
 21
257.2532989256
  0
LINE
  5
4E9
100
AcDbEntity
  8
_30_VOLUMEN
100
AcDbLine
 62
7
  6
CONTINUOUS
 10
226.9347619313
 20
257.2996381233
 11
226.2347619313
 21
257.2996381233
  0
LINE
  5
4EA
100
AcDbEntity
  8
_30_VOLUMEN
100
AcDbLine
 62
7
  6
CONTINUOUS
 10
226.9347619313
 20
257.4892249347
 11
226.2347619313
 21
257.4892249347
  0
LINE
  5
4EB
100
AcDbEntity
  8
_30_VOLUMEN
100
AcDbLine
 62
7
  6
CONTINUOUS
 10
226.9347619313
 20
257.8058834807
 11
226.2347619313
 21
257.8058834807
  0
LINE
  5
4EC
100
AcDbEntity
  8
_30_VOLUMEN
100
AcDbLine
 62
7
  6
CONTINUOUS
 10
226.9347619313
 20
258.148772831
 11
226.2347619313
 21
258.148772831
  0
LINE
  5
4ED
100
AcDbEntity
  8
_30_VOLUMEN
100
AcDbLine
 62
7
  6
CONTINUOUS
 10
226.9347619313
 20
258.390820812
 11
226.2347619313
 21
258.390820812
  0
LINE
  5
4EE
100
AcDbEntity
  8
_30_VOLUMEN
100
AcDbLine
 62
7
  6
CONTINUOUS
 10
240.9347619313
 20
258.4537246207
 11
241.6347619313
 21
258.4537246207
  0
LINE
  5
4EF
100
AcDbEntity
  8
_30_VOLUMEN
100
AcDbLine
 62
7
  6
CONTINUOUS
 10
226.9347619313
 20
258.5441233509
 11
226.2347619313
 21
258.5441233509
  0
LINE
  5
4F0
100
AcDbEntity
  8
_30_VOLUMEN
100
AcDbLine
 62
7
  6
CONTINUOUS
 10
226.9347619313
 20
258.6853304014
 11
226.2347619313
 21
258.6853304014
  0
LINE
  5
4F1
100
AcDbEntity
  8
_30_VOLUMEN
100
AcDbLine
 62
7
  6
CONTINUOUS
 10
226.9347619313
 20
258.7256969598
 11
226.2347619313
 21
258.7256969598
  0
LINE
  5
4F2
100
AcDbEntity
  8
_30_VOLUMEN
100
AcDbLine
 62
7
  6
CONTINUOUS
 10
240.9347619313
 20
258.727734628
 11
241.6347619313
 21
258.727734628
  0
LINE
  5
4F3
100
AcDbEntity
  8
_30_VOLUMEN
100
AcDbLine
 62
7
  6
CONTINUOUS
 10
226.9347619313
 20
259.5746433773
 11
226.2347619313
 21
259.5746433773
  0
LINE
  5
4F4
100
AcDbEntity
  8
_30_VOLUMEN
100
AcDbLine
 62
7
  6
CONTINUOUS
 10
226.9347619313
 20
259.7770137743
 11
226.2347619313
 21
259.7770137743
  0
LINE
  5
4F5
100
AcDbEntity
  8
_30_VOLUMEN
100
AcDbLine
 62
7
  6
CONTINUOUS
 10
226.9347619313
 20
259.8614942639
 11
226.2347619313
 21
259.8614942639
  0
LINE
  5
4F6
100
AcDbEntity
  8
_30_VOLUMEN
100
AcDbLine
 62
7
  6
CONTINUOUS
 10
241.6347619313
 20
260.0458311224
 11
240.9347619313
 21
260.0458311224
  0
LINE
  5
4F7
100
AcDbEntity
  8
_30_VOLUMEN
100
AcDbLine
 62
7
  6
CONTINUOUS
 10
226.9347619313
 20
260.060253742
 11
226.2347619313
 21
260.060253742
  0
LINE
  5
4F8
100
AcDbEntity
  8
_30_VOLUMEN
100
AcDbLine
 62
7
  6
CONTINUOUS
 10
226.9347619313
 20
260.3732325384
 11
226.2347619313
 21
260.3732325384
  0
LINE
  5
4F9
100
AcDbEntity
  8
_30_VOLUMEN
100
AcDbLine
 62
7
  6
CONTINUOUS
 10
226.9347619313
 20
260.6583310038
 11
226.2347619313
 21
260.6583310038
  0
LINE
  5
4FA
100
AcDbEntity
  8
_30_VOLUMEN
100
AcDbLine
 62
7
  6
CONTINUOUS
 10
226.9347619313
 20
260.85888898
 11
226.2347619313
 21
260.85888898
  0
LINE
  5
4FB
100
AcDbEntity
  8
_30_VOLUMEN
100
AcDbLine
 62
7
  6
CONTINUOUS
 10
226.9347619313
 20
261.0027871275
 11
226.2347619313
 21
261.0027871275
  0
LINE
  5
4FC
100
AcDbEntity
  8
_30_VOLUMEN
100
AcDbLine
 62
7
  6
CONTINUOUS
 10
226.9347619313
 20
261.0612454543
 11
226.2347619313
 21
261.0612454543
  0
LINE
  5
4FD
100
AcDbEntity
  8
_30_VOLUMEN
100
AcDbLine
 62
7
  6
CONTINUOUS
 10
226.9347619313
 20
261.5225022595
 11
226.2347619313
 21
261.5225022595
  0
LINE
  5
4FE
100
AcDbEntity
  8
_30_VOLUMEN
100
AcDbLine
 62
7
  6
CONTINUOUS
 10
226.9347619313
 20
261.8222547273
 11
226.2347619313
 21
261.8222547273
  0
LINE
  5
4FF
100
AcDbEntity
  8
_30_VOLUMEN
100
AcDbLine
 62
7
  6
CONTINUOUS
 10
226.9347619313
 20
262.637600646
 11
226.2347619313
 21
262.637600646
  0
LINE
  5
500
100
AcDbEntity
  8
_26_BEZUGSACHSEN
100
AcDbLine
 62
7
  6
CONTINUOUS
 10
237.9347619313
 20
271.6182393611
 11
229.9347619313
 21
271.6182393611
  0
LINE
  5
501
100
AcDbEntity
  8
_26_BEZUGSACHSEN
100
AcDbLine
 62
7
  6
CONTINUOUS
 10
98.2968047927
 20
33.6721582087
 11
98.2968047927
 21
41.6721582087
  0
LINE
  5
502
100
AcDbEntity
  8
_26_BEZUGSACHSEN
100
AcDbLine
 62
7
  6
CONTINUOUS
 10
101.1132510559
 20
45.247648417
 11
101.1133250805
 21
45.2478221895
  0
LWPOLYLINE
  5
503
100
AcDbEntity
  8
_26_BEZUGSACHSEN
100
AcDbPolyline
 62
7
  6
CONTINUOUS
 90
3
 70
0
 10
101.1132514647
 20
45.247648021
 10
101.1004863158
 20
45.2180713725
 10
101.073557223
 20
45.1586513572
  0
LWPOLYLINE
  5
504
100
AcDbEntity
  8
_30_VOLUMEN
100
AcDbPolyline
 62
7
  6
CONTINUOUS
 90
3
 70
0
 10
101.0680689533
 20
30.197784277
 10
101.1005537256
 20
30.1260908811
 10
101.1132510434
 20
30.0966693853
  0
LINE
  5
505
100
AcDbEntity
  8
_30_VOLUMEN
100
AcDbLine
 62
7
  6
CONTINUOUS
 10
101.1132506347
 20
30.0966689893
 11
101.1136371174
 21
30.095762205
  0
LWPOLYLINE
  5
506
100
AcDbEntity
  8
_30_VOLUMEN
100
AcDbPolyline
 62
7
  6
CONTINUOUS
 90
7
 70
0
 10
101.0226793039
 20
30.2916388584
 10
101.0160374807
 20
30.3010880314
 10
101.0097887381
 20
30.3104445872
 10
101.012482694
 20
30.305955128
 10
101.0235262086
 20
30.2863956241
 10
101.0422274495
 20
30.2507668996
 10
101.0680689533
 20
30.197784277
  0
LINE
  5
507
100
AcDbEntity
  8
_30_VOLUMEN
100
AcDbLine
 62
7
  6
CONTINUOUS
 10
105.6687164379
 20
30.6721582087
 11
105.6687164379
 21
29.9721582087
  0
LINE
  5
508
100
AcDbEntity
  8
_30_VOLUMEN
100
AcDbLine
 62
7
  6
CONTINUOUS
 10
105.9578267902
 20
30.6721582087
 11
105.9578267902
 21
29.9721582087
  0
LINE
  5
509
100
AcDbEntity
  8
_30_VOLUMEN
100
AcDbLine
 62
7
  6
CONTINUOUS
 10
106.0804070227
 20
30.6721582087
 11
106.0804070227
 21
29.9721582087
  0
LINE
  5
50A
100
AcDbEntity
  8
_30_VOLUMEN
100
AcDbLine
 62
7
  6
CONTINUOUS
 10
106.3156387626
 20
30.6721582087
 11
106.3156387626
 21
29.9721582087
  0
LINE
  5
50B
100
AcDbEntity
  8
_30_VOLUMEN
100
AcDbLine
 62
7
  6
CONTINUOUS
 10
106.3431717295
 20
30.6721582087
 11
106.3431717295
 21
29.9721582087
  0
LINE
  5
50C
100
AcDbEntity
  8
_30_VOLUMEN
100
AcDbLine
 62
7
  6
CONTINUOUS
 10
106.4524058836
 20
30.6721582087
 11
106.4524058836
 21
29.9721582087
  0
LINE
  5
50D
100
AcDbEntity
  8
_30_VOLUMEN
100
AcDbLine
 62
7
  6
CONTINUOUS
 10
106.7374553077
 20
44.6721582087
 11
106.7374553077
 21
45.3721582087
  0
LINE
  5
50E
100
AcDbEntity
  8
_30_VOLUMEN
100
AcDbLine
 62
7
  6
CONTINUOUS
 10
106.8051901046
 20
44.6721582087
 11
106.8051901046
 21
45.3721582087
  0
LINE
  5
50F
100
AcDbEntity
  8
_30_VOLUMEN
100
AcDbLine
 62
7
  6
CONTINUOUS
 10
106.8893422917
 20
30.6721582087
 11
106.8893422917
 21
29.9721582087
  0
LINE
  5
510
100
AcDbEntity
  8
_30_VOLUMEN
100
AcDbLine
 62
7
  6
CONTINUOUS
 10
106.8903542759
 20
44.6721582087
 11
106.8903542759
 21
45.3721582087
  0
LINE
  5
511
100
AcDbEntity
  8
_30_VOLUMEN
100
AcDbLine
 62
7
  6
CONTINUOUS
 10
106.9985763937
 20
30.6721582087
 11
106.9985763937
 21
29.9721582087
  0
LWPOLYLINE
  5
512
100
AcDbEntity
  8
_26_BEZUGSACHSEN
100
AcDbPolyline
 62
7
  6
CONTINUOUS
 90
6
 70
0
 10
101.3523811539
 20
45.3799558107
 10
101.1572951698
 20
45.2270095232
 10
100.9277640123
 20
45.039635345
 10
100.7073535245
 20
44.851312434
 10
100.4959090017
 20
44.6619746203
 10
100.3366723177
 20
44.5123296315
  0
LINE
  5
513
100
AcDbEntity
  8
_26_BEZUGSACHSEN
100
AcDbLine
 62
7
  6
CONTINUOUS
 10
101.3514403741
 20
45.3792310099
 11
101.3523811539
 21
45.3799558107
  0
LINE
  5
514
100
AcDbEntity
  8
_30_VOLUMEN
100
AcDbLine
 62
7
  6
CONTINUOUS
 10
101.3514793263
 20
29.965055385
 11
101.3523811539
 21
29.9643606067
  0
LWPOLYLINE
  5
515
100
AcDbEntity
  8
_30_VOLUMEN
100
AcDbPolyline
 62
7
  6
CONTINUOUS
 90
6
 70
0
 10
100.3366723177
 20
30.8319867859
 10
100.4959090017
 20
30.6823417971
 10
100.7073535245
 20
30.4930039834
 10
100.9277640123
 20
30.3046810724
 10
101.1572951698
 20
30.1173068942
 10
101.3523811539
 20
29.9643606067
  0
LINE
  5
516
100
AcDbEntity
  8
_30_VOLUMEN
100
AcDbLine
 62
7
  6
CONTINUOUS
 10
107.0994042542
 20
44.6721582087
 11
107.0994042542
 21
45.3721582087
  0
LINE
  5
517
100
AcDbEntity
  8
_30_VOLUMEN
100
AcDbLine
 62
7
  6
CONTINUOUS
 10
107.2953153863
 20
30.6721582087
 11
107.2953153863
 21
29.9721582087
  0
LINE
  5
518
100
AcDbEntity
  8
_30_VOLUMEN
100
AcDbLine
 62
7
  6
CONTINUOUS
 10
107.3045928077
 20
44.6721582087
 11
107.3045928077
 21
45.3721582087
  0
LINE
  5
519
100
AcDbEntity
  8
_30_VOLUMEN
100
AcDbLine
 62
7
  6
CONTINUOUS
 10
107.5785370947
 20
44.6721582087
 11
107.5785370947
 21
45.3721582087
  0
LINE
  5
51A
100
AcDbEntity
  8
_30_VOLUMEN
100
AcDbLine
 62
7
  6
CONTINUOUS
 10
107.7374859071
 20
44.6721582087
 11
107.7374859071
 21
45.3721582087
  0
LINE
  5
51B
100
AcDbEntity
  8
_30_VOLUMEN
100
AcDbLine
 62
7
  6
CONTINUOUS
 10
107.8775100924
 20
30.6721582087
 11
107.8775100924
 21
29.9721582087
  0
LINE
  5
51C
100
AcDbEntity
  8
_30_VOLUMEN
100
AcDbLine
 62
7
  6
CONTINUOUS
 10
108.0563898858
 20
29.9721582087
 11
108.0563898858
 21
30.6721582087
  0
LINE
  5
51D
100
AcDbEntity
  8
_30_VOLUMEN
100
AcDbLine
 62
7
  6
CONTINUOUS
 10
108.2686005186
 20
29.9721582087
 11
108.2686005186
 21
30.6721582087
  0
LINE
  5
51E
100
AcDbEntity
  8
_30_VOLUMEN
100
AcDbLine
 62
7
  6
CONTINUOUS
 10
108.3011207925
 20
44.6721582087
 11
108.3011207925
 21
45.3721582087
  0
LINE
  5
51F
100
AcDbEntity
  8
_30_VOLUMEN
100
AcDbLine
 62
7
  6
CONTINUOUS
 10
108.5959894257
 20
29.9721582087
 11
108.5959894257
 21
30.6721582087
  0
LINE
  5
520
100
AcDbEntity
  8
_30_VOLUMEN
100
AcDbLine
 62
7
  6
CONTINUOUS
 10
108.7636193236
 20
44.6721582087
 11
108.7636193236
 21
45.3721582087
  0
LINE
  5
521
100
AcDbEntity
  8
_30_VOLUMEN
100
AcDbLine
 62
7
  6
CONTINUOUS
 10
108.852943888
 20
44.6721582087
 11
108.852943888
 21
45.3721582087
  0
LINE
  5
522
100
AcDbEntity
  8
_30_VOLUMEN
100
AcDbLine
 62
7
  6
CONTINUOUS
 10
108.8748622923
 20
29.9721582087
 11
108.8748622923
 21
30.6721582087
  0
LINE
  5
523
100
AcDbEntity
  8
_30_VOLUMEN
100
AcDbLine
 62
7
  6
CONTINUOUS
 10
109.136778928
 20
44.6721582087
 11
109.136778928
 21
45.3721582087
  0
LINE
  5
524
100
AcDbEntity
  8
_30_VOLUMEN
100
AcDbLine
 62
7
  6
CONTINUOUS
 10
109.1870661595
 20
29.9721582087
 11
109.1870661595
 21
30.6721582087
  0
LINE
  5
525
100
AcDbEntity
  8
_30_VOLUMEN
100
AcDbLine
 62
7
  6
CONTINUOUS
 10
110.0509032973
 20
29.9721582087
 11
110.0509032973
 21
30.6721582087
  0
LINE
  5
526
100
AcDbEntity
  8
_30_VOLUMEN
100
AcDbLine
 62
7
  6
CONTINUOUS
 10
110.3145909628
 20
29.9721582087
 11
110.3145909628
 21
30.6721582087
  0
LINE
  5
527
100
AcDbEntity
  8
_30_VOLUMEN
100
AcDbLine
 62
7
  6
CONTINUOUS
 10
110.3285006205
 20
44.6721582087
 11
110.3285006205
 21
45.3721582087
  0
LINE
  5
528
100
AcDbEntity
  8
_30_VOLUMEN
100
AcDbLine
 62
7
  6
CONTINUOUS
 10
110.3461142973
 20
30.6721582087
 11
110.3461142973
 21
29.9721582087
  0
LINE
  5
529
100
AcDbEntity
  8
_30_VOLUMEN
100
AcDbLine
 62
7
  6
CONTINUOUS
 10
110.8162869482
 20
44.6721582087
 11
110.8162869482
 21
45.3721582087
  0
LINE
  5
52A
100
AcDbEntity
  8
_30_VOLUMEN
100
AcDbLine
 62
7
  6
CONTINUOUS
 10
111.0536712905
 20
44.6721582087
 11
111.0536712905
 21
45.3721582087
  0
LINE
  5
52B
100
AcDbEntity
  8
_30_VOLUMEN
100
AcDbLine
 62
7
  6
CONTINUOUS
 10
111.2000014102
 20
30.6721582087
 11
111.2000014102
 21
29.9721582087
  0
LINE
  5
52C
100
AcDbEntity
  8
_30_VOLUMEN
100
AcDbLine
 62
7
  6
CONTINUOUS
 10
111.4273338366
 20
30.6721582087
 11
111.4273338366
 21
29.9721582087
  0
LINE
  5
52D
100
AcDbEntity
  8
_30_VOLUMEN
100
AcDbLine
 62
7
  6
CONTINUOUS
 10
111.6369440996
 20
44.6721582087
 11
111.6369440996
 21
45.3721582087
  0
LINE
  5
52E
100
AcDbEntity
  8
_30_VOLUMEN
100
AcDbLine
 62
7
  6
CONTINUOUS
 10
111.7179672749
 20
30.6721582087
 11
111.7179672749
 21
29.9721582087
  0
LINE
  5
52F
100
AcDbEntity
  8
_30_VOLUMEN
100
AcDbLine
 62
7
  6
CONTINUOUS
 10
112.0224613614
 20
30.6721582087
 11
112.0224613614
 21
29.9721582087
  0
LINE
  5
530
100
AcDbEntity
  8
_30_VOLUMEN
100
AcDbLine
 62
7
  6
CONTINUOUS
 10
112.032245343
 20
44.6721582087
 11
112.032245343
 21
45.3721582087
  0
LINE
  5
531
100
AcDbEntity
  8
_30_VOLUMEN
100
AcDbLine
 62
7
  6
CONTINUOUS
 10
112.2063589106
 20
30.6721582087
 11
112.2063589106
 21
29.9721582087
  0
LINE
  5
532
100
AcDbEntity
  8
_30_VOLUMEN
100
AcDbLine
 62
7
  6
CONTINUOUS
 10
112.2275301602
 20
44.6721582087
 11
112.2275301602
 21
45.3721582087
  0
LINE
  5
533
100
AcDbEntity
  8
_26_BEZUGSACHSEN
100
AcDbLine
 62
7
  6
CONTINUOUS
 10
102.605430791
 20
46.7908959018
 11
110.062770941
 21
50.2683107232
  0
LINE
  5
534
100
AcDbEntity
  8
_30_VOLUMEN
100
AcDbLine
 62
7
  6
CONTINUOUS
 10
102.605430791
 20
28.5534205156
 11
110.062770941
 21
25.0760056942
  0
LINE
  5
535
100
AcDbEntity
  8
_30_VOLUMEN
100
AcDbLine
 62
7
  6
CONTINUOUS
 10
112.4041172466
 20
30.6721582087
 11
112.4041172466
 21
29.9721582087
  0
LINE
  5
536
100
AcDbEntity
  8
_30_VOLUMEN
100
AcDbLine
 62
7
  6
CONTINUOUS
 10
112.4915730558
 20
44.6721582087
 11
112.4915730558
 21
45.3721582087
  0
LINE
  5
537
100
AcDbEntity
  8
_30_VOLUMEN
100
AcDbLine
 62
7
  6
CONTINUOUS
 10
112.5168569935
 20
30.6721582087
 11
112.5168569935
 21
29.9721582087
  0
LINE
  5
538
100
AcDbEntity
  8
_30_VOLUMEN
100
AcDbLine
 62
7
  6
CONTINUOUS
 10
112.6078793018
 20
30.6721582087
 11
112.6078793018
 21
29.9721582087
  0
LINE
  5
539
100
AcDbEntity
  8
_30_VOLUMEN
100
AcDbLine
 62
7
  6
CONTINUOUS
 10
112.6138831596
 20
30.6721582087
 11
112.6138831596
 21
29.9721582087
  0
LINE
  5
53A
100
AcDbEntity
  8
_30_VOLUMEN
100
AcDbLine
 62
7
  6
CONTINUOUS
 10
112.6542514999
 20
30.6721582087
 11
112.6542514999
 21
29.9721582087
  0
LINE
  5
53B
100
AcDbEntity
  8
_30_VOLUMEN
100
AcDbLine
 62
7
  6
CONTINUOUS
 10
112.7263560493
 20
30.6721582087
 11
112.7263560493
 21
29.9721582087
  0
LINE
  5
53C
100
AcDbEntity
  8
_30_VOLUMEN
100
AcDbLine
 62
7
  6
CONTINUOUS
 10
112.8429974789
 20
30.6721582087
 11
112.8429974789
 21
29.9721582087
  0
LINE
  5
53D
100
AcDbEntity
  8
_30_VOLUMEN
100
AcDbLine
 62
7
  6
CONTINUOUS
 10
113.0444696741
 20
30.6721582087
 11
113.0444696741
 21
29.9721582087
  0
LINE
  5
53E
100
AcDbEntity
  8
_30_VOLUMEN
100
AcDbLine
 62
7
  6
CONTINUOUS
 10
113.2904787494
 20
30.6721582087
 11
113.2904787494
 21
29.9721582087
  0
LINE
  5
53F
100
AcDbEntity
  8
_30_VOLUMEN
100
AcDbLine
 62
7
  6
CONTINUOUS
 10
113.5852676992
 20
30.6721582087
 11
113.5852676992
 21
29.9721582087
  0
LINE
  5
540
100
AcDbEntity
  8
_30_VOLUMEN
100
AcDbLine
 62
7
  6
CONTINUOUS
 10
113.884298721
 20
30.6721582087
 11
113.884298721
 21
29.9721582087
  0
LINE
  5
541
100
AcDbEntity
  8
_30_VOLUMEN
100
AcDbLine
 62
7
  6
CONTINUOUS
 10
114.0582041692
 20
30.6721582087
 11
114.0582041692
 21
29.9721582087
  0
LINE
  5
542
100
AcDbEntity
  8
_30_VOLUMEN
100
AcDbLine
 62
7
  6
CONTINUOUS
 10
114.2215112833
 20
30.6721582087
 11
114.2215112833
 21
29.9721582087
  0
LINE
  5
543
100
AcDbEntity
  8
_30_VOLUMEN
100
AcDbLine
 62
7
  6
CONTINUOUS
 10
114.471763353
 20
30.6721582087
 11
114.471763353
 21
29.9721582087
  0
LINE
  5
544
100
AcDbEntity
  8
_30_VOLUMEN
100
AcDbLine
 62
7
  6
CONTINUOUS
 10
114.6730401363
 20
44.6721582087
 11
114.6730401363
 21
45.3721582087
  0
LINE
  5
545
100
AcDbEntity
  8
_30_VOLUMEN
100
AcDbLine
 62
7
  6
CONTINUOUS
 10
114.8024675654
 20
44.6721582087
 11
114.8024675654
 21
45.3721582087
  0
LINE
  5
546
100
AcDbEntity
  8
_30_VOLUMEN
100
AcDbLine
 62
7
  6
CONTINUOUS
 10
114.8110882605
 20
30.6721582087
 11
114.8110882605
 21
29.9721582087
  0
LINE
  5
547
100
AcDbEntity
  8
_30_VOLUMEN
100
AcDbLine
 62
7
  6
CONTINUOUS
 10
115.0082841382
 20
30.6721582087
 11
115.0082841382
 21
29.9721582087
  0
LINE
  5
548
100
AcDbEntity
  8
_30_VOLUMEN
100
AcDbLine
 62
7
  6
CONTINUOUS
 10
115.0101764184
 20
44.6721582087
 11
115.0101764184
 21
45.3721582087
  0
LINE
  5
549
100
AcDbEntity
  8
_30_VOLUMEN
100
AcDbLine
 62
7
  6
CONTINUOUS
 10
115.2076569744
 20
44.6721582087
 11
115.2076569744
 21
45.3721582087
  0
LINE
  5
54A
100
AcDbEntity
  8
_30_VOLUMEN
100
AcDbLine
 62
7
  6
CONTINUOUS
 10
115.3652408999
 20
30.6721582087
 11
115.3652408999
 21
29.9721582087
  0
LINE
  5
54B
100
AcDbEntity
  8
_30_VOLUMEN
100
AcDbLine
 62
7
  6
CONTINUOUS
 10
115.4936478163
 20
44.6721582087
 11
115.4936478163
 21
45.3721582087
  0
LINE
  5
54C
100
AcDbEntity
  8
_30_VOLUMEN
100
AcDbLine
 62
7
  6
CONTINUOUS
 10
115.8579212121
 20
44.6721582087
 11
115.8579212121
 21
45.3721582087
  0
LINE
  5
54D
100
AcDbEntity
  8
_30_VOLUMEN
100
AcDbLine
 62
7
  6
CONTINUOUS
 10
116.1625953243
 20
44.6721582087
 11
116.1625953243
 21
45.3721582087
  0
LINE
  5
54E
100
AcDbEntity
  8
_30_VOLUMEN
100
AcDbLine
 62
7
  6
CONTINUOUS
 10
116.4570406842
 20
44.6721582087
 11
116.4570406842
 21
45.3721582087
  0
LINE
  5
54F
100
AcDbEntity
  8
_30_VOLUMEN
100
AcDbLine
 62
7
  6
CONTINUOUS
 10
116.6467851268
 20
44.6721582087
 11
116.6467851268
 21
45.3721582087
  0
LINE
  5
550
100
AcDbEntity
  8
_30_VOLUMEN
100
AcDbLine
 62
7
  6
CONTINUOUS
 10
116.9624926218
 20
44.6721582087
 11
116.9624926218
 21
45.3721582087
  0
LINE
  5
551
100
AcDbEntity
  8
_30_VOLUMEN
100
AcDbLine
 62
7
  6
CONTINUOUS
 10
117.5193219622
 20
44.6721582087
 11
117.5193219622
 21
45.3721582087
  0
LINE
  5
552
100
AcDbEntity
  8
_30_VOLUMEN
100
AcDbLine
 62
7
  6
CONTINUOUS
 10
117.7948902259
 20
44.6721582087
 11
117.7948902259
 21
45.3721582087
  0
LINE
  5
553
100
AcDbEntity
  8
_30_VOLUMEN
100
AcDbLine
 62
7
  6
CONTINUOUS
 10
117.9058905683
 20
30.6721582087
 11
117.9058905683
 21
29.9721582087
  0
LINE
  5
554
100
AcDbEntity
  8
_30_VOLUMEN
100
AcDbLine
 62
7
  6
CONTINUOUS
 10
118.388526732
 20
44.6721582087
 11
118.388526732
 21
45.3721582087
  0
LINE
  5
555
100
AcDbEntity
  8
_30_VOLUMEN
100
AcDbLine
 62
7
  6
CONTINUOUS
 10
118.4373977382
 20
44.6721582087
 11
118.4373977382
 21
45.3721582087
  0
LINE
  5
556
100
AcDbEntity
  8
_30_VOLUMEN
100
AcDbLine
 62
7
  6
CONTINUOUS
 10
118.5711403699
 20
44.6721582087
 11
118.5711403699
 21
45.3721582087
  0
LINE
  5
557
100
AcDbEntity
  8
_30_VOLUMEN
100
AcDbLine
 62
7
  6
CONTINUOUS
 10
118.8191462457
 20
44.6721582087
 11
118.8191462457
 21
45.3721582087
  0
LINE
  5
558
100
AcDbEntity
  8
_30_VOLUMEN
100
AcDbLine
 62
7
  6
CONTINUOUS
 10
119.0965443751
 20
44.6721582087
 11
119.0965443751
 21
45.3721582087
  0
LINE
  5
559
100
AcDbEntity
  8
_30_VOLUMEN
100
AcDbLine
 62
7
  6
CONTINUOUS
 10
119.3478544338
 20
44.6721582087
 11
119.3478544338
 21
45.3721582087
  0
LINE
  5
55A
100
AcDbEntity
  8
_30_VOLUMEN
100
AcDbLine
 62
7
  6
CONTINUOUS
 10
119.628556746
 20
44.6721582087
 11
119.628556746
 21
45.3721582087
  0
LINE
  5
55B
100
AcDbEntity
  8
_30_VOLUMEN
100
AcDbLine
 62
7
  6
CONTINUOUS
 10
119.9680429304
 20
44.6721582087
 11
119.9680429304
 21
45.3721582087
  0
LINE
  5
55C
100
AcDbEntity
  8
_30_VOLUMEN
100
AcDbLine
 62
7
  6
CONTINUOUS
 10
120.1410900467
 20
44.6721582087
 11
120.1410900467
 21
45.3721582087
  0
LINE
  5
55D
100
AcDbEntity
  8
_30_VOLUMEN
100
AcDbLine
 62
7
  6
CONTINUOUS
 10
120.2586578734
 20
44.6721582087
 11
120.2586578734
 21
45.3721582087
  0
LINE
  5
55E
100
AcDbEntity
  8
_30_VOLUMEN
100
AcDbLine
 62
7
  6
CONTINUOUS
 10
120.3207462459
 20
44.6721582087
 11
120.3207462459
 21
45.3721582087
  0
LINE
  5
55F
100
AcDbEntity
  8
_30_VOLUMEN
100
AcDbLine
 62
7
  6
CONTINUOUS
 10
120.4125729606
 20
44.6721582087
 11
120.4125729606
 21
45.3721582087
  0
LINE
  5
560
100
AcDbEntity
  8
_30_VOLUMEN
100
AcDbLine
 62
7
  6
CONTINUOUS
 10
120.6050994645
 20
44.6721582087
 11
120.6050994645
 21
45.3721582087
  0
LINE
  5
561
100
AcDbEntity
  8
_30_VOLUMEN
100
AcDbLine
 62
7
  6
CONTINUOUS
 10
120.6506659498
 20
44.6721582087
 11
120.6506659498
 21
45.3721582087
  0
LINE
  5
562
100
AcDbEntity
  8
_30_VOLUMEN
100
AcDbLine
 62
7
  6
CONTINUOUS
 10
120.7952049006
 20
44.6721582087
 11
120.7952049006
 21
45.3721582087
  0
LINE
  5
563
100
AcDbEntity
  8
_30_VOLUMEN
100
AcDbLine
 62
7
  6
CONTINUOUS
 10
122.5617831454
 20
16.6424173639
 11
122.5617831454
 21
15.8951060666
  0
LINE
  5
564
100
AcDbEntity
  8
0
100
AcDbLine
 62
7
  6
CONTINUOUS
 10
132.5617832646
 20
47.289179531
 11
132.7492832646
 21
47.3530093106
  0
LINE
  5
565
100
AcDbEntity
  8
_30_VOLUMEN
100
AcDbLine
 62
7
  6
CONTINUOUS
 10
155.5188937016
 20
29.9721582087
 11
142.2355148236
 21
29.9721582087
  0
LINE
  5
566
100
AcDbEntity
  8
_30_VOLUMEN
100
AcDbLine
 62
7
  6
CONTINUOUS
 10
117.9058905683
 20
29.9721582087
 11
105.6687164379
 21
29.9721582087
  0
LINE
  5
567
100
AcDbEntity
  8
_30_VOLUMEN
100
AcDbLine
 62
7
  6
CONTINUOUS
 10
123.0258631703
 20
44.6721582087
 11
123.0258631703
 21
45.3721582087
  0
LINE
  5
568
100
AcDbEntity
  8
_30_VOLUMEN
100
AcDbLine
 62
7
  6
CONTINUOUS
 10
123.1242831454
 20
16.4369611588
 11
123.1242831454
 21
15.696635604
  0
LINE
  5
569
100
AcDbEntity
  8
_30_VOLUMEN
100
AcDbLine
 62
7
  6
CONTINUOUS
 10
123.1354281155
 20
44.6721582087
 11
123.1354281155
 21
45.3721582087
  0
LINE
  5
56A
100
AcDbEntity
  8
_30_VOLUMEN
100
AcDbLine
 62
7
  6
CONTINUOUS
 10
123.6867831454
 20
16.2482375824
 11
123.6867831454
 21
15.5142166301
  0
LINE
  5
56B
100
AcDbEntity
  8
_30_VOLUMEN
100
AcDbLine
 62
7
  6
CONTINUOUS
 10
124.4367831007
 20
16.0218839737
 11
124.4367831007
 21
15.2952867908
  0
LINE
  5
56C
100
AcDbEntity
  8
0
100
AcDbLine
 62
7
  6
CONTINUOUS
 10
130.9367830262
 20
47.6721582087
 11
130.5617830262
 21
47.2253497513
  0
LINE
  5
56D
100
AcDbEntity
  8
0
100
AcDbLine
 62
7
  6
CONTINUOUS
 10
130.5617830262
 20
46.7147113355
 11
130.9367830262
 21
47.1615199717
  0
LINE
  5
56E
100
AcDbEntity
  8
0
100
AcDbLine
 62
7
  6
CONTINUOUS
 10
132.3742832646
 20
47.1615199717
 11
132.5617832646
 21
47.289179531
  0
LINE
  5
56F
100
AcDbEntity
  8
0
100
AcDbLine
 62
7
  6
CONTINUOUS
 10
132.4992831454
 20
46.5232219966
 11
132.1242831454
 21
46.2679028781
  0
LINE
  5
570
100
AcDbEntity
  8
0
100
AcDbLine
 62
7
  6
CONTINUOUS
 10
132.3742832646
 20
46.0764135393
 11
132.5617832646
 21
46.2040730985
  0
LINE
  5
571
100
AcDbEntity
  8
0
100
AcDbLine
 62
7
  6
CONTINUOUS
 10
132.4992831454
 20
47.6083284291
 11
132.1867832646
 21
47.4168390902
  0
LINE
  5
572
100
AcDbEntity
  8
0
100
AcDbLine
 62
7
  6
CONTINUOUS
 10
132.5617832646
 20
46.2040730985
 11
132.7492832646
 21
46.2679028781
  0
LINE
  5
573
100
AcDbEntity
  8
0
100
AcDbLine
 62
7
  6
CONTINUOUS
 10
133.3742833838
 20
45.0551369312
 11
133.1867833838
 21
44.9913071515
  0
LINE
  5
574
100
AcDbEntity
  8
_30_VOLUMEN
100
AcDbLine
 62
7
  6
CONTINUOUS
 10
101.298649373
 20
30.6721582087
 11
159.8249260435
 21
30.6721582087
  0
LINE
  5
575
100
AcDbEntity
  8
_30_VOLUMEN
100
AcDbLine
 62
7
  6
CONTINUOUS
 10
125.749283056
 20
15.6928533314
 11
125.749283056
 21
14.976787692
  0
LINE
  5
576
100
AcDbEntity
  8
_30_VOLUMEN
100
AcDbLine
 62
7
  6
CONTINUOUS
 10
126.1199462401
 20
59.7293585049
 11
126.1199462401
 21
60.4429747269
  0
LINE
  5
577
100
AcDbEntity
  8
_30_VOLUMEN
100
AcDbLine
 62
7
  6
CONTINUOUS
 10
126.4992831454
 20
15.5419504883
 11
126.4992831454
 21
14.8306150526
  0
LINE
  5
578
100
AcDbEntity
  8
_30_VOLUMEN
100
AcDbLine
 62
7
  6
CONTINUOUS
 10
126.593033056
 20
15.5249456814
 11
126.593033056
 21
14.8141394247
  0
LINE
  5
579
100
AcDbEntity
  8
_30_VOLUMEN
100
AcDbLine
 62
7
  6
CONTINUOUS
 10
126.6867832348
 20
15.50835042
 11
126.6867832348
 21
14.7980598507
  0
LINE
  5
57A
100
AcDbEntity
  8
0
100
AcDbLine
 62
7
  6
CONTINUOUS
 10
127.0617831454
 20
47.6721582087
 11
127.0617831454
 21
44.6721582087
  0
LINE
  5
57B
100
AcDbEntity
  8
_30_VOLUMEN
100
AcDbLine
 62
7
  6
CONTINUOUS
 10
127.0617831454
 20
15.4460474378
 11
127.0617831454
 21
14.7376863377
  0
LINE
  5
57C
100
AcDbEntity
  8
0
100
AcDbLine
 62
7
  6
CONTINUOUS
 10
127.4367831454
 20
44.6721582087
 11
127.4367831454
 21
47.0338604125
  0
LINE
  5
57D
100
AcDbEntity
  8
_30_VOLUMEN
100
AcDbLine
 62
7
  6
CONTINUOUS
 10
127.4367833242
 20
15.3902288462
 11
127.4367833242
 21
14.6835876547
  0
LINE
  5
57E
100
AcDbEntity
  8
_30_VOLUMEN
100
AcDbLine
 62
7
  6
CONTINUOUS
 10
128.0930329666
 20
15.3080067033
 11
128.0930329666
 21
14.6038840523
  0
LINE
  5
57F
100
AcDbEntity
  8
0
100
AcDbLine
 62
7
  6
CONTINUOUS
 10
129.4992831454
 20
47.6721582087
 11
128.5617831454
 21
44.9913071515
  0
LINE
  5
580
100
AcDbEntity
  8
0
100
AcDbLine
 62
7
  6
CONTINUOUS
 10
128.8117830858
 20
44.6721582087
 11
129.6867831454
 21
47.0338604125
  0
LINE
  5
581
100
AcDbEntity
  8
0
100
AcDbLine
 62
7
  6
CONTINUOUS
 10
132.2492830262
 20
46.9700306328
 11
132.3742832646
 21
47.1615199717
  0
LINE
  5
582
100
AcDbEntity
  8
0
100
AcDbLine
 62
7
  6
CONTINUOUS
 10
132.1867832646
 20
47.4168390902
 11
131.9992832646
 21
47.1615199717
  0
LINE
  5
583
100
AcDbEntity
  8
0
100
AcDbLine
 62
7
  6
CONTINUOUS
 10
132.2492830262
 20
45.94875398
 11
132.3742832646
 21
46.0764135393
  0
LINE
  5
584
100
AcDbEntity
  8
0
100
AcDbLine
 62
7
  6
CONTINUOUS
 10
133.5617833838
 20
45.1827964904
 11
133.3742833838
 21
45.0551369312
  0
LINE
  5
585
100
AcDbEntity
  8
0
100
AcDbLine
 62
7
  6
CONTINUOUS
 10
133.4367831454
 20
44.7359879939
 11
133.7492833838
 21
44.9274773496
  0
LINE
  5
586
100
AcDbEntity
  8
_30_VOLUMEN
100
AcDbLine
 62
7
  6
CONTINUOUS
 10
128.4680331454
 20
15.2697875543
 11
128.4680331454
 21
14.5668295822
  0
LINE
  5
587
100
AcDbEntity
  8
_30_VOLUMEN
100
AcDbLine
 62
7
  6
CONTINUOUS
 10
129.0305331454
 20
15.2243237154
 11
129.0305331454
 21
14.5227462629
  0
LINE
  5
588
100
AcDbEntity
  8
_30_VOLUMEN
100
AcDbLine
 62
7
  6
CONTINUOUS
 10
129.4055333242
 20
15.201887041
 11
129.4055333242
 21
14.5009889169
  0
LINE
  5
589
100
AcDbEntity
  8
0
100
AcDbLine
 62
7
  6
CONTINUOUS
 10
129.6867831454
 20
47.0338604125
 11
129.6867831454
 21
44.6721582087
  0
LINE
  5
58A
100
AcDbEntity
  8
_30_VOLUMEN
100
AcDbLine
 62
7
  6
CONTINUOUS
 10
129.7805329666
 20
15.1857256735
 11
129.7805329666
 21
14.4853160745
  0
LINE
  5
58B
100
AcDbEntity
  8
_30_VOLUMEN
100
AcDbLine
 62
7
  6
CONTINUOUS
 10
129.8742831454
 20
15.1826641337
 11
129.8742831454
 21
14.4823470031
  0
LINE
  5
58C
100
AcDbEntity
  8
0
100
AcDbLine
 62
7
  6
CONTINUOUS
 10
130.0617831454
 20
44.6721582087
 11
130.0617831454
 21
47.6721582087
  0
LINE
  5
58D
100
AcDbEntity
  8
0
100
AcDbLine
 62
7
  6
CONTINUOUS
 10
130.5617830262
 20
47.2253497513
 11
130.5617830262
 21
46.7147113355
  0
LINE
  5
58E
100
AcDbEntity
  8
_30_VOLUMEN
100
AcDbLine
 62
7
  6
CONTINUOUS
 10
130.5699462401
 20
60.1721567279
 11
130.5699462401
 21
60.8721567726
  0
LINE
  5
58F
100
AcDbEntity
  8
0
100
AcDbLine
 62
7
  6
CONTINUOUS
 10
131.8742830262
 20
46.8423708948
 11
131.8117832646
 21
46.3955624374
  0
LINE
  5
590
100
AcDbEntity
  8
0
100
AcDbLine
 62
7
  6
CONTINUOUS
 10
132.1242831454
 20
46.3955624374
 11
132.1867832646
 21
46.7785411151
  0
LINE
  5
591
100
AcDbEntity
  8
0
100
AcDbLine
 62
7
  6
CONTINUOUS
 10
132.1867832646
 20
46.7785411151
 11
132.2492830262
 21
46.9700306328
  0
LINE
  5
592
100
AcDbEntity
  8
0
100
AcDbLine
 62
7
  6
CONTINUOUS
 10
132.1867832646
 20
45.7572645517
 11
132.2492830262
 21
45.94875398
  0
LINE
  5
593
100
AcDbEntity
  8
0
100
AcDbLine
 62
7
  6
CONTINUOUS
 10
131.9992832646
 20
47.1615199717
 11
131.8742830262
 21
46.8423708948
  0
LINE
  5
594
100
AcDbEntity
  8
0
100
AcDbLine
 62
7
  6
CONTINUOUS
 10
133.686782907
 20
45.374285874
 11
133.5617833838
 21
45.1827964904
  0
LINE
  5
595
100
AcDbEntity
  8
0
100
AcDbLine
 62
7
  6
CONTINUOUS
 10
133.7492833838
 20
44.9274773496
 11
133.9367833838
 21
45.1827964904
  0
LINE
  5
596
100
AcDbEntity
  8
0
100
AcDbLine
 62
7
  6
CONTINUOUS
 10
127.4367831454
 20
47.0338604125
 11
128.3117831156
 21
44.6721582087
  0
LINE
  5
597
100
AcDbEntity
  8
0
100
AcDbLine
 62
7
  6
CONTINUOUS
 10
130.9367830262
 20
47.1615199717
 11
130.9367830262
 21
44.6721582087
  0
LINE
  5
598
100
AcDbEntity
  8
_30_VOLUMEN
100
AcDbLine
 62
7
  6
CONTINUOUS
 10
131.0617831454
 20
15.1777144503
 11
131.0617831454
 21
14.4775467655
  0
LINE
  5
599
100
AcDbEntity
  8
0
100
AcDbLine
 62
7
  6
CONTINUOUS
 10
131.3117830262
 20
44.6721582087
 11
131.3117830262
 21
47.6721582087
  0
LINE
  5
59A
100
AcDbEntity
  8
0
100
AcDbLine
 62
7
  6
CONTINUOUS
 10
131.8117832646
 20
46.3955624374
 11
131.8117832646
 21
45.94875398
  0
LINE
  5
59B
100
AcDbEntity
  8
0
100
AcDbLine
 62
7
  6
CONTINUOUS
 10
132.1242831454
 20
46.2679028781
 11
132.1242831454
 21
46.3955624374
  0
LINE
  5
59C
100
AcDbEntity
  8
0
100
AcDbLine
 62
7
  6
CONTINUOUS
 10
132.1867832646
 20
45.5657752129
 11
132.1867832646
 21
45.7572645517
  0
LINE
  5
59D
100
AcDbEntity
  8
_30_VOLUMEN
100
AcDbLine
 62
7
  6
CONTINUOUS
 10
132.7492831454
 20
15.278747487
 11
132.7492831454
 21
14.5755168133
  0
LINE
  5
59E
100
AcDbEntity
  8
_30_VOLUMEN
100
AcDbLine
 62
7
  6
CONTINUOUS
 10
133.1008457125
 20
15.3158803145
 11
133.1008457125
 21
14.6115172532
  0
LINE
  5
59F
100
AcDbEntity
  8
_30_VOLUMEN
100
AcDbLine
 62
7
  6
CONTINUOUS
 10
133.3820956454
 20
15.3496171929
 11
133.3820956454
 21
14.6442221874
  0
LINE
  5
5A0
100
AcDbEntity
  8
0
100
AcDbLine
 62
7
  6
CONTINUOUS
 10
133.7492833838
 20
45.5657752129
 11
133.686782907
 21
45.374285874
  0
LINE
  5
5A1
100
AcDbEntity
  8
0
100
AcDbLine
 62
7
  6
CONTINUOUS
 10
133.9367833838
 20
45.1827964904
 11
134.061782907
 21
45.5019454332
  0
LINE
  5
5A2
100
AcDbEntity
  8
0
100
AcDbLine
 62
7
  6
CONTINUOUS
 10
128.5617831454
 20
44.9913071515
 11
127.6242831454
 21
47.6721582087
  0
LINE
  5
5A3
100
AcDbEntity
  8
0
100
AcDbLine
 62
7
  6
CONTINUOUS
 10
131.8117832646
 20
45.94875398
 11
131.8742830262
 21
45.5019454332
  0
LINE
  5
5A4
100
AcDbEntity
  8
_30_VOLUMEN
100
AcDbLine
 62
7
  6
CONTINUOUS
 10
133.5930331454
 20
15.3772815901
 11
133.5930331454
 21
14.6710381612
  0
LINE
  5
5A5
100
AcDbEntity
  8
_30_VOLUMEN
100
AcDbLine
 62
7
  6
CONTINUOUS
 10
133.6633455784
 20
15.3869543623
 11
133.6633455784
 21
14.6804138105
  0
LINE
  5
5A6
100
AcDbEntity
  8
0
100
AcDbLine
 62
7
  6
CONTINUOUS
 10
133.7492833838
 20
45.7572645517
 11
133.7492833838
 21
45.5657752129
  0
LINE
  5
5A7
100
AcDbEntity
  8
0
100
AcDbLine
 62
7
  6
CONTINUOUS
 10
134.061782907
 20
45.5019454332
 11
134.061782907
 21
45.8210944208
  0
LINE
  5
5A8
100
AcDbEntity
  8
_30_VOLUMEN
100
AcDbLine
 62
7
  6
CONTINUOUS
 10
134.2258456454
 20
15.4725040223
 11
134.2258456454
 21
14.763324847
  0
LINE
  5
5A9
100
AcDbEntity
  8
_30_VOLUMEN
100
AcDbLine
 62
7
  6
CONTINUOUS
 10
134.2961580784
 20
15.4842235626
 11
134.2961580784
 21
14.7746814075
  0
LINE
  5
5AA
100
AcDbEntity
  8
_30_VOLUMEN
100
AcDbLine
 62
7
  6
CONTINUOUS
 10
134.4367831454
 20
15.5083504357
 11
134.4367831454
 21
14.7980598658
  0
LINE
  5
5AB
100
AcDbEntity
  8
_30_VOLUMEN
100
AcDbLine
 62
7
  6
CONTINUOUS
 10
134.5774080113
 20
15.5333967949
 11
134.5774080113
 21
14.8223276418
  0
LINE
  5
5AC
100
AcDbEntity
  8
_30_VOLUMEN
100
AcDbLine
 62
7
  6
CONTINUOUS
 10
134.7883455113
 20
15.5726973427
 11
134.7883455113
 21
14.8604031125
  0
LINE
  5
5AD
100
AcDbEntity
  8
_30_VOLUMEN
100
AcDbLine
 62
7
  6
CONTINUOUS
 10
134.9992830113
 20
15.6140849714
 11
134.9992830113
 21
14.9004961055
  0
LINE
  5
5AE
100
AcDbEntity
  8
_30_VOLUMEN
100
AcDbLine
 62
7
  6
CONTINUOUS
 10
135.0499462401
 20
59.7199787821
 11
135.0499462401
 21
60.4338890751
  0
LINE
  5
5AF
100
AcDbEntity
  8
_30_VOLUMEN
100
AcDbLine
 62
7
  6
CONTINUOUS
 10
135.4211580113
 20
15.703169249
 11
135.4211580113
 21
14.9867779846
  0
LINE
  5
5B0
100
AcDbEntity
  8
_30_VOLUMEN
100
AcDbLine
 62
7
  6
CONTINUOUS
 10
135.8430330113
 20
15.8007522216
 11
135.8430330113
 21
15.0812662419
  0
LINE
  5
5B1
100
AcDbEntity
  8
_30_VOLUMEN
100
AcDbLine
 62
7
  6
CONTINUOUS
 10
136.1945957795
 20
15.8886455941
 11
136.1945957795
 21
15.1663495845
  0
LINE
  5
5B2
100
AcDbEntity
  8
0
100
AcDbLine
 62
7
  6
CONTINUOUS
 10
131.9992832646
 20
45.1827964904
 11
132.1867832646
 21
44.9274773496
  0
LINE
  5
5B3
100
AcDbEntity
  8
0
100
AcDbLine
 62
7
  6
CONTINUOUS
 10
132.3742832646
 20
45.1827964904
 11
132.2492830262
 21
45.374285874
  0
LINE
  5
5B4
100
AcDbEntity
  8
0
100
AcDbLine
 62
7
  6
CONTINUOUS
 10
131.8742830262
 20
45.5019454332
 11
131.9992832646
 21
45.1827964904
  0
LINE
  5
5B5
100
AcDbEntity
  8
0
100
AcDbLine
 62
7
  6
CONTINUOUS
 10
132.2492830262
 20
45.374285874
 11
132.1867832646
 21
45.5657752129
  0
LINE
  5
5B6
100
AcDbEntity
  8
0
100
AcDbLine
 62
7
  6
CONTINUOUS
 10
133.686782907
 20
45.94875398
 11
133.7492833838
 21
45.7572645517
  0
LINE
  5
5B7
100
AcDbEntity
  8
_30_VOLUMEN
100
AcDbLine
 62
7
  6
CONTINUOUS
 10
136.4055332795
 20
15.9442824642
 11
136.4055332795
 21
15.2201965044
  0
LINE
  5
5B8
100
AcDbEntity
  8
_30_VOLUMEN
100
AcDbLine
 62
7
  6
CONTINUOUS
 10
136.4758455113
 20
15.9633151642
 11
136.4758455113
 21
15.2386148788
  0
LINE
  5
5B9
100
AcDbEntity
  8
_30_VOLUMEN
100
AcDbLine
 62
7
  6
CONTINUOUS
 10
137.0383457795
 20
16.1244405466
 11
137.0383457795
 21
15.3944981779
  0
LINE
  5
5BA
100
AcDbEntity
  8
_30_VOLUMEN
100
AcDbLine
 62
7
  6
CONTINUOUS
 10
137.3899081454
 20
16.2332517771
 11
137.3899081454
 21
15.499726926
  0
LINE
  5
5BB
100
AcDbEntity
  8
_30_VOLUMEN
100
AcDbLine
 62
7
  6
CONTINUOUS
 10
137.5305330113
 20
16.2785487585
 11
137.5305330113
 21
15.5435223423
  0
LINE
  5
5BC
100
AcDbEntity
  8
_30_VOLUMEN
100
AcDbLine
 62
7
  6
CONTINUOUS
 10
137.7414705113
 20
16.3484134783
 11
137.7414705113
 21
15.6110592033
  0
LINE
  5
5BD
100
AcDbEntity
  8
_30_VOLUMEN
100
AcDbLine
 62
7
  6
CONTINUOUS
 10
137.9524084136
 20
16.4206016035
 11
137.9524084136
 21
15.6808267769
  0
LINE
  5
5BE
100
AcDbEntity
  8
_30_VOLUMEN
100
AcDbLine
 62
7
  6
CONTINUOUS
 10
138.3039703772
 20
16.5461425676
 11
138.3039703772
 21
15.8021207861
  0
LINE
  5
5BF
100
AcDbEntity
  8
_30_VOLUMEN
100
AcDbLine
 62
7
  6
CONTINUOUS
 10
138.3405545983
 20
44.6721582087
 11
138.3405545983
 21
45.3721582087
  0
LINE
  5
5C0
100
AcDbEntity
  8
_30_VOLUMEN
100
AcDbLine
 62
7
  6
CONTINUOUS
 10
138.4672274309
 20
44.6721582087
 11
138.4672274309
 21
45.3721582087
  0
LINE
  5
5C1
100
AcDbEntity
  8
0
100
AcDbLine
 62
7
  6
CONTINUOUS
 10
133.124282907
 20
44.6721582087
 11
133.4367831454
 21
44.7359879939
  0
LINE
  5
5C2
100
AcDbEntity
  8
0
100
AcDbLine
 62
7
  6
CONTINUOUS
 10
132.8117830262
 20
46.5870517763
 11
132.4992831454
 21
46.5232219966
  0
LINE
  5
5C3
100
AcDbEntity
  8
_26_BEZUGSACHSEN
100
AcDbLine
 62
7
  6
CONTINUOUS
 10
101.298649373
 20
44.6721582087
 11
159.8249260435
 21
44.6721582087
  0
LINE
  5
5C4
100
AcDbEntity
  8
0
100
AcDbLine
 62
7
  6
CONTINUOUS
 10
133.1867833838
 20
44.9913071515
 11
132.7492832646
 21
44.9913071515
  0
LINE
  5
5C5
100
AcDbEntity
  8
_30_VOLUMEN
100
AcDbLine
 62
7
  6
CONTINUOUS
 10
106.7374553077
 20
45.3721582087
 11
123.1354281155
 21
45.3721582087
  0
LINE
  5
5C6
100
AcDbEntity
  8
_30_VOLUMEN
100
AcDbLine
 62
7
  6
CONTINUOUS
 10
138.3405545983
 20
45.3721582087
 11
142.7201681497
 21
45.3721582087
  0
LINE
  5
5C7
100
AcDbEntity
  8
_30_VOLUMEN
100
AcDbLine
 62
7
  6
CONTINUOUS
 10
142.9612568343
 20
45.3721582087
 11
143.3474805186
 21
45.3721582087
  0
LINE
  5
5C8
100
AcDbEntity
  8
_30_VOLUMEN
100
AcDbLine
 62
7
  6
CONTINUOUS
 10
143.6126480512
 20
45.3721582087
 11
154.1383341324
 21
45.3721582087
  0
LINE
  5
5C9
100
AcDbEntity
  8
0
100
AcDbLine
 62
7
  6
CONTINUOUS
 10
132.4992831454
 20
44.7359879939
 11
132.8117830262
 21
44.6721582087
  0
LINE
  5
5CA
100
AcDbEntity
  8
0
100
AcDbLine
 62
7
  6
CONTINUOUS
 10
132.7492832646
 20
44.9913071515
 11
132.5617832646
 21
45.0551369312
  0
LINE
  5
5CB
100
AcDbEntity
  8
0
100
AcDbLine
 62
7
  6
CONTINUOUS
 10
132.1867832646
 20
44.9274773496
 11
132.4992831454
 21
44.7359879939
  0
LINE
  5
5CC
100
AcDbEntity
  8
0
100
AcDbLine
 62
7
  6
CONTINUOUS
 10
132.5617832646
 20
45.0551369312
 11
132.3742832646
 21
45.1827964904
  0
LINE
  5
5CD
100
AcDbEntity
  8
0
100
AcDbLine
 62
7
  6
CONTINUOUS
 10
133.5617833838
 20
46.0764135393
 11
133.686782907
 21
45.94875398
  0
LINE
  5
5CE
100
AcDbEntity
  8
0
100
AcDbLine
 62
7
  6
CONTINUOUS
 10
133.874282907
 20
47.1615199717
 11
133.686782907
 21
47.4168390902
  0
LINE
  5
5CF
100
AcDbEntity
  8
0
100
AcDbLine
 62
7
  6
CONTINUOUS
 10
133.499282907
 20
47.1615199717
 11
133.6242831454
 21
46.9700306328
  0
LINE
  5
5D0
100
AcDbEntity
  8
0
100
AcDbLine
 62
7
  6
CONTINUOUS
 10
134.061782907
 20
45.8210944208
 11
133.9367833838
 21
46.1402433189
  0
LINE
  5
5D1
100
AcDbEntity
  8
0
100
AcDbLine
 62
7
  6
CONTINUOUS
 10
133.9367833838
 20
46.9700306328
 11
133.874282907
 21
47.1615199717
  0
LINE
  5
5D2
100
AcDbEntity
  8
_30_VOLUMEN
100
AcDbLine
 62
7
  6
CONTINUOUS
 10
138.8664706454
 20
16.7608654336
 11
138.8664706454
 21
16.0094675742
  0
LINE
  5
5D3
100
AcDbEntity
  8
_30_VOLUMEN
100
AcDbLine
 62
7
  6
CONTINUOUS
 10
139.0070959136
 20
16.817262087
 11
139.0070959136
 21
16.0639030212
  0
LINE
  5
5D4
100
AcDbEntity
  8
_30_VOLUMEN
100
AcDbLine
 62
7
  6
CONTINUOUS
 10
139.1579581407
 20
44.6721582087
 11
139.1579581407
 21
45.3721582087
  0
LINE
  5
5D5
100
AcDbEntity
  8
_30_VOLUMEN
100
AcDbLine
 62
7
  6
CONTINUOUS
 10
139.2019298105
 20
44.6721582087
 11
139.2019298105
 21
45.3721582087
  0
LINE
  5
5D6
100
AcDbEntity
  8
_30_VOLUMEN
100
AcDbLine
 62
7
  6
CONTINUOUS
 10
139.2525990074
 20
44.6721582087
 11
139.2525990074
 21
45.3721582087
  0
LINE
  5
5D7
100
AcDbEntity
  8
_30_VOLUMEN
100
AcDbLine
 62
7
  6
CONTINUOUS
 10
139.2883456454
 20
16.9333755315
 11
139.2883456454
 21
16.1759467533
  0
LINE
  5
5D8
100
AcDbEntity
  8
_30_VOLUMEN
100
AcDbLine
 62
7
  6
CONTINUOUS
 10
139.4113038415
 20
44.6721582087
 11
139.4113038415
 21
45.3721582087
  0
LINE
  5
5D9
100
AcDbEntity
  8
_30_VOLUMEN
100
AcDbLine
 62
7
  6
CONTINUOUS
 10
139.7102206454
 20
17.1159890299
 11
139.7102206454
 21
16.3520716397
  0
LINE
  5
5DA
100
AcDbEntity
  8
_30_VOLUMEN
100
AcDbLine
 62
7
  6
CONTINUOUS
 10
139.742107109
 20
44.6721582087
 11
139.742107109
 21
45.3721582087
  0
LINE
  5
5DB
100
AcDbEntity
  8
_30_VOLUMEN
100
AcDbLine
 62
7
  6
CONTINUOUS
 10
140.0222399375
 20
44.6721582087
 11
140.0222399375
 21
45.3721582087
  0
LINE
  5
5DC
100
AcDbEntity
  8
_30_VOLUMEN
100
AcDbLine
 62
7
  6
CONTINUOUS
 10
140.1320956454
 20
17.3089777436
 11
140.1320956454
 21
16.538083385
  0
LINE
  5
5DD
100
AcDbEntity
  8
_30_VOLUMEN
100
AcDbLine
 62
7
  6
CONTINUOUS
 10
140.3917713673
 20
44.6721582087
 11
140.3917713673
 21
45.3721582087
  0
LINE
  5
5DE
100
AcDbEntity
  8
_30_VOLUMEN
100
AcDbLine
 62
7
  6
CONTINUOUS
 10
140.5539706454
 20
17.5126396389
 11
140.5539706454
 21
16.7342454912
  0
LINE
  5
5DF
100
AcDbEntity
  8
_30_VOLUMEN
100
AcDbLine
 62
7
  6
CONTINUOUS
 10
140.6212363829
 20
44.6721582087
 11
140.6212363829
 21
45.3721582087
  0
LINE
  5
5E0
100
AcDbEntity
  8
_30_VOLUMEN
100
AcDbLine
 62
7
  6
CONTINUOUS
 10
140.7649081454
 20
17.6185739846
 11
140.7649081454
 21
16.836221939
  0
LINE
  5
5E1
100
AcDbEntity
  8
_30_VOLUMEN
100
AcDbLine
 62
7
  6
CONTINUOUS
 10
140.9758456454
 20
17.7273016726
 11
140.9758456454
 21
16.940846088
  0
LINE
  5
5E2
100
AcDbEntity
  8
_30_VOLUMEN
100
AcDbLine
 62
7
  6
CONTINUOUS
 10
140.997465269
 20
44.6721582087
 11
140.997465269
 21
45.3721582087
  0
LINE
  5
5E3
100
AcDbEntity
  8
_30_VOLUMEN
100
AcDbLine
 62
7
  6
CONTINUOUS
 10
141.1164709136
 20
17.8013613924
 11
141.1164709136
 21
17.0120864248
  0
LINE
  5
5E4
100
AcDbEntity
  8
_30_VOLUMEN
100
AcDbLine
 62
7
  6
CONTINUOUS
 10
141.1762598456
 20
44.6721582087
 11
141.1762598456
 21
45.3721582087
  0
LINE
  5
5E5
100
AcDbEntity
  8
_30_VOLUMEN
100
AcDbLine
 62
7
  6
CONTINUOUS
 10
141.3043866093
 20
44.6721582087
 11
141.3043866093
 21
45.3721582087
  0
LINE
  5
5E6
100
AcDbEntity
  8
0
100
AcDbLine
 62
7
  6
CONTINUOUS
 10
132.8117830262
 20
47.6721582087
 11
132.4992831454
 21
47.6083284291
  0
LINE
  5
5E7
100
AcDbEntity
  8
0
100
AcDbLine
 62
7
  6
CONTINUOUS
 10
132.7492832646
 20
46.2679028781
 11
133.1867833838
 21
46.2679028781
  0
LINE
  5
5E8
100
AcDbEntity
  8
0
100
AcDbLine
 62
7
  6
CONTINUOUS
 10
133.124282907
 20
46.5870517763
 11
132.8117830262
 21
46.5870517763
  0
LINE
  5
5E9
100
AcDbEntity
  8
0
100
AcDbLine
 62
7
  6
CONTINUOUS
 10
133.6242831454
 20
46.9700306328
 11
133.9367833838
 21
46.9700306328
  0
LINE
  5
5EA
100
AcDbEntity
  8
0
100
AcDbLine
 62
7
  6
CONTINUOUS
 10
132.7492832646
 20
47.3530093106
 11
133.124282907
 21
47.3530093106
  0
LINE
  5
5EB
100
AcDbEntity
  8
0
100
AcDbLine
 62
7
  6
CONTINUOUS
 10
133.0617831454
 20
47.6721582087
 11
132.8117830262
 21
47.6721582087
  0
LINE
  5
5EC
100
AcDbEntity
  8
0
100
AcDbLine
 62
7
  6
CONTINUOUS
 10
131.3117830262
 20
47.6721582087
 11
130.9367830262
 21
47.6721582087
  0
LINE
  5
5ED
100
AcDbEntity
  8
0
100
AcDbLine
 62
7
  6
CONTINUOUS
 10
130.0617831454
 20
47.6721582087
 11
129.4992831454
 21
47.6721582087
  0
LINE
  5
5EE
100
AcDbEntity
  8
0
100
AcDbLine
 62
7
  6
CONTINUOUS
 10
127.6242831454
 20
47.6721582087
 11
127.0617831454
 21
47.6721582087
  0
LINE
  5
5EF
100
AcDbEntity
  8
0
100
AcDbLine
 62
7
  6
CONTINUOUS
 10
133.4367831454
 20
46.5232219966
 11
133.124282907
 21
46.5870517763
  0
LINE
  5
5F0
100
AcDbEntity
  8
0
100
AcDbLine
 62
7
  6
CONTINUOUS
 10
133.3742833838
 20
47.6083284291
 11
133.0617831454
 21
47.6721582087
  0
LINE
  5
5F1
100
AcDbEntity
  8
0
100
AcDbLine
 62
7
  6
CONTINUOUS
 10
133.1867833838
 20
46.2679028781
 11
133.3742833838
 21
46.2040730985
  0
LINE
  5
5F2
100
AcDbEntity
  8
0
100
AcDbLine
 62
7
  6
CONTINUOUS
 10
133.124282907
 20
47.3530093106
 11
133.311782907
 21
47.289179531
  0
LINE
  5
5F3
100
AcDbEntity
  8
0
100
AcDbLine
 62
7
  6
CONTINUOUS
 10
133.7492833838
 20
46.3317326578
 11
133.4367831454
 21
46.5232219966
  0
LINE
  5
5F4
100
AcDbEntity
  8
0
100
AcDbLine
 62
7
  6
CONTINUOUS
 10
133.686782907
 20
47.4168390902
 11
133.3742833838
 21
47.6083284291
  0
LINE
  5
5F5
100
AcDbEntity
  8
0
100
AcDbLine
 62
7
  6
CONTINUOUS
 10
133.3742833838
 20
46.2040730985
 11
133.5617833838
 21
46.0764135393
  0
LINE
  5
5F6
100
AcDbEntity
  8
0
100
AcDbLine
 62
7
  6
CONTINUOUS
 10
133.311782907
 20
47.289179531
 11
133.499282907
 21
47.1615199717
  0
LINE
  5
5F7
100
AcDbEntity
  8
0
100
AcDbLine
 62
7
  6
CONTINUOUS
 10
133.9367833838
 20
46.1402433189
 11
133.7492833838
 21
46.3317326578
  0
LINE
  5
5F8
100
AcDbEntity
  8
_30_VOLUMEN
100
AcDbLine
 62
7
  6
CONTINUOUS
 10
142.2355148236
 20
29.9721582087
 11
142.2355148236
 21
30.6721582087
  0
LINE
  5
5F9
100
AcDbEntity
  8
_30_VOLUMEN
100
AcDbLine
 62
7
  6
CONTINUOUS
 10
142.2748673577
 20
44.6721582087
 11
142.2748673577
 21
45.3721582087
  0
LINE
  5
5FA
100
AcDbEntity
  8
_30_VOLUMEN
100
AcDbLine
 62
7
  6
CONTINUOUS
 10
142.6042774422
 20
44.6721582087
 11
142.6042774422
 21
45.3721582087
  0
LINE
  5
5FB
100
AcDbEntity
  8
_30_VOLUMEN
100
AcDbLine
 62
7
  6
CONTINUOUS
 10
142.7201681497
 20
44.6721582087
 11
142.7201681497
 21
45.3721582087
  0
LINE
  5
5FC
100
AcDbEntity
  8
_30_VOLUMEN
100
AcDbLine
 62
7
  6
CONTINUOUS
 10
142.9612568343
 20
44.6721582087
 11
142.9612568343
 21
45.3721582087
  0
LINE
  5
5FD
100
AcDbEntity
  8
_30_VOLUMEN
100
AcDbLine
 62
7
  6
CONTINUOUS
 10
143.1208076168
 20
44.6721582087
 11
143.1208076168
 21
45.3721582087
  0
LINE
  5
5FE
100
AcDbEntity
  8
_30_VOLUMEN
100
AcDbLine
 62
7
  6
CONTINUOUS
 10
143.3474805186
 20
44.6721582087
 11
143.3474805186
 21
45.3721582087
  0
LINE
  5
5FF
100
AcDbEntity
  8
_30_VOLUMEN
100
AcDbLine
 62
7
  6
CONTINUOUS
 10
143.6126480512
 20
44.6721582087
 11
143.6126480512
 21
45.3721582087
  0
LINE
  5
600
100
AcDbEntity
  8
_30_VOLUMEN
100
AcDbLine
 62
7
  6
CONTINUOUS
 10
143.6197645963
 20
44.6721582087
 11
143.6197645963
 21
45.3721582087
  0
LINE
  5
601
100
AcDbEntity
  8
_30_VOLUMEN
100
AcDbLine
 62
7
  6
CONTINUOUS
 10
143.7153407066
 20
44.6721582087
 11
143.7153407066
 21
45.3721582087
  0
LINE
  5
602
100
AcDbEntity
  8
_30_VOLUMEN
100
AcDbLine
 62
7
  6
CONTINUOUS
 10
143.8287799462
 20
29.9721582087
 11
143.8287799462
 21
30.6721582087
  0
LINE
  5
603
100
AcDbEntity
  8
_30_VOLUMEN
100
AcDbLine
 62
7
  6
CONTINUOUS
 10
143.8710515938
 20
44.6721582087
 11
143.8710515938
 21
45.3721582087
  0
LINE
  5
604
100
AcDbEntity
  8
_30_VOLUMEN
100
AcDbLine
 62
7
  6
CONTINUOUS
 10
144.1147492426
 20
29.9721582087
 11
144.1147492426
 21
30.6721582087
  0
LINE
  5
605
100
AcDbEntity
  8
_30_VOLUMEN
100
AcDbLine
 62
7
  6
CONTINUOUS
 10
144.1647527834
 20
44.6721582087
 11
144.1647527834
 21
45.3721582087
  0
LINE
  5
606
100
AcDbEntity
  8
_30_VOLUMEN
100
AcDbLine
 62
7
  6
CONTINUOUS
 10
144.4690580264
 20
44.6721582087
 11
144.4690580264
 21
45.3721582087
  0
LINE
  5
607
100
AcDbEntity
  8
_30_VOLUMEN
100
AcDbLine
 62
7
  6
CONTINUOUS
 10
144.702081949
 20
30.6721582087
 11
144.702081949
 21
29.9721582087
  0
LINE
  5
608
100
AcDbEntity
  8
_30_VOLUMEN
100
AcDbLine
 62
7
  6
CONTINUOUS
 10
144.8334992072
 20
44.6721582087
 11
144.8334992072
 21
45.3721582087
  0
LINE
  5
609
100
AcDbEntity
  8
_30_VOLUMEN
100
AcDbLine
 62
7
  6
CONTINUOUS
 10
144.9433073285
 20
44.6721582087
 11
144.9433073285
 21
45.3721582087
  0
LINE
  5
60A
100
AcDbEntity
  8
_30_VOLUMEN
100
AcDbLine
 62
7
  6
CONTINUOUS
 10
145.1086697744
 20
30.6721582087
 11
145.1086697744
 21
29.9721582087
  0
LINE
  5
60B
100
AcDbEntity
  8
_30_VOLUMEN
100
AcDbLine
 62
7
  6
CONTINUOUS
 10
145.1379459375
 20
44.6721582087
 11
145.1379459375
 21
45.3721582087
  0
LINE
  5
60C
100
AcDbEntity
  8
_30_VOLUMEN
100
AcDbLine
 62
7
  6
CONTINUOUS
 10
146.2380804221
 20
30.6721582087
 11
146.2380804221
 21
29.9721582087
  0
LINE
  5
60D
100
AcDbEntity
  8
_30_VOLUMEN
100
AcDbLine
 62
7
  6
CONTINUOUS
 10
146.5091389724
 20
30.6721582087
 11
146.5091389724
 21
29.9721582087
  0
LINE
  5
60E
100
AcDbEntity
  8
_30_VOLUMEN
100
AcDbLine
 62
7
  6
CONTINUOUS
 10
146.6913248976
 20
30.6721582087
 11
146.6913248976
 21
29.9721582087
  0
LINE
  5
60F
100
AcDbEntity
  8
_30_VOLUMEN
100
AcDbLine
 62
7
  6
CONTINUOUS
 10
146.8220156812
 20
44.6721582087
 11
146.8220156812
 21
45.3721582087
  0
LINE
  5
610
100
AcDbEntity
  8
_30_VOLUMEN
100
AcDbLine
 62
7
  6
CONTINUOUS
 10
146.941304888
 20
44.6721582087
 11
146.941304888
 21
45.3721582087
  0
LINE
  5
611
100
AcDbEntity
  8
_30_VOLUMEN
100
AcDbLine
 62
7
  6
CONTINUOUS
 10
146.9487210344
 20
30.6721582087
 11
146.9487210344
 21
29.9721582087
  0
LINE
  5
612
100
AcDbEntity
  8
_30_VOLUMEN
100
AcDbLine
 62
7
  6
CONTINUOUS
 10
147.2545879126
 20
44.6721582087
 11
147.2545879126
 21
45.3721582087
  0
LINE
  5
613
100
AcDbEntity
  8
_30_VOLUMEN
100
AcDbLine
 62
7
  6
CONTINUOUS
 10
147.2876920907
 20
30.6721582087
 11
147.2876920907
 21
29.9721582087
  0
LINE
  5
614
100
AcDbEntity
  8
_30_VOLUMEN
100
AcDbLine
 62
7
  6
CONTINUOUS
 10
147.5387524216
 20
30.6721582087
 11
147.5387524216
 21
29.9721582087
  0
LINE
  5
615
100
AcDbEntity
  8
_30_VOLUMEN
100
AcDbLine
 62
7
  6
CONTINUOUS
 10
147.5674333336
 20
44.6721582087
 11
147.5674333336
 21
45.3721582087
  0
LINE
  5
616
100
AcDbEntity
  8
_30_VOLUMEN
100
AcDbLine
 62
7
  6
CONTINUOUS
 10
147.7866446163
 20
30.6721582087
 11
147.7866446163
 21
29.9721582087
  0
LINE
  5
617
100
AcDbEntity
  8
_30_VOLUMEN
100
AcDbLine
 62
7
  6
CONTINUOUS
 10
147.9242834198
 20
44.6721582087
 11
147.9242834198
 21
45.3721582087
  0
LINE
  5
618
100
AcDbEntity
  8
_30_VOLUMEN
100
AcDbLine
 62
7
  6
CONTINUOUS
 10
148.112943594
 20
29.9721582087
 11
148.112943594
 21
30.6721582087
  0
LINE
  5
619
100
AcDbEntity
  8
_30_VOLUMEN
100
AcDbLine
 62
7
  6
CONTINUOUS
 10
148.1913747729
 20
44.6721582087
 11
148.1913747729
 21
45.3721582087
  0
LINE
  5
61A
100
AcDbEntity
  8
_30_VOLUMEN
100
AcDbLine
 62
7
  6
CONTINUOUS
 10
148.2729252967
 20
29.9721582087
 11
148.2729252967
 21
30.6721582087
  0
LINE
  5
61B
100
AcDbEntity
  8
_30_VOLUMEN
100
AcDbLine
 62
7
  6
CONTINUOUS
 10
148.3481639435
 20
29.9721582087
 11
148.3481639435
 21
30.6721582087
  0
LINE
  5
61C
100
AcDbEntity
  8
_30_VOLUMEN
100
AcDbLine
 62
7
  6
CONTINUOUS
 10
148.4135865051
 20
44.6721582087
 11
148.4135865051
 21
45.3721582087
  0
LINE
  5
61D
100
AcDbEntity
  8
_30_VOLUMEN
100
AcDbLine
 62
7
  6
CONTINUOUS
 10
148.5909181079
 20
44.6721582087
 11
148.5909181079
 21
45.3721582087
  0
LINE
  5
61E
100
AcDbEntity
  8
_30_VOLUMEN
100
AcDbLine
 62
7
  6
CONTINUOUS
 10
148.6784909776
 20
44.6721582087
 11
148.6784909776
 21
45.3721582087
  0
LINE
  5
61F
100
AcDbEntity
  8
_30_VOLUMEN
100
AcDbLine
 62
7
  6
CONTINUOUS
 10
148.798450479
 20
30.6721582087
 11
148.798450479
 21
29.9721582087
  0
LINE
  5
620
100
AcDbEntity
  8
_30_VOLUMEN
100
AcDbLine
 62
7
  6
CONTINUOUS
 10
149.3222770828
 20
30.6721582087
 11
149.3222770828
 21
29.9721582087
  0
LINE
  5
621
100
AcDbEntity
  8
_30_VOLUMEN
100
AcDbLine
 62
7
  6
CONTINUOUS
 10
149.4117149004
 20
44.6721582087
 11
149.4117149004
 21
45.3721582087
  0
LINE
  5
622
100
AcDbEntity
  8
_30_VOLUMEN
100
AcDbLine
 62
7
  6
CONTINUOUS
 10
149.5370678672
 20
30.6721582087
 11
149.5370678672
 21
29.9721582087
  0
LINE
  5
623
100
AcDbEntity
  8
_30_VOLUMEN
100
AcDbLine
 62
7
  6
CONTINUOUS
 10
149.6624335655
 20
44.6721582087
 11
149.6624335655
 21
45.3721582087
  0
LINE
  5
624
100
AcDbEntity
  8
_30_VOLUMEN
100
AcDbLine
 62
7
  6
CONTINUOUS
 10
150.5394247246
 20
30.6721582087
 11
150.5394247246
 21
29.9721582087
  0
LINE
  5
625
100
AcDbEntity
  8
_30_VOLUMEN
100
AcDbLine
 62
7
  6
CONTINUOUS
 10
150.7542155091
 20
30.6721582087
 11
150.7542155091
 21
29.9721582087
  0
LINE
  5
626
100
AcDbEntity
  8
_30_VOLUMEN
100
AcDbLine
 62
7
  6
CONTINUOUS
 10
150.9207770506
 20
30.6721582087
 11
150.9207770506
 21
29.9721582087
  0
LINE
  5
627
100
AcDbEntity
  8
_30_VOLUMEN
100
AcDbLine
 62
7
  6
CONTINUOUS
 10
150.9476564865
 20
30.6721582087
 11
150.9476564865
 21
29.9721582087
  0
LINE
  5
628
100
AcDbEntity
  8
_30_VOLUMEN
100
AcDbLine
 62
7
  6
CONTINUOUS
 10
151.054629035
 20
44.6721582087
 11
151.054629035
 21
45.3721582087
  0
LINE
  5
629
100
AcDbEntity
  8
_30_VOLUMEN
100
AcDbLine
 62
7
  6
CONTINUOUS
 10
151.058501064
 20
30.6721582087
 11
151.058501064
 21
29.9721582087
  0
LINE
  5
62A
100
AcDbEntity
  8
_30_VOLUMEN
100
AcDbLine
 62
7
  6
CONTINUOUS
 10
151.2527063879
 20
30.6721582087
 11
151.2527063879
 21
29.9721582087
  0
LINE
  5
62B
100
AcDbEntity
  8
_30_VOLUMEN
100
AcDbLine
 62
7
  6
CONTINUOUS
 10
151.4746985707
 20
30.6721582087
 11
151.4746985707
 21
29.9721582087
  0
LINE
  5
62C
100
AcDbEntity
  8
_30_VOLUMEN
100
AcDbLine
 62
7
  6
CONTINUOUS
 10
151.5662748269
 20
44.6721582087
 11
151.5662748269
 21
45.3721582087
  0
LINE
  5
62D
100
AcDbEntity
  8
_30_VOLUMEN
100
AcDbLine
 62
7
  6
CONTINUOUS
 10
151.7244773015
 20
30.6721582087
 11
151.7244773015
 21
29.9721582087
  0
LINE
  5
62E
100
AcDbEntity
  8
_30_VOLUMEN
100
AcDbLine
 62
7
  6
CONTINUOUS
 10
151.7583195706
 20
44.6721582087
 11
151.7583195706
 21
45.3721582087
  0
LINE
  5
62F
100
AcDbEntity
  8
_30_VOLUMEN
100
AcDbLine
 62
7
  6
CONTINUOUS
 10
152.0576167787
 20
30.6721582087
 11
152.0576167787
 21
29.9721582087
  0
LINE
  5
630
100
AcDbEntity
  8
_30_VOLUMEN
100
AcDbLine
 62
7
  6
CONTINUOUS
 10
151.0607953498
 20
25.0760056942
 11
158.5181335145
 21
28.5534195898
  0
LINE
  5
631
100
AcDbEntity
  8
_26_BEZUGSACHSEN
100
AcDbLine
 62
7
  6
CONTINUOUS
 10
151.0607953498
 20
50.2683107232
 11
158.5181335145
 21
46.7908968276
  0
LINE
  5
632
100
AcDbEntity
  8
_30_VOLUMEN
100
AcDbLine
 62
7
  6
CONTINUOUS
 10
152.2797599242
 20
30.6721582087
 11
152.2797599242
 21
29.9721582087
  0
LINE
  5
633
100
AcDbEntity
  8
_30_VOLUMEN
100
AcDbLine
 62
7
  6
CONTINUOUS
 10
152.4464053809
 20
30.6721582087
 11
152.4464053809
 21
29.9721582087
  0
LINE
  5
634
100
AcDbEntity
  8
_30_VOLUMEN
100
AcDbLine
 62
7
  6
CONTINUOUS
 10
152.5585060639
 20
44.6721582087
 11
152.5585060639
 21
45.3721582087
  0
LINE
  5
635
100
AcDbEntity
  8
_30_VOLUMEN
100
AcDbLine
 62
7
  6
CONTINUOUS
 10
152.5853392162
 20
30.6721582087
 11
152.5853392162
 21
29.9721582087
  0
LINE
  5
636
100
AcDbEntity
  8
_30_VOLUMEN
100
AcDbLine
 62
7
  6
CONTINUOUS
 10
152.6687750447
 20
30.6721582087
 11
152.6687750447
 21
29.9721582087
  0
LINE
  5
637
100
AcDbEntity
  8
_30_VOLUMEN
100
AcDbLine
 62
7
  6
CONTINUOUS
 10
152.8465730879
 20
44.6721582087
 11
152.8465730879
 21
45.3721582087
  0
LINE
  5
638
100
AcDbEntity
  8
_30_VOLUMEN
100
AcDbLine
 62
7
  6
CONTINUOUS
 10
152.8763462145
 20
44.6721582087
 11
152.8763462145
 21
45.3721582087
  0
LINE
  5
639
100
AcDbEntity
  8
_30_VOLUMEN
100
AcDbLine
 62
7
  6
CONTINUOUS
 10
152.8937704773
 20
44.6721582087
 11
152.8937704773
 21
45.3721582087
  0
LINE
  5
63A
100
AcDbEntity
  8
_30_VOLUMEN
100
AcDbLine
 62
7
  6
CONTINUOUS
 10
153.0908373374
 20
30.6721582087
 11
153.0908373374
 21
29.9721582087
  0
LINE
  5
63B
100
AcDbEntity
  8
_30_VOLUMEN
100
AcDbLine
 62
7
  6
CONTINUOUS
 10
153.2452906366
 20
44.6721582087
 11
153.2452906366
 21
45.3721582087
  0
LINE
  5
63C
100
AcDbEntity
  8
_30_VOLUMEN
100
AcDbLine
 62
7
  6
CONTINUOUS
 10
153.3845884547
 20
30.6721582087
 11
153.3845884547
 21
29.9721582087
  0
LINE
  5
63D
100
AcDbEntity
  8
_30_VOLUMEN
100
AcDbLine
 62
7
  6
CONTINUOUS
 10
154.1383341324
 20
44.6721582087
 11
154.1383341324
 21
45.3721582087
  0
LINE
  5
63E
100
AcDbEntity
  8
_30_VOLUMEN
100
AcDbLine
 62
7
  6
CONTINUOUS
 10
154.2202018405
 20
30.6721582087
 11
154.2202018405
 21
29.9721582087
  0
LINE
  5
63F
100
AcDbEntity
  8
_30_VOLUMEN
100
AcDbLine
 62
7
  6
CONTINUOUS
 10
154.7458551546
 20
30.6721582087
 11
154.7458551546
 21
29.9721582087
  0
LWPOLYLINE
  5
640
100
AcDbEntity
  8
_30_VOLUMEN
100
AcDbPolyline
 62
7
  6
CONTINUOUS
 90
6
 70
0
 10
159.7711865108
 20
29.9643616647
 10
159.9698225707
 20
30.120143149
 10
160.19927393
 20
30.3075814039
 10
160.4196015516
 20
30.4959691228
 10
160.6309600121
 20
30.6853721902
 10
160.7868226039
 20
30.8319618128
  0
LINE
  5
641
100
AcDbEntity
  8
_30_VOLUMEN
100
AcDbLine
 62
7
  6
CONTINUOUS
 10
159.7720790155
 20
29.9650352612
 11
159.7711932784
 21
29.9643528676
  0
LINE
  5
642
100
AcDbEntity
  8
_26_BEZUGSACHSEN
100
AcDbLine
 62
7
  6
CONTINUOUS
 10
159.7721174901
 20
45.3792515015
 11
159.7711932784
 21
45.3799635498
  0
LINE
  5
643
100
AcDbEntity
  8
_30_VOLUMEN
100
AcDbLine
 62
7
  6
CONTINUOUS
 10
154.8714353379
 20
30.6721582087
 11
154.8714353379
 21
29.9721582087
  0
LINE
  5
644
100
AcDbEntity
  8
_30_VOLUMEN
100
AcDbLine
 62
7
  6
CONTINUOUS
 10
155.298482619
 20
30.6721582087
 11
155.298482619
 21
29.9721582087
  0
LINE
  5
645
100
AcDbEntity
  8
_30_VOLUMEN
100
AcDbLine
 62
7
  6
CONTINUOUS
 10
155.5188937016
 20
30.6721582087
 11
155.5188937016
 21
29.9721582087
  0
LWPOLYLINE
  5
646
100
AcDbEntity
  8
_26_BEZUGSACHSEN
100
AcDbPolyline
 62
7
  6
CONTINUOUS
 90
6
 70
0
 10
160.7868226039
 20
44.5123546046
 10
160.6309600121
 20
44.6589442272
 10
160.4196015516
 20
44.8483472946
 10
160.19927393
 20
45.0367350135
 10
159.9698225707
 20
45.2241732684
 10
159.7711865108
 20
45.3799547527
  0
LWPOLYLINE
  5
647
100
AcDbEntity
  8
_26_BEZUGSACHSEN
100
AcDbPolyline
 62
7
  6
CONTINUOUS
 90
7
 70
0
 10
160.0993398878
 20
45.0548305436
 10
160.1064735606
 20
45.0447569207
 10
160.1135915514
 20
45.0341627698
 10
160.1116141525
 20
45.0374616147
 10
160.1011475322
 20
45.0558959394
 10
160.082892371
 20
45.090489679
 10
160.0573739355
 20
45.1425518332
  0
LINE
  5
648
100
AcDbEntity
  8
_30_VOLUMEN
100
AcDbLine
 62
7
  6
CONTINUOUS
 10
160.0102639201
 20
30.0965320095
 11
160.0103250675
 21
30.0966755555
  0
LWPOLYLINE
  5
649
100
AcDbEntity
  8
_30_VOLUMEN
100
AcDbPolyline
 62
7
  6
CONTINUOUS
 90
3
 70
0
 10
160.0103173149
 20
30.0966777092
 10
160.0250318546
 20
30.1307037577
 10
160.0500507155
 20
30.1856813245
  0
LWPOLYLINE
  5
64A
100
AcDbEntity
  8
_26_BEZUGSACHSEN
100
AcDbPolyline
 62
7
  6
CONTINUOUS
 90
3
 70
0
 10
160.0573739355
 20
45.1425518332
 10
160.0250988728
 20
45.2134600368
 10
160.0103169009
 20
45.2476396802
  0
LINE
  5
64B
100
AcDbEntity
  8
_26_BEZUGSACHSEN
100
AcDbLine
 62
7
  6
CONTINUOUS
 10
160.0099515235
 20
45.2485173048
 11
160.0103246534
 21
45.2476418339
  0
LINE
  5
64C
100
AcDbEntity
  8
_26_BEZUGSACHSEN
100
AcDbLine
 62
7
  6
CONTINUOUS
 10
162.8267614981
 20
33.6721582087
 11
162.8267614981
 21
41.6721582087
  0
ARC
  5
64D
100
AcDbEntity
  8
_30_VOLUMEN
100
AcDbCircle
 62
7
  6
CONTINUOUS
 10
119.0617831454
 20
228.561470009
 40
45.0
100
AcDbArc
 50
15.2660363011
 51
70.8179100571
  0
ARC
  5
64E
100
AcDbEntity
  8
_30_VOLUMEN
100
AcDbCircle
 62
7
  6
CONTINUOUS
 10
122.7337805823
 20
231.2547707898
 40
9.1092462685
100
AcDbArc
 50
263.6347853496
 51
266.0075282772
  0
ARC
  5
64F
100
AcDbEntity
  8
_30_VOLUMEN
100
AcDbCircle
 62
7
  6
CONTINUOUS
 10
121.0251312237
 20
216.0059477021
 40
6.2350090538
100
AcDbArc
 50
83.5654361668
 51
85.395774916
  0
ARC
  5
650
100
AcDbEntity
  8
_30_VOLUMEN
100
AcDbCircle
 62
7
  6
CONTINUOUS
 10
116.0968724754
 20
226.5787813425
 40
3.0349859298
100
AcDbArc
 50
188.3586218425
 51
192.5401822592
  0
ARC
  5
651
100
AcDbEntity
  8
_26_BEZUGSACHSEN
100
AcDbCircle
 62
7
  6
CONTINUOUS
 10
106.5429483462
 20
214.480703401
 40
3.0000003432
100
AcDbArc
 50
200.3064770359
 51
260.5882987837
  0
ARC
  5
652
100
AcDbEntity
  8
_26_BEZUGSACHSEN
100
AcDbCircle
 62
7
  6
CONTINUOUS
 10
105.5617831454
 20
208.561470009
 40
3.0
100
AcDbArc
 50
0.0
 51
80.5882904786
  0
ARC
  5
653
100
AcDbEntity
  8
_30_VOLUMEN
100
AcDbCircle
 62
7
  6
CONTINUOUS
 10
106.5131049551
 20
214.561470009
 40
3.0
100
AcDbArc
 50
200.2522459024
 51
269.9999976515
  0
ARC
  5
654
100
AcDbEntity
  8
_26_BEZUGSACHSEN
100
AcDbCircle
 62
7
  6
CONTINUOUS
 10
69.2362849122
 20
246.061470009
 40
94.0
100
AcDbArc
 50
339.6940877577
 51
339.7477532578
  0
ARC
  5
655
100
AcDbEntity
  8
_30_VOLUMEN
100
AcDbCircle
 62
7
  6
CONTINUOUS
 10
69.2362849122
 20
246.061470009
 40
94.0
100
AcDbArc
 50
339.747753079
 51
354.3400322592
  0
ARC
  5
656
100
AcDbEntity
  8
_26_BEZUGSACHSEN
100
AcDbCircle
 62
7
  6
CONTINUOUS
 10
108.2968047927
 20
237.7770132292
 40
10.0
100
AcDbArc
 50
164.7339636989
 51
185.6599677408
  0
ARC
  5
657
100
AcDbEntity
  8
_30_VOLUMEN
100
AcDbCircle
 62
7
  6
CONTINUOUS
 10
108.2968047927
 20
237.7770132292
 40
10.0
100
AcDbArc
 50
164.7339636989
 51
185.6599677408
  0
ARC
  5
658
100
AcDbEntity
  8
_30_VOLUMEN
100
AcDbCircle
 62
7
  6
CONTINUOUS
 10
142.0617831454
 20
228.561470009
 40
45.0
100
AcDbArc
 50
109.1820899429
 51
164.7339636989
  0
ARC
  5
659
100
AcDbEntity
  8
_30_VOLUMEN
100
AcDbCircle
 62
7
  6
CONTINUOUS
 10
138.4141673429
 20
230.985761238
 40
8.8391937354
100
AcDbArc
 50
273.9562206184
 51
276.4014657548
  0
ARC
  5
65A
100
AcDbEntity
  8
_30_VOLUMEN
100
AcDbCircle
 62
7
  6
CONTINUOUS
 10
140.0984350672
 20
216.0059477021
 40
6.2350090538
100
AcDbArc
 50
94.6042250839
 51
96.4345638332
  0
ARC
  5
65B
100
AcDbEntity
  8
_30_VOLUMEN
100
AcDbCircle
 62
7
  6
CONTINUOUS
 10
145.0266938154
 20
226.5787813425
 40
3.0349859298
100
AcDbArc
 50
347.4598177408
 51
351.6413781576
  0
ARC
  5
65C
100
AcDbEntity
  8
_26_BEZUGSACHSEN
100
AcDbCircle
 62
7
  6
CONTINUOUS
 10
155.5617831454
 20
208.561470009
 40
3.0
100
AcDbArc
 50
99.4117095214
 51
180.0
  0
ARC
  5
65D
100
AcDbEntity
  8
_30_VOLUMEN
100
AcDbCircle
 62
7
  6
CONTINUOUS
 10
154.6104613357
 20
214.561470009
 40
3.0
100
AcDbArc
 50
269.9999843331
 51
339.7477476559
  0
ARC
  5
65E
100
AcDbEntity
  8
_26_BEZUGSACHSEN
100
AcDbCircle
 62
7
  6
CONTINUOUS
 10
154.6104613357
 20
214.561470009
 40
3.0
100
AcDbArc
 50
335.0979034559
 51
339.5299627326
  0
ARC
  5
65F
100
AcDbEntity
  8
_26_BEZUGSACHSEN
100
AcDbCircle
 62
7
  6
CONTINUOUS
 10
154.6104613357
 20
214.561470009
 40
3.0
100
AcDbArc
 50
270.4103735603
 51
279.2997010532
  0
ARC
  5
660
100
AcDbEntity
  8
_26_BEZUGSACHSEN
100
AcDbCircle
 62
7
  6
CONTINUOUS
 10
154.58061763
 20
214.4807025559
 40
2.9999999892
100
AcDbArc
 50
279.4117097843
 51
339.6935401875
  0
ARC
  5
661
100
AcDbEntity
  8
_26_BEZUGSACHSEN
100
AcDbCircle
 62
7
  6
CONTINUOUS
 10
191.8872813787
 20
246.061470009
 40
94.0
100
AcDbArc
 50
200.2522467422
 51
200.3064600385
  0
ARC
  5
662
100
AcDbEntity
  8
_30_VOLUMEN
100
AcDbCircle
 62
7
  6
CONTINUOUS
 10
191.8872813787
 20
246.061470009
 40
94.0
100
AcDbArc
 50
185.6599677408
 51
200.2522467154
  0
ARC
  5
663
100
AcDbEntity
  8
_30_VOLUMEN
100
AcDbCircle
 62
7
  6
CONTINUOUS
 10
130.5617831454
 20
238.561470009
 40
17.5
100
AcDbArc
 50
0.0
 51
180.0
  0
ARC
  5
664
100
AcDbEntity
  8
_26_BEZUGSACHSEN
100
AcDbCircle
 62
7
  6
CONTINUOUS
 10
152.8267614981
 20
237.7770132292
 40
10.0
100
AcDbArc
 50
354.3400322592
 51
15.2660363011
  0
ARC
  5
665
100
AcDbEntity
  8
_30_VOLUMEN
100
AcDbCircle
 62
7
  6
CONTINUOUS
 10
152.8267614981
 20
237.7770132292
 40
10.0
100
AcDbArc
 50
354.3400322592
 51
15.2660363011
  0
ARC
  5
666
100
AcDbEntity
  8
_30_VOLUMEN
100
AcDbCircle
 62
7
  6
CONTINUOUS
 10
130.5617831454
 20
261.6182393611
 40
10.0
100
AcDbArc
 50
70.8179100571
 51
109.1820899429
  0
ARC
  5
667
100
AcDbEntity
  8
_30_VOLUMEN
100
AcDbCircle
 62
7
  6
CONTINUOUS
 10
201.2747480523
 20
210.1267546883
 40
9.8690181477
100
AcDbArc
 50
9.0081353664
 51
9.5856483658
  0
ARC
  5
668
100
AcDbEntity
  8
_30_VOLUMEN
100
AcDbCircle
 62
7
  6
CONTINUOUS
 10
202.5252307439
 20
210.3390895432
 40
8.6006366721
100
AcDbArc
 50
9.5780698767
 51
10.9906875777
  0
ARC
  5
669
100
AcDbEntity
  8
_30_VOLUMEN
100
AcDbCircle
 62
7
  6
CONTINUOUS
 10
216.8790954635
 20
212.194282039
 40
6.1443335889
100
AcDbArc
 50
179.5542765855
 51
180.0086642403
  0
ARC
  5
66A
100
AcDbEntity
  8
_30_VOLUMEN
100
AcDbCircle
 62
7
  6
CONTINUOUS
 10
205.412834877
 20
216.5819954414
 40
5.605433041
100
AcDbArc
 50
10.5220304828
 51
11.2719805495
  0
ARC
  5
66B
100
AcDbEntity
  8
_26_BEZUGSACHSEN
100
AcDbCircle
 62
7
  6
CONTINUOUS
 10
220.7253928163
 20
227.1402402516
 40
5.0
100
AcDbArc
 50
276.0
 51
350.0
  0
ARC
  5
66C
100
AcDbEntity
  8
_26_BEZUGSACHSEN
100
AcDbCircle
 62
7
  6
CONTINUOUS
 10
221.9347619313
 20
233.9989133266
 40
5.0
100
AcDbArc
 50
350.0
 51
360.0
  0
ARC
  5
66D
100
AcDbEntity
  8
_26_BEZUGSACHSEN
100
AcDbCircle
 62
7
  6
CONTINUOUS
 10
214.4347619313
 20
210.9593857707
 40
3.0
100
AcDbArc
 50
180.0
 51
203.5564643091
  0
ARC
  5
66E
100
AcDbEntity
  8
_26_BEZUGSACHSEN
100
AcDbCircle
 62
7
  6
CONTINUOUS
 10
214.4347636971
 20
218.4350022522
 40
3.0
100
AcDbArc
 50
96.0
 51
179.9999988041
  0
ARC
  5
66F
100
AcDbEntity
  8
_26_BEZUGSACHSEN
100
AcDbCircle
 62
7
  6
CONTINUOUS
 10
208.9347619313
 20
208.561470009
 40
3.0
100
AcDbArc
 50
0.0
 51
23.5564643091
  0
ARC
  5
670
100
AcDbEntity
  8
_26_BEZUGSACHSEN
100
AcDbCircle
 62
7
  6
CONTINUOUS
 10
221.975663105
 20
219.2385426995
 40
3.0
100
AcDbArc
 50
96.2281332221
 51
98.991259223
  0
ARC
  5
671
100
AcDbEntity
  8
_30_VOLUMEN
100
AcDbCircle
 62
7
  6
CONTINUOUS
 10
210.4639265116
 20
215.1195618547
 40
0.3545993185
100
AcDbArc
 50
4.9451081434
 51
6.943523941
  0
ARC
  5
672
100
AcDbEntity
  8
_30_VOLUMEN
100
AcDbCircle
 62
7
  6
CONTINUOUS
 10
211.0270099722
 20
213.3769773701
 40
0.1594120268
100
AcDbArc
 50
187.8352060239
 51
190.4619722384
  0
ARC
  5
673
100
AcDbEntity
  8
_26_BEZUGSACHSEN
100
AcDbCircle
 62
7
  6
CONTINUOUS
 10
229.9347619313
 20
268.6182393611
 40
3.0
100
AcDbArc
 50
90.0
 51
180.0
  0
ARC
  5
674
100
AcDbEntity
  8
_30_VOLUMEN
100
AcDbCircle
 62
7
  6
CONTINUOUS
 10
247.1441310463
 20
227.1402402516
 40
5.0
100
AcDbArc
 50
190.0
 51
264.0
  0
ARC
  5
675
100
AcDbEntity
  8
_30_VOLUMEN
100
AcDbCircle
 62
7
  6
CONTINUOUS
 10
245.9347619313
 20
233.9989133266
 40
5.0
100
AcDbArc
 50
180.0
 51
190.0
  0
ARC
  5
676
100
AcDbEntity
  8
_30_VOLUMEN
100
AcDbCircle
 62
7
  6
CONTINUOUS
 10
253.4347619313
 20
210.9593857707
 40
3.0
100
AcDbArc
 50
336.4435356909
 51
360.0
  0
ARC
  5
677
100
AcDbEntity
  8
_30_VOLUMEN
100
AcDbCircle
 62
7
  6
CONTINUOUS
 10
253.4347601655
 20
218.4350022522
 40
3.0
100
AcDbArc
 50
0.0000011959
 51
84.0
  0
ARC
  5
678
100
AcDbEntity
  8
_30_VOLUMEN
100
AcDbCircle
 62
7
  6
CONTINUOUS
 10
258.9347619313
 20
208.561470009
 40
3.0
100
AcDbArc
 50
156.4435356909
 51
180.0
  0
ARC
  5
679
100
AcDbEntity
  8
_30_VOLUMEN
100
AcDbCircle
 62
7
  6
CONTINUOUS
 10
245.8938607575
 20
219.2385426995
 40
3.0
100
AcDbArc
 50
81.008740777
 51
83.7718667779
  0
ARC
  5
67A
100
AcDbEntity
  8
_30_VOLUMEN
100
AcDbCircle
 62
7
  6
CONTINUOUS
 10
237.9347619313
 20
268.6182393611
 40
3.0
100
AcDbArc
 50
0.0
 51
90.0
  0
ARC
  5
67B
100
AcDbEntity
  8
_30_VOLUMEN
100
AcDbCircle
 62
7
  6
CONTINUOUS
 10
103.7234970149
 20
11.4813888886
 40
15.0
100
AcDbArc
 50
44.3004186781
 51
65.0
  0
ARC
  5
67C
100
AcDbEntity
  8
_30_VOLUMEN
100
AcDbCircle
 62
7
  6
CONTINUOUS
 10
103.8732845963
 20
31.2723443337
 40
3.0
100
AcDbArc
 50
203.0911111662
 51
244.9999835949
  0
ARC
  5
67D
100
AcDbEntity
  8
_30_VOLUMEN
100
AcDbCircle
 62
7
  6
CONTINUOUS
 10
101.2968047927
 20
33.6721582087
 40
3.0
100
AcDbArc
 50
180.0
 51
270.0
  0
ARC
  5
67E
100
AcDbEntity
  8
_26_BEZUGSACHSEN
100
AcDbCircle
 62
7
  6
CONTINUOUS
 10
103.7234970149
 20
63.8629275288
 40
15.0
100
AcDbArc
 50
295.0
 51
315.6995813219
  0
ARC
  5
67F
100
AcDbEntity
  8
_26_BEZUGSACHSEN
100
AcDbCircle
 62
7
  6
CONTINUOUS
 10
103.8732845963
 20
44.0719720837
 40
3.0
100
AcDbArc
 50
115.0000164051
 51
156.9240858399
  0
ARC
  5
680
100
AcDbEntity
  8
_26_BEZUGSACHSEN
100
AcDbCircle
 62
7
  6
CONTINUOUS
 10
101.2968047927
 20
41.6721582087
 40
3.0
100
AcDbArc
 50
90.0
 51
180.0
  0
ARC
  5
681
100
AcDbEntity
  8
_30_VOLUMEN
100
AcDbCircle
 62
7
  6
CONTINUOUS
 10
157.4000692759
 20
11.4813888886
 40
15.0
100
AcDbArc
 50
115.0
 51
135.6995813219
  0
ARC
  5
682
100
AcDbEntity
  8
_30_VOLUMEN
100
AcDbCircle
 62
7
  6
CONTINUOUS
 10
157.2502899478
 20
31.2723481822
 40
3.0
100
AcDbArc
 50
295.0014047284
 51
336.9248909879
  0
ARC
  5
683
100
AcDbEntity
  8
_30_VOLUMEN
100
AcDbCircle
 62
7
  6
CONTINUOUS
 10
159.8267614981
 20
33.6721582087
 40
3.0
100
AcDbArc
 50
270.0
 51
360.0
  0
ARC
  5
684
100
AcDbEntity
  8
_30_VOLUMEN
100
AcDbCircle
 62
7
  6
CONTINUOUS
 10
130.5617831454
 20
37.6721582087
 40
23.2
100
AcDbArc
 50
78.8454990321
 51
101.037912094
  0
ARC
  5
685
100
AcDbEntity
  8
_30_VOLUMEN
100
AcDbCircle
 62
7
  6
CONTINUOUS
 10
130.5617831454
 20
37.6721582087
 40
23.2
100
AcDbArc
 50
290.9750063796
 51
297.0612950081
  0
ARC
  5
686
100
AcDbEntity
  8
_30_VOLUMEN
100
AcDbCircle
 62
7
  6
CONTINUOUS
 10
130.5617831454
 20
37.6721582087
 40
23.2
100
AcDbArc
 50
286.210207516
 51
289.4944146817
  0
ARC
  5
687
100
AcDbEntity
  8
_30_VOLUMEN
100
AcDbCircle
 62
7
  6
CONTINUOUS
 10
130.5617831454
 20
37.6721582087
 40
23.2
100
AcDbArc
 50
279.0869827291
 51
284.768636333
  0
ARC
  5
688
100
AcDbEntity
  8
_30_VOLUMEN
100
AcDbCircle
 62
7
  6
CONTINUOUS
 10
130.5617831454
 20
37.6721582087
 40
23.2
100
AcDbArc
 50
271.2349184454
 51
277.6827622086
  0
ARC
  5
689
100
AcDbEntity
  8
_30_VOLUMEN
100
AcDbCircle
 62
7
  6
CONTINUOUS
 10
130.5617831454
 20
37.6721582087
 40
23.2
100
AcDbArc
 50
259.9150709475
 51
268.301870005
  0
ARC
  5
68A
100
AcDbEntity
  8
_30_VOLUMEN
100
AcDbCircle
 62
7
  6
CONTINUOUS
 10
130.5617831454
 20
37.6721582087
 40
23.2
100
AcDbArc
 50
254.6919466794
 51
258.0279006795
  0
ARC
  5
68B
100
AcDbEntity
  8
_30_VOLUMEN
100
AcDbCircle
 62
7
  6
CONTINUOUS
 10
130.5617831454
 20
37.6721582087
 40
23.2
100
AcDbArc
 50
249.8287286535
 51
252.7623205086
  0
ARC
  5
68C
100
AcDbEntity
  8
_30_VOLUMEN
100
AcDbCircle
 62
7
  6
CONTINUOUS
 10
130.5617831454
 20
37.6721582087
 40
22.5
100
AcDbArc
 50
224.3004186781
 51
315.6995813219
  0
ARC
  5
68D
100
AcDbEntity
  8
_26_BEZUGSACHSEN
100
AcDbCircle
 62
7
  6
CONTINUOUS
 10
130.5617831454
 20
37.6721582087
 40
22.5
100
AcDbArc
 50
44.3004186781
 51
135.6995813219
  0
ARC
  5
68E
100
AcDbEntity
  8
_30_VOLUMEN
100
AcDbCircle
 62
7
  6
CONTINUOUS
 10
130.5617831454
 20
37.6721582087
 40
15.25
100
AcDbArc
 50
210.3306245888
 51
329.6693753851
  0
ARC
  5
68F
100
AcDbEntity
  8
_30_VOLUMEN
100
AcDbCircle
 62
7
  6
CONTINUOUS
 10
130.5617831454
 20
37.6721582087
 40
15.25
100
AcDbArc
 50
30.3453696803
 51
149.7009137404
  0
ARC
  5
690
100
AcDbEntity
  8
RUNDUNGEN
100
AcDbCircle
 62
7
  6
CONTINUOUS
 10
130.5617831454
 20
37.6721582087
 40
15.0
100
AcDbArc
 50
210.8925002404
 51
329.1074997645
  0
ARC
  5
691
100
AcDbEntity
  8
RUNDUNGEN
100
AcDbCircle
 62
7
  6
CONTINUOUS
 10
130.5617831454
 20
37.6721582087
 40
15.0
100
AcDbArc
 50
29.5070404162
 51
149.1074997645
  0
ARC
  5
692
100
AcDbEntity
  8
_26_BEZUGSACHSEN
100
AcDbCircle
 62
7
  6
CONTINUOUS
 10
157.2502899478
 20
44.0719682352
 40
3.0
100
AcDbArc
 50
23.0902764227
 51
64.9986174706
  0
ARC
  5
693
100
AcDbEntity
  8
_26_BEZUGSACHSEN
100
AcDbCircle
 62
7
  6
CONTINUOUS
 10
159.8267614981
 20
41.6721582087
 40
3.0
100
AcDbArc
 50
0.0
 51
90.0
  0
ARC
  5
694
100
AcDbEntity
  8
_26_BEZUGSACHSEN
100
AcDbCircle
 62
7
  6
CONTINUOUS
 10
157.4000692759
 20
63.8629275288
 40
15.0
100
AcDbArc
 50
224.3004186781
 51
245.0
  0
SPLINE
  5
695
100
AcDbEntity
  8
_30_VOLUMEN
100
AcDbSpline
 62
7
  6
CONTINUOUS
 70
0
 71
3
 72
12
 73
8
 74
0
 42
0.0000001
 43
0.0000001
 44
0.0000000001
 40
0.0
 40
0.0
 40
0.0
 40
0.0
 40
0.3543054213
 40
0.6378754338
 40
0.7530217944
 40
0.8506784447
 40
1.0
 40
1.0
 40
1.0
 40
1.0
 10
116.0617831454
 20
223.0459747788
 30
0.0
 10
115.9488768115
 20
223.0837983669
 30
0.0
 10
115.7510155841
 20
223.1698578579
 30
0.0
 10
115.5398512578
 20
223.3124227857
 30
0.0
 10
115.4200346627
 20
223.429640621
 30
0.0
 10
115.3460245182
 20
223.5255377884
 30
0.0
 10
115.3117829779
 20
223.6071148184
 30
0.0
 10
115.3117829779
 20
223.6572981281
 30
0.0
  0
SPLINE
  5
696
100
AcDbEntity
  8
_30_VOLUMEN
100
AcDbSpline
 62
7
  6
CONTINUOUS
 70
0
 71
3
 72
11
 73
7
 74
0
 42
0.0000001
 43
0.0000001
 44
0.0000000001
 40
0.0
 40
0.0
 40
0.0
 40
0.0
 40
0.2500040052
 40
0.5000156189
 40
0.7499924178
 40
1.0
 40
1.0
 40
1.0
 40
1.0
 10
113.1342892453
 20
225.9198123003
 30
0.0
 10
113.193891914
 20
225.6519319871
 30
0.0
 10
113.3874266803
 20
225.1297191081
 30
0.0
 10
113.8773889544
 20
224.4557416999
 30
0.0
 10
114.5313260053
 20
223.939149557
 30
0.0
 10
115.0461660576
 20
223.72630644
 30
0.0
 10
115.3117829779
 20
223.6572981281
 30
0.0
  0
SPLINE
  5
697
100
AcDbEntity
  8
_30_VOLUMEN
100
AcDbSpline
 62
7
  6
CONTINUOUS
 70
0
 71
3
 72
12
 73
8
 74
0
 42
0.0000001
 43
0.0000001
 44
0.0000000001
 40
0.0
 40
0.0
 40
0.0
 40
0.0
 40
0.1493215565
 40
0.2469782071
 40
0.3621245677
 40
0.6456945797
 40
1.0
 40
1.0
 40
1.0
 40
1.0
 10
145.8117833129
 20
223.6572981281
 30
0.0
 10
145.8117833129
 20
223.607114818
 30
0.0
 10
145.7775417722
 20
223.5255377875
 30
0.0
 10
145.7035316272
 20
223.4296406199
 30
0.0
 10
145.5837150319
 20
223.3124227848
 30
0.0
 10
145.3725507059
 20
223.1698578576
 30
0.0
 10
145.174689479
 20
223.0837983668
 30
0.0
 10
145.0617831454
 20
223.0459747788
 30
0.0
  0
SPLINE
  5
698
100
AcDbEntity
  8
_30_VOLUMEN
100
AcDbSpline
 62
7
  6
CONTINUOUS
 70
0
 71
3
 72
11
 73
7
 74
0
 42
0.0000001
 43
0.0000001
 44
0.0000000001
 40
0.0
 40
0.0
 40
0.0
 40
0.0
 40
0.2500040052
 40
0.5000156189
 40
0.7499924178
 40
1.0
 40
1.0
 40
1.0
 40
1.0
 10
147.9892770456
 20
225.9198123003
 30
0.0
 10
147.9296743768
 20
225.6519319871
 30
0.0
 10
147.7361396105
 20
225.1297191081
 30
0.0
 10
147.2461773365
 20
224.4557416999
 30
0.0
 10
146.5922402856
 20
223.939149557
 30
0.0
 10
146.0774002333
 20
223.72630644
 30
0.0
 10
145.8117833129
 20
223.6572981281
 30
0.0
  0
SPLINE
  5
699
100
AcDbEntity
  8
_30_VOLUMEN
100
AcDbSpline
 62
7
  6
CONTINUOUS
 70
0
 71
3
 72
12
 73
8
 74
0
 42
0.0000001
 43
0.0000001
 44
0.0000000001
 40
0.0
 40
0.0
 40
0.0
 40
0.0
 40
0.1000188933
 40
0.1816549752
 40
0.289551677
 40
0.5884562074
 40
1.0
 40
1.0
 40
1.0
 40
1.0
 10
210.7815495121
 20
212.5707748969
 30
0.0
 10
210.7752821969
 20
212.5707768835
 30
0.0
 10
210.7657313615
 20
212.5606729938
 30
0.0
 10
210.7592128825
 20
212.5443614112
 30
0.0
 10
210.7507451626
 20
212.5145997146
 30
0.0
 10
210.7437828703
 20
212.4638372101
 30
0.0
 10
210.7404483145
 20
212.4193901387
 30
0.0
 10
210.7390559448
 20
212.3936398796
 30
0.0
  0
SPLINE
  5
69A
100
AcDbEntity
  8
_30_VOLUMEN
100
AcDbSpline
 62
7
  6
CONTINUOUS
 70
0
 71
3
 72
9
 73
5
 74
0
 42
0.0000001
 43
0.0000001
 44
0.0000000001
 40
0.0
 40
0.0
 40
0.0
 40
0.0
 40
0.2237941112
 40
1.0
 40
1.0
 40
1.0
 40
1.0
 10
210.7390559448
 20
212.3936398796
 30
0.0
 10
210.7384831417
 20
212.3830465538
 30
0.0
 10
210.7363080439
 20
212.3356905694
 30
0.0
 10
210.7353878204
 20
212.2882846274
 30
0.0
 10
210.7350307354
 20
212.2514908718
 30
0.0
  0
LINE
  5
69B
100
AcDbEntity
  8
_30_VOLUMEN
100
AcDbLine
 62
7
  6
CONTINUOUS
 10
210.7350307354
 20
212.2514908718
 11
210.7349477955
 21
212.2420804239
  0
SPLINE
  5
69C
100
AcDbEntity
  8
_30_VOLUMEN
100
AcDbSpline
 62
7
  6
CONTINUOUS
 70
0
 71
3
 72
10
 73
6
 74
0
 42
0.0000001
 43
0.0000001
 44
0.0000000001
 40
0.0
 40
0.0
 40
0.0
 40
0.0
 40
0.1192687739
 40
0.3164678023
 40
1.0
 40
1.0
 40
1.0
 40
1.0
 10
210.7815510951
 20
217.6189704808
 30
0.0
 10
210.7851164955
 20
217.6189698704
 30
0.0
 10
210.793797247
 20
217.6130289011
 30
0.0
 10
210.8093314614
 20
217.5877779362
 30
0.0
 10
210.8183271702
 20
217.5625600774
 30
0.0
 10
210.8246302188
 20
217.543123122
 30
0.0
  0
SPLINE
  5
69D
100
AcDbEntity
  8
_30_VOLUMEN
100
AcDbSpline
 62
7
  6
CONTINUOUS
 70
0
 71
3
 72
9
 73
5
 74
0
 42
0.0000001
 43
0.0000001
 44
0.0000000001
 40
0.0
 40
0.0
 40
0.0
 40
0.0
 40
0.4123802294
 40
1.0
 40
1.0
 40
1.0
 40
1.0
 10
210.8246302188
 20
217.543123122
 30
0.0
 10
210.8379948768
 20
217.5019100078
 30
0.0
 10
210.8628350712
 20
217.399623464
 30
0.0
 10
210.8822428837
 20
217.2963805286
 30
0.0
 10
210.8925609283
 20
217.235511745
 30
0.0
  0
SPLINE
  5
69E
100
AcDbEntity
  8
_30_VOLUMEN
100
AcDbSpline
 62
7
  6
CONTINUOUS
 70
0
 71
3
 72
12
 73
8
 74
0
 42
0.0000001
 43
0.0000001
 44
0.0000000001
 40
0.0
 40
0.0
 40
0.0
 40
0.0
 40
0.0991078071
 40
0.1808565688
 40
0.2890183117
 40
0.5884056917
 40
1.0
 40
1.0
 40
1.0
 40
1.0
 10
210.7815493926
 20
218.0689747076
 30
0.0
 10
210.7759709879
 20
218.0689743039
 30
0.0
 10
210.7675378745
 20
218.0598138605
 30
0.0
 10
210.7616191538
 20
218.0452587158
 30
0.0
 10
210.7538021934
 20
218.0185190044
 30
0.0
 10
210.7469918694
 20
217.9729786188
 30
0.0
 10
210.7434691966
 20
217.9330596121
 30
0.0
 10
210.7419026518
 20
217.9099455457
 30
0.0
  0
SPLINE
  5
69F
100
AcDbEntity
  8
_30_VOLUMEN
100
AcDbSpline
 62
7
  6
CONTINUOUS
 70
0
 71
3
 72
9
 73
5
 74
0
 42
0.0000001
 43
0.0000001
 44
0.0000000001
 40
0.0
 40
0.0
 40
0.0
 40
0.0
 40
0.2043415737
 40
1.0
 40
1.0
 40
1.0
 40
1.0
 10
210.7419026518
 20
217.9099455457
 30
0.0
 10
210.7405381942
 20
217.8898132371
 30
0.0
 10
210.7354931657
 20
217.7911808312
 30
0.0
 10
210.734762225
 20
217.6923886469
 30
0.0
 10
210.7347619416
 20
217.6138183004
 30
0.0
  0
SPLINE
  5
6A0
100
AcDbEntity
  8
_30_VOLUMEN
100
AcDbSpline
 62
7
  6
CONTINUOUS
 70
0
 71
3
 72
9
 73
5
 74
0
 42
0.0000001
 43
0.0000001
 44
0.0000000001
 40
0.0
 40
0.0
 40
0.0
 40
0.0
 40
0.188010839
 40
1.0
 40
1.0
 40
1.0
 40
1.0
 10
210.7815491837
 20
212.118970169
 30
0.0
 10
210.7830324491
 20
212.1189702771
 30
0.0
 10
210.7909276112
 20
212.1171388136
 30
0.0
 10
210.7963681588
 20
212.110364353
 30
0.0
 10
210.8001429065
 20
212.1051886424
 30
0.0
  0
SPLINE
  5
6A1
100
AcDbEntity
  8
_30_VOLUMEN
100
AcDbSpline
 62
7
  6
CONTINUOUS
 70
0
 71
3
 72
11
 73
7
 74
0
 42
0.0000001
 43
0.0000001
 44
0.0000000001
 40
0.0
 40
0.0
 40
0.0
 40
0.0
 40
0.1287963304
 40
0.3399401238
 40
0.6317664955
 40
1.0
 40
1.0
 40
1.0
 40
1.0
 10
210.8001429065
 20
212.1051886424
 30
0.0
 10
210.811980366
 20
212.0889578184
 30
0.0
 10
210.832363753
 20
212.0391340736
 30
0.0
 10
210.8615052129
 20
211.9453768897
 30
0.0
 10
210.8932560525
 20
211.8129865841
 30
0.0
 10
210.9135169489
 20
211.7120896347
 30
0.0
 10
210.9240103975
 20
211.6556213555
 30
0.0
  0
SPLINE
  5
6A2
100
AcDbEntity
  8
_30_VOLUMEN
100
AcDbSpline
 62
7
  6
CONTINUOUS
 70
0
 71
3
 72
11
 73
7
 74
0
 42
0.0000001
 43
0.0000001
 44
0.0000000001
 40
0.0
 40
0.0
 40
0.0
 40
0.0
 40
0.4163886691
 40
0.727247098
 40
0.9166185924
 40
1.0
 40
1.0
 40
1.0
 40
1.0
 10
210.8200075676
 20
216.1774856178
 30
0.0
 10
210.8211003744
 20
216.1653026478
 30
0.0
 10
210.8230948243
 20
216.1442118146
 30
0.0
 10
210.8278022758
 20
216.1170582256
 30
0.0
 10
210.8311629803
 20
216.1013877624
 30
0.0
 10
210.8366480312
 20
216.0931656848
 30
0.0
 10
210.8390974536
 20
216.0931656848
 30
0.0
  0
SPLINE
  5
6A3
100
AcDbEntity
  8
_30_VOLUMEN
100
AcDbSpline
 62
7
  6
CONTINUOUS
 70
0
 71
3
 72
11
 73
7
 74
0
 42
0.0000001
 43
0.0000001
 44
0.0000000001
 40
0.0
 40
0.0
 40
0.0
 40
0.0
 40
0.0845383763
 40
0.27851038
 40
0.5901678654
 40
1.0
 40
1.0
 40
1.0
 40
1.0
 10
210.8390974536
 20
216.6933256446
 30
0.0
 10
210.8365490539
 20
216.6933256446
 30
0.0
 10
210.831189953
 20
216.6842771802
 30
0.0
 10
210.8278099364
 20
216.6682446035
 30
0.0
 10
210.8231494087
 20
216.6402602217
 30
0.0
 10
210.8211113149
 20
216.6188306085
 30
0.0
 10
210.8200075676
 20
216.6065256696
 30
0.0
  0
SPLINE
  5
6A4
100
AcDbEntity
  8
_30_VOLUMEN
100
AcDbSpline
 62
7
  6
CONTINUOUS
 70
0
 71
3
 72
9
 73
5
 74
0
 42
0.0000001
 43
0.0000001
 44
0.0000000001
 40
0.0
 40
0.0
 40
0.0
 40
0.0
 40
0.2113799636
 40
1.0
 40
1.0
 40
1.0
 40
1.0
 10
210.8200075676
 20
216.6065256696
 30
0.0
 10
210.8186638913
 20
216.5915459232
 30
0.0
 10
210.8136442257
 20
216.5205602187
 30
0.0
 10
210.8125065173
 20
216.4493567443
 30
0.0
 10
210.8125065173
 20
216.3932456647
 30
0.0
  0
SPLINE
  5
6A5
100
AcDbEntity
  8
_30_VOLUMEN
100
AcDbSpline
 62
7
  6
CONTINUOUS
 70
0
 71
3
 72
9
 73
5
 74
0
 42
0.0000001
 43
0.0000001
 44
0.0000000001
 40
0.0
 40
0.0
 40
0.0
 40
0.0
 40
0.2770013233
 40
1.0
 40
1.0
 40
1.0
 40
1.0
 10
210.8125065173
 20
216.3932456647
 30
0.0
 10
210.8125065173
 20
216.3733087564
 30
0.0
 10
210.8130110476
 20
216.3013472067
 30
0.0
 10
210.8153585253
 20
216.2293146732
 30
0.0
 10
210.8200075676
 20
216.1774856178
 30
0.0
  0
SPLINE
  5
6A6
100
AcDbEntity
  8
_30_VOLUMEN
100
AcDbSpline
 62
7
  6
CONTINUOUS
 70
0
 71
3
 72
8
 73
4
 74
0
 42
0.0000001
 43
0.0000001
 44
0.0000000001
 40
0.0
 40
0.0
 40
0.0
 40
0.0
 40
1.0
 40
1.0
 40
1.0
 40
1.0
 10
210.8020947877
 20
215.2003656493
 30
0.0
 10
210.8037453628
 20
215.2003656493
 30
0.0
 10
210.8053271378
 20
215.1991471849
 30
0.0
 10
210.8063706415
 20
215.1978683189
 30
0.0
  0
SPLINE
  5
6A7
100
AcDbEntity
  8
_30_VOLUMEN
100
AcDbSpline
 62
7
  6
CONTINUOUS
 70
0
 71
3
 72
9
 73
5
 74
0
 42
0.0000001
 43
0.0000001
 44
0.0000000001
 40
0.0
 40
0.0
 40
0.0
 40
0.0
 40
0.3153198175
 40
1.0
 40
1.0
 40
1.0
 40
1.0
 10
210.8063706415
 20
215.1978683189
 30
0.0
 10
210.8088253784
 20
215.194859916
 30
0.0
 10
210.8130087131
 20
215.1828558839
 30
0.0
 10
210.8148964161
 20
215.1707977762
 30
0.0
 10
210.8159251261
 20
215.1624296991
 30
0.0
  0
SPLINE
  5
6A8
100
AcDbEntity
  8
_30_VOLUMEN
100
AcDbSpline
 62
7
  6
CONTINUOUS
 70
0
 71
3
 72
9
 73
5
 74
0
 42
0.0000001
 43
0.0000001
 44
0.0000000001
 40
0.0
 40
0.0
 40
0.0
 40
0.0
 40
0.2191636266
 40
1.0
 40
1.0
 40
1.0
 40
1.0
 10
210.8172059192
 20
215.1501287787
 30
0.0
 10
210.8175064982
 20
215.1466998931
 30
0.0
 10
210.818600675
 20
215.1310308024
 30
0.0
 10
210.8191522022
 20
215.1153314045
 30
0.0
 10
210.8195328936
 20
215.1030740298
 30
0.0
  0
SPLINE
  5
6A9
100
AcDbEntity
  8
_30_VOLUMEN
100
AcDbSpline
 62
7
  6
CONTINUOUS
 70
0
 71
3
 72
9
 73
5
 74
0
 42
0.0000001
 43
0.0000001
 44
0.0000000001
 40
0.0
 40
0.0
 40
0.0
 40
0.0
 40
0.2445629805
 40
1.0
 40
1.0
 40
1.0
 40
1.0
 10
210.8195328936
 20
215.1030740298
 30
0.0
 10
210.8201465457
 20
215.0833158674
 30
0.0
 10
210.8217024208
 20
215.0024984751
 30
0.0
 10
210.8219370904
 20
214.9216665989
 30
0.0
 10
210.8219370904
 20
214.8606056629
 30
0.0
  0
SPLINE
  5
6AA
100
AcDbEntity
  8
_30_VOLUMEN
100
AcDbSpline
 62
7
  6
CONTINUOUS
 70
0
 71
3
 72
9
 73
5
 74
0
 42
0.0000001
 43
0.0000001
 44
0.0000000001
 40
0.0
 40
0.0
 40
0.0
 40
0.0
 40
0.253875198
 40
1.0
 40
1.0
 40
1.0
 40
1.0
 10
210.8219370904
 20
213.5610856717
 30
0.0
 10
210.8219370904
 20
213.5466032286
 30
0.0
 10
210.821789859
 20
213.4895600512
 30
0.0
 10
210.8213595389
 20
213.4324999533
 30
0.0
 10
210.8197945123
 20
213.3899656575
 30
0.0
  0
SPLINE
  5
6AB
100
AcDbEntity
  8
_30_VOLUMEN
100
AcDbSpline
 62
7
  6
CONTINUOUS
 70
0
 71
3
 72
9
 73
5
 74
0
 42
0.0000001
 43
0.0000001
 44
0.0000000001
 40
0.0
 40
0.0
 40
0.0
 40
0.0
 40
0.6726881368
 40
1.0
 40
1.0
 40
1.0
 40
1.0
 10
210.8197945123
 20
213.3899656575
 30
0.0
 10
210.8192639153
 20
213.3755450924
 30
0.0
 10
210.8179722569
 20
213.3541646179
 30
0.0
 10
210.8142589027
 20
213.3328400423
 30
0.0
 10
210.8118457377
 20
213.3262463509
 30
0.0
  0
LINE
  5
6AC
100
AcDbEntity
  8
_30_VOLUMEN
100
AcDbLine
 62
7
  6
CONTINUOUS
 10
210.8118457377
 20
213.3262463509
 11
210.8104844952
 21
213.3230056603
  0
SPLINE
  5
6AD
100
AcDbEntity
  8
_30_VOLUMEN
100
AcDbSpline
 62
7
  6
CONTINUOUS
 70
0
 71
3
 72
9
 73
5
 74
0
 42
0.0000001
 43
0.0000001
 44
0.0000000001
 40
0.0
 40
0.0
 40
0.0
 40
0.0
 40
0.2583210655
 40
1.0
 40
1.0
 40
1.0
 40
1.0
 10
210.7919098869
 20
213.3106056583
 30
0.0
 10
210.7909258824
 20
213.3095292451
 30
0.0
 10
210.7899249612
 20
213.3035586196
 30
0.0
 10
210.7894805129
 20
213.2981588415
 30
0.0
 10
210.7892487641
 20
213.2939779725
 30
0.0
  0
SPLINE
  5
6AE
100
AcDbEntity
  8
_30_VOLUMEN
100
AcDbSpline
 62
7
  6
CONTINUOUS
 70
0
 71
3
 72
9
 73
5
 74
0
 42
0.0000001
 43
0.0000001
 44
0.0000000001
 40
0.0
 40
0.0
 40
0.0
 40
0.0
 40
0.223637307
 40
1.0
 40
1.0
 40
1.0
 40
1.0
 10
210.7892487641
 20
213.2939779725
 30
0.0
 10
210.7891229239
 20
213.2917077491
 30
0.0
 10
210.7886924083
 20
213.2815489536
 30
0.0
 10
210.7886446392
 20
213.2713789021
 30
0.0
 10
210.7886446392
 20
213.2634856644
 30
0.0
  0
SPLINE
  5
6AF
100
AcDbEntity
  8
_30_VOLUMEN
100
AcDbSpline
 62
7
  6
CONTINUOUS
 70
0
 71
3
 72
11
 73
7
 74
0
 42
0.0000001
 43
0.0000001
 44
0.0000000001
 40
0.0
 40
0.0
 40
0.0
 40
0.0
 40
0.435284206
 40
0.7800367787
 40
0.955827379
 40
1.0
 40
1.0
 40
1.0
 40
1.0
 10
210.7886446392
 20
213.1345256641
 30
0.0
 10
210.7886446392
 20
213.1283161471
 30
0.0
 10
210.7884687508
 20
213.1172949937
 30
0.0
 10
210.7897185909
 20
213.1033260509
 30
0.0
 10
210.7895881656
 20
213.0958323859
 30
0.0
 10
210.7914542719
 20
213.0923656641
 30
0.0
 10
210.7920844134
 20
213.0923656641
 30
0.0
  0
SPLINE
  5
6B0
100
AcDbEntity
  8
_30_VOLUMEN
100
AcDbSpline
 62
7
  6
CONTINUOUS
 70
0
 71
3
 72
9
 73
5
 74
0
 42
0.0000001
 43
0.0000001
 44
0.0000000001
 40
0.0
 40
0.0
 40
0.0
 40
0.0
 40
0.3396210603
 40
1.0
 40
1.0
 40
1.0
 40
1.0
 10
210.794377551
 20
215.4186055742
 30
0.0
 10
210.7931293358
 20
215.4166748226
 30
0.0
 10
210.7917960827
 20
215.4098039523
 30
0.0
 10
210.790813726
 20
215.4032121841
 30
0.0
 10
210.7903511744
 20
215.3987656819
 30
0.0
  0
SPLINE
  5
6B1
100
AcDbEntity
  8
_30_VOLUMEN
100
AcDbSpline
 62
7
  6
CONTINUOUS
 70
0
 71
3
 72
11
 73
7
 74
0
 42
0.0000001
 43
0.0000001
 44
0.0000000001
 40
0.0
 40
0.0
 40
0.0
 40
0.0
 40
0.4308534594
 40
0.7609808003
 40
0.9374749637
 40
1.0
 40
1.0
 40
1.0
 40
1.0
 10
210.7886446392
 20
215.249965602
 30
0.0
 10
210.7886446392
 20
215.2427657548
 30
0.0
 10
210.7887035829
 20
215.2301017469
 30
0.0
 10
210.7895529692
 20
215.2142786042
 30
0.0
 10
210.7905357851
 20
215.2050952579
 30
0.0
 10
210.7919314967
 20
215.2009680559
 30
0.0
 10
210.7927851865
 20
215.2003656493
 30
0.0
  0
SPLINE
  5
6B2
100
AcDbEntity
  8
_30_VOLUMEN
100
AcDbSpline
 62
7
  6
CONTINUOUS
 70
0
 71
3
 72
11
 73
7
 74
0
 42
0.0000001
 43
0.0000001
 44
0.0000000001
 40
0.0
 40
0.0
 40
0.0
 40
0.0
 40
0.3383392941
 40
0.6165852615
 40
0.8351989334
 40
1.0
 40
1.0
 40
1.0
 40
1.0
 10
210.8925609283
 20
217.235511745
 30
0.0
 10
210.9029501915
 20
217.1742228253
 30
0.0
 10
210.9247436895
 20
217.0629803783
 30
0.0
 10
210.9668778385
 20
216.9150550192
 30
0.0
 10
211.0151328655
 20
216.8031930722
 30
0.0
 10
211.0577065664
 20
216.74516847
 30
0.0
 10
211.0807636351
 20
216.7255422593
 30
0.0
  0
SPLINE
  5
6B3
100
AcDbEntity
  8
_30_VOLUMEN
100
AcDbSpline
 62
7
  6
CONTINUOUS
 70
0
 71
3
 72
9
 73
5
 74
0
 42
0.0000001
 43
0.0000001
 44
0.0000000001
 40
0.0
 40
0.0
 40
0.0
 40
0.0
 40
0.2304603921
 40
1.0
 40
1.0
 40
1.0
 40
1.0
 10
211.0010868619
 20
216.810885024
 30
0.0
 10
210.9972684245
 20
216.819233788
 30
0.0
 10
210.9814321855
 20
216.8557953816
 30
0.0
 10
210.9682558743
 20
216.8934691922
 30
0.0
 10
210.9591197591
 20
216.9227312395
 30
0.0
  0
SPLINE
  5
6B4
100
AcDbEntity
  8
_30_VOLUMEN
100
AcDbSpline
 62
7
  6
CONTINUOUS
 70
0
 71
3
 72
9
 73
5
 74
0
 42
0.0000001
 43
0.0000001
 44
0.0000000001
 40
0.0
 40
0.0
 40
0.0
 40
0.0
 40
0.2368104438
 40
1.0
 40
1.0
 40
1.0
 40
1.0
 10
210.9591197591
 20
216.9227312395
 30
0.0
 10
210.9564682512
 20
216.9312237497
 30
0.0
 10
210.9456376035
 20
216.9671999679
 30
0.0
 10
210.9361696315
 20
217.0035789682
 30
0.0
 10
210.9295210779
 20
217.031470009
 30
0.0
  0
SPLINE
  5
6B5
100
AcDbEntity
  8
_30_VOLUMEN
100
AcDbSpline
 62
7
  6
CONTINUOUS
 70
0
 71
3
 72
13
 73
9
 74
0
 42
0.0000001
 43
0.0000001
 44
0.0000000001
 40
0.0
 40
0.0
 40
0.0
 40
0.0
 40
0.3726039687
 40
0.655583894
 40
0.7647703551
 40
0.8550527682
 40
0.930952653
 40
1.0
 40
1.0
 40
1.0
 40
1.0
 10
210.9240103975
 20
211.6556213555
 30
0.0
 10
210.9365158769
 20
211.5883257578
 30
0.0
 10
210.9624841231
 20
211.4706812478
 30
0.0
 10
211.0091580729
 20
211.337156625
 30
0.0
 10
211.0541958981
 20
211.2604482135
 30
0.0
 10
211.0876785168
 20
211.221981676
 30
0.0
 10
211.1243734862
 20
211.1977839307
 30
0.0
 10
211.1512594337
 20
211.1922726344
 30
0.0
 10
211.1639434921
 20
211.1922725268
 30
0.0
  0
SPLINE
  5
6B6
100
AcDbEntity
  8
_30_VOLUMEN
100
AcDbSpline
 62
7
  6
CONTINUOUS
 70
0
 71
3
 72
8
 73
4
 74
0
 42
0.0000001
 43
0.0000001
 44
0.0000000001
 40
0.0
 40
0.0
 40
0.0
 40
0.0
 40
1.0
 40
1.0
 40
1.0
 40
1.0
 10
210.7780991747
 20
218.0779448866
 30
0.0
 10
210.7797542463
 20
218.0788437297
 30
0.0
 10
210.7816795138
 20
218.0793843657
 30
0.0
 10
210.78356291
 20
218.0793844093
 30
0.0
  0
SPLINE
  5
6B7
100
AcDbEntity
  8
_30_VOLUMEN
100
AcDbSpline
 62
7
  6
CONTINUOUS
 70
0
 71
3
 72
11
 73
7
 74
0
 42
0.0000001
 43
0.0000001
 44
0.0000000001
 40
0.0
 40
0.0
 40
0.0
 40
0.0
 40
0.0856481715
 40
0.2771044023
 40
0.586342723
 40
1.0
 40
1.0
 40
1.0
 40
1.0
 10
210.8390974536
 20
216.0931656848
 30
0.0
 10
210.8416241779
 20
216.0931656848
 30
0.0
 10
210.8471288583
 20
216.1016337317
 30
0.0
 10
210.8510650452
 20
216.1172132746
 30
0.0
 10
210.856343497
 20
216.1443678858
 30
0.0
 10
210.8588074385
 20
216.1653539806
 30
0.0
 10
210.8601288293
 20
216.1774856178
 30
0.0
  0
SPLINE
  5
6B8
100
AcDbEntity
  8
_30_VOLUMEN
100
AcDbSpline
 62
7
  6
CONTINUOUS
 70
0
 71
3
 72
9
 73
5
 74
0
 42
0.0000001
 43
0.0000001
 44
0.0000000001
 40
0.0
 40
0.0
 40
0.0
 40
0.0
 40
0.2114180362
 40
1.0
 40
1.0
 40
1.0
 40
1.0
 10
210.8601288293
 20
216.1774856178
 30
0.0
 10
210.8617773174
 20
216.1926203233
 30
0.0
 10
210.868088978
 20
216.2643689728
 30
0.0
 10
210.8696227833
 20
216.3364598568
 30
0.0
 10
210.8696227833
 20
216.3932456647
 30
0.0
  0
SPLINE
  5
6B9
100
AcDbEntity
  8
_30_VOLUMEN
100
AcDbSpline
 62
7
  6
CONTINUOUS
 70
0
 71
3
 72
9
 73
5
 74
0
 42
0.0000001
 43
0.0000001
 44
0.0000000001
 40
0.0
 40
0.0
 40
0.0
 40
0.0
 40
0.2773148434
 40
1.0
 40
1.0
 40
1.0
 40
1.0
 10
210.8696227833
 20
216.3932456647
 30
0.0
 10
210.8696227833
 20
216.4129850245
 30
0.0
 10
210.8689525423
 20
216.4841505309
 30
0.0
 10
210.8656988897
 20
216.5553871617
 30
0.0
 10
210.8601288293
 20
216.6065256696
 30
0.0
  0
SPLINE
  5
6BA
100
AcDbEntity
  8
_30_VOLUMEN
100
AcDbSpline
 62
7
  6
CONTINUOUS
 70
0
 71
3
 72
11
 73
7
 74
0
 42
0.0000001
 43
0.0000001
 44
0.0000000001
 40
0.0
 40
0.0
 40
0.0
 40
0.0
 40
0.4072153469
 40
0.7171904618
 40
0.9131410051
 40
1.0
 40
1.0
 40
1.0
 40
1.0
 10
210.8601288293
 20
216.6065256696
 30
0.0
 10
210.8587942921
 20
216.6187780037
 30
0.0
 10
210.8562829637
 20
216.6400996664
 30
0.0
 10
210.8510547617
 20
216.6680741982
 30
0.0
 10
210.8470975157
 20
216.6840246235
 30
0.0
 10
210.8417263321
 20
216.6933256446
 30
0.0
 10
210.8390974536
 20
216.6933256446
 30
0.0
  0
SPLINE
  5
6BB
100
AcDbEntity
  8
_30_VOLUMEN
100
AcDbSpline
 62
7
  6
CONTINUOUS
 70
0
 71
3
 72
14
 73
10
 74
0
 42
0.0000001
 43
0.0000001
 44
0.0000000001
 40
0.0
 40
0.0
 40
0.0
 40
0.0
 40
0.4125752207
 40
0.5806029787
 40
0.721243479
 40
0.8335057902
 40
0.9167725648
 40
0.9712195409
 40
1.0
 40
1.0
 40
1.0
 40
1.0
 10
210.7347619408
 20
217.0391173653
 30
0.0
 10
210.7347621357
 20
217.1197766943
 30
0.0
 10
210.7353232413
 20
217.2333152846
 30
0.0
 10
210.739243057
 20
217.3742308824
 30
0.0
 10
210.7434936948
 20
217.4565160254
 30
0.0
 10
210.7490015245
 20
217.5217766911
 30
0.0
 10
210.7565574943
 20
217.5707377869
 30
0.0
 10
210.7641445893
 20
217.6011623304
 30
0.0
 10
210.7737715498
 20
217.6171240281
 30
0.0
 10
210.779189078
 20
217.6186437232
 30
0.0
  0
SPLINE
  5
6BC
100
AcDbEntity
  8
_30_VOLUMEN
100
AcDbSpline
 62
7
  6
CONTINUOUS
 70
0
 71
3
 72
11
 73
7
 74
0
 42
0.0000001
 43
0.0000001
 44
0.0000000001
 40
0.0
 40
0.0
 40
0.0
 40
0.0
 40
0.3974724785
 40
0.7312431186
 40
0.9301283126
 40
1.0
 40
1.0
 40
1.0
 40
1.0
 10
210.9154314797
 20
213.2634856644
 30
0.0
 10
210.9154314797
 20
213.2698955731
 30
0.0
 10
210.9154169197
 20
213.2815844561
 30
0.0
 10
210.913887421
 20
213.2969224835
 30
0.0
 10
210.9130784756
 20
213.3058718488
 30
0.0
 10
210.9103860578
 20
213.3106056583
 30
0.0
 10
210.9092592599
 20
213.3106056583
 30
0.0
  0
SPLINE
  5
6BD
100
AcDbEntity
  8
_30_VOLUMEN
100
AcDbSpline
 62
7
  6
CONTINUOUS
 70
0
 71
3
 72
9
 73
5
 74
0
 42
0.0000001
 43
0.0000001
 44
0.0000000001
 40
0.0
 40
0.0
 40
0.0
 40
0.0
 40
0.7187899214
 40
1.0
 40
1.0
 40
1.0
 40
1.0
 10
210.9043995816
 20
213.3106056583
 30
0.0
 10
210.8986835078
 20
213.3106056583
 30
0.0
 10
210.8904297328
 20
213.3126675984
 30
0.0
 10
210.8841603288
 20
213.3176374895
 30
0.0
 10
210.8825293314
 20
213.3191674596
 30
0.0
  0
SPLINE
  5
6BE
100
AcDbEntity
  8
_30_VOLUMEN
100
AcDbSpline
 62
7
  6
CONTINUOUS
 70
0
 71
3
 72
9
 73
5
 74
0
 42
0.0000001
 43
0.0000001
 44
0.0000000001
 40
0.0
 40
0.0
 40
0.0
 40
0.0
 40
0.1554587912
 40
1.0
 40
1.0
 40
1.0
 40
1.0
 10
210.8825293314
 20
213.3191674596
 30
0.0
 10
210.8813334301
 20
213.3202892844
 30
0.0
 10
210.8745260121
 20
213.3284587656
 30
0.0
 10
210.8718772365
 20
213.3392732398
 30
0.0
 10
210.8702480678
 20
213.3480308737
 30
0.0
  0
SPLINE
  5
6BF
100
AcDbEntity
  8
_30_VOLUMEN
100
AcDbSpline
 62
7
  6
CONTINUOUS
 70
0
 71
3
 72
9
 73
5
 74
0
 42
0.0000001
 43
0.0000001
 44
0.0000000001
 40
0.0
 40
0.0
 40
0.0
 40
0.0
 40
0.2136104011
 40
1.0
 40
1.0
 40
1.0
 40
1.0
 10
210.8690861743
 20
213.3552456335
 30
0.0
 10
210.8685498239
 20
213.3591054259
 30
0.0
 10
210.867341563
 20
213.3773307532
 30
0.0
 10
210.8669201389
 20
213.3955630542
 30
0.0
 10
210.8666388792
 20
213.4099063462
 30
0.0
  0
SPLINE
  5
6C0
100
AcDbEntity
  8
_30_VOLUMEN
100
AcDbSpline
 62
7
  6
CONTINUOUS
 70
0
 71
3
 72
8
 73
4
 74
0
 42
0.0000001
 43
0.0000001
 44
0.0000000001
 40
0.0
 40
0.0
 40
0.0
 40
0.0
 40
1.0
 40
1.0
 40
1.0
 40
1.0
 10
210.8666388792
 20
213.4099063462
 30
0.0
 10
210.8656346746
 20
213.4611173881
 30
0.0
 10
210.865624508
 20
213.5123447715
 30
0.0
 10
210.865624508
 20
213.5635656582
 30
0.0
  0
SPLINE
  5
6C1
100
AcDbEntity
  8
_30_VOLUMEN
100
AcDbSpline
 62
7
  6
CONTINUOUS
 70
0
 71
3
 72
13
 73
9
 74
0
 42
0.0000001
 43
0.0000001
 44
0.0000000001
 40
0.0
 40
0.0
 40
0.0
 40
0.0
 40
0.0706025538
 40
0.1476268014
 40
0.2384791277
 40
0.347728941
 40
0.6296319369
 40
1.0
 40
1.0
 40
1.0
 40
1.0
 10
211.8775616351
 20
217.1422725268
 30
0.0
 10
211.8644883291
 20
217.1422726343
 30
0.0
 10
211.8368931781
 20
217.1477203234
 30
0.0
 10
211.7990128408
 20
217.1718225791
 30
0.0
 10
211.7643986124
 20
217.2102812752
 30
0.0
 10
211.7179359387
 20
217.2868833196
 30
0.0
 10
211.6696905942
 20
217.4204534827
 30
0.0
 10
211.6428621134
 20
217.5382700069
 30
0.0
 10
211.6299497305
 20
217.6056236247
 30
0.0
  0
SPLINE
  5
6C2
100
AcDbEntity
  8
_30_VOLUMEN
100
AcDbSpline
 62
7
  6
CONTINUOUS
 70
0
 71
3
 72
12
 73
8
 74
0
 42
0.0000001
 43
0.0000001
 44
0.0000000001
 40
0.0
 40
0.0
 40
0.0
 40
0.0
 40
0.4126340471
 40
0.7188647725
 40
0.9128448386
 40
0.9680836488
 40
1.0
 40
1.0
 40
1.0
 40
1.0
 10
211.6299497305
 20
217.6056236247
 30
0.0
 10
211.6171820329
 20
217.6722225349
 30
0.0
 10
211.5929688952
 20
217.7880965463
 30
0.0
 10
211.5549973041
 20
217.9326756936
 30
0.0
 10
211.5239590789
 20
218.0199037964
 30
0.0
 10
211.501018403
 20
218.0591784617
 30
0.0
 10
211.488253169
 20
218.0689749551
 30
0.0
 10
211.4830080793
 20
218.0689747168
 30
0.0
  0
SPLINE
  5
6C3
100
AcDbEntity
  8
_30_VOLUMEN
100
AcDbSpline
 62
7
  6
CONTINUOUS
 70
0
 71
3
 72
9
 73
5
 74
0
 42
0.0000001
 43
0.0000001
 44
0.0000000001
 40
0.0
 40
0.0
 40
0.0
 40
0.0
 40
0.2165292976
 40
1.0
 40
1.0
 40
1.0
 40
1.0
 10
211.0807636351
 20
211.5606261214
 30
0.0
 10
211.075551256
 20
211.5666166545
 30
0.0
 10
211.053064327
 20
211.5956669376
 30
0.0
 10
211.0362130124
 20
211.6286760516
 30
0.0
 10
211.0247211717
 20
211.6550098784
 30
0.0
  0
LINE
  5
6C4
100
AcDbEntity
  8
_30_VOLUMEN
100
AcDbLine
 62
7
  6
CONTINUOUS
 10
211.0247211717
 20
211.6550098784
 11
211.0220429014
 21
211.6719932862
  0
SPLINE
  5
6C5
100
AcDbEntity
  8
_30_VOLUMEN
100
AcDbSpline
 62
7
  6
CONTINUOUS
 70
0
 71
3
 72
13
 73
9
 74
0
 42
0.0000001
 43
0.0000001
 44
0.0000000001
 40
0.0
 40
0.0
 40
0.0
 40
0.0
 40
0.4128702735
 40
0.7199353185
 40
0.8315177265
 40
0.9145122707
 40
0.9693680231
 40
1.0
 40
1.0
 40
1.0
 40
1.0
 10
210.9681161132
 20
211.9787961652
 30
0.0
 10
210.9515521511
 20
212.0637238221
 30
0.0
 10
210.9201729704
 20
212.2112761963
 30
0.0
 10
210.8755203131
 20
212.3800679309
 30
0.0
 10
210.8417003307
 20
212.4794170694
 30
0.0
 10
210.8205080786
 20
212.5277873035
 30
0.0
 10
210.8035510041
 20
212.5577591676
 30
0.0
 10
210.7879692513
 20
212.570772862
 30
0.0
 10
210.7815495121
 20
212.5707748969
 30
0.0
  0
SPLINE
  5
6C6
100
AcDbEntity
  8
_30_VOLUMEN
100
AcDbSpline
 62
7
  6
CONTINUOUS
 70
0
 71
3
 72
13
 73
9
 74
0
 42
0.0000001
 43
0.0000001
 44
0.0000000001
 40
0.0
 40
0.0
 40
0.0
 40
0.0
 40
0.3979226966
 40
0.6991670342
 40
0.8119597194
 40
0.899199866
 40
0.9612225623
 40
1.0
 40
1.0
 40
1.0
 40
1.0
 10
210.7347619416
 20
211.6638160071
 30
0.0
 10
210.7347621604
 20
211.7244725664
 30
0.0
 10
210.7356213088
 20
211.8310256021
 30
0.0
 10
210.7405452411
 20
211.9548201996
 30
0.0
 10
210.7480845686
 20
212.0308155884
 30
0.0
 10
210.7545053849
 20
212.0704171856
 30
0.0
 10
210.7619723441
 20
212.0978629966
 30
0.0
 10
210.7693398595
 20
212.1121509984
 30
0.0
 10
210.7738859254
 20
212.1159289287
 30
0.0
  0
SPLINE
  5
6C7
100
AcDbEntity
  8
_30_VOLUMEN
100
AcDbSpline
 62
7
  6
CONTINUOUS
 70
0
 71
3
 72
8
 73
4
 74
0
 42
0.0000001
 43
0.0000001
 44
0.0000000001
 40
0.0
 40
0.0
 40
0.0
 40
0.0
 40
1.0
 40
1.0
 40
1.0
 40
1.0
 10
210.7738859254
 20
212.1159289287
 30
0.0
 10
210.7759995598
 20
212.1176854283
 30
0.0
 10
210.7788009586
 20
212.1189699685
 30
0.0
 10
210.7815491837
 20
212.118970169
 30
0.0
  0
SPLINE
  5
6C8
100
AcDbEntity
  8
_30_VOLUMEN
100
AcDbSpline
 62
7
  6
CONTINUOUS
 70
0
 71
3
 72
9
 73
5
 74
0
 42
0.0000001
 43
0.0000001
 44
0.0000000001
 40
0.0
 40
0.0
 40
0.0
 40
0.0
 40
0.4571821769
 40
1.0
 40
1.0
 40
1.0
 40
1.0
 10
211.1639454131
 20
217.1422725268
 30
0.0
 10
211.1467721265
 20
217.1422726725
 30
0.0
 10
211.1088400311
 20
217.1532963309
 30
0.0
 10
211.0809226139
 20
217.179900479
 30
0.0
 10
211.0678501745
 20
217.1955486527
 30
0.0
  0
SPLINE
  5
6C9
100
AcDbEntity
  8
_30_VOLUMEN
100
AcDbSpline
 62
7
  6
CONTINUOUS
 70
0
 71
3
 72
10
 73
6
 74
0
 42
0.0000001
 43
0.0000001
 44
0.0000000001
 40
0.0
 40
0.0
 40
0.0
 40
0.0
 40
0.1774579475
 40
0.4020669722
 40
1.0
 40
1.0
 40
1.0
 40
1.0
 10
211.0678501745
 20
217.1955486527
 30
0.0
 10
211.0512420743
 20
217.2154291379
 30
0.0
 10
211.0205619343
 20
217.2661532128
 30
0.0
 10
210.9661668769
 20
217.4018656112
 30
0.0
 10
210.9399582724
 20
217.5198079564
 30
0.0
 10
210.9240112414
 20
217.6056236247
 30
0.0
  0
SPLINE
  5
6CA
100
AcDbEntity
  8
_30_VOLUMEN
100
AcDbSpline
 62
7
  6
CONTINUOUS
 70
0
 71
3
 72
12
 73
8
 74
0
 42
0.0000001
 43
0.0000001
 44
0.0000000001
 40
0.0
 40
0.0
 40
0.0
 40
0.0
 40
0.4128228876
 40
0.7181436583
 40
0.9115744111
 40
0.9670959359
 40
1.0
 40
1.0
 40
1.0
 40
1.0
 10
210.9101411615
 20
217.6776702068
 30
0.0
 10
210.8988783869
 20
217.7340946782
 30
0.0
 10
210.8776775989
 20
217.8321061953
 30
0.0
 10
210.8445234708
 20
217.9543464657
 30
0.0
 10
210.8175555204
 20
218.02782249
 30
0.0
 10
210.7973079485
 20
218.0609584718
 30
0.0
 10
210.7861354262
 20
218.0689750396
 30
0.0
 10
210.7815493926
 20
218.0689747076
 30
0.0
  0
ELLIPSE
  5
6CB
100
AcDbEntity
  8
_30_VOLUMEN
100
AcDbEllipse
 62
7
  6
CONTINUOUS
 10
130.5617831454
 20
223.501059493
 30
0.0
 11
15.25
 21
0.0
 31
0.0
 40
0.1051042353
 41
-2.1590400674
 42
-0.9825525862
  0
ELLIPSE
  5
6CC
100
AcDbEntity
  8
_30_VOLUMEN
100
AcDbEllipse
 62
7
  6
CONTINUOUS
 10
130.5617831454
 20
223.561470009
 30
0.0
 11
15.25
 21
0.0
 31
0.0
 40
0.109131603
 41
-0.936594676
 42
-0.3149248074
  0
ELLIPSE
  5
6CD
100
AcDbEntity
  8
_30_VOLUMEN
100
AcDbEllipse
 62
7
  6
CONTINUOUS
 10
130.5617831454
 20
223.561470009
 30
0.0
 11
15.25
 21
0.0
 31
0.0
 40
0.109131603
 41
-2.8266678462
 42
-2.2049979776
  0
ELLIPSE
  5
6CE
100
AcDbEntity
  8
_30_VOLUMEN
100
AcDbEllipse
 62
7
  6
CONTINUOUS
 10
233.9347619313
 20
213.2348686868
 30
0.0
 11
23.2
 21
0.0
 31
0.0
 40
0.0470588328
 41
9.3439611225
 42
9.3530738459
  0
ELLIPSE
  5
6CF
100
AcDbEntity
  8
_30_VOLUMEN
100
AcDbEllipse
 62
7
  6
CONTINUOUS
 10
233.9347619313
 20
215.2967173991
 30
0.0
 11
23.2
 21
0.0
 31
0.0
 40
0.0733333842
 41
3.0376941744
 42
3.0698885387
  0
ELLIPSE
  5
6D0
100
AcDbEntity
  8
_30_VOLUMEN
100
AcDbEllipse
 62
7
  6
CONTINUOUS
 10
233.9347619313
 20
216.1691294141
 30
0.0
 11
-0.0
 21
27.8005078582
 31
0.0
 40
0.8345171289
 41
-1.7140661358
 42
-1.6125649363
  0
ELLIPSE
  5
6D1
100
AcDbEntity
  8
_30_VOLUMEN
100
AcDbEllipse
 62
7
  6
CONTINUOUS
 10
233.9347619313
 20
216.9870035218
 30
0.0
 11
-0.0
 21
47.3872735856
 31
0.0
 40
0.4895829248
 41
-1.6125649363
 42
-1.6044772711
  0
ELLIPSE
  5
6D2
100
AcDbEntity
  8
_30_VOLUMEN
100
AcDbEllipse
 62
7
  6
CONTINUOUS
 10
233.9347619313
 20
219.6465686434
 30
0.0
 11
0.0
 21
126.3657013594
 31
0.0
 40
0.1835941221
 41
-1.6044772711
 42
-1.6004342863
  0
ELLIPSE
  5
6D3
100
AcDbEntity
  8
_30_VOLUMEN
100
AcDbEllipse
 62
7
  6
CONTINUOUS
 10
233.9347619313
 20
212.412541595
 30
0.0
 11
0.0
 21
126.3657013594
 31
0.0
 40
0.1835941221
 41
-1.5411583673
 42
-1.5371153825
  0
ELLIPSE
  5
6D4
100
AcDbEntity
  8
_30_VOLUMEN
100
AcDbEllipse
 62
7
  6
CONTINUOUS
 10
233.9347619313
 20
215.6040221758
 30
0.0
 11
0.0
 21
31.5915157237
 31
0.0
 40
0.7343743872
 41
4.7460699247
 42
4.7622479898
  0
ELLIPSE
  5
6D5
100
AcDbEntity
  8
_30_VOLUMEN
100
AcDbEllipse
 62
7
  6
CONTINUOUS
 10
233.9347619313
 20
216.3912578797
 30
0.0
 11
23.2
 21
-0.0
 31
0.0
 40
0.680850658
 41
0.0498590094
 42
0.0660501701
  0
ELLIPSE
  5
6D6
100
AcDbEntity
  8
_30_VOLUMEN
100
AcDbEllipse
 62
7
  6
CONTINUOUS
 10
233.9347619313
 20
217.0862927607
 30
0.0
 11
23.2
 21
-0.0
 31
0.0
 40
0.2269503276
 41
0.0660501701
 42
0.0903708026
  0
ELLIPSE
  5
6D7
100
AcDbEntity
  8
_30_VOLUMEN
100
AcDbEllipse
 62
7
  6
CONTINUOUS
 10
233.9347619313
 20
223.306156993
 30
0.0
 11
-0.0
 21
47.3872735856
 31
0.0
 40
0.4895829248
 41
4.5609487158
 42
4.5691191713
  0
ELLIPSE
  5
6D8
100
AcDbEntity
  8
_30_VOLUMEN
100
AcDbEllipse
 62
7
  6
CONTINUOUS
 10
233.9347619313
 20
219.5472855374
 30
0.0
 11
23.2
 21
0.0
 31
0.0
 40
0.9078013102
 41
-0.143269809
 42
-0.1310319698
  0
ELLIPSE
  5
6D9
100
AcDbEntity
  8
_30_VOLUMEN
100
AcDbEllipse
 62
7
  6
CONTINUOUS
 10
233.9347619313
 20
217.6210438889
 30
0.0
 11
23.2
 21
0.0
 31
0.0
 40
0.2723401853
 41
-0.1310319698
 42
-0.1106784032
  0
ELLIPSE
  5
6DA
100
AcDbEntity
  8
_30_VOLUMEN
100
AcDbEllipse
 62
7
  6
CONTINUOUS
 10
233.9347619313
 20
228.355799692
 30
0.0
 11
0.0
 21
36.8567479451
 31
0.0
 40
0.6294641088
 41
-1.9228514261
 42
-1.8971400701
  0
ELLIPSE
  5
6DB
100
AcDbEntity
  8
_30_VOLUMEN
100
AcDbEllipse
 62
7
  6
CONTINUOUS
 10
233.9347619313
 20
218.0417134093
 30
0.0
 11
23.2
 21
0.0
 31
0.0
 40
0.1945289582
 41
-0.1351089492
 42
-0.1066135002
  0
ELLIPSE
  5
6DC
100
AcDbEntity
  8
_30_VOLUMEN
100
AcDbEllipse
 62
7
  6
CONTINUOUS
 10
233.9347619313
 20
219.5614686343
 30
0.0
 11
23.2
 21
0.0
 31
0.0
 40
0.680850658
 41
-0.1514402646
 42
-0.1351089492
  0
ELLIPSE
  5
6DD
100
AcDbEntity
  8
_30_VOLUMEN
100
AcDbEllipse
 62
7
  6
CONTINUOUS
 10
233.9347619313
 20
221.9444493462
 30
0.0
 11
0.0
 21
31.5914931277
 31
0.0
 40
0.7343749125
 41
-1.738608704
 42
-1.7222365914
  0
ELLIPSE
  5
6DE
100
AcDbEntity
  8
_30_VOLUMEN
100
AcDbEllipse
 62
7
  6
CONTINUOUS
 10
233.9347619313
 20
237.7741928128
 30
0.0
 11
-0.0
 21
126.3657013594
 31
0.0
 40
0.1835941221
 41
-1.7427086693
 42
-1.738608704
  0
ELLIPSE
  5
6DF
100
AcDbEntity
  8
_30_VOLUMEN
100
AcDbEllipse
 62
7
  6
CONTINUOUS
 10
233.9347619313
 20
216.3274280087
 30
0.0
 11
23.2
 21
-0.0
 31
0.0
 40
0.2723401853
 41
0.0741519796
 42
0.0944290732
  0
ELLIPSE
  5
6E0
100
AcDbEntity
  8
_30_VOLUMEN
100
AcDbEllipse
 62
7
  6
CONTINUOUS
 10
233.9347619313
 20
215.2352293139
 30
0.0
 11
23.2
 21
0.0
 31
0.0
 40
0.9078013102
 41
0.0620009146
 42
0.0741519796
  0
ELLIPSE
  5
6E1
100
AcDbEntity
  8
_30_VOLUMEN
100
AcDbEllipse
 62
7
  6
CONTINUOUS
 10
233.9347619313
 20
213.6040212373
 30
0.0
 11
0.0
 21
47.3872735856
 31
0.0
 40
0.4895829248
 41
-1.5168909139
 42
-1.5087954121
  0
ELLIPSE
  5
6E2
100
AcDbEntity
  8
_30_VOLUMEN
100
AcDbEllipse
 62
7
  6
CONTINUOUS
 10
233.9347619313
 20
219.306153541
 30
0.0
 11
-0.0
 21
63.1830314474
 31
0.0
 40
0.3671871936
 41
-1.6327972414
 42
-1.6247017397
  0
ELLIPSE
  5
6E3
100
AcDbEntity
  8
_30_VOLUMEN
100
AcDbEllipse
 62
7
  6
CONTINUOUS
 10
233.9347619313
 20
217.138977111
 30
0.0
 11
0.0
 21
28.2066840167
 31
0.0
 40
0.822500085
 41
-1.7468115436
 42
-1.6327972414
  0
ELLIPSE
  5
6E4
100
AcDbEntity
  8
_30_VOLUMEN
100
AcDbEllipse
 62
7
  6
CONTINUOUS
 10
233.9347619313
 20
229.3770714374
 30
0.0
 11
-0.0
 21
36.856733195
 31
0.0
 40
0.6294643608
 41
-1.9228514261
 42
-1.8971400701
  0
ELLIPSE
  5
6E5
100
AcDbEntity
  8
_30_VOLUMEN
100
AcDbEllipse
 62
7
  6
CONTINUOUS
 10
233.9347619313
 20
218.0417134093
 30
0.0
 11
22.5
 21
0.0
 31
0.0
 40
0.1945289582
 41
-0.1393393327
 42
-0.1099435886
  0
ELLIPSE
  5
6E6
100
AcDbEntity
  8
_30_VOLUMEN
100
AcDbEllipse
 62
7
  6
CONTINUOUS
 10
233.9347619313
 20
219.5614686343
 30
0.0
 11
22.5
 21
-0.0
 31
0.0
 40
0.680850658
 41
-0.1561898301
 42
-0.1393393327
  0
ELLIPSE
  5
6E7
100
AcDbEntity
  8
_30_VOLUMEN
100
AcDbEllipse
 62
7
  6
CONTINUOUS
 10
233.9347619313
 20
221.9444493462
 30
0.0
 11
0.0
 21
30.6383015247
 31
0.0
 40
0.7343749125
 41
-1.7438814791
 42
-1.7269861569
  0
ELLIPSE
  5
6E8
100
AcDbEntity
  8
_30_VOLUMEN
100
AcDbEllipse
 62
7
  6
CONTINUOUS
 10
233.9347619313
 20
237.7741928128
 30
0.0
 11
-0.0
 21
122.5529431287
 31
0.0
 40
0.1835941221
 41
-1.7453886702
 42
-1.7438814791
  0
ELLIPSE
  5
6E9
100
AcDbEntity
  8
_30_VOLUMEN
100
AcDbEllipse
 62
7
  6
CONTINUOUS
 10
233.9347619313
 20
219.306153541
 30
0.0
 11
0.0
 21
61.2766468779
 31
0.0
 40
0.3671871936
 41
-1.6347287513
 42
-1.6263805001
  0
ELLIPSE
  5
6EA
100
AcDbEntity
  8
_30_VOLUMEN
100
AcDbEllipse
 62
7
  6
CONTINUOUS
 10
233.9347619313
 20
217.138977111
 30
0.0
 11
-0.0
 21
27.3556202748
 31
0.0
 40
0.822500085
 41
-1.7451347956
 42
-1.6954674749
  0
ELLIPSE
  5
6EB
100
AcDbEntity
  8
_30_VOLUMEN
100
AcDbEllipse
 62
7
  6
CONTINUOUS
 10
233.9347619313
 20
217.138977111
 30
0.0
 11
0.0
 21
27.3556202748
 31
0.0
 40
0.822500085
 41
-1.6722130721
 42
-1.6347287513
  0
ELLIPSE
  5
6EC
100
AcDbEntity
  8
_30_VOLUMEN
100
AcDbEllipse
 62
7
  6
CONTINUOUS
 10
233.9347619313
 20
215.9543844457
 30
0.0
 11
23.2
 21
0.0
 31
0.0
 40
0.1999986589
 41
-3.0376941744
 42
-3.0355444065
  0
ELLIPSE
  5
6ED
100
AcDbEntity
  8
_30_VOLUMEN
100
AcDbEllipse
 62
7
  6
CONTINUOUS
 10
233.9347619313
 20
229.3770714374
 30
0.0
 11
0.0
 21
35.74467659
 31
0.0
 40
0.6294643608
 41
-1.9343047232
 42
-1.9076884867
  0
ENDSEC
  0
SECTION
  2
OBJECTS
  0
DICTIONARY
  5
C
100
AcDbDictionary
280
0
281
1
  3
ACAD_GROUP
350
D
  3
ACAD_MLINESTYLE
350
17
  3
ACAD_LAYOUT
350
1A
  3
ACAD_PLOTSETTINGS
350
19
  3
ACAD_PLOTSTYLENAME
350
E
  0
DICTIONARY
  5
D
102
{ACAD_REACTORS
330
C
102
}
100
AcDbDictionary
280
0
281
1
  0
ACDBDICTIONARYWDFLT
  5
E
102
{ACAD_REACTORS
330
C
102
}
100
AcDbDictionary
281
1
  3
Normal
350
F
100
AcDbDictionaryWithDefault
340
F
  0
DICTIONARY
  5
17
102
{ACAD_REACTORS
330
C
102
}
100
AcDbDictionary
280
0
281
1
  3
Standard
350
18
  0
DICTIONARY
  5
19
102
{ACAD_REACTORS
330
C
102
}
100
AcDbDictionary
281
1
  0
DICTIONARY
  5
1A
102
{ACAD_REACTORS
330
C
102
}
100
AcDbDictionary
281
1
  3
Model
350
6EE
  3
Layout1
350
6EF
  0
ACDBPLACEHOLDER
  5
F
102
{ACAD_REACTORS
330
E
102
}
  0
MLINESTYLE
  5
18
102
{ACAD_REACTORS
330
17
102
}
100
AcDbMlineStyle
  2
STANDARD
 70
0
  3

 62
256
 51
90.0
 52
90.0
 71
2
 49
0.5
 62
256
  6
BYLAYER
 49
-0.5
 62
256
  6
BYLAYER
  0
LAYOUT
  5
6EE
102
{ACAD_REACTORS
330
1A
102
}
100
AcDbPlotSettings
  1

  2
none_device
  4
ISO_A3_(420.00_x_297.00_MM)
  6

 40
0.0
 41
0.0
 42
0.0
 43
0.0
 44
420.0
 45
297.0
 46
0.0
 47
0.0
 48
0.0
 49
0.0
140
0.0
141
0.0
142
1.0
143
1.0
 70
1024
 72
1
 73
0
 74
0
  7

 75
0
147
1.0
148
0.0
149
0.0
100
AcDbLayout
  1
Model
 70
0
 71
0
 10
0.0
 20
0.0
 11
420.0
 21
297.0
 12
0.0
 22
0.0
 32
0.0
 14
0.0
 24
0.0
 34
0.0
 15
0.0
 25
0.0
 35
0.0
146
0.0
 13
0.0
 23
0.0
 33
0.0
 16
1.0
 26
0.0
 36
0.0
 17
0.0
 27
1.0
 37
0.0
 76
0
330
20E
345
0
346
0
  0
LAYOUT
  5
6EF
102
{ACAD_REACTORS
330
1A
102
}
100
AcDbPlotSettings
  1

  2
none_device
  4
ISO_A3_(420.00_x_297.00_MM)
  6

 40
0.0
 41
0.0
 42
0.0
 43
0.0
 44
420.0
 45
297.0
 46
0.0
 47
0.0
 48
0.0
 49
0.0
140
0.0
141
0.0
142
1.0
143
1.0
 70
0
 72
1
 73
0
 74
0
  7

 75
0
147
1.0
148
0.0
149
0.0
100
AcDbLayout
  1
Layout1
 70
0
 71
1
 10
0.0
 20
0.0
 11
420.0
 21
297.0
 12
0.0
 22
0.0
 32
0.0
 14
0.0
 24
0.0
 34
0.0
 15
0.0
 25
0.0
 35
0.0
146
0.0
 13
0.0
 23
0.0
 33
0.0
 16
1.0
 26
0.0
 36
0.0
 17
0.0
 27
1.0
 37
0.0
 76
0
330
20F
345
0
346
0
  0
ENDSEC
  0
EOF
