999
DXF file: PSA-INOX-STAR-M20_7900921_M34126-P-1.dxf
999
Pro/ENGINEER 2010140 by Parametric Technology Corporation
  0
SECTION
  2
HEADER
  9
$ACADVER
  1
AC1015
  9
$DWGCODEPAGE
  3
ANSI_1252
  9
$EXTMAX
 10
297.0
 20
210.0
 30
0.0
  9
$EXTMIN
 10
0.0
 20
0.0
 30
0.0
  9
$LIMMIN
 10
0.0
 20
0.0
  9
$LIMMAX
 10
297.0
 20
210.0
  9
$VIEWCTR
 10
148.5
 20
105.0
  9
$VIEWSIZE
 40
210.0
  9
$CLAYER
  8
0
  9
$LTSCALE
 40
16.335
  9
$CELTYPE
  6
BYLAYER
  9
$DIMSCALE
 40
1.0
  9
$DIMASZ
 40
3.5
  9
$DIMEXO
 40
1.85625
  9
$DIMDLI
 40
11.286
  9
$DIMEXE
 40
5.346
  9
$DIMCEN
 40
2.673
  9
$DIMLFAC
 40
1.0
  9
$DIMBLK
  1
_FILLED
  9
$DIMTXT
 40
3.5
  9
$DIMTOL
 70
1
  9
$DIMLIM
 70
0
  9
$DIMTFAC
 40
1.0
  9
$DIMTP
 40
0.005
  9
$DIMTM
 40
0.005
  9
$PDMODE
 70
3
  9
$PDSIZE
 40
0.3125
  9
$HANDSEED
  5
4EA
  9
$TILEMODE
 70
1
  9
$MEASUREMENT
 70
1
  9
$INSUNITS
 70
4
  0
ENDSEC
  0
SECTION
  2
CLASSES
  0
CLASS
  1
ACDBDICTIONARYWDFLT
  2
AcDbDictionaryWithDefault
  3
AutoCAD 2000
 90
0
280
0
281
0
  0
CLASS
  1
ACDBPLACEHOLDER
  2
AcDbPlaceHolder
  3
AutoCAD 2000
 90
0
280
0
281
0
  0
CLASS
  1
LAYOUT
  2
AcDbLayout
  3
AutoCAD 2000
 90
0
280
0
281
0
  0
ENDSEC
  0
SECTION
  2
TABLES
  0
TABLE
  2
VPORT
  5
8
100
AcDbSymbolTable
 70
2
  0
VPORT
  5
1F4
100
AcDbSymbolTableRecord
100
AcDbViewportTableRecord
  2
*ACTIVE
 70
0
 10
0.0
 20
0.0
 11
1.0
 21
1.0
 12
148.5
 22
105.0
 13
0.0
 23
0.0
 14
1.0
 24
1.0
 15
0.0
 25
0.0
 16
0.0
 26
0.0
 36
1.0
 17
0.0
 27
0.0
 37
0.0
 40
210.0
 41
1.4142857143
 42
50.0
 43
0.0
 44
0.0
 50
0.0
 51
0.0
 71
0
 72
100
 73
1
 74
1
 75
0
 76
0
 77
0
 78
0
  0
ENDTAB
  0
TABLE
  2
LTYPE
  5
5
100
AcDbSymbolTable
 70
6
  0
LTYPE
  5
14
100
AcDbSymbolTableRecord
100
AcDbLinetypeTableRecord
  2
BYBLOCK
 70
0
  3

 72
65
 73
0
 40
0.0
  0
LTYPE
  5
15
100
AcDbSymbolTableRecord
100
AcDbLinetypeTableRecord
  2
BYLAYER
 70
0
  3

 72
65
 73
0
 40
0.0
  0
LTYPE
  5
16
100
AcDbSymbolTableRecord
100
AcDbLinetypeTableRecord
  2
CONTINUOUS
 70
64
  3
Solid line
 72
65
 73
0
 40
0.0
  0
LTYPE
  5
1F5
100
AcDbSymbolTableRecord
100
AcDbLinetypeTableRecord
  2
CENTER
 70
64
  3
____ _ ____ _ ____ _ ____ _ ____ _ ____ _ ____
 72
65
 73
4
 40
0.6
 49
0.375
 74
0
 49
-0.075
 74
0
 49
0.075
 74
0
 49
-0.075
 74
0
  0
LTYPE
  5
1F6
100
AcDbSymbolTableRecord
100
AcDbLinetypeTableRecord
  2
HIDDEN
 70
64
  3
- - - - - - - - - - - - - - - - - - - -
 72
65
 73
2
 40
0.2
 49
0.1
 74
0
 49
-0.1
 74
0
  0
LTYPE
  5
1F7
100
AcDbSymbolTableRecord
100
AcDbLinetypeTableRecord
  2
PHANTOM
 70
64
  3
_____ _ _ _____ _ _ _____ _ _ _____
 72
65
 73
6
 40
0.8
 49
0.45
 74
0
 49
-0.05
 74
0
 49
0.1
 74
0
 49
-0.05
 74
0
 49
0.1
 74
0
 49
-0.05
 74
0
  0
LTYPE
  5
1F8
100
AcDbSymbolTableRecord
100
AcDbLinetypeTableRecord
  2
DOT
 70
64
  3
. . . . . . . . . . . . . . . . . . . .
 72
65
 73
2
 40
0.2
 49
0.1
 74
0
 49
-0.1
 74
0
  0
LTYPE
  5
1F9
100
AcDbSymbolTableRecord
100
AcDbLinetypeTableRecord
  2
DASHED
 70
64
  3
- - - - - - - - - - - - - - - - - - - -
 72
65
 73
2
 40
0.2
 49
0.1
 74
0
 49
-0.1
 74
0
  0
ENDTAB
  0
TABLE
  2
LAYER
  5
2
100
AcDbSymbolTable
 70
36
  0
LAYER
  5
10
100
AcDbSymbolTableRecord
100
AcDbLayerTableRecord
  2
0
 70
0
 62
7
  6
CONTINUOUS
370
-3
390
F
  0
LAYER
  5
1FA
100
AcDbSymbolTableRecord
100
AcDbLayerTableRecord
  2
DEFAULT_1
 70
0
 62
7
  6
CENTER
370
-3
390
F
  0
LAYER
  5
1FB
100
AcDbSymbolTableRecord
100
AcDbLayerTableRecord
  2
DEFAULT_2
 70
0
 62
8
  6
HIDDEN
370
-3
390
F
  0
LAYER
  5
1FC
100
AcDbSymbolTableRecord
100
AcDbLayerTableRecord
  2
DEFAULT_3
 70
0
 62
7
  6
PHANTOM
370
-3
390
F
  0
LAYER
  5
1FD
100
AcDbSymbolTableRecord
100
AcDbLayerTableRecord
  2
B-ACHSEN
 70
0
 62
7
  6
CONTINUOUS
370
-3
390
F
  0
LAYER
  5
1FE
100
AcDbSymbolTableRecord
100
AcDbLayerTableRecord
  2
B-EBENEN
 70
0
 62
7
  6
CONTINUOUS
370
-3
390
F
  0
LAYER
  5
1FF
100
AcDbSymbolTableRecord
100
AcDbLayerTableRecord
  2
B-KOORSYS
 70
0
 62
7
  6
CONTINUOUS
370
-3
390
F
  0
LAYER
  5
200
100
AcDbSymbolTableRecord
100
AcDbLayerTableRecord
  2
B-KURVEN
 70
0
 62
7
  6
CONTINUOUS
370
-3
390
F
  0
LAYER
  5
201
100
AcDbSymbolTableRecord
100
AcDbLayerTableRecord
  2
BEMASSUNG
 70
0
 62
7
  6
CONTINUOUS
370
-3
390
F
  0
LAYER
  5
202
100
AcDbSymbolTableRecord
100
AcDbLayerTableRecord
  2
BEZUGSACHSEN
 70
0
 62
7
  6
CONTINUOUS
370
-3
390
F
  0
LAYER
  5
203
100
AcDbSymbolTableRecord
100
AcDbLayerTableRecord
  2
BEZUGSEBENEN
 70
0
 62
7
  6
CONTINUOUS
370
-3
390
F
  0
LAYER
  5
204
100
AcDbSymbolTableRecord
100
AcDbLayerTableRecord
  2
BEZUGSPUNKTE
 70
0
 62
7
  6
CONTINUOUS
370
-3
390
F
  0
LAYER
  5
205
100
AcDbSymbolTableRecord
100
AcDbLayerTableRecord
  2
BOHRUNGEN
 70
0
 62
7
  6
CONTINUOUS
370
-3
390
F
  0
LAYER
  5
206
100
AcDbSymbolTableRecord
100
AcDbLayerTableRecord
  2
FLAECHEN
 70
0
 62
7
  6
CONTINUOUS
370
-3
390
F
  0
LAYER
  5
207
100
AcDbSymbolTableRecord
100
AcDbLayerTableRecord
  2
FLAECHENVERBUND
 70
0
 62
7
  6
CONTINUOUS
370
-3
390
F
  0
LAYER
  5
208
100
AcDbSymbolTableRecord
100
AcDbLayerTableRecord
  2
KURVEN
 70
0
 62
7
  6
CONTINUOUS
370
-3
390
F
  0
LAYER
  5
209
100
AcDbSymbolTableRecord
100
AcDbLayerTableRecord
  2
KURVENELEMENTE
 70
0
 62
7
  6
CONTINUOUS
370
-3
390
F
  0
LAYER
  5
20A
100
AcDbSymbolTableRecord
100
AcDbLayerTableRecord
  2
NOTIZEN
 70
0
 62
7
  6
CONTINUOUS
370
-3
390
F
  0
LAYER
  5
20B
100
AcDbSymbolTableRecord
100
AcDbLayerTableRecord
  2
RUNDUNGEN
 70
0
 62
7
  6
CONTINUOUS
370
-3
390
F
  0
LAYER
  5
20C
100
AcDbSymbolTableRecord
100
AcDbLayerTableRecord
  2
VERBUNDFLAECHEN
 70
0
 62
7
  6
CONTINUOUS
370
-3
390
F
  0
LAYER
  5
20D
100
AcDbSymbolTableRecord
100
AcDbLayerTableRecord
  2
ZEICHNUNGSBEMASSUNGEN
 70
0
 62
7
  6
CONTINUOUS
370
-3
390
F
  0
ENDTAB
  0
TABLE
  2
STYLE
  5
3
100
AcDbSymbolTable
 70
1
  0
STYLE
  5
11
100
AcDbSymbolTableRecord
100
AcDbTextStyleTableRecord
  2
STANDARD
 70
0
 40
0.0
 41
0.7
 50
0.0
 71
0
 42
0.2
  3
txt
  4

  0
STYLE
  5
20E
100
AcDbSymbolTableRecord
100
AcDbTextStyleTableRecord
  2
TEXTSTYLE_1
 70
0
 40
0.0
 41
0.8
 50
0.0
 71
0
 42
0.2
  3
gdt
  4

  0
ENDTAB
  0
TABLE
  2
VIEW
  5
6
100
AcDbSymbolTable
 70
0
  0
ENDTAB
  0
TABLE
  2
UCS
  5
7
100
AcDbSymbolTable
 70
0
  0
ENDTAB
  0
TABLE
  2
APPID
  5
9
100
AcDbSymbolTable
 70
1
  0
APPID
  5
20F
100
AcDbSymbolTableRecord
100
AcDbRegAppTableRecord
  2
ACAD
 70
0
  0
ENDTAB
  0
TABLE
  2
BLOCK_RECORD
  5
1
100
AcDbSymbolTable
 70
0
  0
BLOCK_RECORD
  5
210
100
AcDbSymbolTableRecord
100
AcDbBlockTableRecord
  2
*Model_Space
  0
BLOCK_RECORD
  5
211
100
AcDbSymbolTableRecord
100
AcDbBlockTableRecord
  2
*Paper_Space
  0
ENDTAB
  0
TABLE
  2
DIMSTYLE
  5
A
100
AcDbSymbolTable
 70
1
100
AcDbDimStyleTable
 71
0
  0
DIMSTYLE
105
212
100
AcDbSymbolTableRecord
100
AcDbDimStyleTableRecord
  2
STANDARD
 70
0
  3

  4

 40
1.0
 41
3.5
 42
0.0625
 43
0.38
 44
0.18
 45
0.0
 46
0.0
 47
0.005
 48
0.005
140
3.5
141
0.09
142
0.0
143
25.4
144
1.0
145
0.0
146
1.0
147
0.09
 71
1.0
 72
0.0
 73
0
 74
0
 75
0
 76
0
 77
1
 78
8
170
0
171
2
172
0
173
0
174
0
175
0
176
0
177
0
178
5
270
2
271
3
272
3
273
2
274
2
275
0
280
0
281
0
282
0
283
1
284
8
285
0
286
0
287
3
288
0
340
11
  0
ENDTAB
  0
ENDSEC
  0
SECTION
  2
BLOCKS
  0
BLOCK
  5
20
100
AcDbEntity
  8
0
100
AcDbBlockBegin
  2
*Model_Space
 70
0
 10
0.0
 20
0.0
 30
0.0
  3
*Model_Space
  1

  0
ENDBLK
  5
21
100
AcDbEntity
  8
0
100
AcDbBlockEnd
  0
BLOCK
  5
1C
100
AcDbEntity
  8
0
100
AcDbBlockBegin
  2
*Paper_Space
 70
0
 10
0.0
 20
0.0
 30
0.0
  3
*Paper_Space
  1

  0
ENDBLK
  5
1D
100
AcDbEntity
  8
0
100
AcDbBlockEnd
  0
ENDSEC
  0
SECTION
  2
ENTITIES
  0
MTEXT
  5
213
100
AcDbEntity
  8
0
100
AcDbMText
 62
5
  6
CONTINUOUS
  7
STANDARD
 71
2
 72
1
 10
181.3124925426
 20
131.3845322657
 30
0.0
 11
0.0
 21
1.0
 31
0.0
 44
0.9
  1
RUD PSA\PINOX STAR M20\P1-2 Pers
 40
3.0
 41
31.0714285714
  0
LINE
  5
214
100
AcDbEntity
  8
0
100
AcDbLine
 62
7
  6
CONTINUOUS
 10
0.0
 20
0.0
 11
0.0
 21
210.0
  0
LINE
  5
215
100
AcDbEntity
  8
0
100
AcDbLine
 62
7
  6
CONTINUOUS
 10
0.0
 20
0.0
 11
297.0
 21
0.0
  0
LINE
  5
216
100
AcDbEntity
  8
0
100
AcDbLine
 62
7
  6
CONTINUOUS
 10
0.0
 20
210.0
 11
297.0
 21
210.0
  0
LINE
  5
217
100
AcDbEntity
  8
0
100
AcDbLine
 62
7
  6
CONTINUOUS
 10
297.0
 20
0.0
 11
297.0
 21
210.0
  0
LINE
  5
218
100
AcDbEntity
  8
B-ACHSEN
100
AcDbLine
 62
7
  6
CONTINUOUS
 10
98.7001119241
 20
82.8164024051
 11
81.7001119241
 21
82.8164024051
  0
LINE
  5
219
100
AcDbEntity
  8
B-ACHSEN
100
AcDbLine
 62
7
  6
CONTINUOUS
 10
100.2001119241
 20
84.3164024051
 11
80.2001119241
 21
84.3164024051
  0
LINE
  5
21A
100
AcDbEntity
  8
B-ACHSEN
100
AcDbLine
 62
7
  6
CONTINUOUS
 10
80.2001119241
 20
84.3164024051
 11
81.7001119241
 21
82.8164024051
  0
LINE
  5
21B
100
AcDbEntity
  8
0
100
AcDbLine
 62
7
  6
CONTINUOUS
 10
67.20122815
 20
168.2821077673
 11
66.0786919999
 21
166.8750140989
  0
LINE
  5
21C
100
AcDbEntity
  8
0
100
AcDbLine
 62
7
  6
CONTINUOUS
 10
69.7032859097
 20
170.9699644085
 11
69.4331185416
 21
170.7098987167
  0
LINE
  5
21D
100
AcDbEntity
  8
0
100
AcDbLine
 62
7
  6
CONTINUOUS
 10
69.7872510456
 20
170.3420107192
 11
70.111452382
 21
170.6540900256
  0
LINE
  5
21E
100
AcDbEntity
  8
0
100
AcDbLine
 62
7
  6
CONTINUOUS
 10
70.7307641384
 20
170.6595960007
 11
71.0549654749
 21
170.9716753071
  0
LINE
  5
21F
100
AcDbEntity
  8
0
100
AcDbLine
 62
7
  6
CONTINUOUS
 10
67.5016187347
 20
168.5221768453
 11
67.20122815
 21
168.2821077673
  0
LINE
  5
220
100
AcDbEntity
  8
0
100
AcDbLine
 62
7
  6
CONTINUOUS
 10
72.8933815044
 20
173.6064057391
 11
72.4088881087
 21
173.2524771264
  0
LINE
  5
221
100
AcDbEntity
  8
0
100
AcDbLine
 62
7
  6
CONTINUOUS
 10
70.0324753618
 20
171.1687154341
 11
69.7032859097
 21
170.9699644085
  0
LINE
  5
222
100
AcDbEntity
  8
0
100
AcDbLine
 62
7
  6
CONTINUOUS
 10
71.2669511755
 20
169.9944355519
 11
70.9377617234
 21
169.7956845264
  0
LINE
  5
223
100
AcDbEntity
  8
0
100
AcDbLine
 62
7
  6
CONTINUOUS
 10
67.5806470641
 20
168.0753621727
 11
67.7874933264
 21
168.1981738923
  0
LINE
  5
224
100
AcDbEntity
  8
0
100
AcDbLine
 62
7
  6
CONTINUOUS
 10
71.2918942274
 20
169.4277965289
 11
71.5670497112
 21
169.5745339399
  0
LINE
  5
225
100
AcDbEntity
  8
0
100
AcDbLine
 62
7
  6
CONTINUOUS
 10
70.6925361704
 20
168.968978621
 11
70.967692891
 21
169.1157172225
  0
LINE
  5
226
100
AcDbEntity
  8
0
100
AcDbLine
 62
7
  6
CONTINUOUS
 10
70.111452382
 20
170.6540900256
 11
70.3325751342
 21
170.7488150125
  0
LINE
  5
227
100
AcDbEntity
  8
0
100
AcDbLine
 62
7
  6
CONTINUOUS
 10
70.6135603869
 20
169.48360522
 11
70.3924376347
 21
169.3888802331
  0
LINE
  5
228
100
AcDbEntity
  8
0
100
AcDbLine
 62
7
  6
CONTINUOUS
 10
62.893316978
 20
161.2172708368
 11
62.1954546062
 21
159.5580577371
  0
LINE
  5
229
100
AcDbEntity
  8
0
100
AcDbLine
 62
7
  6
CONTINUOUS
 10
62.8406188947
 20
159.7748858947
 11
63.3640156735
 21
161.0192957194
  0
LINE
  5
22A
100
AcDbEntity
  8
0
100
AcDbLine
 62
7
  6
CONTINUOUS
 10
61.1946772776
 20
153.743865772
 11
61.3088875249
 21
153.9555828335
  0
LINE
  5
22B
100
AcDbEntity
  8
0
100
AcDbLine
 62
7
  6
CONTINUOUS
 10
69.4331185416
 20
170.7098987167
 11
69.276005989
 21
170.4405307827
  0
LINE
  5
22C
100
AcDbEntity
  8
0
100
AcDbLine
 62
7
  6
CONTINUOUS
 10
63.1171548656
 20
161.5299446434
 11
62.893316978
 21
161.2172708368
  0
LINE
  5
22D
100
AcDbEntity
  8
0
100
AcDbLine
 62
7
  6
CONTINUOUS
 10
66.691972255
 20
166.9614125712
 11
67.5806470641
 21
168.0753621727
  0
LINE
  5
22E
100
AcDbEntity
  8
0
100
AcDbLine
 62
7
  6
CONTINUOUS
 10
68.5785859034
 20
167.2792371897
 11
67.6899110944
 21
166.1652875883
  0
LINE
  5
22F
100
AcDbEntity
  8
0
100
AcDbLine
 62
7
  6
CONTINUOUS
 10
68.0890865555
 20
165.8468376546
 11
68.9309886682
 21
166.9021579058
  0
LINE
  5
230
100
AcDbEntity
  8
0
100
AcDbLine
 62
7
  6
CONTINUOUS
 10
69.2055668185
 20
164.3804893208
 11
69.486200856
 21
164.7322627379
  0
LINE
  5
231
100
AcDbEntity
  8
0
100
AcDbLine
 62
7
  6
CONTINUOUS
 10
63.3640156735
 20
161.0192957194
 11
63.5587757405
 21
161.2628351194
  0
LINE
  5
232
100
AcDbEntity
  8
0
100
AcDbLine
 62
7
  6
CONTINUOUS
 10
70.9377617234
 20
169.7956845264
 11
70.6135603869
 21
169.48360522
  0
LINE
  5
233
100
AcDbEntity
  8
0
100
AcDbLine
 62
7
  6
CONTINUOUS
 10
70.967692891
 20
169.1157172225
 11
71.2918942274
 21
169.4277965289
  0
LINE
  5
234
100
AcDbEntity
  8
0
100
AcDbLine
 62
7
  6
CONTINUOUS
 10
70.8995336727
 20
168.1050672326
 11
70.5753323363
 21
167.7929879262
  0
LINE
  5
235
100
AcDbEntity
  8
0
100
AcDbLine
 62
7
  6
CONTINUOUS
 10
72.1772256114
 20
168.5080764064
 11
71.7449563384
 21
168.0919698709
  0
LINE
  5
236
100
AcDbEntity
  8
0
100
AcDbLine
 62
7
  6
CONTINUOUS
 10
72.0990888837
 20
167.7240818305
 11
72.5313581568
 21
168.140188366
  0
LINE
  5
237
100
AcDbEntity
  8
0
100
AcDbLine
 62
7
  6
CONTINUOUS
 10
63.3903647152
 20
161.7404881905
 11
63.1171548656
 21
161.5299446434
  0
LINE
  5
238
100
AcDbEntity
  8
0
100
AcDbLine
 62
7
  6
CONTINUOUS
 10
74.7524730563
 20
171.6972124374
 11
73.6623618764
 21
170.9008722993
  0
LINE
  5
239
100
AcDbEntity
  8
0
100
AcDbLine
 62
7
  6
CONTINUOUS
 10
73.8026117963
 20
170.5817417563
 11
75.0138459785
 21
171.4665637945
  0
LINE
  5
23A
100
AcDbEntity
  8
0
100
AcDbLine
 62
7
  6
CONTINUOUS
 10
73.7994262664
 20
169.3146598369
 11
74.1627966597
 21
169.5801065496
  0
LINE
  5
23B
100
AcDbEntity
  8
0
100
AcDbLine
 62
7
  6
CONTINUOUS
 10
75.8585256237
 20
170.8188582131
 11
76.221896017
 21
171.0843049258
  0
LINE
  5
23C
100
AcDbEntity
  8
0
100
AcDbLine
 62
7
  6
CONTINUOUS
 10
71.7698994264
 20
167.5253308103
 11
72.0990888837
 21
167.7240818305
  0
LINE
  5
23D
100
AcDbEntity
  8
0
100
AcDbLine
 62
7
  6
CONTINUOUS
 10
63.5587757405
 20
161.2628351194
 11
63.8029081021
 21
161.4042450511
  0
LINE
  5
23E
100
AcDbEntity
  8
0
100
AcDbLine
 62
7
  6
CONTINUOUS
 10
71.7449563384
 20
168.0919698709
 11
71.4698008546
 21
167.9452324599
  0
LINE
  5
23F
100
AcDbEntity
  8
0
100
AcDbLine
 62
7
  6
CONTINUOUS
 10
60.7629563023
 20
153.7259952328
 11
60.5241044425
 21
151.9419128947
  0
LINE
  5
240
100
AcDbEntity
  8
0
100
AcDbLine
 62
7
  6
CONTINUOUS
 10
61.0055862314
 20
152.3314673253
 11
61.1946772776
 21
153.743865772
  0
LINE
  5
241
100
AcDbEntity
  8
0
100
AcDbLine
 62
7
  6
CONTINUOUS
 10
62.4599839858
 20
153.5744672785
 11
62.2708929397
 21
152.1620688317
  0
LINE
  5
242
100
AcDbEntity
  8
0
100
AcDbLine
 62
7
  6
CONTINUOUS
 10
61.8345215414
 20
158.4773586937
 11
61.7170289651
 21
158.0429677471
  0
LINE
  5
243
100
AcDbEntity
  8
0
100
AcDbLine
 62
7
  6
CONTINUOUS
 10
61.2470586602
 20
156.3054039605
 11
61.1295660279
 21
155.8710128067
  0
LINE
  5
244
100
AcDbEntity
  8
0
100
AcDbLine
 62
7
  6
CONTINUOUS
 10
64.8895349308
 20
156.4079291513
 11
64.8112065093
 21
156.1183350488
  0
LINE
  5
245
100
AcDbEntity
  8
0
100
AcDbLine
 62
7
  6
CONTINUOUS
 10
69.276005989
 20
170.4405307827
 11
69.1779155205
 21
170.1098481825
  0
LINE
  5
246
100
AcDbEntity
  8
0
100
AcDbLine
 62
7
  6
CONTINUOUS
 10
68.6523736787
 20
167.5081988872
 11
68.5785859034
 21
167.2792371897
  0
LINE
  5
247
100
AcDbEntity
  8
0
100
AcDbLine
 62
7
  6
CONTINUOUS
 10
60.8970708807
 20
154.0863858933
 11
60.7629563023
 21
153.7259952328
  0
LINE
  5
248
100
AcDbEntity
  8
0
100
AcDbLine
 62
7
  6
CONTINUOUS
 10
66.1097584489
 20
159.8644407066
 11
65.58636167
 21
158.6200308818
  0
LINE
  5
249
100
AcDbEntity
  8
0
100
AcDbLine
 62
7
  6
CONTINUOUS
 10
65.8825948276
 20
158.0072524665
 11
66.5804571994
 21
159.6664655661
  0
LINE
  5
24A
100
AcDbEntity
  8
0
100
AcDbLine
 62
7
  6
CONTINUOUS
 10
69.6841724614
 20
170.1246563998
 11
69.7872510456
 21
170.3420107192
  0
LINE
  5
24B
100
AcDbEntity
  8
0
100
AcDbLine
 62
7
  6
CONTINUOUS
 10
68.9309886682
 20
166.9021579058
 11
69.0983207657
 21
167.2483769617
  0
LINE
  5
24C
100
AcDbEntity
  8
0
100
AcDbLine
 62
7
  6
CONTINUOUS
 10
65.1240676486
 20
155.64523864
 11
65.304132405
 21
155.9850101399
  0
LINE
  5
24D
100
AcDbEntity
  8
0
100
AcDbLine
 62
7
  6
CONTINUOUS
 10
72.3343369272
 20
168.7774431499
 11
72.1772256114
 21
168.5080764064
  0
LINE
  5
24E
100
AcDbEntity
  8
0
100
AcDbLine
 62
7
  6
CONTINUOUS
 10
64.8112065093
 20
156.1183350488
 11
64.6507238935
 21
155.8509621761
  0
LINE
  5
24F
100
AcDbEntity
  8
0
100
AcDbLine
 62
7
  6
CONTINUOUS
 10
72.5313581568
 20
168.140188366
 11
72.7425034357
 21
168.4615687294
  0
LINE
  5
250
100
AcDbEntity
  8
0
100
AcDbLine
 62
7
  6
CONTINUOUS
 10
64.8814305928
 20
155.4000861744
 11
65.1240676486
 21
155.64523864
  0
LINE
  5
251
100
AcDbEntity
  8
0
100
AcDbLine
 62
7
  6
CONTINUOUS
 10
61.1899408089
 20
154.3498531864
 11
60.8970708807
 21
154.0863858933
  0
LINE
  5
252
100
AcDbEntity
  8
0
100
AcDbLine
 62
7
  6
CONTINUOUS
 10
64.6507238935
 20
155.8509621761
 11
64.4276689351
 21
155.6782083494
  0
LINE
  5
253
100
AcDbEntity
  8
0
100
AcDbLine
 62
7
  6
CONTINUOUS
 10
61.3088875249
 20
153.9555828335
 11
61.4974993856
 21
154.081669971
  0
LINE
  5
254
100
AcDbEntity
  8
0
100
AcDbLine
 62
7
  6
CONTINUOUS
 10
63.8204741299
 20
161.8850400318
 11
63.3903647152
 21
161.7404881905
  0
LINE
  5
255
100
AcDbEntity
  8
B-ACHSEN
100
AcDbLine
 62
7
  6
CONTINUOUS
 10
100.2001119241
 20
105.3164024051
 11
80.2001119241
 21
105.3164024051
  0
LINE
  5
256
100
AcDbEntity
  8
0
100
AcDbLine
 62
7
  6
CONTINUOUS
 10
65.3824608265
 20
156.2746042425
 11
65.3982169558
 21
156.6588173774
  0
LINE
  5
257
100
AcDbEntity
  8
0
100
AcDbLine
 62
7
  6
CONTINUOUS
 10
66.1476189507
 20
160.1739718123
 11
66.1097584489
 21
159.8644407066
  0
LINE
  5
258
100
AcDbEntity
  8
0
100
AcDbLine
 62
7
  6
CONTINUOUS
 10
62.7770155284
 20
152.094309447
 11
62.9462022577
 21
153.358034401
  0
LINE
  5
259
100
AcDbEntity
  8
0
100
AcDbLine
 62
7
  6
CONTINUOUS
 10
64.4887318605
 20
151.4111309841
 11
64.5484448254
 21
151.8571515687
  0
LINE
  5
25A
100
AcDbEntity
  8
0
100
AcDbLine
 62
7
  6
CONTINUOUS
 10
64.7972488365
 20
153.7155705999
 11
64.8669139813
 21
154.2359280903
  0
LINE
  5
25B
100
AcDbEntity
  8
0
100
AcDbLine
 62
7
  6
CONTINUOUS
 10
69.6401159611
 20
169.8459874141
 11
69.6841724614
 21
170.1246563998
  0
LINE
  5
25C
100
AcDbEntity
  8
0
100
AcDbLine
 62
7
  6
CONTINUOUS
 10
66.5804571994
 20
159.6664655661
 11
66.647395515
 21
160.0451310814
  0
LINE
  5
25D
100
AcDbEntity
  8
0
100
AcDbLine
 62
7
  6
CONTINUOUS
 10
65.304132405
 20
155.9850101399
 11
65.3824608265
 21
156.2746042425
  0
LINE
  5
25E
100
AcDbEntity
  8
0
100
AcDbLine
 62
7
  6
CONTINUOUS
 10
72.7425034357
 20
168.4615687294
 11
72.8405938887
 21
168.7922513457
  0
LINE
  5
25F
100
AcDbEntity
  8
0
100
AcDbLine
 62
7
  6
CONTINUOUS
 10
64.4744850291
 20
155.1993757561
 11
64.8814305928
 21
155.4000861744
  0
LINE
  5
260
100
AcDbEntity
  8
0
100
AcDbLine
 62
7
  6
CONTINUOUS
 10
61.5572123505
 20
154.5276905555
 11
61.1899408089
 21
154.3498531864
  0
LINE
  5
261
100
AcDbEntity
  8
0
100
AcDbLine
 62
7
  6
CONTINUOUS
 10
109.2073963891
 20
170.9640520769
 11
109.472983198
 21
171.0654255996
  0
LINE
  5
262
100
AcDbEntity
  8
0
100
AcDbLine
 62
7
  6
CONTINUOUS
 10
64.885709046
 20
156.7197440694
 11
64.8895349308
 21
156.4079291513
  0
LINE
  5
263
100
AcDbEntity
  8
0
100
AcDbLine
 62
7
  6
CONTINUOUS
 10
72.3783933861
 20
169.0561121785
 11
72.3343369272
 21
168.7774431499
  0
LINE
  5
264
100
AcDbEntity
  8
0
100
AcDbLine
 62
7
  6
CONTINUOUS
 10
109.3149614685
 20
171.4457235247
 11
108.9913076885
 21
171.2821303829
  0
LINE
  5
265
100
AcDbEntity
  8
0
100
AcDbLine
 62
7
  6
CONTINUOUS
 10
109.0598614652
 20
168.4242773585
 11
108.7942748189
 21
168.3229040101
  0
LINE
  5
266
100
AcDbEntity
  8
B-ACHSEN
100
AcDbLine
 62
7
  6
CONTINUOUS
 10
110.2001119241
 20
112.8164024051
 11
70.2001119241
 21
112.8164024051
  0
LINE
  5
267
100
AcDbEntity
  8
0
100
AcDbLine
 62
7
  6
CONTINUOUS
 10
62.4054867035
 20
153.8087708015
 11
62.4599839858
 21
153.5744672785
  0
LINE
  5
268
100
AcDbEntity
  8
B-ACHSEN
100
AcDbLine
 62
7
  6
CONTINUOUS
 10
69.317758983
 20
120.3164024051
 11
70.2001119241
 21
112.8164024051
  0
LINE
  5
269
100
AcDbEntity
  8
0
100
AcDbLine
 62
7
  6
CONTINUOUS
 10
69.1779155205
 20
170.1098481825
 11
69.1978704567
 21
169.6565374402
  0
LINE
  5
26A
100
AcDbEntity
  8
0
100
AcDbLine
 62
7
  6
CONTINUOUS
 10
69.0983207657
 20
167.2483769617
 11
69.0858227503
 21
167.6421179873
  0
LINE
  5
26B
100
AcDbEntity
  8
0
100
AcDbLine
 62
7
  6
CONTINUOUS
 10
108.9294351009
 20
170.7578160414
 11
109.2073963891
 21
170.9640520769
  0
LINE
  5
26C
100
AcDbEntity
  8
0
100
AcDbLine
 62
7
  6
CONTINUOUS
 10
108.9522965078
 20
167.9426060415
 11
109.2759505899
 21
168.1061989828
  0
LINE
  5
26D
100
AcDbEntity
  8
0
100
AcDbLine
 62
7
  6
CONTINUOUS
 10
115.7259680706
 20
163.5212433342
 11
115.3945497006
 21
163.4214551143
  0
LINE
  5
26E
100
AcDbEntity
  8
0
100
AcDbLine
 62
7
  6
CONTINUOUS
 10
99.6584453211
 20
118.8164024051
 11
100.1584453211
 21
118.9227853805
  0
LINE
  5
26F
100
AcDbEntity
  8
0
100
AcDbLine
 62
7
  6
CONTINUOUS
 10
93.9084448442
 20
118.8164024051
 11
94.4917783365
 21
118.9227853805
  0
LINE
  5
270
100
AcDbEntity
  8
0
100
AcDbLine
 62
7
  6
CONTINUOUS
 10
94.4084448442
 20
119.3483173098
 11
93.8251118288
 21
119.2419343065
  0
LINE
  5
271
100
AcDbEntity
  8
0
100
AcDbLine
 62
7
  6
CONTINUOUS
 10
79.9001126871
 20
118.3164024051
 11
80.5001126871
 21
118.3164024051
  0
LINE
  5
272
100
AcDbEntity
  8
0
100
AcDbLine
 62
7
  6
CONTINUOUS
 10
83.5001126871
 20
118.3164024051
 11
87.1001126871
 21
118.3164024051
  0
LINE
  5
273
100
AcDbEntity
  8
0
100
AcDbLine
 62
7
  6
CONTINUOUS
 10
88.7417783365
 20
118.8164024051
 11
89.2417783365
 21
118.8164024051
  0
LINE
  5
274
100
AcDbEntity
  8
0
100
AcDbLine
 62
7
  6
CONTINUOUS
 10
95.8251118288
 20
118.8164024051
 11
96.2417783365
 21
118.8164024051
  0
LINE
  5
275
100
AcDbEntity
  8
0
100
AcDbLine
 62
7
  6
CONTINUOUS
 10
99.1584453211
 20
118.8164024051
 11
99.6584453211
 21
118.8164024051
  0
LINE
  5
276
100
AcDbEntity
  8
0
100
AcDbLine
 62
7
  6
CONTINUOUS
 10
87.1001126871
 20
118.9547002908
 11
84.3001124963
 21
118.9547002908
  0
LINE
  5
277
100
AcDbEntity
  8
0
100
AcDbLine
 62
7
  6
CONTINUOUS
 10
62.8372077073
 20
153.8266415535
 11
62.7083088115
 21
154.1465750005
  0
LINE
  5
278
100
AcDbEntity
  8
0
100
AcDbLine
 62
7
  6
CONTINUOUS
 10
65.3982169558
 20
156.6588173774
 11
65.312236743
 21
156.9928531169
  0
LINE
  5
279
100
AcDbEntity
  8
0
100
AcDbLine
 62
7
  6
CONTINUOUS
 10
66.077952127
 20
160.4473651787
 11
66.1476189507
 21
160.1739718123
  0
LINE
  5
27A
100
AcDbEntity
  8
0
100
AcDbLine
 62
7
  6
CONTINUOUS
 10
66.647395515
 20
160.0451310814
 11
66.6068062136
 21
160.3876580487
  0
LINE
  5
27B
100
AcDbEntity
  8
0
100
AcDbLine
 62
7
  6
CONTINUOUS
 10
72.8405938887
 20
168.7922513457
 11
72.8206389319
 21
169.2455621094
  0
LINE
  5
27C
100
AcDbEntity
  8
0
100
AcDbLine
 62
7
  6
CONTINUOUS
 10
108.9913076885
 20
171.2821303829
 11
108.655279104
 21
171.0136743798
  0
LINE
  5
27D
100
AcDbEntity
  8
0
100
AcDbLine
 62
7
  6
CONTINUOUS
 10
109.2759505899
 20
168.1061989828
 11
109.6119787503
 21
168.3746550556
  0
LINE
  5
27E
100
AcDbEntity
  8
0
100
AcDbLine
 62
7
  6
CONTINUOUS
 10
109.3378227534
 20
168.630513394
 11
109.0598614652
 21
168.4242773585
  0
LINE
  5
27F
100
AcDbEntity
  8
0
100
AcDbLine
 62
7
  6
CONTINUOUS
 10
115.3945497006
 20
163.4214551143
 11
115.0916612642
 21
163.2660579697
  0
LINE
  5
280
100
AcDbEntity
  8
0
100
AcDbLine
 62
7
  6
CONTINUOUS
 10
115.3385628878
 20
162.9712568792
 11
115.490007
 21
163.0489553971
  0
LINE
  5
281
100
AcDbEntity
  8
0
100
AcDbLine
 62
7
  6
CONTINUOUS
 10
117.5828477269
 20
161.0967209591
 11
117.185135545
 21
160.9453856103
  0
LINE
  5
282
100
AcDbEntity
  8
0
100
AcDbLine
 62
7
  6
CONTINUOUS
 10
117.5407738268
 20
160.0107614258
 11
114.1999910533
 21
158.7395443261
  0
LINE
  5
283
100
AcDbEntity
  8
0
100
AcDbLine
 62
7
  6
CONTINUOUS
 10
114.3333553453
 20
158.3890604241
 11
117.6741381188
 21
159.6602775237
  0
LINE
  5
284
100
AcDbEntity
  8
0
100
AcDbLine
 62
7
  6
CONTINUOUS
 10
97.3251113519
 20
122.2206576165
 11
96.9084453211
 21
122.1142746504
  0
LINE
  5
285
100
AcDbEntity
  8
0
100
AcDbLine
 62
7
  6
CONTINUOUS
 10
90.7417783365
 20
121.05044499
 11
91.1584450826
 21
121.156827956
  0
LINE
  5
286
100
AcDbEntity
  8
0
100
AcDbLine
 62
7
  6
CONTINUOUS
 10
96.8251113519
 20
121.5823598202
 11
97.3251113519
 21
121.6887427863
  0
LINE
  5
287
100
AcDbEntity
  8
0
100
AcDbLine
 62
7
  6
CONTINUOUS
 10
98.9917783365
 20
122.2206576165
 11
98.4917783365
 21
122.1142746504
  0
LINE
  5
288
100
AcDbEntity
  8
0
100
AcDbLine
 62
7
  6
CONTINUOUS
 10
93.9084448442
 20
122.2206576165
 11
93.4084448442
 21
122.1142746504
  0
LINE
  5
289
100
AcDbEntity
  8
0
100
AcDbLine
 62
7
  6
CONTINUOUS
 10
99.6584453211
 20
119.2419343065
 11
99.1584453211
 21
119.2419343065
  0
LINE
  5
28A
100
AcDbEntity
  8
0
100
AcDbLine
 62
7
  6
CONTINUOUS
 10
98.4084453211
 20
119.6674662079
 11
97.9917783365
 21
119.6674662079
  0
LINE
  5
28B
100
AcDbEntity
  8
0
100
AcDbLine
 62
7
  6
CONTINUOUS
 10
95.1584448442
 20
119.8802322145
 11
94.7417783365
 21
119.8802322145
  0
LINE
  5
28C
100
AcDbEntity
  8
RUNDUNGEN
100
AcDbLine
 62
7
  6
CONTINUOUS
 10
114.1463012646
 20
120.3164024051
 11
103.6099819509
 21
120.3164024051
  0
LINE
  5
28D
100
AcDbEntity
  8
RUNDUNGEN
100
AcDbLine
 62
7
  6
CONTINUOUS
 10
76.7902416113
 20
120.3164024051
 11
66.2539225836
 21
120.3164024051
  0
LINE
  5
28E
100
AcDbEntity
  8
0
100
AcDbLine
 62
7
  6
CONTINUOUS
 10
81.3001126394
 20
120.4866150912
 11
82.7001125917
 21
120.4866150912
  0
LINE
  5
28F
100
AcDbEntity
  8
0
100
AcDbLine
 62
7
  6
CONTINUOUS
 10
92.9084448442
 20
120.5185300108
 11
95.1584448442
 21
120.5185300108
  0
LINE
  5
290
100
AcDbEntity
  8
0
100
AcDbLine
 62
7
  6
CONTINUOUS
 10
94.7417783365
 20
120.944062024
 11
92.9917783365
 21
120.944062024
  0
LINE
  5
291
100
AcDbEntity
  8
0
100
AcDbLine
 62
7
  6
CONTINUOUS
 10
89.2417783365
 20
121.05044499
 11
90.7417783365
 21
121.05044499
  0
LINE
  5
292
100
AcDbEntity
  8
0
100
AcDbLine
 62
7
  6
CONTINUOUS
 10
82.7001125917
 20
121.1249130662
 11
81.3001126394
 21
121.1249130662
  0
LINE
  5
293
100
AcDbEntity
  8
0
100
AcDbLine
 62
7
  6
CONTINUOUS
 10
100.2417783365
 20
121.3695938881
 11
100.6584453211
 21
121.3695938881
  0
LINE
  5
294
100
AcDbEntity
  8
0
100
AcDbLine
 62
7
  6
CONTINUOUS
 10
90.8251115904
 20
121.6887427863
 11
89.2417783365
 21
121.6887427863
  0
LINE
  5
295
100
AcDbEntity
  8
0
100
AcDbLine
 62
7
  6
CONTINUOUS
 10
98.9917783365
 20
121.7951257523
 11
99.4917783365
 21
121.7951257523
  0
LINE
  5
296
100
AcDbEntity
  8
0
100
AcDbLine
 62
7
  6
CONTINUOUS
 10
99.4917783365
 20
122.2206576165
 11
98.9917783365
 21
122.2206576165
  0
LINE
  5
297
100
AcDbEntity
  8
0
100
AcDbLine
 62
7
  6
CONTINUOUS
 10
96.2417783365
 20
122.2206576165
 11
95.8251118288
 21
122.2206576165
  0
LINE
  5
298
100
AcDbEntity
  8
0
100
AcDbLine
 62
7
  6
CONTINUOUS
 10
83.6001125917
 20
122.9121472534
 11
84.1001126871
 21
122.9121472534
  0
LINE
  5
299
100
AcDbEntity
  8
0
100
AcDbLine
 62
7
  6
CONTINUOUS
 10
89.2417783365
 20
123.2844875749
 11
90.8251115904
 21
123.2844875749
  0
LINE
  5
29A
100
AcDbEntity
  8
0
100
AcDbLine
 62
7
  6
CONTINUOUS
 10
93.4084448442
 20
118.9227853805
 11
93.9084448442
 21
118.8164024051
  0
LINE
  5
29B
100
AcDbEntity
  8
0
100
AcDbLine
 62
7
  6
CONTINUOUS
 10
98.6584453211
 20
118.9227853805
 11
99.1584453211
 21
118.8164024051
  0
LINE
  5
29C
100
AcDbEntity
  8
0
100
AcDbLine
 62
7
  6
CONTINUOUS
 10
99.1584453211
 20
119.2419343065
 11
98.6584453211
 21
119.3483173098
  0
LINE
  5
29D
100
AcDbEntity
  8
0
100
AcDbLine
 62
7
  6
CONTINUOUS
 10
93.8251118288
 20
121.7951257523
 11
94.3251118288
 21
121.6887427863
  0
LINE
  5
29E
100
AcDbEntity
  8
0
100
AcDbLine
 62
7
  6
CONTINUOUS
 10
94.4084448442
 20
122.1142746504
 11
93.9084448442
 21
122.2206576165
  0
LINE
  5
29F
100
AcDbEntity
  8
0
100
AcDbLine
 62
7
  6
CONTINUOUS
 10
85.5001124963
 20
123.6781046089
 11
86.0001128778
 21
123.5504450496
  0
LINE
  5
2A0
100
AcDbEntity
  8
0
100
AcDbLine
 62
7
  6
CONTINUOUS
 10
93.8251118288
 20
119.2419343065
 11
93.4917783365
 21
119.3483173098
  0
LINE
  5
2A1
100
AcDbEntity
  8
0
100
AcDbLine
 62
7
  6
CONTINUOUS
 10
93.1584448442
 20
119.0291683558
 11
93.4084448442
 21
118.9227853805
  0
LINE
  5
2A2
100
AcDbEntity
  8
0
100
AcDbLine
 62
7
  6
CONTINUOUS
 10
64.7801466638
 20
156.9813811894
 11
64.885709046
 21
156.7197440694
  0
LINE
  5
2A3
100
AcDbEntity
  8
0
100
AcDbLine
 62
7
  6
CONTINUOUS
 10
68.6128595139
 20
167.7316062235
 11
68.6523736787
 21
167.5081988872
  0
LINE
  5
2A4
100
AcDbEntity
  8
RUNDUNGEN
100
AcDbLine
 62
7
  6
CONTINUOUS
 10
78.2001119241
 20
180.3164024051
 11
78.2001119241
 21
175.8164024051
  0
LINE
  5
2A5
100
AcDbEntity
  8
0
100
AcDbLine
 62
7
  6
CONTINUOUS
 10
79.3001126871
 20
123.4227854904
 11
79.3001126871
 21
122.4015086587
  0
LINE
  5
2A6
100
AcDbEntity
  8
0
100
AcDbLine
 62
7
  6
CONTINUOUS
 10
79.9001126871
 20
123.2951259311
 11
79.9001126871
 21
118.3164024051
  0
LINE
  5
2A7
100
AcDbEntity
  8
B-ACHSEN
100
AcDbLine
 62
7
  6
CONTINUOUS
 10
80.2001119241
 20
105.3164024051
 11
80.2001119241
 21
84.3164024051
  0
LINE
  5
2A8
100
AcDbEntity
  8
0
100
AcDbLine
 62
7
  6
CONTINUOUS
 10
80.5001126871
 20
118.3164024051
 11
80.5001126871
 21
124.3164024051
  0
LINE
  5
2A9
100
AcDbEntity
  8
0
100
AcDbLine
 62
7
  6
CONTINUOUS
 10
81.3001126394
 20
121.1249130662
 11
81.3001126394
 21
120.4866150912
  0
LINE
  5
2AA
100
AcDbEntity
  8
0
100
AcDbLine
 62
7
  6
CONTINUOUS
 10
106.8255913263
 20
174.1092207435
 11
104.4548652031
 21
170.8874731357
  0
LINE
  5
2AB
100
AcDbEntity
  8
0
100
AcDbLine
 62
7
  6
CONTINUOUS
 10
104.7569040413
 20
170.6652175616
 11
106.8249843126
 21
173.4756782898
  0
LINE
  5
2AC
100
AcDbEntity
  8
0
100
AcDbLine
 62
7
  6
CONTINUOUS
 10
108.655279104
 20
171.0136743798
 11
107.7842720169
 21
170.0803773931
  0
LINE
  5
2AD
100
AcDbEntity
  8
0
100
AcDbLine
 62
7
  6
CONTINUOUS
 10
108.0584280139
 20
169.8245190547
 11
108.9294351009
 21
170.7578160414
  0
LINE
  5
2AE
100
AcDbEntity
  8
0
100
AcDbLine
 62
7
  6
CONTINUOUS
 10
110.2088298404
 20
169.5638103807
 11
109.3378227534
 21
168.630513394
  0
LINE
  5
2AF
100
AcDbEntity
  8
0
100
AcDbLine
 62
7
  6
CONTINUOUS
 10
114.6032244043
 20
161.0485851254
 11
114.3760582361
 21
160.9320373486
  0
LINE
  5
2B0
100
AcDbEntity
  8
0
100
AcDbLine
 62
7
  6
CONTINUOUS
 10
114.4715157475
 20
160.5595377403
 11
114.850126028
 21
160.753784035
  0
LINE
  5
2B1
100
AcDbEntity
  8
0
100
AcDbLine
 62
7
  6
CONTINUOUS
 10
118.0297764005
 20
158.7256533392
 11
118.4274885824
 21
158.876988688
  0
LINE
  5
2B2
100
AcDbEntity
  8
0
100
AcDbLine
 62
7
  6
CONTINUOUS
 10
84.6001124963
 20
123.5504450496
 11
85.1001128778
 21
123.6781046089
  0
LINE
  5
2B3
100
AcDbEntity
  8
0
100
AcDbLine
 62
7
  6
CONTINUOUS
 10
85.2001124963
 20
124.3164024051
 11
84.5001128778
 21
124.1887428459
  0
LINE
  5
2B4
100
AcDbEntity
  8
0
100
AcDbLine
 62
7
  6
CONTINUOUS
 10
85.1001128778
 20
123.6781046089
 11
85.5001124963
 21
123.6781046089
  0
LINE
  5
2B5
100
AcDbEntity
  8
0
100
AcDbLine
 62
7
  6
CONTINUOUS
 10
90.7417783365
 20
123.8164024051
 11
88.7417783365
 21
123.8164024051
  0
LINE
  5
2B6
100
AcDbEntity
  8
0
100
AcDbLine
 62
7
  6
CONTINUOUS
 10
85.6001126871
 20
124.3164024051
 11
85.2001124963
 21
124.3164024051
  0
LINE
  5
2B7
100
AcDbEntity
  8
0
100
AcDbLine
 62
7
  6
CONTINUOUS
 10
80.5001126871
 20
124.3164024051
 11
79.9001126871
 21
124.3164024051
  0
LINE
  5
2B8
100
AcDbEntity
  8
0
100
AcDbLine
 62
7
  6
CONTINUOUS
 10
86.2001126871
 20
124.1887428459
 11
85.6001126871
 21
124.3164024051
  0
LINE
  5
2B9
100
AcDbEntity
  8
0
100
AcDbLine
 62
7
  6
CONTINUOUS
 10
99.4917783365
 20
121.7951257523
 11
99.9917783365
 21
121.6887427863
  0
LINE
  5
2BA
100
AcDbEntity
  8
0
100
AcDbLine
 62
7
  6
CONTINUOUS
 10
99.9917783365
 20
122.1142746504
 11
99.4917783365
 21
122.2206576165
  0
LINE
  5
2BB
100
AcDbEntity
  8
0
100
AcDbLine
 62
7
  6
CONTINUOUS
 10
91.1584450826
 20
123.7100194391
 11
90.7417783365
 21
123.8164024051
  0
LINE
  5
2BC
100
AcDbEntity
  8
0
100
AcDbLine
 62
7
  6
CONTINUOUS
 10
98.4917783365
 20
120.6249129768
 11
99.9084453211
 21
120.0929981466
  0
LINE
  5
2BD
100
AcDbEntity
  8
0
100
AcDbLine
 62
7
  6
CONTINUOUS
 10
100.1584453211
 20
120.4121470447
 11
98.7417783365
 21
120.944062024
  0
LINE
  5
2BE
100
AcDbEntity
  8
0
100
AcDbLine
 62
7
  6
CONTINUOUS
 10
98.4084453211
 20
119.0291683558
 11
98.6584453211
 21
118.9227853805
  0
LINE
  5
2BF
100
AcDbEntity
  8
0
100
AcDbLine
 62
7
  6
CONTINUOUS
 10
90.8251115904
 20
123.2844875749
 11
91.0751115904
 21
123.1781046089
  0
LINE
  5
2C0
100
AcDbEntity
  8
0
100
AcDbLine
 62
7
  6
CONTINUOUS
 10
100.2417783365
 20
122.0078916844
 11
99.9917783365
 21
122.1142746504
  0
LINE
  5
2C1
100
AcDbEntity
  8
0
100
AcDbLine
 62
7
  6
CONTINUOUS
 10
93.4917783365
 20
119.3483173098
 11
93.3251118288
 21
119.4547002759
  0
LINE
  5
2C2
100
AcDbEntity
  8
0
100
AcDbLine
 62
7
  6
CONTINUOUS
 10
86.6001128778
 20
123.9334237274
 11
86.2001126871
 21
124.1887428459
  0
LINE
  5
2C3
100
AcDbEntity
  8
0
100
AcDbLine
 62
7
  6
CONTINUOUS
 10
98.6584453211
 20
119.3483173098
 11
98.4917783365
 21
119.4547002759
  0
LINE
  5
2C4
100
AcDbEntity
  8
0
100
AcDbLine
 62
7
  6
CONTINUOUS
 10
94.8251118288
 20
121.7951257523
 11
94.4084448442
 21
122.1142746504
  0
LINE
  5
2C5
100
AcDbEntity
  8
0
100
AcDbLine
 62
7
  6
CONTINUOUS
 10
86.0001128778
 20
123.5504450496
 11
86.3001128778
 21
123.2951259311
  0
LINE
  5
2C6
100
AcDbEntity
  8
0
100
AcDbLine
 62
7
  6
CONTINUOUS
 10
92.9084448442
 20
119.2419343065
 11
93.1584448442
 21
119.0291683558
  0
LINE
  5
2C7
100
AcDbEntity
  8
0
100
AcDbLine
 62
7
  6
CONTINUOUS
 10
94.3251118288
 20
121.6887427863
 11
94.5751118288
 21
121.4759768542
  0
LINE
  5
2C8
100
AcDbEntity
  8
0
100
AcDbLine
 62
7
  6
CONTINUOUS
 10
91.4917783365
 20
123.3908705409
 11
91.1584450826
 21
123.7100194391
  0
LINE
  5
2C9
100
AcDbEntity
  8
0
100
AcDbLine
 62
7
  6
CONTINUOUS
 10
62.256683505
 20
153.9800308622
 11
62.4054867035
 21
153.8087708015
  0
LINE
  5
2CA
100
AcDbEntity
  8
0
100
AcDbLine
 62
7
  6
CONTINUOUS
 10
87.0001124963
 20
123.4227854904
 11
86.6001128778
 21
123.9334237274
  0
LINE
  5
2CB
100
AcDbEntity
  8
0
100
AcDbLine
 62
7
  6
CONTINUOUS
 10
92.7417783365
 20
119.4547002759
 11
92.9084448442
 21
119.2419343065
  0
LINE
  5
2CC
100
AcDbEntity
  8
0
100
AcDbLine
 62
7
  6
CONTINUOUS
 10
65.312236743
 20
156.9928531169
 11
65.0619479103
 21
157.3713304894
  0
LINE
  5
2CD
100
AcDbEntity
  8
0
100
AcDbLine
 62
7
  6
CONTINUOUS
 10
86.3001128778
 20
123.2951259311
 11
86.5001126871
 21
122.9121472534
  0
LINE
  5
2CE
100
AcDbEntity
  8
0
100
AcDbLine
 62
7
  6
CONTINUOUS
 10
66.6068062136
 20
160.3876580487
 11
66.4093173401
 21
160.7961767247
  0
LINE
  5
2CF
100
AcDbEntity
  8
0
100
AcDbLine
 62
7
  6
CONTINUOUS
 10
69.0858227503
 20
167.6421179873
 11
68.960022795
 21
168.0303046516
  0
LINE
  5
2D0
100
AcDbEntity
  8
0
100
AcDbLine
 62
7
  6
CONTINUOUS
 10
72.3093950707
 20
169.3440834063
 11
72.3783933861
 21
169.0561121785
  0
LINE
  5
2D1
100
AcDbEntity
  8
0
100
AcDbLine
 62
7
  6
CONTINUOUS
 10
82.7001125917
 20
120.4866150912
 11
82.7001125917
 21
121.1249130662
  0
LINE
  5
2D2
100
AcDbEntity
  8
0
100
AcDbLine
 62
7
  6
CONTINUOUS
 10
83.5001126871
 20
118.9547002908
 11
83.5001126871
 21
118.3164024051
  0
LINE
  5
2D3
100
AcDbEntity
  8
0
100
AcDbLine
 62
7
  6
CONTINUOUS
 10
83.7001127824
 20
123.4227854904
 11
83.6001125917
 21
122.9121472534
  0
LINE
  5
2D4
100
AcDbEntity
  8
0
100
AcDbLine
 62
7
  6
CONTINUOUS
 10
105.8223066531
 20
174.7254813118
 11
103.7004726331
 21
171.3346377012
  0
LINE
  5
2D5
100
AcDbEntity
  8
0
100
AcDbLine
 62
7
  6
CONTINUOUS
 10
104.0183642216
 20
171.1357157618
 11
106.1401982416
 21
174.5265593724
  0
LINE
  5
2D6
100
AcDbEntity
  8
0
100
AcDbLine
 62
7
  6
CONTINUOUS
 10
107.7842720169
 20
170.0803773931
 11
107.5396291017
 21
169.7266352888
  0
LINE
  5
2D7
100
AcDbEntity
  8
0
100
AcDbLine
 62
7
  6
CONTINUOUS
 10
108.537144767
 20
172.8497724728
 11
106.5195055064
 21
170.1078596059
  0
LINE
  5
2D8
100
AcDbEntity
  8
0
100
AcDbLine
 62
7
  6
CONTINUOUS
 10
106.468457482
 20
169.405769291
 11
108.8391836052
 21
172.6275168988
  0
LINE
  5
2D9
100
AcDbEntity
  8
0
100
AcDbLine
 62
7
  6
CONTINUOUS
 10
109.6119787503
 20
168.3746550556
 11
110.4829858374
 21
169.3079520423
  0
LINE
  5
2DA
100
AcDbEntity
  8
0
100
AcDbLine
 62
7
  6
CONTINUOUS
 10
113.5398958536
 20
162.1889402283
 11
113.7385318763
 21
162.361096821
  0
LINE
  5
2DB
100
AcDbEntity
  8
0
100
AcDbLine
 62
7
  6
CONTINUOUS
 10
115.1399268652
 20
162.7991002866
 11
115.3385628878
 21
162.9712568792
  0
LINE
  5
2DC
100
AcDbEntity
  8
0
100
AcDbLine
 62
7
  6
CONTINUOUS
 10
113.5673523087
 20
162.6947471703
 11
113.29299423
 21
162.4837413188
  0
LINE
  5
2DD
100
AcDbEntity
  8
0
100
AcDbLine
 62
7
  6
CONTINUOUS
 10
115.0916612642
 20
163.2660579697
 11
114.8173031854
 21
163.0550521182
  0
LINE
  5
2DE
100
AcDbEntity
  8
0
100
AcDbLine
 62
7
  6
CONTINUOUS
 10
115.4613403516
 20
154.5539833155
 11
119.0905275016
 21
156.5107667945
  0
LINE
  5
2DF
100
AcDbEntity
  8
0
100
AcDbLine
 62
7
  6
CONTINUOUS
 10
116.296653012
 20
155.4118202669
 11
115.3687386281
 21
154.9173700527
  0
LINE
  5
2E0
100
AcDbEntity
  8
0
100
AcDbLine
 62
7
  6
CONTINUOUS
 10
118.6989099453
 20
156.6689611155
 11
116.6111022299
 21
155.5564491511
  0
LINE
  5
2E1
100
AcDbEntity
  8
0
100
AcDbLine
 62
7
  6
CONTINUOUS
 10
115.8746343065
 20
151.7069592499
 11
117.7382014152
 21
152.5286172746
  0
LINE
  5
2E2
100
AcDbEntity
  8
0
100
AcDbLine
 62
7
  6
CONTINUOUS
 10
117.5189121282
 20
152.8771995281
 11
115.8155598264
 21
152.1404516043
  0
LINE
  5
2E3
100
AcDbEntity
  8
0
100
AcDbLine
 62
7
  6
CONTINUOUS
 10
119.0958722089
 20
152.650556674
 11
118.8513306413
 21
152.5541534397
  0
LINE
  5
2E4
100
AcDbEntity
  8
0
100
AcDbLine
 62
7
  6
CONTINUOUS
 10
118.9019660203
 20
152.1825877546
 11
119.146507588
 21
152.2789909888
  0
LINE
  5
2E5
100
AcDbEntity
  8
B-ACHSEN
100
AcDbLine
 62
7
  6
CONTINUOUS
 10
94.6416409291
 20
130.3164024051
 11
85.7584763542
 21
130.3164024051
  0
LINE
  5
2E6
100
AcDbEntity
  8
0
100
AcDbLine
 62
7
  6
CONTINUOUS
 10
99.9917783365
 20
121.6887427863
 11
100.1584453211
 21
121.5823598202
  0
LINE
  5
2E7
100
AcDbEntity
  8
0
100
AcDbLine
 62
7
  6
CONTINUOUS
 10
98.1584453211
 20
119.2419343065
 11
98.4084453211
 21
119.0291683558
  0
LINE
  5
2E8
100
AcDbEntity
  8
0
100
AcDbLine
 62
7
  6
CONTINUOUS
 10
98.7417783365
 20
120.944062024
 11
98.4917783365
 21
121.156827956
  0
LINE
  5
2E9
100
AcDbEntity
  8
0
100
AcDbLine
 62
7
  6
CONTINUOUS
 10
99.9084453211
 20
120.0929981466
 11
100.1584453211
 21
119.8802322145
  0
LINE
  5
2EA
100
AcDbEntity
  8
0
100
AcDbLine
 62
7
  6
CONTINUOUS
 10
100.4917783365
 20
121.7951257523
 11
100.2417783365
 21
122.0078916844
  0
LINE
  5
2EB
100
AcDbEntity
  8
0
100
AcDbLine
 62
7
  6
CONTINUOUS
 10
62.7083088115
 20
154.1465750005
 11
62.4007502348
 21
154.4147582159
  0
LINE
  5
2EC
100
AcDbEntity
  8
0
100
AcDbLine
 62
7
  6
CONTINUOUS
 10
98.1584453211
 20
120.944062024
 11
98.4917783365
 21
120.6249129768
  0
LINE
  5
2ED
100
AcDbEntity
  8
0
100
AcDbLine
 62
7
  6
CONTINUOUS
 10
100.4917783365
 20
120.0929981466
 11
100.1584453211
 21
120.4121470447
  0
LINE
  5
2EE
100
AcDbEntity
  8
0
100
AcDbLine
 62
7
  6
CONTINUOUS
 10
93.3251118288
 20
119.4547002759
 11
93.0751118288
 21
119.7738492485
  0
LINE
  5
2EF
100
AcDbEntity
  8
0
100
AcDbLine
 62
7
  6
CONTINUOUS
 10
91.0751115904
 20
123.1781046089
 11
91.2417783365
 21
122.9653386768
  0
LINE
  5
2F0
100
AcDbEntity
  8
0
100
AcDbLine
 62
7
  6
CONTINUOUS
 10
65.9007580878
 20
160.6846207594
 11
66.077952127
 21
160.4473651787
  0
LINE
  5
2F1
100
AcDbEntity
  8
0
100
AcDbLine
 62
7
  6
CONTINUOUS
 10
91.7417783365
 20
122.9653386768
 11
91.4917783365
 21
123.3908705409
  0
LINE
  5
2F2
100
AcDbEntity
  8
0
100
AcDbLine
 62
7
  6
CONTINUOUS
 10
72.8206389319
 20
169.2455621094
 11
72.6926184911
 21
169.5948480465
  0
LINE
  5
2F3
100
AcDbEntity
  8
0
100
AcDbLine
 62
7
  6
CONTINUOUS
 10
72.4088881087
 20
173.2524771264
 11
73.7994262664
 21
169.3146598369
  0
LINE
  5
2F4
100
AcDbEntity
  8
0
100
AcDbLine
 62
7
  6
CONTINUOUS
 10
87.1001126871
 20
122.9121472534
 11
87.0001124963
 21
123.4227854904
  0
LINE
  5
2F5
100
AcDbEntity
  8
0
100
AcDbLine
 62
7
  6
CONTINUOUS
 10
86.5001126871
 20
122.9121472534
 11
86.5001126871
 21
122.6568277772
  0
LINE
  5
2F6
100
AcDbEntity
  8
0
100
AcDbLine
 62
7
  6
CONTINUOUS
 10
87.1001126871
 20
118.3164024051
 11
87.1001126871
 21
118.9547002908
  0
LINE
  5
2F7
100
AcDbEntity
  8
0
100
AcDbLine
 62
7
  6
CONTINUOUS
 10
87.1001126871
 20
122.6568277772
 11
87.1001126871
 21
122.9121472534
  0
LINE
  5
2F8
100
AcDbEntity
  8
0
100
AcDbLine
 62
7
  6
CONTINUOUS
 10
88.7417783365
 20
123.8164024051
 11
88.7417783365
 21
118.8164024051
  0
LINE
  5
2F9
100
AcDbEntity
  8
0
100
AcDbLine
 62
7
  6
CONTINUOUS
 10
89.2417783365
 20
118.8164024051
 11
89.2417783365
 21
121.05044499
  0
LINE
  5
2FA
100
AcDbEntity
  8
0
100
AcDbLine
 62
7
  6
CONTINUOUS
 10
89.2417783365
 20
121.6887427863
 11
89.2417783365
 21
123.2844875749
  0
LINE
  5
2FB
100
AcDbEntity
  8
0
100
AcDbLine
 62
7
  6
CONTINUOUS
 10
87.0001124963
 20
122.1461895402
 11
87.1001126871
 21
122.6568277772
  0
LINE
  5
2FC
100
AcDbEntity
  8
B-ACHSEN
100
AcDbLine
 62
7
  6
CONTINUOUS
 10
81.6670380657
 20
110.2459690894
 11
80.2001119241
 21
105.3164024051
  0
LINE
  5
2FD
100
AcDbEntity
  8
0
100
AcDbLine
 62
7
  6
CONTINUOUS
 10
84.1001126871
 20
122.9121472534
 11
84.3001124963
 21
123.2951259311
  0
LINE
  5
2FE
100
AcDbEntity
  8
0
100
AcDbLine
 62
7
  6
CONTINUOUS
 10
107.8718522323
 20
169.5329967437
 11
108.0584280139
 21
169.8245190547
  0
LINE
  5
2FF
100
AcDbEntity
  8
0
100
AcDbLine
 62
7
  6
CONTINUOUS
 10
110.395405622
 20
169.8553326917
 11
110.2088298404
 21
169.5638103807
  0
LINE
  5
300
100
AcDbEntity
  8
0
100
AcDbLine
 62
7
  6
CONTINUOUS
 10
79.9001126871
 20
124.3164024051
 11
79.3001126871
 21
123.4227854904
  0
LINE
  5
301
100
AcDbEntity
  8
0
100
AcDbLine
 62
7
  6
CONTINUOUS
 10
79.3001126871
 20
122.4015086587
 11
79.9001126871
 21
123.2951259311
  0
LINE
  5
302
100
AcDbEntity
  8
0
100
AcDbLine
 62
7
  6
CONTINUOUS
 10
110.4829858374
 20
169.3079520423
 11
110.7276291768
 21
169.6616940769
  0
LINE
  5
303
100
AcDbEntity
  8
0
100
AcDbLine
 62
7
  6
CONTINUOUS
 10
116.278977684
 20
161.6975945515
 11
116.4776137067
 21
161.8697511441
  0
LINE
  5
304
100
AcDbEntity
  8
0
100
AcDbLine
 62
7
  6
CONTINUOUS
 10
64.5728478995
 20
157.1928404802
 11
64.7801466638
 21
156.9813811894
  0
LINE
  5
305
100
AcDbEntity
  8
0
100
AcDbLine
 62
7
  6
CONTINUOUS
 10
66.4093173401
 20
160.7961767247
 11
66.1536734633
 21
161.0664281814
  0
LINE
  5
306
100
AcDbEntity
  8
0
100
AcDbLine
 62
7
  6
CONTINUOUS
 10
69.1978704567
 20
169.6565374402
 11
69.3799248244
 21
169.3592651607
  0
LINE
  5
307
100
AcDbEntity
  8
0
100
AcDbLine
 62
7
  6
CONTINUOUS
 10
95.0751118288
 20
121.3695938881
 11
94.8251118288
 21
121.7951257523
  0
LINE
  5
308
100
AcDbEntity
  8
0
100
AcDbLine
 62
7
  6
CONTINUOUS
 10
94.5751118288
 20
121.4759768542
 11
94.7417783365
 21
121.156827956
  0
LINE
  5
309
100
AcDbEntity
  8
0
100
AcDbLine
 62
7
  6
CONTINUOUS
 10
69.7631484102
 20
169.6100296291
 11
69.6401159611
 21
169.8459874141
  0
LINE
  5
30A
100
AcDbEntity
  8
0
100
AcDbLine
 62
7
  6
CONTINUOUS
 10
92.5751115904
 20
119.8802322145
 11
92.7417783365
 21
119.4547002759
  0
LINE
  5
30B
100
AcDbEntity
  8
0
100
AcDbLine
 62
7
  6
CONTINUOUS
 10
93.0751118288
 20
119.7738492485
 11
92.9917783365
 21
119.9866151806
  0
LINE
  5
30C
100
AcDbEntity
  8
0
100
AcDbLine
 62
7
  6
CONTINUOUS
 10
73.6623618764
 20
170.9008722993
 11
72.8519448415
 21
173.1545508272
  0
LINE
  5
30D
100
AcDbEntity
  8
0
100
AcDbLine
 62
7
  6
CONTINUOUS
 10
74.1627966597
 20
169.5801065496
 11
73.8026117963
 21
170.5817417563
  0
LINE
  5
30E
100
AcDbEntity
  8
0
100
AcDbLine
 62
7
  6
CONTINUOUS
 10
91.2417783365
 20
122.9653386768
 11
91.3251115904
 21
122.6461897787
  0
LINE
  5
30F
100
AcDbEntity
  8
0
100
AcDbLine
 62
7
  6
CONTINUOUS
 10
91.8251115904
 20
122.6461897787
 11
91.7417783365
 21
122.9653386768
  0
LINE
  5
310
100
AcDbEntity
  8
0
100
AcDbLine
 62
7
  6
CONTINUOUS
 10
92.9917783365
 20
119.9866151806
 11
92.9084448442
 21
120.3057640787
  0
LINE
  5
311
100
AcDbEntity
  8
0
100
AcDbLine
 62
7
  6
CONTINUOUS
 10
92.4917783365
 20
120.5185300108
 11
92.5751115904
 21
119.8802322145
  0
LINE
  5
312
100
AcDbEntity
  8
0
100
AcDbLine
 62
7
  6
CONTINUOUS
 10
91.3251115904
 20
122.6461897787
 11
91.3251115904
 21
122.3270405825
  0
LINE
  5
313
100
AcDbEntity
  8
0
100
AcDbLine
 62
7
  6
CONTINUOUS
 10
91.8251115904
 20
122.2206576165
 11
91.8251115904
 21
122.6461897787
  0
LINE
  5
314
100
AcDbEntity
  8
0
100
AcDbLine
 62
7
  6
CONTINUOUS
 10
92.9084448442
 20
120.3057640787
 11
92.9084448442
 21
120.5185300108
  0
LINE
  5
315
100
AcDbEntity
  8
0
100
AcDbLine
 62
7
  6
CONTINUOUS
 10
92.9917783365
 20
120.944062024
 11
92.9917783365
 21
121.05044499
  0
LINE
  5
316
100
AcDbEntity
  8
0
100
AcDbLine
 62
7
  6
CONTINUOUS
 10
94.7417783365
 20
121.156827956
 11
94.7417783365
 21
120.944062024
  0
LINE
  5
317
100
AcDbEntity
  8
0
100
AcDbLine
 62
7
  6
CONTINUOUS
 10
92.5751115904
 20
121.156827956
 11
92.4917783365
 21
120.5185300108
  0
LINE
  5
318
100
AcDbEntity
  8
0
100
AcDbLine
 62
7
  6
CONTINUOUS
 10
91.3251115904
 20
122.3270405825
 11
91.2417783365
 21
122.0078916844
  0
LINE
  5
319
100
AcDbEntity
  8
0
100
AcDbLine
 62
7
  6
CONTINUOUS
 10
86.5001126871
 20
122.6568277772
 11
86.3001128778
 21
122.1461895402
  0
LINE
  5
31A
100
AcDbEntity
  8
0
100
AcDbLine
 62
7
  6
CONTINUOUS
 10
107.5396291017
 20
169.7266352888
 11
107.3987457713
 21
169.3924700405
  0
LINE
  5
31B
100
AcDbEntity
  8
0
100
AcDbLine
 62
7
  6
CONTINUOUS
 10
86.8001126871
 20
121.7632108625
 11
87.0001124963
 21
122.1461895402
  0
LINE
  5
31C
100
AcDbEntity
  8
0
100
AcDbLine
 62
7
  6
CONTINUOUS
 10
114.7733310404
 20
161.2763493155
 11
114.6032244043
 21
161.0485851254
  0
LINE
  5
31D
100
AcDbEntity
  8
0
100
AcDbLine
 62
7
  6
CONTINUOUS
 10
84.1001126871
 20
123.9334237274
 11
83.7001127824
 21
123.4227854904
  0
LINE
  5
31E
100
AcDbEntity
  8
0
100
AcDbLine
 62
7
  6
CONTINUOUS
 10
113.29299423
 20
162.4837413188
 11
112.9999736538
 21
162.1226698087
  0
LINE
  5
31F
100
AcDbEntity
  8
0
100
AcDbLine
 62
7
  6
CONTINUOUS
 10
114.850126028
 20
160.753784035
 11
115.0959547202
 21
161.020397484
  0
LINE
  5
320
100
AcDbEntity
  8
0
100
AcDbLine
 62
7
  6
CONTINUOUS
 10
116.2307120831
 20
162.1645522345
 11
116.1077981165
 21
162.0312449009
  0
LINE
  5
321
100
AcDbEntity
  8
0
100
AcDbLine
 62
7
  6
CONTINUOUS
 10
119.146507588
 20
152.2789909888
 11
119.4584977142
 21
152.5107406949
  0
LINE
  5
322
100
AcDbEntity
  8
0
100
AcDbLine
 62
7
  6
CONTINUOUS
 10
65.0619479103
 20
157.3713304894
 11
64.7724947821
 21
157.6050106113
  0
LINE
  5
323
100
AcDbEntity
  8
0
100
AcDbLine
 62
7
  6
CONTINUOUS
 10
68.4600444798
 20
167.9494605405
 11
68.6128595139
 21
167.7316062235
  0
LINE
  5
324
100
AcDbEntity
  8
0
100
AcDbLine
 62
7
  6
CONTINUOUS
 10
68.960022795
 20
168.0303046516
 11
68.8072077609
 21
168.2481589687
  0
LINE
  5
325
100
AcDbEntity
  8
0
100
AcDbLine
 62
7
  6
CONTINUOUS
 10
97.9917783365
 20
119.6674662079
 11
98.1584453211
 21
119.2419343065
  0
LINE
  5
326
100
AcDbEntity
  8
0
100
AcDbLine
 62
7
  6
CONTINUOUS
 10
98.4917783365
 20
119.4547002759
 11
98.4084453211
 21
119.6674662079
  0
LINE
  5
327
100
AcDbEntity
  8
0
100
AcDbLine
 62
7
  6
CONTINUOUS
 10
97.9917783365
 20
121.3695938881
 11
98.1584453211
 21
120.944062024
  0
LINE
  5
328
100
AcDbEntity
  8
0
100
AcDbLine
 62
7
  6
CONTINUOUS
 10
98.4917783365
 20
121.156827956
 11
98.4084453211
 21
121.3695938881
  0
LINE
  5
329
100
AcDbEntity
  8
0
100
AcDbLine
 62
7
  6
CONTINUOUS
 10
100.1584453211
 20
119.8802322145
 11
100.2417783365
 21
119.6674662079
  0
LINE
  5
32A
100
AcDbEntity
  8
0
100
AcDbLine
 62
7
  6
CONTINUOUS
 10
100.6584453211
 20
119.6674662079
 11
100.4917783365
 21
120.0929981466
  0
LINE
  5
32B
100
AcDbEntity
  8
0
100
AcDbLine
 62
7
  6
CONTINUOUS
 10
100.1584453211
 20
121.5823598202
 11
100.2417783365
 21
121.3695938881
  0
LINE
  5
32C
100
AcDbEntity
  8
0
100
AcDbLine
 62
7
  6
CONTINUOUS
 10
100.6584453211
 20
121.3695938881
 11
100.4917783365
 21
121.7951257523
  0
LINE
  5
32D
100
AcDbEntity
  8
B-ACHSEN
100
AcDbLine
 62
7
  6
CONTINUOUS
 10
98.7331857825
 20
110.2459690894
 11
100.2001119241
 21
105.3164024051
  0
LINE
  5
32E
100
AcDbEntity
  8
0
100
AcDbLine
 62
7
  6
CONTINUOUS
 10
95.1584448442
 20
120.944062024
 11
95.0751118288
 21
121.3695938881
  0
LINE
  5
32F
100
AcDbEntity
  8
0
100
AcDbLine
 62
7
  6
CONTINUOUS
 10
95.1584448442
 20
120.5185300108
 11
95.1584448442
 21
120.944062024
  0
LINE
  5
330
100
AcDbEntity
  8
0
100
AcDbLine
 62
7
  6
CONTINUOUS
 10
95.8251118288
 20
122.2206576165
 11
95.8251118288
 21
118.8164024051
  0
LINE
  5
331
100
AcDbEntity
  8
0
100
AcDbLine
 62
7
  6
CONTINUOUS
 10
96.2417783365
 20
118.8164024051
 11
96.2417783365
 21
120.944062024
  0
LINE
  5
332
100
AcDbEntity
  8
0
100
AcDbLine
 62
7
  6
CONTINUOUS
 10
96.2417783365
 20
121.5823598202
 11
96.2417783365
 21
122.2206576165
  0
LINE
  5
333
100
AcDbEntity
  8
0
100
AcDbLine
 62
7
  6
CONTINUOUS
 10
97.3251113519
 20
121.6887427863
 11
97.3251113519
 21
122.2206576165
  0
LINE
  5
334
100
AcDbEntity
  8
0
100
AcDbLine
 62
7
  6
CONTINUOUS
 10
97.9917783365
 20
121.5823598202
 11
97.9917783365
 21
121.3695938881
  0
LINE
  5
335
100
AcDbEntity
  8
0
100
AcDbLine
 62
7
  6
CONTINUOUS
 10
95.0751118288
 20
119.4547002759
 11
95.1584448442
 21
119.8802322145
  0
LINE
  5
336
100
AcDbEntity
  8
0
100
AcDbLine
 62
7
  6
CONTINUOUS
 10
106.5195055064
 20
170.1078596059
 11
107.2786495837
 21
173.7758373824
  0
LINE
  5
337
100
AcDbEntity
  8
0
100
AcDbLine
 62
7
  6
CONTINUOUS
 10
106.8249843126
 20
173.4756782898
 11
106.0153992246
 21
169.739152652
  0
LINE
  5
338
100
AcDbEntity
  8
0
100
AcDbLine
 62
7
  6
CONTINUOUS
 10
91.7417783365
 20
121.9015087183
 11
91.8251115904
 21
122.2206576165
  0
LINE
  5
339
100
AcDbEntity
  8
0
100
AcDbLine
 62
7
  6
CONTINUOUS
 10
94.7417783365
 20
119.8802322145
 11
94.6584448442
 21
119.5610832419
  0
LINE
  5
33A
100
AcDbEntity
  8
0
100
AcDbLine
 62
7
  6
CONTINUOUS
 10
107.7890360763
 20
169.2610513323
 11
107.8718522323
 21
169.5329967437
  0
LINE
  5
33B
100
AcDbEntity
  8
0
100
AcDbLine
 62
7
  6
CONTINUOUS
 10
112.0803035965
 20
169.6027149687
 11
111.2747071171
 21
167.5262955561
  0
LINE
  5
33C
100
AcDbEntity
  8
0
100
AcDbLine
 62
7
  6
CONTINUOUS
 10
111.0714551036
 20
167.1080584984
 11
110.4042050839
 21
165.3948274034
  0
LINE
  5
33D
100
AcDbEntity
  8
0
100
AcDbLine
 62
7
  6
CONTINUOUS
 10
111.6556092509
 20
167.6034922504
 11
112.3228597332
 21
169.3167228
  0
LINE
  5
33E
100
AcDbEntity
  8
0
100
AcDbLine
 62
7
  6
CONTINUOUS
 10
92.7417783365
 20
121.5823598202
 11
92.5751115904
 21
121.156827956
  0
LINE
  5
33F
100
AcDbEntity
  8
0
100
AcDbLine
 62
7
  6
CONTINUOUS
 10
92.9917783365
 20
121.05044499
 11
93.0751118288
 21
121.2632109221
  0
LINE
  5
340
100
AcDbEntity
  8
0
100
AcDbLine
 62
7
  6
CONTINUOUS
 10
110.6467612206
 20
165.1088352347
 11
111.5172632537
 21
167.2403033874
  0
LINE
  5
341
100
AcDbEntity
  8
0
100
AcDbLine
 62
7
  6
CONTINUOUS
 10
110.7276291768
 20
169.6616940769
 11
110.868512205
 21
169.9958595256
  0
LINE
  5
342
100
AcDbEntity
  8
0
100
AcDbLine
 62
7
  6
CONTINUOUS
 10
113.3983194161
 20
161.9055672497
 11
113.5398958536
 21
162.1889402283
  0
LINE
  5
343
100
AcDbEntity
  8
0
100
AcDbLine
 62
7
  6
CONTINUOUS
 10
91.4917783365
 20
121.4759768542
 11
91.7417783365
 21
121.9015087183
  0
LINE
  5
344
100
AcDbEntity
  8
0
100
AcDbLine
 62
7
  6
CONTINUOUS
 10
116.4776137067
 20
161.8697511441
 11
116.6949121473
 21
162.1919733545
  0
LINE
  5
345
100
AcDbEntity
  8
0
100
AcDbLine
 62
7
  6
CONTINUOUS
 10
86.3001128778
 20
122.1461895402
 11
83.5001126871
 21
118.9547002908
  0
LINE
  5
346
100
AcDbEntity
  8
0
100
AcDbLine
 62
7
  6
CONTINUOUS
 10
84.3001124963
 20
118.9547002908
 11
86.8001126871
 21
121.7632108625
  0
LINE
  5
347
100
AcDbEntity
  8
0
100
AcDbLine
 62
7
  6
CONTINUOUS
 10
119.2476477215
 20
152.7973948616
 11
119.0958722089
 21
152.650556674
  0
LINE
  5
348
100
AcDbEntity
  8
0
100
AcDbLine
 62
7
  6
CONTINUOUS
 10
84.3001124963
 20
123.2951259311
 11
84.6001124963
 21
123.5504450496
  0
LINE
  5
349
100
AcDbEntity
  8
0
100
AcDbLine
 62
7
  6
CONTINUOUS
 10
84.5001128778
 20
124.1887428459
 11
84.1001126871
 21
123.9334237274
  0
LINE
  5
34A
100
AcDbEntity
  8
0
100
AcDbLine
 62
7
  6
CONTINUOUS
 10
62.013574362
 20
154.0882472478
 11
62.256683505
 21
153.9800308622
  0
LINE
  5
34B
100
AcDbEntity
  8
0
100
AcDbLine
 62
7
  6
CONTINUOUS
 10
62.4007502348
 20
154.4147582159
 11
62.1576410917
 21
154.5229746015
  0
LINE
  5
34C
100
AcDbEntity
  8
0
100
AcDbLine
 62
7
  6
CONTINUOUS
 10
64.7724947821
 20
157.6050106113
 11
64.3813053837
 21
157.7885133182
  0
LINE
  5
34D
100
AcDbEntity
  8
0
100
AcDbLine
 62
7
  6
CONTINUOUS
 10
64.2638128074
 20
157.3541223716
 11
64.5728478995
 21
157.1928404802
  0
LINE
  5
34E
100
AcDbEntity
  8
0
100
AcDbLine
 62
7
  6
CONTINUOUS
 10
66.1536734633
 20
161.0664281814
 11
65.7905020383
 21
161.3005410613
  0
LINE
  5
34F
100
AcDbEntity
  8
0
100
AcDbLine
 62
7
  6
CONTINUOUS
 10
65.6160364453
 20
160.8857377864
 11
65.9007580878
 21
160.6846207594
  0
LINE
  5
350
100
AcDbEntity
  8
0
100
AcDbLine
 62
7
  6
CONTINUOUS
 10
69.3799248244
 20
169.3592651607
 11
69.6160133258
 21
169.114006324
  0
LINE
  5
351
100
AcDbEntity
  8
0
100
AcDbLine
 62
7
  6
CONTINUOUS
 10
69.8811925782
 20
169.4874002966
 11
69.7631484102
 21
169.6100296291
  0
LINE
  5
352
100
AcDbEntity
  8
B-ACHSEN
100
AcDbLine
 62
7
  6
CONTINUOUS
 10
100.2001119241
 20
105.3164024051
 11
100.2001119241
 21
84.3164024051
  0
LINE
  5
353
100
AcDbEntity
  8
0
100
AcDbLine
 62
7
  6
CONTINUOUS
 10
100.6584453211
 20
119.4547002759
 11
100.6584453211
 21
119.6674662079
  0
LINE
  5
354
100
AcDbEntity
  8
RUNDUNGEN
100
AcDbLine
 62
7
  6
CONTINUOUS
 10
102.2001119241
 20
175.8164024051
 11
102.2001119241
 21
180.3164024051
  0
LINE
  5
355
100
AcDbEntity
  8
0
100
AcDbLine
 62
7
  6
CONTINUOUS
 10
107.3987457713
 20
169.3924700405
 11
107.3492479679
 21
168.9730185386
  0
LINE
  5
356
100
AcDbEntity
  8
0
100
AcDbLine
 62
7
  6
CONTINUOUS
 10
110.4782219406
 20
170.1272782774
 11
110.395405622
 21
169.8553326917
  0
LINE
  5
357
100
AcDbEntity
  8
0
100
AcDbLine
 62
7
  6
CONTINUOUS
 10
98.4084453211
 20
121.3695938881
 11
98.4917783365
 21
121.5823598202
  0
LINE
  5
358
100
AcDbEntity
  8
0
100
AcDbLine
 62
7
  6
CONTINUOUS
 10
114.8173031854
 20
163.0550521182
 11
114.6285348905
 21
162.6772210919
  0
LINE
  5
359
100
AcDbEntity
  8
0
100
AcDbLine
 62
7
  6
CONTINUOUS
 10
115.0959547202
 20
161.020397484
 11
115.2847230151
 21
161.3982285102
  0
LINE
  5
35A
100
AcDbEntity
  8
0
100
AcDbLine
 62
7
  6
CONTINUOUS
 10
116.325096557
 20
162.3534671113
 11
116.2307120831
 21
162.1645522345
  0
LINE
  5
35B
100
AcDbEntity
  8
0
100
AcDbLine
 62
7
  6
CONTINUOUS
 10
98.1584453211
 20
121.9015087183
 11
97.9917783365
 21
121.5823598202
  0
LINE
  5
35C
100
AcDbEntity
  8
0
100
AcDbLine
 62
7
  6
CONTINUOUS
 10
96.2417783365
 20
120.944062024
 11
96.4917783365
 21
121.3695938881
  0
LINE
  5
35D
100
AcDbEntity
  8
0
100
AcDbLine
 62
7
  6
CONTINUOUS
 10
119.4584977142
 20
152.5107406949
 11
119.6777215924
 21
152.7929267717
  0
LINE
  5
35E
100
AcDbEntity
  8
0
100
AcDbLine
 62
7
  6
CONTINUOUS
 10
91.2417783365
 20
122.0078916844
 11
91.0751115904
 21
121.7951257523
  0
LINE
  5
35F
100
AcDbEntity
  8
0
100
AcDbLine
 62
7
  6
CONTINUOUS
 10
92.9084448442
 20
121.7951257523
 11
92.7417783365
 21
121.5823598202
  0
LINE
  5
360
100
AcDbEntity
  8
0
100
AcDbLine
 62
7
  6
CONTINUOUS
 10
93.0751118288
 20
121.2632109221
 11
93.3251118288
 21
121.5823598202
  0
LINE
  5
361
100
AcDbEntity
  8
0
100
AcDbLine
 62
7
  6
CONTINUOUS
 10
91.1584450826
 20
121.156827956
 11
91.4917783365
 21
121.4759768542
  0
LINE
  5
362
100
AcDbEntity
  8
0
100
AcDbLine
 62
7
  6
CONTINUOUS
 10
93.1584448442
 20
122.0078916844
 11
92.9084448442
 21
121.7951257523
  0
LINE
  5
363
100
AcDbEntity
  8
0
100
AcDbLine
 62
7
  6
CONTINUOUS
 10
91.0751115904
 20
121.7951257523
 11
90.8251115904
 21
121.6887427863
  0
LINE
  5
364
100
AcDbEntity
  8
0
100
AcDbLine
 62
7
  6
CONTINUOUS
 10
118.5646579683
 20
152.1366208589
 11
118.9019660203
 21
152.1825877546
  0
LINE
  5
365
100
AcDbEntity
  8
0
100
AcDbLine
 62
7
  6
CONTINUOUS
 10
118.8513306413
 20
152.5541534397
 11
118.5983495432
 21
152.51967826
  0
LINE
  5
366
100
AcDbEntity
  8
0
100
AcDbLine
 62
7
  6
CONTINUOUS
 10
60.5241044425
 20
151.9419128947
 11
64.4887318605
 21
151.4111309841
  0
LINE
  5
367
100
AcDbEntity
  8
0
100
AcDbLine
 62
7
  6
CONTINUOUS
 10
64.5484448254
 20
151.8571515687
 11
62.7770155284
 21
152.094309447
  0
LINE
  5
368
100
AcDbEntity
  8
0
100
AcDbLine
 62
7
  6
CONTINUOUS
 10
62.2708929397
 20
152.1620688317
 11
61.0055862314
 21
152.3314673253
  0
LINE
  5
369
100
AcDbEntity
  8
0
100
AcDbLine
 62
7
  6
CONTINUOUS
 10
61.1295660279
 20
155.8710128067
 11
63.6763498702
 21
155.1821674312
  0
LINE
  5
36A
100
AcDbEntity
  8
0
100
AcDbLine
 62
7
  6
CONTINUOUS
 10
63.7938425025
 20
155.616558585
 11
61.2470586602
 21
156.3054039605
  0
LINE
  5
36B
100
AcDbEntity
  8
0
100
AcDbLine
 62
7
  6
CONTINUOUS
 10
62.1954546062
 20
159.5580577371
 11
65.8825948276
 21
158.0072524665
  0
LINE
  5
36C
100
AcDbEntity
  8
0
100
AcDbLine
 62
7
  6
CONTINUOUS
 10
65.58636167
 20
158.6200308818
 11
62.8406188947
 21
159.7748858947
  0
LINE
  5
36D
100
AcDbEntity
  8
0
100
AcDbLine
 62
7
  6
CONTINUOUS
 10
66.0786919999
 20
166.8750140989
 11
69.2055668185
 21
164.3804893208
  0
LINE
  5
36E
100
AcDbEntity
  8
0
100
AcDbLine
 62
7
  6
CONTINUOUS
 10
69.486200856
 20
164.7322627379
 11
68.0890865555
 21
165.8468376546
  0
LINE
  5
36F
100
AcDbEntity
  8
0
100
AcDbLine
 62
7
  6
CONTINUOUS
 10
67.6899110944
 20
166.1652875883
 11
66.691972255
 21
166.9614125712
  0
LINE
  5
370
100
AcDbEntity
  8
0
100
AcDbLine
 62
7
  6
CONTINUOUS
 10
68.2604565628
 20
168.1086856561
 11
68.4600444798
 21
167.9494605405
  0
LINE
  5
371
100
AcDbEntity
  8
0
100
AcDbLine
 62
7
  6
CONTINUOUS
 10
68.8072077609
 20
168.2481589687
 11
68.5410906004
 21
168.4604590731
  0
LINE
  5
372
100
AcDbEntity
  8
0
100
AcDbLine
 62
7
  6
CONTINUOUS
 10
72.1323288187
 20
169.5280274051
 11
72.3093950707
 21
169.3440834063
  0
LINE
  5
373
100
AcDbEntity
  8
0
100
AcDbLine
 62
7
  6
CONTINUOUS
 10
72.6926184911
 20
169.5948480465
 11
72.3975080711
 21
169.9014213777
  0
LINE
  5
374
100
AcDbEntity
  8
0
100
AcDbLine
 62
7
  6
CONTINUOUS
 10
110.868512205
 20
169.9958595256
 11
110.9180099881
 21
170.4153110058
  0
LINE
  5
375
100
AcDbEntity
  8
0
100
AcDbLine
 62
7
  6
CONTINUOUS
 10
112.9999736538
 20
162.1226698087
 11
112.9154568876
 21
161.7280804881
  0
LINE
  5
376
100
AcDbEntity
  8
0
100
AcDbLine
 62
7
  6
CONTINUOUS
 10
115.0740725368
 20
162.5545765941
 11
115.1399268652
 21
162.7991002866
  0
LINE
  5
377
100
AcDbEntity
  8
0
100
AcDbLine
 62
7
  6
CONTINUOUS
 10
114.8391853688
 20
161.520873008
 11
114.7733310404
 21
161.2763493155
  0
LINE
  5
378
100
AcDbEntity
  8
0
100
AcDbLine
 62
7
  6
CONTINUOUS
 10
116.6949121473
 20
162.1919733545
 11
116.8079590391
 21
162.530953849
  0
LINE
  5
379
100
AcDbEntity
  8
0
100
AcDbLine
 62
7
  6
CONTINUOUS
 10
100.2417783365
 20
119.6674662079
 11
100.1584453211
 21
119.4547002759
  0
LINE
  5
37A
100
AcDbEntity
  8
0
100
AcDbLine
 62
7
  6
CONTINUOUS
 10
100.4917783365
 20
119.1355513405
 11
100.6584453211
 21
119.4547002759
  0
LINE
  5
37B
100
AcDbEntity
  8
0
100
AcDbLine
 62
7
  6
CONTINUOUS
 10
96.4084448442
 20
121.7951257523
 11
96.2417783365
 21
121.5823598202
  0
LINE
  5
37C
100
AcDbEntity
  8
0
100
AcDbLine
 62
7
  6
CONTINUOUS
 10
94.8251118288
 20
119.1355513405
 11
95.0751118288
 21
119.4547002759
  0
LINE
  5
37D
100
AcDbEntity
  8
0
100
AcDbLine
 62
7
  6
CONTINUOUS
 10
96.6584448442
 20
122.0078916844
 11
96.4084448442
 21
121.7951257523
  0
LINE
  5
37E
100
AcDbEntity
  8
0
100
AcDbLine
 62
7
  6
CONTINUOUS
 10
94.6584448442
 20
119.5610832419
 11
94.4084448442
 21
119.3483173098
  0
LINE
  5
37F
100
AcDbEntity
  8
0
100
AcDbLine
 62
7
  6
CONTINUOUS
 10
93.3251118288
 20
121.5823598202
 11
93.4917783365
 21
121.6887427863
  0
LINE
  5
380
100
AcDbEntity
  8
0
100
AcDbLine
 62
7
  6
CONTINUOUS
 10
96.4917783365
 20
121.3695938881
 11
96.8251113519
 21
121.5823598202
  0
LINE
  5
381
100
AcDbEntity
  8
0
100
AcDbLine
 62
7
  6
CONTINUOUS
 10
98.4917783365
 20
122.1142746504
 11
98.1584453211
 21
121.9015087183
  0
LINE
  5
382
100
AcDbEntity
  8
0
100
AcDbLine
 62
7
  6
CONTINUOUS
 10
98.4917783365
 20
121.5823598202
 11
98.6584453211
 21
121.6887427863
  0
LINE
  5
383
100
AcDbEntity
  8
0
100
AcDbLine
 62
7
  6
CONTINUOUS
 10
94.4917783365
 20
118.9227853805
 11
94.8251118288
 21
119.1355513405
  0
LINE
  5
384
100
AcDbEntity
  8
0
100
AcDbLine
 62
7
  6
CONTINUOUS
 10
93.4084448442
 20
122.1142746504
 11
93.1584448442
 21
122.0078916844
  0
LINE
  5
385
100
AcDbEntity
  8
0
100
AcDbLine
 62
7
  6
CONTINUOUS
 10
96.9084453211
 20
122.1142746504
 11
96.6584448442
 21
122.0078916844
  0
LINE
  5
386
100
AcDbEntity
  8
0
100
AcDbLine
 62
7
  6
CONTINUOUS
 10
93.4917783365
 20
121.6887427863
 11
93.8251118288
 21
121.7951257523
  0
LINE
  5
387
100
AcDbEntity
  8
0
100
AcDbLine
 62
7
  6
CONTINUOUS
 10
98.6584453211
 20
121.6887427863
 11
98.9917783365
 21
121.7951257523
  0
LINE
  5
388
100
AcDbEntity
  8
0
100
AcDbLine
 62
7
  6
CONTINUOUS
 10
115.6045790159
 20
153.6886424316
 11
117.3754452852
 21
153.9299684969
  0
LINE
  5
389
100
AcDbEntity
  8
0
100
AcDbLine
 62
7
  6
CONTINUOUS
 10
117.881407009
 20
153.9989187921
 11
119.1463115545
 21
154.1712945622
  0
LINE
  5
38A
100
AcDbEntity
  8
0
100
AcDbLine
 62
7
  6
CONTINUOUS
 10
119.5173109452
 20
154.6003188267
 11
115.5539436369
 21
154.0602081167
  0
LINE
  5
38B
100
AcDbEntity
  8
0
100
AcDbLine
 62
7
  6
CONTINUOUS
 10
63.6763498702
 20
155.1821674312
 11
64.1067035354
 21
155.1434619826
  0
LINE
  5
38C
100
AcDbEntity
  8
0
100
AcDbLine
 62
7
  6
CONTINUOUS
 10
61.7605128313
 20
154.1221269718
 11
62.013574362
 21
154.0882472478
  0
LINE
  5
38D
100
AcDbEntity
  8
0
100
AcDbLine
 62
7
  6
CONTINUOUS
 10
62.1576410917
 20
154.5229746015
 11
61.8202257962
 21
154.5681475563
  0
LINE
  5
38E
100
AcDbEntity
  8
0
100
AcDbLine
 62
7
  6
CONTINUOUS
 10
61.7170289651
 20
158.0429677471
 11
64.2638128074
 21
157.3541223716
  0
LINE
  5
38F
100
AcDbEntity
  8
0
100
AcDbLine
 62
7
  6
CONTINUOUS
 10
64.3813053837
 20
157.7885133182
 11
61.8345215414
 21
158.4773586937
  0
LINE
  5
390
100
AcDbEntity
  8
0
100
AcDbLine
 62
7
  6
CONTINUOUS
 10
64.4392895965
 20
161.3806756259
 11
65.6160364453
 21
160.8857377864
  0
LINE
  5
391
100
AcDbEntity
  8
0
100
AcDbLine
 62
7
  6
CONTINUOUS
 10
65.7905020383
 20
161.3005410613
 11
64.6137551895
 21
161.7954789008
  0
LINE
  5
392
100
AcDbEntity
  8
0
100
AcDbLine
 62
7
  6
CONTINUOUS
 10
70.5753323363
 20
167.7929879262
 11
70.8654546406
 21
167.5997428758
  0
LINE
  5
393
100
AcDbEntity
  8
0
100
AcDbLine
 62
7
  6
CONTINUOUS
 10
69.6160133258
 20
169.114006324
 11
69.9061356301
 21
168.9207612735
  0
LINE
  5
394
100
AcDbEntity
  8
0
100
AcDbLine
 62
7
  6
CONTINUOUS
 10
107.8099797667
 20
169.0086825329
 11
107.7890360763
 21
169.2610513323
  0
LINE
  5
395
100
AcDbEntity
  8
0
100
AcDbLine
 62
7
  6
CONTINUOUS
 10
114.6285348905
 20
162.6772210919
 11
114.5912100547
 21
162.3770898563
  0
LINE
  5
396
100
AcDbEntity
  8
0
100
AcDbLine
 62
7
  6
CONTINUOUS
 10
115.2847230151
 20
161.3982285102
 11
115.3220471979
 21
161.6983610186
  0
LINE
  5
397
100
AcDbEntity
  8
0
100
AcDbLine
 62
7
  6
CONTINUOUS
 10
100.1584453211
 20
119.4547002759
 11
99.9917783365
 21
119.3483173098
  0
LINE
  5
398
100
AcDbEntity
  8
0
100
AcDbLine
 62
7
  6
CONTINUOUS
 10
100.1584453211
 20
118.9227853805
 11
100.4917783365
 21
119.1355513405
  0
LINE
  5
399
100
AcDbEntity
  8
0
100
AcDbLine
 62
7
  6
CONTINUOUS
 10
99.9917783365
 20
119.3483173098
 11
99.6584453211
 21
119.2419343065
  0
LINE
  5
39A
100
AcDbEntity
  8
0
100
AcDbLine
 62
7
  6
CONTINUOUS
 10
115.490007
 20
163.0489553971
 11
115.745703526
 21
163.1098944669
  0
LINE
  5
39B
100
AcDbEntity
  8
0
100
AcDbLine
 62
7
  6
CONTINUOUS
 10
114.111567832
 20
160.5153570363
 11
114.4715157475
 21
160.5595377403
  0
LINE
  5
39C
100
AcDbEntity
  8
0
100
AcDbLine
 62
7
  6
CONTINUOUS
 10
114.9365971338
 20
156.6131752885
 11
115.987980718
 21
156.623108929
  0
LINE
  5
39D
100
AcDbEntity
  8
0
100
AcDbLine
 62
7
  6
CONTINUOUS
 10
116.3332970593
 20
156.6466093628
 11
118.6989099453
 21
156.6689611155
  0
LINE
  5
39E
100
AcDbEntity
  8
0
100
AcDbLine
 62
7
  6
CONTINUOUS
 10
118.9670586546
 20
156.9952819821
 11
114.8439954103
 21
156.9765620258
  0
LINE
  5
39F
100
AcDbEntity
  8
0
100
AcDbLine
 62
7
  6
CONTINUOUS
 10
64.1420417493
 20
155.6000735377
 11
63.7938425025
 21
155.616558585
  0
LINE
  5
3A0
100
AcDbEntity
  8
0
100
AcDbLine
 62
7
  6
CONTINUOUS
 10
118.3032378122
 20
152.164073798
 11
118.5646579683
 21
152.1366208589
  0
LINE
  5
3A1
100
AcDbEntity
  8
0
100
AcDbLine
 62
7
  6
CONTINUOUS
 10
118.5983495432
 20
152.51967826
 11
118.3369293871
 21
152.547131199
  0
LINE
  5
3A2
100
AcDbEntity
  8
0
100
AcDbLine
 62
7
  6
CONTINUOUS
 10
64.0964129783
 20
161.443525422
 11
64.4392895965
 21
161.3806756259
  0
LINE
  5
3A3
100
AcDbEntity
  8
0
100
AcDbLine
 62
7
  6
CONTINUOUS
 10
64.6137551895
 20
161.7954789008
 11
64.1924285688
 21
161.8913246423
  0
LINE
  5
3A4
100
AcDbEntity
  8
0
100
AcDbLine
 62
7
  6
CONTINUOUS
 10
68.0140961358
 20
168.2092812728
 11
68.2604565628
 21
168.1086856561
  0
LINE
  5
3A5
100
AcDbEntity
  8
0
100
AcDbLine
 62
7
  6
CONTINUOUS
 10
68.5410906004
 20
168.4604590731
 11
68.2947301733
 21
168.5610546899
  0
LINE
  5
3A6
100
AcDbEntity
  8
0
100
AcDbLine
 62
7
  6
CONTINUOUS
 10
71.130633893
 20
167.9731368484
 11
70.8995336727
 21
168.1050672326
  0
LINE
  5
3A7
100
AcDbEntity
  8
0
100
AcDbLine
 62
7
  6
CONTINUOUS
 10
70.1122927985
 20
169.3554699124
 11
69.8811925782
 21
169.4874002966
  0
LINE
  5
3A8
100
AcDbEntity
  8
0
100
AcDbLine
 62
7
  6
CONTINUOUS
 10
71.0549654749
 20
170.9716753071
 11
70.8238652545
 21
171.1036056913
  0
LINE
  5
3A9
100
AcDbEntity
  8
0
100
AcDbLine
 62
7
  6
CONTINUOUS
 10
76.221896017
 20
171.0843049258
 11
72.8933815044
 21
173.6064057391
  0
LINE
  5
3AA
100
AcDbEntity
  8
0
100
AcDbLine
 62
7
  6
CONTINUOUS
 10
75.0138459785
 20
171.4665637945
 11
75.8585256237
 21
170.8188582131
  0
LINE
  5
3AB
100
AcDbEntity
  8
0
100
AcDbLine
 62
7
  6
CONTINUOUS
 10
72.8519448415
 20
173.1545508272
 11
74.7524730563
 21
171.6972124374
  0
LINE
  5
3AC
100
AcDbEntity
  8
0
100
AcDbLine
 62
7
  6
CONTINUOUS
 10
110.4572782096
 20
170.3796470332
 11
110.4782219406
 21
170.1272782774
  0
LINE
  5
3AD
100
AcDbEntity
  8
0
100
AcDbLine
 62
7
  6
CONTINUOUS
 10
115.0839402645
 20
162.3489021605
 11
115.0740725368
 21
162.5545765941
  0
LINE
  5
3AE
100
AcDbEntity
  8
B-ACHSEN
100
AcDbLine
 62
7
  6
CONTINUOUS
 10
111.0824648653
 20
120.3164024051
 11
110.2001119241
 21
112.8164024051
  0
LINE
  5
3AF
100
AcDbEntity
  8
0
100
AcDbLine
 62
7
  6
CONTINUOUS
 10
119.3066569859
 20
152.9946694201
 11
119.2476477215
 21
152.7973948616
  0
LINE
  5
3B0
100
AcDbEntity
  8
0
100
AcDbLine
 62
7
  6
CONTINUOUS
 10
64.4276689351
 20
155.6782083494
 11
64.1420417493
 21
155.6000735377
  0
LINE
  5
3B1
100
AcDbEntity
  8
0
100
AcDbLine
 62
7
  6
CONTINUOUS
 10
111.2747071171
 20
167.5262955561
 11
109.0297204636
 21
167.0154495109
  0
LINE
  5
3B2
100
AcDbEntity
  8
0
100
AcDbLine
 62
7
  6
CONTINUOUS
 10
109.2722766003
 20
166.7294573422
 11
111.0714551036
 21
167.1080584984
  0
LINE
  5
3B3
100
AcDbEntity
  8
0
100
AcDbLine
 62
7
  6
CONTINUOUS
 10
111.5172632537
 20
167.2403033874
 11
113.6973443535
 21
167.6961006925
  0
LINE
  5
3B4
100
AcDbEntity
  8
0
100
AcDbLine
 62
7
  6
CONTINUOUS
 10
64.8669139813
 20
154.2359280903
 11
62.8372077073
 21
153.8266415535
  0
LINE
  5
3B5
100
AcDbEntity
  8
0
100
AcDbLine
 62
7
  6
CONTINUOUS
 10
62.9462022577
 20
153.358034401
 11
64.7972488365
 21
153.7155705999
  0
LINE
  5
3B6
100
AcDbEntity
  8
0
100
AcDbLine
 62
7
  6
CONTINUOUS
 10
61.4974993856
 20
154.081669971
 11
61.7605128313
 21
154.1221269718
  0
LINE
  5
3B7
100
AcDbEntity
  8
0
100
AcDbLine
 62
7
  6
CONTINUOUS
 10
61.8202257962
 20
154.5681475563
 11
61.5572123505
 21
154.5276905555
  0
LINE
  5
3B8
100
AcDbEntity
  8
0
100
AcDbLine
 62
7
  6
CONTINUOUS
 10
64.1067035354
 20
155.1434619826
 11
64.4744850291
 21
155.1993757561
  0
LINE
  5
3B9
100
AcDbEntity
  8
0
100
AcDbLine
 62
7
  6
CONTINUOUS
 10
114.3760582361
 20
160.9320373486
 11
114.0918324296
 21
160.9267059307
  0
LINE
  5
3BA
100
AcDbEntity
  8
0
100
AcDbLine
 62
7
  6
CONTINUOUS
 10
70.8654546406
 20
167.5997428758
 11
71.3226657908
 21
167.4492091333
  0
LINE
  5
3BB
100
AcDbEntity
  8
0
100
AcDbLine
 62
7
  6
CONTINUOUS
 10
117.9406123068
 20
152.3038897771
 11
118.3032378122
 21
152.164073798
  0
LINE
  5
3BC
100
AcDbEntity
  8
0
100
AcDbLine
 62
7
  6
CONTINUOUS
 10
72.3975080711
 20
169.9014213777
 11
72.0533517158
 21
170.0426528994
  0
LINE
  5
3BD
100
AcDbEntity
  8
0
100
AcDbLine
 62
7
  6
CONTINUOUS
 10
70.5586860021
 20
170.7302117187
 11
70.7307641384
 21
170.6595960007
  0
LINE
  5
3BE
100
AcDbEntity
  8
0
100
AcDbLine
 62
7
  6
CONTINUOUS
 10
107.3492479679
 20
168.9730185386
 11
107.415884437
 21
168.6780066287
  0
LINE
  5
3BF
100
AcDbEntity
  8
0
100
AcDbLine
 62
7
  6
CONTINUOUS
 10
116.3152288293
 20
162.5591415449
 11
116.325096557
 21
162.3534671113
  0
LINE
  5
3C0
100
AcDbEntity
  8
0
100
AcDbLine
 62
7
  6
CONTINUOUS
 10
119.6777215924
 20
152.7929267717
 11
119.7198524615
 21
153.1140560861
  0
LINE
  5
3C1
100
AcDbEntity
  8
0
100
AcDbLine
 62
7
  6
CONTINUOUS
 10
113.4547882168
 20
167.9820928612
 11
111.6556092509
 21
167.6034922504
  0
LINE
  5
3C2
100
AcDbEntity
  8
0
100
AcDbLine
 62
7
  6
CONTINUOUS
 10
108.5372572008
 20
167.8642991534
 11
108.9522965078
 21
167.9426060415
  0
LINE
  5
3C3
100
AcDbEntity
  8
0
100
AcDbLine
 62
7
  6
CONTINUOUS
 10
63.8029081021
 20
161.4042450511
 11
64.0964129783
 21
161.443525422
  0
LINE
  5
3C4
100
AcDbEntity
  8
0
100
AcDbLine
 62
7
  6
CONTINUOUS
 10
64.1924285688
 20
161.8913246423
 11
63.8204741299
 21
161.8850400318
  0
LINE
  5
3C5
100
AcDbEntity
  8
0
100
AcDbLine
 62
7
  6
CONTINUOUS
 10
71.4698008546
 20
167.9452324599
 11
71.130633893
 21
167.9731368484
  0
LINE
  5
3C6
100
AcDbEntity
  8
0
100
AcDbLine
 62
7
  6
CONTINUOUS
 10
68.2947301733
 20
168.5610546899
 11
67.8882961805
 21
168.5974679371
  0
LINE
  5
3C7
100
AcDbEntity
  8
0
100
AcDbLine
 62
7
  6
CONTINUOUS
 10
113.6945596518
 20
160.5823939775
 11
114.111567832
 21
160.5153570363
  0
LINE
  5
3C8
100
AcDbEntity
  8
0
100
AcDbLine
 62
7
  6
CONTINUOUS
 10
70.8238652545
 20
171.1036056913
 11
70.4256762503
 21
171.1928247031
  0
LINE
  5
3C9
100
AcDbEntity
  8
0
100
AcDbLine
 62
7
  6
CONTINUOUS
 10
71.8471945474
 20
169.6079442606
 11
72.1323288187
 21
169.5280274051
  0
LINE
  5
3CA
100
AcDbEntity
  8
0
100
AcDbLine
 62
7
  6
CONTINUOUS
 10
118.3369293871
 20
152.547131199
 11
118.1513970839
 21
152.6480025232
  0
LINE
  5
3CB
100
AcDbEntity
  8
0
100
AcDbLine
 62
7
  6
CONTINUOUS
 10
114.1999910533
 20
158.7395443261
 11
114.3333553453
 21
158.3890604241
  0
LINE
  5
3CC
100
AcDbEntity
  8
0
100
AcDbLine
 62
7
  6
CONTINUOUS
 10
114.8439954103
 20
156.9765620258
 11
114.9365971338
 21
156.6131752885
  0
LINE
  5
3CD
100
AcDbEntity
  8
0
100
AcDbLine
 62
7
  6
CONTINUOUS
 10
115.3687386281
 20
154.9173700527
 11
115.4613403516
 21
154.5539833155
  0
LINE
  5
3CE
100
AcDbEntity
  8
0
100
AcDbLine
 62
7
  6
CONTINUOUS
 10
115.987980718
 20
156.623108929
 11
116.296653012
 21
155.4118202669
  0
LINE
  5
3CF
100
AcDbEntity
  8
0
100
AcDbLine
 62
7
  6
CONTINUOUS
 10
116.6111022299
 20
155.5564491511
 11
116.3332970593
 21
156.6466093628
  0
LINE
  5
3D0
100
AcDbEntity
  8
0
100
AcDbLine
 62
7
  6
CONTINUOUS
 10
110.9180099881
 20
170.4153110058
 11
110.8513737652
 21
170.7103226553
  0
LINE
  5
3D1
100
AcDbEntity
  8
0
100
AcDbLine
 62
7
  6
CONTINUOUS
 10
112.9154568876
 20
161.7280804881
 11
112.9823848999
 21
161.4111884194
  0
LINE
  5
3D2
100
AcDbEntity
  8
0
100
AcDbLine
 62
7
  6
CONTINUOUS
 10
115.3220471979
 20
161.6983610186
 11
115.255119832
 21
162.0152518111
  0
LINE
  5
3D3
100
AcDbEntity
  8
0
100
AcDbLine
 62
7
  6
CONTINUOUS
 10
113.4367172894
 20
161.6442840002
 11
113.3983194161
 21
161.9055672497
  0
LINE
  5
3D4
100
AcDbEntity
  8
0
100
AcDbLine
 62
7
  6
CONTINUOUS
 10
114.5912100547
 20
162.3770898563
 11
114.629607928
 21
162.1158066069
  0
LINE
  5
3D5
100
AcDbEntity
  8
0
100
AcDbLine
 62
7
  6
CONTINUOUS
 10
114.8007874955
 20
161.7821562575
 11
114.8391853688
 21
161.520873008
  0
LINE
  5
3D6
100
AcDbEntity
  8
0
100
AcDbLine
 62
7
  6
CONTINUOUS
 10
115.5539436369
 20
154.0602081167
 11
115.6045790159
 21
153.6886424316
  0
LINE
  5
3D7
100
AcDbEntity
  8
0
100
AcDbLine
 62
7
  6
CONTINUOUS
 10
115.8155598264
 20
152.1404516043
 11
115.8746343065
 21
151.7069592499
  0
LINE
  5
3D8
100
AcDbEntity
  8
0
100
AcDbLine
 62
7
  6
CONTINUOUS
 10
117.3754452852
 20
153.9299684969
 11
117.5189121282
 21
152.8771995281
  0
LINE
  5
3D9
100
AcDbEntity
  8
0
100
AcDbLine
 62
7
  6
CONTINUOUS
 10
118.0417524404
 20
152.8222936499
 11
117.881407009
 21
153.9989187921
  0
LINE
  5
3DA
100
AcDbEntity
  8
0
100
AcDbLine
 62
7
  6
CONTINUOUS
 10
109.7300007552
 20
171.524030391
 11
109.3149614685
 21
171.4457235247
  0
LINE
  5
3DB
100
AcDbEntity
  8
0
100
AcDbLine
 62
7
  6
CONTINUOUS
 10
71.3226657908
 20
167.4492091333
 11
71.7698994264
 21
167.5253308103
  0
LINE
  5
3DC
100
AcDbEntity
  8
0
100
AcDbLine
 62
7
  6
CONTINUOUS
 10
67.7874933264
 20
168.1981738923
 11
68.0140961358
 21
168.2092812728
  0
LINE
  5
3DD
100
AcDbEntity
  8
0
100
AcDbLine
 62
7
  6
CONTINUOUS
 10
108.7942748189
 20
168.3229040101
 11
108.5410625124
 21
168.3263935491
  0
LINE
  5
3DE
100
AcDbEntity
  8
0
100
AcDbLine
 62
7
  6
CONTINUOUS
 10
69.9061356301
 20
168.9207612735
 11
70.3583573659
 21
168.8835546858
  0
LINE
  5
3DF
100
AcDbEntity
  8
0
100
AcDbLine
 62
7
  6
CONTINUOUS
 10
72.0533517158
 20
170.0426528994
 11
71.60112998
 21
170.0798594872
  0
LINE
  5
3E0
100
AcDbEntity
  8
0
100
AcDbLine
 62
7
  6
CONTINUOUS
 10
70.3325751342
 20
170.7488150125
 11
70.5586860021
 21
170.7302117187
  0
LINE
  5
3E1
100
AcDbEntity
  8
0
100
AcDbLine
 62
7
  6
CONTINUOUS
 10
108.2383524278
 20
167.9104316134
 11
108.5372572008
 21
167.8642991534
  0
LINE
  5
3E2
100
AcDbEntity
  8
0
100
AcDbLine
 62
7
  6
CONTINUOUS
 10
116.1429762243
 20
163.4542063793
 11
115.7259680706
 21
163.5212433342
  0
LINE
  5
3E3
100
AcDbEntity
  8
0
100
AcDbLine
 62
7
  6
CONTINUOUS
 10
114.0918324296
 20
160.9267059307
 11
113.8547984806
 21
161.0158325603
  0
LINE
  5
3E4
100
AcDbEntity
  8
0
100
AcDbLine
 62
7
  6
CONTINUOUS
 10
115.745703526
 20
163.1098944669
 11
115.9827374219
 21
163.0207678101
  0
LINE
  5
3E5
100
AcDbEntity
  8
0
100
AcDbLine
 62
7
  6
CONTINUOUS
 10
113.4289955903
 20
160.7271294399
 11
113.6945596518
 21
160.5823939775
  0
LINE
  5
3E6
100
AcDbEntity
  8
0
100
AcDbLine
 62
7
  6
CONTINUOUS
 10
113.8547984806
 20
161.0158325603
 11
113.6649564952
 21
161.1994172919
  0
LINE
  5
3E7
100
AcDbEntity
  8
0
100
AcDbLine
 62
7
  6
CONTINUOUS
 10
113.2106241057
 20
160.9663217112
 11
113.4289955903
 21
160.7271294399
  0
LINE
  5
3E8
100
AcDbEntity
  8
0
100
AcDbLine
 62
7
  6
CONTINUOUS
 10
117.7382014152
 20
152.5286172746
 11
117.9406123068
 21
152.3038897771
  0
LINE
  5
3E9
100
AcDbEntity
  8
0
100
AcDbLine
 62
7
  6
CONTINUOUS
 10
109.0297204636
 20
167.0154495109
 11
109.2722766003
 21
166.7294573422
  0
LINE
  5
3EA
100
AcDbEntity
  8
0
100
AcDbLine
 62
7
  6
CONTINUOUS
 10
110.4042050839
 20
165.3948274034
 11
110.6467612206
 21
165.1088352347
  0
LINE
  5
3EB
100
AcDbEntity
  8
0
100
AcDbLine
 62
7
  6
CONTINUOUS
 10
118.1513970839
 20
152.6480025232
 11
118.0417524404
 21
152.8222936499
  0
LINE
  5
3EC
100
AcDbEntity
  8
0
100
AcDbLine
 62
7
  6
CONTINUOUS
 10
107.415884437
 20
168.6780066287
 11
107.5862805418
 21
168.4025716292
  0
LINE
  5
3ED
100
AcDbEntity
  8
0
100
AcDbLine
 62
7
  6
CONTINUOUS
 10
107.9346833848
 20
168.7758904326
 11
107.8099797667
 21
169.0086825329
  0
LINE
  5
3EE
100
AcDbEntity
  8
0
100
AcDbLine
 62
7
  6
CONTINUOUS
 10
110.3325745915
 20
170.6124391335
 11
110.4572782096
 21
170.3796470332
  0
LINE
  5
3EF
100
AcDbEntity
  8
0
100
AcDbLine
 62
7
  6
CONTINUOUS
 10
112.9823848999
 20
161.4111884194
 11
113.2106241057
 21
160.9663217112
  0
LINE
  5
3F0
100
AcDbEntity
  8
0
100
AcDbLine
 62
7
  6
CONTINUOUS
 10
113.6649564952
 20
161.1994172919
 11
113.4367172894
 21
161.6442840002
  0
LINE
  5
3F1
100
AcDbEntity
  8
0
100
AcDbLine
 62
7
  6
CONTINUOUS
 10
113.7385318763
 20
162.361096821
 11
113.5673523087
 21
162.6947471703
  0
LINE
  5
3F2
100
AcDbEntity
  8
0
100
AcDbLine
 62
7
  6
CONTINUOUS
 10
114.629607928
 20
162.1158066069
 11
114.8007874955
 21
161.7821562575
  0
LINE
  5
3F3
100
AcDbEntity
  8
0
100
AcDbLine
 62
7
  6
CONTINUOUS
 10
115.255119832
 20
162.0152518111
 11
115.0839402645
 21
162.3489021605
  0
LINE
  5
3F4
100
AcDbEntity
  8
0
100
AcDbLine
 62
7
  6
CONTINUOUS
 10
116.1077981165
 20
162.0312449009
 11
116.278977684
 21
161.6975945515
  0
LINE
  5
3F5
100
AcDbEntity
  8
0
100
AcDbLine
 62
7
  6
CONTINUOUS
 10
117.185135545
 20
160.9453856103
 11
117.5407738268
 21
160.0107614258
  0
LINE
  5
3F6
100
AcDbEntity
  8
0
100
AcDbLine
 62
7
  6
CONTINUOUS
 10
117.6741381188
 20
159.6602775237
 11
118.0297764005
 21
158.7256533392
  0
LINE
  5
3F7
100
AcDbEntity
  8
0
100
AcDbLine
 62
7
  6
CONTINUOUS
 10
118.4274885824
 20
158.876988688
 11
117.5828477269
 21
161.0967209591
  0
LINE
  5
3F8
100
AcDbEntity
  8
0
100
AcDbLine
 62
7
  6
CONTINUOUS
 10
119.0905275016
 20
156.5107667945
 11
118.9670586546
 21
156.9952819821
  0
LINE
  5
3F9
100
AcDbEntity
  8
0
100
AcDbLine
 62
7
  6
CONTINUOUS
 10
116.8079590391
 20
162.530953849
 11
116.7410310202
 21
162.8478459143
  0
LINE
  5
3FA
100
AcDbEntity
  8
0
100
AcDbLine
 62
7
  6
CONTINUOUS
 10
119.1463115545
 20
154.1712945622
 11
119.3066569859
 21
152.9946694201
  0
LINE
  5
3FB
100
AcDbEntity
  8
0
100
AcDbLine
 62
7
  6
CONTINUOUS
 10
119.7198524615
 20
153.1140560861
 11
119.5173109452
 21
154.6003188267
  0
LINE
  5
3FC
100
AcDbEntity
  8
0
100
AcDbLine
 62
7
  6
CONTINUOUS
 10
70.3583573659
 20
168.8835546858
 11
70.6925361704
 21
168.968978621
  0
LINE
  5
3FD
100
AcDbEntity
  8
0
100
AcDbLine
 62
7
  6
CONTINUOUS
 10
71.60112998
 20
170.0798594872
 11
71.2669511755
 21
169.9944355519
  0
LINE
  5
3FE
100
AcDbEntity
  8
0
100
AcDbLine
 62
7
  6
CONTINUOUS
 10
67.8882961805
 20
168.5974679371
 11
67.5016187347
 21
168.5221768453
  0
LINE
  5
3FF
100
AcDbEntity
  8
0
100
AcDbLine
 62
7
  6
CONTINUOUS
 10
70.3924376347
 20
169.3888802331
 11
70.1122927985
 21
169.3554699124
  0
LINE
  5
400
100
AcDbEntity
  8
0
100
AcDbLine
 62
7
  6
CONTINUOUS
 10
71.5670497112
 20
169.5745339399
 11
71.8471945474
 21
169.6079442606
  0
LINE
  5
401
100
AcDbEntity
  8
0
100
AcDbLine
 62
7
  6
CONTINUOUS
 10
70.4256762503
 20
171.1928247031
 11
70.0324753618
 21
171.1687154341
  0
LINE
  5
402
100
AcDbEntity
  8
RUNDUNGEN
100
AcDbLine
 62
7
  6
CONTINUOUS
 10
79.2001119241
 20
174.8164024051
 11
101.2001119241
 21
174.8164024051
  0
LINE
  5
403
100
AcDbEntity
  8
0
100
AcDbLine
 62
7
  6
CONTINUOUS
 10
109.472983198
 20
171.0654255996
 11
109.7261954639
 21
171.061936017
  0
LINE
  5
404
100
AcDbEntity
  8
0
100
AcDbLine
 62
7
  6
CONTINUOUS
 10
110.0289057744
 20
171.4778976706
 11
109.7300007552
 21
171.524030391
  0
LINE
  5
405
100
AcDbEntity
  8
0
100
AcDbLine
 62
7
  6
CONTINUOUS
 10
108.5410625124
 20
168.3263935491
 11
108.3002246269
 21
168.4347460627
  0
LINE
  5
406
100
AcDbEntity
  8
0
100
AcDbLine
 62
7
  6
CONTINUOUS
 10
107.9518217839
 20
168.0614272593
 11
108.2383524278
 21
167.9104316134
  0
LINE
  5
407
100
AcDbEntity
  8
0
100
AcDbLine
 62
7
  6
CONTINUOUS
 10
116.4085396128
 20
163.3094721795
 11
116.1429762243
 21
163.4542063793
  0
LINE
  5
408
100
AcDbEntity
  8
0
100
AcDbLine
 62
7
  6
CONTINUOUS
 10
103.7004726331
 20
171.3346377012
 11
104.0183642216
 21
171.1357157618
  0
LINE
  5
409
100
AcDbEntity
  8
0
100
AcDbLine
 62
7
  6
CONTINUOUS
 10
104.4548652031
 20
170.8874731357
 11
104.7569040413
 21
170.6652175616
  0
LINE
  5
40A
100
AcDbEntity
  8
0
100
AcDbLine
 62
7
  6
CONTINUOUS
 10
106.0153992246
 20
169.739152652
 11
106.468457482
 21
169.405769291
  0
LINE
  5
40B
100
AcDbEntity
  8
0
100
AcDbLine
 62
7
  6
CONTINUOUS
 10
115.9827374219
 20
163.0207678101
 11
116.1440492618
 21
162.8927918943
  0
LINE
  5
40C
100
AcDbEntity
  8
0
100
AcDbLine
 62
7
  6
CONTINUOUS
 10
107.5862805418
 20
168.4025716292
 11
107.9518217839
 21
168.0614272593
  0
LINE
  5
40D
100
AcDbEntity
  8
0
100
AcDbLine
 62
7
  6
CONTINUOUS
 10
108.3002246269
 20
168.4347460627
 11
107.9346833848
 21
168.7758904326
  0
LINE
  5
40E
100
AcDbEntity
  8
0
100
AcDbLine
 62
7
  6
CONTINUOUS
 10
109.9670333494
 20
170.9535835034
 11
110.3325745915
 21
170.6124391335
  0
LINE
  5
40F
100
AcDbEntity
  8
0
100
AcDbLine
 62
7
  6
CONTINUOUS
 10
116.5983815983
 20
163.1258874479
 11
116.4085396128
 21
163.3094721795
  0
LINE
  5
410
100
AcDbEntity
  8
0
100
AcDbLine
 62
7
  6
CONTINUOUS
 10
113.6973443535
 20
167.6961006925
 11
113.4547882168
 21
167.9820928612
  0
LINE
  5
411
100
AcDbEntity
  8
0
100
AcDbLine
 62
7
  6
CONTINUOUS
 10
112.3228597332
 20
169.3167228
 11
112.0803035965
 21
169.6027149687
  0
LINE
  5
412
100
AcDbEntity
  8
0
100
AcDbLine
 62
7
  6
CONTINUOUS
 10
110.8513737652
 20
170.7103226553
 11
110.6809773938
 21
170.9857578933
  0
LINE
  5
413
100
AcDbEntity
  8
0
100
AcDbLine
 62
7
  6
CONTINUOUS
 10
116.1440492618
 20
162.8927918943
 11
116.3152288293
 21
162.5591415449
  0
LINE
  5
414
100
AcDbEntity
  8
0
100
AcDbLine
 62
7
  6
CONTINUOUS
 10
116.7410310202
 20
162.8478459143
 11
116.5983815983
 21
163.1258874479
  0
LINE
  5
415
100
AcDbEntity
  8
B-ACHSEN
100
AcDbLine
 62
7
  6
CONTINUOUS
 10
100.2001119241
 20
84.3164024051
 11
98.7001119241
 21
82.8164024051
  0
LINE
  5
416
100
AcDbEntity
  8
0
100
AcDbLine
 62
7
  6
CONTINUOUS
 10
109.7261954639
 20
171.061936017
 11
109.9670333494
 21
170.9535835034
  0
LINE
  5
417
100
AcDbEntity
  8
0
100
AcDbLine
 62
7
  6
CONTINUOUS
 10
110.3154361517
 20
171.3269022632
 11
110.0289057744
 21
171.4778976706
  0
LINE
  5
418
100
AcDbEntity
  8
0
100
AcDbLine
 62
7
  6
CONTINUOUS
 10
106.1401982416
 20
174.5265593724
 11
105.8223066531
 21
174.7254813118
  0
LINE
  5
419
100
AcDbEntity
  8
0
100
AcDbLine
 62
7
  6
CONTINUOUS
 10
108.8391836052
 20
172.6275168988
 11
108.537144767
 21
172.8497724728
  0
LINE
  5
41A
100
AcDbEntity
  8
0
100
AcDbLine
 62
7
  6
CONTINUOUS
 10
107.2786495837
 20
173.7758373824
 11
106.8255913263
 21
174.1092207435
  0
LINE
  5
41B
100
AcDbEntity
  8
0
100
AcDbLine
 62
7
  6
CONTINUOUS
 10
110.6809773938
 20
170.9857578933
 11
110.3154361517
 21
171.3269022632
  0
LINE
  5
41C
100
AcDbEntity
  8
RUNDUNGEN
100
AcDbLine
 62
7
  6
CONTINUOUS
 10
101.2001119241
 20
181.3164024051
 11
79.2001119241
 21
181.3164024051
  0
LINE
  5
41D
100
AcDbEntity
  8
B-ACHSEN
100
AcDbLine
 62
7
  6
CONTINUOUS
 10
178.9479875813
 20
82.8164024051
 11
195.9479875813
 21
82.8164024051
  0
LINE
  5
41E
100
AcDbEntity
  8
B-ACHSEN
100
AcDbLine
 62
7
  6
CONTINUOUS
 10
177.4479875813
 20
84.3164024051
 11
197.4479875813
 21
84.3164024051
  0
LINE
  5
41F
100
AcDbEntity
  8
B-ACHSEN
100
AcDbLine
 62
7
  6
CONTINUOUS
 10
177.4479875813
 20
84.3164024051
 11
178.9479875813
 21
82.8164024051
  0
LINE
  5
420
100
AcDbEntity
  8
B-ACHSEN
100
AcDbLine
 62
7
  6
CONTINUOUS
 10
177.4479875813
 20
105.3164024051
 11
197.4479875813
 21
105.3164024051
  0
LINE
  5
421
100
AcDbEntity
  8
B-ACHSEN
100
AcDbLine
 62
7
  6
CONTINUOUS
 10
167.4479875813
 20
112.8164024051
 11
207.4479875813
 21
112.8164024051
  0
LINE
  5
422
100
AcDbEntity
  8
B-ACHSEN
100
AcDbLine
 62
7
  6
CONTINUOUS
 10
165.5553749168
 20
128.903610054
 11
167.4479875813
 21
112.8164024051
  0
LINE
  5
423
100
AcDbEntity
  8
0
100
AcDbLine
 62
7
  6
CONTINUOUS
 10
205.3424295614
 20
118.3164024051
 11
206.8078378321
 21
118.3164024051
  0
LINE
  5
424
100
AcDbEntity
  8
0
100
AcDbLine
 62
7
  6
CONTINUOUS
 10
206.9777353597
 20
118.3164024051
 11
208.8788949738
 21
118.3164024051
  0
LINE
  5
425
100
AcDbEntity
  8
0
100
AcDbLine
 62
7
  6
CONTINUOUS
 10
208.9383285765
 20
118.8164024051
 11
209.1117368981
 21
118.8164024051
  0
LINE
  5
426
100
AcDbEntity
  8
0
100
AcDbLine
 62
7
  6
CONTINUOUS
 10
208.9547676596
 20
118.9547002908
 11
208.360701211
 21
118.9547002908
  0
LINE
  5
427
100
AcDbEntity
  8
0
100
AcDbLine
 62
7
  6
CONTINUOUS
 10
207.0571084803
 20
118.9547002908
 11
208.1182946625
 21
118.9547002908
  0
LINE
  5
428
100
AcDbEntity
  8
RUNDUNGEN
100
AcDbLine
 62
7
  6
CONTINUOUS
 10
203.4557370344
 20
120.3164024051
 11
197.3361986855
 21
120.3164024051
  0
LINE
  5
429
100
AcDbEntity
  8
RUNDUNGEN
100
AcDbLine
 62
7
  6
CONTINUOUS
 10
171.4402386728
 20
120.3164024051
 11
177.5597764772
 21
120.3164024051
  0
LINE
  5
42A
100
AcDbEntity
  8
0
100
AcDbLine
 62
7
  6
CONTINUOUS
 10
207.0929823411
 20
120.4866150912
 11
208.0335729108
 21
120.4866150912
  0
LINE
  5
42B
100
AcDbEntity
  8
0
100
AcDbLine
 62
7
  6
CONTINUOUS
 10
209.4026891931
 20
121.05044499
 11
209.4235950943
 21
121.05044499
  0
LINE
  5
42C
100
AcDbEntity
  8
0
100
AcDbLine
 62
7
  6
CONTINUOUS
 10
207.1766974508
 20
121.1249130662
 11
208.1134773481
 21
121.1249130662
  0
LINE
  5
42D
100
AcDbEntity
  8
0
100
AcDbLine
 62
7
  6
CONTINUOUS
 10
209.4986889042
 20
121.6887427863
 11
209.4778543142
 21
121.6887427863
  0
LINE
  5
42E
100
AcDbEntity
  8
0
100
AcDbLine
 62
7
  6
CONTINUOUS
 10
208.1820094334
 20
122.1461895402
 11
209.2057391232
 21
122.1461895402
  0
LINE
  5
42F
100
AcDbEntity
  8
0
100
AcDbLine
 62
7
  6
CONTINUOUS
 10
205.5468277398
 20
122.4015086587
 11
206.7126857227
 21
122.4015086587
  0
LINE
  5
430
100
AcDbEntity
  8
0
100
AcDbLine
 62
7
  6
CONTINUOUS
 10
208.2796498369
 20
122.6568277772
 11
209.3015735829
 21
122.6568277772
  0
LINE
  5
431
100
AcDbEntity
  8
0
100
AcDbLine
 62
7
  6
CONTINUOUS
 10
207.5815443963
 20
122.9121472534
 11
209.3320380552
 21
122.9121472534
  0
LINE
  5
432
100
AcDbEntity
  8
0
100
AcDbLine
 62
7
  6
CONTINUOUS
 10
209.6657650435
 20
123.2844875749
 11
209.6864235868
 21
123.2844875749
  0
LINE
  5
433
100
AcDbEntity
  8
0
100
AcDbLine
 62
7
  6
CONTINUOUS
 10
208.8907885393
 20
123.2951259311
 11
209.343048979
 21
123.2951259311
  0
LINE
  5
434
100
AcDbEntity
  8
0
100
AcDbLine
 62
7
  6
CONTINUOUS
 10
205.6869414125
 20
123.4227854904
 11
206.8506155978
 21
123.4227854904
  0
LINE
  5
435
100
AcDbEntity
  8
0
100
AcDbLine
 62
7
  6
CONTINUOUS
 10
207.6771603618
 20
123.4227854904
 11
208.7323003133
 21
123.4227854904
  0
LINE
  5
436
100
AcDbEntity
  8
0
100
AcDbLine
 62
7
  6
CONTINUOUS
 10
209.0021209667
 20
123.5504450496
 11
209.3180737174
 21
123.5504450496
  0
LINE
  5
437
100
AcDbEntity
  8
0
100
AcDbLine
 62
7
  6
CONTINUOUS
 10
209.1413004384
 20
123.6781046089
 11
209.2314633913
 21
123.6781046089
  0
LINE
  5
438
100
AcDbEntity
  8
0
100
AcDbLine
 62
7
  6
CONTINUOUS
 10
209.4712894082
 20
123.8164024051
 11
209.749001786
 21
123.8164024051
  0
LINE
  5
439
100
AcDbEntity
  8
0
100
AcDbLine
 62
7
  6
CONTINUOUS
 10
207.8640588629
 20
123.9334237274
 11
208.9128305221
 21
123.9334237274
  0
LINE
  5
43A
100
AcDbEntity
  8
0
100
AcDbLine
 62
7
  6
CONTINUOUS
 10
208.0105006433
 20
124.1887428459
 11
209.0535643782
 21
124.1887428459
  0
LINE
  5
43B
100
AcDbEntity
  8
0
100
AcDbLine
 62
7
  6
CONTINUOUS
 10
206.1524820306
 20
124.3164024051
 11
207.5942617204
 21
124.3164024051
  0
LINE
  5
43C
100
AcDbEntity
  8
0
100
AcDbLine
 62
7
  6
CONTINUOUS
 10
208.207277131
 20
124.3164024051
 11
209.3295404034
 21
124.3164024051
  0
LINE
  5
43D
100
AcDbEntity
  8
B-ACHSEN
100
AcDbLine
 62
7
  6
CONTINUOUS
 10
177.4479875813
 20
105.3164024051
 11
177.4479875813
 21
84.3164024051
  0
LINE
  5
43E
100
AcDbEntity
  8
B-ACHSEN
100
AcDbLine
 62
7
  6
CONTINUOUS
 10
179.4479875813
 20
188.8164024051
 11
179.4479875813
 21
150.2254024051
  0
LINE
  5
43F
100
AcDbEntity
  8
0
100
AcDbLine
 62
7
  6
CONTINUOUS
 10
179.4479875813
 20
146.8164024051
 11
179.4479875813
 21
150.2254024051
  0
LINE
  5
440
100
AcDbEntity
  8
B-ACHSEN
100
AcDbLine
 62
7
  6
CONTINUOUS
 10
178.9149137229
 20
110.2459690894
 11
177.4479875813
 21
105.3164024051
  0
LINE
  5
441
100
AcDbEntity
  8
B-ACHSEN
100
AcDbLine
 62
7
  6
CONTINUOUS
 10
195.9810614397
 20
110.2459690894
 11
197.4479875813
 21
105.3164024051
  0
LINE
  5
442
100
AcDbEntity
  8
B-ACHSEN
100
AcDbLine
 62
7
  6
CONTINUOUS
 10
195.4479875813
 20
188.8164024051
 11
195.4479875813
 21
150.2254024051
  0
LINE
  5
443
100
AcDbEntity
  8
0
100
AcDbLine
 62
7
  6
CONTINUOUS
 10
195.4479875813
 20
146.8164024051
 11
195.4479875813
 21
150.2254024051
  0
LINE
  5
444
100
AcDbEntity
  8
0
100
AcDbLine
 62
7
  6
CONTINUOUS
 10
195.9479875813
 20
174.7254813118
 11
195.9479875813
 21
164.3804893208
  0
LINE
  5
445
100
AcDbEntity
  8
0
100
AcDbLine
 62
7
  6
CONTINUOUS
 10
195.9479875813
 20
163.5212433342
 11
195.9479875813
 21
161.8913246423
  0
LINE
  5
446
100
AcDbEntity
  8
0
100
AcDbLine
 62
7
  6
CONTINUOUS
 10
195.9479875813
 20
161.8850400318
 11
195.9479875813
 21
151.4111309841
  0
LINE
  5
447
100
AcDbEntity
  8
RUNDUNGEN
100
AcDbLine
 62
7
  6
CONTINUOUS
 10
196.4479875813
 20
181.3164024051
 11
196.4479875813
 21
174.8164024051
  0
LINE
  5
448
100
AcDbEntity
  8
B-ACHSEN
100
AcDbLine
 62
7
  6
CONTINUOUS
 10
197.4479875813
 20
105.3164024051
 11
197.4479875813
 21
84.3164024051
  0
LINE
  5
449
100
AcDbEntity
  8
0
100
AcDbLine
 62
7
  6
CONTINUOUS
 10
179.4479875813
 20
149.4066209879
 11
195.4479875813
 21
149.4066209879
  0
LINE
  5
44A
100
AcDbEntity
  8
B-ACHSEN
100
AcDbLine
 62
7
  6
CONTINUOUS
 10
179.4479875813
 20
150.2254024051
 11
195.4479875813
 21
150.2254024051
  0
LINE
  5
44B
100
AcDbEntity
  8
0
100
AcDbLine
 62
7
  6
CONTINUOUS
 10
195.4479875813
 20
151.4111309841
 11
195.9479875813
 21
151.4111309841
  0
LINE
  5
44C
100
AcDbEntity
  8
0
100
AcDbLine
 62
7
  6
CONTINUOUS
 10
195.4479875813
 20
151.9419128947
 11
195.9479875813
 21
151.9419128947
  0
LINE
  5
44D
100
AcDbEntity
  8
0
100
AcDbLine
 62
7
  6
CONTINUOUS
 10
195.4479875813
 20
153.7259952328
 11
195.9479875813
 21
153.7259952328
  0
LINE
  5
44E
100
AcDbEntity
  8
0
100
AcDbLine
 62
7
  6
CONTINUOUS
 10
195.4479875813
 20
154.0863858933
 11
195.9479875813
 21
154.0863858933
  0
LINE
  5
44F
100
AcDbEntity
  8
0
100
AcDbLine
 62
7
  6
CONTINUOUS
 10
195.4479875813
 20
154.3498531864
 11
195.9479875813
 21
154.3498531864
  0
LINE
  5
450
100
AcDbEntity
  8
0
100
AcDbLine
 62
7
  6
CONTINUOUS
 10
195.4479875813
 20
154.5276905555
 11
195.9479875813
 21
154.5276905555
  0
LINE
  5
451
100
AcDbEntity
  8
0
100
AcDbLine
 62
7
  6
CONTINUOUS
 10
195.4479875813
 20
154.5681475563
 11
195.9479875813
 21
154.5681475563
  0
LINE
  5
452
100
AcDbEntity
  8
0
100
AcDbLine
 62
7
  6
CONTINUOUS
 10
195.4479875813
 20
154.9173700527
 11
195.9479875813
 21
154.9173700527
  0
LINE
  5
453
100
AcDbEntity
  8
0
100
AcDbLine
 62
7
  6
CONTINUOUS
 10
195.4479875813
 20
155.1434619826
 11
195.9479875813
 21
155.1434619826
  0
LINE
  5
454
100
AcDbEntity
  8
0
100
AcDbLine
 62
7
  6
CONTINUOUS
 10
195.4479875813
 20
155.1821674312
 11
195.9479875813
 21
155.1821674312
  0
LINE
  5
455
100
AcDbEntity
  8
B-ACHSEN
100
AcDbLine
 62
7
  6
CONTINUOUS
 10
209.3406002459
 20
128.903610054
 11
208.8009287578
 21
124.3164024051
  0
LINE
  5
456
100
AcDbEntity
  8
B-ACHSEN
100
AcDbLine
 62
7
  6
CONTINUOUS
 10
208.0942859088
 20
118.3099381883
 11
207.4479875813
 21
112.8164024051
  0
LINE
  5
457
100
AcDbEntity
  8
0
100
AcDbLine
 62
7
  6
CONTINUOUS
 10
209.7490018618
 20
123.8164024051
 11
209.6864236465
 21
123.2844875749
  0
LINE
  5
458
100
AcDbEntity
  8
0
100
AcDbLine
 62
7
  6
CONTINUOUS
 10
209.4986889655
 20
121.6887427863
 11
209.4235951071
 21
121.05044499
  0
LINE
  5
459
100
AcDbEntity
  8
0
100
AcDbLine
 62
7
  6
CONTINUOUS
 10
209.4778543142
 20
121.6887427863
 11
209.6657650435
 21
123.2844875749
  0
LINE
  5
45A
100
AcDbEntity
  8
0
100
AcDbLine
 62
7
  6
CONTINUOUS
 10
209.1396073467
 20
118.8164024051
 11
209.4026891931
 21
121.05044499
  0
LINE
  5
45B
100
AcDbEntity
  8
0
100
AcDbLine
 62
7
  6
CONTINUOUS
 10
209.3947235622
 20
122.6568277772
 11
209.4250589109
 21
122.9121472534
  0
LINE
  5
45C
100
AcDbEntity
  8
0
100
AcDbLine
 62
7
  6
CONTINUOUS
 10
208.8788949738
 20
118.3164024051
 11
208.9547676596
 21
118.9547002908
  0
LINE
  5
45D
100
AcDbEntity
  8
0
100
AcDbLine
 62
7
  6
CONTINUOUS
 10
209.3320380552
 20
122.9121472534
 11
209.3015735829
 21
122.6568277772
  0
LINE
  5
45E
100
AcDbEntity
  8
0
100
AcDbLine
 62
7
  6
CONTINUOUS
 10
195.4479875813
 20
155.8710128067
 11
195.9479875813
 21
155.8710128067
  0
LINE
  5
45F
100
AcDbEntity
  8
0
100
AcDbLine
 62
7
  6
CONTINUOUS
 10
195.4479875813
 20
156.3054039605
 11
195.9479875813
 21
156.3054039605
  0
LINE
  5
460
100
AcDbEntity
  8
0
100
AcDbLine
 62
7
  6
CONTINUOUS
 10
195.4479875813
 20
156.4079291513
 11
195.9479875813
 21
156.4079291513
  0
LINE
  5
461
100
AcDbEntity
  8
0
100
AcDbLine
 62
7
  6
CONTINUOUS
 10
195.4479875813
 20
156.7197440694
 11
195.9479875813
 21
156.7197440694
  0
LINE
  5
462
100
AcDbEntity
  8
0
100
AcDbLine
 62
7
  6
CONTINUOUS
 10
195.4479875813
 20
156.9813811894
 11
195.9479875813
 21
156.9813811894
  0
LINE
  5
463
100
AcDbEntity
  8
0
100
AcDbLine
 62
7
  6
CONTINUOUS
 10
195.4479875813
 20
157.1928404802
 11
195.9479875813
 21
157.1928404802
  0
LINE
  5
464
100
AcDbEntity
  8
0
100
AcDbLine
 62
7
  6
CONTINUOUS
 10
195.4479875813
 20
157.3541223716
 11
195.9479875813
 21
157.3541223716
  0
LINE
  5
465
100
AcDbEntity
  8
0
100
AcDbLine
 62
7
  6
CONTINUOUS
 10
195.4479875813
 20
158.0429677471
 11
195.9479875813
 21
158.0429677471
  0
LINE
  5
466
100
AcDbEntity
  8
0
100
AcDbLine
 62
7
  6
CONTINUOUS
 10
195.4479875813
 20
158.4773586937
 11
195.9479875813
 21
158.4773586937
  0
LINE
  5
467
100
AcDbEntity
  8
0
100
AcDbLine
 62
7
  6
CONTINUOUS
 10
195.4479875813
 20
159.5580577371
 11
195.9479875813
 21
159.5580577371
  0
LINE
  5
468
100
AcDbEntity
  8
0
100
AcDbLine
 62
7
  6
CONTINUOUS
 10
195.4479875813
 20
161.2172708368
 11
195.9479875813
 21
161.2172708368
  0
LINE
  5
469
100
AcDbEntity
  8
0
100
AcDbLine
 62
7
  6
CONTINUOUS
 10
195.4479875813
 20
161.5299446434
 11
195.9479875813
 21
161.5299446434
  0
LINE
  5
46A
100
AcDbEntity
  8
0
100
AcDbLine
 62
7
  6
CONTINUOUS
 10
195.4479875813
 20
161.7404881905
 11
195.9479875813
 21
161.7404881905
  0
LINE
  5
46B
100
AcDbEntity
  8
0
100
AcDbLine
 62
7
  6
CONTINUOUS
 10
195.4479875813
 20
161.8850400318
 11
195.9479875813
 21
161.8850400318
  0
LINE
  5
46C
100
AcDbEntity
  8
0
100
AcDbLine
 62
7
  6
CONTINUOUS
 10
195.4479875813
 20
161.8913246423
 11
195.9479875813
 21
161.8913246423
  0
LINE
  5
46D
100
AcDbEntity
  8
0
100
AcDbLine
 62
7
  6
CONTINUOUS
 10
195.4479875813
 20
162.1226698087
 11
195.9479875813
 21
162.1226698087
  0
LINE
  5
46E
100
AcDbEntity
  8
0
100
AcDbLine
 62
7
  6
CONTINUOUS
 10
195.4479875813
 20
162.4837413188
 11
195.9479875813
 21
162.4837413188
  0
LINE
  5
46F
100
AcDbEntity
  8
0
100
AcDbLine
 62
7
  6
CONTINUOUS
 10
195.4479875813
 20
162.6947471703
 11
195.9479875813
 21
162.6947471703
  0
LINE
  5
470
100
AcDbEntity
  8
0
100
AcDbLine
 62
7
  6
CONTINUOUS
 10
195.4479875813
 20
163.0550521182
 11
195.9479875813
 21
163.0550521182
  0
LINE
  5
471
100
AcDbEntity
  8
0
100
AcDbLine
 62
7
  6
CONTINUOUS
 10
195.4479875813
 20
163.2660579697
 11
195.9479875813
 21
163.2660579697
  0
LINE
  5
472
100
AcDbEntity
  8
0
100
AcDbLine
 62
7
  6
CONTINUOUS
 10
195.4479875813
 20
163.4214551143
 11
195.9479875813
 21
163.4214551143
  0
LINE
  5
473
100
AcDbEntity
  8
0
100
AcDbLine
 62
7
  6
CONTINUOUS
 10
195.4479875813
 20
163.5212433342
 11
195.9479875813
 21
163.5212433342
  0
LINE
  5
474
100
AcDbEntity
  8
0
100
AcDbLine
 62
7
  6
CONTINUOUS
 10
195.4479875813
 20
164.3804893208
 11
195.9479875813
 21
164.3804893208
  0
LINE
  5
475
100
AcDbEntity
  8
0
100
AcDbLine
 62
7
  6
CONTINUOUS
 10
195.4479875813
 20
166.8750140989
 11
195.9479875813
 21
166.8750140989
  0
LINE
  5
476
100
AcDbEntity
  8
0
100
AcDbLine
 62
7
  6
CONTINUOUS
 10
195.4479875813
 20
168.2821077673
 11
195.9479875813
 21
168.2821077673
  0
LINE
  5
477
100
AcDbEntity
  8
0
100
AcDbLine
 62
7
  6
CONTINUOUS
 10
195.4479875813
 20
168.5221768453
 11
195.9479875813
 21
168.5221768453
  0
LINE
  5
478
100
AcDbEntity
  8
0
100
AcDbLine
 62
7
  6
CONTINUOUS
 10
195.4479875813
 20
168.5974679371
 11
195.9479875813
 21
168.5974679371
  0
LINE
  5
479
100
AcDbEntity
  8
0
100
AcDbLine
 62
7
  6
CONTINUOUS
 10
195.4479875813
 20
168.7774431499
 11
195.9479875813
 21
168.7774431499
  0
LINE
  5
47A
100
AcDbEntity
  8
0
100
AcDbLine
 62
7
  6
CONTINUOUS
 10
195.4479875813
 20
168.8835546858
 11
195.9479875813
 21
168.8835546858
  0
LINE
  5
47B
100
AcDbEntity
  8
0
100
AcDbLine
 62
7
  6
CONTINUOUS
 10
195.4479875813
 20
168.9207612735
 11
195.9479875813
 21
168.9207612735
  0
LINE
  5
47C
100
AcDbEntity
  8
0
100
AcDbLine
 62
7
  6
CONTINUOUS
 10
195.4479875813
 20
169.114006324
 11
195.9479875813
 21
169.114006324
  0
LINE
  5
47D
100
AcDbEntity
  8
0
100
AcDbLine
 62
7
  6
CONTINUOUS
 10
195.4479875813
 20
169.3592651607
 11
195.9479875813
 21
169.3592651607
  0
LINE
  5
47E
100
AcDbEntity
  8
0
100
AcDbLine
 62
7
  6
CONTINUOUS
 10
195.4479875813
 20
169.6565374402
 11
195.9479875813
 21
169.6565374402
  0
LINE
  5
47F
100
AcDbEntity
  8
0
100
AcDbLine
 62
7
  6
CONTINUOUS
 10
195.4479875813
 20
170.1098481825
 11
195.9479875813
 21
170.1098481825
  0
LINE
  5
480
100
AcDbEntity
  8
0
100
AcDbLine
 62
7
  6
CONTINUOUS
 10
195.4479875813
 20
170.4405307827
 11
195.9479875813
 21
170.4405307827
  0
LINE
  5
481
100
AcDbEntity
  8
0
100
AcDbLine
 62
7
  6
CONTINUOUS
 10
195.4479875813
 20
170.7098987167
 11
195.9479875813
 21
170.7098987167
  0
LINE
  5
482
100
AcDbEntity
  8
0
100
AcDbLine
 62
7
  6
CONTINUOUS
 10
195.4479875813
 20
170.9699644085
 11
195.9479875813
 21
170.9699644085
  0
LINE
  5
483
100
AcDbEntity
  8
0
100
AcDbLine
 62
7
  6
CONTINUOUS
 10
195.4479875813
 20
171.1687154341
 11
195.9479875813
 21
171.1687154341
  0
LINE
  5
484
100
AcDbEntity
  8
0
100
AcDbLine
 62
7
  6
CONTINUOUS
 10
195.4479875813
 20
171.1928247031
 11
195.9479875813
 21
171.1928247031
  0
LINE
  5
485
100
AcDbEntity
  8
0
100
AcDbLine
 62
7
  6
CONTINUOUS
 10
195.4479875813
 20
173.2524771264
 11
195.9479875813
 21
173.2524771264
  0
LINE
  5
486
100
AcDbEntity
  8
0
100
AcDbLine
 62
7
  6
CONTINUOUS
 10
195.4479875813
 20
173.6064057391
 11
195.9479875813
 21
173.6064057391
  0
LINE
  5
487
100
AcDbEntity
  8
0
100
AcDbLine
 62
7
  6
CONTINUOUS
 10
195.4479875813
 20
174.7254813118
 11
195.9479875813
 21
174.7254813118
  0
LINE
  5
488
100
AcDbEntity
  8
RUNDUNGEN
100
AcDbLine
 62
7
  6
CONTINUOUS
 10
196.4479875813
 20
174.8164024051
 11
195.4479875813
 21
174.8164024051
  0
LINE
  5
489
100
AcDbEntity
  8
B-ACHSEN
100
AcDbLine
 62
7
  6
CONTINUOUS
 10
197.4479875813
 20
84.3164024051
 11
195.9479875813
 21
82.8164024051
  0
LINE
  5
48A
100
AcDbEntity
  8
RUNDUNGEN
100
AcDbLine
 62
7
  6
CONTINUOUS
 10
196.4479875813
 20
181.3164024051
 11
195.4479875813
 21
181.3164024051
  0
LINE
  5
48B
100
AcDbEntity
  8
B-ACHSEN
100
AcDbLine
 62
7
  6
CONTINUOUS
 10
179.4479875813
 20
188.8164024051
 11
195.4479875813
 21
188.8164024051
  0
ARC
  5
48C
100
AcDbEntity
  8
B-ACHSEN
100
AcDbCircle
 62
7
  6
CONTINUOUS
 10
74.0039433772
 20
136.2551607493
 40
55.0
100
AcDbArc
 50
14.7145988209
 51
72.8738937786
  0
ARC
  5
48D
100
AcDbEntity
  8
B-ACHSEN
100
AcDbCircle
 62
7
  6
CONTINUOUS
 10
76.1662283605
 20
95.2638941685
 40
36.2140469678
100
AcDbArc
 50
76.6300140826
 51
76.8552017909
  0
ARC
  5
48E
100
AcDbEntity
  8
B-ACHSEN
100
AcDbCircle
 62
7
  6
CONTINUOUS
 10
79.7501119241
 20
110.8164024051
 40
2.0
100
AcDbArc
 50
343.4282003014
 51
90.0
  0
ARC
  5
48F
100
AcDbEntity
  8
0
100
AcDbCircle
 62
7
  6
CONTINUOUS
 10
7.8762274482
 20
184.910343015
 40
124.3611907006
100
AcDbArc
 50
328.7075887346
 51
343.4119337188
  0
ARC
  5
490
100
AcDbEntity
  8
0
100
AcDbCircle
 62
7
  6
CONTINUOUS
 10
19.6552171107
 20
167.9763347629
 40
109.0
100
AcDbArc
 50
350.1909963959
 51
350.6274902652
  0
ARC
  5
491
100
AcDbEntity
  8
RUNDUNGEN
100
AcDbCircle
 62
7
  6
CONTINUOUS
 10
79.2001119241
 20
180.3164024051
 40
1.0
100
AcDbArc
 50
90.0
 51
180.0
  0
ARC
  5
492
100
AcDbEntity
  8
RUNDUNGEN
100
AcDbCircle
 62
7
  6
CONTINUOUS
 10
79.2001119241
 20
175.8164024051
 40
1.0
100
AcDbArc
 50
180.0
 51
270.0
  0
ARC
  5
493
100
AcDbEntity
  8
B-ACHSEN
100
AcDbCircle
 62
7
  6
CONTINUOUS
 10
106.3962804711
 20
136.2551607493
 40
55.0
100
AcDbArc
 50
107.1261062214
 51
165.2854011791
  0
ARC
  5
494
100
AcDbEntity
  8
B-ACHSEN
100
AcDbCircle
 62
7
  6
CONTINUOUS
 10
104.2338442276
 20
95.2645368643
 40
36.2133867027
100
AcDbArc
 50
103.1448716129
 51
103.3697317005
  0
ARC
  5
495
100
AcDbEntity
  8
B-ACHSEN
100
AcDbCircle
 62
7
  6
CONTINUOUS
 10
100.6501119241
 20
110.8164024051
 40
2.0
100
AcDbArc
 50
90.0
 51
196.5717996986
  0
ARC
  5
496
100
AcDbEntity
  8
0
100
AcDbCircle
 62
7
  6
CONTINUOUS
 10
172.5239964001
 20
184.910343015
 40
124.3611907006
100
AcDbArc
 50
196.5880662812
 51
211.2924112654
  0
ARC
  5
497
100
AcDbEntity
  8
0
100
AcDbCircle
 62
7
  6
CONTINUOUS
 10
160.7450067376
 20
167.9763347629
 40
109.0
100
AcDbArc
 50
189.3725097348
 51
189.8090036041
  0
ARC
  5
498
100
AcDbEntity
  8
RUNDUNGEN
100
AcDbCircle
 62
7
  6
CONTINUOUS
 10
90.2001119241
 20
149.8166209879
 40
20.0
100
AcDbArc
 50
253.6544879482
 51
286.3455317921
  0
ARC
  5
499
100
AcDbEntity
  8
0
100
AcDbCircle
 62
7
  6
CONTINUOUS
 10
90.2001119241
 20
149.8166209879
 40
20.0
100
AcDbArc
 50
246.4933063743
 51
253.6544879482
  0
ARC
  5
49A
100
AcDbEntity
  8
0
100
AcDbCircle
 62
7
  6
CONTINUOUS
 10
90.2001119241
 20
149.8166209879
 40
20.0
100
AcDbArc
 50
286.3455317921
 51
293.5067600663
  0
ARC
  5
49B
100
AcDbEntity
  8
RUNDUNGEN
100
AcDbCircle
 62
7
  6
CONTINUOUS
 10
90.2001119241
 20
149.8166209879
 40
20.0
100
AcDbArc
 50
352.8187182653
 51
187.1812817349
  0
ARC
  5
49C
100
AcDbEntity
  8
0
100
AcDbCircle
 62
7
  6
CONTINUOUS
 10
90.2001119241
 20
149.8166209879
 40
20.0
100
AcDbArc
 50
336.141462473
 51
203.8585487351
  0
ARC
  5
49D
100
AcDbEntity
  8
RUNDUNGEN
100
AcDbCircle
 62
7
  6
CONTINUOUS
 10
101.2001119241
 20
175.8164024051
 40
1.0
100
AcDbArc
 50
270.0
 51
360.0
  0
ARC
  5
49E
100
AcDbEntity
  8
RUNDUNGEN
100
AcDbCircle
 62
7
  6
CONTINUOUS
 10
101.2001119241
 20
180.3164024051
 40
1.0
100
AcDbArc
 50
0.0
 51
90.0
  0
ARC
  5
49F
100
AcDbEntity
  8
0
100
AcDbCircle
 62
7
  6
CONTINUOUS
 10
211.7103069515
 20
146.8164024051
 40
16.2623193701
100
AcDbArc
 50
180.0
 51
188.1848339689
  0
ARC
  5
4A0
100
AcDbEntity
  8
0
100
AcDbCircle
 62
7
  6
CONTINUOUS
 10
163.1856682112
 20
146.8164024051
 40
16.2623193701
100
AcDbArc
 50
351.8151660311
 51
360.0
  0
ARC
  5
4A1
100
AcDbEntity
  8
RUNDUNGEN
100
AcDbCircle
 62
7
  6
CONTINUOUS
 10
211.7103069515
 20
146.8164024051
 40
16.2623193701
100
AcDbArc
 50
188.1848339689
 51
256.3523343679
  0
ARC
  5
4A2
100
AcDbEntity
  8
RUNDUNGEN
100
AcDbCircle
 62
7
  6
CONTINUOUS
 10
163.1856682112
 20
146.8164024051
 40
16.2623193701
100
AcDbArc
 50
283.6476658352
 51
351.8151660311
  0
ARC
  5
4A3
100
AcDbEntity
  8
B-ACHSEN
100
AcDbCircle
 62
7
  6
CONTINUOUS
 10
176.9979875813
 20
110.8164024051
 40
2.0
100
AcDbArc
 50
343.4282003014
 51
90.0
  0
ARC
  5
4A4
100
AcDbEntity
  8
B-ACHSEN
100
AcDbCircle
 62
7
  6
CONTINUOUS
 10
197.8979875813
 20
110.8164024051
 40
2.0
100
AcDbArc
 50
90.0
 51
196.5717996986
  0
ARC
  5
4A5
100
AcDbEntity
  8
B-ACHSEN
100
AcDbCircle
 62
7
  6
CONTINUOUS
 10
207.4159474789
 20
129.1300397913
 40
1.9379263916
100
AcDbArc
 50
353.2901631922
 51
76.3523324605
  0
ARC
  5
4A6
100
AcDbEntity
  8
BEZUGSACHSEN
100
AcDbCircle
 62
7
  6
CONTINUOUS
 10
167.4800276837
 20
129.1300397913
 40
1.9379263916
100
AcDbArc
 50
103.6476658352
 51
186.7098368078
  0
SPLINE
  5
4A7
100
AcDbEntity
  8
0
100
AcDbSpline
 62
7
  6
CONTINUOUS
 70
0
 71
3
 72
19
 73
15
 74
0
 42
0.0000001
 43
0.0000001
 44
0.0000000001
 40
0.0
 40
0.0
 40
0.0
 40
0.0
 40
0.024585648
 40
0.0513289661
 40
0.1079687669
 40
0.1665696658
 40
0.2260213547
 40
0.2859014472
 40
0.3460726631
 40
0.4673677282
 40
0.5912176437
 40
0.7199341329
 40
0.8558482966
 40
1.0
 40
1.0
 40
1.0
 40
1.0
 10
108.4910068091
 20
141.7269336281
 30
0.0
 10
108.4407157106
 20
141.613223228
 30
0.0
 10
108.3433409232
 20
141.372505605
 30
0.0
 10
108.1461291021
 20
140.8633818251
 30
0.0
 10
107.8847506943
 20
140.194536311
 30
0.0
 10
107.5365477381
 20
139.3823395699
 30
0.0
 10
107.1451586873
 20
138.5716726672
 30
0.0
 10
106.7066013176
 20
137.7762135535
 30
0.0
 10
106.052462616
 20
136.7450385029
 30
0.0
 10
105.0917362945
 20
135.5284327418
 30
0.0
 10
103.6908903363
 20
134.2455516916
 30
0.0
 10
102.0348244919
 20
133.1734135496
 30
0.0
 10
100.1609433584
 20
132.2926021767
 30
0.0
 10
98.845741008
 20
131.7671208976
 30
0.0
 10
98.1772311325
 20
131.4763507395
 30
0.0
  0
SPLINE
  5
4A8
100
AcDbEntity
  8
0
100
AcDbSpline
 62
7
  6
CONTINUOUS
 70
0
 71
3
 72
19
 73
15
 74
0
 42
0.0000001
 43
0.0000001
 44
0.0000000001
 40
0.0
 40
0.0
 40
0.0
 40
0.0
 40
0.1441505776
 40
0.2800643593
 40
0.408780979
 40
0.5326317153
 40
0.6539280757
 40
0.7140996635
 40
0.7739802564
 40
0.8334319458
 40
0.8920330509
 40
0.9486733059
 40
0.9754143433
 40
1.0
 40
1.0
 40
1.0
 40
1.0
 10
82.2229933006
 20
131.4763492735
 30
0.0
 10
81.5544810488
 20
131.7671195448
 30
0.0
 10
80.2392715021
 20
132.2926027868
 30
0.0
 10
78.3653722919
 20
133.1734150262
 30
0.0
 10
76.7093007435
 20
134.245588319
 30
0.0
 10
75.308427725
 20
135.5284871412
 30
0.0
 10
74.3476988547
 20
136.7451291488
 30
0.0
 10
73.6935514742
 20
137.7763273315
 30
0.0
 10
73.2550003981
 20
138.5718063223
 30
0.0
 10
72.8636073908
 20
139.3824857559
 30
0.0
 10
72.5153985677
 20
140.1946945934
 30
0.0
 10
72.2540576859
 20
140.8635543721
 30
0.0
 10
72.0568020377
 20
141.3726574155
 30
0.0
 10
71.9594452603
 20
141.6133729788
 30
0.0
 10
71.9091533915
 20
141.727084563
 30
0.0
  0
SPLINE
  5
4A9
100
AcDbEntity
  8
RUNDUNGEN
100
AcDbSpline
 62
7
  6
CONTINUOUS
 70
0
 71
3
 72
9
 73
5
 74
0
 42
0.0000001
 43
0.0000001
 44
0.0000000001
 40
0.0
 40
0.0
 40
0.0
 40
0.0
 40
0.4997899559
 40
1.0
 40
1.0
 40
1.0
 40
1.0
 10
98.0195737547
 20
131.0132472341
 30
0.0
 10
97.6495953988
 20
130.9816929058
 30
0.0
 10
96.9114022853
 20
130.8906282149
 30
0.0
 10
96.1842108141
 20
130.7292333754
 30
0.0
 10
95.8275890721
 20
130.6246749047
 30
0.0
  0
SPLINE
  5
4AA
100
AcDbEntity
  8
RUNDUNGEN
100
AcDbSpline
 62
7
  6
CONTINUOUS
 70
0
 71
3
 72
9
 73
5
 74
0
 42
0.0000001
 43
0.0000001
 44
0.0000000001
 40
0.0
 40
0.0
 40
0.0
 40
0.0
 40
0.500200426
 40
1.0
 40
1.0
 40
1.0
 40
1.0
 10
84.5727907637
 20
130.6246269559
 30
0.0
 10
84.2161450971
 20
130.7291801405
 30
0.0
 10
83.4889008343
 20
130.890591132
 30
0.0
 10
82.7506536209
 20
130.9816925071
 30
0.0
 10
82.3806395087
 20
131.0132481639
 30
0.0
  0
SPLINE
  5
4AB
100
AcDbEntity
  8
RUNDUNGEN
100
AcDbSpline
 62
7
  6
CONTINUOUS
 70
0
 71
3
 72
9
 73
5
 74
0
 42
0.0000001
 43
0.0000001
 44
0.0000000001
 40
0.0
 40
0.0
 40
0.0
 40
0.0
 40
0.2578867301
 40
1.0
 40
1.0
 40
1.0
 40
1.0
 10
74.3443498314
 20
132.6158446708
 30
0.0
 10
74.5681370441
 20
132.5555637194
 30
0.0
 10
75.4345795638
 20
132.3168488321
 30
0.0
 10
76.296418482
 20
132.0618296855
 30
0.0
 10
76.9352716236
 20
131.8703195616
 30
0.0
  0
SPLINE
  5
4AC
100
AcDbEntity
  8
RUNDUNGEN
100
AcDbSpline
 62
7
  6
CONTINUOUS
 70
0
 71
3
 72
9
 73
5
 74
0
 42
0.0000001
 43
0.0000001
 44
0.0000000001
 40
0.0
 40
0.0
 40
0.0
 40
0.0
 40
0.2416506085
 40
1.0
 40
1.0
 40
1.0
 40
1.0
 10
103.4649561186
 20
131.8703207111
 30
0.0
 10
103.6729809417
 20
131.9326807326
 30
0.0
 10
104.5340750351
 20
132.1898812105
 30
0.0
 10
105.3978094061
 20
132.4385840296
 30
0.0
 10
106.0558793669
 20
132.615846605
 30
0.0
  0
SPLINE
  5
4AD
100
AcDbEntity
  8
RUNDUNGEN
100
AcDbSpline
 62
7
  6
CONTINUOUS
 70
0
 71
3
 72
9
 73
5
 74
0
 42
0.0000001
 43
0.0000001
 44
0.0000000001
 40
0.0
 40
0.0
 40
0.0
 40
0.0
 40
0.5139704854
 40
1.0
 40
1.0
 40
1.0
 40
1.0
 10
81.654594788
 20
131.0132489018
 30
0.0
 10
80.8358681308
 20
131.0939216154
 30
0.0
 10
79.2467974045
 20
131.2964829607
 30
0.0
 10
77.6804762522
 20
131.6469283081
 30
0.0
 10
76.9352716236
 20
131.8703195616
 30
0.0
  0
SPLINE
  5
4AE
100
AcDbEntity
  8
B-ACHSEN
100
AcDbSpline
 62
7
  6
CONTINUOUS
 70
0
 71
3
 72
10
 73
6
 74
0
 42
0.0000001
 43
0.0000001
 44
0.0000000001
 40
0.0
 40
0.0
 40
0.0
 40
0.0
 40
0.5030664294
 40
0.7528698036
 40
1.0
 40
1.0
 40
1.0
 40
1.0
 10
90.2001119241
 20
128.903610054
 30
0.0
 10
89.2542040382
 20
129.1821524806
 30
0.0
 10
87.8412931956
 20
129.6082476799
 30
0.0
 10
85.9549276208
 20
130.1410815879
 30
0.0
 10
85.0115785861
 20
130.3844318468
 30
0.0
 10
84.5403025961
 20
130.4964370583
 30
0.0
  0
SPLINE
  5
4AF
100
AcDbEntity
  8
B-ACHSEN
100
AcDbSpline
 62
7
  6
CONTINUOUS
 70
0
 71
3
 72
9
 73
5
 74
0
 42
0.0000001
 43
0.0000001
 44
0.0000000001
 40
0.0
 40
0.0
 40
0.0
 40
0.0
 40
0.5060564926
 40
1.0
 40
1.0
 40
1.0
 40
1.0
 10
84.4017649768
 20
130.5290772026
 30
0.0
 10
83.9433060172
 20
130.6361343929
 30
0.0
 10
83.0331867013
 20
130.8302940921
 30
0.0
 10
82.1119040307
 20
130.9681882191
 30
0.0
 10
81.6545947947
 20
131.0132489018
 30
0.0
  0
SPLINE
  5
4B0
100
AcDbEntity
  8
B-ACHSEN
100
AcDbSpline
 62
7
  6
CONTINUOUS
 70
0
 71
3
 72
9
 73
5
 74
0
 42
0.0000001
 43
0.0000001
 44
0.0000000001
 40
0.0
 40
0.0
 40
0.0
 40
0.0
 40
0.4939434379
 40
1.0
 40
1.0
 40
1.0
 40
1.0
 10
98.7456291797
 20
131.0132489154
 30
0.0
 10
98.2883122014
 20
130.9681874723
 30
0.0
 10
97.367013878
 20
130.8302902746
 30
0.0
 10
96.4568792916
 20
130.6361260232
 30
0.0
 10
95.9984125852
 20
130.5290663825
 30
0.0
  0
SPLINE
  5
4B1
100
AcDbEntity
  8
B-ACHSEN
100
AcDbSpline
 62
7
  6
CONTINUOUS
 70
0
 71
3
 72
10
 73
6
 74
0
 42
0.0000001
 43
0.0000001
 44
0.0000000001
 40
0.0
 40
0.0
 40
0.0
 40
0.0
 40
0.2471299962
 40
0.496933348
 40
1.0
 40
1.0
 40
1.0
 40
1.0
 10
95.8600789918
 20
130.4964745381
 30
0.0
 10
95.3887898991
 20
130.384468399
 30
0.0
 10
94.445414588
 20
130.1411141038
 30
0.0
 10
92.5589963908
 20
129.6082676624
 30
0.0
 10
91.1460463066
 20
129.1821602831
 30
0.0
 10
90.2001119241
 20
128.903610054
 30
0.0
  0
SPLINE
  5
4B2
100
AcDbEntity
  8
RUNDUNGEN
100
AcDbSpline
 62
7
  6
CONTINUOUS
 70
0
 71
3
 72
9
 73
5
 74
0
 42
0.0000001
 43
0.0000001
 44
0.0000000001
 40
0.0
 40
0.0
 40
0.0
 40
0.0
 40
0.486029519
 40
1.0
 40
1.0
 40
1.0
 40
1.0
 10
103.4649561186
 20
131.8703207111
 30
0.0
 10
102.7197509197
 20
131.6469291157
 30
0.0
 10
101.1534285295
 20
131.2964832322
 30
0.0
 10
99.5643565
 20
131.0939217013
 30
0.0
 10
98.7456291797
 20
131.0132489154
 30
0.0
  0
SPLINE
  5
4B3
100
AcDbEntity
  8
RUNDUNGEN
100
AcDbSpline
 62
7
  6
CONTINUOUS
 70
0
 71
3
 72
14
 73
10
 74
0
 42
0.0000001
 43
0.0000001
 44
0.0000000001
 40
0.0
 40
0.0
 40
0.0
 40
0.0
 40
0.1307670493
 40
0.2593552054
 40
0.3860098756
 40
0.511071673
 40
0.6348207574
 40
0.7574700155
 40
1.0
 40
1.0
 40
1.0
 40
1.0
 10
125.4891761734
 20
144.5011850847
 30
0.0
 10
124.9616924735
 20
143.6353047443
 30
0.0
 10
123.7196498544
 20
142.0345075889
 30
0.0
 10
121.5264988506
 20
139.9867554892
 30
0.0
 10
119.1450825119
 20
138.2385054784
 30
0.0
 10
116.6460456534
 20
136.7389926192
 30
0.0
 10
114.0683398637
 20
135.4487385893
 30
0.0
 10
110.5728862026
 20
133.9768131428
 30
0.0
 10
107.8716063959
 20
133.1049440357
 30
0.0
 10
106.0558793669
 20
132.615846605
 30
0.0
  0
SPLINE
  5
4B4
100
AcDbEntity
  8
RUNDUNGEN
100
AcDbSpline
 62
7
  6
CONTINUOUS
 70
0
 71
3
 72
14
 73
10
 74
0
 42
0.0000001
 43
0.0000001
 44
0.0000000001
 40
0.0
 40
0.0
 40
0.0
 40
0.0
 40
0.2425299535
 40
0.3651792058
 40
0.48892829
 40
0.6139901053
 40
0.7406448002
 40
0.8692329853
 40
1.0
 40
1.0
 40
1.0
 40
1.0
 10
74.3443498314
 20
132.6158446708
 30
0.0
 10
72.5286225073
 20
133.1049420629
 30
0.0
 10
69.8273421676
 20
133.9768111179
 30
0.0
 10
66.331887794
 20
135.4487368622
 30
0.0
 10
63.7541814773
 20
136.7389917759
 30
0.0
 10
61.2551430751
 20
138.2385041695
 30
0.0
 10
58.8737250372
 20
139.9867543167
 30
0.0
 10
56.6805743415
 20
142.034508177
 30
0.0
 10
55.4385312003
 20
143.6353054874
 30
0.0
 10
54.9110474306
 20
144.5011857959
 30
0.0
  0
LINE
  5
4B5
100
AcDbEntity
  8
0
100
AcDbLine
 62
7
  6
CONTINUOUS
 10
208.0335729108
 20
120.4866150912
 11
208.1134773481
 21
121.1249130662
  0
SPLINE
  5
4B6
100
AcDbEntity
  8
0
100
AcDbSpline
 62
7
  6
CONTINUOUS
 70
0
 71
3
 72
8
 73
4
 74
0
 42
0.0000001
 43
0.0000001
 44
0.0000000001
 40
0.0
 40
0.0
 40
0.0
 40
0.0
 40
1.0
 40
1.0
 40
1.0
 40
1.0
 10
206.8078378321
 20
118.3164024051
 30
0.0
 10
207.0709962748
 20
120.3162688239
 30
0.0
 10
207.3330980575
 20
122.3162745091
 30
0.0
 10
207.5942617204
 20
124.3164024051
 30
0.0
  0
LINE
  5
4B7
100
AcDbEntity
  8
0
100
AcDbLine
 62
7
  6
CONTINUOUS
 10
208.3101568563
 20
122.9121472534
 11
208.2796498369
 21
122.6568277772
  0
LINE
  5
4B8
100
AcDbEntity
  8
0
100
AcDbLine
 62
7
  6
CONTINUOUS
 10
205.6869414125
 20
123.4227854904
 11
205.5468277398
 21
122.4015086587
  0
SPLINE
  5
4B9
100
AcDbEntity
  8
0
100
AcDbSpline
 62
7
  6
CONTINUOUS
 70
0
 71
3
 72
8
 73
4
 74
0
 42
0.0000001
 43
0.0000001
 44
0.0000000001
 40
0.0
 40
0.0
 40
0.0
 40
0.0
 40
1.0
 40
1.0
 40
1.0
 40
1.0
 10
205.3424295614
 20
118.3164024051
 30
0.0
 10
205.5272599448
 20
119.6780109079
 30
0.0
 10
205.7113912806
 20
121.0397144543
 30
0.0
 10
205.8948840896
 20
122.4015038561
 30
0.0
  0
LINE
  5
4BA
100
AcDbEntity
  8
0
100
AcDbLine
 62
7
  6
CONTINUOUS
 10
209.7012682628
 20
123.8164024051
 11
209.6523452554
 21
123.4014542997
  0
LINE
  5
4BB
100
AcDbEntity
  8
0
100
AcDbLine
 62
7
  6
CONTINUOUS
 10
209.6523452554
 20
123.4014542997
 11
209.5923280597
 21
122.8924251715
  0
LINE
  5
4BC
100
AcDbEntity
  8
0
100
AcDbLine
 62
7
  6
CONTINUOUS
 10
209.5923280597
 20
122.8924251715
 11
209.5622208552
 21
122.6370787957
  0
LINE
  5
4BD
100
AcDbEntity
  8
0
100
AcDbLine
 62
7
  6
CONTINUOUS
 10
209.5622208552
 20
122.6370787957
 11
209.5018085781
 21
122.1247122555
  0
LINE
  5
4BE
100
AcDbEntity
  8
0
100
AcDbLine
 62
7
  6
CONTINUOUS
 10
209.5018085781
 20
122.1247122555
 11
209.4562320651
 21
121.7381704018
  0
LINE
  5
4BF
100
AcDbEntity
  8
0
100
AcDbLine
 62
7
  6
CONTINUOUS
 10
209.4562320651
 20
121.7381704018
 11
209.1117368981
 21
118.8164024051
  0
LINE
  5
4C0
100
AcDbEntity
  8
0
100
AcDbLine
 62
7
  6
CONTINUOUS
 10
208.1182946625
 20
118.9547002908
 11
208.0393400662
 21
118.3164024051
  0
LINE
  5
4C1
100
AcDbEntity
  8
0
100
AcDbLine
 62
7
  6
CONTINUOUS
 10
207.5502876989
 20
121.1249130662
 11
207.4681355847
 21
120.4866150912
  0
SPLINE
  5
4C2
100
AcDbEntity
  8
0
100
AcDbSpline
 62
7
  6
CONTINUOUS
 70
0
 71
3
 72
9
 73
5
 74
0
 42
0.0000001
 43
0.0000001
 44
0.0000000001
 40
0.0
 40
0.0
 40
0.0
 40
0.0
 40
0.4876670461
 40
1.0
 40
1.0
 40
1.0
 40
1.0
 10
177.5597764772
 20
120.3164024051
 30
0.0
 10
178.1327694726
 20
124.2183356265
 30
0.0
 10
178.9808844175
 20
132.2695515444
 30
0.0
 10
179.2650367398
 20
140.3579674677
 30
0.0
 10
179.2823387784
 20
144.5011857959
 30
0.0
  0
LINE
  5
4C3
100
AcDbEntity
  8
0
100
AcDbLine
 62
7
  6
CONTINUOUS
 10
206.8506155978
 20
123.4227854904
 11
206.7126857227
 21
122.4015086587
  0
SPLINE
  5
4C4
100
AcDbEntity
  8
0
100
AcDbSpline
 62
7
  6
CONTINUOUS
 70
0
 71
3
 72
9
 73
5
 74
0
 42
0.0000001
 43
0.0000001
 44
0.0000000001
 40
0.0
 40
0.0
 40
0.0
 40
0.0
 40
0.512333227
 40
1.0
 40
1.0
 40
1.0
 40
1.0
 10
195.6136363843
 20
144.5011857959
 30
0.0
 10
195.6309384321
 20
140.3579652589
 30
0.0
 10
195.9150908715
 20
132.2695493282
 30
0.0
 10
196.7632060109
 20
124.2183334414
 30
0.0
 10
197.3361986855
 20
120.3164024051
 30
0.0
  0
SPLINE
  5
4C5
100
AcDbEntity
  8
0
100
AcDbSpline
 62
7
  6
CONTINUOUS
 70
0
 71
3
 72
8
 73
4
 74
0
 42
0.0000001
 43
0.0000001
 44
0.0000000001
 40
0.0
 40
0.0
 40
0.0
 40
0.0
 40
1.0
 40
1.0
 40
1.0
 40
1.0
 10
207.1587390101
 20
123.2951259311
 30
0.0
 10
206.9384304547
 20
121.6354443038
 30
0.0
 10
206.7173443127
 20
119.9758656677
 30
0.0
 10
206.4953969235
 20
118.3164024051
 30
0.0
  0
LINE
  5
4C6
100
AcDbEntity
  8
0
100
AcDbLine
 62
7
  6
CONTINUOUS
 10
207.0571084803
 20
118.9547002908
 11
206.9777353597
 21
118.3164024051
  0
ELLIPSE
  5
4C7
100
AcDbEntity
  8
0
100
AcDbEllipse
 62
7
  6
CONTINUOUS
 10
187.4479875813
 20
124.0260536955
 30
0.0
 11
22.2976845958
 21
0.0
 31
0.0
 40
0.4260661156
 41
-0.0893740289
 42
-0.0781367107
  0
ELLIPSE
  5
4C8
100
AcDbEntity
  8
0
100
AcDbEllipse
 62
7
  6
CONTINUOUS
 10
187.4479875813
 20
128.680589581
 30
0.0
 11
0.0
 21
29.199903781
 31
0.0
 40
0.7744488441
 41
-1.7640829294
 42
-1.7603716944
  0
ELLIPSE
  5
4C9
100
AcDbEntity
  8
0
100
AcDbEllipse
 62
7
  6
CONTINUOUS
 10
187.4479875813
 20
124.9801009162
 30
0.0
 11
0.0
 21
28.6441361025
 31
0.0
 40
0.7744488441
 41
-1.6822179047
 42
-1.6784813641
  0
ELLIPSE
  5
4CA
100
AcDbEntity
  8
0
100
AcDbEllipse
 62
7
  6
CONTINUOUS
 10
187.4479875813
 20
121.8930484927
 30
0.0
 11
22.0470574673
 21
0.0
 31
0.0
 40
0.4260661156
 41
-0.0217513949
 42
-0.0104247055
  0
ELLIPSE
  5
4CB
100
AcDbEntity
  8
0
100
AcDbEllipse
 62
7
  6
CONTINUOUS
 10
187.4479875813
 20
128.9841946558
 30
0.0
 11
0.0
 21
25.736054097
 31
0.0
 40
0.882342931
 41
-1.9711086446
 42
-1.8551931069
  0
ELLIPSE
  5
4CC
100
AcDbEntity
  8
0
100
AcDbEllipse
 62
7
  6
CONTINUOUS
 10
187.4479875813
 20
138.6469907813
 30
0.0
 11
0.0
 21
46.04516703
 31
0.0
 40
0.5087973701
 41
-1.9462328207
 42
-1.9373082384
  0
ELLIPSE
  5
4CD
100
AcDbEntity
  8
0
100
AcDbEllipse
 62
7
  6
CONTINUOUS
 10
187.4479875813
 20
253.8147685474
 30
0.0
 11
-0.0
 21
191.9737711702
 31
0.0
 40
0.1565567611
 41
-2.3265914868
 42
-2.3229426188
  0
ELLIPSE
  5
4CE
100
AcDbEntity
  8
0
100
AcDbEllipse
 62
7
  6
CONTINUOUS
 10
187.4479875813
 20
204.6766145472
 30
0.0
 11
-0.0
 21
162.4540388533
 31
0.0
 40
0.1565567611
 41
-2.0982194379
 42
-2.094585672
  0
ELLIPSE
  5
4CF
100
AcDbEntity
  8
0
100
AcDbEllipse
 62
7
  6
CONTINUOUS
 10
187.4479875813
 20
123.6087513864
 30
0.0
 11
-0.0
 21
28.4382170272
 31
0.0
 40
0.7744477107
 41
-1.5773356686
 42
-1.5593793173
  0
ELLIPSE
  5
4D0
100
AcDbEntity
  8
0
100
AcDbEllipse
 62
7
  6
CONTINUOUS
 10
187.4479875813
 20
122.698184287
 30
0.0
 11
22.1068631357
 21
0.0
 31
0.0
 40
0.6401048454
 41
0.0874029322
 42
0.1055303072
  0
ELLIPSE
  5
4D1
100
AcDbEntity
  8
0
100
AcDbEllipse
 62
7
  6
CONTINUOUS
 10
187.4479875813
 20
123.4562244565
 30
0.0
 11
22.2516660659
 21
0.0
 31
0.0
 40
0.2128326193
 41
0.1552976509
 42
0.1826437681
  0
ELLIPSE
  5
4D2
100
AcDbEntity
  8
0
100
AcDbEllipse
 62
7
  6
CONTINUOUS
 10
187.4479875813
 20
145.3040000191
 30
0.0
 11
-0.0
 21
47.5448699871
 31
0.0
 40
0.5087973701
 41
-2.0611779138
 42
-2.0520687573
  0
ELLIPSE
  5
4D3
100
AcDbEntity
  8
0
100
AcDbEllipse
 62
7
  6
CONTINUOUS
 10
187.4479875813
 20
130.2815484451
 30
0.0
 11
22.9457316371
 21
-0.0
 31
0.0
 40
0.8553620495
 41
-0.363942697
 42
-0.3500585602
  0
ELLIPSE
  5
4D4
100
AcDbEntity
  8
0
100
AcDbEllipse
 62
7
  6
CONTINUOUS
 10
187.4479875813
 20
125.1524661087
 30
0.0
 11
22.4480644751
 21
0.0
 31
0.0
 40
0.2554341828
 41
-0.2831583808
 42
-0.2600470729
  0
ELLIPSE
  5
4D5
100
AcDbEntity
  8
0
100
AcDbEllipse
 62
7
  6
CONTINUOUS
 10
187.4479875813
 20
145.1090520709
 30
0.0
 11
-0.0
 21
36.9451642574
 31
0.0
 40
0.6610410295
 41
-2.2327109917
 42
-2.2024010164
  0
ELLIPSE
  5
4D6
100
AcDbEntity
  8
0
100
AcDbEllipse
 62
7
  6
CONTINUOUS
 10
187.4479875813
 20
125.3122658761
 30
0.0
 11
21.4651593052
 21
0.0
 31
0.0
 40
0.1824128886
 41
-0.2910318377
 42
-0.257162474
  0
ELLIPSE
  5
4D7
100
AcDbEntity
  8
0
100
AcDbEllipse
 62
7
  6
CONTINUOUS
 10
187.4479875813
 20
128.8762446835
 30
0.0
 11
21.8275879111
 21
0.0
 31
0.0
 40
0.6401048454
 41
-0.3615961014
 42
-0.3421294365
  0
ELLIPSE
  5
4D8
100
AcDbEntity
  8
0
100
AcDbEllipse
 62
7
  6
CONTINUOUS
 10
187.4479875813
 20
136.0799807704
 30
0.0
 11
0.0
 21
29.0258224887
 31
0.0
 40
0.7744482774
 41
-2.0220196236
 42
-2.0025609916
  0
ELLIPSE
  5
4D9
100
AcDbEntity
  8
0
100
AcDbEllipse
 62
7
  6
CONTINUOUS
 10
187.4479875813
 20
277.346017364
 30
0.0
 11
-0.0
 21
200.9685729261
 31
0.0
 40
0.1565567611
 41
-2.447208385
 42
-2.4432471185
  0
ELLIPSE
  5
4DA
100
AcDbEntity
  8
0
100
AcDbEllipse
 62
7
  6
CONTINUOUS
 10
187.4479875813
 20
150.8759325847
 30
0.0
 11
0.0
 21
62.4960311784
 31
0.0
 40
0.3735795649
 41
-2.048459407
 42
-2.0392805531
  0
ELLIPSE
  5
4DB
100
AcDbEntity
  8
0
100
AcDbEllipse
 62
7
  6
CONTINUOUS
 10
187.4479875813
 20
129.9565913731
 30
0.0
 11
-0.0
 21
25.0947840567
 31
0.0
 40
0.8694096309
 41
-1.9304526295
 42
-1.887289748
  0
ELLIPSE
  5
4DC
100
AcDbEntity
  8
0
100
AcDbEllipse
 62
7
  6
CONTINUOUS
 10
187.4479875813
 20
129.9565913731
 30
0.0
 11
-0.0
 21
25.0947840567
 31
0.0
 40
0.8694096309
 41
-2.0246290096
 42
-1.9577527139
  0
ELLIPSE
  5
4DD
100
AcDbEntity
  8
0
100
AcDbEllipse
 62
7
  6
CONTINUOUS
 10
187.4479875813
 20
145.8915778786
 30
0.0
 11
0.0
 21
35.5826297586
 31
0.0
 40
0.6610413025
 41
-2.2542231844
 42
-2.2222463452
  0
ELLIPSE
  5
4DE
100
AcDbEntity
  8
0
100
AcDbEllipse
 62
7
  6
CONTINUOUS
 10
187.4479875813
 20
125.3162075165
 30
0.0
 11
22.4722877731
 21
-0.0
 31
0.0
 40
0.1824128886
 41
-0.2786341223
 42
-0.2463857073
  0
ELLIPSE
  5
4DF
100
AcDbEntity
  8
0
100
AcDbEllipse
 62
7
  6
CONTINUOUS
 10
187.4479875813
 20
128.9247811541
 30
0.0
 11
22.8373355946
 21
-0.0
 31
0.0
 40
0.6401048454
 41
-0.3484550051
 42
-0.3299337379
  0
ELLIPSE
  5
4E0
100
AcDbEntity
  8
0
100
AcDbEllipse
 62
7
  6
CONTINUOUS
 10
187.4479875813
 20
136.2774871494
 30
0.0
 11
-0.0
 21
30.3408856387
 31
0.0
 40
0.7744482774
 41
-2.008295919
 42
-1.9897948928
  0
ELLIPSE
  5
4E1
100
AcDbEntity
  8
0
100
AcDbEllipse
 62
7
  6
CONTINUOUS
 10
187.4479875813
 20
282.1790787078
 30
0.0
 11
-0.0
 21
209.0136225917
 31
0.0
 40
0.1565567611
 41
-2.4371815858
 42
-2.4334173041
  0
ELLIPSE
  5
4E2
100
AcDbEntity
  8
0
100
AcDbEllipse
 62
7
  6
CONTINUOUS
 10
187.4479875813
 20
122.6480814583
 30
0.0
 11
22.1535639337
 21
0.0
 31
0.0
 40
0.2554341828
 41
0.1601463024
 42
0.1830426211
  0
ELLIPSE
  5
4E3
100
AcDbEntity
  8
0
100
AcDbEllipse
 62
7
  6
CONTINUOUS
 10
187.4479875813
 20
121.8566653779
 30
0.0
 11
21.9595496629
 21
0.0
 31
0.0
 40
0.8553620495
 41
0.0766566736
 42
0.0902971087
  0
ELLIPSE
  5
4E4
100
AcDbEntity
  8
0
100
AcDbEllipse
 62
7
  6
CONTINUOUS
 10
187.4479875813
 20
125.5347006274
 30
0.0
 11
-0.0
 21
43.0912068332
 31
0.0
 40
0.5087973701
 41
-1.6316944836
 42
-1.6227926467
  0
ELLIPSE
  5
4E5
100
AcDbEntity
  8
0
100
AcDbEllipse
 62
7
  6
CONTINUOUS
 10
187.4479875813
 20
151.724721578
 30
0.0
 11
0.0
 21
65.3217888438
 31
0.0
 40
0.3735795649
 41
-2.040713733
 42
-2.031965421
  0
ELLIPSE
  5
4E6
100
AcDbEntity
  8
0
100
AcDbEllipse
 62
7
  6
CONTINUOUS
 10
187.4479875813
 20
130.1133087195
 30
0.0
 11
0.0
 21
26.2634776689
 31
0.0
 40
0.8694096309
 41
-2.0096164804
 42
-1.8790064089
  0
ELLIPSE
  5
4E7
100
AcDbEntity
  8
0
100
AcDbEllipse
 62
7
  6
CONTINUOUS
 10
187.4479875813
 20
146.162664929
 30
0.0
 11
-0.0
 21
37.1297624663
 31
0.0
 40
0.6610413025
 41
-2.2299441794
 42
-2.1998453024
  0
ENDSEC
  0
SECTION
  2
OBJECTS
  0
DICTIONARY
  5
C
100
AcDbDictionary
280
0
281
1
  3
ACAD_GROUP
350
D
  3
ACAD_MLINESTYLE
350
17
  3
ACAD_LAYOUT
350
1A
  3
ACAD_PLOTSETTINGS
350
19
  3
ACAD_PLOTSTYLENAME
350
E
  0
DICTIONARY
  5
D
102
{ACAD_REACTORS
330
C
102
}
100
AcDbDictionary
280
0
281
1
  0
ACDBDICTIONARYWDFLT
  5
E
102
{ACAD_REACTORS
330
C
102
}
100
AcDbDictionary
281
1
  3
Normal
350
F
100
AcDbDictionaryWithDefault
340
F
  0
DICTIONARY
  5
17
102
{ACAD_REACTORS
330
C
102
}
100
AcDbDictionary
280
0
281
1
  3
Standard
350
18
  0
DICTIONARY
  5
19
102
{ACAD_REACTORS
330
C
102
}
100
AcDbDictionary
281
1
  0
DICTIONARY
  5
1A
102
{ACAD_REACTORS
330
C
102
}
100
AcDbDictionary
281
1
  3
Model
350
4E8
  3
Layout1
350
4E9
  0
ACDBPLACEHOLDER
  5
F
102
{ACAD_REACTORS
330
E
102
}
  0
MLINESTYLE
  5
18
102
{ACAD_REACTORS
330
17
102
}
100
AcDbMlineStyle
  2
STANDARD
 70
0
  3

 62
256
 51
90.0
 52
90.0
 71
2
 49
0.5
 62
256
  6
BYLAYER
 49
-0.5
 62
256
  6
BYLAYER
  0
LAYOUT
  5
4E8
102
{ACAD_REACTORS
330
1A
102
}
100
AcDbPlotSettings
  1

  2
none_device
  4
ISO_A4_(297.00_x_210.00_MM)
  6

 40
0.0
 41
0.0
 42
0.0
 43
0.0
 44
297.0
 45
210.0
 46
0.0
 47
0.0
 48
0.0
 49
0.0
140
0.0
141
0.0
142
1.0
143
1.0
 70
1024
 72
1
 73
0
 74
0
  7

 75
0
147
1.0
148
0.0
149
0.0
100
AcDbLayout
  1
Model
 70
0
 71
0
 10
0.0
 20
0.0
 11
297.0
 21
210.0
 12
0.0
 22
0.0
 32
0.0
 14
0.0
 24
0.0
 34
0.0
 15
0.0
 25
0.0
 35
0.0
146
0.0
 13
0.0
 23
0.0
 33
0.0
 16
1.0
 26
0.0
 36
0.0
 17
0.0
 27
1.0
 37
0.0
 76
0
330
210
345
0
346
0
  0
LAYOUT
  5
4E9
102
{ACAD_REACTORS
330
1A
102
}
100
AcDbPlotSettings
  1

  2
none_device
  4
ISO_A4_(297.00_x_210.00_MM)
  6

 40
0.0
 41
0.0
 42
0.0
 43
0.0
 44
297.0
 45
210.0
 46
0.0
 47
0.0
 48
0.0
 49
0.0
140
0.0
141
0.0
142
1.0
143
1.0
 70
0
 72
1
 73
0
 74
0
  7

 75
0
147
1.0
148
0.0
149
0.0
100
AcDbLayout
  1
Layout1
 70
0
 71
1
 10
0.0
 20
0.0
 11
297.0
 21
210.0
 12
0.0
 22
0.0
 32
0.0
 14
0.0
 24
0.0
 34
0.0
 15
0.0
 25
0.0
 35
0.0
146
0.0
 13
0.0
 23
0.0
 33
0.0
 16
1.0
 26
0.0
 36
0.0
 17
0.0
 27
1.0
 37
0.0
 76
0
330
211
345
0
346
0
  0
ENDSEC
  0
EOF
