999
DXF file: PSA-INOX-STAR-M20_7901252_M34244-P-1.dxf
999
Pro/ENGINEER 2010140 by Parametric Technology Corporation
  0
SECTION
  2
HEADER
  9
$ACADVER
  1
AC1015
  9
$DWGCODEPAGE
  3
ANSI_1252
  9
$EXTMAX
 10
297.0
 20
210.0
 30
0.0
  9
$EXTMIN
 10
0.0
 20
0.0
 30
0.0
  9
$LIMMIN
 10
0.0
 20
0.0
  9
$LIMMAX
 10
297.0
 20
210.0
  9
$VIEWCTR
 10
148.5
 20
105.0
  9
$VIEWSIZE
 40
210.0
  9
$CLAYER
  8
0
  9
$LTSCALE
 40
16.335
  9
$CELTYPE
  6
BYLAYER
  9
$DIMSCALE
 40
1.0
  9
$DIMASZ
 40
3.5
  9
$DIMEXO
 40
1.85625
  9
$DIMDLI
 40
11.286
  9
$DIMEXE
 40
5.346
  9
$DIMCEN
 40
2.673
  9
$DIMLFAC
 40
1.0
  9
$DIMBLK
  1
_FILLED
  9
$DIMTXT
 40
3.5
  9
$DIMTOL
 70
1
  9
$DIMLIM
 70
0
  9
$DIMTFAC
 40
1.0
  9
$DIMTP
 40
0.005
  9
$DIMTM
 40
0.005
  9
$PDMODE
 70
3
  9
$PDSIZE
 40
0.3125
  9
$HANDSEED
  5
4EA
  9
$TILEMODE
 70
1
  9
$MEASUREMENT
 70
1
  9
$INSUNITS
 70
4
  0
ENDSEC
  0
SECTION
  2
CLASSES
  0
CLASS
  1
ACDBDICTIONARYWDFLT
  2
AcDbDictionaryWithDefault
  3
AutoCAD 2000
 90
0
280
0
281
0
  0
CLASS
  1
ACDBPLACEHOLDER
  2
AcDbPlaceHolder
  3
AutoCAD 2000
 90
0
280
0
281
0
  0
CLASS
  1
LAYOUT
  2
AcDbLayout
  3
AutoCAD 2000
 90
0
280
0
281
0
  0
ENDSEC
  0
SECTION
  2
TABLES
  0
TABLE
  2
VPORT
  5
8
100
AcDbSymbolTable
 70
2
  0
VPORT
  5
1F4
100
AcDbSymbolTableRecord
100
AcDbViewportTableRecord
  2
*ACTIVE
 70
0
 10
0.0
 20
0.0
 11
1.0
 21
1.0
 12
148.5
 22
105.0
 13
0.0
 23
0.0
 14
1.0
 24
1.0
 15
0.0
 25
0.0
 16
0.0
 26
0.0
 36
1.0
 17
0.0
 27
0.0
 37
0.0
 40
210.0
 41
1.4142857143
 42
50.0
 43
0.0
 44
0.0
 50
0.0
 51
0.0
 71
0
 72
100
 73
1
 74
1
 75
0
 76
0
 77
0
 78
0
  0
ENDTAB
  0
TABLE
  2
LTYPE
  5
5
100
AcDbSymbolTable
 70
6
  0
LTYPE
  5
14
100
AcDbSymbolTableRecord
100
AcDbLinetypeTableRecord
  2
BYBLOCK
 70
0
  3

 72
65
 73
0
 40
0.0
  0
LTYPE
  5
15
100
AcDbSymbolTableRecord
100
AcDbLinetypeTableRecord
  2
BYLAYER
 70
0
  3

 72
65
 73
0
 40
0.0
  0
LTYPE
  5
16
100
AcDbSymbolTableRecord
100
AcDbLinetypeTableRecord
  2
CONTINUOUS
 70
64
  3
Solid line
 72
65
 73
0
 40
0.0
  0
LTYPE
  5
1F5
100
AcDbSymbolTableRecord
100
AcDbLinetypeTableRecord
  2
CENTER
 70
64
  3
____ _ ____ _ ____ _ ____ _ ____ _ ____ _ ____
 72
65
 73
4
 40
0.6
 49
0.375
 74
0
 49
-0.075
 74
0
 49
0.075
 74
0
 49
-0.075
 74
0
  0
LTYPE
  5
1F6
100
AcDbSymbolTableRecord
100
AcDbLinetypeTableRecord
  2
HIDDEN
 70
64
  3
- - - - - - - - - - - - - - - - - - - -
 72
65
 73
2
 40
0.2
 49
0.1
 74
0
 49
-0.1
 74
0
  0
LTYPE
  5
1F7
100
AcDbSymbolTableRecord
100
AcDbLinetypeTableRecord
  2
PHANTOM
 70
64
  3
_____ _ _ _____ _ _ _____ _ _ _____
 72
65
 73
6
 40
0.8
 49
0.45
 74
0
 49
-0.05
 74
0
 49
0.1
 74
0
 49
-0.05
 74
0
 49
0.1
 74
0
 49
-0.05
 74
0
  0
LTYPE
  5
1F8
100
AcDbSymbolTableRecord
100
AcDbLinetypeTableRecord
  2
DOT
 70
64
  3
. . . . . . . . . . . . . . . . . . . .
 72
65
 73
2
 40
0.2
 49
0.1
 74
0
 49
-0.1
 74
0
  0
LTYPE
  5
1F9
100
AcDbSymbolTableRecord
100
AcDbLinetypeTableRecord
  2
DASHED
 70
64
  3
- - - - - - - - - - - - - - - - - - - -
 72
65
 73
2
 40
0.2
 49
0.1
 74
0
 49
-0.1
 74
0
  0
ENDTAB
  0
TABLE
  2
LAYER
  5
2
100
AcDbSymbolTable
 70
36
  0
LAYER
  5
10
100
AcDbSymbolTableRecord
100
AcDbLayerTableRecord
  2
0
 70
0
 62
7
  6
CONTINUOUS
370
-3
390
F
  0
LAYER
  5
1FA
100
AcDbSymbolTableRecord
100
AcDbLayerTableRecord
  2
DEFAULT_1
 70
0
 62
7
  6
CENTER
370
-3
390
F
  0
LAYER
  5
1FB
100
AcDbSymbolTableRecord
100
AcDbLayerTableRecord
  2
DEFAULT_2
 70
0
 62
8
  6
HIDDEN
370
-3
390
F
  0
LAYER
  5
1FC
100
AcDbSymbolTableRecord
100
AcDbLayerTableRecord
  2
DEFAULT_3
 70
0
 62
7
  6
PHANTOM
370
-3
390
F
  0
LAYER
  5
1FD
100
AcDbSymbolTableRecord
100
AcDbLayerTableRecord
  2
B-ACHSEN
 70
0
 62
7
  6
CONTINUOUS
370
-3
390
F
  0
LAYER
  5
1FE
100
AcDbSymbolTableRecord
100
AcDbLayerTableRecord
  2
B-EBENEN
 70
0
 62
7
  6
CONTINUOUS
370
-3
390
F
  0
LAYER
  5
1FF
100
AcDbSymbolTableRecord
100
AcDbLayerTableRecord
  2
B-KOORSYS
 70
0
 62
7
  6
CONTINUOUS
370
-3
390
F
  0
LAYER
  5
200
100
AcDbSymbolTableRecord
100
AcDbLayerTableRecord
  2
B-KURVEN
 70
0
 62
7
  6
CONTINUOUS
370
-3
390
F
  0
LAYER
  5
201
100
AcDbSymbolTableRecord
100
AcDbLayerTableRecord
  2
BEMASSUNG
 70
0
 62
7
  6
CONTINUOUS
370
-3
390
F
  0
LAYER
  5
202
100
AcDbSymbolTableRecord
100
AcDbLayerTableRecord
  2
BEZUGSACHSEN
 70
0
 62
7
  6
CONTINUOUS
370
-3
390
F
  0
LAYER
  5
203
100
AcDbSymbolTableRecord
100
AcDbLayerTableRecord
  2
BEZUGSEBENEN
 70
0
 62
7
  6
CONTINUOUS
370
-3
390
F
  0
LAYER
  5
204
100
AcDbSymbolTableRecord
100
AcDbLayerTableRecord
  2
BEZUGSPUNKTE
 70
0
 62
7
  6
CONTINUOUS
370
-3
390
F
  0
LAYER
  5
205
100
AcDbSymbolTableRecord
100
AcDbLayerTableRecord
  2
BOHRUNGEN
 70
0
 62
7
  6
CONTINUOUS
370
-3
390
F
  0
LAYER
  5
206
100
AcDbSymbolTableRecord
100
AcDbLayerTableRecord
  2
FLAECHEN
 70
0
 62
7
  6
CONTINUOUS
370
-3
390
F
  0
LAYER
  5
207
100
AcDbSymbolTableRecord
100
AcDbLayerTableRecord
  2
FLAECHENVERBUND
 70
0
 62
7
  6
CONTINUOUS
370
-3
390
F
  0
LAYER
  5
208
100
AcDbSymbolTableRecord
100
AcDbLayerTableRecord
  2
KURVEN
 70
0
 62
7
  6
CONTINUOUS
370
-3
390
F
  0
LAYER
  5
209
100
AcDbSymbolTableRecord
100
AcDbLayerTableRecord
  2
KURVENELEMENTE
 70
0
 62
7
  6
CONTINUOUS
370
-3
390
F
  0
LAYER
  5
20A
100
AcDbSymbolTableRecord
100
AcDbLayerTableRecord
  2
NOTIZEN
 70
0
 62
7
  6
CONTINUOUS
370
-3
390
F
  0
LAYER
  5
20B
100
AcDbSymbolTableRecord
100
AcDbLayerTableRecord
  2
RUNDUNGEN
 70
0
 62
7
  6
CONTINUOUS
370
-3
390
F
  0
LAYER
  5
20C
100
AcDbSymbolTableRecord
100
AcDbLayerTableRecord
  2
VERBUNDFLAECHEN
 70
0
 62
7
  6
CONTINUOUS
370
-3
390
F
  0
LAYER
  5
20D
100
AcDbSymbolTableRecord
100
AcDbLayerTableRecord
  2
ZEICHNUNGSBEMASSUNGEN
 70
0
 62
7
  6
CONTINUOUS
370
-3
390
F
  0
ENDTAB
  0
TABLE
  2
STYLE
  5
3
100
AcDbSymbolTable
 70
1
  0
STYLE
  5
11
100
AcDbSymbolTableRecord
100
AcDbTextStyleTableRecord
  2
STANDARD
 70
0
 40
0.0
 41
0.7
 50
0.0
 71
0
 42
0.2
  3
txt
  4

  0
STYLE
  5
20E
100
AcDbSymbolTableRecord
100
AcDbTextStyleTableRecord
  2
TEXTSTYLE_1
 70
0
 40
0.0
 41
0.8
 50
0.0
 71
0
 42
0.2
  3
gdt
  4

  0
ENDTAB
  0
TABLE
  2
VIEW
  5
6
100
AcDbSymbolTable
 70
0
  0
ENDTAB
  0
TABLE
  2
UCS
  5
7
100
AcDbSymbolTable
 70
0
  0
ENDTAB
  0
TABLE
  2
APPID
  5
9
100
AcDbSymbolTable
 70
1
  0
APPID
  5
20F
100
AcDbSymbolTableRecord
100
AcDbRegAppTableRecord
  2
ACAD
 70
0
  0
ENDTAB
  0
TABLE
  2
BLOCK_RECORD
  5
1
100
AcDbSymbolTable
 70
0
  0
BLOCK_RECORD
  5
210
100
AcDbSymbolTableRecord
100
AcDbBlockTableRecord
  2
*Model_Space
  0
BLOCK_RECORD
  5
211
100
AcDbSymbolTableRecord
100
AcDbBlockTableRecord
  2
*Paper_Space
  0
ENDTAB
  0
TABLE
  2
DIMSTYLE
  5
A
100
AcDbSymbolTable
 70
1
100
AcDbDimStyleTable
 71
0
  0
DIMSTYLE
105
212
100
AcDbSymbolTableRecord
100
AcDbDimStyleTableRecord
  2
STANDARD
 70
0
  3

  4

 40
1.0
 41
3.5
 42
0.0625
 43
0.38
 44
0.18
 45
0.0
 46
0.0
 47
0.005
 48
0.005
140
3.5
141
0.09
142
0.0
143
25.4
144
1.0
145
0.0
146
1.0
147
0.09
 71
1.0
 72
0.0
 73
0
 74
0
 75
0
 76
0
 77
1
 78
8
170
0
171
2
172
0
173
0
174
0
175
0
176
0
177
0
178
5
270
2
271
3
272
3
273
2
274
2
275
0
280
0
281
0
282
0
283
1
284
8
285
0
286
0
287
3
288
0
340
11
  0
ENDTAB
  0
ENDSEC
  0
SECTION
  2
BLOCKS
  0
BLOCK
  5
20
100
AcDbEntity
  8
0
100
AcDbBlockBegin
  2
*Model_Space
 70
0
 10
0.0
 20
0.0
 30
0.0
  3
*Model_Space
  1

  0
ENDBLK
  5
21
100
AcDbEntity
  8
0
100
AcDbBlockEnd
  0
BLOCK
  5
1C
100
AcDbEntity
  8
0
100
AcDbBlockBegin
  2
*Paper_Space
 70
0
 10
0.0
 20
0.0
 30
0.0
  3
*Paper_Space
  1

  0
ENDBLK
  5
1D
100
AcDbEntity
  8
0
100
AcDbBlockEnd
  0
ENDSEC
  0
SECTION
  2
ENTITIES
  0
MTEXT
  5
213
100
AcDbEntity
  8
0
100
AcDbMText
 62
5
  6
CONTINUOUS
  7
STANDARD
 71
2
 72
1
 10
179.6815625682
 20
134.7903705003
 30
0.0
 11
0.0
 21
1.0
 31
0.0
 44
0.9
  1
RUD PSA\PINOX STAR M20\P1-2 Pers
 40
3.0
 41
31.0714285714
  0
LINE
  5
214
100
AcDbEntity
  8
0
100
AcDbLine
 62
7
  6
CONTINUOUS
 10
0.0
 20
0.0
 11
0.0
 21
210.0
  0
LINE
  5
215
100
AcDbEntity
  8
0
100
AcDbLine
 62
7
  6
CONTINUOUS
 10
0.0
 20
0.0
 11
297.0
 21
0.0
  0
LINE
  5
216
100
AcDbEntity
  8
0
100
AcDbLine
 62
7
  6
CONTINUOUS
 10
0.0
 20
210.0
 11
297.0
 21
210.0
  0
LINE
  5
217
100
AcDbEntity
  8
0
100
AcDbLine
 62
7
  6
CONTINUOUS
 10
297.0
 20
0.0
 11
297.0
 21
210.0
  0
LINE
  5
218
100
AcDbEntity
  8
B-ACHSEN
100
AcDbLine
 62
7
  6
CONTINUOUS
 10
90.8691635192
 20
56.5757294619
 11
73.8691635192
 21
56.5757294619
  0
LINE
  5
219
100
AcDbEntity
  8
B-ACHSEN
100
AcDbLine
 62
7
  6
CONTINUOUS
 10
92.3691635192
 20
58.0757294619
 11
72.3691635192
 21
58.0757294619
  0
LINE
  5
21A
100
AcDbEntity
  8
0
100
AcDbLine
 62
7
  6
CONTINUOUS
 10
59.6706703297
 20
172.2815039021
 11
59.3702797451
 21
172.0414348241
  0
LINE
  5
21B
100
AcDbEntity
  8
0
100
AcDbLine
 62
7
  6
CONTINUOUS
 10
65.0624330994
 20
177.365732796
 11
64.5779397038
 21
177.0118041832
  0
LINE
  5
21C
100
AcDbEntity
  8
0
100
AcDbLine
 62
7
  6
CONTINUOUS
 10
62.2015269568
 20
174.9280424909
 11
61.8723375047
 21
174.7292914653
  0
LINE
  5
21D
100
AcDbEntity
  8
0
100
AcDbLine
 62
7
  6
CONTINUOUS
 10
63.4360027705
 20
173.7537626087
 11
63.1068133184
 21
173.5550115832
  0
LINE
  5
21E
100
AcDbEntity
  8
0
100
AcDbLine
 62
7
  6
CONTINUOUS
 10
59.7496986591
 20
171.8346892295
 11
59.9565449214
 21
171.9575009491
  0
LINE
  5
21F
100
AcDbEntity
  8
0
100
AcDbLine
 62
7
  6
CONTINUOUS
 10
63.4609458224
 20
173.1871235857
 11
63.7361013062
 21
173.3338609967
  0
LINE
  5
220
100
AcDbEntity
  8
0
100
AcDbLine
 62
7
  6
CONTINUOUS
 10
62.8615877655
 20
172.7283056779
 11
63.136744486
 21
172.8750442793
  0
LINE
  5
221
100
AcDbEntity
  8
0
100
AcDbLine
 62
7
  6
CONTINUOUS
 10
62.280503977
 20
174.4134170824
 11
62.5016267292
 21
174.5081420693
  0
LINE
  5
222
100
AcDbEntity
  8
0
100
AcDbLine
 62
7
  6
CONTINUOUS
 10
62.782611982
 20
173.2429322768
 11
62.5614892298
 21
173.1482072899
  0
LINE
  5
223
100
AcDbEntity
  8
B-ACHSEN
100
AcDbLine
 62
7
  6
CONTINUOUS
 10
72.3691635192
 20
58.0757294619
 11
73.8691635192
 21
56.5757294619
  0
LINE
  5
224
100
AcDbEntity
  8
0
100
AcDbLine
 62
7
  6
CONTINUOUS
 10
59.3702797451
 20
172.0414348241
 11
58.2477435949
 21
170.6343411557
  0
LINE
  5
225
100
AcDbEntity
  8
0
100
AcDbLine
 62
7
  6
CONTINUOUS
 10
58.8610238501
 20
170.7207396281
 11
59.7496986591
 21
171.8346892295
  0
LINE
  5
226
100
AcDbEntity
  8
0
100
AcDbLine
 62
7
  6
CONTINUOUS
 10
60.7476374985
 20
171.0385642465
 11
59.8589626894
 21
169.9246146451
  0
LINE
  5
227
100
AcDbEntity
  8
0
100
AcDbLine
 62
7
  6
CONTINUOUS
 10
55.5330672686
 20
164.7786227763
 11
55.7278273355
 21
165.0221621762
  0
LINE
  5
228
100
AcDbEntity
  8
0
100
AcDbLine
 62
7
  6
CONTINUOUS
 10
61.8723375047
 20
174.7292914653
 11
61.6021701366
 21
174.4692257735
  0
LINE
  5
229
100
AcDbEntity
  8
0
100
AcDbLine
 62
7
  6
CONTINUOUS
 10
61.9563026406
 20
174.101337776
 11
62.280503977
 21
174.4134170824
  0
LINE
  5
22A
100
AcDbEntity
  8
0
100
AcDbLine
 62
7
  6
CONTINUOUS
 10
62.8998157335
 20
174.4189230575
 11
63.2240170699
 21
174.7310023639
  0
LINE
  5
22B
100
AcDbEntity
  8
0
100
AcDbLine
 62
7
  6
CONTINUOUS
 10
63.1068133184
 20
173.5550115832
 11
62.782611982
 21
173.2429322768
  0
LINE
  5
22C
100
AcDbEntity
  8
0
100
AcDbLine
 62
7
  6
CONTINUOUS
 10
63.136744486
 20
172.8750442793
 11
63.4609458224
 21
173.1871235857
  0
LINE
  5
22D
100
AcDbEntity
  8
0
100
AcDbLine
 62
7
  6
CONTINUOUS
 10
63.0685852677
 20
171.8643942894
 11
62.7443839313
 21
171.552314983
  0
LINE
  5
22E
100
AcDbEntity
  8
0
100
AcDbLine
 62
7
  6
CONTINUOUS
 10
64.3462772065
 20
172.2674034632
 11
63.9140079334
 21
171.8512969277
  0
LINE
  5
22F
100
AcDbEntity
  8
0
100
AcDbLine
 62
7
  6
CONTINUOUS
 10
64.2681404788
 20
171.4834088873
 11
64.7004097518
 21
171.8995154228
  0
LINE
  5
230
100
AcDbEntity
  8
0
100
AcDbLine
 62
7
  6
CONTINUOUS
 10
55.5594163102
 20
165.4998152473
 11
55.2862064606
 21
165.2892717002
  0
LINE
  5
231
100
AcDbEntity
  8
0
100
AcDbLine
 62
7
  6
CONTINUOUS
 10
66.9215246513
 20
175.4565394943
 11
65.8314134715
 21
174.6601993561
  0
LINE
  5
232
100
AcDbEntity
  8
0
100
AcDbLine
 62
7
  6
CONTINUOUS
 10
65.9716633913
 20
174.3410688132
 11
67.1828975736
 21
175.2258908513
  0
LINE
  5
233
100
AcDbEntity
  8
0
100
AcDbLine
 62
7
  6
CONTINUOUS
 10
65.9684778614
 20
173.0739868937
 11
66.3318482547
 21
173.3394336064
  0
LINE
  5
234
100
AcDbEntity
  8
0
100
AcDbLine
 62
7
  6
CONTINUOUS
 10
68.0275772188
 20
174.5781852699
 11
68.390947612
 21
174.8436319826
  0
LINE
  5
235
100
AcDbEntity
  8
0
100
AcDbLine
 62
7
  6
CONTINUOUS
 10
63.9389510215
 20
171.2846578671
 11
64.2681404788
 21
171.4834088873
  0
LINE
  5
236
100
AcDbEntity
  8
0
100
AcDbLine
 62
7
  6
CONTINUOUS
 10
55.7278273355
 20
165.0221621762
 11
55.9719596972
 21
165.1635721079
  0
LINE
  5
237
100
AcDbEntity
  8
0
100
AcDbLine
 62
7
  6
CONTINUOUS
 10
63.9140079334
 20
171.8512969277
 11
63.6388524496
 21
171.7045595167
  0
LINE
  5
238
100
AcDbEntity
  8
0
100
AcDbLine
 62
7
  6
CONTINUOUS
 10
55.9895257249
 20
165.6443670886
 11
55.5594163102
 21
165.4998152473
  0
LINE
  5
239
100
AcDbEntity
  8
0
100
AcDbLine
 62
7
  6
CONTINUOUS
 10
55.062368573
 20
164.9765978936
 11
54.3645062012
 21
163.3173847939
  0
LINE
  5
23A
100
AcDbEntity
  8
0
100
AcDbLine
 62
7
  6
CONTINUOUS
 10
53.3637288726
 20
157.5031928288
 11
53.4779391199
 21
157.7149098903
  0
LINE
  5
23B
100
AcDbEntity
  8
0
100
AcDbLine
 62
7
  6
CONTINUOUS
 10
61.6021701366
 20
174.4692257735
 11
61.4450575841
 21
174.1998578395
  0
LINE
  5
23C
100
AcDbEntity
  8
0
100
AcDbLine
 62
7
  6
CONTINUOUS
 10
64.7004097518
 20
171.8995154228
 11
64.9115550308
 21
172.2208957862
  0
LINE
  5
23D
100
AcDbEntity
  8
0
100
AcDbLine
 62
7
  6
CONTINUOUS
 10
55.2862064606
 20
165.2892717002
 11
55.062368573
 21
164.9765978936
  0
LINE
  5
23E
100
AcDbEntity
  8
0
100
AcDbLine
 62
7
  6
CONTINUOUS
 10
60.2581381506
 20
169.6061647114
 11
61.1000402632
 21
170.6614849626
  0
LINE
  5
23F
100
AcDbEntity
  8
0
100
AcDbLine
 62
7
  6
CONTINUOUS
 10
61.3746184135
 20
168.1398163776
 11
61.6552524511
 21
168.4915897947
  0
LINE
  5
240
100
AcDbEntity
  8
0
100
AcDbLine
 62
7
  6
CONTINUOUS
 10
57.0504821878
 20
159.1594132312
 11
57.2931192436
 21
159.4045656968
  0
LINE
  5
241
100
AcDbEntity
  8
0
100
AcDbLine
 62
7
  6
CONTINUOUS
 10
53.3589924039
 20
158.1091802432
 11
53.0661224757
 21
157.8457129502
  0
LINE
  5
242
100
AcDbEntity
  8
0
100
AcDbLine
 62
7
  6
CONTINUOUS
 10
56.8197754885
 20
159.6102892329
 11
56.5967205302
 21
159.4375354063
  0
LINE
  5
243
100
AcDbEntity
  8
0
100
AcDbLine
 62
7
  6
CONTINUOUS
 10
53.4779391199
 20
157.7149098903
 11
53.6665509806
 21
157.8409970278
  0
LINE
  5
244
100
AcDbEntity
  8
0
100
AcDbLine
 62
7
  6
CONTINUOUS
 10
56.6435366242
 20
158.9587028129
 11
57.0504821878
 21
159.1594132312
  0
LINE
  5
245
100
AcDbEntity
  8
0
100
AcDbLine
 62
7
  6
CONTINUOUS
 10
53.7262639456
 20
158.2870176123
 11
53.3589924039
 21
158.1091802432
  0
LINE
  5
246
100
AcDbEntity
  8
0
100
AcDbLine
 62
7
  6
CONTINUOUS
 10
54.0035731364
 20
162.2366857505
 11
53.8860805602
 21
161.8022948039
  0
LINE
  5
247
100
AcDbEntity
  8
0
100
AcDbLine
 62
7
  6
CONTINUOUS
 10
53.4161102552
 20
160.0647310173
 11
53.298617623
 21
159.6303398635
  0
LINE
  5
248
100
AcDbEntity
  8
0
100
AcDbLine
 62
7
  6
CONTINUOUS
 10
53.0661224757
 20
157.8457129502
 11
52.9320078973
 21
157.4853222896
  0
LINE
  5
249
100
AcDbEntity
  8
0
100
AcDbLine
 62
7
  6
CONTINUOUS
 10
55.0096704897
 20
163.5342129515
 11
55.5330672686
 21
164.7786227763
  0
LINE
  5
24A
100
AcDbEntity
  8
0
100
AcDbLine
 62
7
  6
CONTINUOUS
 10
58.2788100439
 20
163.6237677634
 11
57.7554132651
 21
162.3793579386
  0
LINE
  5
24B
100
AcDbEntity
  8
0
100
AcDbLine
 62
7
  6
CONTINUOUS
 10
58.0516464226
 20
161.7665795233
 11
58.7495087944
 21
163.4257926229
  0
LINE
  5
24C
100
AcDbEntity
  8
0
100
AcDbLine
 62
7
  6
CONTINUOUS
 10
61.8532240564
 20
173.8839834566
 11
61.9563026406
 21
174.101337776
  0
LINE
  5
24D
100
AcDbEntity
  8
0
100
AcDbLine
 62
7
  6
CONTINUOUS
 10
61.1000402632
 20
170.6614849626
 11
61.2673723608
 21
171.0077040185
  0
LINE
  5
24E
100
AcDbEntity
  8
0
100
AcDbLine
 62
7
  6
CONTINUOUS
 10
57.2931192436
 20
159.4045656968
 11
57.473184
 21
159.7443371967
  0
LINE
  5
24F
100
AcDbEntity
  8
0
100
AcDbLine
 62
7
  6
CONTINUOUS
 10
64.5033885223
 20
172.5367702067
 11
64.3462772065
 21
172.2674034632
  0
LINE
  5
250
100
AcDbEntity
  8
0
100
AcDbLine
 62
7
  6
CONTINUOUS
 10
56.9802581043
 20
159.8776621056
 11
56.8197754885
 21
159.6102892329
  0
LINE
  5
251
100
AcDbEntity
  8
0
100
AcDbLine
 62
7
  6
CONTINUOUS
 10
101.4840130636
 20
175.2050505815
 11
101.1603592836
 21
175.0414574397
  0
LINE
  5
252
100
AcDbEntity
  8
0
100
AcDbLine
 62
7
  6
CONTINUOUS
 10
101.3764479841
 20
174.7233791337
 11
101.6420347931
 21
174.8247526565
  0
LINE
  5
253
100
AcDbEntity
  8
0
100
AcDbLine
 62
7
  6
CONTINUOUS
 10
101.2289130603
 20
172.1836044153
 11
100.963326414
 21
172.0822310669
  0
LINE
  5
254
100
AcDbEntity
  8
0
100
AcDbLine
 62
7
  6
CONTINUOUS
 10
52.9320078973
 20
157.4853222896
 11
52.6931560376
 21
155.7012399515
  0
LINE
  5
255
100
AcDbEntity
  8
0
100
AcDbLine
 62
7
  6
CONTINUOUS
 10
53.1746378265
 20
156.0907943821
 11
53.3637288726
 21
157.5031928288
  0
LINE
  5
256
100
AcDbEntity
  8
0
100
AcDbLine
 62
7
  6
CONTINUOUS
 10
54.6290355809
 20
157.3337943353
 11
54.4399445347
 21
155.9213958885
  0
LINE
  5
257
100
AcDbEntity
  8
0
100
AcDbLine
 62
7
  6
CONTINUOUS
 10
54.9460671235
 20
155.8536365038
 11
55.1152538527
 21
157.1173614578
  0
LINE
  5
258
100
AcDbEntity
  8
0
100
AcDbLine
 62
7
  6
CONTINUOUS
 10
57.0585865259
 20
160.1672562081
 11
56.9802581043
 21
159.8776621056
  0
LINE
  5
259
100
AcDbEntity
  8
0
100
AcDbLine
 62
7
  6
CONTINUOUS
 10
57.473184
 20
159.7443371967
 11
57.5515124215
 21
160.0339312993
  0
LINE
  5
25A
100
AcDbEntity
  8
0
100
AcDbLine
 62
7
  6
CONTINUOUS
 10
61.4450575841
 20
174.1998578395
 11
61.3469671155
 21
173.8691752393
  0
LINE
  5
25B
100
AcDbEntity
  8
0
100
AcDbLine
 62
7
  6
CONTINUOUS
 10
64.9115550308
 20
172.2208957862
 11
65.0096454838
 21
172.5515784025
  0
LINE
  5
25C
100
AcDbEntity
  8
0
100
AcDbLine
 62
7
  6
CONTINUOUS
 10
60.8214252737
 20
171.267525944
 11
60.7476374985
 21
171.0385642465
  0
LINE
  5
25D
100
AcDbEntity
  8
0
100
AcDbLine
 62
7
  6
CONTINUOUS
 10
101.1213481028
 20
171.7019330983
 11
101.4450021849
 21
171.8655260396
  0
LINE
  5
25E
100
AcDbEntity
  8
0
100
AcDbLine
 62
7
  6
CONTINUOUS
 10
107.8950196656
 20
167.280570391
 11
107.5636012957
 21
167.1807821711
  0
LINE
  5
25F
100
AcDbEntity
  8
0
100
AcDbLine
 62
7
  6
CONTINUOUS
 10
57.5515124215
 20
160.0339312993
 11
57.5672685508
 21
160.4181444342
  0
LINE
  5
260
100
AcDbEntity
  8
0
100
AcDbLine
 62
7
  6
CONTINUOUS
 10
58.3166705457
 20
163.9332988692
 11
58.2788100439
 21
163.6237677634
  0
LINE
  5
261
100
AcDbEntity
  8
0
100
AcDbLine
 62
7
  6
CONTINUOUS
 10
56.6577834555
 20
155.170458041
 11
56.7174964205
 21
155.6164786255
  0
LINE
  5
262
100
AcDbEntity
  8
0
100
AcDbLine
 62
7
  6
CONTINUOUS
 10
56.9663004316
 20
157.4748976568
 11
57.0359655763
 21
157.9952551472
  0
LINE
  5
263
100
AcDbEntity
  8
0
100
AcDbLine
 62
7
  6
CONTINUOUS
 10
61.8091675562
 20
173.6053144709
 11
61.8532240564
 21
173.8839834566
  0
LINE
  5
264
100
AcDbEntity
  8
0
100
AcDbLine
 62
7
  6
CONTINUOUS
 10
64.5474449811
 20
172.8154392353
 11
64.5033885223
 21
172.5367702067
  0
LINE
  5
265
100
AcDbEntity
  8
0
100
AcDbLine
 62
7
  6
CONTINUOUS
 10
58.7495087944
 20
163.4257926229
 11
58.81644711
 21
163.8044581382
  0
LINE
  5
266
100
AcDbEntity
  8
0
100
AcDbLine
 62
7
  6
CONTINUOUS
 10
101.1603592836
 20
175.0414574397
 11
100.824330699
 21
174.7730014367
  0
LINE
  5
267
100
AcDbEntity
  8
0
100
AcDbLine
 62
7
  6
CONTINUOUS
 10
101.0984866959
 20
174.5171430982
 11
101.3764479841
 21
174.7233791337
  0
LINE
  5
268
100
AcDbEntity
  8
0
100
AcDbLine
 62
7
  6
CONTINUOUS
 10
101.5068743484
 20
172.3898404508
 11
101.2289130603
 21
172.1836044153
  0
LINE
  5
269
100
AcDbEntity
  8
0
100
AcDbLine
 62
7
  6
CONTINUOUS
 10
107.5636012957
 20
167.1807821711
 11
107.2607128592
 21
167.0253850265
  0
LINE
  5
26A
100
AcDbEntity
  8
0
100
AcDbLine
 62
7
  6
CONTINUOUS
 10
107.5076144829
 20
166.7305839361
 11
107.659058595
 21
166.8082824539
  0
LINE
  5
26B
100
AcDbEntity
  8
0
100
AcDbLine
 62
7
  6
CONTINUOUS
 10
109.751899322
 20
164.8560480159
 11
109.3541871401
 21
164.7047126671
  0
LINE
  5
26C
100
AcDbEntity
  8
0
100
AcDbLine
 62
7
  6
CONTINUOUS
 10
109.7098254218
 20
163.7700884826
 11
106.3690426483
 21
162.4988713829
  0
LINE
  5
26D
100
AcDbEntity
  8
0
100
AcDbLine
 62
7
  6
CONTINUOUS
 10
106.5024069404
 20
162.1483874809
 11
109.8431897138
 21
163.4196045805
  0
LINE
  5
26E
100
AcDbEntity
  8
0
100
AcDbLine
 62
7
  6
CONTINUOUS
 10
110.1988279955
 20
162.484980396
 11
110.5965401774
 21
162.6363157449
  0
LINE
  5
26F
100
AcDbEntity
  8
0
100
AcDbLine
 62
7
  6
CONTINUOUS
 10
57.054760641
 20
160.4790711262
 11
57.0585865259
 21
160.1672562081
  0
LINE
  5
270
100
AcDbEntity
  8
0
100
AcDbLine
 62
7
  6
CONTINUOUS
 10
100.824330699
 20
174.7730014367
 11
99.953323612
 21
173.8397044499
  0
LINE
  5
271
100
AcDbEntity
  8
0
100
AcDbLine
 62
7
  6
CONTINUOUS
 10
100.2274796089
 20
173.5838461115
 11
101.0984866959
 21
174.5171430982
  0
LINE
  5
272
100
AcDbEntity
  8
0
100
AcDbLine
 62
7
  6
CONTINUOUS
 10
101.4450021849
 20
171.8655260396
 11
101.7810303454
 21
172.1339821124
  0
LINE
  5
273
100
AcDbEntity
  8
0
100
AcDbLine
 62
7
  6
CONTINUOUS
 10
106.7722759994
 20
164.8079121822
 11
106.5451098311
 21
164.6913644054
  0
LINE
  5
274
100
AcDbEntity
  8
0
100
AcDbLine
 62
7
  6
CONTINUOUS
 10
106.6405673426
 20
164.3188647971
 11
107.019177623
 21
164.5131110918
  0
LINE
  5
275
100
AcDbEntity
  8
B-ACHSEN
100
AcDbLine
 62
7
  6
CONTINUOUS
 10
61.486810578
 20
124.0757294619
 11
62.3691635192
 21
116.5757294619
  0
LINE
  5
276
100
AcDbEntity
  8
0
100
AcDbLine
 62
7
  6
CONTINUOUS
 10
61.3469671155
 20
173.8691752393
 11
61.3669220518
 21
173.4158644971
  0
LINE
  5
277
100
AcDbEntity
  8
0
100
AcDbLine
 62
7
  6
CONTINUOUS
 10
65.0096454838
 20
172.5515784025
 11
64.9896905269
 21
173.0048891662
  0
LINE
  5
278
100
AcDbEntity
  8
0
100
AcDbLine
 62
7
  6
CONTINUOUS
 10
61.2673723608
 20
171.0077040185
 11
61.2548743454
 21
171.4014450441
  0
LINE
  5
279
100
AcDbEntity
  8
0
100
AcDbLine
 62
7
  6
CONTINUOUS
 10
97.9913582481
 20
178.4848083686
 11
95.8695242282
 21
175.093964758
  0
LINE
  5
27A
100
AcDbEntity
  8
0
100
AcDbLine
 62
7
  6
CONTINUOUS
 10
96.1874158167
 20
174.8950428186
 11
98.3092498366
 21
178.2858864292
  0
LINE
  5
27B
100
AcDbEntity
  8
0
100
AcDbLine
 62
7
  6
CONTINUOUS
 10
98.9946429214
 20
177.8685478003
 11
96.6239167981
 21
174.6468001925
  0
LINE
  5
27C
100
AcDbEntity
  8
0
100
AcDbLine
 62
7
  6
CONTINUOUS
 10
96.9259556364
 20
174.4245446184
 11
98.9940359076
 21
177.2350053466
  0
LINE
  5
27D
100
AcDbEntity
  8
0
100
AcDbLine
 62
7
  6
CONTINUOUS
 10
100.706196362
 20
176.6090995297
 11
98.6885571014
 21
173.8671866627
  0
LINE
  5
27E
100
AcDbEntity
  8
0
100
AcDbLine
 62
7
  6
CONTINUOUS
 10
98.637509077
 20
173.1650963478
 11
101.0082352003
 21
176.3868439556
  0
LINE
  5
27F
100
AcDbEntity
  8
0
100
AcDbLine
 62
7
  6
CONTINUOUS
 10
102.3778814355
 20
173.3231374376
 11
101.5068743484
 21
172.3898404508
  0
LINE
  5
280
100
AcDbEntity
  8
0
100
AcDbLine
 62
7
  6
CONTINUOUS
 10
101.7810303454
 20
172.1339821124
 11
102.6520374324
 21
173.0672790991
  0
LINE
  5
281
100
AcDbEntity
  8
0
100
AcDbLine
 62
7
  6
CONTINUOUS
 10
105.7089474487
 20
165.9482672852
 11
105.9075834713
 21
166.1204238778
  0
LINE
  5
282
100
AcDbEntity
  8
0
100
AcDbLine
 62
7
  6
CONTINUOUS
 10
107.3089784602
 20
166.5584273434
 11
107.5076144829
 21
166.7305839361
  0
LINE
  5
283
100
AcDbEntity
  8
0
100
AcDbLine
 62
7
  6
CONTINUOUS
 10
105.7364039038
 20
166.4540742272
 11
105.462045825
 21
166.2430683756
  0
LINE
  5
284
100
AcDbEntity
  8
0
100
AcDbLine
 62
7
  6
CONTINUOUS
 10
107.2607128592
 20
167.0253850265
 11
106.9863547805
 21
166.814379175
  0
LINE
  5
285
100
AcDbEntity
  8
0
100
AcDbLine
 62
7
  6
CONTINUOUS
 10
107.6303919466
 20
158.3133103723
 11
111.2595790966
 21
160.2700938514
  0
LINE
  5
286
100
AcDbEntity
  8
0
100
AcDbLine
 62
7
  6
CONTINUOUS
 10
108.4657046071
 20
159.1711473237
 11
107.5377902231
 21
158.6766971095
  0
LINE
  5
287
100
AcDbEntity
  8
0
100
AcDbLine
 62
7
  6
CONTINUOUS
 10
110.8679615404
 20
160.4282881723
 11
108.7801538249
 21
159.3157762079
  0
LINE
  5
288
100
AcDbEntity
  8
0
100
AcDbLine
 62
7
  6
CONTINUOUS
 10
108.0436859016
 20
155.4662863067
 11
109.9072530102
 21
156.2879443315
  0
LINE
  5
289
100
AcDbEntity
  8
0
100
AcDbLine
 62
7
  6
CONTINUOUS
 10
109.6879637232
 20
156.6365265849
 11
107.9846114215
 21
155.8997786611
  0
LINE
  5
28A
100
AcDbEntity
  8
0
100
AcDbLine
 62
7
  6
CONTINUOUS
 10
111.2649238039
 20
156.4098837308
 11
111.0203822363
 21
156.3134804965
  0
LINE
  5
28B
100
AcDbEntity
  8
0
100
AcDbLine
 62
7
  6
CONTINUOUS
 10
111.0710176154
 20
155.9419148114
 11
111.315559183
 21
156.0383180456
  0
LINE
  5
28C
100
AcDbEntity
  8
B-ACHSEN
100
AcDbLine
 62
7
  6
CONTINUOUS
 10
92.3691635192
 20
109.0757294619
 11
72.3691635192
 21
109.0757294619
  0
LINE
  5
28D
100
AcDbEntity
  8
0
100
AcDbLine
 62
7
  6
CONTINUOUS
 10
57.5672685508
 20
160.4181444342
 11
57.481288338
 21
160.7521801737
  0
LINE
  5
28E
100
AcDbEntity
  8
0
100
AcDbLine
 62
7
  6
CONTINUOUS
 10
54.5745382985
 20
157.5680978584
 11
54.6290355809
 21
157.3337943353
  0
LINE
  5
28F
100
AcDbEntity
  8
0
100
AcDbLine
 62
7
  6
CONTINUOUS
 10
58.81644711
 20
163.8044581382
 11
58.7758578086
 21
164.1469851055
  0
LINE
  5
290
100
AcDbEntity
  8
RUNDUNGEN
100
AcDbLine
 62
7
  6
CONTINUOUS
 10
70.3691635192
 20
184.0757294619
 11
70.3691635192
 21
179.5757294619
  0
LINE
  5
291
100
AcDbEntity
  8
0
100
AcDbLine
 62
7
  6
CONTINUOUS
 10
71.4691642821
 20
127.1821125472
 11
71.4691642821
 21
126.1608357155
  0
LINE
  5
292
100
AcDbEntity
  8
0
100
AcDbLine
 62
7
  6
CONTINUOUS
 10
72.0691642821
 20
127.0544529879
 11
72.0691642821
 21
122.0757294619
  0
LINE
  5
293
100
AcDbEntity
  8
B-ACHSEN
100
AcDbLine
 62
7
  6
CONTINUOUS
 10
72.3691635192
 20
109.0757294619
 11
72.3691635192
 21
58.0757294619
  0
LINE
  5
294
100
AcDbEntity
  8
0
100
AcDbLine
 62
7
  6
CONTINUOUS
 10
72.6691642821
 20
122.0757294619
 11
72.6691642821
 21
128.0757294619
  0
LINE
  5
295
100
AcDbEntity
  8
0
100
AcDbLine
 62
7
  6
CONTINUOUS
 10
100.0409038274
 20
173.2923238005
 11
100.2274796089
 21
173.5838461115
  0
LINE
  5
296
100
AcDbEntity
  8
0
100
AcDbLine
 62
7
  6
CONTINUOUS
 10
72.0691642821
 20
128.0757294619
 11
71.4691642821
 21
127.1821125472
  0
LINE
  5
297
100
AcDbEntity
  8
0
100
AcDbLine
 62
7
  6
CONTINUOUS
 10
71.4691642821
 20
126.1608357155
 11
72.0691642821
 21
127.0544529879
  0
LINE
  5
298
100
AcDbEntity
  8
0
100
AcDbLine
 62
7
  6
CONTINUOUS
 10
99.953323612
 20
173.8397044499
 11
99.7086806967
 21
173.4859623456
  0
LINE
  5
299
100
AcDbEntity
  8
0
100
AcDbLine
 62
7
  6
CONTINUOUS
 10
102.6520374324
 20
173.0672790991
 11
102.8966807718
 21
173.4210211337
  0
LINE
  5
29A
100
AcDbEntity
  8
0
100
AcDbLine
 62
7
  6
CONTINUOUS
 10
108.4480292791
 20
165.4569216083
 11
108.6466653017
 21
165.6290782009
  0
LINE
  5
29B
100
AcDbEntity
  8
0
100
AcDbLine
 62
7
  6
CONTINUOUS
 10
56.9491982589
 20
160.7407082462
 11
57.054760641
 21
160.4790711262
  0
LINE
  5
29C
100
AcDbEntity
  8
0
100
AcDbLine
 62
7
  6
CONTINUOUS
 10
55.0062593023
 20
157.5859686103
 11
54.8773604065
 21
157.9059020573
  0
LINE
  5
29D
100
AcDbEntity
  8
0
100
AcDbLine
 62
7
  6
CONTINUOUS
 10
58.2470037221
 20
164.2066922355
 11
58.3166705457
 21
163.9332988692
  0
LINE
  5
29E
100
AcDbEntity
  8
0
100
AcDbLine
 62
7
  6
CONTINUOUS
 10
60.781911109
 20
171.4909332803
 11
60.8214252737
 21
171.267525944
  0
LINE
  5
29F
100
AcDbEntity
  8
0
100
AcDbLine
 62
7
  6
CONTINUOUS
 10
73.4691642344
 20
124.884240123
 11
73.4691642344
 21
124.245942148
  0
LINE
  5
2A0
100
AcDbEntity
  8
0
100
AcDbLine
 62
7
  6
CONTINUOUS
 10
74.8691641868
 20
124.245942148
 11
74.8691641868
 21
124.884240123
  0
LINE
  5
2A1
100
AcDbEntity
  8
0
100
AcDbLine
 62
7
  6
CONTINUOUS
 10
75.6691642821
 20
122.7140273476
 11
75.6691642821
 21
122.0757294619
  0
LINE
  5
2A2
100
AcDbEntity
  8
0
100
AcDbLine
 62
7
  6
CONTINUOUS
 10
75.8691643775
 20
127.1821125472
 11
75.7691641868
 21
126.6714743102
  0
LINE
  5
2A3
100
AcDbEntity
  8
B-ACHSEN
100
AcDbLine
 62
7
  6
CONTINUOUS
 10
73.8360896608
 20
114.0052961462
 11
72.3691635192
 21
109.0757294619
  0
LINE
  5
2A4
100
AcDbEntity
  8
0
100
AcDbLine
 62
7
  6
CONTINUOUS
 10
76.2691642821
 20
126.6714743102
 11
76.4691640914
 21
127.0544529879
  0
LINE
  5
2A5
100
AcDbEntity
  8
0
100
AcDbLine
 62
7
  6
CONTINUOUS
 10
102.564457217
 20
173.6146597485
 11
102.3778814355
 21
173.3231374376
  0
LINE
  5
2A6
100
AcDbEntity
  8
0
100
AcDbLine
 62
7
  6
CONTINUOUS
 10
106.9423826355
 20
165.0356763723
 11
106.7722759994
 21
164.8079121822
  0
LINE
  5
2A7
100
AcDbEntity
  8
0
100
AcDbLine
 62
7
  6
CONTINUOUS
 10
76.2691642821
 20
127.6927507842
 11
75.8691643775
 21
127.1821125472
  0
LINE
  5
2A8
100
AcDbEntity
  8
0
100
AcDbLine
 62
7
  6
CONTINUOUS
 10
105.462045825
 20
166.2430683756
 11
105.1690252489
 21
165.8819968655
  0
LINE
  5
2A9
100
AcDbEntity
  8
0
100
AcDbLine
 62
7
  6
CONTINUOUS
 10
107.019177623
 20
164.5131110918
 11
107.2650063152
 21
164.7797245408
  0
LINE
  5
2AA
100
AcDbEntity
  8
0
100
AcDbLine
 62
7
  6
CONTINUOUS
 10
108.3997636781
 20
165.9238792914
 11
108.2768497115
 21
165.7905719577
  0
LINE
  5
2AB
100
AcDbEntity
  8
0
100
AcDbLine
 62
7
  6
CONTINUOUS
 10
76.4691640914
 20
127.0544529879
 11
76.7691640914
 21
127.3097721064
  0
LINE
  5
2AC
100
AcDbEntity
  8
0
100
AcDbLine
 62
7
  6
CONTINUOUS
 10
111.315559183
 20
156.0383180456
 11
111.6275493093
 21
156.2700677517
  0
LINE
  5
2AD
100
AcDbEntity
  8
0
100
AcDbLine
 62
7
  6
CONTINUOUS
 10
76.6691644729
 20
127.9480699027
 11
76.2691642821
 21
127.6927507842
  0
LINE
  5
2AE
100
AcDbEntity
  8
B-ACHSEN
100
AcDbLine
 62
7
  6
CONTINUOUS
 10
102.3691635192
 20
116.5757294619
 11
62.3691635192
 21
116.5757294619
  0
LINE
  5
2AF
100
AcDbEntity
  8
0
100
AcDbLine
 62
7
  6
CONTINUOUS
 10
61.2548743454
 20
171.4014450441
 11
61.12907439
 21
171.7896317085
  0
LINE
  5
2B0
100
AcDbEntity
  8
0
100
AcDbLine
 62
7
  6
CONTINUOUS
 10
64.4784466658
 20
173.1034104632
 11
64.5474449811
 21
172.8154392353
  0
LINE
  5
2B1
100
AcDbEntity
  8
0
100
AcDbLine
 62
7
  6
CONTINUOUS
 10
78.6691642821
 20
126.6714743102
 11
78.6691642821
 21
126.416154834
  0
LINE
  5
2B2
100
AcDbEntity
  8
0
100
AcDbLine
 62
7
  6
CONTINUOUS
 10
79.2691642821
 20
122.0757294619
 11
79.2691642821
 21
122.7140273476
  0
LINE
  5
2B3
100
AcDbEntity
  8
0
100
AcDbLine
 62
7
  6
CONTINUOUS
 10
79.2691642821
 20
126.416154834
 11
79.2691642821
 21
126.6714743102
  0
LINE
  5
2B4
100
AcDbEntity
  8
0
100
AcDbLine
 62
7
  6
CONTINUOUS
 10
80.9108299315
 20
127.5757294619
 11
80.9108299315
 21
122.5757294619
  0
LINE
  5
2B5
100
AcDbEntity
  8
0
100
AcDbLine
 62
7
  6
CONTINUOUS
 10
81.4108299315
 20
122.5757294619
 11
81.4108299315
 21
124.8097720468
  0
LINE
  5
2B6
100
AcDbEntity
  8
0
100
AcDbLine
 62
7
  6
CONTINUOUS
 10
81.4108299315
 20
125.4480698431
 11
81.4108299315
 21
127.0438146317
  0
LINE
  5
2B7
100
AcDbEntity
  8
0
100
AcDbLine
 62
7
  6
CONTINUOUS
 10
79.1691640914
 20
125.905516597
 11
79.2691642821
 21
126.416154834
  0
LINE
  5
2B8
100
AcDbEntity
  8
0
100
AcDbLine
 62
7
  6
CONTINUOUS
 10
78.6691642821
 20
126.416154834
 11
78.4691644729
 21
125.905516597
  0
LINE
  5
2B9
100
AcDbEntity
  8
0
100
AcDbLine
 62
7
  6
CONTINUOUS
 10
99.7086806967
 20
173.4859623456
 11
99.5677973663
 21
173.1517970974
  0
LINE
  5
2BA
100
AcDbEntity
  8
0
100
AcDbLine
 62
7
  6
CONTINUOUS
 10
102.8966807718
 20
173.4210211337
 11
103.0375638
 21
173.7551865824
  0
LINE
  5
2BB
100
AcDbEntity
  8
0
100
AcDbLine
 62
7
  6
CONTINUOUS
 10
78.9691642821
 20
125.5225379193
 11
79.1691640914
 21
125.905516597
  0
LINE
  5
2BC
100
AcDbEntity
  8
0
100
AcDbLine
 62
7
  6
CONTINUOUS
 10
108.6466653017
 20
165.6290782009
 11
108.8639637423
 21
165.9513004113
  0
LINE
  5
2BD
100
AcDbEntity
  8
0
100
AcDbLine
 62
7
  6
CONTINUOUS
 10
83.4108299315
 20
125.7672187412
 11
83.2441631854
 21
125.5544528091
  0
LINE
  5
2BE
100
AcDbEntity
  8
0
100
AcDbLine
 62
7
  6
CONTINUOUS
 10
78.4691644729
 20
125.905516597
 11
75.6691642821
 21
122.7140273476
  0
LINE
  5
2BF
100
AcDbEntity
  8
0
100
AcDbLine
 62
7
  6
CONTINUOUS
 10
76.4691640914
 20
122.7140273476
 11
78.9691642821
 21
125.5225379193
  0
LINE
  5
2C0
100
AcDbEntity
  8
0
100
AcDbLine
 62
7
  6
CONTINUOUS
 10
111.4166993166
 20
156.5567219184
 11
111.2649238039
 21
156.4098837308
  0
LINE
  5
2C1
100
AcDbEntity
  8
0
100
AcDbLine
 62
7
  6
CONTINUOUS
 10
83.3274966777
 20
124.9161550129
 11
83.6608299315
 21
125.235303911
  0
LINE
  5
2C2
100
AcDbEntity
  8
0
100
AcDbLine
 62
7
  6
CONTINUOUS
 10
83.2441631854
 20
125.5544528091
 11
82.9941631854
 21
125.4480698431
  0
LINE
  5
2C3
100
AcDbEntity
  8
0
100
AcDbLine
 62
7
  6
CONTINUOUS
 10
85.5774964393
 20
125.8736017072
 11
85.3274964393
 21
125.7672187412
  0
LINE
  5
2C4
100
AcDbEntity
  8
0
100
AcDbLine
 62
7
  6
CONTINUOUS
 10
85.6608299315
 20
125.4480698431
 11
85.9941634238
 21
125.5544528091
  0
LINE
  5
2C5
100
AcDbEntity
  8
0
100
AcDbLine
 62
7
  6
CONTINUOUS
 10
89.494162947
 20
125.9799846733
 11
89.0774969161
 21
125.8736017072
  0
LINE
  5
2C6
100
AcDbEntity
  8
0
100
AcDbLine
 62
7
  6
CONTINUOUS
 10
82.9108299315
 20
124.8097720468
 11
83.3274966777
 21
124.9161550129
  0
LINE
  5
2C7
100
AcDbEntity
  8
0
100
AcDbLine
 62
7
  6
CONTINUOUS
 10
91.8274969161
 20
122.5757294619
 11
92.3274969161
 21
122.6821124373
  0
LINE
  5
2C8
100
AcDbEntity
  8
0
100
AcDbLine
 62
7
  6
CONTINUOUS
 10
88.994162947
 20
125.341686877
 11
89.494162947
 21
125.4480698431
  0
LINE
  5
2C9
100
AcDbEntity
  8
0
100
AcDbLine
 62
7
  6
CONTINUOUS
 10
91.1608299315
 20
125.9799846733
 11
90.6608299315
 21
125.8736017072
  0
LINE
  5
2CA
100
AcDbEntity
  8
0
100
AcDbLine
 62
7
  6
CONTINUOUS
 10
86.0774964393
 20
125.9799846733
 11
85.5774964393
 21
125.8736017072
  0
LINE
  5
2CB
100
AcDbEntity
  8
0
100
AcDbLine
 62
7
  6
CONTINUOUS
 10
86.0774964393
 20
122.5757294619
 11
86.6608299315
 21
122.6821124373
  0
LINE
  5
2CC
100
AcDbEntity
  8
0
100
AcDbLine
 62
7
  6
CONTINUOUS
 10
86.5774964393
 20
123.1076443666
 11
85.9941634238
 21
123.0012613633
  0
LINE
  5
2CD
100
AcDbEntity
  8
0
100
AcDbLine
 62
7
  6
CONTINUOUS
 10
72.0691642821
 20
122.0757294619
 11
72.6691642821
 21
122.0757294619
  0
LINE
  5
2CE
100
AcDbEntity
  8
0
100
AcDbLine
 62
7
  6
CONTINUOUS
 10
75.6691642821
 20
122.0757294619
 11
79.2691642821
 21
122.0757294619
  0
LINE
  5
2CF
100
AcDbEntity
  8
0
100
AcDbLine
 62
7
  6
CONTINUOUS
 10
80.9108299315
 20
122.5757294619
 11
81.4108299315
 21
122.5757294619
  0
LINE
  5
2D0
100
AcDbEntity
  8
0
100
AcDbLine
 62
7
  6
CONTINUOUS
 10
87.9941634238
 20
122.5757294619
 11
88.4108299315
 21
122.5757294619
  0
LINE
  5
2D1
100
AcDbEntity
  8
0
100
AcDbLine
 62
7
  6
CONTINUOUS
 10
91.3274969161
 20
122.5757294619
 11
91.8274969161
 21
122.5757294619
  0
LINE
  5
2D2
100
AcDbEntity
  8
0
100
AcDbLine
 62
7
  6
CONTINUOUS
 10
79.2691642821
 20
122.7140273476
 11
76.4691640914
 21
122.7140273476
  0
LINE
  5
2D3
100
AcDbEntity
  8
0
100
AcDbLine
 62
7
  6
CONTINUOUS
 10
91.8274969161
 20
123.0012613633
 11
91.3274969161
 21
123.0012613633
  0
LINE
  5
2D4
100
AcDbEntity
  8
0
100
AcDbLine
 62
7
  6
CONTINUOUS
 10
90.5774969161
 20
123.4267932648
 11
90.1608299315
 21
123.4267932648
  0
LINE
  5
2D5
100
AcDbEntity
  8
0
100
AcDbLine
 62
7
  6
CONTINUOUS
 10
87.3274964393
 20
123.6395592713
 11
86.9108299315
 21
123.6395592713
  0
LINE
  5
2D6
100
AcDbEntity
  8
RUNDUNGEN
100
AcDbLine
 62
7
  6
CONTINUOUS
 10
106.3153528597
 20
124.0757294619
 11
95.7790335459
 21
124.0757294619
  0
LINE
  5
2D7
100
AcDbEntity
  8
RUNDUNGEN
100
AcDbLine
 62
7
  6
CONTINUOUS
 10
68.9592932064
 20
124.0757294619
 11
58.4229741787
 21
124.0757294619
  0
LINE
  5
2D8
100
AcDbEntity
  8
0
100
AcDbLine
 62
7
  6
CONTINUOUS
 10
73.4691642344
 20
124.245942148
 11
74.8691641868
 21
124.245942148
  0
LINE
  5
2D9
100
AcDbEntity
  8
0
100
AcDbLine
 62
7
  6
CONTINUOUS
 10
85.0774964393
 20
124.2778570676
 11
87.3274964393
 21
124.2778570676
  0
LINE
  5
2DA
100
AcDbEntity
  8
0
100
AcDbLine
 62
7
  6
CONTINUOUS
 10
86.9108299315
 20
124.7033890808
 11
85.1608299315
 21
124.7033890808
  0
LINE
  5
2DB
100
AcDbEntity
  8
0
100
AcDbLine
 62
7
  6
CONTINUOUS
 10
81.4108299315
 20
124.8097720468
 11
82.9108299315
 21
124.8097720468
  0
LINE
  5
2DC
100
AcDbEntity
  8
0
100
AcDbLine
 62
7
  6
CONTINUOUS
 10
74.8691641868
 20
124.884240123
 11
73.4691642344
 21
124.884240123
  0
LINE
  5
2DD
100
AcDbEntity
  8
0
100
AcDbLine
 62
7
  6
CONTINUOUS
 10
92.4108299315
 20
125.1289209449
 11
92.8274969161
 21
125.1289209449
  0
LINE
  5
2DE
100
AcDbEntity
  8
0
100
AcDbLine
 62
7
  6
CONTINUOUS
 10
85.5774964393
 20
122.6821124373
 11
86.0774964393
 21
122.5757294619
  0
LINE
  5
2DF
100
AcDbEntity
  8
0
100
AcDbLine
 62
7
  6
CONTINUOUS
 10
90.8274969161
 20
122.6821124373
 11
91.3274969161
 21
122.5757294619
  0
LINE
  5
2E0
100
AcDbEntity
  8
0
100
AcDbLine
 62
7
  6
CONTINUOUS
 10
91.3274969161
 20
123.0012613633
 11
90.8274969161
 21
123.1076443666
  0
LINE
  5
2E1
100
AcDbEntity
  8
0
100
AcDbLine
 62
7
  6
CONTINUOUS
 10
85.9941634238
 20
123.0012613633
 11
85.6608299315
 21
123.1076443666
  0
LINE
  5
2E2
100
AcDbEntity
  8
0
100
AcDbLine
 62
7
  6
CONTINUOUS
 10
85.3274964393
 20
122.7884954126
 11
85.5774964393
 21
122.6821124373
  0
LINE
  5
2E3
100
AcDbEntity
  8
0
100
AcDbLine
 62
7
  6
CONTINUOUS
 10
85.6608299315
 20
123.1076443666
 11
85.4941634238
 21
123.2140273327
  0
LINE
  5
2E4
100
AcDbEntity
  8
0
100
AcDbLine
 62
7
  6
CONTINUOUS
 10
78.7691644729
 20
127.6927507842
 11
78.3691642821
 21
127.9480699027
  0
LINE
  5
2E5
100
AcDbEntity
  8
0
100
AcDbLine
 62
7
  6
CONTINUOUS
 10
78.1691644729
 20
127.3097721064
 11
78.4691644729
 21
127.0544529879
  0
LINE
  5
2E6
100
AcDbEntity
  8
0
100
AcDbLine
 62
7
  6
CONTINUOUS
 10
85.0774964393
 20
123.0012613633
 11
85.3274964393
 21
122.7884954126
  0
LINE
  5
2E7
100
AcDbEntity
  8
0
100
AcDbLine
 62
7
  6
CONTINUOUS
 10
54.4257351001
 20
157.739357919
 11
54.5745382985
 21
157.5680978584
  0
LINE
  5
2E8
100
AcDbEntity
  8
0
100
AcDbLine
 62
7
  6
CONTINUOUS
 10
79.1691640914
 20
127.1821125472
 11
78.7691644729
 21
127.6927507842
  0
LINE
  5
2E9
100
AcDbEntity
  8
0
100
AcDbLine
 62
7
  6
CONTINUOUS
 10
57.481288338
 20
160.7521801737
 11
57.2309995054
 21
161.1306575462
  0
LINE
  5
2EA
100
AcDbEntity
  8
0
100
AcDbLine
 62
7
  6
CONTINUOUS
 10
78.4691644729
 20
127.0544529879
 11
78.6691642821
 21
126.6714743102
  0
LINE
  5
2EB
100
AcDbEntity
  8
0
100
AcDbLine
 62
7
  6
CONTINUOUS
 10
58.7758578086
 20
164.1469851055
 11
58.5783689351
 21
164.5555037815
  0
LINE
  5
2EC
100
AcDbEntity
  8
0
100
AcDbLine
 62
7
  6
CONTINUOUS
 10
64.9896905269
 20
173.0048891662
 11
64.8616700862
 21
173.3541751033
  0
LINE
  5
2ED
100
AcDbEntity
  8
0
100
AcDbLine
 62
7
  6
CONTINUOUS
 10
64.5779397038
 20
177.0118041832
 11
65.9684778614
 21
173.0739868937
  0
LINE
  5
2EE
100
AcDbEntity
  8
0
100
AcDbLine
 62
7
  6
CONTINUOUS
 10
79.2691642821
 20
126.6714743102
 11
79.1691640914
 21
127.1821125472
  0
LINE
  5
2EF
100
AcDbEntity
  8
0
100
AcDbLine
 62
7
  6
CONTINUOUS
 10
83.4941631854
 20
126.4055168355
 11
83.4941631854
 21
126.0863676393
  0
LINE
  5
2F0
100
AcDbEntity
  8
0
100
AcDbLine
 62
7
  6
CONTINUOUS
 10
83.9941631854
 20
125.9799846733
 11
83.9941631854
 21
126.4055168355
  0
LINE
  5
2F1
100
AcDbEntity
  8
0
100
AcDbLine
 62
7
  6
CONTINUOUS
 10
85.0774964393
 20
124.0650911355
 11
85.0774964393
 21
124.2778570676
  0
LINE
  5
2F2
100
AcDbEntity
  8
0
100
AcDbLine
 62
7
  6
CONTINUOUS
 10
85.1608299315
 20
124.7033890808
 11
85.1608299315
 21
124.8097720468
  0
LINE
  5
2F3
100
AcDbEntity
  8
0
100
AcDbLine
 62
7
  6
CONTINUOUS
 10
86.9108299315
 20
124.9161550129
 11
86.9108299315
 21
124.7033890808
  0
LINE
  5
2F4
100
AcDbEntity
  8
0
100
AcDbLine
 62
7
  6
CONTINUOUS
 10
87.3274964393
 20
124.2778570676
 11
87.3274964393
 21
124.7033890808
  0
LINE
  5
2F5
100
AcDbEntity
  8
0
100
AcDbLine
 62
7
  6
CONTINUOUS
 10
87.9941634238
 20
125.9799846733
 11
87.9941634238
 21
122.5757294619
  0
LINE
  5
2F6
100
AcDbEntity
  8
0
100
AcDbLine
 62
7
  6
CONTINUOUS
 10
84.7441631854
 20
124.9161550129
 11
84.6608299315
 21
124.2778570676
  0
LINE
  5
2F7
100
AcDbEntity
  8
0
100
AcDbLine
 62
7
  6
CONTINUOUS
 10
87.2441634238
 20
123.2140273327
 11
87.3274964393
 21
123.6395592713
  0
LINE
  5
2F8
100
AcDbEntity
  8
0
100
AcDbLine
 62
7
  6
CONTINUOUS
 10
98.9940359076
 20
177.2350053466
 11
98.1844508197
 21
173.4984797089
  0
LINE
  5
2F9
100
AcDbEntity
  8
0
100
AcDbLine
 62
7
  6
CONTINUOUS
 10
83.4941631854
 20
126.0863676393
 11
83.4108299315
 21
125.7672187412
  0
LINE
  5
2FA
100
AcDbEntity
  8
0
100
AcDbLine
 62
7
  6
CONTINUOUS
 10
83.9108299315
 20
125.6608357751
 11
83.9941631854
 21
125.9799846733
  0
LINE
  5
2FB
100
AcDbEntity
  8
0
100
AcDbLine
 62
7
  6
CONTINUOUS
 10
86.9108299315
 20
123.6395592713
 11
86.8274964393
 21
123.3204102987
  0
LINE
  5
2FC
100
AcDbEntity
  8
0
100
AcDbLine
 62
7
  6
CONTINUOUS
 10
99.9580876714
 20
173.0203783891
 11
100.0409038274
 21
173.2923238005
  0
LINE
  5
2FD
100
AcDbEntity
  8
0
100
AcDbLine
 62
7
  6
CONTINUOUS
 10
102.6472735357
 20
173.8866053342
 11
102.564457217
 21
173.6146597485
  0
LINE
  5
2FE
100
AcDbEntity
  8
0
100
AcDbLine
 62
7
  6
CONTINUOUS
 10
104.2493551916
 20
173.3620420255
 11
103.4437587121
 21
171.2856226129
  0
LINE
  5
2FF
100
AcDbEntity
  8
0
100
AcDbLine
 62
7
  6
CONTINUOUS
 10
103.2405066986
 20
170.8673855552
 11
102.5732566789
 21
169.1541544602
  0
LINE
  5
300
100
AcDbEntity
  8
0
100
AcDbLine
 62
7
  6
CONTINUOUS
 10
103.8246608459
 20
171.3628193073
 11
104.4919113282
 21
173.0760498568
  0
LINE
  5
301
100
AcDbEntity
  8
0
100
AcDbLine
 62
7
  6
CONTINUOUS
 10
84.9108299315
 20
125.341686877
 11
84.7441631854
 21
124.9161550129
  0
LINE
  5
302
100
AcDbEntity
  8
0
100
AcDbLine
 62
7
  6
CONTINUOUS
 10
85.1608299315
 20
124.8097720468
 11
85.2441634238
 21
125.0225379789
  0
LINE
  5
303
100
AcDbEntity
  8
0
100
AcDbLine
 62
7
  6
CONTINUOUS
 10
102.8158128156
 20
168.8681622915
 11
103.6863148488
 21
170.9996304442
  0
LINE
  5
304
100
AcDbEntity
  8
0
100
AcDbLine
 62
7
  6
CONTINUOUS
 10
105.5673710112
 20
165.6648943065
 11
105.7089474487
 21
165.9482672852
  0
LINE
  5
305
100
AcDbEntity
  8
0
100
AcDbLine
 62
7
  6
CONTINUOUS
 10
106.9863547805
 20
166.814379175
 11
106.7975864855
 21
166.4365481487
  0
LINE
  5
306
100
AcDbEntity
  8
0
100
AcDbLine
 62
7
  6
CONTINUOUS
 10
107.2650063152
 20
164.7797245408
 11
107.4537746102
 21
165.157555567
  0
LINE
  5
307
100
AcDbEntity
  8
0
100
AcDbLine
 62
7
  6
CONTINUOUS
 10
108.4941481521
 20
166.1127941681
 11
108.3997636781
 21
165.9238792914
  0
LINE
  5
308
100
AcDbEntity
  8
0
100
AcDbLine
 62
7
  6
CONTINUOUS
 10
83.6608299315
 20
125.235303911
 11
83.9108299315
 21
125.6608357751
  0
LINE
  5
309
100
AcDbEntity
  8
0
100
AcDbLine
 62
7
  6
CONTINUOUS
 10
88.4108299315
 20
124.7033890808
 11
88.6608299315
 21
125.1289209449
  0
LINE
  5
30A
100
AcDbEntity
  8
0
100
AcDbLine
 62
7
  6
CONTINUOUS
 10
111.6275493093
 20
156.2700677517
 11
111.8467731874
 21
156.5522538285
  0
LINE
  5
30B
100
AcDbEntity
  8
0
100
AcDbLine
 62
7
  6
CONTINUOUS
 10
85.0774964393
 20
125.5544528091
 11
84.9108299315
 21
125.341686877
  0
LINE
  5
30C
100
AcDbEntity
  8
0
100
AcDbLine
 62
7
  6
CONTINUOUS
 10
85.2441634238
 20
125.0225379789
 11
85.4941634238
 21
125.341686877
  0
LINE
  5
30D
100
AcDbEntity
  8
0
100
AcDbLine
 62
7
  6
CONTINUOUS
 10
88.5774964393
 20
125.5544528091
 11
88.4108299315
 21
125.341686877
  0
LINE
  5
30E
100
AcDbEntity
  8
0
100
AcDbLine
 62
7
  6
CONTINUOUS
 10
86.9941634238
 20
122.8948783973
 11
87.2441634238
 21
123.2140273327
  0
LINE
  5
30F
100
AcDbEntity
  8
0
100
AcDbLine
 62
7
  6
CONTINUOUS
 10
85.3274964393
 20
125.7672187412
 11
85.0774964393
 21
125.5544528091
  0
LINE
  5
310
100
AcDbEntity
  8
0
100
AcDbLine
 62
7
  6
CONTINUOUS
 10
88.8274964393
 20
125.7672187412
 11
88.5774964393
 21
125.5544528091
  0
LINE
  5
311
100
AcDbEntity
  8
0
100
AcDbLine
 62
7
  6
CONTINUOUS
 10
86.8274964393
 20
123.3204102987
 11
86.5774964393
 21
123.1076443666
  0
LINE
  5
312
100
AcDbEntity
  8
0
100
AcDbLine
 62
7
  6
CONTINUOUS
 10
85.4941634238
 20
125.341686877
 11
85.6608299315
 21
125.4480698431
  0
LINE
  5
313
100
AcDbEntity
  8
0
100
AcDbLine
 62
7
  6
CONTINUOUS
 10
88.6608299315
 20
125.1289209449
 11
88.994162947
 21
125.341686877
  0
LINE
  5
314
100
AcDbEntity
  8
0
100
AcDbLine
 62
7
  6
CONTINUOUS
 10
90.6608299315
 20
125.8736017072
 11
90.3274969161
 21
125.6608357751
  0
LINE
  5
315
100
AcDbEntity
  8
0
100
AcDbLine
 62
7
  6
CONTINUOUS
 10
90.6608299315
 20
125.341686877
 11
90.8274969161
 21
125.4480698431
  0
LINE
  5
316
100
AcDbEntity
  8
0
100
AcDbLine
 62
7
  6
CONTINUOUS
 10
86.6608299315
 20
122.6821124373
 11
86.9941634238
 21
122.8948783973
  0
LINE
  5
317
100
AcDbEntity
  8
0
100
AcDbLine
 62
7
  6
CONTINUOUS
 10
89.0774969161
 20
125.8736017072
 11
88.8274964393
 21
125.7672187412
  0
LINE
  5
318
100
AcDbEntity
  8
0
100
AcDbLine
 62
7
  6
CONTINUOUS
 10
90.8274969161
 20
125.4480698431
 11
91.1608299315
 21
125.5544528091
  0
LINE
  5
319
100
AcDbEntity
  8
0
100
AcDbLine
 62
7
  6
CONTINUOUS
 10
92.1608299315
 20
123.1076443666
 11
91.8274969161
 21
123.0012613633
  0
LINE
  5
31A
100
AcDbEntity
  8
0
100
AcDbLine
 62
7
  6
CONTINUOUS
 10
76.7691640914
 20
127.3097721064
 11
77.2691644729
 21
127.4374316657
  0
LINE
  5
31B
100
AcDbEntity
  8
0
100
AcDbLine
 62
7
  6
CONTINUOUS
 10
77.3691640914
 20
128.0757294619
 11
76.6691644729
 21
127.9480699027
  0
LINE
  5
31C
100
AcDbEntity
  8
0
100
AcDbLine
 62
7
  6
CONTINUOUS
 10
82.9941631854
 20
125.4480698431
 11
81.4108299315
 21
125.4480698431
  0
LINE
  5
31D
100
AcDbEntity
  8
0
100
AcDbLine
 62
7
  6
CONTINUOUS
 10
91.1608299315
 20
125.5544528091
 11
91.6608299315
 21
125.5544528091
  0
LINE
  5
31E
100
AcDbEntity
  8
0
100
AcDbLine
 62
7
  6
CONTINUOUS
 10
91.6608299315
 20
125.9799846733
 11
91.1608299315
 21
125.9799846733
  0
LINE
  5
31F
100
AcDbEntity
  8
0
100
AcDbLine
 62
7
  6
CONTINUOUS
 10
88.4108299315
 20
125.9799846733
 11
87.9941634238
 21
125.9799846733
  0
LINE
  5
320
100
AcDbEntity
  8
0
100
AcDbLine
 62
7
  6
CONTINUOUS
 10
75.7691641868
 20
126.6714743102
 11
76.2691642821
 21
126.6714743102
  0
LINE
  5
321
100
AcDbEntity
  8
0
100
AcDbLine
 62
7
  6
CONTINUOUS
 10
81.4108299315
 20
127.0438146317
 11
82.9941631854
 21
127.0438146317
  0
LINE
  5
322
100
AcDbEntity
  8
0
100
AcDbLine
 62
7
  6
CONTINUOUS
 10
77.2691644729
 20
127.4374316657
 11
77.6691640914
 21
127.4374316657
  0
LINE
  5
323
100
AcDbEntity
  8
0
100
AcDbLine
 62
7
  6
CONTINUOUS
 10
82.9108299315
 20
127.5757294619
 11
80.9108299315
 21
127.5757294619
  0
LINE
  5
324
100
AcDbEntity
  8
0
100
AcDbLine
 62
7
  6
CONTINUOUS
 10
77.7691642821
 20
128.0757294619
 11
77.3691640914
 21
128.0757294619
  0
LINE
  5
325
100
AcDbEntity
  8
0
100
AcDbLine
 62
7
  6
CONTINUOUS
 10
72.6691642821
 20
128.0757294619
 11
72.0691642821
 21
128.0757294619
  0
LINE
  5
326
100
AcDbEntity
  8
0
100
AcDbLine
 62
7
  6
CONTINUOUS
 10
85.9941634238
 20
125.5544528091
 11
86.4941634238
 21
125.4480698431
  0
LINE
  5
327
100
AcDbEntity
  8
0
100
AcDbLine
 62
7
  6
CONTINUOUS
 10
86.5774964393
 20
125.8736017072
 11
86.0774964393
 21
125.9799846733
  0
LINE
  5
328
100
AcDbEntity
  8
0
100
AcDbLine
 62
7
  6
CONTINUOUS
 10
78.3691642821
 20
127.9480699027
 11
77.7691642821
 21
128.0757294619
  0
LINE
  5
329
100
AcDbEntity
  8
0
100
AcDbLine
 62
7
  6
CONTINUOUS
 10
91.6608299315
 20
125.5544528091
 11
92.1608299315
 21
125.4480698431
  0
LINE
  5
32A
100
AcDbEntity
  8
0
100
AcDbLine
 62
7
  6
CONTINUOUS
 10
92.1608299315
 20
125.8736017072
 11
91.6608299315
 21
125.9799846733
  0
LINE
  5
32B
100
AcDbEntity
  8
0
100
AcDbLine
 62
7
  6
CONTINUOUS
 10
77.6691640914
 20
127.4374316657
 11
78.1691644729
 21
127.3097721064
  0
LINE
  5
32C
100
AcDbEntity
  8
0
100
AcDbLine
 62
7
  6
CONTINUOUS
 10
83.3274966777
 20
127.4693464959
 11
82.9108299315
 21
127.5757294619
  0
LINE
  5
32D
100
AcDbEntity
  8
0
100
AcDbLine
 62
7
  6
CONTINUOUS
 10
90.6608299315
 20
124.3842400336
 11
92.0774969161
 21
123.8523252034
  0
LINE
  5
32E
100
AcDbEntity
  8
0
100
AcDbLine
 62
7
  6
CONTINUOUS
 10
92.3274969161
 20
124.1714741016
 11
90.9108299315
 21
124.7033890808
  0
LINE
  5
32F
100
AcDbEntity
  8
0
100
AcDbLine
 62
7
  6
CONTINUOUS
 10
90.5774969161
 20
122.7884954126
 11
90.8274969161
 21
122.6821124373
  0
LINE
  5
330
100
AcDbEntity
  8
0
100
AcDbLine
 62
7
  6
CONTINUOUS
 10
82.9941631854
 20
127.0438146317
 11
83.2441631854
 21
126.9374316657
  0
LINE
  5
331
100
AcDbEntity
  8
0
100
AcDbLine
 62
7
  6
CONTINUOUS
 10
92.4108299315
 20
125.7672187412
 11
92.1608299315
 21
125.8736017072
  0
LINE
  5
332
100
AcDbEntity
  8
0
100
AcDbLine
 62
7
  6
CONTINUOUS
 10
90.8274969161
 20
123.1076443666
 11
90.6608299315
 21
123.2140273327
  0
LINE
  5
333
100
AcDbEntity
  8
0
100
AcDbLine
 62
7
  6
CONTINUOUS
 10
86.9941634238
 20
125.5544528091
 11
86.5774964393
 21
125.8736017072
  0
LINE
  5
334
100
AcDbEntity
  8
0
100
AcDbLine
 62
7
  6
CONTINUOUS
 10
86.4941634238
 20
125.4480698431
 11
86.7441634238
 21
125.235303911
  0
LINE
  5
335
100
AcDbEntity
  8
0
100
AcDbLine
 62
7
  6
CONTINUOUS
 10
90.3274969161
 20
123.0012613633
 11
90.5774969161
 21
122.7884954126
  0
LINE
  5
336
100
AcDbEntity
  8
0
100
AcDbLine
 62
7
  6
CONTINUOUS
 10
90.9108299315
 20
124.7033890808
 11
90.6608299315
 21
124.9161550129
  0
LINE
  5
337
100
AcDbEntity
  8
0
100
AcDbLine
 62
7
  6
CONTINUOUS
 10
92.0774969161
 20
123.8523252034
 11
92.3274969161
 21
123.6395592713
  0
LINE
  5
338
100
AcDbEntity
  8
0
100
AcDbLine
 62
7
  6
CONTINUOUS
 10
83.6608299315
 20
127.1501975978
 11
83.3274966777
 21
127.4693464959
  0
LINE
  5
339
100
AcDbEntity
  8
0
100
AcDbLine
 62
7
  6
CONTINUOUS
 10
90.3274969161
 20
124.7033890808
 11
90.6608299315
 21
124.3842400336
  0
LINE
  5
33A
100
AcDbEntity
  8
0
100
AcDbLine
 62
7
  6
CONTINUOUS
 10
84.9108299315
 20
123.2140273327
 11
85.0774964393
 21
123.0012613633
  0
LINE
  5
33B
100
AcDbEntity
  8
0
100
AcDbLine
 62
7
  6
CONTINUOUS
 10
85.4941634238
 20
123.2140273327
 11
85.2441634238
 21
123.5331763053
  0
LINE
  5
33C
100
AcDbEntity
  8
0
100
AcDbLine
 62
7
  6
CONTINUOUS
 10
83.2441631854
 20
126.9374316657
 11
83.4108299315
 21
126.7246657336
  0
LINE
  5
33D
100
AcDbEntity
  8
0
100
AcDbLine
 62
7
  6
CONTINUOUS
 10
58.0698096828
 20
164.4439478162
 11
58.2470037221
 21
164.2066922355
  0
LINE
  5
33E
100
AcDbEntity
  8
0
100
AcDbLine
 62
7
  6
CONTINUOUS
 10
83.9108299315
 20
126.7246657336
 11
83.6608299315
 21
127.1501975978
  0
LINE
  5
33F
100
AcDbEntity
  8
0
100
AcDbLine
 62
7
  6
CONTINUOUS
 10
87.2441634238
 20
125.1289209449
 11
86.9941634238
 21
125.5544528091
  0
LINE
  5
340
100
AcDbEntity
  8
0
100
AcDbLine
 62
7
  6
CONTINUOUS
 10
86.7441634238
 20
125.235303911
 11
86.9108299315
 21
124.9161550129
  0
LINE
  5
341
100
AcDbEntity
  8
0
100
AcDbLine
 62
7
  6
CONTINUOUS
 10
61.9322000052
 20
173.3693566859
 11
61.8091675562
 21
173.6053144709
  0
LINE
  5
342
100
AcDbEntity
  8
0
100
AcDbLine
 62
7
  6
CONTINUOUS
 10
84.7441631854
 20
123.6395592713
 11
84.9108299315
 21
123.2140273327
  0
LINE
  5
343
100
AcDbEntity
  8
0
100
AcDbLine
 62
7
  6
CONTINUOUS
 10
85.2441634238
 20
123.5331763053
 11
85.1608299315
 21
123.7459422374
  0
LINE
  5
344
100
AcDbEntity
  8
0
100
AcDbLine
 62
7
  6
CONTINUOUS
 10
65.8314134715
 20
174.6601993561
 11
65.0209964365
 21
176.913877884
  0
LINE
  5
345
100
AcDbEntity
  8
0
100
AcDbLine
 62
7
  6
CONTINUOUS
 10
66.3318482547
 20
173.3394336064
 11
65.9716633913
 21
174.3410688132
  0
LINE
  5
346
100
AcDbEntity
  8
B-ACHSEN
100
AcDbLine
 62
7
  6
CONTINUOUS
 10
90.9022373776
 20
114.0052961462
 11
92.3691635192
 21
109.0757294619
  0
LINE
  5
347
100
AcDbEntity
  8
0
100
AcDbLine
 62
7
  6
CONTINUOUS
 10
83.4108299315
 20
126.7246657336
 11
83.4941631854
 21
126.4055168355
  0
LINE
  5
348
100
AcDbEntity
  8
0
100
AcDbLine
 62
7
  6
CONTINUOUS
 10
83.9941631854
 20
126.4055168355
 11
83.9108299315
 21
126.7246657336
  0
LINE
  5
349
100
AcDbEntity
  8
0
100
AcDbLine
 62
7
  6
CONTINUOUS
 10
85.1608299315
 20
123.7459422374
 11
85.0774964393
 21
124.0650911355
  0
LINE
  5
34A
100
AcDbEntity
  8
0
100
AcDbLine
 62
7
  6
CONTINUOUS
 10
87.3274964393
 20
124.7033890808
 11
87.2441634238
 21
125.1289209449
  0
LINE
  5
34B
100
AcDbEntity
  8
0
100
AcDbLine
 62
7
  6
CONTINUOUS
 10
84.6608299315
 20
124.2778570676
 11
84.7441631854
 21
123.6395592713
  0
LINE
  5
34C
100
AcDbEntity
  8
0
100
AcDbLine
 62
7
  6
CONTINUOUS
 10
88.4108299315
 20
122.5757294619
 11
88.4108299315
 21
124.7033890808
  0
LINE
  5
34D
100
AcDbEntity
  8
0
100
AcDbLine
 62
7
  6
CONTINUOUS
 10
88.4108299315
 20
125.341686877
 11
88.4108299315
 21
125.9799846733
  0
LINE
  5
34E
100
AcDbEntity
  8
0
100
AcDbLine
 62
7
  6
CONTINUOUS
 10
89.494162947
 20
125.4480698431
 11
89.494162947
 21
125.9799846733
  0
LINE
  5
34F
100
AcDbEntity
  8
0
100
AcDbLine
 62
7
  6
CONTINUOUS
 10
90.1608299315
 20
125.341686877
 11
90.1608299315
 21
125.1289209449
  0
LINE
  5
350
100
AcDbEntity
  8
B-ACHSEN
100
AcDbLine
 62
7
  6
CONTINUOUS
 10
92.3691635192
 20
109.0757294619
 11
92.3691635192
 21
58.0757294619
  0
LINE
  5
351
100
AcDbEntity
  8
0
100
AcDbLine
 62
7
  6
CONTINUOUS
 10
92.8274969161
 20
123.2140273327
 11
92.8274969161
 21
123.4267932648
  0
LINE
  5
352
100
AcDbEntity
  8
0
100
AcDbLine
 62
7
  6
CONTINUOUS
 10
98.6885571014
 20
173.8671866627
 11
99.4477011787
 21
177.5351644392
  0
LINE
  5
353
100
AcDbEntity
  8
0
100
AcDbLine
 62
7
  6
CONTINUOUS
 10
90.5774969161
 20
125.1289209449
 11
90.6608299315
 21
125.341686877
  0
LINE
  5
354
100
AcDbEntity
  8
0
100
AcDbLine
 62
7
  6
CONTINUOUS
 10
92.4108299315
 20
123.4267932648
 11
92.3274969161
 21
123.2140273327
  0
LINE
  5
355
100
AcDbEntity
  8
0
100
AcDbLine
 62
7
  6
CONTINUOUS
 10
90.3274969161
 20
125.6608357751
 11
90.1608299315
 21
125.341686877
  0
LINE
  5
356
100
AcDbEntity
  8
0
100
AcDbLine
 62
7
  6
CONTINUOUS
 10
92.6608299315
 20
122.8948783973
 11
92.8274969161
 21
123.2140273327
  0
LINE
  5
357
100
AcDbEntity
  8
0
100
AcDbLine
 62
7
  6
CONTINUOUS
 10
92.3274969161
 20
123.2140273327
 11
92.1608299315
 21
123.1076443666
  0
LINE
  5
358
100
AcDbEntity
  8
0
100
AcDbLine
 62
7
  6
CONTINUOUS
 10
92.3274969161
 20
122.6821124373
 11
92.6608299315
 21
122.8948783973
  0
LINE
  5
359
100
AcDbEntity
  8
B-ACHSEN
100
AcDbLine
 62
7
  6
CONTINUOUS
 10
86.8106925241
 20
134.0757294619
 11
77.9275279493
 21
134.0757294619
  0
LINE
  5
35A
100
AcDbEntity
  8
0
100
AcDbLine
 62
7
  6
CONTINUOUS
 10
92.1608299315
 20
125.4480698431
 11
92.3274969161
 21
125.341686877
  0
LINE
  5
35B
100
AcDbEntity
  8
0
100
AcDbLine
 62
7
  6
CONTINUOUS
 10
92.6608299315
 20
125.5544528091
 11
92.4108299315
 21
125.7672187412
  0
LINE
  5
35C
100
AcDbEntity
  8
0
100
AcDbLine
 62
7
  6
CONTINUOUS
 10
54.8773604065
 20
157.9059020573
 11
54.5698018298
 21
158.1740852727
  0
LINE
  5
35D
100
AcDbEntity
  8
0
100
AcDbLine
 62
7
  6
CONTINUOUS
 10
92.6608299315
 20
123.8523252034
 11
92.3274969161
 21
124.1714741016
  0
LINE
  5
35E
100
AcDbEntity
  8
0
100
AcDbLine
 62
7
  6
CONTINUOUS
 10
56.7418994945
 20
160.952167537
 11
56.9491982589
 21
160.7407082462
  0
LINE
  5
35F
100
AcDbEntity
  8
0
100
AcDbLine
 62
7
  6
CONTINUOUS
 10
58.5783689351
 20
164.5555037815
 11
58.3227250584
 21
164.8257552382
  0
LINE
  5
360
100
AcDbEntity
  8
0
100
AcDbLine
 62
7
  6
CONTINUOUS
 10
60.6290960748
 20
171.7087875973
 11
60.781911109
 21
171.4909332803
  0
LINE
  5
361
100
AcDbEntity
  8
0
100
AcDbLine
 62
7
  6
CONTINUOUS
 10
61.12907439
 20
171.7896317085
 11
60.9762593559
 21
172.0074860255
  0
LINE
  5
362
100
AcDbEntity
  8
0
100
AcDbLine
 62
7
  6
CONTINUOUS
 10
61.3669220518
 20
173.4158644971
 11
61.5489764195
 21
173.1185922175
  0
LINE
  5
363
100
AcDbEntity
  8
0
100
AcDbLine
 62
7
  6
CONTINUOUS
 10
90.1608299315
 20
123.4267932648
 11
90.3274969161
 21
123.0012613633
  0
LINE
  5
364
100
AcDbEntity
  8
0
100
AcDbLine
 62
7
  6
CONTINUOUS
 10
90.6608299315
 20
123.2140273327
 11
90.5774969161
 21
123.4267932648
  0
LINE
  5
365
100
AcDbEntity
  8
0
100
AcDbLine
 62
7
  6
CONTINUOUS
 10
90.1608299315
 20
125.1289209449
 11
90.3274969161
 21
124.7033890808
  0
LINE
  5
366
100
AcDbEntity
  8
0
100
AcDbLine
 62
7
  6
CONTINUOUS
 10
90.6608299315
 20
124.9161550129
 11
90.5774969161
 21
125.1289209449
  0
LINE
  5
367
100
AcDbEntity
  8
0
100
AcDbLine
 62
7
  6
CONTINUOUS
 10
92.3274969161
 20
123.6395592713
 11
92.4108299315
 21
123.4267932648
  0
LINE
  5
368
100
AcDbEntity
  8
0
100
AcDbLine
 62
7
  6
CONTINUOUS
 10
92.8274969161
 20
123.4267932648
 11
92.6608299315
 21
123.8523252034
  0
LINE
  5
369
100
AcDbEntity
  8
0
100
AcDbLine
 62
7
  6
CONTINUOUS
 10
92.3274969161
 20
125.341686877
 11
92.4108299315
 21
125.1289209449
  0
LINE
  5
36A
100
AcDbEntity
  8
0
100
AcDbLine
 62
7
  6
CONTINUOUS
 10
92.8274969161
 20
125.1289209449
 11
92.6608299315
 21
125.5544528091
  0
LINE
  5
36B
100
AcDbEntity
  8
RUNDUNGEN
100
AcDbLine
 62
7
  6
CONTINUOUS
 10
94.3691635192
 20
179.5757294619
 11
94.3691635192
 21
184.0757294619
  0
LINE
  5
36C
100
AcDbEntity
  8
0
100
AcDbLine
 62
7
  6
CONTINUOUS
 10
99.5677973663
 20
173.1517970974
 11
99.5182995629
 21
172.7323455954
  0
LINE
  5
36D
100
AcDbEntity
  8
0
100
AcDbLine
 62
7
  6
CONTINUOUS
 10
103.0375638
 20
173.7551865824
 11
103.0870615831
 21
174.1746380626
  0
LINE
  5
36E
100
AcDbEntity
  8
0
100
AcDbLine
 62
7
  6
CONTINUOUS
 10
105.1690252489
 20
165.8819968655
 11
105.0845084827
 21
165.4874075449
  0
LINE
  5
36F
100
AcDbEntity
  8
0
100
AcDbLine
 62
7
  6
CONTINUOUS
 10
107.2431241318
 20
166.3139036509
 11
107.3089784602
 21
166.5584273434
  0
LINE
  5
370
100
AcDbEntity
  8
0
100
AcDbLine
 62
7
  6
CONTINUOUS
 10
107.0082369639
 20
165.2802000649
 11
106.9423826355
 21
165.0356763723
  0
LINE
  5
371
100
AcDbEntity
  8
0
100
AcDbLine
 62
7
  6
CONTINUOUS
 10
108.8639637423
 20
165.9513004113
 11
108.9770106342
 21
166.2902809058
  0
LINE
  5
372
100
AcDbEntity
  8
0
100
AcDbLine
 62
7
  6
CONTINUOUS
 10
57.2309995054
 20
161.1306575462
 11
56.9415463771
 21
161.3643376681
  0
LINE
  5
373
100
AcDbEntity
  8
B-ACHSEN
100
AcDbLine
 62
7
  6
CONTINUOUS
 10
103.2515164604
 20
124.0757294619
 11
102.3691635192
 21
116.5757294619
  0
LINE
  5
374
100
AcDbEntity
  8
0
100
AcDbLine
 62
7
  6
CONTINUOUS
 10
106.7975864855
 20
166.4365481487
 11
106.7602616497
 21
166.1364169131
  0
LINE
  5
375
100
AcDbEntity
  8
0
100
AcDbLine
 62
7
  6
CONTINUOUS
 10
107.4537746102
 20
165.157555567
 11
107.491098793
 21
165.4576880754
  0
LINE
  5
376
100
AcDbEntity
  8
0
100
AcDbLine
 62
7
  6
CONTINUOUS
 10
111.475708581
 20
156.7539964769
 11
111.4166993166
 21
156.5567219184
  0
LINE
  5
377
100
AcDbEntity
  8
0
100
AcDbLine
 62
7
  6
CONTINUOUS
 10
54.182625957
 20
157.8475743046
 11
54.4257351001
 21
157.739357919
  0
LINE
  5
378
100
AcDbEntity
  8
0
100
AcDbLine
 62
7
  6
CONTINUOUS
 10
54.5698018298
 20
158.1740852727
 11
54.3266926868
 21
158.2823016583
  0
LINE
  5
379
100
AcDbEntity
  8
0
100
AcDbLine
 62
7
  6
CONTINUOUS
 10
56.4328644025
 20
161.1134494284
 11
56.7418994945
 21
160.952167537
  0
LINE
  5
37A
100
AcDbEntity
  8
0
100
AcDbLine
 62
7
  6
CONTINUOUS
 10
58.3227250584
 20
164.8257552382
 11
57.9595536333
 21
165.0598681181
  0
LINE
  5
37B
100
AcDbEntity
  8
0
100
AcDbLine
 62
7
  6
CONTINUOUS
 10
57.7850880404
 20
164.6450648432
 11
58.0698096828
 21
164.4439478162
  0
LINE
  5
37C
100
AcDbEntity
  8
0
100
AcDbLine
 62
7
  6
CONTINUOUS
 10
58.2477435949
 20
170.6343411557
 11
61.3746184135
 21
168.1398163776
  0
LINE
  5
37D
100
AcDbEntity
  8
0
100
AcDbLine
 62
7
  6
CONTINUOUS
 10
61.5489764195
 20
173.1185922175
 11
61.7850649208
 21
172.8733333808
  0
LINE
  5
37E
100
AcDbEntity
  8
0
100
AcDbLine
 62
7
  6
CONTINUOUS
 10
62.0502441732
 20
173.2467273534
 11
61.9322000052
 21
173.3693566859
  0
LINE
  5
37F
100
AcDbEntity
  8
0
100
AcDbLine
 62
7
  6
CONTINUOUS
 10
64.3013804137
 20
173.2873544619
 11
64.4784466658
 21
173.1034104632
  0
LINE
  5
380
100
AcDbEntity
  8
0
100
AcDbLine
 62
7
  6
CONTINUOUS
 10
64.8616700862
 20
173.3541751033
 11
64.5665596662
 21
173.6607484345
  0
LINE
  5
381
100
AcDbEntity
  8
0
100
AcDbLine
 62
7
  6
CONTINUOUS
 10
99.9790313617
 20
172.7680095897
 11
99.9580876714
 21
173.0203783891
  0
LINE
  5
382
100
AcDbEntity
  8
0
100
AcDbLine
 62
7
  6
CONTINUOUS
 10
102.6263298046
 20
174.13897409
 11
102.6472735357
 21
173.8866053342
  0
LINE
  5
383
100
AcDbEntity
  8
0
100
AcDbLine
 62
7
  6
CONTINUOUS
 10
111.8467731874
 20
156.5522538285
 11
111.8889040565
 21
156.8733831429
  0
LINE
  5
384
100
AcDbEntity
  8
0
100
AcDbLine
 62
7
  6
CONTINUOUS
 10
53.298617623
 20
159.6303398635
 11
55.8454014653
 21
158.941494488
  0
LINE
  5
385
100
AcDbEntity
  8
0
100
AcDbLine
 62
7
  6
CONTINUOUS
 10
54.3645062012
 20
163.3173847939
 11
58.0516464226
 21
161.7665795233
  0
LINE
  5
386
100
AcDbEntity
  8
0
100
AcDbLine
 62
7
  6
CONTINUOUS
 10
57.7554132651
 20
162.3793579386
 11
55.0096704897
 21
163.5342129515
  0
LINE
  5
387
100
AcDbEntity
  8
0
100
AcDbLine
 62
7
  6
CONTINUOUS
 10
56.9415463771
 20
161.3643376681
 11
56.5503569787
 21
161.547840375
  0
LINE
  5
388
100
AcDbEntity
  8
0
100
AcDbLine
 62
7
  6
CONTINUOUS
 10
61.6552524511
 20
168.4915897947
 11
60.2581381506
 21
169.6061647114
  0
LINE
  5
389
100
AcDbEntity
  8
0
100
AcDbLine
 62
7
  6
CONTINUOUS
 10
59.8589626894
 20
169.9246146451
 11
58.8610238501
 21
170.7207396281
  0
LINE
  5
38A
100
AcDbEntity
  8
0
100
AcDbLine
 62
7
  6
CONTINUOUS
 10
60.4295081579
 20
171.8680127129
 11
60.6290960748
 21
171.7087875973
  0
LINE
  5
38B
100
AcDbEntity
  8
0
100
AcDbLine
 62
7
  6
CONTINUOUS
 10
60.9762593559
 20
172.0074860255
 11
60.7101421954
 21
172.21978613
  0
LINE
  5
38C
100
AcDbEntity
  8
0
100
AcDbLine
 62
7
  6
CONTINUOUS
 10
107.2529918595
 20
166.1082292173
 11
107.2431241318
 21
166.3139036509
  0
LINE
  5
38D
100
AcDbEntity
  8
0
100
AcDbLine
 62
7
  6
CONTINUOUS
 10
108.4842804244
 20
166.3184686017
 11
108.4941481521
 21
166.1127941681
  0
LINE
  5
38E
100
AcDbEntity
  8
0
100
AcDbLine
 62
7
  6
CONTINUOUS
 10
110.7337095633
 20
155.8959479157
 11
111.0710176154
 21
155.9419148114
  0
LINE
  5
38F
100
AcDbEntity
  8
0
100
AcDbLine
 62
7
  6
CONTINUOUS
 10
111.0203822363
 20
156.3134804965
 11
110.7674011382
 21
156.2790053168
  0
LINE
  5
390
100
AcDbEntity
  8
0
100
AcDbLine
 62
7
  6
CONTINUOUS
 10
107.773630611
 20
157.4479694884
 11
109.5444968803
 21
157.6892955537
  0
LINE
  5
391
100
AcDbEntity
  8
0
100
AcDbLine
 62
7
  6
CONTINUOUS
 10
110.050458604
 20
157.7582458489
 11
111.3153631496
 21
157.930621619
  0
LINE
  5
392
100
AcDbEntity
  8
0
100
AcDbLine
 62
7
  6
CONTINUOUS
 10
111.6863625403
 20
158.3596458835
 11
107.7229952319
 21
157.8195351735
  0
LINE
  5
393
100
AcDbEntity
  8
0
100
AcDbLine
 62
7
  6
CONTINUOUS
 10
52.6931560376
 20
155.7012399515
 11
56.6577834555
 21
155.170458041
  0
LINE
  5
394
100
AcDbEntity
  8
0
100
AcDbLine
 62
7
  6
CONTINUOUS
 10
56.7174964205
 20
155.6164786255
 11
54.9460671235
 21
155.8536365038
  0
LINE
  5
395
100
AcDbEntity
  8
0
100
AcDbLine
 62
7
  6
CONTINUOUS
 10
54.4399445347
 20
155.9213958885
 11
53.1746378265
 21
156.0907943821
  0
LINE
  5
396
100
AcDbEntity
  8
0
100
AcDbLine
 62
7
  6
CONTINUOUS
 10
53.9295644263
 20
157.8814540286
 11
54.182625957
 21
157.8475743046
  0
LINE
  5
397
100
AcDbEntity
  8
0
100
AcDbLine
 62
7
  6
CONTINUOUS
 10
54.3266926868
 20
158.2823016583
 11
53.9892773913
 21
158.3274746131
  0
LINE
  5
398
100
AcDbEntity
  8
0
100
AcDbLine
 62
7
  6
CONTINUOUS
 10
55.9628940975
 20
159.3758856418
 11
53.4161102552
 21
160.0647310173
  0
LINE
  5
399
100
AcDbEntity
  8
0
100
AcDbLine
 62
7
  6
CONTINUOUS
 10
53.8860805602
 20
161.8022948039
 11
56.4328644025
 21
161.1134494284
  0
LINE
  5
39A
100
AcDbEntity
  8
0
100
AcDbLine
 62
7
  6
CONTINUOUS
 10
56.5503569787
 20
161.547840375
 11
54.0035731364
 21
162.2366857505
  0
LINE
  5
39B
100
AcDbEntity
  8
0
100
AcDbLine
 62
7
  6
CONTINUOUS
 10
56.6083411916
 20
165.1400026827
 11
57.7850880404
 21
164.6450648432
  0
LINE
  5
39C
100
AcDbEntity
  8
0
100
AcDbLine
 62
7
  6
CONTINUOUS
 10
57.9595536333
 20
165.0598681181
 11
56.7828067845
 21
165.5548059576
  0
LINE
  5
39D
100
AcDbEntity
  8
0
100
AcDbLine
 62
7
  6
CONTINUOUS
 10
63.2996854881
 20
171.7324639052
 11
63.0685852677
 21
171.8643942894
  0
LINE
  5
39E
100
AcDbEntity
  8
0
100
AcDbLine
 62
7
  6
CONTINUOUS
 10
62.7443839313
 20
171.552314983
 11
63.0345062356
 21
171.3590699326
  0
LINE
  5
39F
100
AcDbEntity
  8
0
100
AcDbLine
 62
7
  6
CONTINUOUS
 10
61.7850649208
 20
172.8733333808
 11
62.0751872251
 21
172.6800883303
  0
LINE
  5
3A0
100
AcDbEntity
  8
0
100
AcDbLine
 62
7
  6
CONTINUOUS
 10
68.390947612
 20
174.8436319826
 11
65.0624330994
 21
177.365732796
  0
LINE
  5
3A1
100
AcDbEntity
  8
0
100
AcDbLine
 62
7
  6
CONTINUOUS
 10
67.1828975736
 20
175.2258908513
 11
68.0275772188
 21
174.5781852699
  0
LINE
  5
3A2
100
AcDbEntity
  8
0
100
AcDbLine
 62
7
  6
CONTINUOUS
 10
65.0209964365
 20
176.913877884
 11
66.9215246513
 21
175.4565394943
  0
LINE
  5
3A3
100
AcDbEntity
  8
0
100
AcDbLine
 62
7
  6
CONTINUOUS
 10
99.5182995629
 20
172.7323455954
 11
99.584936032
 21
172.4373336855
  0
LINE
  5
3A4
100
AcDbEntity
  8
0
100
AcDbLine
 62
7
  6
CONTINUOUS
 10
103.0870615831
 20
174.1746380626
 11
103.0204253602
 21
174.4696497121
  0
LINE
  5
3A5
100
AcDbEntity
  8
0
100
AcDbLine
 62
7
  6
CONTINUOUS
 10
105.0845084827
 20
165.4874075449
 11
105.1514364949
 21
165.1705154762
  0
LINE
  5
3A6
100
AcDbEntity
  8
0
100
AcDbLine
 62
7
  6
CONTINUOUS
 10
105.6057688845
 20
165.403611057
 11
105.5673710112
 21
165.6648943065
  0
LINE
  5
3A7
100
AcDbEntity
  8
0
100
AcDbLine
 62
7
  6
CONTINUOUS
 10
106.7602616497
 20
166.1364169131
 11
106.798659523
 21
165.8751336637
  0
LINE
  5
3A8
100
AcDbEntity
  8
0
100
AcDbLine
 62
7
  6
CONTINUOUS
 10
106.9698390906
 20
165.5414833143
 11
107.0082369639
 21
165.2802000649
  0
LINE
  5
3A9
100
AcDbEntity
  8
0
100
AcDbLine
 62
7
  6
CONTINUOUS
 10
107.7229952319
 20
157.8195351735
 11
107.773630611
 21
157.4479694884
  0
LINE
  5
3AA
100
AcDbEntity
  8
0
100
AcDbLine
 62
7
  6
CONTINUOUS
 10
107.9846114215
 20
155.8997786611
 11
108.0436859016
 21
155.4662863067
  0
LINE
  5
3AB
100
AcDbEntity
  8
0
100
AcDbLine
 62
7
  6
CONTINUOUS
 10
109.5444968803
 20
157.6892955537
 11
109.6879637232
 21
156.6365265849
  0
LINE
  5
3AC
100
AcDbEntity
  8
0
100
AcDbLine
 62
7
  6
CONTINUOUS
 10
107.659058595
 20
166.8082824539
 11
107.914755121
 21
166.8692215237
  0
LINE
  5
3AD
100
AcDbEntity
  8
0
100
AcDbLine
 62
7
  6
CONTINUOUS
 10
106.280619427
 20
164.2746840931
 11
106.6405673426
 21
164.3188647971
  0
LINE
  5
3AE
100
AcDbEntity
  8
0
100
AcDbLine
 62
7
  6
CONTINUOUS
 10
107.1056487289
 20
160.3725023454
 11
108.157032313
 21
160.3824359858
  0
LINE
  5
3AF
100
AcDbEntity
  8
0
100
AcDbLine
 62
7
  6
CONTINUOUS
 10
108.5023486543
 20
160.4059364197
 11
110.8679615404
 21
160.4282881723
  0
LINE
  5
3B0
100
AcDbEntity
  8
0
100
AcDbLine
 62
7
  6
CONTINUOUS
 10
111.1361102497
 20
160.7546090389
 11
107.0130470053
 21
160.7358890826
  0
LINE
  5
3B1
100
AcDbEntity
  8
0
100
AcDbLine
 62
7
  6
CONTINUOUS
 10
56.3110933443
 20
159.3594005945
 11
55.9628940975
 21
159.3758856418
  0
LINE
  5
3B2
100
AcDbEntity
  8
0
100
AcDbLine
 62
7
  6
CONTINUOUS
 10
55.8454014653
 20
158.941494488
 11
56.2757551305
 21
158.9027890395
  0
LINE
  5
3B3
100
AcDbEntity
  8
0
100
AcDbLine
 62
7
  6
CONTINUOUS
 10
110.4722894072
 20
155.9234008548
 11
110.7337095633
 21
155.8959479157
  0
LINE
  5
3B4
100
AcDbEntity
  8
0
100
AcDbLine
 62
7
  6
CONTINUOUS
 10
110.7674011382
 20
156.2790053168
 11
110.5059809821
 21
156.3064582558
  0
LINE
  5
3B5
100
AcDbEntity
  8
0
100
AcDbLine
 62
7
  6
CONTINUOUS
 10
56.2654645733
 20
165.2028524789
 11
56.6083411916
 21
165.1400026827
  0
LINE
  5
3B6
100
AcDbEntity
  8
0
100
AcDbLine
 62
7
  6
CONTINUOUS
 10
56.7828067845
 20
165.5548059576
 11
56.3614801639
 21
165.6506516991
  0
LINE
  5
3B7
100
AcDbEntity
  8
0
100
AcDbLine
 62
7
  6
CONTINUOUS
 10
60.1831477308
 20
171.9686083296
 11
60.4295081579
 21
171.8680127129
  0
LINE
  5
3B8
100
AcDbEntity
  8
0
100
AcDbLine
 62
7
  6
CONTINUOUS
 10
60.7101421954
 20
172.21978613
 11
60.4637817684
 21
172.3203817467
  0
LINE
  5
3B9
100
AcDbEntity
  8
0
100
AcDbLine
 62
7
  6
CONTINUOUS
 10
62.2813443936
 20
173.1147969692
 11
62.0502441732
 21
173.2467273534
  0
LINE
  5
3BA
100
AcDbEntity
  8
0
100
AcDbLine
 62
7
  6
CONTINUOUS
 10
63.2240170699
 20
174.7310023639
 11
62.9929168496
 21
174.8629327481
  0
LINE
  5
3BB
100
AcDbEntity
  8
0
100
AcDbLine
 62
7
  6
CONTINUOUS
 10
106.3690426483
 20
162.4988713829
 11
106.5024069404
 21
162.1483874809
  0
LINE
  5
3BC
100
AcDbEntity
  8
0
100
AcDbLine
 62
7
  6
CONTINUOUS
 10
107.0130470053
 20
160.7358890826
 11
107.1056487289
 21
160.3725023454
  0
LINE
  5
3BD
100
AcDbEntity
  8
0
100
AcDbLine
 62
7
  6
CONTINUOUS
 10
107.5377902231
 20
158.6766971095
 11
107.6303919466
 21
158.3133103723
  0
LINE
  5
3BE
100
AcDbEntity
  8
0
100
AcDbLine
 62
7
  6
CONTINUOUS
 10
108.157032313
 20
160.3824359858
 11
108.4657046071
 21
159.1711473237
  0
LINE
  5
3BF
100
AcDbEntity
  8
0
100
AcDbLine
 62
7
  6
CONTINUOUS
 10
108.7801538249
 20
159.3157762079
 11
108.5023486543
 21
160.4059364197
  0
LINE
  5
3C0
100
AcDbEntity
  8
0
100
AcDbLine
 62
7
  6
CONTINUOUS
 10
111.2595790966
 20
160.2700938514
 11
111.1361102497
 21
160.7546090389
  0
LINE
  5
3C1
100
AcDbEntity
  8
0
100
AcDbLine
 62
7
  6
CONTINUOUS
 10
107.491098793
 20
165.4576880754
 11
107.4241714271
 21
165.7745788679
  0
LINE
  5
3C2
100
AcDbEntity
  8
0
100
AcDbLine
 62
7
  6
CONTINUOUS
 10
108.9770106342
 20
166.2902809058
 11
108.9100826153
 21
166.6071729711
  0
LINE
  5
3C3
100
AcDbEntity
  8
0
100
AcDbLine
 62
7
  6
CONTINUOUS
 10
110.2108040354
 20
156.5816207067
 11
110.050458604
 21
157.7582458489
  0
LINE
  5
3C4
100
AcDbEntity
  8
0
100
AcDbLine
 62
7
  6
CONTINUOUS
 10
111.3153631496
 20
157.930621619
 11
111.475708581
 21
156.7539964769
  0
LINE
  5
3C5
100
AcDbEntity
  8
0
100
AcDbLine
 62
7
  6
CONTINUOUS
 10
111.8889040565
 20
156.8733831429
 11
111.6863625403
 21
158.3596458835
  0
LINE
  5
3C6
100
AcDbEntity
  8
0
100
AcDbLine
 62
7
  6
CONTINUOUS
 10
56.5967205302
 20
159.4375354063
 11
56.3110933443
 21
159.3594005945
  0
LINE
  5
3C7
100
AcDbEntity
  8
0
100
AcDbLine
 62
7
  6
CONTINUOUS
 10
103.4437587121
 20
171.2856226129
 11
101.1987720587
 21
170.7747765677
  0
LINE
  5
3C8
100
AcDbEntity
  8
0
100
AcDbLine
 62
7
  6
CONTINUOUS
 10
101.4413281953
 20
170.488784399
 11
103.2405066986
 21
170.8673855552
  0
LINE
  5
3C9
100
AcDbEntity
  8
0
100
AcDbLine
 62
7
  6
CONTINUOUS
 10
105.6238398118
 20
171.741419918
 11
103.8246608459
 21
171.3628193073
  0
LINE
  5
3CA
100
AcDbEntity
  8
0
100
AcDbLine
 62
7
  6
CONTINUOUS
 10
103.6863148488
 20
170.9996304442
 11
105.8663959485
 21
171.4554277493
  0
LINE
  5
3CB
100
AcDbEntity
  8
0
100
AcDbLine
 62
7
  6
CONTINUOUS
 10
57.0359655763
 20
157.9952551472
 11
55.0062593023
 21
157.5859686103
  0
LINE
  5
3CC
100
AcDbEntity
  8
0
100
AcDbLine
 62
7
  6
CONTINUOUS
 10
55.1152538527
 20
157.1173614578
 11
56.9663004316
 21
157.4748976568
  0
LINE
  5
3CD
100
AcDbEntity
  8
0
100
AcDbLine
 62
7
  6
CONTINUOUS
 10
53.6665509806
 20
157.8409970278
 11
53.9295644263
 21
157.8814540286
  0
LINE
  5
3CE
100
AcDbEntity
  8
0
100
AcDbLine
 62
7
  6
CONTINUOUS
 10
53.9892773913
 20
158.3274746131
 11
53.7262639456
 21
158.2870176123
  0
LINE
  5
3CF
100
AcDbEntity
  8
0
100
AcDbLine
 62
7
  6
CONTINUOUS
 10
56.2757551305
 20
158.9027890395
 11
56.6435366242
 21
158.9587028129
  0
LINE
  5
3D0
100
AcDbEntity
  8
0
100
AcDbLine
 62
7
  6
CONTINUOUS
 10
106.5451098311
 20
164.6913644054
 11
106.2608840247
 21
164.6860329875
  0
LINE
  5
3D1
100
AcDbEntity
  8
0
100
AcDbLine
 62
7
  6
CONTINUOUS
 10
56.3614801639
 20
165.6506516991
 11
55.9895257249
 21
165.6443670886
  0
LINE
  5
3D2
100
AcDbEntity
  8
0
100
AcDbLine
 62
7
  6
CONTINUOUS
 10
63.0345062356
 20
171.3590699326
 11
63.4917173859
 21
171.2085361901
  0
LINE
  5
3D3
100
AcDbEntity
  8
0
100
AcDbLine
 62
7
  6
CONTINUOUS
 10
110.1096639019
 20
156.0632168339
 11
110.4722894072
 21
155.9234008548
  0
LINE
  5
3D4
100
AcDbEntity
  8
0
100
AcDbLine
 62
7
  6
CONTINUOUS
 10
64.5665596662
 20
173.6607484345
 11
64.2224033109
 21
173.8019799563
  0
LINE
  5
3D5
100
AcDbEntity
  8
0
100
AcDbLine
 62
7
  6
CONTINUOUS
 10
62.7277375971
 20
174.4895387755
 11
62.8998157335
 21
174.4189230575
  0
LINE
  5
3D6
100
AcDbEntity
  8
0
100
AcDbLine
 62
7
  6
CONTINUOUS
 10
110.5059809821
 20
156.3064582558
 11
110.3204486789
 21
156.40732958
  0
LINE
  5
3D7
100
AcDbEntity
  8
0
100
AcDbLine
 62
7
  6
CONTINUOUS
 10
109.9072530102
 20
156.2879443315
 11
110.1096639019
 21
156.0632168339
  0
LINE
  5
3D8
100
AcDbEntity
  8
0
100
AcDbLine
 62
7
  6
CONTINUOUS
 10
110.3204486789
 20
156.40732958
 11
110.2108040354
 21
156.5816207067
  0
LINE
  5
3D9
100
AcDbEntity
  8
0
100
AcDbLine
 62
7
  6
CONTINUOUS
 10
99.584936032
 20
172.4373336855
 11
99.7553321369
 21
172.161898686
  0
LINE
  5
3DA
100
AcDbEntity
  8
0
100
AcDbLine
 62
7
  6
CONTINUOUS
 10
100.1037349798
 20
172.5352174895
 11
99.9790313617
 21
172.7680095897
  0
LINE
  5
3DB
100
AcDbEntity
  8
0
100
AcDbLine
 62
7
  6
CONTINUOUS
 10
102.5016261866
 20
174.3717661903
 11
102.6263298046
 21
174.13897409
  0
LINE
  5
3DC
100
AcDbEntity
  8
0
100
AcDbLine
 62
7
  6
CONTINUOUS
 10
105.1514364949
 20
165.1705154762
 11
105.3796757007
 21
164.725648768
  0
LINE
  5
3DD
100
AcDbEntity
  8
0
100
AcDbLine
 62
7
  6
CONTINUOUS
 10
105.8340080902
 20
164.9587443487
 11
105.6057688845
 21
165.403611057
  0
LINE
  5
3DE
100
AcDbEntity
  8
0
100
AcDbLine
 62
7
  6
CONTINUOUS
 10
105.9075834713
 20
166.1204238778
 11
105.7364039038
 21
166.4540742272
  0
LINE
  5
3DF
100
AcDbEntity
  8
0
100
AcDbLine
 62
7
  6
CONTINUOUS
 10
106.798659523
 20
165.8751336637
 11
106.9698390906
 21
165.5414833143
  0
LINE
  5
3E0
100
AcDbEntity
  8
0
100
AcDbLine
 62
7
  6
CONTINUOUS
 10
107.4241714271
 20
165.7745788679
 11
107.2529918595
 21
166.1082292173
  0
LINE
  5
3E1
100
AcDbEntity
  8
0
100
AcDbLine
 62
7
  6
CONTINUOUS
 10
108.2768497115
 20
165.7905719577
 11
108.4480292791
 21
165.4569216083
  0
LINE
  5
3E2
100
AcDbEntity
  8
0
100
AcDbLine
 62
7
  6
CONTINUOUS
 10
109.3541871401
 20
164.7047126671
 11
109.7098254218
 21
163.7700884826
  0
LINE
  5
3E3
100
AcDbEntity
  8
0
100
AcDbLine
 62
7
  6
CONTINUOUS
 10
109.8431897138
 20
163.4196045805
 11
110.1988279955
 21
162.484980396
  0
LINE
  5
3E4
100
AcDbEntity
  8
0
100
AcDbLine
 62
7
  6
CONTINUOUS
 10
110.5965401774
 20
162.6363157449
 11
109.751899322
 21
164.8560480159
  0
LINE
  5
3E5
100
AcDbEntity
  8
0
100
AcDbLine
 62
7
  6
CONTINUOUS
 10
100.7063087958
 20
171.6236262102
 11
101.1213481028
 21
171.7019330983
  0
LINE
  5
3E6
100
AcDbEntity
  8
0
100
AcDbLine
 62
7
  6
CONTINUOUS
 10
101.8990523502
 20
175.2833574478
 11
101.4840130636
 21
175.2050505815
  0
LINE
  5
3E7
100
AcDbEntity
  8
0
100
AcDbLine
 62
7
  6
CONTINUOUS
 10
55.9719596972
 20
165.1635721079
 11
56.2654645733
 21
165.2028524789
  0
LINE
  5
3E8
100
AcDbEntity
  8
0
100
AcDbLine
 62
7
  6
CONTINUOUS
 10
63.6388524496
 20
171.7045595167
 11
63.2996854881
 21
171.7324639052
  0
LINE
  5
3E9
100
AcDbEntity
  8
0
100
AcDbLine
 62
7
  6
CONTINUOUS
 10
62.0751872251
 20
172.6800883303
 11
62.5274089609
 21
172.6428817426
  0
LINE
  5
3EA
100
AcDbEntity
  8
0
100
AcDbLine
 62
7
  6
CONTINUOUS
 10
60.4637817684
 20
172.3203817467
 11
60.0573477755
 21
172.3567949939
  0
LINE
  5
3EB
100
AcDbEntity
  8
0
100
AcDbLine
 62
7
  6
CONTINUOUS
 10
105.8636112468
 20
164.3417210343
 11
106.280619427
 21
164.2746840931
  0
LINE
  5
3EC
100
AcDbEntity
  8
0
100
AcDbLine
 62
7
  6
CONTINUOUS
 10
108.3120278193
 20
167.2135334362
 11
107.8950196656
 21
167.280570391
  0
LINE
  5
3ED
100
AcDbEntity
  8
0
100
AcDbLine
 62
7
  6
CONTINUOUS
 10
62.9929168496
 20
174.8629327481
 11
62.5947278454
 21
174.9521517599
  0
LINE
  5
3EE
100
AcDbEntity
  8
0
100
AcDbLine
 62
7
  6
CONTINUOUS
 10
64.0162461424
 20
173.3672713174
 11
64.3013804137
 21
173.2873544619
  0
LINE
  5
3EF
100
AcDbEntity
  8
0
100
AcDbLine
 62
7
  6
CONTINUOUS
 10
106.2608840247
 20
164.6860329875
 11
106.0238500757
 21
164.7751596172
  0
LINE
  5
3F0
100
AcDbEntity
  8
0
100
AcDbLine
 62
7
  6
CONTINUOUS
 10
105.5980471854
 20
164.4864564967
 11
105.8636112468
 21
164.3417210343
  0
LINE
  5
3F1
100
AcDbEntity
  8
0
100
AcDbLine
 62
7
  6
CONTINUOUS
 10
99.7553321369
 20
172.161898686
 11
100.120873379
 21
171.8207543161
  0
LINE
  5
3F2
100
AcDbEntity
  8
0
100
AcDbLine
 62
7
  6
CONTINUOUS
 10
106.0238500757
 20
164.7751596172
 11
105.8340080902
 21
164.9587443487
  0
LINE
  5
3F3
100
AcDbEntity
  8
0
100
AcDbLine
 62
7
  6
CONTINUOUS
 10
105.3796757007
 20
164.725648768
 11
105.5980471854
 21
164.4864564967
  0
LINE
  5
3F4
100
AcDbEntity
  8
0
100
AcDbLine
 62
7
  6
CONTINUOUS
 10
101.1987720587
 20
170.7747765677
 11
101.4413281953
 21
170.488784399
  0
LINE
  5
3F5
100
AcDbEntity
  8
0
100
AcDbLine
 62
7
  6
CONTINUOUS
 10
102.5732566789
 20
169.1541544602
 11
102.8158128156
 21
168.8681622915
  0
LINE
  5
3F6
100
AcDbEntity
  8
0
100
AcDbLine
 62
7
  6
CONTINUOUS
 10
103.0204253602
 20
174.4696497121
 11
102.8500289889
 21
174.7450849501
  0
LINE
  5
3F7
100
AcDbEntity
  8
0
100
AcDbLine
 62
7
  6
CONTINUOUS
 10
108.3131008568
 20
166.6521189511
 11
108.4842804244
 21
166.3184686017
  0
LINE
  5
3F8
100
AcDbEntity
  8
0
100
AcDbLine
 62
7
  6
CONTINUOUS
 10
108.9100826153
 20
166.6071729711
 11
108.7674331933
 21
166.8852145047
  0
LINE
  5
3F9
100
AcDbEntity
  8
0
100
AcDbLine
 62
7
  6
CONTINUOUS
 10
62.5274089609
 20
172.6428817426
 11
62.8615877655
 21
172.7283056779
  0
LINE
  5
3FA
100
AcDbEntity
  8
0
100
AcDbLine
 62
7
  6
CONTINUOUS
 10
60.0573477755
 20
172.3567949939
 11
59.6706703297
 21
172.2815039021
  0
LINE
  5
3FB
100
AcDbEntity
  8
0
100
AcDbLine
 62
7
  6
CONTINUOUS
 10
63.4917173859
 20
171.2085361901
 11
63.9389510215
 21
171.2846578671
  0
LINE
  5
3FC
100
AcDbEntity
  8
0
100
AcDbLine
 62
7
  6
CONTINUOUS
 10
62.5614892298
 20
173.1482072899
 11
62.2813443936
 21
173.1147969692
  0
LINE
  5
3FD
100
AcDbEntity
  8
0
100
AcDbLine
 62
7
  6
CONTINUOUS
 10
63.7361013062
 20
173.3338609967
 11
64.0162461424
 21
173.3672713174
  0
LINE
  5
3FE
100
AcDbEntity
  8
0
100
AcDbLine
 62
7
  6
CONTINUOUS
 10
62.5947278454
 20
174.9521517599
 11
62.2015269568
 21
174.9280424909
  0
LINE
  5
3FF
100
AcDbEntity
  8
0
100
AcDbLine
 62
7
  6
CONTINUOUS
 10
59.9565449214
 20
171.9575009491
 11
60.1831477308
 21
171.9686083296
  0
LINE
  5
400
100
AcDbEntity
  8
0
100
AcDbLine
 62
7
  6
CONTINUOUS
 10
100.963326414
 20
172.0822310669
 11
100.7101141074
 21
172.0857206059
  0
LINE
  5
401
100
AcDbEntity
  8
0
100
AcDbLine
 62
7
  6
CONTINUOUS
 10
101.6420347931
 20
174.8247526565
 11
101.895247059
 21
174.8212630739
  0
LINE
  5
402
100
AcDbEntity
  8
0
100
AcDbLine
 62
7
  6
CONTINUOUS
 10
64.2224033109
 20
173.8019799563
 11
63.7701815751
 21
173.839186544
  0
LINE
  5
403
100
AcDbEntity
  8
0
100
AcDbLine
 62
7
  6
CONTINUOUS
 10
62.5016267292
 20
174.5081420693
 11
62.7277375971
 21
174.4895387755
  0
LINE
  5
404
100
AcDbEntity
  8
0
100
AcDbLine
 62
7
  6
CONTINUOUS
 10
100.4074040228
 20
171.6697586702
 11
100.7063087958
 21
171.6236262102
  0
LINE
  5
405
100
AcDbEntity
  8
0
100
AcDbLine
 62
7
  6
CONTINUOUS
 10
107.914755121
 20
166.8692215237
 11
108.151789017
 21
166.7800948669
  0
LINE
  5
406
100
AcDbEntity
  8
0
100
AcDbLine
 62
7
  6
CONTINUOUS
 10
100.7101141074
 20
172.0857206059
 11
100.4692762219
 21
172.1940731196
  0
LINE
  5
407
100
AcDbEntity
  8
0
100
AcDbLine
 62
7
  6
CONTINUOUS
 10
100.120873379
 20
171.8207543161
 11
100.4074040228
 21
171.6697586702
  0
LINE
  5
408
100
AcDbEntity
  8
0
100
AcDbLine
 62
7
  6
CONTINUOUS
 10
108.5775912079
 20
167.0687992363
 11
108.3120278193
 21
167.2135334362
  0
LINE
  5
409
100
AcDbEntity
  8
0
100
AcDbLine
 62
7
  6
CONTINUOUS
 10
95.8695242282
 20
175.093964758
 11
96.1874158167
 21
174.8950428186
  0
LINE
  5
40A
100
AcDbEntity
  8
0
100
AcDbLine
 62
7
  6
CONTINUOUS
 10
96.6239167981
 20
174.6468001925
 11
96.9259556364
 21
174.4245446184
  0
LINE
  5
40B
100
AcDbEntity
  8
0
100
AcDbLine
 62
7
  6
CONTINUOUS
 10
98.1844508197
 20
173.4984797089
 11
98.637509077
 21
173.1650963478
  0
LINE
  5
40C
100
AcDbEntity
  8
0
100
AcDbLine
 62
7
  6
CONTINUOUS
 10
108.151789017
 20
166.7800948669
 11
108.3131008568
 21
166.6521189511
  0
LINE
  5
40D
100
AcDbEntity
  8
0
100
AcDbLine
 62
7
  6
CONTINUOUS
 10
100.4692762219
 20
172.1940731196
 11
100.1037349798
 21
172.5352174895
  0
LINE
  5
40E
100
AcDbEntity
  8
0
100
AcDbLine
 62
7
  6
CONTINUOUS
 10
102.1360849445
 20
174.7129105602
 11
102.5016261866
 21
174.3717661903
  0
LINE
  5
40F
100
AcDbEntity
  8
0
100
AcDbLine
 62
7
  6
CONTINUOUS
 10
102.8500289889
 20
174.7450849501
 11
102.4844877468
 21
175.08622932
  0
LINE
  5
410
100
AcDbEntity
  8
0
100
AcDbLine
 62
7
  6
CONTINUOUS
 10
108.7674331933
 20
166.8852145047
 11
108.5775912079
 21
167.0687992363
  0
LINE
  5
411
100
AcDbEntity
  8
0
100
AcDbLine
 62
7
  6
CONTINUOUS
 10
105.8663959485
 20
171.4554277493
 11
105.6238398118
 21
171.741419918
  0
LINE
  5
412
100
AcDbEntity
  8
0
100
AcDbLine
 62
7
  6
CONTINUOUS
 10
104.4919113282
 20
173.0760498568
 11
104.2493551916
 21
173.3620420255
  0
LINE
  5
413
100
AcDbEntity
  8
B-ACHSEN
100
AcDbLine
 62
7
  6
CONTINUOUS
 10
92.3691635192
 20
58.0757294619
 11
90.8691635192
 21
56.5757294619
  0
LINE
  5
414
100
AcDbEntity
  8
0
100
AcDbLine
 62
7
  6
CONTINUOUS
 10
63.7701815751
 20
173.839186544
 11
63.4360027705
 21
173.7537626087
  0
LINE
  5
415
100
AcDbEntity
  8
RUNDUNGEN
100
AcDbLine
 62
7
  6
CONTINUOUS
 10
71.3691635192
 20
178.5757294619
 11
93.3691635192
 21
178.5757294619
  0
LINE
  5
416
100
AcDbEntity
  8
0
100
AcDbLine
 62
7
  6
CONTINUOUS
 10
102.1979573694
 20
175.2372247274
 11
101.8990523502
 21
175.2833574478
  0
LINE
  5
417
100
AcDbEntity
  8
0
100
AcDbLine
 62
7
  6
CONTINUOUS
 10
101.895247059
 20
174.8212630739
 11
102.1360849445
 21
174.7129105602
  0
LINE
  5
418
100
AcDbEntity
  8
0
100
AcDbLine
 62
7
  6
CONTINUOUS
 10
102.4844877468
 20
175.08622932
 11
102.1979573694
 21
175.2372247274
  0
LINE
  5
419
100
AcDbEntity
  8
0
100
AcDbLine
 62
7
  6
CONTINUOUS
 10
98.3092498366
 20
178.2858864292
 11
97.9913582481
 21
178.4848083686
  0
LINE
  5
41A
100
AcDbEntity
  8
0
100
AcDbLine
 62
7
  6
CONTINUOUS
 10
101.0082352003
 20
176.3868439556
 11
100.706196362
 21
176.6090995297
  0
LINE
  5
41B
100
AcDbEntity
  8
0
100
AcDbLine
 62
7
  6
CONTINUOUS
 10
99.4477011787
 20
177.5351644392
 11
98.9946429214
 21
177.8685478003
  0
LINE
  5
41C
100
AcDbEntity
  8
RUNDUNGEN
100
AcDbLine
 62
7
  6
CONTINUOUS
 10
93.3691635192
 20
185.0757294619
 11
71.3691635192
 21
185.0757294619
  0
LINE
  5
41D
100
AcDbEntity
  8
B-ACHSEN
100
AcDbLine
 62
7
  6
CONTINUOUS
 10
177.314816635
 20
56.5757294619
 11
194.314816635
 21
56.5757294619
  0
LINE
  5
41E
100
AcDbEntity
  8
B-ACHSEN
100
AcDbLine
 62
7
  6
CONTINUOUS
 10
175.814816635
 20
58.0757294619
 11
195.814816635
 21
58.0757294619
  0
LINE
  5
41F
100
AcDbEntity
  8
B-ACHSEN
100
AcDbLine
 62
7
  6
CONTINUOUS
 10
175.814816635
 20
58.0757294619
 11
177.314816635
 21
56.5757294619
  0
LINE
  5
420
100
AcDbEntity
  8
B-ACHSEN
100
AcDbLine
 62
7
  6
CONTINUOUS
 10
163.9222039705
 20
132.6629371108
 11
165.814816635
 21
116.5757294619
  0
LINE
  5
421
100
AcDbEntity
  8
B-ACHSEN
100
AcDbLine
 62
7
  6
CONTINUOUS
 10
175.814816635
 20
109.0757294619
 11
195.814816635
 21
109.0757294619
  0
LINE
  5
422
100
AcDbEntity
  8
B-ACHSEN
100
AcDbLine
 62
7
  6
CONTINUOUS
 10
175.814816635
 20
109.0757294619
 11
175.814816635
 21
58.0757294619
  0
LINE
  5
423
100
AcDbEntity
  8
B-ACHSEN
100
AcDbLine
 62
7
  6
CONTINUOUS
 10
177.814816635
 20
192.5757294619
 11
177.814816635
 21
153.9847294619
  0
LINE
  5
424
100
AcDbEntity
  8
0
100
AcDbLine
 62
7
  6
CONTINUOUS
 10
177.814816635
 20
150.5757294619
 11
177.814816635
 21
153.9847294619
  0
LINE
  5
425
100
AcDbEntity
  8
B-ACHSEN
100
AcDbLine
 62
7
  6
CONTINUOUS
 10
177.2817427766
 20
114.0052961462
 11
175.814816635
 21
109.0757294619
  0
LINE
  5
426
100
AcDbEntity
  8
B-ACHSEN
100
AcDbLine
 62
7
  6
CONTINUOUS
 10
165.814816635
 20
116.5757294619
 11
205.814816635
 21
116.5757294619
  0
LINE
  5
427
100
AcDbEntity
  8
0
100
AcDbLine
 62
7
  6
CONTINUOUS
 10
203.7092586151
 20
122.0757294619
 11
205.1746668858
 21
122.0757294619
  0
LINE
  5
428
100
AcDbEntity
  8
0
100
AcDbLine
 62
7
  6
CONTINUOUS
 10
205.3445644134
 20
122.0757294619
 11
207.2457240275
 21
122.0757294619
  0
LINE
  5
429
100
AcDbEntity
  8
0
100
AcDbLine
 62
7
  6
CONTINUOUS
 10
207.3051576302
 20
122.5757294619
 11
207.4785659518
 21
122.5757294619
  0
LINE
  5
42A
100
AcDbEntity
  8
0
100
AcDbLine
 62
7
  6
CONTINUOUS
 10
207.3215967133
 20
122.7140273476
 11
206.7275302647
 21
122.7140273476
  0
LINE
  5
42B
100
AcDbEntity
  8
0
100
AcDbLine
 62
7
  6
CONTINUOUS
 10
205.423937534
 20
122.7140273476
 11
206.4851237162
 21
122.7140273476
  0
LINE
  5
42C
100
AcDbEntity
  8
RUNDUNGEN
100
AcDbLine
 62
7
  6
CONTINUOUS
 10
201.8225660881
 20
124.0757294619
 11
195.7030277392
 21
124.0757294619
  0
LINE
  5
42D
100
AcDbEntity
  8
RUNDUNGEN
100
AcDbLine
 62
7
  6
CONTINUOUS
 10
169.8070677265
 20
124.0757294619
 11
175.9266055309
 21
124.0757294619
  0
LINE
  5
42E
100
AcDbEntity
  8
0
100
AcDbLine
 62
7
  6
CONTINUOUS
 10
205.4598113948
 20
124.245942148
 11
206.4004019646
 21
124.245942148
  0
LINE
  5
42F
100
AcDbEntity
  8
0
100
AcDbLine
 62
7
  6
CONTINUOUS
 10
207.7695182468
 20
124.8097720468
 11
207.790424148
 21
124.8097720468
  0
LINE
  5
430
100
AcDbEntity
  8
0
100
AcDbLine
 62
7
  6
CONTINUOUS
 10
205.5435265045
 20
124.884240123
 11
206.4803064018
 21
124.884240123
  0
LINE
  5
431
100
AcDbEntity
  8
0
100
AcDbLine
 62
7
  6
CONTINUOUS
 10
207.8655179579
 20
125.4480698431
 11
207.8446833679
 21
125.4480698431
  0
LINE
  5
432
100
AcDbEntity
  8
0
100
AcDbLine
 62
7
  6
CONTINUOUS
 10
206.5488384872
 20
125.905516597
 11
207.5725681769
 21
125.905516597
  0
LINE
  5
433
100
AcDbEntity
  8
0
100
AcDbLine
 62
7
  6
CONTINUOUS
 10
203.9136567935
 20
126.1608357155
 11
205.0795147764
 21
126.1608357155
  0
LINE
  5
434
100
AcDbEntity
  8
0
100
AcDbLine
 62
7
  6
CONTINUOUS
 10
206.6464788906
 20
126.416154834
 11
207.6684026366
 21
126.416154834
  0
LINE
  5
435
100
AcDbEntity
  8
0
100
AcDbLine
 62
7
  6
CONTINUOUS
 10
205.94837345
 20
126.6714743102
 11
207.6988671089
 21
126.6714743102
  0
LINE
  5
436
100
AcDbEntity
  8
0
100
AcDbLine
 62
7
  6
CONTINUOUS
 10
208.0325940972
 20
127.0438146317
 11
208.0532526405
 21
127.0438146317
  0
LINE
  5
437
100
AcDbEntity
  8
0
100
AcDbLine
 62
7
  6
CONTINUOUS
 10
207.257617593
 20
127.0544529879
 11
207.7098780327
 21
127.0544529879
  0
LINE
  5
438
100
AcDbEntity
  8
0
100
AcDbLine
 62
7
  6
CONTINUOUS
 10
204.0537704662
 20
127.1821125472
 11
205.2174446515
 21
127.1821125472
  0
LINE
  5
439
100
AcDbEntity
  8
0
100
AcDbLine
 62
7
  6
CONTINUOUS
 10
206.0439894155
 20
127.1821125472
 11
207.099129367
 21
127.1821125472
  0
LINE
  5
43A
100
AcDbEntity
  8
0
100
AcDbLine
 62
7
  6
CONTINUOUS
 10
207.3689500204
 20
127.3097721064
 11
207.6849027711
 21
127.3097721064
  0
LINE
  5
43B
100
AcDbEntity
  8
0
100
AcDbLine
 62
7
  6
CONTINUOUS
 10
207.5081294921
 20
127.4374316657
 11
207.598292445
 21
127.4374316657
  0
LINE
  5
43C
100
AcDbEntity
  8
0
100
AcDbLine
 62
7
  6
CONTINUOUS
 10
207.8381184619
 20
127.5757294619
 11
208.1158308397
 21
127.5757294619
  0
LINE
  5
43D
100
AcDbEntity
  8
0
100
AcDbLine
 62
7
  6
CONTINUOUS
 10
206.2308879167
 20
127.6927507842
 11
207.2796595758
 21
127.6927507842
  0
LINE
  5
43E
100
AcDbEntity
  8
0
100
AcDbLine
 62
7
  6
CONTINUOUS
 10
206.377329697
 20
127.9480699027
 11
207.4203934319
 21
127.9480699027
  0
LINE
  5
43F
100
AcDbEntity
  8
0
100
AcDbLine
 62
7
  6
CONTINUOUS
 10
204.5193110843
 20
128.0757294619
 11
205.9610907741
 21
128.0757294619
  0
LINE
  5
440
100
AcDbEntity
  8
0
100
AcDbLine
 62
7
  6
CONTINUOUS
 10
206.5741061847
 20
128.0757294619
 11
207.6963694571
 21
128.0757294619
  0
LINE
  5
441
100
AcDbEntity
  8
B-ACHSEN
100
AcDbLine
 62
7
  6
CONTINUOUS
 10
194.3478904934
 20
114.0052961462
 11
195.814816635
 21
109.0757294619
  0
LINE
  5
442
100
AcDbEntity
  8
B-ACHSEN
100
AcDbLine
 62
7
  6
CONTINUOUS
 10
193.814816635
 20
192.5757294619
 11
193.814816635
 21
153.9847294619
  0
LINE
  5
443
100
AcDbEntity
  8
0
100
AcDbLine
 62
7
  6
CONTINUOUS
 10
193.814816635
 20
150.5757294619
 11
193.814816635
 21
153.9847294619
  0
LINE
  5
444
100
AcDbEntity
  8
0
100
AcDbLine
 62
7
  6
CONTINUOUS
 10
194.314816635
 20
178.4848083686
 11
194.314816635
 21
168.1398163776
  0
LINE
  5
445
100
AcDbEntity
  8
0
100
AcDbLine
 62
7
  6
CONTINUOUS
 10
194.314816635
 20
167.280570391
 11
194.314816635
 21
165.6506516991
  0
LINE
  5
446
100
AcDbEntity
  8
0
100
AcDbLine
 62
7
  6
CONTINUOUS
 10
194.314816635
 20
165.6443670886
 11
194.314816635
 21
155.170458041
  0
LINE
  5
447
100
AcDbEntity
  8
RUNDUNGEN
100
AcDbLine
 62
7
  6
CONTINUOUS
 10
194.814816635
 20
185.0757294619
 11
194.814816635
 21
178.5757294619
  0
LINE
  5
448
100
AcDbEntity
  8
B-ACHSEN
100
AcDbLine
 62
7
  6
CONTINUOUS
 10
195.814816635
 20
109.0757294619
 11
195.814816635
 21
58.0757294619
  0
LINE
  5
449
100
AcDbEntity
  8
B-ACHSEN
100
AcDbLine
 62
7
  6
CONTINUOUS
 10
207.7074292996
 20
132.6629371108
 11
207.1677578115
 21
128.0757294619
  0
LINE
  5
44A
100
AcDbEntity
  8
B-ACHSEN
100
AcDbLine
 62
7
  6
CONTINUOUS
 10
206.4611149625
 20
122.0692652451
 11
205.814816635
 21
116.5757294619
  0
LINE
  5
44B
100
AcDbEntity
  8
0
100
AcDbLine
 62
7
  6
CONTINUOUS
 10
208.1158309155
 20
127.5757294619
 11
208.0532527002
 21
127.0438146317
  0
LINE
  5
44C
100
AcDbEntity
  8
0
100
AcDbLine
 62
7
  6
CONTINUOUS
 10
207.8655180192
 20
125.4480698431
 11
207.7904241608
 21
124.8097720468
  0
LINE
  5
44D
100
AcDbEntity
  8
0
100
AcDbLine
 62
7
  6
CONTINUOUS
 10
207.5064364004
 20
122.5757294619
 11
207.7695182468
 21
124.8097720468
  0
LINE
  5
44E
100
AcDbEntity
  8
0
100
AcDbLine
 62
7
  6
CONTINUOUS
 10
207.8446833679
 20
125.4480698431
 11
208.0325940972
 21
127.0438146317
  0
LINE
  5
44F
100
AcDbEntity
  8
0
100
AcDbLine
 62
7
  6
CONTINUOUS
 10
207.2457240275
 20
122.0757294619
 11
207.3215967133
 21
122.7140273476
  0
LINE
  5
450
100
AcDbEntity
  8
0
100
AcDbLine
 62
7
  6
CONTINUOUS
 10
207.7615526159
 20
126.416154834
 11
207.7918879646
 21
126.6714743102
  0
LINE
  5
451
100
AcDbEntity
  8
0
100
AcDbLine
 62
7
  6
CONTINUOUS
 10
207.6988671089
 20
126.6714743102
 11
207.6684026366
 21
126.416154834
  0
LINE
  5
452
100
AcDbEntity
  8
0
100
AcDbLine
 62
7
  6
CONTINUOUS
 10
177.814816635
 20
153.1659480447
 11
193.814816635
 21
153.1659480447
  0
LINE
  5
453
100
AcDbEntity
  8
B-ACHSEN
100
AcDbLine
 62
7
  6
CONTINUOUS
 10
177.814816635
 20
153.9847294619
 11
193.814816635
 21
153.9847294619
  0
LINE
  5
454
100
AcDbEntity
  8
0
100
AcDbLine
 62
7
  6
CONTINUOUS
 10
193.814816635
 20
155.170458041
 11
194.314816635
 21
155.170458041
  0
LINE
  5
455
100
AcDbEntity
  8
0
100
AcDbLine
 62
7
  6
CONTINUOUS
 10
193.814816635
 20
155.7012399515
 11
194.314816635
 21
155.7012399515
  0
LINE
  5
456
100
AcDbEntity
  8
0
100
AcDbLine
 62
7
  6
CONTINUOUS
 10
193.814816635
 20
157.4853222896
 11
194.314816635
 21
157.4853222896
  0
LINE
  5
457
100
AcDbEntity
  8
0
100
AcDbLine
 62
7
  6
CONTINUOUS
 10
193.814816635
 20
157.8457129502
 11
194.314816635
 21
157.8457129502
  0
LINE
  5
458
100
AcDbEntity
  8
0
100
AcDbLine
 62
7
  6
CONTINUOUS
 10
193.814816635
 20
158.1091802432
 11
194.314816635
 21
158.1091802432
  0
LINE
  5
459
100
AcDbEntity
  8
0
100
AcDbLine
 62
7
  6
CONTINUOUS
 10
193.814816635
 20
158.2870176123
 11
194.314816635
 21
158.2870176123
  0
LINE
  5
45A
100
AcDbEntity
  8
0
100
AcDbLine
 62
7
  6
CONTINUOUS
 10
193.814816635
 20
158.3274746131
 11
194.314816635
 21
158.3274746131
  0
LINE
  5
45B
100
AcDbEntity
  8
0
100
AcDbLine
 62
7
  6
CONTINUOUS
 10
193.814816635
 20
158.6766971095
 11
194.314816635
 21
158.6766971095
  0
LINE
  5
45C
100
AcDbEntity
  8
0
100
AcDbLine
 62
7
  6
CONTINUOUS
 10
193.814816635
 20
158.9027890395
 11
194.314816635
 21
158.9027890395
  0
LINE
  5
45D
100
AcDbEntity
  8
0
100
AcDbLine
 62
7
  6
CONTINUOUS
 10
193.814816635
 20
158.941494488
 11
194.314816635
 21
158.941494488
  0
LINE
  5
45E
100
AcDbEntity
  8
0
100
AcDbLine
 62
7
  6
CONTINUOUS
 10
193.814816635
 20
159.6303398635
 11
194.314816635
 21
159.6303398635
  0
LINE
  5
45F
100
AcDbEntity
  8
0
100
AcDbLine
 62
7
  6
CONTINUOUS
 10
193.814816635
 20
160.0647310173
 11
194.314816635
 21
160.0647310173
  0
LINE
  5
460
100
AcDbEntity
  8
0
100
AcDbLine
 62
7
  6
CONTINUOUS
 10
193.814816635
 20
160.1672562081
 11
194.314816635
 21
160.1672562081
  0
LINE
  5
461
100
AcDbEntity
  8
0
100
AcDbLine
 62
7
  6
CONTINUOUS
 10
193.814816635
 20
160.4790711262
 11
194.314816635
 21
160.4790711262
  0
LINE
  5
462
100
AcDbEntity
  8
0
100
AcDbLine
 62
7
  6
CONTINUOUS
 10
193.814816635
 20
160.7407082462
 11
194.314816635
 21
160.7407082462
  0
LINE
  5
463
100
AcDbEntity
  8
0
100
AcDbLine
 62
7
  6
CONTINUOUS
 10
193.814816635
 20
160.952167537
 11
194.314816635
 21
160.952167537
  0
LINE
  5
464
100
AcDbEntity
  8
0
100
AcDbLine
 62
7
  6
CONTINUOUS
 10
193.814816635
 20
161.1134494284
 11
194.314816635
 21
161.1134494284
  0
LINE
  5
465
100
AcDbEntity
  8
0
100
AcDbLine
 62
7
  6
CONTINUOUS
 10
193.814816635
 20
161.8022948039
 11
194.314816635
 21
161.8022948039
  0
LINE
  5
466
100
AcDbEntity
  8
0
100
AcDbLine
 62
7
  6
CONTINUOUS
 10
193.814816635
 20
162.2366857505
 11
194.314816635
 21
162.2366857505
  0
LINE
  5
467
100
AcDbEntity
  8
0
100
AcDbLine
 62
7
  6
CONTINUOUS
 10
193.814816635
 20
163.3173847939
 11
194.314816635
 21
163.3173847939
  0
LINE
  5
468
100
AcDbEntity
  8
0
100
AcDbLine
 62
7
  6
CONTINUOUS
 10
193.814816635
 20
164.9765978936
 11
194.314816635
 21
164.9765978936
  0
LINE
  5
469
100
AcDbEntity
  8
0
100
AcDbLine
 62
7
  6
CONTINUOUS
 10
193.814816635
 20
165.2892717002
 11
194.314816635
 21
165.2892717002
  0
LINE
  5
46A
100
AcDbEntity
  8
0
100
AcDbLine
 62
7
  6
CONTINUOUS
 10
193.814816635
 20
165.4998152473
 11
194.314816635
 21
165.4998152473
  0
LINE
  5
46B
100
AcDbEntity
  8
0
100
AcDbLine
 62
7
  6
CONTINUOUS
 10
193.814816635
 20
165.6443670886
 11
194.314816635
 21
165.6443670886
  0
LINE
  5
46C
100
AcDbEntity
  8
0
100
AcDbLine
 62
7
  6
CONTINUOUS
 10
193.814816635
 20
165.6506516991
 11
194.314816635
 21
165.6506516991
  0
LINE
  5
46D
100
AcDbEntity
  8
0
100
AcDbLine
 62
7
  6
CONTINUOUS
 10
193.814816635
 20
165.8819968655
 11
194.314816635
 21
165.8819968655
  0
LINE
  5
46E
100
AcDbEntity
  8
0
100
AcDbLine
 62
7
  6
CONTINUOUS
 10
193.814816635
 20
166.2430683756
 11
194.314816635
 21
166.2430683756
  0
LINE
  5
46F
100
AcDbEntity
  8
0
100
AcDbLine
 62
7
  6
CONTINUOUS
 10
193.814816635
 20
166.4540742272
 11
194.314816635
 21
166.4540742272
  0
LINE
  5
470
100
AcDbEntity
  8
0
100
AcDbLine
 62
7
  6
CONTINUOUS
 10
193.814816635
 20
166.814379175
 11
194.314816635
 21
166.814379175
  0
LINE
  5
471
100
AcDbEntity
  8
0
100
AcDbLine
 62
7
  6
CONTINUOUS
 10
193.814816635
 20
167.0253850265
 11
194.314816635
 21
167.0253850265
  0
LINE
  5
472
100
AcDbEntity
  8
0
100
AcDbLine
 62
7
  6
CONTINUOUS
 10
193.814816635
 20
167.1807821711
 11
194.314816635
 21
167.1807821711
  0
LINE
  5
473
100
AcDbEntity
  8
0
100
AcDbLine
 62
7
  6
CONTINUOUS
 10
193.814816635
 20
167.280570391
 11
194.314816635
 21
167.280570391
  0
LINE
  5
474
100
AcDbEntity
  8
0
100
AcDbLine
 62
7
  6
CONTINUOUS
 10
193.814816635
 20
168.1398163776
 11
194.314816635
 21
168.1398163776
  0
LINE
  5
475
100
AcDbEntity
  8
0
100
AcDbLine
 62
7
  6
CONTINUOUS
 10
193.814816635
 20
170.6343411557
 11
194.314816635
 21
170.6343411557
  0
LINE
  5
476
100
AcDbEntity
  8
0
100
AcDbLine
 62
7
  6
CONTINUOUS
 10
193.814816635
 20
172.0414348241
 11
194.314816635
 21
172.0414348241
  0
LINE
  5
477
100
AcDbEntity
  8
0
100
AcDbLine
 62
7
  6
CONTINUOUS
 10
193.814816635
 20
172.2815039021
 11
194.314816635
 21
172.2815039021
  0
LINE
  5
478
100
AcDbEntity
  8
0
100
AcDbLine
 62
7
  6
CONTINUOUS
 10
193.814816635
 20
172.3567949939
 11
194.314816635
 21
172.3567949939
  0
LINE
  5
479
100
AcDbEntity
  8
0
100
AcDbLine
 62
7
  6
CONTINUOUS
 10
193.814816635
 20
172.5367702067
 11
194.314816635
 21
172.5367702067
  0
LINE
  5
47A
100
AcDbEntity
  8
0
100
AcDbLine
 62
7
  6
CONTINUOUS
 10
193.814816635
 20
172.6428817426
 11
194.314816635
 21
172.6428817426
  0
LINE
  5
47B
100
AcDbEntity
  8
0
100
AcDbLine
 62
7
  6
CONTINUOUS
 10
193.814816635
 20
172.6800883303
 11
194.314816635
 21
172.6800883303
  0
LINE
  5
47C
100
AcDbEntity
  8
0
100
AcDbLine
 62
7
  6
CONTINUOUS
 10
193.814816635
 20
172.8733333808
 11
194.314816635
 21
172.8733333808
  0
LINE
  5
47D
100
AcDbEntity
  8
0
100
AcDbLine
 62
7
  6
CONTINUOUS
 10
193.814816635
 20
173.1185922175
 11
194.314816635
 21
173.1185922175
  0
LINE
  5
47E
100
AcDbEntity
  8
0
100
AcDbLine
 62
7
  6
CONTINUOUS
 10
193.814816635
 20
173.4158644971
 11
194.314816635
 21
173.4158644971
  0
LINE
  5
47F
100
AcDbEntity
  8
0
100
AcDbLine
 62
7
  6
CONTINUOUS
 10
193.814816635
 20
173.8691752393
 11
194.314816635
 21
173.8691752393
  0
LINE
  5
480
100
AcDbEntity
  8
0
100
AcDbLine
 62
7
  6
CONTINUOUS
 10
193.814816635
 20
174.1998578395
 11
194.314816635
 21
174.1998578395
  0
LINE
  5
481
100
AcDbEntity
  8
0
100
AcDbLine
 62
7
  6
CONTINUOUS
 10
193.814816635
 20
174.4692257735
 11
194.314816635
 21
174.4692257735
  0
LINE
  5
482
100
AcDbEntity
  8
0
100
AcDbLine
 62
7
  6
CONTINUOUS
 10
193.814816635
 20
174.7292914653
 11
194.314816635
 21
174.7292914653
  0
LINE
  5
483
100
AcDbEntity
  8
0
100
AcDbLine
 62
7
  6
CONTINUOUS
 10
193.814816635
 20
174.9280424909
 11
194.314816635
 21
174.9280424909
  0
LINE
  5
484
100
AcDbEntity
  8
0
100
AcDbLine
 62
7
  6
CONTINUOUS
 10
193.814816635
 20
174.9521517599
 11
194.314816635
 21
174.9521517599
  0
LINE
  5
485
100
AcDbEntity
  8
0
100
AcDbLine
 62
7
  6
CONTINUOUS
 10
193.814816635
 20
177.0118041832
 11
194.314816635
 21
177.0118041832
  0
LINE
  5
486
100
AcDbEntity
  8
0
100
AcDbLine
 62
7
  6
CONTINUOUS
 10
193.814816635
 20
177.365732796
 11
194.314816635
 21
177.365732796
  0
LINE
  5
487
100
AcDbEntity
  8
B-ACHSEN
100
AcDbLine
 62
7
  6
CONTINUOUS
 10
195.814816635
 20
58.0757294619
 11
194.314816635
 21
56.5757294619
  0
LINE
  5
488
100
AcDbEntity
  8
0
100
AcDbLine
 62
7
  6
CONTINUOUS
 10
193.814816635
 20
178.4848083686
 11
194.314816635
 21
178.4848083686
  0
LINE
  5
489
100
AcDbEntity
  8
RUNDUNGEN
100
AcDbLine
 62
7
  6
CONTINUOUS
 10
194.814816635
 20
178.5757294619
 11
193.814816635
 21
178.5757294619
  0
LINE
  5
48A
100
AcDbEntity
  8
RUNDUNGEN
100
AcDbLine
 62
7
  6
CONTINUOUS
 10
194.814816635
 20
185.0757294619
 11
193.814816635
 21
185.0757294619
  0
LINE
  5
48B
100
AcDbEntity
  8
B-ACHSEN
100
AcDbLine
 62
7
  6
CONTINUOUS
 10
177.814816635
 20
192.5757294619
 11
193.814816635
 21
192.5757294619
  0
ARC
  5
48C
100
AcDbEntity
  8
B-ACHSEN
100
AcDbCircle
 62
7
  6
CONTINUOUS
 10
66.1729949722
 20
140.0144878061
 40
55.0
100
AcDbArc
 50
14.7145988209
 51
72.8738937786
  0
ARC
  5
48D
100
AcDbEntity
  8
B-ACHSEN
100
AcDbCircle
 62
7
  6
CONTINUOUS
 10
68.3352799536
 20
99.023221217
 40
36.2140469763
100
AcDbArc
 50
76.6300140826
 51
76.8552017909
  0
ARC
  5
48E
100
AcDbEntity
  8
B-ACHSEN
100
AcDbCircle
 62
7
  6
CONTINUOUS
 10
71.9191635192
 20
114.5757294619
 40
2.0
100
AcDbArc
 50
343.4282003014
 51
90.0
  0
ARC
  5
48F
100
AcDbEntity
  8
0
100
AcDbCircle
 62
7
  6
CONTINUOUS
 10
0.0452790433
 20
188.6696700718
 40
124.3611907006
100
AcDbArc
 50
328.7075887346
 51
343.4119337188
  0
ARC
  5
490
100
AcDbEntity
  8
0
100
AcDbCircle
 62
7
  6
CONTINUOUS
 10
11.8242687058
 20
171.7356618197
 40
109.0
100
AcDbArc
 50
350.1909963959
 51
350.6274902652
  0
ARC
  5
491
100
AcDbEntity
  8
RUNDUNGEN
100
AcDbCircle
 62
7
  6
CONTINUOUS
 10
71.3691635192
 20
184.0757294619
 40
1.0
100
AcDbArc
 50
90.0
 51
180.0
  0
ARC
  5
492
100
AcDbEntity
  8
RUNDUNGEN
100
AcDbCircle
 62
7
  6
CONTINUOUS
 10
71.3691635192
 20
179.5757294619
 40
1.0
100
AcDbArc
 50
180.0
 51
270.0
  0
ARC
  5
493
100
AcDbEntity
  8
B-ACHSEN
100
AcDbCircle
 62
7
  6
CONTINUOUS
 10
98.5653320662
 20
140.0144878061
 40
55.0
100
AcDbArc
 50
107.1261062214
 51
165.2854011791
  0
ARC
  5
494
100
AcDbEntity
  8
B-ACHSEN
100
AcDbCircle
 62
7
  6
CONTINUOUS
 10
96.4028958187
 20
99.0238639377
 40
36.2133866856
100
AcDbArc
 50
103.1448716129
 51
103.3697317005
  0
ARC
  5
495
100
AcDbEntity
  8
B-ACHSEN
100
AcDbCircle
 62
7
  6
CONTINUOUS
 10
92.8191635192
 20
114.5757294619
 40
2.0
100
AcDbArc
 50
90.0
 51
196.5717996986
  0
ARC
  5
496
100
AcDbEntity
  8
0
100
AcDbCircle
 62
7
  6
CONTINUOUS
 10
164.6930479951
 20
188.6696700718
 40
124.3611907006
100
AcDbArc
 50
196.5880662812
 51
211.2924112654
  0
ARC
  5
497
100
AcDbEntity
  8
0
100
AcDbCircle
 62
7
  6
CONTINUOUS
 10
152.9140583326
 20
171.7356618197
 40
109.0
100
AcDbArc
 50
189.3725097348
 51
189.8090036041
  0
ARC
  5
498
100
AcDbEntity
  8
RUNDUNGEN
100
AcDbCircle
 62
7
  6
CONTINUOUS
 10
82.3691635192
 20
153.5759480447
 40
20.0
100
AcDbArc
 50
253.6544879482
 51
286.3455317921
  0
ARC
  5
499
100
AcDbEntity
  8
0
100
AcDbCircle
 62
7
  6
CONTINUOUS
 10
82.3691635192
 20
153.5759480447
 40
20.0
100
AcDbArc
 50
246.4933063743
 51
253.6544879482
  0
ARC
  5
49A
100
AcDbEntity
  8
0
100
AcDbCircle
 62
7
  6
CONTINUOUS
 10
82.3691635192
 20
153.5759480447
 40
20.0
100
AcDbArc
 50
286.3455317921
 51
293.5067600663
  0
ARC
  5
49B
100
AcDbEntity
  8
RUNDUNGEN
100
AcDbCircle
 62
7
  6
CONTINUOUS
 10
82.3691635192
 20
153.5759480447
 40
20.0
100
AcDbArc
 50
352.8187182653
 51
187.1812817349
  0
ARC
  5
49C
100
AcDbEntity
  8
0
100
AcDbCircle
 62
7
  6
CONTINUOUS
 10
82.3691635192
 20
153.5759480447
 40
20.0
100
AcDbArc
 50
336.141462473
 51
203.8585487351
  0
ARC
  5
49D
100
AcDbEntity
  8
RUNDUNGEN
100
AcDbCircle
 62
7
  6
CONTINUOUS
 10
93.3691635192
 20
179.5757294619
 40
1.0
100
AcDbArc
 50
270.0
 51
360.0
  0
ARC
  5
49E
100
AcDbEntity
  8
RUNDUNGEN
100
AcDbCircle
 62
7
  6
CONTINUOUS
 10
93.3691635192
 20
184.0757294619
 40
1.0
100
AcDbArc
 50
0.0
 51
90.0
  0
ARC
  5
49F
100
AcDbEntity
  8
0
100
AcDbCircle
 62
7
  6
CONTINUOUS
 10
210.0771360052
 20
150.5757294619
 40
16.2623193701
100
AcDbArc
 50
180.0
 51
188.1848339689
  0
ARC
  5
4A0
100
AcDbEntity
  8
0
100
AcDbCircle
 62
7
  6
CONTINUOUS
 10
161.5524972649
 20
150.5757294619
 40
16.2623193701
100
AcDbArc
 50
351.8151660311
 51
360.0
  0
ARC
  5
4A1
100
AcDbEntity
  8
RUNDUNGEN
100
AcDbCircle
 62
7
  6
CONTINUOUS
 10
210.0771360052
 20
150.5757294619
 40
16.2623193701
100
AcDbArc
 50
188.1848339689
 51
256.3523343679
  0
ARC
  5
4A2
100
AcDbEntity
  8
RUNDUNGEN
100
AcDbCircle
 62
7
  6
CONTINUOUS
 10
161.5524972649
 20
150.5757294619
 40
16.2623193701
100
AcDbArc
 50
283.6476658352
 51
351.8151660311
  0
ARC
  5
4A3
100
AcDbEntity
  8
B-ACHSEN
100
AcDbCircle
 62
7
  6
CONTINUOUS
 10
175.364816635
 20
114.5757294619
 40
2.0
100
AcDbArc
 50
343.4282003014
 51
90.0
  0
ARC
  5
4A4
100
AcDbEntity
  8
B-ACHSEN
100
AcDbCircle
 62
7
  6
CONTINUOUS
 10
196.264816635
 20
114.5757294619
 40
2.0
100
AcDbArc
 50
90.0
 51
196.5717996986
  0
ARC
  5
4A5
100
AcDbEntity
  8
B-ACHSEN
100
AcDbCircle
 62
7
  6
CONTINUOUS
 10
205.7827765326
 20
132.8893668481
 40
1.9379263916
100
AcDbArc
 50
353.2901631922
 51
76.3523324605
  0
ARC
  5
4A6
100
AcDbEntity
  8
BEZUGSACHSEN
100
AcDbCircle
 62
7
  6
CONTINUOUS
 10
165.8468567374
 20
132.8893668481
 40
1.9379263916
100
AcDbArc
 50
103.6476658352
 51
186.7098368078
  0
SPLINE
  5
4A7
100
AcDbEntity
  8
0
100
AcDbSpline
 62
7
  6
CONTINUOUS
 70
0
 71
3
 72
19
 73
15
 74
0
 42
0.0000001
 43
0.0000001
 44
0.0000000001
 40
0.0
 40
0.0
 40
0.0
 40
0.0
 40
0.024585648
 40
0.0513289661
 40
0.1079687669
 40
0.1665696658
 40
0.2260213547
 40
0.2859014472
 40
0.3460726631
 40
0.4673677282
 40
0.5912176437
 40
0.7199341329
 40
0.8558482966
 40
1.0
 40
1.0
 40
1.0
 40
1.0
 10
100.6600584042
 20
145.4862606849
 30
0.0
 10
100.6097673057
 20
145.3725502848
 30
0.0
 10
100.5123925183
 20
145.1318326619
 30
0.0
 10
100.3151806971
 20
144.6227088819
 30
0.0
 10
100.0538022894
 20
143.9538633678
 30
0.0
 10
99.7055993331
 20
143.1416666267
 30
0.0
 10
99.3142102823
 20
142.330999724
 30
0.0
 10
98.8756529127
 20
141.5355406103
 30
0.0
 10
98.2215142111
 20
140.5043655597
 30
0.0
 10
97.2607878895
 20
139.2877597986
 30
0.0
 10
95.8599419313
 20
138.0048787484
 30
0.0
 10
94.203876087
 20
136.9327406064
 30
0.0
 10
92.3299949534
 20
136.0519292335
 30
0.0
 10
91.014792603
 20
135.5264479544
 30
0.0
 10
90.3462827275
 20
135.2356777964
 30
0.0
  0
SPLINE
  5
4A8
100
AcDbEntity
  8
0
100
AcDbSpline
 62
7
  6
CONTINUOUS
 70
0
 71
3
 72
19
 73
15
 74
0
 42
0.0000001
 43
0.0000001
 44
0.0000000001
 40
0.0
 40
0.0
 40
0.0
 40
0.0
 40
0.1441505776
 40
0.2800643593
 40
0.408780979
 40
0.5326317153
 40
0.6539280757
 40
0.7140996635
 40
0.7739802564
 40
0.8334319458
 40
0.8920330509
 40
0.9486733059
 40
0.9754143433
 40
1.0
 40
1.0
 40
1.0
 40
1.0
 10
74.3920448956
 20
135.2356763303
 30
0.0
 10
73.7235326438
 20
135.5264466017
 30
0.0
 10
72.4083230972
 20
136.0519298436
 30
0.0
 10
70.5344238869
 20
136.932742083
 30
0.0
 10
68.8783523386
 20
138.0049153758
 30
0.0
 10
67.47747932
 20
139.287814198
 30
0.0
 10
66.5167504497
 20
140.5044562056
 30
0.0
 10
65.8626030693
 20
141.5356543883
 30
0.0
 10
65.4240519931
 20
142.3311333792
 30
0.0
 10
65.0326589858
 20
143.1418128127
 30
0.0
 10
64.6844501627
 20
143.9540216502
 30
0.0
 10
64.4231092809
 20
144.6228814289
 30
0.0
 10
64.2258536327
 20
145.1319844723
 30
0.0
 10
64.1284968554
 20
145.3727000356
 30
0.0
 10
64.0782049865
 20
145.4864116198
 30
0.0
  0
SPLINE
  5
4A9
100
AcDbEntity
  8
RUNDUNGEN
100
AcDbSpline
 62
7
  6
CONTINUOUS
 70
0
 71
3
 72
9
 73
5
 74
0
 42
0.0000001
 43
0.0000001
 44
0.0000000001
 40
0.0
 40
0.0
 40
0.0
 40
0.0
 40
0.4997899559
 40
1.0
 40
1.0
 40
1.0
 40
1.0
 10
90.1886253497
 20
134.7725742909
 30
0.0
 10
89.8186469939
 20
134.7410199626
 30
0.0
 10
89.0804538803
 20
134.6499552717
 30
0.0
 10
88.3532624092
 20
134.4885604322
 30
0.0
 10
87.9966406671
 20
134.3840019616
 30
0.0
  0
SPLINE
  5
4AA
100
AcDbEntity
  8
RUNDUNGEN
100
AcDbSpline
 62
7
  6
CONTINUOUS
 70
0
 71
3
 72
9
 73
5
 74
0
 42
0.0000001
 43
0.0000001
 44
0.0000000001
 40
0.0
 40
0.0
 40
0.0
 40
0.0
 40
0.500200426
 40
1.0
 40
1.0
 40
1.0
 40
1.0
 10
76.7418423588
 20
134.3839540127
 30
0.0
 10
76.3851966921
 20
134.4885071973
 30
0.0
 10
75.6579524294
 20
134.6499181888
 30
0.0
 10
74.919705216
 20
134.7410195639
 30
0.0
 10
74.5496911038
 20
134.7725752207
 30
0.0
  0
SPLINE
  5
4AB
100
AcDbEntity
  8
RUNDUNGEN
100
AcDbSpline
 62
7
  6
CONTINUOUS
 70
0
 71
3
 72
9
 73
5
 74
0
 42
0.0000001
 43
0.0000001
 44
0.0000000001
 40
0.0
 40
0.0
 40
0.0
 40
0.0
 40
0.2578867301
 40
1.0
 40
1.0
 40
1.0
 40
1.0
 10
66.5134014264
 20
136.3751717276
 30
0.0
 10
66.7371886391
 20
136.3148907762
 30
0.0
 10
67.6036311588
 20
136.0761758889
 30
0.0
 10
68.465470077
 20
135.8211567423
 30
0.0
 10
69.1043232186
 20
135.6296466184
 30
0.0
  0
SPLINE
  5
4AC
100
AcDbEntity
  8
RUNDUNGEN
100
AcDbSpline
 62
7
  6
CONTINUOUS
 70
0
 71
3
 72
9
 73
5
 74
0
 42
0.0000001
 43
0.0000001
 44
0.0000000001
 40
0.0
 40
0.0
 40
0.0
 40
0.0
 40
0.2416506085
 40
1.0
 40
1.0
 40
1.0
 40
1.0
 10
95.6340077137
 20
135.6296477679
 30
0.0
 10
95.8420325368
 20
135.6920077894
 30
0.0
 10
96.7031266301
 20
135.9492082673
 30
0.0
 10
97.5668610012
 20
136.1979110864
 30
0.0
 10
98.2249309619
 20
136.3751736618
 30
0.0
  0
SPLINE
  5
4AD
100
AcDbEntity
  8
RUNDUNGEN
100
AcDbSpline
 62
7
  6
CONTINUOUS
 70
0
 71
3
 72
9
 73
5
 74
0
 42
0.0000001
 43
0.0000001
 44
0.0000000001
 40
0.0
 40
0.0
 40
0.0
 40
0.0
 40
0.5139704854
 40
1.0
 40
1.0
 40
1.0
 40
1.0
 10
73.8236463831
 20
134.7725759587
 30
0.0
 10
73.0049197259
 20
134.8532486722
 30
0.0
 10
71.4158489996
 20
135.0558100175
 30
0.0
 10
69.8495278473
 20
135.4062553649
 30
0.0
 10
69.1043232186
 20
135.6296466184
 30
0.0
  0
SPLINE
  5
4AE
100
AcDbEntity
  8
B-ACHSEN
100
AcDbSpline
 62
7
  6
CONTINUOUS
 70
0
 71
3
 72
10
 73
6
 74
0
 42
0.0000001
 43
0.0000001
 44
0.0000000001
 40
0.0
 40
0.0
 40
0.0
 40
0.0
 40
0.5030664294
 40
0.7528698036
 40
1.0
 40
1.0
 40
1.0
 40
1.0
 10
82.3691635192
 20
132.6629371108
 30
0.0
 10
81.4232556332
 20
132.9414795375
 30
0.0
 10
80.0103447906
 20
133.3675747367
 30
0.0
 10
78.1239792158
 20
133.9004086448
 30
0.0
 10
77.1806301812
 20
134.1437589036
 30
0.0
 10
76.7093541912
 20
134.2557641151
 30
0.0
  0
SPLINE
  5
4AF
100
AcDbEntity
  8
B-ACHSEN
100
AcDbSpline
 62
7
  6
CONTINUOUS
 70
0
 71
3
 72
9
 73
5
 74
0
 42
0.0000001
 43
0.0000001
 44
0.0000000001
 40
0.0
 40
0.0
 40
0.0
 40
0.0
 40
0.5060564926
 40
1.0
 40
1.0
 40
1.0
 40
1.0
 10
76.5708165719
 20
134.2884042594
 30
0.0
 10
76.1123576122
 20
134.3954614497
 30
0.0
 10
75.2022382964
 20
134.5896211489
 30
0.0
 10
74.2809556258
 20
134.7275152759
 30
0.0
 10
73.8236463897
 20
134.7725759587
 30
0.0
  0
SPLINE
  5
4B0
100
AcDbEntity
  8
B-ACHSEN
100
AcDbSpline
 62
7
  6
CONTINUOUS
 70
0
 71
3
 72
9
 73
5
 74
0
 42
0.0000001
 43
0.0000001
 44
0.0000000001
 40
0.0
 40
0.0
 40
0.0
 40
0.0
 40
0.4939434379
 40
1.0
 40
1.0
 40
1.0
 40
1.0
 10
90.9146807747
 20
134.7725759723
 30
0.0
 10
90.4573637965
 20
134.7275145291
 30
0.0
 10
89.5360654731
 20
134.5896173314
 30
0.0
 10
88.6259308867
 20
134.39545308
 30
0.0
 10
88.1674641803
 20
134.2883934393
 30
0.0
  0
SPLINE
  5
4B1
100
AcDbEntity
  8
B-ACHSEN
100
AcDbSpline
 62
7
  6
CONTINUOUS
 70
0
 71
3
 72
10
 73
6
 74
0
 42
0.0000001
 43
0.0000001
 44
0.0000000001
 40
0.0
 40
0.0
 40
0.0
 40
0.0
 40
0.2471299962
 40
0.496933348
 40
1.0
 40
1.0
 40
1.0
 40
1.0
 10
88.0291305869
 20
134.2558015949
 30
0.0
 10
87.5578414942
 20
134.1437954558
 30
0.0
 10
86.614466183
 20
133.9004411606
 30
0.0
 10
84.7280479858
 20
133.3675947192
 30
0.0
 10
83.3150979016
 20
132.9414873399
 30
0.0
 10
82.3691635192
 20
132.6629371108
 30
0.0
  0
SPLINE
  5
4B2
100
AcDbEntity
  8
RUNDUNGEN
100
AcDbSpline
 62
7
  6
CONTINUOUS
 70
0
 71
3
 72
9
 73
5
 74
0
 42
0.0000001
 43
0.0000001
 44
0.0000000001
 40
0.0
 40
0.0
 40
0.0
 40
0.0
 40
0.486029519
 40
1.0
 40
1.0
 40
1.0
 40
1.0
 10
95.6340077137
 20
135.6296477679
 30
0.0
 10
94.8888025147
 20
135.4062561725
 30
0.0
 10
93.3224801246
 20
135.055810289
 30
0.0
 10
91.7334080951
 20
134.8532487581
 30
0.0
 10
90.9146807747
 20
134.7725759723
 30
0.0
  0
SPLINE
  5
4B3
100
AcDbEntity
  8
RUNDUNGEN
100
AcDbSpline
 62
7
  6
CONTINUOUS
 70
0
 71
3
 72
14
 73
10
 74
0
 42
0.0000001
 43
0.0000001
 44
0.0000000001
 40
0.0
 40
0.0
 40
0.0
 40
0.0
 40
0.1307670493
 40
0.2593552054
 40
0.3860098756
 40
0.511071673
 40
0.6348207574
 40
0.7574700155
 40
1.0
 40
1.0
 40
1.0
 40
1.0
 10
117.6582277684
 20
148.2605121415
 30
0.0
 10
117.1307440686
 20
147.3946318012
 30
0.0
 10
115.8887014495
 20
145.7938346457
 30
0.0
 10
113.6955504457
 20
143.746082546
 30
0.0
 10
111.3141341069
 20
141.9978325352
 30
0.0
 10
108.8150972484
 20
140.498319676
 30
0.0
 10
106.2373914587
 20
139.2080656461
 30
0.0
 10
102.7419377977
 20
137.7361401997
 30
0.0
 10
100.040657991
 20
136.8642710925
 30
0.0
 10
98.2249309619
 20
136.3751736618
 30
0.0
  0
SPLINE
  5
4B4
100
AcDbEntity
  8
RUNDUNGEN
100
AcDbSpline
 62
7
  6
CONTINUOUS
 70
0
 71
3
 72
14
 73
10
 74
0
 42
0.0000001
 43
0.0000001
 44
0.0000000001
 40
0.0
 40
0.0
 40
0.0
 40
0.0
 40
0.2425299535
 40
0.3651792058
 40
0.48892829
 40
0.6139901053
 40
0.7406448002
 40
0.8692329853
 40
1.0
 40
1.0
 40
1.0
 40
1.0
 10
66.5134014264
 20
136.3751717276
 30
0.0
 10
64.6976741024
 20
136.8642691197
 30
0.0
 10
61.9963937626
 20
137.7361381748
 30
0.0
 10
58.500939389
 20
139.208063919
 30
0.0
 10
55.9232330724
 20
140.4983188327
 30
0.0
 10
53.4241946702
 20
141.9978312264
 30
0.0
 10
51.0427766323
 20
143.7460813736
 30
0.0
 10
48.8496259365
 20
145.7938352338
 30
0.0
 10
47.6075827953
 20
147.3946325442
 30
0.0
 10
47.0800990256
 20
148.2605128527
 30
0.0
  0
LINE
  5
4B5
100
AcDbEntity
  8
0
100
AcDbLine
 62
7
  6
CONTINUOUS
 10
206.4004019646
 20
124.245942148
 11
206.4803064018
 21
124.884240123
  0
SPLINE
  5
4B6
100
AcDbEntity
  8
0
100
AcDbSpline
 62
7
  6
CONTINUOUS
 70
0
 71
3
 72
8
 73
4
 74
0
 42
0.0000001
 43
0.0000001
 44
0.0000000001
 40
0.0
 40
0.0
 40
0.0
 40
0.0
 40
1.0
 40
1.0
 40
1.0
 40
1.0
 10
205.1746668858
 20
122.0757294619
 30
0.0
 10
205.4378253285
 20
124.0755958808
 30
0.0
 10
205.6999271112
 20
126.0756015659
 30
0.0
 10
205.9610907741
 20
128.0757294619
 30
0.0
  0
LINE
  5
4B7
100
AcDbEntity
  8
0
100
AcDbLine
 62
7
  6
CONTINUOUS
 10
206.67698591
 20
126.6714743102
 11
206.6464788906
 21
126.416154834
  0
LINE
  5
4B8
100
AcDbEntity
  8
0
100
AcDbLine
 62
7
  6
CONTINUOUS
 10
204.0537704662
 20
127.1821125472
 11
203.9136567935
 21
126.1608357155
  0
SPLINE
  5
4B9
100
AcDbEntity
  8
0
100
AcDbSpline
 62
7
  6
CONTINUOUS
 70
0
 71
3
 72
8
 73
4
 74
0
 42
0.0000001
 43
0.0000001
 44
0.0000000001
 40
0.0
 40
0.0
 40
0.0
 40
0.0
 40
1.0
 40
1.0
 40
1.0
 40
1.0
 10
203.7092586151
 20
122.0757294619
 30
0.0
 10
203.8940889985
 20
123.4373379648
 30
0.0
 10
204.0782203343
 20
124.7990415112
 30
0.0
 10
204.2617131433
 20
126.1608309129
 30
0.0
  0
LINE
  5
4BA
100
AcDbEntity
  8
0
100
AcDbLine
 62
7
  6
CONTINUOUS
 10
208.0680973165
 20
127.5757294619
 11
208.0191743091
 21
127.1607813565
  0
LINE
  5
4BB
100
AcDbEntity
  8
0
100
AcDbLine
 62
7
  6
CONTINUOUS
 10
208.0191743091
 20
127.1607813565
 11
207.9591571134
 21
126.6517522283
  0
LINE
  5
4BC
100
AcDbEntity
  8
0
100
AcDbLine
 62
7
  6
CONTINUOUS
 10
207.9591571134
 20
126.6517522283
 11
207.9290499089
 21
126.3964058525
  0
LINE
  5
4BD
100
AcDbEntity
  8
0
100
AcDbLine
 62
7
  6
CONTINUOUS
 10
207.9290499089
 20
126.3964058525
 11
207.8686376318
 21
125.8840393123
  0
LINE
  5
4BE
100
AcDbEntity
  8
0
100
AcDbLine
 62
7
  6
CONTINUOUS
 10
207.8686376318
 20
125.8840393123
 11
207.8230611188
 21
125.4974974586
  0
LINE
  5
4BF
100
AcDbEntity
  8
0
100
AcDbLine
 62
7
  6
CONTINUOUS
 10
207.8230611188
 20
125.4974974586
 11
207.4785659518
 21
122.5757294619
  0
LINE
  5
4C0
100
AcDbEntity
  8
0
100
AcDbLine
 62
7
  6
CONTINUOUS
 10
206.4851237162
 20
122.7140273476
 11
206.4061691199
 21
122.0757294619
  0
LINE
  5
4C1
100
AcDbEntity
  8
0
100
AcDbLine
 62
7
  6
CONTINUOUS
 10
205.9171167526
 20
124.884240123
 11
205.8349646384
 21
124.245942148
  0
SPLINE
  5
4C2
100
AcDbEntity
  8
0
100
AcDbSpline
 62
7
  6
CONTINUOUS
 70
0
 71
3
 72
9
 73
5
 74
0
 42
0.0000001
 43
0.0000001
 44
0.0000000001
 40
0.0
 40
0.0
 40
0.0
 40
0.0
 40
0.4876670461
 40
1.0
 40
1.0
 40
1.0
 40
1.0
 10
175.9266055309
 20
124.0757294619
 30
0.0
 10
176.4995985263
 20
127.9776626833
 30
0.0
 10
177.3477134712
 20
136.0288786012
 30
0.0
 10
177.6318657935
 20
144.1172945245
 30
0.0
 10
177.6491678321
 20
148.2605128527
 30
0.0
  0
LINE
  5
4C3
100
AcDbEntity
  8
0
100
AcDbLine
 62
7
  6
CONTINUOUS
 10
205.2174446515
 20
127.1821125472
 11
205.0795147764
 21
126.1608357155
  0
SPLINE
  5
4C4
100
AcDbEntity
  8
0
100
AcDbSpline
 62
7
  6
CONTINUOUS
 70
0
 71
3
 72
9
 73
5
 74
0
 42
0.0000001
 43
0.0000001
 44
0.0000000001
 40
0.0
 40
0.0
 40
0.0
 40
0.0
 40
0.512333227
 40
1.0
 40
1.0
 40
1.0
 40
1.0
 10
193.980465438
 20
148.2605128527
 30
0.0
 10
193.9977674858
 20
144.1172923157
 30
0.0
 10
194.2819199252
 20
136.028876385
 30
0.0
 10
195.1300350646
 20
127.9776604982
 30
0.0
 10
195.7030277392
 20
124.0757294619
 30
0.0
  0
SPLINE
  5
4C5
100
AcDbEntity
  8
0
100
AcDbSpline
 62
7
  6
CONTINUOUS
 70
0
 71
3
 72
8
 73
4
 74
0
 42
0.0000001
 43
0.0000001
 44
0.0000000001
 40
0.0
 40
0.0
 40
0.0
 40
0.0
 40
1.0
 40
1.0
 40
1.0
 40
1.0
 10
205.5255680638
 20
127.0544529879
 30
0.0
 10
205.3052595084
 20
125.3947713606
 30
0.0
 10
205.0841733664
 20
123.7351927246
 30
0.0
 10
204.8622259772
 20
122.0757294619
 30
0.0
  0
LINE
  5
4C6
100
AcDbEntity
  8
0
100
AcDbLine
 62
7
  6
CONTINUOUS
 10
205.423937534
 20
122.7140273476
 11
205.3445644134
 21
122.0757294619
  0
ELLIPSE
  5
4C7
100
AcDbEntity
  8
0
100
AcDbEllipse
 62
7
  6
CONTINUOUS
 10
185.814816635
 20
127.7853807523
 30
0.0
 11
22.2976845958
 21
0.0
 31
0.0
 40
0.4260661156
 41
-0.0893740289
 42
-0.0781367107
  0
ELLIPSE
  5
4C8
100
AcDbEntity
  8
0
100
AcDbEllipse
 62
7
  6
CONTINUOUS
 10
185.814816635
 20
132.4399166378
 30
0.0
 11
-0.0
 21
29.199903781
 31
0.0
 40
0.7744488441
 41
-1.7640829294
 42
-1.7603716944
  0
ELLIPSE
  5
4C9
100
AcDbEntity
  8
0
100
AcDbEllipse
 62
7
  6
CONTINUOUS
 10
185.814816635
 20
128.739427973
 30
0.0
 11
0.0
 21
28.6441361025
 31
0.0
 40
0.7744488441
 41
-1.6822179047
 42
-1.6784813641
  0
ELLIPSE
  5
4CA
100
AcDbEntity
  8
0
100
AcDbEllipse
 62
7
  6
CONTINUOUS
 10
185.814816635
 20
125.6523755495
 30
0.0
 11
22.0470574673
 21
-0.0
 31
0.0
 40
0.4260661156
 41
-0.0217513949
 42
-0.0104247055
  0
ELLIPSE
  5
4CB
100
AcDbEntity
  8
0
100
AcDbEllipse
 62
7
  6
CONTINUOUS
 10
185.814816635
 20
132.7435217126
 30
0.0
 11
-0.0
 21
25.736054097
 31
0.0
 40
0.882342931
 41
-1.9711086446
 42
-1.8551931069
  0
ELLIPSE
  5
4CC
100
AcDbEntity
  8
0
100
AcDbEllipse
 62
7
  6
CONTINUOUS
 10
185.814816635
 20
142.4063178381
 30
0.0
 11
0.0
 21
46.04516703
 31
0.0
 40
0.5087973701
 41
-1.9462328207
 42
-1.9373082384
  0
ELLIPSE
  5
4CD
100
AcDbEntity
  8
0
100
AcDbEllipse
 62
7
  6
CONTINUOUS
 10
185.814816635
 20
257.5740956042
 30
0.0
 11
0.0
 21
191.9737711702
 31
0.0
 40
0.1565567611
 41
-2.3265914868
 42
-2.3229426188
  0
ELLIPSE
  5
4CE
100
AcDbEntity
  8
0
100
AcDbEllipse
 62
7
  6
CONTINUOUS
 10
185.814816635
 20
208.435941604
 30
0.0
 11
-0.0
 21
162.4540388533
 31
0.0
 40
0.1565567611
 41
-2.0982194379
 42
-2.094585672
  0
ELLIPSE
  5
4CF
100
AcDbEntity
  8
0
100
AcDbEllipse
 62
7
  6
CONTINUOUS
 10
185.814816635
 20
127.3680784432
 30
0.0
 11
-0.0
 21
28.4382170272
 31
0.0
 40
0.7744477107
 41
-1.5773356686
 42
-1.5593793173
  0
ELLIPSE
  5
4D0
100
AcDbEntity
  8
0
100
AcDbEllipse
 62
7
  6
CONTINUOUS
 10
185.814816635
 20
126.4575113438
 30
0.0
 11
22.1068631357
 21
-0.0
 31
0.0
 40
0.6401048454
 41
0.0874029322
 42
0.1055303072
  0
ELLIPSE
  5
4D1
100
AcDbEntity
  8
0
100
AcDbEllipse
 62
7
  6
CONTINUOUS
 10
185.814816635
 20
127.2155515133
 30
0.0
 11
22.2516660659
 21
-0.0
 31
0.0
 40
0.2128326193
 41
0.1552976509
 42
0.1826437681
  0
ELLIPSE
  5
4D2
100
AcDbEntity
  8
0
100
AcDbEllipse
 62
7
  6
CONTINUOUS
 10
185.814816635
 20
149.063327076
 30
0.0
 11
0.0
 21
47.5448699871
 31
0.0
 40
0.5087973701
 41
-2.0611779138
 42
-2.0520687573
  0
ELLIPSE
  5
4D3
100
AcDbEntity
  8
0
100
AcDbEllipse
 62
7
  6
CONTINUOUS
 10
185.814816635
 20
134.040875502
 30
0.0
 11
22.9457316371
 21
0.0
 31
0.0
 40
0.8553620495
 41
-0.363942697
 42
-0.3500585602
  0
ELLIPSE
  5
4D4
100
AcDbEntity
  8
0
100
AcDbEllipse
 62
7
  6
CONTINUOUS
 10
185.814816635
 20
128.9117931655
 30
0.0
 11
22.4480644751
 21
-0.0
 31
0.0
 40
0.2554341828
 41
-0.2831583808
 42
-0.2600470729
  0
ELLIPSE
  5
4D5
100
AcDbEntity
  8
0
100
AcDbEllipse
 62
7
  6
CONTINUOUS
 10
185.814816635
 20
148.8683791277
 30
0.0
 11
-0.0
 21
36.9451642574
 31
0.0
 40
0.6610410295
 41
-2.2327109917
 42
-2.2024010164
  0
ELLIPSE
  5
4D6
100
AcDbEntity
  8
0
100
AcDbEllipse
 62
7
  6
CONTINUOUS
 10
185.814816635
 20
129.0715929329
 30
0.0
 11
21.4651593052
 21
0.0
 31
0.0
 40
0.1824128886
 41
-0.2910318377
 42
-0.257162474
  0
ELLIPSE
  5
4D7
100
AcDbEntity
  8
0
100
AcDbEllipse
 62
7
  6
CONTINUOUS
 10
185.814816635
 20
132.6355717403
 30
0.0
 11
21.8275879111
 21
0.0
 31
0.0
 40
0.6401048454
 41
-0.3615961014
 42
-0.3421294365
  0
ELLIPSE
  5
4D8
100
AcDbEntity
  8
0
100
AcDbEllipse
 62
7
  6
CONTINUOUS
 10
185.814816635
 20
139.8393078272
 30
0.0
 11
-0.0
 21
29.0258224887
 31
0.0
 40
0.7744482774
 41
-2.0220196236
 42
-2.0025609916
  0
ELLIPSE
  5
4D9
100
AcDbEntity
  8
0
100
AcDbEllipse
 62
7
  6
CONTINUOUS
 10
185.814816635
 20
281.1053444208
 30
0.0
 11
-0.0
 21
200.9685729261
 31
0.0
 40
0.1565567611
 41
-2.447208385
 42
-2.4432471185
  0
ELLIPSE
  5
4DA
100
AcDbEntity
  8
0
100
AcDbEllipse
 62
7
  6
CONTINUOUS
 10
185.814816635
 20
154.6352596415
 30
0.0
 11
-0.0
 21
62.4960311784
 31
0.0
 40
0.3735795649
 41
-2.048459407
 42
-2.0392805531
  0
ELLIPSE
  5
4DB
100
AcDbEntity
  8
0
100
AcDbEllipse
 62
7
  6
CONTINUOUS
 10
185.814816635
 20
133.7159184299
 30
0.0
 11
-0.0
 21
25.0947840567
 31
0.0
 40
0.8694096309
 41
-1.9304526295
 42
-1.887289748
  0
ELLIPSE
  5
4DC
100
AcDbEntity
  8
0
100
AcDbEllipse
 62
7
  6
CONTINUOUS
 10
185.814816635
 20
133.7159184299
 30
0.0
 11
0.0
 21
25.0947840567
 31
0.0
 40
0.8694096309
 41
-2.0246290096
 42
-1.9577527139
  0
ELLIPSE
  5
4DD
100
AcDbEntity
  8
0
100
AcDbEllipse
 62
7
  6
CONTINUOUS
 10
185.814816635
 20
149.6509049354
 30
0.0
 11
0.0
 21
35.5826297586
 31
0.0
 40
0.6610413025
 41
-2.2542231844
 42
-2.2222463452
  0
ELLIPSE
  5
4DE
100
AcDbEntity
  8
0
100
AcDbEllipse
 62
7
  6
CONTINUOUS
 10
185.814816635
 20
129.0755345733
 30
0.0
 11
22.4722877731
 21
0.0
 31
0.0
 40
0.1824128886
 41
-0.2786341223
 42
-0.2463857073
  0
ELLIPSE
  5
4DF
100
AcDbEntity
  8
0
100
AcDbEllipse
 62
7
  6
CONTINUOUS
 10
185.814816635
 20
132.6841082109
 30
0.0
 11
22.8373355946
 21
0.0
 31
0.0
 40
0.6401048454
 41
-0.3484550051
 42
-0.3299337379
  0
ELLIPSE
  5
4E0
100
AcDbEntity
  8
0
100
AcDbEllipse
 62
7
  6
CONTINUOUS
 10
185.814816635
 20
140.0368142062
 30
0.0
 11
-0.0
 21
30.3408856387
 31
0.0
 40
0.7744482774
 41
-2.008295919
 42
-1.9897948928
  0
ELLIPSE
  5
4E1
100
AcDbEntity
  8
0
100
AcDbEllipse
 62
7
  6
CONTINUOUS
 10
185.814816635
 20
285.9384057646
 30
0.0
 11
-0.0
 21
209.0136225917
 31
0.0
 40
0.1565567611
 41
-2.4371815858
 42
-2.4334173041
  0
ELLIPSE
  5
4E2
100
AcDbEntity
  8
0
100
AcDbEllipse
 62
7
  6
CONTINUOUS
 10
185.814816635
 20
126.4074085151
 30
0.0
 11
22.1535639337
 21
-0.0
 31
0.0
 40
0.2554341828
 41
0.1601463024
 42
0.1830426211
  0
ELLIPSE
  5
4E3
100
AcDbEntity
  8
0
100
AcDbEllipse
 62
7
  6
CONTINUOUS
 10
185.814816635
 20
125.6159924347
 30
0.0
 11
21.9595496629
 21
0.0
 31
0.0
 40
0.8553620495
 41
0.0766566736
 42
0.0902971087
  0
ELLIPSE
  5
4E4
100
AcDbEntity
  8
0
100
AcDbEllipse
 62
7
  6
CONTINUOUS
 10
185.814816635
 20
129.2940276842
 30
0.0
 11
0.0
 21
43.0912068332
 31
0.0
 40
0.5087973701
 41
-1.6316944836
 42
-1.6227926467
  0
ELLIPSE
  5
4E5
100
AcDbEntity
  8
0
100
AcDbEllipse
 62
7
  6
CONTINUOUS
 10
185.814816635
 20
155.4840486348
 30
0.0
 11
0.0
 21
65.3217888438
 31
0.0
 40
0.3735795649
 41
-2.040713733
 42
-2.031965421
  0
ELLIPSE
  5
4E6
100
AcDbEntity
  8
0
100
AcDbEllipse
 62
7
  6
CONTINUOUS
 10
185.814816635
 20
133.8726357763
 30
0.0
 11
-0.0
 21
26.2634776689
 31
0.0
 40
0.8694096309
 41
-2.0096164804
 42
-1.8790064089
  0
ELLIPSE
  5
4E7
100
AcDbEntity
  8
0
100
AcDbEllipse
 62
7
  6
CONTINUOUS
 10
185.814816635
 20
149.9219919858
 30
0.0
 11
-0.0
 21
37.1297624663
 31
0.0
 40
0.6610413025
 41
-2.2299441794
 42
-2.1998453024
  0
ENDSEC
  0
SECTION
  2
OBJECTS
  0
DICTIONARY
  5
C
100
AcDbDictionary
280
0
281
1
  3
ACAD_GROUP
350
D
  3
ACAD_MLINESTYLE
350
17
  3
ACAD_LAYOUT
350
1A
  3
ACAD_PLOTSETTINGS
350
19
  3
ACAD_PLOTSTYLENAME
350
E
  0
DICTIONARY
  5
D
102
{ACAD_REACTORS
330
C
102
}
100
AcDbDictionary
280
0
281
1
  0
ACDBDICTIONARYWDFLT
  5
E
102
{ACAD_REACTORS
330
C
102
}
100
AcDbDictionary
281
1
  3
Normal
350
F
100
AcDbDictionaryWithDefault
340
F
  0
DICTIONARY
  5
17
102
{ACAD_REACTORS
330
C
102
}
100
AcDbDictionary
280
0
281
1
  3
Standard
350
18
  0
DICTIONARY
  5
19
102
{ACAD_REACTORS
330
C
102
}
100
AcDbDictionary
281
1
  0
DICTIONARY
  5
1A
102
{ACAD_REACTORS
330
C
102
}
100
AcDbDictionary
281
1
  3
Model
350
4E8
  3
Layout1
350
4E9
  0
ACDBPLACEHOLDER
  5
F
102
{ACAD_REACTORS
330
E
102
}
  0
MLINESTYLE
  5
18
102
{ACAD_REACTORS
330
17
102
}
100
AcDbMlineStyle
  2
STANDARD
 70
0
  3

 62
256
 51
90.0
 52
90.0
 71
2
 49
0.5
 62
256
  6
BYLAYER
 49
-0.5
 62
256
  6
BYLAYER
  0
LAYOUT
  5
4E8
102
{ACAD_REACTORS
330
1A
102
}
100
AcDbPlotSettings
  1

  2
none_device
  4
ISO_A4_(297.00_x_210.00_MM)
  6

 40
0.0
 41
0.0
 42
0.0
 43
0.0
 44
297.0
 45
210.0
 46
0.0
 47
0.0
 48
0.0
 49
0.0
140
0.0
141
0.0
142
1.0
143
1.0
 70
1024
 72
1
 73
0
 74
0
  7

 75
0
147
1.0
148
0.0
149
0.0
100
AcDbLayout
  1
Model
 70
0
 71
0
 10
0.0
 20
0.0
 11
297.0
 21
210.0
 12
0.0
 22
0.0
 32
0.0
 14
0.0
 24
0.0
 34
0.0
 15
0.0
 25
0.0
 35
0.0
146
0.0
 13
0.0
 23
0.0
 33
0.0
 16
1.0
 26
0.0
 36
0.0
 17
0.0
 27
1.0
 37
0.0
 76
0
330
210
345
0
346
0
  0
LAYOUT
  5
4E9
102
{ACAD_REACTORS
330
1A
102
}
100
AcDbPlotSettings
  1

  2
none_device
  4
ISO_A4_(297.00_x_210.00_MM)
  6

 40
0.0
 41
0.0
 42
0.0
 43
0.0
 44
297.0
 45
210.0
 46
0.0
 47
0.0
 48
0.0
 49
0.0
140
0.0
141
0.0
142
1.0
143
1.0
 70
0
 72
1
 73
0
 74
0
  7

 75
0
147
1.0
148
0.0
149
0.0
100
AcDbLayout
  1
Layout1
 70
0
 71
1
 10
0.0
 20
0.0
 11
297.0
 21
210.0
 12
0.0
 22
0.0
 32
0.0
 14
0.0
 24
0.0
 34
0.0
 15
0.0
 25
0.0
 35
0.0
146
0.0
 13
0.0
 23
0.0
 33
0.0
 16
1.0
 26
0.0
 36
0.0
 17
0.0
 27
1.0
 37
0.0
 76
0
330
211
345
0
346
0
  0
ENDSEC
  0
EOF
