999
DXF file: PSA-INOX-STAR-M16_7996757_M32965-P-9.dxf
999
Pro/ENGINEER 2010140 by Parametric Technology Corporation
  0
SECTION
  2
HEADER
  9
$ACADVER
  1
AC1015
  9
$DWGCODEPAGE
  3
ANSI_1252
  9
$EXTMAX
 10
297.0
 20
210.0
 30
0.0
  9
$EXTMIN
 10
0.0
 20
0.0
 30
0.0
  9
$LIMMIN
 10
0.0
 20
0.0
  9
$LIMMAX
 10
297.0
 20
210.0
  9
$VIEWCTR
 10
148.5
 20
105.0
  9
$VIEWSIZE
 40
210.0
  9
$CLAYER
  8
0
  9
$LTSCALE
 40
16.335
  9
$CELTYPE
  6
BYLAYER
  9
$DIMSCALE
 40
1.0
  9
$DIMASZ
 40
3.5
  9
$DIMEXO
 40
1.85625
  9
$DIMDLI
 40
11.286
  9
$DIMEXE
 40
5.346
  9
$DIMCEN
 40
2.673
  9
$DIMLFAC
 40
1.0
  9
$DIMBLK
  1
_FILLED
  9
$DIMTXT
 40
3.5
  9
$DIMTOL
 70
1
  9
$DIMLIM
 70
0
  9
$DIMTFAC
 40
1.0
  9
$DIMTP
 40
0.005
  9
$DIMTM
 40
0.005
  9
$PDMODE
 70
3
  9
$PDSIZE
 40
0.3125
  9
$HANDSEED
  5
4E2
  9
$TILEMODE
 70
1
  9
$MEASUREMENT
 70
1
  9
$INSUNITS
 70
4
  0
ENDSEC
  0
SECTION
  2
CLASSES
  0
CLASS
  1
ACDBDICTIONARYWDFLT
  2
AcDbDictionaryWithDefault
  3
AutoCAD 2000
 90
0
280
0
281
0
  0
CLASS
  1
ACDBPLACEHOLDER
  2
AcDbPlaceHolder
  3
AutoCAD 2000
 90
0
280
0
281
0
  0
CLASS
  1
LAYOUT
  2
AcDbLayout
  3
AutoCAD 2000
 90
0
280
0
281
0
  0
ENDSEC
  0
SECTION
  2
TABLES
  0
TABLE
  2
VPORT
  5
8
100
AcDbSymbolTable
 70
2
  0
VPORT
  5
1F4
100
AcDbSymbolTableRecord
100
AcDbViewportTableRecord
  2
*ACTIVE
 70
0
 10
0.0
 20
0.0
 11
1.0
 21
1.0
 12
148.5
 22
105.0
 13
0.0
 23
0.0
 14
1.0
 24
1.0
 15
0.0
 25
0.0
 16
0.0
 26
0.0
 36
1.0
 17
0.0
 27
0.0
 37
0.0
 40
210.0
 41
1.4142857143
 42
50.0
 43
0.0
 44
0.0
 50
0.0
 51
0.0
 71
0
 72
100
 73
1
 74
1
 75
0
 76
0
 77
0
 78
0
  0
ENDTAB
  0
TABLE
  2
LTYPE
  5
5
100
AcDbSymbolTable
 70
6
  0
LTYPE
  5
14
100
AcDbSymbolTableRecord
100
AcDbLinetypeTableRecord
  2
BYBLOCK
 70
0
  3

 72
65
 73
0
 40
0.0
  0
LTYPE
  5
15
100
AcDbSymbolTableRecord
100
AcDbLinetypeTableRecord
  2
BYLAYER
 70
0
  3

 72
65
 73
0
 40
0.0
  0
LTYPE
  5
16
100
AcDbSymbolTableRecord
100
AcDbLinetypeTableRecord
  2
CONTINUOUS
 70
64
  3
Solid line
 72
65
 73
0
 40
0.0
  0
LTYPE
  5
1F5
100
AcDbSymbolTableRecord
100
AcDbLinetypeTableRecord
  2
CENTER
 70
64
  3
____ _ ____ _ ____ _ ____ _ ____ _ ____ _ ____
 72
65
 73
4
 40
0.6
 49
0.375
 74
0
 49
-0.075
 74
0
 49
0.075
 74
0
 49
-0.075
 74
0
  0
LTYPE
  5
1F6
100
AcDbSymbolTableRecord
100
AcDbLinetypeTableRecord
  2
HIDDEN
 70
64
  3
- - - - - - - - - - - - - - - - - - - -
 72
65
 73
2
 40
0.2
 49
0.1
 74
0
 49
-0.1
 74
0
  0
LTYPE
  5
1F7
100
AcDbSymbolTableRecord
100
AcDbLinetypeTableRecord
  2
PHANTOM
 70
64
  3
_____ _ _ _____ _ _ _____ _ _ _____
 72
65
 73
6
 40
0.8
 49
0.45
 74
0
 49
-0.05
 74
0
 49
0.1
 74
0
 49
-0.05
 74
0
 49
0.1
 74
0
 49
-0.05
 74
0
  0
LTYPE
  5
1F8
100
AcDbSymbolTableRecord
100
AcDbLinetypeTableRecord
  2
DOT
 70
64
  3
. . . . . . . . . . . . . . . . . . . .
 72
65
 73
2
 40
0.2
 49
0.1
 74
0
 49
-0.1
 74
0
  0
LTYPE
  5
1F9
100
AcDbSymbolTableRecord
100
AcDbLinetypeTableRecord
  2
DASHED
 70
64
  3
- - - - - - - - - - - - - - - - - - - -
 72
65
 73
2
 40
0.2
 49
0.1
 74
0
 49
-0.1
 74
0
  0
ENDTAB
  0
TABLE
  2
LAYER
  5
2
100
AcDbSymbolTable
 70
36
  0
LAYER
  5
10
100
AcDbSymbolTableRecord
100
AcDbLayerTableRecord
  2
0
 70
0
 62
7
  6
CONTINUOUS
370
-3
390
F
  0
LAYER
  5
1FA
100
AcDbSymbolTableRecord
100
AcDbLayerTableRecord
  2
DEFAULT_1
 70
0
 62
7
  6
CENTER
370
-3
390
F
  0
LAYER
  5
1FB
100
AcDbSymbolTableRecord
100
AcDbLayerTableRecord
  2
DEFAULT_2
 70
0
 62
8
  6
HIDDEN
370
-3
390
F
  0
LAYER
  5
1FC
100
AcDbSymbolTableRecord
100
AcDbLayerTableRecord
  2
DEFAULT_3
 70
0
 62
7
  6
PHANTOM
370
-3
390
F
  0
LAYER
  5
1FD
100
AcDbSymbolTableRecord
100
AcDbLayerTableRecord
  2
B-ACHSEN
 70
0
 62
7
  6
CONTINUOUS
370
-3
390
F
  0
LAYER
  5
1FE
100
AcDbSymbolTableRecord
100
AcDbLayerTableRecord
  2
B-EBENEN
 70
0
 62
7
  6
CONTINUOUS
370
-3
390
F
  0
LAYER
  5
1FF
100
AcDbSymbolTableRecord
100
AcDbLayerTableRecord
  2
B-KOORSYS
 70
0
 62
7
  6
CONTINUOUS
370
-3
390
F
  0
LAYER
  5
200
100
AcDbSymbolTableRecord
100
AcDbLayerTableRecord
  2
B-KURVEN
 70
0
 62
7
  6
CONTINUOUS
370
-3
390
F
  0
LAYER
  5
201
100
AcDbSymbolTableRecord
100
AcDbLayerTableRecord
  2
BEMASSUNG
 70
0
 62
7
  6
CONTINUOUS
370
-3
390
F
  0
LAYER
  5
202
100
AcDbSymbolTableRecord
100
AcDbLayerTableRecord
  2
BEZUGSACHSEN
 70
0
 62
7
  6
CONTINUOUS
370
-3
390
F
  0
LAYER
  5
203
100
AcDbSymbolTableRecord
100
AcDbLayerTableRecord
  2
BEZUGSEBENEN
 70
0
 62
7
  6
CONTINUOUS
370
-3
390
F
  0
LAYER
  5
204
100
AcDbSymbolTableRecord
100
AcDbLayerTableRecord
  2
BEZUGSPUNKTE
 70
0
 62
7
  6
CONTINUOUS
370
-3
390
F
  0
LAYER
  5
205
100
AcDbSymbolTableRecord
100
AcDbLayerTableRecord
  2
BOHRUNGEN
 70
0
 62
7
  6
CONTINUOUS
370
-3
390
F
  0
LAYER
  5
206
100
AcDbSymbolTableRecord
100
AcDbLayerTableRecord
  2
FLAECHEN
 70
0
 62
7
  6
CONTINUOUS
370
-3
390
F
  0
LAYER
  5
207
100
AcDbSymbolTableRecord
100
AcDbLayerTableRecord
  2
FLAECHENVERBUND
 70
0
 62
7
  6
CONTINUOUS
370
-3
390
F
  0
LAYER
  5
208
100
AcDbSymbolTableRecord
100
AcDbLayerTableRecord
  2
KURVEN
 70
0
 62
7
  6
CONTINUOUS
370
-3
390
F
  0
LAYER
  5
209
100
AcDbSymbolTableRecord
100
AcDbLayerTableRecord
  2
KURVENELEMENTE
 70
0
 62
7
  6
CONTINUOUS
370
-3
390
F
  0
LAYER
  5
20A
100
AcDbSymbolTableRecord
100
AcDbLayerTableRecord
  2
NOTIZEN
 70
0
 62
7
  6
CONTINUOUS
370
-3
390
F
  0
LAYER
  5
20B
100
AcDbSymbolTableRecord
100
AcDbLayerTableRecord
  2
RUNDUNGEN
 70
0
 62
7
  6
CONTINUOUS
370
-3
390
F
  0
LAYER
  5
20C
100
AcDbSymbolTableRecord
100
AcDbLayerTableRecord
  2
VERBUNDFLAECHEN
 70
0
 62
7
  6
CONTINUOUS
370
-3
390
F
  0
LAYER
  5
20D
100
AcDbSymbolTableRecord
100
AcDbLayerTableRecord
  2
ZEICHNUNGSBEMASSUNGEN
 70
0
 62
7
  6
CONTINUOUS
370
-3
390
F
  0
ENDTAB
  0
TABLE
  2
STYLE
  5
3
100
AcDbSymbolTable
 70
1
  0
STYLE
  5
11
100
AcDbSymbolTableRecord
100
AcDbTextStyleTableRecord
  2
STANDARD
 70
0
 40
0.0
 41
0.7
 50
0.0
 71
0
 42
0.2
  3
txt
  4

  0
STYLE
  5
20E
100
AcDbSymbolTableRecord
100
AcDbTextStyleTableRecord
  2
TEXTSTYLE_1
 70
0
 40
0.0
 41
0.8
 50
0.0
 71
0
 42
0.2
  3
gdt
  4

  0
ENDTAB
  0
TABLE
  2
VIEW
  5
6
100
AcDbSymbolTable
 70
0
  0
ENDTAB
  0
TABLE
  2
UCS
  5
7
100
AcDbSymbolTable
 70
0
  0
ENDTAB
  0
TABLE
  2
APPID
  5
9
100
AcDbSymbolTable
 70
1
  0
APPID
  5
20F
100
AcDbSymbolTableRecord
100
AcDbRegAppTableRecord
  2
ACAD
 70
0
  0
ENDTAB
  0
TABLE
  2
BLOCK_RECORD
  5
1
100
AcDbSymbolTable
 70
0
  0
BLOCK_RECORD
  5
210
100
AcDbSymbolTableRecord
100
AcDbBlockTableRecord
  2
*Model_Space
  0
BLOCK_RECORD
  5
211
100
AcDbSymbolTableRecord
100
AcDbBlockTableRecord
  2
*Paper_Space
  0
ENDTAB
  0
TABLE
  2
DIMSTYLE
  5
A
100
AcDbSymbolTable
 70
1
100
AcDbDimStyleTable
 71
0
  0
DIMSTYLE
105
212
100
AcDbSymbolTableRecord
100
AcDbDimStyleTableRecord
  2
STANDARD
 70
0
  3

  4

 40
1.0
 41
3.5
 42
0.0625
 43
0.38
 44
0.18
 45
0.0
 46
0.0
 47
0.005
 48
0.005
140
3.5
141
0.09
142
0.0
143
25.4
144
1.0
145
0.0
146
1.0
147
0.09
 71
1.0
 72
0.0
 73
0
 74
0
 75
0
 76
0
 77
1
 78
8
170
0
171
2
172
0
173
0
174
0
175
0
176
0
177
0
178
5
270
2
271
3
272
3
273
2
274
2
275
0
280
0
281
0
282
0
283
1
284
8
285
0
286
0
287
3
288
0
340
11
  0
ENDTAB
  0
ENDSEC
  0
SECTION
  2
BLOCKS
  0
BLOCK
  5
20
100
AcDbEntity
  8
0
100
AcDbBlockBegin
  2
*Model_Space
 70
0
 10
0.0
 20
0.0
 30
0.0
  3
*Model_Space
  1

  0
ENDBLK
  5
21
100
AcDbEntity
  8
0
100
AcDbBlockEnd
  0
BLOCK
  5
1C
100
AcDbEntity
  8
0
100
AcDbBlockBegin
  2
*Paper_Space
 70
0
 10
0.0
 20
0.0
 30
0.0
  3
*Paper_Space
  1

  0
ENDBLK
  5
1D
100
AcDbEntity
  8
0
100
AcDbBlockEnd
  0
ENDSEC
  0
SECTION
  2
ENTITIES
  0
MTEXT
  5
213
100
AcDbEntity
  8
0
100
AcDbMText
 62
5
  6
CONTINUOUS
  7
STANDARD
 71
2
 72
1
 10
173.5659468519
 20
137.0222220181
 30
0.0
 11
0.0
 21
1.0
 31
0.0
 44
0.9
  1
RUD PSA\PINOX STAR M16\P1-2 Pers
 40
2.5
 41
25.3571428571
  0
LINE
  5
214
100
AcDbEntity
  8
0
100
AcDbLine
 62
7
  6
CONTINUOUS
 10
0.0
 20
0.0
 11
0.0
 21
210.0
  0
LINE
  5
215
100
AcDbEntity
  8
0
100
AcDbLine
 62
7
  6
CONTINUOUS
 10
0.0
 20
0.0
 11
297.0
 21
0.0
  0
LINE
  5
216
100
AcDbEntity
  8
0
100
AcDbLine
 62
7
  6
CONTINUOUS
 10
0.0
 20
210.0
 11
297.0
 21
210.0
  0
LINE
  5
217
100
AcDbEntity
  8
0
100
AcDbLine
 62
7
  6
CONTINUOUS
 10
297.0
 20
0.0
 11
297.0
 21
210.0
  0
LINE
  5
218
100
AcDbEntity
  8
B-ACHSEN
100
AcDbLine
 62
7
  6
CONTINUOUS
 10
99.5414633684
 20
97.8300494767
 11
84.8747967017
 21
97.8300494767
  0
LINE
  5
219
100
AcDbEntity
  8
B-ACHSEN
100
AcDbLine
 62
7
  6
CONTINUOUS
 10
100.2081300351
 20
98.4967161434
 11
84.2081300351
 21
98.4967161434
  0
LINE
  5
21A
100
AcDbEntity
  8
B-ACHSEN
100
AcDbLine
 62
7
  6
CONTINUOUS
 10
84.2081300351
 20
98.4967161434
 11
84.8747967017
 21
97.8300494767
  0
LINE
  5
21B
100
AcDbEntity
  8
0
100
AcDbLine
 62
7
  6
CONTINUOUS
 10
71.7545801237
 20
169.7870528468
 11
70.8296439107
 21
168.6061663146
  0
LINE
  5
21C
100
AcDbEntity
  8
0
100
AcDbLine
 62
7
  6
CONTINUOUS
 10
71.3958811956
 20
168.638994727
 11
72.1281226582
 21
169.5738636071
  0
LINE
  5
21D
100
AcDbEntity
  8
0
100
AcDbLine
 62
7
  6
CONTINUOUS
 10
73.8591673553
 20
172.102435648
 11
73.6369950146
 21
171.882673497
  0
LINE
  5
21E
100
AcDbEntity
  8
0
100
AcDbLine
 62
7
  6
CONTINUOUS
 10
73.996096226
 20
171.5196339275
 11
74.2627034417
 21
171.7833489111
  0
LINE
  5
21F
100
AcDbEntity
  8
0
100
AcDbLine
 62
7
  6
CONTINUOUS
 10
74.8285616668
 20
171.74453092
 11
75.0951688825
 21
172.0082459036
  0
LINE
  5
220
100
AcDbEntity
  8
0
100
AcDbLine
 62
7
  6
CONTINUOUS
 10
76.5351870743
 20
174.389105933
 11
76.1369418528
 21
174.0867811628
  0
LINE
  5
221
100
AcDbEntity
  8
0
100
AcDbLine
 62
7
  6
CONTINUOUS
 10
72.0142755204
 20
169.9805918548
 11
71.7545801237
 21
169.7870528468
  0
LINE
  5
222
100
AcDbEntity
  8
0
100
AcDbLine
 62
7
  6
CONTINUOUS
 10
74.1411898979
 20
172.2616912041
 11
73.8591673553
 21
172.102435648
  0
LINE
  5
223
100
AcDbEntity
  8
0
100
AcDbLine
 62
7
  6
CONTINUOUS
 10
75.3826289786
 20
171.0955119687
 11
75.100606436
 21
170.9362564127
  0
LINE
  5
224
100
AcDbEntity
  8
0
100
AcDbLine
 62
7
  6
CONTINUOUS
 10
72.1281226582
 20
169.5738636071
 11
72.3107403312
 21
169.6689957795
  0
LINE
  5
225
100
AcDbEntity
  8
0
100
AcDbLine
 62
7
  6
CONTINUOUS
 10
75.4597076474
 20
170.5732168431
 11
75.6972953151
 21
170.6885195666
  0
LINE
  5
226
100
AcDbEntity
  8
0
100
AcDbLine
 62
7
  6
CONTINUOUS
 10
74.9555117471
 20
170.1941981301
 11
75.1931004317
 21
170.3095018596
  0
LINE
  5
227
100
AcDbEntity
  8
0
100
AcDbLine
 62
7
  6
CONTINUOUS
 10
74.2627034417
 20
171.7833489111
 11
74.4558572514
 21
171.8546998079
  0
LINE
  5
228
100
AcDbEntity
  8
0
100
AcDbLine
 62
7
  6
CONTINUOUS
 10
74.8339992203
 20
170.6725414291
 11
74.6408454106
 21
170.6011905322
  0
LINE
  5
229
100
AcDbEntity
  8
0
100
AcDbLine
 62
7
  6
CONTINUOUS
 10
67.2074742318
 20
161.4106023418
 11
67.1075278624
 21
161.0491666998
  0
LINE
  5
22A
100
AcDbEntity
  8
0
100
AcDbLine
 62
7
  6
CONTINUOUS
 10
66.7077423851
 20
159.6034241321
 11
66.6077959681
 21
159.2419883178
  0
LINE
  5
22B
100
AcDbEntity
  8
0
100
AcDbLine
 62
7
  6
CONTINUOUS
 10
68.1171710833
 20
163.758409695
 11
67.5344283738
 21
162.376233536
  0
LINE
  5
22C
100
AcDbEntity
  8
0
100
AcDbLine
 62
7
  6
CONTINUOUS
 10
68.1506420493
 20
162.5233971026
 11
68.5876990813
 21
163.5600292218
  0
LINE
  5
22D
100
AcDbEntity
  8
0
100
AcDbLine
 62
7
  6
CONTINUOUS
 10
66.4010280356
 20
157.6873158156
 11
66.2721420946
 21
157.3901831917
  0
LINE
  5
22E
100
AcDbEntity
  8
0
100
AcDbLine
 62
7
  6
CONTINUOUS
 10
73.6369950146
 20
171.882673497
 11
73.5191067337
 21
171.6463565777
  0
LINE
  5
22F
100
AcDbEntity
  8
0
100
AcDbLine
 62
7
  6
CONTINUOUS
 10
66.7022380113
 20
157.3912379114
 11
66.813262799
 21
157.5646531392
  0
LINE
  5
230
100
AcDbEntity
  8
0
100
AcDbLine
 62
7
  6
CONTINUOUS
 10
73.1331325408
 20
168.7866837981
 11
72.4008910781
 21
167.8518149181
  0
LINE
  5
231
100
AcDbEntity
  8
0
100
AcDbLine
 62
7
  6
CONTINUOUS
 10
72.802894956
 20
167.5369430534
 11
73.4965971158
 21
168.4226079525
  0
LINE
  5
232
100
AcDbEntity
  8
0
100
AcDbLine
 62
7
  6
CONTINUOUS
 10
73.9786746632
 20
166.1396697466
 11
74.2099087165
 21
166.4348913797
  0
LINE
  5
233
100
AcDbEntity
  8
0
100
AcDbLine
 62
7
  6
CONTINUOUS
 10
68.3169972401
 20
164.013299869
 11
68.1171710833
 21
163.758409695
  0
LINE
  5
234
100
AcDbEntity
  8
0
100
AcDbLine
 62
7
  6
CONTINUOUS
 10
68.5876990813
 20
163.5600292218
 11
68.7632441066
 21
163.7573282831
  0
LINE
  5
235
100
AcDbEntity
  8
0
100
AcDbLine
 62
7
  6
CONTINUOUS
 10
75.100606436
 20
170.9362564127
 11
74.8339992203
 21
170.6725414291
  0
LINE
  5
236
100
AcDbEntity
  8
0
100
AcDbLine
 62
7
  6
CONTINUOUS
 10
75.1931004317
 20
170.3095018596
 11
75.4597076474
 21
170.5732168431
  0
LINE
  5
237
100
AcDbEntity
  8
0
100
AcDbLine
 62
7
  6
CONTINUOUS
 10
75.2275564324
 20
169.3859237075
 11
74.9609492167
 21
169.1222087239
  0
LINE
  5
238
100
AcDbEntity
  8
0
100
AcDbLine
 62
7
  6
CONTINUOUS
 10
76.3574608017
 20
169.6656177922
 11
76.0019838361
 21
169.3139971434
  0
LINE
  5
239
100
AcDbEntity
  8
0
100
AcDbLine
 62
7
  6
CONTINUOUS
 10
76.3610850895
 20
168.9509575315
 11
76.716562055
 21
169.3025781803
  0
LINE
  5
23A
100
AcDbEntity
  8
0
100
AcDbLine
 62
7
  6
CONTINUOUS
 10
78.3793373387
 20
172.4766777265
 11
77.4832847356
 21
171.7964463448
  0
LINE
  5
23B
100
AcDbEntity
  8
0
100
AcDbLine
 62
7
  6
CONTINUOUS
 10
77.6393431082
 20
171.4875103801
 11
78.6349567318
 21
172.2433227381
  0
LINE
  5
23C
100
AcDbEntity
  8
0
100
AcDbLine
 62
7
  6
CONTINUOUS
 10
77.7590507383
 20
170.2961659466
 11
78.0577349393
 21
170.5229097405
  0
LINE
  5
23D
100
AcDbEntity
  8
0
100
AcDbLine
 62
7
  6
CONTINUOUS
 10
79.4515949238
 20
171.5810477336
 11
79.7502791249
 21
171.8077915275
  0
LINE
  5
23E
100
AcDbEntity
  8
0
100
AcDbLine
 62
7
  6
CONTINUOUS
 10
68.5709635984
 20
164.1775355181
 11
68.3169972401
 21
164.013299869
  0
LINE
  5
23F
100
AcDbEntity
  8
0
100
AcDbLine
 62
7
  6
CONTINUOUS
 10
76.0790625416
 20
168.7917019808
 11
76.3610850895
 21
168.9509575315
  0
LINE
  5
240
100
AcDbEntity
  8
0
100
AcDbLine
 62
7
  6
CONTINUOUS
 10
76.0019838361
 20
169.3139971434
 11
75.7643961685
 21
169.19869442
  0
LINE
  5
241
100
AcDbEntity
  8
0
100
AcDbLine
 62
7
  6
CONTINUOUS
 10
68.7632441066
 20
163.7573282831
 11
68.9929296113
 21
163.8639734786
  0
LINE
  5
242
100
AcDbEntity
  8
0
100
AcDbLine
 62
7
  6
CONTINUOUS
 10
66.2721420946
 20
157.3901831917
 11
66.0578083574
 21
155.9055751461
  0
LINE
  5
243
100
AcDbEntity
  8
0
100
AcDbLine
 62
7
  6
CONTINUOUS
 10
66.5325571445
 20
156.2159232677
 11
66.7022380113
 21
157.3912379114
  0
LINE
  5
244
100
AcDbEntity
  8
0
100
AcDbLine
 62
7
  6
CONTINUOUS
 10
67.9657343057
 20
157.2088262079
 11
67.7960534389
 21
156.0335115641
  0
LINE
  5
245
100
AcDbEntity
  8
0
100
AcDbLine
 62
7
  6
CONTINUOUS
 10
68.3014518622
 20
155.9605468963
 11
68.4532715885
 21
157.0121442324
  0
LINE
  5
246
100
AcDbEntity
  8
0
100
AcDbLine
 62
7
  6
CONTINUOUS
 10
70.304096381
 20
159.5167764256
 11
70.2374654363
 21
159.2758192161
  0
LINE
  5
247
100
AcDbEntity
  8
0
100
AcDbLine
 62
7
  6
CONTINUOUS
 10
73.9226428201
 20
171.3272698408
 11
73.996096226
 21
171.5196339275
  0
LINE
  5
248
100
AcDbEntity
  8
0
100
AcDbLine
 62
7
  6
CONTINUOUS
 10
73.4965971158
 20
168.4226079525
 11
73.6222912198
 21
168.7211042488
  0
LINE
  5
249
100
AcDbEntity
  8
0
100
AcDbLine
 62
7
  6
CONTINUOUS
 10
71.3324461211
 20
162.4028096328
 11
70.895389089
 21
161.3661775136
  0
LINE
  5
24A
100
AcDbEntity
  8
0
100
AcDbLine
 62
7
  6
CONTINUOUS
 10
71.2202314646
 20
160.8222529775
 11
71.802974174
 21
162.2044291365
  0
LINE
  5
24B
100
AcDbEntity
  8
0
100
AcDbLine
 62
7
  6
CONTINUOUS
 10
76.4753480655
 20
169.9019337055
 11
76.3574608017
 21
169.6656177922
  0
LINE
  5
24C
100
AcDbEntity
  8
0
100
AcDbLine
 62
7
  6
CONTINUOUS
 10
76.716562055
 20
169.3025781803
 11
76.8788841886
 21
169.5828469315
  0
LINE
  5
24D
100
AcDbEntity
  8
0
100
AcDbLine
 62
7
  6
CONTINUOUS
 10
70.5643165639
 20
158.8612086426
 11
70.7296331177
 21
159.1397220327
  0
LINE
  5
24E
100
AcDbEntity
  8
0
100
AcDbLine
 62
7
  6
CONTINUOUS
 10
70.2374654363
 20
159.2758192161
 11
70.0888066496
 21
159.0575452126
  0
LINE
  5
24F
100
AcDbEntity
  8
0
100
AcDbLine
 62
7
  6
CONTINUOUS
 10
70.333629723
 20
158.6656171615
 11
70.5643165639
 21
158.8612086426
  0
LINE
  5
250
100
AcDbEntity
  8
0
100
AcDbLine
 62
7
  6
CONTINUOUS
 10
66.6894495283
 20
157.8982680969
 11
66.4010280356
 21
157.6873158156
  0
LINE
  5
251
100
AcDbEntity
  8
0
100
AcDbLine
 62
7
  6
CONTINUOUS
 10
70.0888066496
 20
159.0575452126
 11
69.8747775329
 21
158.92219313
  0
LINE
  5
252
100
AcDbEntity
  8
0
100
AcDbLine
 62
7
  6
CONTINUOUS
 10
66.813262799
 20
157.5646531392
 11
66.9995900934
 21
157.6640489794
  0
LINE
  5
253
100
AcDbEntity
  8
B-ACHSEN
100
AcDbLine
 62
7
  6
CONTINUOUS
 10
100.2081300351
 20
115.1633828101
 11
84.2081300351
 21
115.1633828101
  0
LINE
  5
254
100
AcDbEntity
  8
0
100
AcDbLine
 62
7
  6
CONTINUOUS
 10
71.3511484803
 20
162.6662355185
 11
71.3324461211
 21
162.4028096328
  0
LINE
  5
255
100
AcDbEntity
  8
0
100
AcDbLine
 62
7
  6
CONTINUOUS
 10
71.802974174
 20
162.2044291365
 11
71.8459576579
 21
162.5254461378
  0
LINE
  5
256
100
AcDbEntity
  8
0
100
AcDbLine
 62
7
  6
CONTINUOUS
 10
70.0167631457
 20
155.3340185135
 11
70.07034658
 21
155.7051705249
  0
LINE
  5
257
100
AcDbEntity
  8
0
100
AcDbLine
 62
7
  6
CONTINUOUS
 10
70.2936108811
 20
157.2516371801
 11
70.3561249048
 21
157.684647978
  0
LINE
  5
258
100
AcDbEntity
  8
0
100
AcDbLine
 62
7
  6
CONTINUOUS
 10
73.5191067337
 20
171.6463565777
 11
73.4610686547
 21
171.3495330635
  0
LINE
  5
259
100
AcDbEntity
  8
0
100
AcDbLine
 62
7
  6
CONTINUOUS
 10
73.1817489211
 20
168.9867732588
 11
73.1331325408
 21
168.7866837981
  0
LINE
  5
25A
100
AcDbEntity
  8
0
100
AcDbLine
 62
7
  6
CONTINUOUS
 10
70.7296331177
 20
159.1397220327
 11
70.7962640624
 21
159.3806792422
  0
LINE
  5
25B
100
AcDbEntity
  8
0
100
AcDbLine
 62
7
  6
CONTINUOUS
 10
69.9388870956
 20
158.5153917497
 11
70.333629723
 21
158.6656171615
  0
LINE
  5
25C
100
AcDbEntity
  8
0
100
AcDbLine
 62
7
  6
CONTINUOUS
 10
67.0531735277
 20
158.0352009908
 11
66.6894495283
 21
157.8982680969
  0
LINE
  5
25D
100
AcDbEntity
  8
0
100
AcDbLine
 62
7
  6
CONTINUOUS
 10
109.981331743
 20
171.2538307721
 11
110.2527304677
 21
171.3384220035
  0
LINE
  5
25E
100
AcDbEntity
  8
0
100
AcDbLine
 62
7
  6
CONTINUOUS
 10
70.2886993883
 20
159.7804164964
 11
70.304096381
 21
159.5167764256
  0
LINE
  5
25F
100
AcDbEntity
  8
0
100
AcDbLine
 62
7
  6
CONTINUOUS
 10
70.7962640624
 20
159.3806792422
 11
70.7975247272
 21
159.7045583588
  0
LINE
  5
260
100
AcDbEntity
  8
0
100
AcDbLine
 62
7
  6
CONTINUOUS
 10
73.9090396161
 20
171.0743991592
 11
73.9226428201
 21
171.3272698408
  0
LINE
  5
261
100
AcDbEntity
  8
0
100
AcDbLine
 62
7
  6
CONTINUOUS
 10
76.8788841886
 20
169.5828469315
 11
76.9369222518
 21
169.8796704616
  0
LINE
  5
262
100
AcDbEntity
  8
0
100
AcDbLine
 62
7
  6
CONTINUOUS
 10
110.1187646686
 20
171.7278453509
 11
109.785527017
 21
171.5847818931
  0
LINE
  5
263
100
AcDbEntity
  8
0
100
AcDbLine
 62
7
  6
CONTINUOUS
 10
109.675489603
 20
168.7282253478
 11
109.4040910515
 21
168.6436342801
  0
LINE
  5
264
100
AcDbEntity
  8
B-ACHSEN
100
AcDbLine
 62
7
  6
CONTINUOUS
 10
109.7081300351
 20
121.8300494767
 11
74.7081300351
 21
121.8300494767
  0
LINE
  5
265
100
AcDbEntity
  8
0
100
AcDbLine
 62
7
  6
CONTINUOUS
 10
67.9082929523
 20
157.4065629915
 11
67.9657343057
 21
157.2088262079
  0
LINE
  5
266
100
AcDbEntity
  8
B-ACHSEN
100
AcDbLine
 62
7
  6
CONTINUOUS
 10
73.9224157494
 20
128.2467161434
 11
74.7081300351
 21
121.8300494767
  0
LINE
  5
267
100
AcDbEntity
  8
0
100
AcDbLine
 62
7
  6
CONTINUOUS
 10
76.4889512276
 20
170.1548044295
 11
76.4753480655
 21
169.9019337055
  0
LINE
  5
268
100
AcDbEntity
  8
0
100
AcDbLine
 62
7
  6
CONTINUOUS
 10
109.6910345942
 20
171.065354393
 11
109.981331743
 21
171.2538307721
  0
LINE
  5
269
100
AcDbEntity
  8
0
100
AcDbLine
 62
7
  6
CONTINUOUS
 10
109.5380568074
 20
168.2542108918
 11
109.871294748
 21
168.3972741306
  0
LINE
  5
26A
100
AcDbEntity
  8
0
100
AcDbLine
 62
7
  6
CONTINUOUS
 10
100.1747964474
 20
126.8300494767
 11
100.5747964474
 21
126.915155857
  0
LINE
  5
26B
100
AcDbEntity
  8
0
100
AcDbLine
 62
7
  6
CONTINUOUS
 10
95.574796066
 20
126.8300494767
 11
96.0414628598
 21
126.915155857
  0
LINE
  5
26C
100
AcDbEntity
  8
0
100
AcDbLine
 62
7
  6
CONTINUOUS
 10
95.974796066
 20
127.2555814005
 11
95.5081296536
 21
127.1704749979
  0
LINE
  5
26D
100
AcDbEntity
  8
0
100
AcDbLine
 62
7
  6
CONTINUOUS
 10
83.9581300351
 20
126.3300494767
 11
84.4581300351
 21
126.3300494767
  0
LINE
  5
26E
100
AcDbEntity
  8
0
100
AcDbLine
 62
7
  6
CONTINUOUS
 10
86.9581300351
 20
126.3300494767
 11
89.9581300351
 21
126.3300494767
  0
LINE
  5
26F
100
AcDbEntity
  8
0
100
AcDbLine
 62
7
  6
CONTINUOUS
 10
91.4414628598
 20
126.8300494767
 11
91.8414628598
 21
126.8300494767
  0
LINE
  5
270
100
AcDbEntity
  8
0
100
AcDbLine
 62
7
  6
CONTINUOUS
 10
97.1081296536
 20
126.8300494767
 11
97.4414628598
 21
126.8300494767
  0
LINE
  5
271
100
AcDbEntity
  8
0
100
AcDbLine
 62
7
  6
CONTINUOUS
 10
99.7747964474
 20
126.8300494767
 11
100.1747964474
 21
126.8300494767
  0
LINE
  5
272
100
AcDbEntity
  8
0
100
AcDbLine
 62
7
  6
CONTINUOUS
 10
89.9581300351
 20
126.8619643814
 11
87.6247965428
 21
126.8619643814
  0
LINE
  5
273
100
AcDbEntity
  8
0
100
AcDbLine
 62
7
  6
CONTINUOUS
 10
100.1747964474
 20
127.1704749979
 11
99.7747964474
 21
127.1704749979
  0
LINE
  5
274
100
AcDbEntity
  8
0
100
AcDbLine
 62
7
  6
CONTINUOUS
 10
99.1747964474
 20
127.510900519
 11
98.8414628598
 21
127.510900519
  0
LINE
  5
275
100
AcDbEntity
  8
0
100
AcDbLine
 62
7
  6
CONTINUOUS
 10
96.574796066
 20
127.6811133243
 11
96.2414628598
 21
127.6811133243
  0
LINE
  5
276
100
AcDbEntity
  8
0
100
AcDbLine
 62
7
  6
CONTINUOUS
 10
95.174796066
 20
126.915155857
 11
95.574796066
 21
126.8300494767
  0
LINE
  5
277
100
AcDbEntity
  8
0
100
AcDbLine
 62
7
  6
CONTINUOUS
 10
68.3383888945
 20
157.4076178882
 11
68.2056450344
 21
157.6793740595
  0
LINE
  5
278
100
AcDbEntity
  8
0
100
AcDbLine
 62
7
  6
CONTINUOUS
 10
70.7975247272
 20
159.7045583588
 11
70.7000997757
 21
159.9908812968
  0
LINE
  5
279
100
AcDbEntity
  8
0
100
AcDbLine
 62
7
  6
CONTINUOUS
 10
71.8459576579
 20
162.5254461378
 11
71.7862386636
 21
162.8219354443
  0
LINE
  5
27A
100
AcDbEntity
  8
0
100
AcDbLine
 62
7
  6
CONTINUOUS
 10
73.4610686547
 20
171.3495330635
 11
73.5227319966
 21
170.9316973654
  0
LINE
  5
27B
100
AcDbEntity
  8
0
100
AcDbLine
 62
7
  6
CONTINUOUS
 10
73.6222912198
 20
168.7211042488
 11
73.5754456104
 21
169.0753549786
  0
LINE
  5
27C
100
AcDbEntity
  8
RUNDUNGEN
100
AcDbLine
 62
7
  6
CONTINUOUS
 10
80.2081300351
 20
178.8300494767
 11
80.2081300351
 21
176.3300494767
  0
LINE
  5
27D
100
AcDbEntity
  8
0
100
AcDbLine
 62
7
  6
CONTINUOUS
 10
109.785527017
 20
171.5847818931
 11
109.4333905949
 21
171.3378329603
  0
LINE
  5
27E
100
AcDbEntity
  8
0
100
AcDbLine
 62
7
  6
CONTINUOUS
 10
109.871294748
 20
168.3972741306
 11
110.2234307512
 21
168.6442231595
  0
LINE
  5
27F
100
AcDbEntity
  8
0
100
AcDbLine
 62
7
  6
CONTINUOUS
 10
109.9657867518
 20
168.9167017268
 11
109.675489603
 21
168.7282253478
  0
LINE
  5
280
100
AcDbEntity
  8
0
100
AcDbLine
 62
7
  6
CONTINUOUS
 10
115.5859859374
 20
163.0873193091
 11
115.2670410553
 21
162.9683073783
  0
LINE
  5
281
100
AcDbEntity
  8
0
100
AcDbLine
 62
7
  6
CONTINUOUS
 10
115.4778762238
 20
162.6467228227
 11
115.6373485532
 21
162.7062287464
  0
LINE
  5
282
100
AcDbEntity
  8
0
100
AcDbLine
 62
7
  6
CONTINUOUS
 10
98.3081292721
 20
129.5534536458
 11
97.9747964474
 21
129.468347273
  0
LINE
  5
283
100
AcDbEntity
  8
0
100
AcDbLine
 62
7
  6
CONTINUOUS
 10
93.0414628598
 20
128.6172835446
 11
93.3747962567
 21
128.7023899175
  0
LINE
  5
284
100
AcDbEntity
  8
0
100
AcDbLine
 62
7
  6
CONTINUOUS
 10
97.9081292721
 20
129.0428154088
 11
98.3081292721
 21
129.1279217816
  0
LINE
  5
285
100
AcDbEntity
  8
0
100
AcDbLine
 62
7
  6
CONTINUOUS
 10
99.6414628598
 20
129.5534536458
 11
99.2414628598
 21
129.468347273
  0
LINE
  5
286
100
AcDbEntity
  8
0
100
AcDbLine
 62
7
  6
CONTINUOUS
 10
95.574796066
 20
129.5534536458
 11
95.174796066
 21
129.468347273
  0
LINE
  5
287
100
AcDbEntity
  8
0
100
AcDbLine
 62
7
  6
CONTINUOUS
 10
85.124796662
 20
128.1385600484
 11
86.2914632889
 21
128.1385600484
  0
LINE
  5
288
100
AcDbEntity
  8
0
100
AcDbLine
 62
7
  6
CONTINUOUS
 10
94.774796066
 20
128.1917515613
 11
96.574796066
 21
128.1917515613
  0
LINE
  5
289
100
AcDbEntity
  8
0
100
AcDbLine
 62
7
  6
CONTINUOUS
 10
114.0724575692
 20
128.2467161434
 11
102.5089602741
 21
128.2467161434
  0
LINE
  5
28A
100
AcDbEntity
  8
0
100
AcDbLine
 62
7
  6
CONTINUOUS
 10
81.907299796
 20
128.2467161434
 11
70.3438025009
 21
128.2467161434
  0
LINE
  5
28B
100
AcDbEntity
  8
0
100
AcDbLine
 62
7
  6
CONTINUOUS
 10
96.2414628598
 20
128.5321771718
 11
94.8414628598
 21
128.5321771718
  0
LINE
  5
28C
100
AcDbEntity
  8
0
100
AcDbLine
 62
7
  6
CONTINUOUS
 10
91.8414628598
 20
128.6172835446
 11
93.0414628598
 21
128.6172835446
  0
LINE
  5
28D
100
AcDbEntity
  8
0
100
AcDbLine
 62
7
  6
CONTINUOUS
 10
86.2914632889
 20
128.6704750277
 11
85.124796662
 21
128.6704750277
  0
LINE
  5
28E
100
AcDbEntity
  8
0
100
AcDbLine
 62
7
  6
CONTINUOUS
 10
100.6414628598
 20
128.8726026631
 11
100.9747964474
 21
128.8726026631
  0
LINE
  5
28F
100
AcDbEntity
  8
0
100
AcDbLine
 62
7
  6
CONTINUOUS
 10
93.1081294629
 20
129.1279217816
 11
91.8414628598
 21
129.1279217816
  0
LINE
  5
290
100
AcDbEntity
  8
0
100
AcDbLine
 62
7
  6
CONTINUOUS
 10
99.6414628598
 20
129.2130281545
 11
100.0414628598
 21
129.2130281545
  0
LINE
  5
291
100
AcDbEntity
  8
0
100
AcDbLine
 62
7
  6
CONTINUOUS
 10
100.0414628598
 20
129.5534536458
 11
99.6414628598
 21
129.5534536458
  0
LINE
  5
292
100
AcDbEntity
  8
0
100
AcDbLine
 62
7
  6
CONTINUOUS
 10
97.4414628598
 20
129.5534536458
 11
97.1081296536
 21
129.5534536458
  0
LINE
  5
293
100
AcDbEntity
  8
0
100
AcDbLine
 62
7
  6
CONTINUOUS
 10
87.0414632889
 20
130.1598368503
 11
87.4581300351
 21
130.1598368503
  0
LINE
  5
294
100
AcDbEntity
  8
0
100
AcDbLine
 62
7
  6
CONTINUOUS
 10
91.8414628598
 20
130.4045176126
 11
93.1081294629
 21
130.4045176126
  0
LINE
  5
295
100
AcDbEntity
  8
0
100
AcDbLine
 62
7
  6
CONTINUOUS
 10
88.2914635274
 20
130.7981346465
 11
88.6247965428
 21
130.7981346465
  0
LINE
  5
296
100
AcDbEntity
  8
0
100
AcDbLine
 62
7
  6
CONTINUOUS
 10
93.0414628598
 20
130.8300494767
 11
91.4414628598
 21
130.8300494767
  0
LINE
  5
297
100
AcDbEntity
  8
0
100
AcDbLine
 62
7
  6
CONTINUOUS
 10
88.7081300351
 20
131.3300494767
 11
88.3747965428
 21
131.3300494767
  0
LINE
  5
298
100
AcDbEntity
  8
0
100
AcDbLine
 62
7
  6
CONTINUOUS
 10
84.4581300351
 20
131.3300494767
 11
83.9581300351
 21
131.3300494767
  0
LINE
  5
299
100
AcDbEntity
  8
0
100
AcDbLine
 62
7
  6
CONTINUOUS
 10
99.3747964474
 20
126.915155857
 11
99.7747964474
 21
126.8300494767
  0
LINE
  5
29A
100
AcDbEntity
  8
0
100
AcDbLine
 62
7
  6
CONTINUOUS
 10
99.7747964474
 20
127.1704749979
 11
99.3747964474
 21
127.2555814005
  0
LINE
  5
29B
100
AcDbEntity
  8
0
100
AcDbLine
 62
7
  6
CONTINUOUS
 10
95.5081296536
 20
129.2130281545
 11
95.9081296536
 21
129.1279217816
  0
LINE
  5
29C
100
AcDbEntity
  8
0
100
AcDbLine
 62
7
  6
CONTINUOUS
 10
95.974796066
 20
129.468347273
 11
95.574796066
 21
129.5534536458
  0
LINE
  5
29D
100
AcDbEntity
  8
0
100
AcDbLine
 62
7
  6
CONTINUOUS
 10
89.2081300351
 20
131.2236665107
 11
88.7081300351
 21
131.3300494767
  0
LINE
  5
29E
100
AcDbEntity
  8
0
100
AcDbLine
 62
7
  6
CONTINUOUS
 10
100.0414628598
 20
129.2130281545
 11
100.4414628598
 21
129.1279217816
  0
LINE
  5
29F
100
AcDbEntity
  8
0
100
AcDbLine
 62
7
  6
CONTINUOUS
 10
100.4414628598
 20
129.468347273
 11
100.0414628598
 21
129.5534536458
  0
LINE
  5
2A0
100
AcDbEntity
  8
0
100
AcDbLine
 62
7
  6
CONTINUOUS
 10
88.6247965428
 20
130.7981346465
 11
89.0414635274
 21
130.6917516805
  0
LINE
  5
2A1
100
AcDbEntity
  8
0
100
AcDbLine
 62
7
  6
CONTINUOUS
 10
93.3747962567
 20
130.7449431039
 11
93.0414628598
 21
130.8300494767
  0
LINE
  5
2A2
100
AcDbEntity
  8
0
100
AcDbLine
 62
7
  6
CONTINUOUS
 10
95.5081296536
 20
127.1704749979
 11
95.2414628598
 21
127.2555814005
  0
LINE
  5
2A3
100
AcDbEntity
  8
0
100
AcDbLine
 62
7
  6
CONTINUOUS
 10
99.2414628598
 20
128.2768579341
 11
100.3747964474
 21
127.8513260699
  0
LINE
  5
2A4
100
AcDbEntity
  8
0
100
AcDbLine
 62
7
  6
CONTINUOUS
 10
94.974796066
 20
127.0002622373
 11
95.174796066
 21
126.915155857
  0
LINE
  5
2A5
100
AcDbEntity
  8
0
100
AcDbLine
 62
7
  6
CONTINUOUS
 10
99.1747964474
 20
127.0002622373
 11
99.3747964474
 21
126.915155857
  0
LINE
  5
2A6
100
AcDbEntity
  8
0
100
AcDbLine
 62
7
  6
CONTINUOUS
 10
93.1081294629
 20
130.4045176126
 11
93.3081294629
 21
130.3194112397
  0
LINE
  5
2A7
100
AcDbEntity
  8
0
100
AcDbLine
 62
7
  6
CONTINUOUS
 10
95.2414628598
 20
127.2555814005
 11
95.1081296536
 21
127.3406877733
  0
LINE
  5
2A8
100
AcDbEntity
  8
0
100
AcDbLine
 62
7
  6
CONTINUOUS
 10
89.5414635274
 20
131.0109005786
 11
89.2081300351
 21
131.2236665107
  0
LINE
  5
2A9
100
AcDbEntity
  8
0
100
AcDbLine
 62
7
  6
CONTINUOUS
 10
89.0414635274
 20
130.6917516805
 11
89.2914635274
 21
130.4789857484
  0
LINE
  5
2AA
100
AcDbEntity
  8
0
100
AcDbLine
 62
7
  6
CONTINUOUS
 10
70.1746166409
 20
160.0065000558
 11
70.2886993883
 21
159.7804164964
  0
LINE
  5
2AB
100
AcDbEntity
  8
0
100
AcDbLine
 62
7
  6
CONTINUOUS
 10
71.2671485981
 20
162.905134386
 11
71.3511484803
 21
162.6662355185
  0
LINE
  5
2AC
100
AcDbEntity
  8
0
100
AcDbLine
 62
7
  6
CONTINUOUS
 10
73.1248253521
 20
169.1901373827
 11
73.1817489211
 21
168.9867732588
  0
LINE
  5
2AD
100
AcDbEntity
  8
0
100
AcDbLine
 62
7
  6
CONTINUOUS
 10
76.9369222518
 20
169.8796704616
 11
76.875258889
 21
170.2975061809
  0
LINE
  5
2AE
100
AcDbEntity
  8
0
100
AcDbLine
 62
7
  6
CONTINUOUS
 10
83.4581300351
 20
130.5853687144
 11
83.4581300351
 21
129.7343046881
  0
LINE
  5
2AF
100
AcDbEntity
  8
0
100
AcDbLine
 62
7
  6
CONTINUOUS
 10
83.9581300351
 20
130.4789857484
 11
83.9581300351
 21
126.3300494767
  0
LINE
  5
2B0
100
AcDbEntity
  8
B-ACHSEN
100
AcDbLine
 62
7
  6
CONTINUOUS
 10
84.2081300351
 20
115.1633828101
 11
84.2081300351
 21
98.4967161434
  0
LINE
  5
2B1
100
AcDbEntity
  8
0
100
AcDbLine
 62
7
  6
CONTINUOUS
 10
84.4581300351
 20
126.3300494767
 11
84.4581300351
 21
131.3300494767
  0
LINE
  5
2B2
100
AcDbEntity
  8
0
100
AcDbLine
 62
7
  6
CONTINUOUS
 10
85.124796662
 20
128.6704750277
 11
85.124796662
 21
128.1385600484
  0
LINE
  5
2B3
100
AcDbEntity
  8
0
100
AcDbLine
 62
7
  6
CONTINUOUS
 10
107.7110733787
 20
174.5499398563
 11
105.2004366306
 21
171.4359868831
  0
LINE
  5
2B4
100
AcDbEntity
  8
0
100
AcDbLine
 62
7
  6
CONTINUOUS
 10
105.4923697219
 20
171.200614688
 11
107.6824996893
 21
173.9170417971
  0
LINE
  5
2B5
100
AcDbEntity
  8
0
100
AcDbLine
 62
7
  6
CONTINUOUS
 10
109.4333905949
 20
171.3378329603
 11
108.505804007
 21
170.4607470277
  0
LINE
  5
2B6
100
AcDbEntity
  8
0
100
AcDbLine
 62
7
  6
CONTINUOUS
 10
108.7634480063
 20
170.1882684605
 11
109.6910345942
 21
171.065354393
  0
LINE
  5
2B7
100
AcDbEntity
  8
0
100
AcDbLine
 62
7
  6
CONTINUOUS
 10
110.8933733397
 20
169.7937876593
 11
109.9657867518
 21
168.9167017268
  0
LINE
  5
2B8
100
AcDbEntity
  8
0
100
AcDbLine
 62
7
  6
CONTINUOUS
 10
114.5233216622
 20
160.8229314566
 11
114.2841131681
 21
160.733672571
  0
LINE
  5
2B9
100
AcDbEntity
  8
0
100
AcDbLine
 62
7
  6
CONTINUOUS
 10
114.3354760073
 20
160.3525820916
 11
114.7341568307
 21
160.501346901
  0
LINE
  5
2BA
100
AcDbEntity
  8
0
100
AcDbLine
 62
7
  6
CONTINUOUS
 10
87.8747965428
 20
130.6917516805
 11
88.2914635274
 21
130.7981346465
  0
LINE
  5
2BB
100
AcDbEntity
  8
0
100
AcDbLine
 62
7
  6
CONTINUOUS
 10
88.3747965428
 20
131.3300494767
 11
87.7914635274
 21
131.2236665107
  0
LINE
  5
2BC
100
AcDbEntity
  8
0
100
AcDbLine
 62
7
  6
CONTINUOUS
 10
100.5747964474
 20
128.1066451884
 11
99.4414628598
 21
128.5321771718
  0
LINE
  5
2BD
100
AcDbEntity
  8
0
100
AcDbLine
 62
7
  6
CONTINUOUS
 10
100.6414628598
 20
129.3832409001
 11
100.4414628598
 21
129.468347273
  0
LINE
  5
2BE
100
AcDbEntity
  8
0
100
AcDbLine
 62
7
  6
CONTINUOUS
 10
99.3747964474
 20
127.2555814005
 11
99.2414628598
 21
127.3406877733
  0
LINE
  5
2BF
100
AcDbEntity
  8
0
100
AcDbLine
 62
7
  6
CONTINUOUS
 10
96.3081296536
 20
129.2130281545
 11
95.974796066
 21
129.468347273
  0
LINE
  5
2C0
100
AcDbEntity
  8
0
100
AcDbLine
 62
7
  6
CONTINUOUS
 10
94.774796066
 20
127.1704749979
 11
94.974796066
 21
127.0002622373
  0
LINE
  5
2C1
100
AcDbEntity
  8
0
100
AcDbLine
 62
7
  6
CONTINUOUS
 10
95.9081296536
 20
129.1279217816
 11
96.1081296536
 21
128.957709036
  0
LINE
  5
2C2
100
AcDbEntity
  8
0
100
AcDbLine
 62
7
  6
CONTINUOUS
 10
98.9747964474
 20
127.1704749979
 11
99.1747964474
 21
127.0002622373
  0
LINE
  5
2C3
100
AcDbEntity
  8
0
100
AcDbLine
 62
7
  6
CONTINUOUS
 10
93.6414628598
 20
130.4896239854
 11
93.3747962567
 21
130.7449431039
  0
LINE
  5
2C4
100
AcDbEntity
  8
0
100
AcDbLine
 62
7
  6
CONTINUOUS
 10
89.8747965428
 20
130.5853687144
 11
89.5414635274
 21
131.0109005786
  0
LINE
  5
2C5
100
AcDbEntity
  8
0
100
AcDbLine
 62
7
  6
CONTINUOUS
 10
94.6414628598
 20
127.3406877733
 11
94.774796066
 21
127.1704749979
  0
LINE
  5
2C6
100
AcDbEntity
  8
0
100
AcDbLine
 62
7
  6
CONTINUOUS
 10
95.1081296536
 20
127.3406877733
 11
94.9081296536
 21
127.5960069514
  0
LINE
  5
2C7
100
AcDbEntity
  8
0
100
AcDbLine
 62
7
  6
CONTINUOUS
 10
71.7862386636
 20
162.8219354443
 11
71.5696769964
 21
163.1845515782
  0
LINE
  5
2C8
100
AcDbEntity
  8
0
100
AcDbLine
 62
7
  6
CONTINUOUS
 10
89.2914635274
 20
130.4789857484
 11
89.4581300351
 21
130.1598368503
  0
LINE
  5
2C9
100
AcDbEntity
  8
0
100
AcDbLine
 62
7
  6
CONTINUOUS
 10
86.2914632889
 20
128.1385600484
 11
86.2914632889
 21
128.6704750277
  0
LINE
  5
2CA
100
AcDbEntity
  8
0
100
AcDbLine
 62
7
  6
CONTINUOUS
 10
86.9581300351
 20
126.8619643814
 11
86.9581300351
 21
126.3300494767
  0
LINE
  5
2CB
100
AcDbEntity
  8
0
100
AcDbLine
 62
7
  6
CONTINUOUS
 10
106.6888764927
 20
175.2253831869
 11
104.4585686917
 21
171.9048821535
  0
LINE
  5
2CC
100
AcDbEntity
  8
0
100
AcDbLine
 62
7
  6
CONTINUOUS
 10
104.7698656636
 20
171.6957907971
 11
107.0001734645
 21
175.0162918306
  0
LINE
  5
2CD
100
AcDbEntity
  8
0
100
AcDbLine
 62
7
  6
CONTINUOUS
 10
108.505804007
 20
170.4607470277
 11
108.239549255
 21
170.1229718964
  0
LINE
  5
2CE
100
AcDbEntity
  8
0
100
AcDbLine
 62
7
  6
CONTINUOUS
 10
109.3653609189
 20
173.2161640652
 11
107.2286487857
 21
170.5659913132
  0
LINE
  5
2CF
100
AcDbEntity
  8
0
100
AcDbLine
 62
7
  6
CONTINUOUS
 10
107.1466572621
 20
169.8668388969
 11
109.6572940102
 21
172.98079187
  0
LINE
  5
2D0
100
AcDbEntity
  8
0
100
AcDbLine
 62
7
  6
CONTINUOUS
 10
110.2234307512
 20
168.6442231595
 11
111.1510173391
 21
169.5213090921
  0
LINE
  5
2D1
100
AcDbEntity
  8
0
100
AcDbLine
 62
7
  6
CONTINUOUS
 10
113.6002448234
 20
162.0795167172
 11
113.8176033167
 21
162.2273323024
  0
LINE
  5
2D2
100
AcDbEntity
  8
0
100
AcDbLine
 62
7
  6
CONTINUOUS
 10
115.2605177305
 20
162.4989072374
 11
115.4778762238
 21
162.6467228227
  0
LINE
  5
2D3
100
AcDbEntity
  8
0
100
AcDbLine
 62
7
  6
CONTINUOUS
 10
113.6865043129
 20
162.5786698199
 11
113.3894096549
 21
162.4011012728
  0
LINE
  5
2D4
100
AcDbEntity
  8
0
100
AcDbLine
 62
7
  6
CONTINUOUS
 10
115.2670410553
 20
162.9683073783
 11
114.9699463973
 21
162.7907388312
  0
LINE
  5
2D5
100
AcDbEntity
  8
0
100
AcDbLine
 62
7
  6
CONTINUOUS
 10
114.4743137031
 20
154.2476907229
 11
118.3582338872
 21
155.6315855735
  0
LINE
  5
2D6
100
AcDbEntity
  8
0
100
AcDbLine
 62
7
  6
CONTINUOUS
 10
115.4300360346
 20
154.9689578724
 11
114.4378800868
 21
154.6209166486
  0
LINE
  5
2D7
100
AcDbEntity
  8
0
100
AcDbLine
 62
7
  6
CONTINUOUS
 10
117.995129779
 20
155.8473288472
 11
115.7627787032
 21
155.0642371526
  0
LINE
  5
2D8
100
AcDbEntity
  8
0
100
AcDbLine
 62
7
  6
CONTINUOUS
 10
100.4414628598
 20
129.1279217816
 11
100.5747964474
 21
129.0428154088
  0
LINE
  5
2D9
100
AcDbEntity
  8
0
100
AcDbLine
 62
7
  6
CONTINUOUS
 10
99.4414628598
 20
128.5321771718
 11
99.2414628598
 21
128.7023899175
  0
LINE
  5
2DA
100
AcDbEntity
  8
0
100
AcDbLine
 62
7
  6
CONTINUOUS
 10
100.3747964474
 20
127.8513260699
 11
100.5747964474
 21
127.6811133243
  0
LINE
  5
2DB
100
AcDbEntity
  8
0
100
AcDbLine
 62
7
  6
CONTINUOUS
 10
100.8414628598
 20
129.2130281545
 11
100.6414628598
 21
129.3832409001
  0
LINE
  5
2DC
100
AcDbEntity
  8
0
100
AcDbLine
 62
7
  6
CONTINUOUS
 10
98.9747964474
 20
128.5321771718
 11
99.2414628598
 21
128.2768579341
  0
LINE
  5
2DD
100
AcDbEntity
  8
0
100
AcDbLine
 62
7
  6
CONTINUOUS
 10
100.8414628598
 20
127.8513260699
 11
100.5747964474
 21
128.1066451884
  0
LINE
  5
2DE
100
AcDbEntity
  8
0
100
AcDbLine
 62
7
  6
CONTINUOUS
 10
67.7576879644
 20
157.5546019436
 11
67.9082929523
 21
157.4065629915
  0
LINE
  5
2DF
100
AcDbEntity
  8
0
100
AcDbLine
 62
7
  6
CONTINUOUS
 10
70.7000997757
 20
159.9908812968
 11
70.4386189423
 21
160.3225699593
  0
LINE
  5
2E0
100
AcDbEntity
  8
0
100
AcDbLine
 62
7
  6
CONTINUOUS
 10
93.3081294629
 20
130.3194112397
 11
93.4414628598
 21
130.1491984941
  0
LINE
  5
2E1
100
AcDbEntity
  8
0
100
AcDbLine
 62
7
  6
CONTINUOUS
 10
93.8414628598
 20
130.1491984941
 11
93.6414628598
 21
130.4896239854
  0
LINE
  5
2E2
100
AcDbEntity
  8
0
100
AcDbLine
 62
7
  6
CONTINUOUS
 10
73.5754456104
 20
169.0753549786
 11
73.4230600517
 21
169.4328803716
  0
LINE
  5
2E3
100
AcDbEntity
  8
0
100
AcDbLine
 62
7
  6
CONTINUOUS
 10
94.5081294629
 20
127.6811133243
 11
94.6414628598
 21
127.3406877733
  0
LINE
  5
2E4
100
AcDbEntity
  8
0
100
AcDbLine
 62
7
  6
CONTINUOUS
 10
76.3982703718
 20
170.4242298795
 11
76.4889512276
 21
170.1548044295
  0
LINE
  5
2E5
100
AcDbEntity
  8
0
100
AcDbLine
 62
7
  6
CONTINUOUS
 10
89.9581300351
 20
130.1598368503
 11
89.8747965428
 21
130.5853687144
  0
LINE
  5
2E6
100
AcDbEntity
  8
0
100
AcDbLine
 62
7
  6
CONTINUOUS
 10
89.4581300351
 20
130.1598368503
 11
89.4581300351
 21
129.9470706202
  0
LINE
  5
2E7
100
AcDbEntity
  8
0
100
AcDbLine
 62
7
  6
CONTINUOUS
 10
89.9581300351
 20
126.3300494767
 11
89.9581300351
 21
126.8619643814
  0
LINE
  5
2E8
100
AcDbEntity
  8
0
100
AcDbLine
 62
7
  6
CONTINUOUS
 10
89.9581300351
 20
129.9470706202
 11
89.9581300351
 21
130.1598368503
  0
LINE
  5
2E9
100
AcDbEntity
  8
0
100
AcDbLine
 62
7
  6
CONTINUOUS
 10
91.4414628598
 20
130.8300494767
 11
91.4414628598
 21
126.8300494767
  0
LINE
  5
2EA
100
AcDbEntity
  8
0
100
AcDbLine
 62
7
  6
CONTINUOUS
 10
91.8414628598
 20
126.8300494767
 11
91.8414628598
 21
128.6172835446
  0
LINE
  5
2EB
100
AcDbEntity
  8
0
100
AcDbLine
 62
7
  6
CONTINUOUS
 10
91.8414628598
 20
129.1279217816
 11
91.8414628598
 21
130.4045176126
  0
LINE
  5
2EC
100
AcDbEntity
  8
0
100
AcDbLine
 62
7
  6
CONTINUOUS
 10
87.1247967812
 20
130.5853687144
 11
87.0414632889
 21
130.1598368503
  0
LINE
  5
2ED
100
AcDbEntity
  8
0
100
AcDbLine
 62
7
  6
CONTINUOUS
 10
89.8747965428
 20
129.521538756
 11
89.9581300351
 21
129.9470706202
  0
LINE
  5
2EE
100
AcDbEntity
  8
B-ACHSEN
100
AcDbLine
 62
7
  6
CONTINUOUS
 10
85.6087092699
 20
119.820799837
 11
84.2081300351
 21
115.1633828101
  0
LINE
  5
2EF
100
AcDbEntity
  8
0
100
AcDbLine
 62
7
  6
CONTINUOUS
 10
83.9581300351
 20
131.3300494767
 11
83.4581300351
 21
130.5853687144
  0
LINE
  5
2F0
100
AcDbEntity
  8
0
100
AcDbLine
 62
7
  6
CONTINUOUS
 10
83.4581300351
 20
129.7343046881
 11
83.9581300351
 21
130.4789857484
  0
LINE
  5
2F1
100
AcDbEntity
  8
0
100
AcDbLine
 62
7
  6
CONTINUOUS
 10
108.5590323544
 20
169.9089657192
 11
108.7634480063
 21
170.1882684605
  0
LINE
  5
2F2
100
AcDbEntity
  8
0
100
AcDbLine
 62
7
  6
CONTINUOUS
 10
111.0977889916
 20
170.0730904007
 11
110.8933733397
 21
169.7937876593
  0
LINE
  5
2F3
100
AcDbEntity
  8
0
100
AcDbLine
 62
7
  6
CONTINUOUS
 10
111.1510173391
 20
169.5213090921
 11
111.41727251
 21
169.8590841274
  0
LINE
  5
2F4
100
AcDbEntity
  8
0
100
AcDbLine
 62
7
  6
CONTINUOUS
 10
113.3894096549
 20
162.4011012728
 11
113.0562782496
 21
162.0766676735
  0
LINE
  5
2F5
100
AcDbEntity
  8
0
100
AcDbLine
 62
7
  6
CONTINUOUS
 10
116.2633309573
 20
161.272075022
 11
116.4806894507
 21
161.4198906073
  0
LINE
  5
2F6
100
AcDbEntity
  8
0
100
AcDbLine
 62
7
  6
CONTINUOUS
 10
68.2056450344
 20
157.6793740595
 11
67.8955044693
 21
157.913593177
  0
LINE
  5
2F7
100
AcDbEntity
  8
0
100
AcDbLine
 62
7
  6
CONTINUOUS
 10
69.9618482535
 20
160.195027072
 11
70.1746166409
 21
160.0065000558
  0
LINE
  5
2F8
100
AcDbEntity
  8
0
100
AcDbLine
 62
7
  6
CONTINUOUS
 10
71.0804465841
 20
163.1195061888
 11
71.2671485981
 21
162.905134386
  0
LINE
  5
2F9
100
AcDbEntity
  8
0
100
AcDbLine
 62
7
  6
CONTINUOUS
 10
74.0441555145
 20
170.8489263723
 11
73.9090396161
 21
171.0743991592
  0
LINE
  5
2FA
100
AcDbEntity
  8
0
100
AcDbLine
 62
7
  6
CONTINUOUS
 10
96.5081296536
 20
128.8726026631
 11
96.3081296536
 21
129.2130281545
  0
LINE
  5
2FB
100
AcDbEntity
  8
0
100
AcDbLine
 62
7
  6
CONTINUOUS
 10
96.1081296536
 20
128.957709036
 11
96.2414628598
 21
128.7023899175
  0
LINE
  5
2FC
100
AcDbEntity
  8
0
100
AcDbLine
 62
7
  6
CONTINUOUS
 10
76.875258889
 20
170.2975061809
 11
76.7247277894
 21
170.6274382681
  0
LINE
  5
2FD
100
AcDbEntity
  8
0
100
AcDbLine
 62
7
  6
CONTINUOUS
 10
77.4832847356
 20
171.7964463448
 11
76.541902207
 21
173.9667972064
  0
LINE
  5
2FE
100
AcDbEntity
  8
0
100
AcDbLine
 62
7
  6
CONTINUOUS
 10
78.0577349393
 20
170.5229097405
 11
77.6393431082
 21
171.4875103801
  0
LINE
  5
2FF
100
AcDbEntity
  8
0
100
AcDbLine
 62
7
  6
CONTINUOUS
 10
76.1369418528
 20
174.0867811628
 11
77.7590507383
 21
170.2961659466
  0
LINE
  5
300
100
AcDbEntity
  8
0
100
AcDbLine
 62
7
  6
CONTINUOUS
 10
94.9081296536
 20
127.5960069514
 11
94.8414628598
 21
127.7662196971
  0
LINE
  5
301
100
AcDbEntity
  8
B-ACHSEN
100
AcDbLine
 62
7
  6
CONTINUOUS
 10
98.8075508003
 20
119.820799837
 11
100.2081300351
 21
115.1633828101
  0
LINE
  5
302
100
AcDbEntity
  8
0
100
AcDbLine
 62
7
  6
CONTINUOUS
 10
93.4414628598
 20
130.1491984941
 11
93.5081294629
 21
129.8938793756
  0
LINE
  5
303
100
AcDbEntity
  8
0
100
AcDbLine
 62
7
  6
CONTINUOUS
 10
93.9081294629
 20
129.8938793756
 11
93.8414628598
 21
130.1491984941
  0
LINE
  5
304
100
AcDbEntity
  8
0
100
AcDbLine
 62
7
  6
CONTINUOUS
 10
94.8414628598
 20
127.7662196971
 11
94.774796066
 21
128.0215388156
  0
LINE
  5
305
100
AcDbEntity
  8
0
100
AcDbLine
 62
7
  6
CONTINUOUS
 10
94.4414628598
 20
128.1917515613
 11
94.5081294629
 21
127.6811133243
  0
LINE
  5
306
100
AcDbEntity
  8
0
100
AcDbLine
 62
7
  6
CONTINUOUS
 10
93.5081294629
 20
129.8938793756
 11
93.5081294629
 21
129.6385600186
  0
LINE
  5
307
100
AcDbEntity
  8
0
100
AcDbLine
 62
7
  6
CONTINUOUS
 10
93.9081294629
 20
129.5534536458
 11
93.9081294629
 21
129.8938793756
  0
LINE
  5
308
100
AcDbEntity
  8
0
100
AcDbLine
 62
7
  6
CONTINUOUS
 10
94.774796066
 20
128.0215388156
 11
94.774796066
 21
128.1917515613
  0
LINE
  5
309
100
AcDbEntity
  8
0
100
AcDbLine
 62
7
  6
CONTINUOUS
 10
94.8414628598
 20
128.5321771718
 11
94.8414628598
 21
128.6172835446
  0
LINE
  5
30A
100
AcDbEntity
  8
0
100
AcDbLine
 62
7
  6
CONTINUOUS
 10
96.2414628598
 20
128.7023899175
 11
96.2414628598
 21
128.5321771718
  0
LINE
  5
30B
100
AcDbEntity
  8
0
100
AcDbLine
 62
7
  6
CONTINUOUS
 10
94.5081294629
 20
128.7023899175
 11
94.4414628598
 21
128.1917515613
  0
LINE
  5
30C
100
AcDbEntity
  8
0
100
AcDbLine
 62
7
  6
CONTINUOUS
 10
89.4581300351
 20
129.9470706202
 11
89.2914635274
 21
129.521538756
  0
LINE
  5
30D
100
AcDbEntity
  8
0
100
AcDbLine
 62
7
  6
CONTINUOUS
 10
108.239549255
 20
170.1229718964
 11
108.0780740626
 21
169.7982561928
  0
LINE
  5
30E
100
AcDbEntity
  8
0
100
AcDbLine
 62
7
  6
CONTINUOUS
 10
87.4581300351
 20
130.1598368503
 11
87.6247965428
 21
130.4789857484
  0
LINE
  5
30F
100
AcDbEntity
  8
0
100
AcDbLine
 62
7
  6
CONTINUOUS
 10
89.7081300351
 20
129.2023898579
 11
89.8747965428
 21
129.521538756
  0
LINE
  5
310
100
AcDbEntity
  8
0
100
AcDbLine
 62
7
  6
CONTINUOUS
 10
87.4581300351
 20
131.0109005786
 11
87.1247967812
 21
130.5853687144
  0
LINE
  5
311
100
AcDbEntity
  8
0
100
AcDbLine
 62
7
  6
CONTINUOUS
 10
114.7188307666
 20
161.0293024429
 11
114.5233216622
 21
160.8229314566
  0
LINE
  5
312
100
AcDbEntity
  8
0
100
AcDbLine
 62
7
  6
CONTINUOUS
 10
114.7341568307
 20
160.501346901
 11
115.0094020998
 21
160.7374708492
  0
LINE
  5
313
100
AcDbEntity
  8
0
100
AcDbLine
 62
7
  6
CONTINUOUS
 10
116.2698542821
 20
161.7414751629
 11
116.1322319535
 21
161.6234125395
  0
LINE
  5
314
100
AcDbEntity
  8
0
100
AcDbLine
 62
7
  6
CONTINUOUS
 10
117.725000825
 20
151.380794922
 11
118.0717285488
 21
151.5563672737
  0
LINE
  5
315
100
AcDbEntity
  8
0
100
AcDbLine
 62
7
  6
CONTINUOUS
 10
114.4035131479
 20
151.3710639845
 11
116.3793026883
 21
151.8652906227
  0
LINE
  5
316
100
AcDbEntity
  8
0
100
AcDbLine
 62
7
  6
CONTINUOUS
 10
116.2222071082
 20
152.2459720611
 11
114.4186968445
 21
151.8082994713
  0
LINE
  5
317
100
AcDbEntity
  8
0
100
AcDbLine
 62
7
  6
CONTINUOUS
 10
117.4676663958
 20
151.3271931174
 11
117.725000825
 21
151.380794922
  0
LINE
  5
318
100
AcDbEntity
  8
0
100
AcDbLine
 62
7
  6
CONTINUOUS
 10
117.7380154504
 20
151.7555690133
 11
117.4806810213
 21
151.7019672087
  0
LINE
  5
319
100
AcDbEntity
  8
0
100
AcDbLine
 62
7
  6
CONTINUOUS
 10
70.4386189423
 20
160.3225699593
 11
70.1438225602
 21
160.5337798526
  0
LINE
  5
31A
100
AcDbEntity
  8
0
100
AcDbLine
 62
7
  6
CONTINUOUS
 10
71.5696769964
 20
163.1845515782
 11
71.3045535945
 21
163.4319868164
  0
LINE
  5
31B
100
AcDbEntity
  8
0
100
AcDbLine
 62
7
  6
CONTINUOUS
 10
72.9623627161
 20
169.396777296
 11
73.1248253521
 21
169.1901373827
  0
LINE
  5
31C
100
AcDbEntity
  8
0
100
AcDbLine
 62
7
  6
CONTINUOUS
 10
73.4230600517
 20
169.4328803716
 11
73.2605974157
 21
169.6395202849
  0
LINE
  5
31D
100
AcDbEntity
  8
0
100
AcDbLine
 62
7
  6
CONTINUOUS
 10
73.5227319966
 20
170.9316973654
 11
73.7176979293
 21
170.6457181532
  0
LINE
  5
31E
100
AcDbEntity
  8
0
100
AcDbLine
 62
7
  6
CONTINUOUS
 10
98.8414628598
 20
127.510900519
 11
98.9747964474
 21
127.1704749979
  0
LINE
  5
31F
100
AcDbEntity
  8
0
100
AcDbLine
 62
7
  6
CONTINUOUS
 10
99.2414628598
 20
127.3406877733
 11
99.1747964474
 21
127.510900519
  0
LINE
  5
320
100
AcDbEntity
  8
0
100
AcDbLine
 62
7
  6
CONTINUOUS
 10
98.8414628598
 20
128.8726026631
 11
98.9747964474
 21
128.5321771718
  0
LINE
  5
321
100
AcDbEntity
  8
0
100
AcDbLine
 62
7
  6
CONTINUOUS
 10
99.2414628598
 20
128.7023899175
 11
99.1747964474
 21
128.8726026631
  0
LINE
  5
322
100
AcDbEntity
  8
0
100
AcDbLine
 62
7
  6
CONTINUOUS
 10
100.5747964474
 20
127.6811133243
 11
100.6414628598
 21
127.510900519
  0
LINE
  5
323
100
AcDbEntity
  8
0
100
AcDbLine
 62
7
  6
CONTINUOUS
 10
100.9747964474
 20
127.510900519
 11
100.8414628598
 21
127.8513260699
  0
LINE
  5
324
100
AcDbEntity
  8
0
100
AcDbLine
 62
7
  6
CONTINUOUS
 10
100.5747964474
 20
129.0428154088
 11
100.6414628598
 21
128.8726026631
  0
LINE
  5
325
100
AcDbEntity
  8
0
100
AcDbLine
 62
7
  6
CONTINUOUS
 10
100.9747964474
 20
128.8726026631
 11
100.8414628598
 21
129.2130281545
  0
LINE
  5
326
100
AcDbEntity
  8
0
100
AcDbLine
 62
7
  6
CONTINUOUS
 10
96.574796066
 20
128.5321771718
 11
96.5081296536
 21
128.8726026631
  0
LINE
  5
327
100
AcDbEntity
  8
0
100
AcDbLine
 62
7
  6
CONTINUOUS
 10
96.574796066
 20
128.1917515613
 11
96.574796066
 21
128.5321771718
  0
LINE
  5
328
100
AcDbEntity
  8
0
100
AcDbLine
 62
7
  6
CONTINUOUS
 10
97.1081296536
 20
129.5534536458
 11
97.1081296536
 21
126.8300494767
  0
LINE
  5
329
100
AcDbEntity
  8
0
100
AcDbLine
 62
7
  6
CONTINUOUS
 10
97.4414628598
 20
126.8300494767
 11
97.4414628598
 21
128.5321771718
  0
LINE
  5
32A
100
AcDbEntity
  8
0
100
AcDbLine
 62
7
  6
CONTINUOUS
 10
97.4414628598
 20
129.0428154088
 11
97.4414628598
 21
129.5534536458
  0
LINE
  5
32B
100
AcDbEntity
  8
0
100
AcDbLine
 62
7
  6
CONTINUOUS
 10
98.3081292721
 20
129.1279217816
 11
98.3081292721
 21
129.5534536458
  0
LINE
  5
32C
100
AcDbEntity
  8
0
100
AcDbLine
 62
7
  6
CONTINUOUS
 10
98.8414628598
 20
129.0428154088
 11
98.8414628598
 21
128.8726026631
  0
LINE
  5
32D
100
AcDbEntity
  8
0
100
AcDbLine
 62
7
  6
CONTINUOUS
 10
96.5081296536
 20
127.3406877733
 11
96.574796066
 21
127.6811133243
  0
LINE
  5
32E
100
AcDbEntity
  8
0
100
AcDbLine
 62
7
  6
CONTINUOUS
 10
107.2286487857
 20
170.5659913132
 11
108.1489730156
 21
174.1968815636
  0
LINE
  5
32F
100
AcDbEntity
  8
0
100
AcDbLine
 62
7
  6
CONTINUOUS
 10
93.5081294629
 20
129.6385600186
 11
93.4414628598
 21
129.3832409001
  0
LINE
  5
330
100
AcDbEntity
  8
0
100
AcDbLine
 62
7
  6
CONTINUOUS
 10
93.8414628598
 20
129.2981345273
 11
93.9081294629
 21
129.5534536458
  0
LINE
  5
331
100
AcDbEntity
  8
0
100
AcDbLine
 62
7
  6
CONTINUOUS
 10
96.2414628598
 20
127.6811133243
 11
96.174796066
 21
127.4257941462
  0
LINE
  5
332
100
AcDbEntity
  8
0
100
AcDbLine
 62
7
  6
CONTINUOUS
 10
107.6824996893
 20
173.9170417971
 11
106.7087576252
 21
170.2198971896
  0
LINE
  5
333
100
AcDbEntity
  8
0
100
AcDbLine
 62
7
  6
CONTINUOUS
 10
108.4593963054
 20
169.6427224466
 11
108.5590323544
 21
169.9089657192
  0
LINE
  5
334
100
AcDbEntity
  8
0
100
AcDbLine
 62
7
  6
CONTINUOUS
 10
94.6414628598
 20
129.0428154088
 11
94.5081294629
 21
128.7023899175
  0
LINE
  5
335
100
AcDbEntity
  8
0
100
AcDbLine
 62
7
  6
CONTINUOUS
 10
94.8414628598
 20
128.6172835446
 11
94.9081296536
 21
128.7874962903
  0
LINE
  5
336
100
AcDbEntity
  8
0
100
AcDbLine
 62
7
  6
CONTINUOUS
 10
112.8039267193
 20
169.6529829951
 11
111.8333426266
 21
167.6483708671
  0
LINE
  5
337
100
AcDbEntity
  8
0
100
AcDbLine
 62
7
  6
CONTINUOUS
 10
111.5969921987
 20
167.2479060214
 11
110.7936210503
 21
165.59412908
  0
LINE
  5
338
100
AcDbEntity
  8
0
100
AcDbLine
 62
7
  6
CONTINUOUS
 10
112.2192333049
 20
167.6945677236
 11
113.0226048704
 21
169.3483440839
  0
LINE
  5
339
100
AcDbEntity
  8
0
100
AcDbLine
 62
7
  6
CONTINUOUS
 10
111.41727251
 20
169.8590841274
 11
111.5787474134
 21
170.1838000499
  0
LINE
  5
33A
100
AcDbEntity
  8
0
100
AcDbLine
 62
7
  6
CONTINUOUS
 10
111.0122992014
 20
165.2894901688
 11
112.0520207777
 21
167.3437319559
  0
LINE
  5
33B
100
AcDbEntity
  8
0
100
AcDbLine
 62
7
  6
CONTINUOUS
 10
113.4265857754
 20
161.814589052
 11
113.6002448234
 21
162.0795167172
  0
LINE
  5
33C
100
AcDbEntity
  8
0
100
AcDbLine
 62
7
  6
CONTINUOUS
 10
114.9699463973
 20
162.7907388312
 11
114.7384012412
 21
162.4375015253
  0
LINE
  5
33D
100
AcDbEntity
  8
0
100
AcDbLine
 62
7
  6
CONTINUOUS
 10
116.4806894507
 20
161.4198906073
 11
116.7340846074
 21
161.7145712135
  0
LINE
  5
33E
100
AcDbEntity
  8
0
100
AcDbLine
 62
7
  6
CONTINUOUS
 10
89.2914635274
 20
129.521538756
 11
86.9581300351
 21
126.8619643814
  0
LINE
  5
33F
100
AcDbEntity
  8
0
100
AcDbLine
 62
7
  6
CONTINUOUS
 10
87.6247965428
 20
126.8619643814
 11
89.7081300351
 21
129.2023898579
  0
LINE
  5
340
100
AcDbEntity
  8
0
100
AcDbLine
 62
7
  6
CONTINUOUS
 10
87.6247965428
 20
130.4789857484
 11
87.8747965428
 21
130.6917516805
  0
LINE
  5
341
100
AcDbEntity
  8
0
100
AcDbLine
 62
7
  6
CONTINUOUS
 10
117.9124638479
 20
151.8745858869
 11
117.7380154504
 21
151.7555690133
  0
LINE
  5
342
100
AcDbEntity
  8
0
100
AcDbLine
 62
7
  6
CONTINUOUS
 10
87.7914635274
 20
131.2236665107
 11
87.4581300351
 21
131.0109005786
  0
LINE
  5
343
100
AcDbEntity
  8
0
100
AcDbLine
 62
7
  6
CONTINUOUS
 10
67.5139193166
 20
157.6529428871
 11
67.7576879644
 21
157.5546019436
  0
LINE
  5
344
100
AcDbEntity
  8
0
100
AcDbLine
 62
7
  6
CONTINUOUS
 10
67.8955044693
 20
157.913593177
 11
67.6517358215
 21
158.0119341205
  0
LINE
  5
345
100
AcDbEntity
  8
0
100
AcDbLine
 62
7
  6
CONTINUOUS
 10
70.1438225602
 20
160.5337798526
 11
69.7503406336
 21
160.7074335475
  0
LINE
  5
346
100
AcDbEntity
  8
0
100
AcDbLine
 62
7
  6
CONTINUOUS
 10
69.6503942642
 20
160.3459979055
 11
69.9618482535
 21
160.195027072
  0
LINE
  5
347
100
AcDbEntity
  8
0
100
AcDbLine
 62
7
  6
CONTINUOUS
 10
71.3045535945
 20
163.4319868164
 11
70.9367277831
 21
163.654894331
  0
LINE
  5
348
100
AcDbEntity
  8
0
100
AcDbLine
 62
7
  6
CONTINUOUS
 10
70.7910421057
 20
163.3093502912
 11
71.0804465841
 21
163.1195061888
  0
LINE
  5
349
100
AcDbEntity
  8
0
100
AcDbLine
 62
7
  6
CONTINUOUS
 10
70.8296439107
 20
168.6061663146
 11
73.9786746632
 21
166.1396697466
  0
LINE
  5
34A
100
AcDbEntity
  8
0
100
AcDbLine
 62
7
  6
CONTINUOUS
 10
73.7176979293
 20
170.6457181532
 11
73.9570989045
 21
170.403691604
  0
LINE
  5
34B
100
AcDbEntity
  8
0
100
AcDbLine
 62
7
  6
CONTINUOUS
 10
74.1638559183
 20
170.7279131825
 11
74.0441555145
 21
170.8489263723
  0
LINE
  5
34C
100
AcDbEntity
  8
B-ACHSEN
100
AcDbLine
 62
7
  6
CONTINUOUS
 10
100.2081300351
 20
115.1633828101
 11
100.2081300351
 21
98.4967161434
  0
LINE
  5
34D
100
AcDbEntity
  8
0
100
AcDbLine
 62
7
  6
CONTINUOUS
 10
100.9747964474
 20
127.3406877733
 11
100.9747964474
 21
127.510900519
  0
LINE
  5
34E
100
AcDbEntity
  8
0
100
AcDbLine
 62
7
  6
CONTINUOUS
 10
108.0780740626
 20
169.7982561928
 11
108.0024803887
 21
169.3827141473
  0
LINE
  5
34F
100
AcDbEntity
  8
0
100
AcDbLine
 62
7
  6
CONTINUOUS
 10
111.1974252139
 20
170.3393338371
 11
111.0977889916
 21
170.0730904007
  0
LINE
  5
350
100
AcDbEntity
  8
0
100
AcDbLine
 62
7
  6
CONTINUOUS
 10
99.1747964474
 20
128.8726026631
 11
99.2414628598
 21
129.0428154088
  0
LINE
  5
351
100
AcDbEntity
  8
0
100
AcDbLine
 62
7
  6
CONTINUOUS
 10
93.6414628598
 20
128.957709036
 11
93.8414628598
 21
129.2981345273
  0
LINE
  5
352
100
AcDbEntity
  8
0
100
AcDbLine
 62
7
  6
CONTINUOUS
 10
97.4414628598
 20
128.5321771718
 11
97.6414628598
 21
128.8726026631
  0
LINE
  5
353
100
AcDbEntity
  8
0
100
AcDbLine
 62
7
  6
CONTINUOUS
 10
115.0094020998
 20
160.7374708492
 11
115.2409472559
 21
161.0907081551
  0
LINE
  5
354
100
AcDbEntity
  8
0
100
AcDbLine
 62
7
  6
CONTINUOUS
 10
116.3856271102
 20
161.9180931457
 11
116.2698542821
 21
161.7414751629
  0
LINE
  5
355
100
AcDbEntity
  8
0
100
AcDbLine
 62
7
  6
CONTINUOUS
 10
93.4414628598
 20
129.3832409001
 11
93.3081294629
 21
129.2130281545
  0
LINE
  5
356
100
AcDbEntity
  8
0
100
AcDbLine
 62
7
  6
CONTINUOUS
 10
94.774796066
 20
129.2130281545
 11
94.6414628598
 21
129.0428154088
  0
LINE
  5
357
100
AcDbEntity
  8
0
100
AcDbLine
 62
7
  6
CONTINUOUS
 10
94.9081296536
 20
128.7874962903
 11
95.1081296536
 21
129.0428154088
  0
LINE
  5
358
100
AcDbEntity
  8
0
100
AcDbLine
 62
7
  6
CONTINUOUS
 10
93.3747962567
 20
128.7023899175
 11
93.6414628598
 21
128.957709036
  0
LINE
  5
359
100
AcDbEntity
  8
0
100
AcDbLine
 62
7
  6
CONTINUOUS
 10
118.0717285488
 20
151.5563672737
 11
118.3355702907
 21
151.7973561239
  0
LINE
  5
35A
100
AcDbEntity
  8
0
100
AcDbLine
 62
7
  6
CONTINUOUS
 10
117.6264236077
 20
158.044247578
 11
118.0408143667
 21
158.1409826091
  0
LINE
  5
35B
100
AcDbEntity
  8
0
100
AcDbLine
 62
7
  6
CONTINUOUS
 10
113.9182133088
 20
158.2054920719
 11
117.3990961489
 21
159.0180664421
  0
LINE
  5
35C
100
AcDbEntity
  8
0
100
AcDbLine
 62
7
  6
CONTINUOUS
 10
117.3138483926
 20
159.383248342
 11
113.8329655524
 21
158.5706739718
  0
LINE
  5
35D
100
AcDbEntity
  8
0
100
AcDbLine
 62
7
  6
CONTINUOUS
 10
117.1274457464
 20
151.3390078197
 11
117.4676663958
 21
151.3271931174
  0
LINE
  5
35E
100
AcDbEntity
  8
0
100
AcDbLine
 62
7
  6
CONTINUOUS
 10
117.4806810213
 20
151.7019672087
 11
117.2255154746
 21
151.7108282375
  0
LINE
  5
35F
100
AcDbEntity
  8
0
100
AcDbLine
 62
7
  6
CONTINUOUS
 10
66.0578083574
 20
155.9055751461
 11
70.0167631457
 21
155.3340185135
  0
LINE
  5
360
100
AcDbEntity
  8
0
100
AcDbLine
 62
7
  6
CONTINUOUS
 10
70.07034658
 20
155.7051705249
 11
68.3014518622
 21
155.9605468963
  0
LINE
  5
361
100
AcDbEntity
  8
0
100
AcDbLine
 62
7
  6
CONTINUOUS
 10
67.7960534389
 20
156.0335115641
 11
66.5325571445
 21
156.2159232677
  0
LINE
  5
362
100
AcDbEntity
  8
0
100
AcDbLine
 62
7
  6
CONTINUOUS
 10
66.6077959681
 20
159.2419883178
 11
69.1506623699
 21
158.5388195235
  0
LINE
  5
363
100
AcDbEntity
  8
0
100
AcDbLine
 62
7
  6
CONTINUOUS
 10
69.2506087869
 20
158.9002553378
 11
66.7077423851
 21
159.6034241321
  0
LINE
  5
364
100
AcDbEntity
  8
0
100
AcDbLine
 62
7
  6
CONTINUOUS
 10
67.1075278624
 20
161.0491666998
 11
69.6503942642
 21
160.3459979055
  0
LINE
  5
365
100
AcDbEntity
  8
0
100
AcDbLine
 62
7
  6
CONTINUOUS
 10
67.5344283738
 20
162.376233536
 11
71.2202314646
 21
160.8222529775
  0
LINE
  5
366
100
AcDbEntity
  8
0
100
AcDbLine
 62
7
  6
CONTINUOUS
 10
70.895389089
 20
161.3661775136
 11
68.1506420493
 21
162.5233971026
  0
LINE
  5
367
100
AcDbEntity
  8
0
100
AcDbLine
 62
7
  6
CONTINUOUS
 10
69.6147220007
 20
163.8053015205
 11
70.7910421057
 21
163.3093502912
  0
LINE
  5
368
100
AcDbEntity
  8
0
100
AcDbLine
 62
7
  6
CONTINUOUS
 10
70.9367277831
 20
163.654894331
 11
69.7604076781
 21
164.1508455602
  0
LINE
  5
369
100
AcDbEntity
  8
0
100
AcDbLine
 62
7
  6
CONTINUOUS
 10
74.2099087165
 20
166.4348913797
 11
72.802894956
 21
167.5369430534
  0
LINE
  5
36A
100
AcDbEntity
  8
0
100
AcDbLine
 62
7
  6
CONTINUOUS
 10
72.4008910781
 20
167.8518149181
 11
71.3958811956
 21
168.638994727
  0
LINE
  5
36B
100
AcDbEntity
  8
0
100
AcDbLine
 62
7
  6
CONTINUOUS
 10
72.7613605894
 20
169.5542133754
 11
72.9623627161
 21
169.396777296
  0
LINE
  5
36C
100
AcDbEntity
  8
0
100
AcDbLine
 62
7
  6
CONTINUOUS
 10
73.2605974157
 20
169.6395202849
 11
72.9925946427
 21
169.8494350084
  0
LINE
  5
36D
100
AcDbEntity
  8
0
100
AcDbLine
 62
7
  6
CONTINUOUS
 10
76.2187197661
 20
170.6057496642
 11
76.3982703718
 21
170.4242298795
  0
LINE
  5
36E
100
AcDbEntity
  8
0
100
AcDbLine
 62
7
  6
CONTINUOUS
 10
76.7247277894
 20
170.6274382681
 11
76.4254767799
 21
170.9299712427
  0
LINE
  5
36F
100
AcDbEntity
  8
RUNDUNGEN
100
AcDbLine
 62
7
  6
CONTINUOUS
 10
104.2081300351
 20
176.3300494767
 11
104.2081300351
 21
178.8300494767
  0
LINE
  5
370
100
AcDbEntity
  8
0
100
AcDbLine
 62
7
  6
CONTINUOUS
 10
111.5787474134
 20
170.1838000499
 11
111.6543410656
 21
170.5993420749
  0
LINE
  5
371
100
AcDbEntity
  8
0
100
AcDbLine
 62
7
  6
CONTINUOUS
 10
113.0562782496
 20
162.0766676735
 11
112.9263187379
 21
161.6946279622
  0
LINE
  5
372
100
AcDbEntity
  8
0
100
AcDbLine
 62
7
  6
CONTINUOUS
 10
100.6414628598
 20
127.510900519
 11
100.5747964474
 21
127.3406877733
  0
LINE
  5
373
100
AcDbEntity
  8
0
100
AcDbLine
 62
7
  6
CONTINUOUS
 10
115.1665949031
 20
162.263732555
 11
115.2605177305
 21
162.4989072374
  0
LINE
  5
374
100
AcDbEntity
  8
0
100
AcDbLine
 62
7
  6
CONTINUOUS
 10
114.812753594
 20
161.2644771254
 11
114.7188307666
 21
161.0293024429
  0
LINE
  5
375
100
AcDbEntity
  8
0
100
AcDbLine
 62
7
  6
CONTINUOUS
 10
116.7340846074
 20
161.7145712135
 11
116.885894099
 21
162.0380542173
  0
LINE
  5
376
100
AcDbEntity
  8
0
100
AcDbLine
 62
7
  6
CONTINUOUS
 10
98.9747964474
 20
129.2981345273
 11
98.8414628598
 21
129.0428154088
  0
LINE
  5
377
100
AcDbEntity
  8
0
100
AcDbLine
 62
7
  6
CONTINUOUS
 10
100.8414628598
 20
127.085368625
 11
100.9747964474
 21
127.3406877733
  0
LINE
  5
378
100
AcDbEntity
  8
0
100
AcDbLine
 62
7
  6
CONTINUOUS
 10
97.574796066
 20
129.2130281545
 11
97.4414628598
 21
129.0428154088
  0
LINE
  5
379
100
AcDbEntity
  8
0
100
AcDbLine
 62
7
  6
CONTINUOUS
 10
96.3081296536
 20
127.085368625
 11
96.5081296536
 21
127.3406877733
  0
LINE
  5
37A
100
AcDbEntity
  8
0
100
AcDbLine
 62
7
  6
CONTINUOUS
 10
94.974796066
 20
129.3832409001
 11
94.774796066
 21
129.2130281545
  0
LINE
  5
37B
100
AcDbEntity
  8
0
100
AcDbLine
 62
7
  6
CONTINUOUS
 10
97.774796066
 20
129.3832409001
 11
97.574796066
 21
129.2130281545
  0
LINE
  5
37C
100
AcDbEntity
  8
0
100
AcDbLine
 62
7
  6
CONTINUOUS
 10
96.174796066
 20
127.4257941462
 11
95.974796066
 21
127.2555814005
  0
LINE
  5
37D
100
AcDbEntity
  8
0
100
AcDbLine
 62
7
  6
CONTINUOUS
 10
95.1081296536
 20
129.0428154088
 11
95.2414628598
 21
129.1279217816
  0
LINE
  5
37E
100
AcDbEntity
  8
0
100
AcDbLine
 62
7
  6
CONTINUOUS
 10
97.6414628598
 20
128.8726026631
 11
97.9081292721
 21
129.0428154088
  0
LINE
  5
37F
100
AcDbEntity
  8
0
100
AcDbLine
 62
7
  6
CONTINUOUS
 10
99.2414628598
 20
129.468347273
 11
98.9747964474
 21
129.2981345273
  0
LINE
  5
380
100
AcDbEntity
  8
0
100
AcDbLine
 62
7
  6
CONTINUOUS
 10
99.2414628598
 20
129.0428154088
 11
99.3747964474
 21
129.1279217816
  0
LINE
  5
381
100
AcDbEntity
  8
0
100
AcDbLine
 62
7
  6
CONTINUOUS
 10
96.0414628598
 20
126.915155857
 11
96.3081296536
 21
127.085368625
  0
LINE
  5
382
100
AcDbEntity
  8
0
100
AcDbLine
 62
7
  6
CONTINUOUS
 10
93.3081294629
 20
129.2130281545
 11
93.1081294629
 21
129.1279217816
  0
LINE
  5
383
100
AcDbEntity
  8
0
100
AcDbLine
 62
7
  6
CONTINUOUS
 10
95.174796066
 20
129.468347273
 11
94.974796066
 21
129.3832409001
  0
LINE
  5
384
100
AcDbEntity
  8
0
100
AcDbLine
 62
7
  6
CONTINUOUS
 10
97.9747964474
 20
129.468347273
 11
97.774796066
 21
129.3832409001
  0
LINE
  5
385
100
AcDbEntity
  8
0
100
AcDbLine
 62
7
  6
CONTINUOUS
 10
95.2414628598
 20
129.1279217816
 11
95.5081296536
 21
129.2130281545
  0
LINE
  5
386
100
AcDbEntity
  8
0
100
AcDbLine
 62
7
  6
CONTINUOUS
 10
99.3747964474
 20
129.1279217816
 11
99.6414628598
 21
129.2130281545
  0
LINE
  5
387
100
AcDbEntity
  8
0
100
AcDbLine
 62
7
  6
CONTINUOUS
 10
117.5009116929
 20
160.4538022374
 11
117.0865209338
 21
160.3570672062
  0
LINE
  5
388
100
AcDbEntity
  8
0
100
AcDbLine
 62
7
  6
CONTINUOUS
 10
114.4729244669
 20
153.3698586617
 11
116.2590818637
 21
153.3078315099
  0
LINE
  5
389
100
AcDbEntity
  8
0
100
AcDbLine
 62
7
  6
CONTINUOUS
 10
116.7694124804
 20
153.2901094689
 11
118.0452392604
 21
153.2458043581
  0
LINE
  5
38A
100
AcDbEntity
  8
0
100
AcDbLine
 62
7
  6
CONTINUOUS
 10
118.4835293997
 20
153.6058100819
 11
114.4859390923
 21
153.744632753
  0
LINE
  5
38B
100
AcDbEntity
  8
0
100
AcDbLine
 62
7
  6
CONTINUOUS
 10
69.5953782009
 20
158.8697629367
 11
69.2506087869
 21
158.9002553378
  0
LINE
  5
38C
100
AcDbEntity
  8
0
100
AcDbLine
 62
7
  6
CONTINUOUS
 10
69.1506623699
 20
158.5388195235
 11
69.5774598166
 21
158.4856446058
  0
LINE
  5
38D
100
AcDbEntity
  8
0
100
AcDbLine
 62
7
  6
CONTINUOUS
 10
67.261219869
 20
157.689425255
 11
67.5139193166
 21
157.6529428871
  0
LINE
  5
38E
100
AcDbEntity
  8
0
100
AcDbLine
 62
7
  6
CONTINUOUS
 10
67.6517358215
 20
158.0119341205
 11
67.3148033033
 21
158.0605772664
  0
LINE
  5
38F
100
AcDbEntity
  8
0
100
AcDbLine
 62
7
  6
CONTINUOUS
 10
69.7503406336
 20
160.7074335475
 11
67.2074742318
 21
161.4106023418
  0
LINE
  5
390
100
AcDbEntity
  8
0
100
AcDbLine
 62
7
  6
CONTINUOUS
 10
75.451541913
 20
169.2483567553
 11
75.2275564324
 21
169.3859237075
  0
LINE
  5
391
100
AcDbEntity
  8
0
100
AcDbLine
 62
7
  6
CONTINUOUS
 10
74.387841399
 20
170.5903462303
 11
74.1638559183
 21
170.7279131825
  0
LINE
  5
392
100
AcDbEntity
  8
0
100
AcDbLine
 62
7
  6
CONTINUOUS
 10
74.9609492167
 20
169.1222087239
 11
75.2447848993
 21
168.9241351768
  0
LINE
  5
393
100
AcDbEntity
  8
0
100
AcDbLine
 62
7
  6
CONTINUOUS
 10
73.9570989045
 20
170.403691604
 11
74.2409345871
 21
170.2056180569
  0
LINE
  5
394
100
AcDbEntity
  8
0
100
AcDbLine
 62
7
  6
CONTINUOUS
 10
78.6349567318
 20
172.2433227381
 11
79.4515949238
 21
171.5810477336
  0
LINE
  5
395
100
AcDbEntity
  8
0
100
AcDbLine
 62
7
  6
CONTINUOUS
 10
76.541902207
 20
173.9667972064
 11
78.3793373387
 21
172.4766777265
  0
LINE
  5
396
100
AcDbEntity
  8
0
100
AcDbLine
 62
7
  6
CONTINUOUS
 10
108.4645400616
 20
169.3895383419
 11
108.4593963054
 21
169.6427224466
  0
LINE
  5
397
100
AcDbEntity
  8
0
100
AcDbLine
 62
7
  6
CONTINUOUS
 10
114.7384012412
 20
162.4375015253
 11
114.6663279143
 21
162.1437714834
  0
LINE
  5
398
100
AcDbEntity
  8
0
100
AcDbLine
 62
7
  6
CONTINUOUS
 10
115.2409472559
 20
161.0907081551
 11
115.3130200827
 21
161.3844395372
  0
LINE
  5
399
100
AcDbEntity
  8
0
100
AcDbLine
 62
7
  6
CONTINUOUS
 10
118.0040262634
 20
152.0590192591
 11
117.9124638479
 21
151.8745858869
  0
LINE
  5
39A
100
AcDbEntity
  8
0
100
AcDbLine
 62
7
  6
CONTINUOUS
 10
100.5747964474
 20
127.3406877733
 11
100.4414628598
 21
127.2555814005
  0
LINE
  5
39B
100
AcDbEntity
  8
0
100
AcDbLine
 62
7
  6
CONTINUOUS
 10
100.5747964474
 20
126.915155857
 11
100.8414628598
 21
127.085368625
  0
LINE
  5
39C
100
AcDbEntity
  8
0
100
AcDbLine
 62
7
  6
CONTINUOUS
 10
100.4414628598
 20
127.2555814005
 11
100.1747964474
 21
127.1704749979
  0
LINE
  5
39D
100
AcDbEntity
  8
0
100
AcDbLine
 62
7
  6
CONTINUOUS
 10
115.9267805968
 20
163.1477744569
 11
115.5859859374
 21
163.0873193091
  0
LINE
  5
39E
100
AcDbEntity
  8
0
100
AcDbLine
 62
7
  6
CONTINUOUS
 10
70.3561249048
 20
157.684647978
 11
68.3383888945
 21
157.4076178882
  0
LINE
  5
39F
100
AcDbEntity
  8
0
100
AcDbLine
 62
7
  6
CONTINUOUS
 10
68.4532715885
 20
157.0121442324
 11
70.2936108811
 21
157.2516371801
  0
LINE
  5
3A0
100
AcDbEntity
  8
0
100
AcDbLine
 62
7
  6
CONTINUOUS
 10
115.6373485532
 20
162.7062287464
 11
115.8984072713
 21
162.7369310157
  0
LINE
  5
3A1
100
AcDbEntity
  8
0
100
AcDbLine
 62
7
  6
CONTINUOUS
 10
66.9995900934
 20
157.6640489794
 11
67.261219869
 21
157.689425255
  0
LINE
  5
3A2
100
AcDbEntity
  8
0
100
AcDbLine
 62
7
  6
CONTINUOUS
 10
67.3148033033
 20
158.0605772664
 11
67.0531735277
 21
158.0352009908
  0
LINE
  5
3A3
100
AcDbEntity
  8
0
100
AcDbLine
 62
7
  6
CONTINUOUS
 10
69.5774598166
 20
158.4856446058
 11
69.9388870956
 21
158.5153917497
  0
LINE
  5
3A4
100
AcDbEntity
  8
0
100
AcDbLine
 62
7
  6
CONTINUOUS
 10
113.9728317915
 20
160.3506822824
 11
114.3354760073
 21
160.3525820916
  0
LINE
  5
3A5
100
AcDbEntity
  8
0
100
AcDbLine
 62
7
  6
CONTINUOUS
 10
114.2678564976
 20
156.3626381097
 11
115.3085906931
 21
156.2130438168
  0
LINE
  5
3A6
100
AcDbEntity
  8
0
100
AcDbLine
 62
7
  6
CONTINUOUS
 10
115.6534778542
 20
156.1839149296
 11
117.995129779
 21
155.8473288472
  0
LINE
  5
3A7
100
AcDbEntity
  8
0
100
AcDbLine
 62
7
  6
CONTINUOUS
 10
118.3096557784
 20
156.1292196665
 11
114.2314228813
 21
156.7358640353
  0
LINE
  5
3A8
100
AcDbEntity
  8
0
100
AcDbLine
 62
7
  6
CONTINUOUS
 10
69.2767558151
 20
163.8799647157
 11
69.6147220007
 21
163.8053015205
  0
LINE
  5
3A9
100
AcDbEntity
  8
0
100
AcDbLine
 62
7
  6
CONTINUOUS
 10
69.7604076781
 20
164.1508455602
 11
69.3440199398
 21
164.2585722602
  0
LINE
  5
3AA
100
AcDbEntity
  8
0
100
AcDbLine
 62
7
  6
CONTINUOUS
 10
116.8744495589
 20
151.4103316653
 11
117.1274457464
 21
151.3390078197
  0
LINE
  5
3AB
100
AcDbEntity
  8
0
100
AcDbLine
 62
7
  6
CONTINUOUS
 10
117.2255154746
 20
151.7108282375
 11
116.9725192871
 21
151.7821520831
  0
LINE
  5
3AC
100
AcDbEntity
  8
0
100
AcDbLine
 62
7
  6
CONTINUOUS
 10
75.2447848993
 20
168.9241351768
 11
75.6773395795
 21
168.7534596304
  0
LINE
  5
3AD
100
AcDbEntity
  8
0
100
AcDbLine
 62
7
  6
CONTINUOUS
 10
72.5218193476
 20
169.6624453268
 11
72.7613605894
 21
169.5542133754
  0
LINE
  5
3AE
100
AcDbEntity
  8
0
100
AcDbLine
 62
7
  6
CONTINUOUS
 10
72.9925946427
 20
169.8494350084
 11
72.7530534008
 21
169.9576669599
  0
LINE
  5
3AF
100
AcDbEntity
  8
0
100
AcDbLine
 62
7
  6
CONTINUOUS
 10
75.0951688825
 20
172.0082459036
 11
74.8711834018
 21
172.1458128558
  0
LINE
  5
3B0
100
AcDbEntity
  8
0
100
AcDbLine
 62
7
  6
CONTINUOUS
 10
79.7502791249
 20
171.8077915275
 11
76.5351870743
 21
174.389105933
  0
LINE
  5
3B1
100
AcDbEntity
  8
0
100
AcDbLine
 62
7
  6
CONTINUOUS
 10
112.9263187379
 20
161.6946279622
 11
112.9558320695
 21
161.3720928397
  0
LINE
  5
3B2
100
AcDbEntity
  8
0
100
AcDbLine
 62
7
  6
CONTINUOUS
 10
113.4342491134
 20
161.5506106317
 11
113.4265857754
 21
161.814589052
  0
LINE
  5
3B3
100
AcDbEntity
  8
0
100
AcDbLine
 62
7
  6
CONTINUOUS
 10
111.1922814144
 20
170.5925179008
 11
111.1974252139
 21
170.3393338371
  0
LINE
  5
3B4
100
AcDbEntity
  8
0
100
AcDbLine
 62
7
  6
CONTINUOUS
 10
114.4859390923
 20
153.744632753
 11
114.4729244669
 21
153.3698586617
  0
LINE
  5
3B5
100
AcDbEntity
  8
0
100
AcDbLine
 62
7
  6
CONTINUOUS
 10
114.4186968445
 20
151.8082994713
 11
114.4035131479
 21
151.3710639845
  0
LINE
  5
3B6
100
AcDbEntity
  8
0
100
AcDbLine
 62
7
  6
CONTINUOUS
 10
115.1524082403
 20
162.0583108344
 11
115.1665949031
 21
162.263732555
  0
LINE
  5
3B7
100
AcDbEntity
  8
B-ACHSEN
100
AcDbLine
 62
7
  6
CONTINUOUS
 10
110.4938443208
 20
128.2467161434
 11
109.7081300351
 21
121.8300494767
  0
LINE
  5
3B8
100
AcDbEntity
  8
0
100
AcDbLine
 62
7
  6
CONTINUOUS
 10
118.3355702907
 20
151.7973561239
 11
118.4314708981
 21
152.1067137167
  0
LINE
  5
3B9
100
AcDbEntity
  8
0
100
AcDbLine
 62
7
  6
CONTINUOUS
 10
69.8747775329
 20
158.92219313
 11
69.5953782009
 21
158.8697629367
  0
LINE
  5
3BA
100
AcDbEntity
  8
0
100
AcDbLine
 62
7
  6
CONTINUOUS
 10
111.8333426266
 20
167.6483708671
 11
109.5544449996
 21
167.3204160499
  0
LINE
  5
3BB
100
AcDbEntity
  8
0
100
AcDbLine
 62
7
  6
CONTINUOUS
 10
109.7731231508
 20
167.0157771387
 11
111.5969921987
 21
167.2479060214
  0
LINE
  5
3BC
100
AcDbEntity
  8
0
100
AcDbLine
 62
7
  6
CONTINUOUS
 10
112.0520207777
 20
167.3437319559
 11
114.261780921
 21
167.622057114
  0
LINE
  5
3BD
100
AcDbEntity
  8
0
100
AcDbLine
 62
7
  6
CONTINUOUS
 10
69.3440199398
 20
164.2585722602
 11
68.9817726227
 21
164.2756443428
  0
LINE
  5
3BE
100
AcDbEntity
  8
0
100
AcDbLine
 62
7
  6
CONTINUOUS
 10
114.2841131681
 20
160.733672571
 11
114.0012051729
 21
160.7615257445
  0
LINE
  5
3BF
100
AcDbEntity
  8
0
100
AcDbLine
 62
7
  6
CONTINUOUS
 10
75.9502993267
 20
170.6993638685
 11
76.2187197661
 21
170.6057496642
  0
LINE
  5
3C0
100
AcDbEntity
  8
0
100
AcDbLine
 62
7
  6
CONTINUOUS
 10
76.4254767799
 20
170.9299712427
 11
76.0972061385
 21
171.084092042
  0
LINE
  5
3C1
100
AcDbEntity
  8
0
100
AcDbLine
 62
7
  6
CONTINUOUS
 10
74.6644263881
 20
171.8215912773
 11
74.8285616668
 21
171.74453092
  0
LINE
  5
3C2
100
AcDbEntity
  8
0
100
AcDbLine
 62
7
  6
CONTINUOUS
 10
116.5407364604
 20
151.609533405
 11
116.8744495589
 21
151.4103316653
  0
LINE
  5
3C3
100
AcDbEntity
  8
0
100
AcDbLine
 62
7
  6
CONTINUOUS
 10
108.0024803887
 20
169.3827141473
 11
108.0505649204
 21
169.0841168871
  0
LINE
  5
3C4
100
AcDbEntity
  8
0
100
AcDbLine
 62
7
  6
CONTINUOUS
 10
114.2314228813
 20
156.7358640353
 11
114.2678564976
 21
156.3626381097
  0
LINE
  5
3C5
100
AcDbEntity
  8
0
100
AcDbLine
 62
7
  6
CONTINUOUS
 10
114.4378800868
 20
154.6209166486
 11
114.4743137031
 21
154.2476907229
  0
LINE
  5
3C6
100
AcDbEntity
  8
0
100
AcDbLine
 62
7
  6
CONTINUOUS
 10
115.3085906931
 20
156.2130438168
 11
115.4300360346
 21
154.9689578724
  0
LINE
  5
3C7
100
AcDbEntity
  8
0
100
AcDbLine
 62
7
  6
CONTINUOUS
 10
115.7627787032
 20
155.0642371526
 11
115.6534778542
 21
156.1839149296
  0
LINE
  5
3C8
100
AcDbEntity
  8
0
100
AcDbLine
 62
7
  6
CONTINUOUS
 10
115.3130200827
 20
161.3844395372
 11
115.2835072442
 21
161.7069733169
  0
LINE
  5
3C9
100
AcDbEntity
  8
0
100
AcDbLine
 62
7
  6
CONTINUOUS
 10
114.6663279143
 20
162.1437714834
 11
114.6739912523
 21
161.8797930632
  0
LINE
  5
3CA
100
AcDbEntity
  8
0
100
AcDbLine
 62
7
  6
CONTINUOUS
 10
114.8050902561
 20
161.5284555457
 11
114.812753594
 21
161.2644771254
  0
LINE
  5
3CB
100
AcDbEntity
  8
0
100
AcDbLine
 62
7
  6
CONTINUOUS
 10
116.2590818637
 20
153.3078315099
 11
116.2222071082
 21
152.2459720611
  0
LINE
  5
3CC
100
AcDbEntity
  8
0
100
AcDbLine
 62
7
  6
CONTINUOUS
 10
116.7281994833
 20
152.1033243698
 11
116.7694124804
 21
153.2901094689
  0
LINE
  5
3CD
100
AcDbEntity
  8
0
100
AcDbLine
 62
7
  6
CONTINUOUS
 10
118.0452392604
 20
153.2458043581
 11
118.0040262634
 21
152.0590192591
  0
LINE
  5
3CE
100
AcDbEntity
  8
0
100
AcDbLine
 62
7
  6
CONTINUOUS
 10
118.4314708981
 20
152.1067137167
 11
118.4835293997
 21
153.6058100819
  0
LINE
  5
3CF
100
AcDbEntity
  8
0
100
AcDbLine
 62
7
  6
CONTINUOUS
 10
116.399813773
 20
162.1235148663
 11
116.3856271102
 21
161.9180931457
  0
LINE
  5
3D0
100
AcDbEntity
  8
0
100
AcDbLine
 62
7
  6
CONTINUOUS
 10
114.0431027699
 20
167.9266960252
 11
112.2192333049
 21
167.6945677236
  0
LINE
  5
3D1
100
AcDbEntity
  8
0
100
AcDbLine
 62
7
  6
CONTINUOUS
 10
109.1189376373
 20
168.2019737759
 11
109.5380568074
 21
168.2542108918
  0
LINE
  5
3D2
100
AcDbEntity
  8
0
100
AcDbLine
 62
7
  6
CONTINUOUS
 10
68.9929296113
 20
163.8639734786
 11
69.2767558151
 21
163.8799647157
  0
LINE
  5
3D3
100
AcDbEntity
  8
0
100
AcDbLine
 62
7
  6
CONTINUOUS
 10
75.7643961685
 20
169.19869442
 11
75.451541913
 21
169.2483567553
  0
LINE
  5
3D4
100
AcDbEntity
  8
0
100
AcDbLine
 62
7
  6
CONTINUOUS
 10
74.2409345871
 20
170.2056180569
 11
74.6580728605
 21
170.1394009956
  0
LINE
  5
3D5
100
AcDbEntity
  8
0
100
AcDbLine
 62
7
  6
CONTINUOUS
 10
76.0972061385
 20
171.084092042
 11
75.6800678652
 21
171.1503091033
  0
LINE
  5
3D6
100
AcDbEntity
  8
0
100
AcDbLine
 62
7
  6
CONTINUOUS
 10
72.7530534008
 20
169.9576669599
 11
72.3694337889
 21
170.0199707199
  0
LINE
  5
3D7
100
AcDbEntity
  8
0
100
AcDbLine
 62
7
  6
CONTINUOUS
 10
113.5664876023
 20
160.4658958829
 11
113.9728317915
 21
160.3506822824
  0
LINE
  5
3D8
100
AcDbEntity
  8
0
100
AcDbLine
 62
7
  6
CONTINUOUS
 10
74.8711834018
 20
172.1458128558
 11
74.4984789864
 21
172.2559817437
  0
LINE
  5
3D9
100
AcDbEntity
  8
0
100
AcDbLine
 62
7
  6
CONTINUOUS
 10
116.9725192871
 20
151.7821520831
 11
116.8067472734
 21
151.9129836507
  0
LINE
  5
3DA
100
AcDbEntity
  8
0
100
AcDbLine
 62
7
  6
CONTINUOUS
 10
116.3793026883
 20
151.8652906227
 11
116.5407364604
 21
151.609533405
  0
LINE
  5
3DB
100
AcDbEntity
  8
0
100
AcDbLine
 62
7
  6
CONTINUOUS
 10
108.5744637096
 20
169.1494134871
 11
108.4645400616
 21
169.3895383419
  0
LINE
  5
3DC
100
AcDbEntity
  8
0
100
AcDbLine
 62
7
  6
CONTINUOUS
 10
112.9558320695
 20
161.3720928397
 11
113.1306305746
 21
160.9036432632
  0
LINE
  5
3DD
100
AcDbEntity
  8
0
100
AcDbLine
 62
7
  6
CONTINUOUS
 10
113.8329655524
 20
158.5706739718
 11
113.9182133088
 21
158.2054920719
  0
LINE
  5
3DE
100
AcDbEntity
  8
0
100
AcDbLine
 62
7
  6
CONTINUOUS
 10
111.6543410656
 20
170.5993420749
 11
111.6062567634
 21
170.8979390599
  0
LINE
  5
3DF
100
AcDbEntity
  8
0
100
AcDbLine
 62
7
  6
CONTINUOUS
 10
118.3582338872
 20
155.6315855735
 11
118.3096557784
 21
156.1292196665
  0
LINE
  5
3E0
100
AcDbEntity
  8
0
100
AcDbLine
 62
7
  6
CONTINUOUS
 10
116.885894099
 20
162.0380542173
 11
116.8563807604
 21
162.3605893372
  0
LINE
  5
3E1
100
AcDbEntity
  8
0
100
AcDbLine
 62
7
  6
CONTINUOUS
 10
68.9817726227
 20
164.2756443428
 11
68.5709635984
 21
164.1775355181
  0
LINE
  5
3E2
100
AcDbEntity
  8
0
100
AcDbLine
 62
7
  6
CONTINUOUS
 10
110.537883817
 20
171.7800824463
 11
110.1187646686
 21
171.7278453509
  0
LINE
  5
3E3
100
AcDbEntity
  8
0
100
AcDbLine
 62
7
  6
CONTINUOUS
 10
72.3694337889
 20
170.0199707199
 11
72.0142755204
 21
169.9805918548
  0
LINE
  5
3E4
100
AcDbEntity
  8
0
100
AcDbLine
 62
7
  6
CONTINUOUS
 10
75.6773395795
 20
168.7534596304
 11
76.0790625416
 21
168.7917019808
  0
LINE
  5
3E5
100
AcDbEntity
  8
0
100
AcDbLine
 62
7
  6
CONTINUOUS
 10
74.6408454106
 20
170.6011905322
 11
74.387841399
 21
170.5903462303
  0
LINE
  5
3E6
100
AcDbEntity
  8
0
100
AcDbLine
 62
7
  6
CONTINUOUS
 10
75.6972953151
 20
170.6885195666
 11
75.9502993267
 21
170.6993638685
  0
LINE
  5
3E7
100
AcDbEntity
  8
0
100
AcDbLine
 62
7
  6
CONTINUOUS
 10
74.4984789864
 20
172.2559817437
 11
74.1411898979
 21
172.2616912041
  0
LINE
  5
3E8
100
AcDbEntity
  8
0
100
AcDbLine
 62
7
  6
CONTINUOUS
 10
72.3107403312
 20
169.6689957795
 11
72.5218193476
 21
169.6624453268
  0
LINE
  5
3E9
100
AcDbEntity
  8
0
100
AcDbLine
 62
7
  6
CONTINUOUS
 10
109.4040910515
 20
168.6436342801
 11
109.1515908084
 21
168.6629287427
  0
LINE
  5
3EA
100
AcDbEntity
  8
0
100
AcDbLine
 62
7
  6
CONTINUOUS
 10
74.4558572514
 20
171.8546998079
 11
74.6644263881
 21
171.8215912773
  0
LINE
  5
3EB
100
AcDbEntity
  8
0
100
AcDbLine
 62
7
  6
CONTINUOUS
 10
108.8234969184
 20
168.2666811854
 11
109.1189376373
 21
168.2019737759
  0
LINE
  5
3EC
100
AcDbEntity
  8
0
100
AcDbLine
 62
7
  6
CONTINUOUS
 10
116.3331247581
 20
163.032560846
 11
115.9267805968
 21
163.1477744569
  0
LINE
  5
3ED
100
AcDbEntity
  8
0
100
AcDbLine
 62
7
  6
CONTINUOUS
 10
114.0012051729
 20
160.7615257445
 11
113.7761832857
 21
160.8776885586
  0
LINE
  5
3EE
100
AcDbEntity
  8
0
100
AcDbLine
 62
7
  6
CONTINUOUS
 10
115.8984072713
 20
162.7369310157
 11
116.1234291025
 21
162.6207681807
  0
LINE
  5
3EF
100
AcDbEntity
  8
0
100
AcDbLine
 62
7
  6
CONTINUOUS
 10
113.3196157494
 20
160.6406154098
 11
113.5664876023
 21
160.4658958829
  0
LINE
  5
3F0
100
AcDbEntity
  8
0
100
AcDbLine
 62
7
  6
CONTINUOUS
 10
108.2034290658
 20
168.7985791059
 11
108.5469543163
 21
168.4352744362
  0
LINE
  5
3F1
100
AcDbEntity
  8
0
100
AcDbLine
 62
7
  6
CONTINUOUS
 10
113.7761832857
 20
160.8776885586
 11
113.6090476185
 21
161.0821610552
  0
LINE
  5
3F2
100
AcDbEntity
  8
0
100
AcDbLine
 62
7
  6
CONTINUOUS
 10
113.1306305746
 20
160.9036432632
 11
113.3196157494
 21
160.6406154098
  0
LINE
  5
3F3
100
AcDbEntity
  8
0
100
AcDbLine
 62
7
  6
CONTINUOUS
 10
109.5544449996
 20
167.3204160499
 11
109.7731231508
 21
167.0157771387
  0
LINE
  5
3F4
100
AcDbEntity
  8
0
100
AcDbLine
 62
7
  6
CONTINUOUS
 10
110.7936210503
 20
165.59412908
 11
111.0122992014
 21
165.2894901688
  0
LINE
  5
3F5
100
AcDbEntity
  8
0
100
AcDbLine
 62
7
  6
CONTINUOUS
 10
108.0505649204
 20
169.0841168871
 11
108.2034290658
 21
168.7985791059
  0
LINE
  5
3F6
100
AcDbEntity
  8
0
100
AcDbLine
 62
7
  6
CONTINUOUS
 10
111.0823577663
 20
170.8326427556
 11
111.1922814144
 21
170.5925179008
  0
LINE
  5
3F7
100
AcDbEntity
  8
0
100
AcDbLine
 62
7
  6
CONTINUOUS
 10
116.8067472734
 20
151.9129836507
 11
116.7281994833
 21
152.1033243698
  0
LINE
  5
3F8
100
AcDbEntity
  8
0
100
AcDbLine
 62
7
  6
CONTINUOUS
 10
113.6090476185
 20
161.0821610552
 11
113.4342491134
 21
161.5506106317
  0
LINE
  5
3F9
100
AcDbEntity
  8
0
100
AcDbLine
 62
7
  6
CONTINUOUS
 10
113.8176033167
 20
162.2273323024
 11
113.6865043129
 21
162.5786698199
  0
LINE
  5
3FA
100
AcDbEntity
  8
0
100
AcDbLine
 62
7
  6
CONTINUOUS
 10
114.6739912523
 20
161.8797930632
 11
114.8050902561
 21
161.5284555457
  0
LINE
  5
3FB
100
AcDbEntity
  8
0
100
AcDbLine
 62
7
  6
CONTINUOUS
 10
115.2835072442
 20
161.7069733169
 11
115.1524082403
 21
162.0583108344
  0
LINE
  5
3FC
100
AcDbEntity
  8
0
100
AcDbLine
 62
7
  6
CONTINUOUS
 10
116.1322319535
 20
161.6234125395
 11
116.2633309573
 21
161.272075022
  0
LINE
  5
3FD
100
AcDbEntity
  8
0
100
AcDbLine
 62
7
  6
CONTINUOUS
 10
116.2687147691
 20
162.4748523838
 11
116.399813773
 21
162.1235148663
  0
LINE
  5
3FE
100
AcDbEntity
  8
0
100
AcDbLine
 62
7
  6
CONTINUOUS
 10
117.0865209338
 20
160.3570672062
 11
117.3138483926
 21
159.383248342
  0
LINE
  5
3FF
100
AcDbEntity
  8
0
100
AcDbLine
 62
7
  6
CONTINUOUS
 10
117.3990961489
 20
159.0180664421
 11
117.6264236077
 21
158.044247578
  0
LINE
  5
400
100
AcDbEntity
  8
0
100
AcDbLine
 62
7
  6
CONTINUOUS
 10
118.0408143667
 20
158.1409826091
 11
117.5009116929
 21
160.4538022374
  0
LINE
  5
401
100
AcDbEntity
  8
0
100
AcDbLine
 62
7
  6
CONTINUOUS
 10
74.6580728605
 20
170.1394009956
 11
74.9555117471
 21
170.1941981301
  0
LINE
  5
402
100
AcDbEntity
  8
0
100
AcDbLine
 62
7
  6
CONTINUOUS
 10
75.6800678652
 20
171.1503091033
 11
75.3826289786
 21
171.0955119687
  0
LINE
  5
403
100
AcDbEntity
  8
RUNDUNGEN
100
AcDbLine
 62
7
  6
CONTINUOUS
 10
82.2081300351
 20
174.3300494767
 11
102.2081300351
 21
174.3300494767
  0
LINE
  5
404
100
AcDbEntity
  8
0
100
AcDbLine
 62
7
  6
CONTINUOUS
 10
110.2527304677
 20
171.3384220035
 11
110.5052306676
 21
171.3191275
  0
LINE
  5
405
100
AcDbEntity
  8
0
100
AcDbLine
 62
7
  6
CONTINUOUS
 10
110.8333247653
 20
171.7153747616
 11
110.537883817
 21
171.7800824463
  0
LINE
  5
406
100
AcDbEntity
  8
0
100
AcDbLine
 62
7
  6
CONTINUOUS
 10
109.1515908084
 20
168.6629287427
 11
108.9179889602
 21
168.7861088174
  0
LINE
  5
407
100
AcDbEntity
  8
0
100
AcDbLine
 62
7
  6
CONTINUOUS
 10
108.5469543163
 20
168.4352744362
 11
108.8234969184
 21
168.2666811854
  0
LINE
  5
408
100
AcDbEntity
  8
0
100
AcDbLine
 62
7
  6
CONTINUOUS
 10
104.4585686917
 20
171.9048821535
 11
104.7698656636
 21
171.6957907971
  0
LINE
  5
409
100
AcDbEntity
  8
0
100
AcDbLine
 62
7
  6
CONTINUOUS
 10
116.5799960899
 20
162.8578426516
 11
116.3331247581
 21
163.032560846
  0
LINE
  5
40A
100
AcDbEntity
  8
0
100
AcDbLine
 62
7
  6
CONTINUOUS
 10
105.2004366306
 20
171.4359868831
 11
105.4923697219
 21
171.200614688
  0
LINE
  5
40B
100
AcDbEntity
  8
0
100
AcDbLine
 62
7
  6
CONTINUOUS
 10
106.7087576252
 20
170.2198971896
 11
107.1466572621
 21
169.8668388969
  0
LINE
  5
40C
100
AcDbEntity
  8
0
100
AcDbLine
 62
7
  6
CONTINUOUS
 10
116.1234291025
 20
162.6207681807
 11
116.2687147691
 21
162.4748523838
  0
LINE
  5
40D
100
AcDbEntity
  8
0
100
AcDbLine
 62
7
  6
CONTINUOUS
 10
108.9179889602
 20
168.7861088174
 11
108.5744637096
 21
169.1494134871
  0
LINE
  5
40E
100
AcDbEntity
  8
0
100
AcDbLine
 62
7
  6
CONTINUOUS
 10
110.7388325158
 20
171.1959474253
 11
111.0823577663
 21
170.8326427556
  0
LINE
  5
40F
100
AcDbEntity
  8
0
100
AcDbLine
 62
7
  6
CONTINUOUS
 10
116.7471317572
 20
162.653370155
 11
116.5799960899
 21
162.8578426516
  0
LINE
  5
410
100
AcDbEntity
  8
0
100
AcDbLine
 62
7
  6
CONTINUOUS
 10
114.261780921
 20
167.622057114
 11
114.0431027699
 21
167.9266960252
  0
LINE
  5
411
100
AcDbEntity
  8
0
100
AcDbLine
 62
7
  6
CONTINUOUS
 10
113.0226048704
 20
169.3483440839
 11
112.8039267193
 21
169.6529829951
  0
LINE
  5
412
100
AcDbEntity
  8
0
100
AcDbLine
 62
7
  6
CONTINUOUS
 10
111.6062567634
 20
170.8979390599
 11
111.4533923669
 21
171.1834770958
  0
LINE
  5
413
100
AcDbEntity
  8
0
100
AcDbLine
 62
7
  6
CONTINUOUS
 10
116.8563807604
 20
162.3605893372
 11
116.7471317572
 21
162.653370155
  0
LINE
  5
414
100
AcDbEntity
  8
B-ACHSEN
100
AcDbLine
 62
7
  6
CONTINUOUS
 10
100.2081300351
 20
98.4967161434
 11
99.5414633684
 21
97.8300494767
  0
LINE
  5
415
100
AcDbEntity
  8
0
100
AcDbLine
 62
7
  6
CONTINUOUS
 10
110.5052306676
 20
171.3191275
 11
110.7388325158
 21
171.1959474253
  0
LINE
  5
416
100
AcDbEntity
  8
0
100
AcDbLine
 62
7
  6
CONTINUOUS
 10
111.1098671163
 20
171.5467817655
 11
110.8333247653
 21
171.7153747616
  0
LINE
  5
417
100
AcDbEntity
  8
0
100
AcDbLine
 62
7
  6
CONTINUOUS
 10
107.0001734645
 20
175.0162918306
 11
106.6888764927
 21
175.2253831869
  0
LINE
  5
418
100
AcDbEntity
  8
0
100
AcDbLine
 62
7
  6
CONTINUOUS
 10
109.6572940102
 20
172.98079187
 11
109.3653609189
 21
173.2161640652
  0
LINE
  5
419
100
AcDbEntity
  8
0
100
AcDbLine
 62
7
  6
CONTINUOUS
 10
108.1489730156
 20
174.1968815636
 11
107.7110733787
 21
174.5499398563
  0
LINE
  5
41A
100
AcDbEntity
  8
0
100
AcDbLine
 62
7
  6
CONTINUOUS
 10
111.4533923669
 20
171.1834770958
 11
111.1098671163
 21
171.5467817655
  0
LINE
  5
41B
100
AcDbEntity
  8
RUNDUNGEN
100
AcDbLine
 62
7
  6
CONTINUOUS
 10
102.2081300351
 20
180.8300494767
 11
82.2081300351
 21
180.8300494767
  0
LINE
  5
41C
100
AcDbEntity
  8
B-ACHSEN
100
AcDbLine
 62
7
  6
CONTINUOUS
 10
171.0995191571
 20
97.8300494767
 11
185.7661858238
 21
97.8300494767
  0
LINE
  5
41D
100
AcDbEntity
  8
B-ACHSEN
100
AcDbLine
 62
7
  6
CONTINUOUS
 10
170.4328524904
 20
98.4967161434
 11
186.4328524904
 21
98.4967161434
  0
LINE
  5
41E
100
AcDbEntity
  8
B-ACHSEN
100
AcDbLine
 62
7
  6
CONTINUOUS
 10
170.4328524904
 20
98.4967161434
 11
171.0995191571
 21
97.8300494767
  0
LINE
  5
41F
100
AcDbEntity
  8
B-ACHSEN
100
AcDbLine
 62
7
  6
CONTINUOUS
 10
170.4328524904
 20
115.1633828101
 11
186.4328524904
 21
115.1633828101
  0
LINE
  5
420
100
AcDbEntity
  8
B-ACHSEN
100
AcDbLine
 62
7
  6
CONTINUOUS
 10
160.9328524904
 20
121.8300494767
 11
195.9328524904
 21
121.8300494767
  0
LINE
  5
421
100
AcDbEntity
  8
B-ACHSEN
100
AcDbLine
 62
7
  6
CONTINUOUS
 10
159.3534243487
 20
134.728712634
 11
160.9328524904
 21
121.8300494767
  0
LINE
  5
422
100
AcDbEntity
  8
0
100
AcDbLine
 62
7
  6
CONTINUOUS
 10
194.4882826552
 20
126.3300494767
 11
195.2915721747
 21
126.3300494767
  0
LINE
  5
423
100
AcDbEntity
  8
0
100
AcDbLine
 62
7
  6
CONTINUOUS
 10
195.7035455216
 20
126.3300494767
 11
196.8506816077
 21
126.3300494767
  0
LINE
  5
424
100
AcDbEntity
  8
0
100
AcDbLine
 62
7
  6
CONTINUOUS
 10
196.916296554
 20
126.8300494767
 11
197.0330382443
 21
126.8300494767
  0
LINE
  5
425
100
AcDbEntity
  8
0
100
AcDbLine
 62
7
  6
CONTINUOUS
 10
196.916296554
 20
126.8619643814
 11
196.4798261577
 21
126.8619643814
  0
LINE
  5
426
100
AcDbEntity
  8
0
100
AcDbLine
 62
7
  6
CONTINUOUS
 10
195.7716094793
 20
126.8619643814
 11
196.2972781585
 21
126.8619643814
  0
LINE
  5
427
100
AcDbEntity
  8
0
100
AcDbLine
 62
7
  6
CONTINUOUS
 10
195.5349885874
 20
128.1385600484
 11
196.2524746904
 21
128.1385600484
  0
LINE
  5
428
100
AcDbEntity
  8
0
100
AcDbLine
 62
7
  6
CONTINUOUS
 10
193.5411364209
 20
128.2467161434
 11
185.6571422448
 21
128.2467161434
  0
LINE
  5
429
100
AcDbEntity
  8
0
100
AcDbLine
 62
7
  6
CONTINUOUS
 10
163.3245685564
 20
128.2467161434
 11
171.2085627361
 21
128.2467161434
  0
LINE
  5
42A
100
AcDbEntity
  8
0
100
AcDbLine
 62
7
  6
CONTINUOUS
 10
197.2641074809
 20
128.6172835446
 11
197.2676768647
 21
128.6172835446
  0
LINE
  5
42B
100
AcDbEntity
  8
0
100
AcDbLine
 62
7
  6
CONTINUOUS
 10
195.606471755
 20
128.6704750277
 11
196.321090468
 21
128.6704750277
  0
LINE
  5
42C
100
AcDbEntity
  8
0
100
AcDbLine
 62
7
  6
CONTINUOUS
 10
197.330203989
 20
129.1279217816
 11
197.3266464245
 21
129.1279217816
  0
LINE
  5
42D
100
AcDbEntity
  8
0
100
AcDbLine
 62
7
  6
CONTINUOUS
 10
196.642564116
 20
129.521538756
 11
197.1525453978
 21
129.521538756
  0
LINE
  5
42E
100
AcDbEntity
  8
0
100
AcDbLine
 62
7
  6
CONTINUOUS
 10
194.6962976332
 20
129.7343046881
 11
195.2661290739
 21
129.7343046881
  0
LINE
  5
42F
100
AcDbEntity
  8
0
100
AcDbLine
 62
7
  6
CONTINUOUS
 10
196.7211715039
 20
129.9470706202
 11
197.2304164954
 21
129.9470706202
  0
LINE
  5
430
100
AcDbEntity
  8
0
100
AcDbLine
 62
7
  6
CONTINUOUS
 10
196.2175366418
 20
130.1598368503
 11
197.2567464397
 21
130.1598368503
  0
LINE
  5
431
100
AcDbEntity
  8
0
100
AcDbLine
 62
7
  6
CONTINUOUS
 10
197.4829934734
 20
130.4045176126
 11
197.4865218461
 21
130.4045176126
  0
LINE
  5
432
100
AcDbEntity
  8
0
100
AcDbLine
 62
7
  6
CONTINUOUS
 10
196.9364450363
 20
130.4789857484
 11
197.2711894523
 21
130.4789857484
  0
LINE
  5
433
100
AcDbEntity
  8
0
100
AcDbLine
 62
7
  6
CONTINUOUS
 10
194.8145389744
 20
130.5853687144
 11
195.3834924477
 21
130.5853687144
  0
LINE
  5
434
100
AcDbEntity
  8
0
100
AcDbLine
 62
7
  6
CONTINUOUS
 10
196.2957155053
 20
130.5853687144
 11
196.8188911609
 21
130.5853687144
  0
LINE
  5
435
100
AcDbEntity
  8
0
100
AcDbLine
 62
7
  6
CONTINUOUS
 10
197.0233357316
 20
130.6917516805
 11
197.2572002752
 21
130.6917516805
  0
LINE
  5
436
100
AcDbEntity
  8
0
100
AcDbLine
 62
7
  6
CONTINUOUS
 10
197.1288697261
 20
130.7981346465
 11
197.1956096996
 21
130.7981346465
  0
LINE
  5
437
100
AcDbEntity
  8
0
100
AcDbLine
 62
7
  6
CONTINUOUS
 10
197.371022401
 20
130.8300494767
 11
197.5232393792
 21
130.8300494767
  0
LINE
  5
438
100
AcDbEntity
  8
0
100
AcDbLine
 62
7
  6
CONTINUOUS
 10
196.4411227723
 20
131.0109005786
 11
196.9616095067
 21
131.0109005786
  0
LINE
  5
439
100
AcDbEntity
  8
0
100
AcDbLine
 62
7
  6
CONTINUOUS
 10
196.5525783443
 20
131.2236665107
 11
197.0706568301
 21
131.2236665107
  0
LINE
  5
43A
100
AcDbEntity
  8
0
100
AcDbLine
 62
7
  6
CONTINUOUS
 10
195.1736700298
 20
131.3300494767
 11
195.9631514397
 21
131.3300494767
  0
LINE
  5
43B
100
AcDbEntity
  8
0
100
AcDbLine
 62
7
  6
CONTINUOUS
 10
196.6982029175
 20
131.3300494767
 11
197.2775833521
 21
131.3300494767
  0
LINE
  5
43C
100
AcDbEntity
  8
B-ACHSEN
100
AcDbLine
 62
7
  6
CONTINUOUS
 10
170.4328524904
 20
115.1633828101
 11
170.4328524904
 21
98.4967161434
  0
LINE
  5
43D
100
AcDbEntity
  8
0
100
AcDbLine
 62
7
  6
CONTINUOUS
 10
172.5995191571
 20
150.4133828101
 11
172.5995191571
 21
186.8300494767
  0
LINE
  5
43E
100
AcDbEntity
  8
B-ACHSEN
100
AcDbLine
 62
7
  6
CONTINUOUS
 10
171.8334317252
 20
119.820799837
 11
170.4328524904
 21
115.1633828101
  0
LINE
  5
43F
100
AcDbEntity
  8
B-ACHSEN
100
AcDbLine
 62
7
  6
CONTINUOUS
 10
185.0322732556
 20
119.820799837
 11
186.4328524904
 21
115.1633828101
  0
LINE
  5
440
100
AcDbEntity
  8
0
100
AcDbLine
 62
7
  6
CONTINUOUS
 10
184.2661858238
 20
150.413383052
 11
184.2661858238
 21
186.8300494767
  0
LINE
  5
441
100
AcDbEntity
  8
0
100
AcDbLine
 62
7
  6
CONTINUOUS
 10
184.4328524904
 20
174.389105933
 11
184.4328524904
 21
165.2894901688
  0
LINE
  5
442
100
AcDbEntity
  8
0
100
AcDbLine
 62
7
  6
CONTINUOUS
 10
184.4328524904
 20
164.2756443428
 11
184.4328524904
 21
154.2476907229
  0
LINE
  5
443
100
AcDbEntity
  8
0
100
AcDbLine
 62
7
  6
CONTINUOUS
 10
184.4328524904
 20
153.744632753
 11
184.4328524904
 21
151.3271931174
  0
LINE
  5
444
100
AcDbEntity
  8
0
100
AcDbLine
 62
7
  6
CONTINUOUS
 10
184.7828524904
 20
174.389105933
 11
184.7828524904
 21
165.2894901688
  0
LINE
  5
445
100
AcDbEntity
  8
0
100
AcDbLine
 62
7
  6
CONTINUOUS
 10
184.7828524904
 20
164.2756443428
 11
184.7828524904
 21
154.2476907229
  0
LINE
  5
446
100
AcDbEntity
  8
0
100
AcDbLine
 62
7
  6
CONTINUOUS
 10
184.7828524904
 20
153.744632753
 11
184.7828524904
 21
151.3271931174
  0
LINE
  5
447
100
AcDbEntity
  8
RUNDUNGEN
100
AcDbLine
 62
7
  6
CONTINUOUS
 10
185.2661858238
 20
180.8300494767
 11
185.2661858238
 21
174.3300494767
  0
LINE
  5
448
100
AcDbEntity
  8
B-ACHSEN
100
AcDbLine
 62
7
  6
CONTINUOUS
 10
186.4328524904
 20
115.1633828101
 11
186.4328524904
 21
98.4967161434
  0
LINE
  5
449
100
AcDbEntity
  8
0
100
AcDbLine
 62
7
  6
CONTINUOUS
 10
184.4328524904
 20
151.3271931174
 11
184.7828524904
 21
151.3271931174
  0
LINE
  5
44A
100
AcDbEntity
  8
0
100
AcDbLine
 62
7
  6
CONTINUOUS
 10
184.4328524904
 20
151.3390078197
 11
184.7828524904
 21
151.3390078197
  0
LINE
  5
44B
100
AcDbEntity
  8
0
100
AcDbLine
 62
7
  6
CONTINUOUS
 10
184.4328524904
 20
151.3710639845
 11
184.7828524904
 21
151.3710639845
  0
LINE
  5
44C
100
AcDbEntity
  8
0
100
AcDbLine
 62
7
  6
CONTINUOUS
 10
184.4328524904
 20
151.8082994713
 11
184.7828524904
 21
151.8082994713
  0
LINE
  5
44D
100
AcDbEntity
  8
0
100
AcDbLine
 62
7
  6
CONTINUOUS
 10
184.4328524904
 20
152.2459720611
 11
184.7828524904
 21
152.2459720611
  0
LINE
  5
44E
100
AcDbEntity
  8
0
100
AcDbLine
 62
7
  6
CONTINUOUS
 10
184.4328524904
 20
153.3078315099
 11
184.7828524904
 21
153.3078315099
  0
LINE
  5
44F
100
AcDbEntity
  8
0
100
AcDbLine
 62
7
  6
CONTINUOUS
 10
184.4328524904
 20
153.3698586617
 11
184.7828524904
 21
153.3698586617
  0
LINE
  5
450
100
AcDbEntity
  8
0
100
AcDbLine
 62
7
  6
CONTINUOUS
 10
184.4328524904
 20
153.744632753
 11
184.7828524904
 21
153.744632753
  0
LINE
  5
451
100
AcDbEntity
  8
0
100
AcDbLine
 62
7
  6
CONTINUOUS
 10
172.5995191571
 20
153.7601090264
 11
184.2661858238
 21
153.7601090264
  0
LINE
  5
452
100
AcDbEntity
  8
0
100
AcDbLine
 62
7
  6
CONTINUOUS
 10
184.4328524904
 20
154.2476907229
 11
184.7828524904
 21
154.2476907229
  0
LINE
  5
453
100
AcDbEntity
  8
0
100
AcDbLine
 62
7
  6
CONTINUOUS
 10
184.4328524904
 20
154.6209166486
 11
184.7828524904
 21
154.6209166486
  0
LINE
  5
454
100
AcDbEntity
  8
0
100
AcDbLine
 62
7
  6
CONTINUOUS
 10
184.4328524904
 20
154.9689578724
 11
184.7828524904
 21
154.9689578724
  0
LINE
  5
455
100
AcDbEntity
  8
0
100
AcDbLine
 62
7
  6
CONTINUOUS
 10
184.4328524904
 20
155.3340185135
 11
184.7828524904
 21
155.3340185135
  0
LINE
  5
456
100
AcDbEntity
  8
0
100
AcDbLine
 62
7
  6
CONTINUOUS
 10
184.4328524904
 20
155.9055751461
 11
184.7828524904
 21
155.9055751461
  0
LINE
  5
457
100
AcDbEntity
  8
0
100
AcDbLine
 62
7
  6
CONTINUOUS
 10
184.4328524904
 20
157.3901831917
 11
184.7828524904
 21
157.3901831917
  0
LINE
  5
458
100
AcDbEntity
  8
0
100
AcDbLine
 62
7
  6
CONTINUOUS
 10
184.4328524904
 20
157.6873158156
 11
184.7828524904
 21
157.6873158156
  0
LINE
  5
459
100
AcDbEntity
  8
0
100
AcDbLine
 62
7
  6
CONTINUOUS
 10
184.4328524904
 20
157.8982680969
 11
184.7828524904
 21
157.8982680969
  0
LINE
  5
45A
100
AcDbEntity
  8
0
100
AcDbLine
 62
7
  6
CONTINUOUS
 10
184.4328524904
 20
158.0352009908
 11
184.7828524904
 21
158.0352009908
  0
LINE
  5
45B
100
AcDbEntity
  8
0
100
AcDbLine
 62
7
  6
CONTINUOUS
 10
184.4328524904
 20
158.0605772664
 11
184.7828524904
 21
158.0605772664
  0
LINE
  5
45C
100
AcDbEntity
  8
0
100
AcDbLine
 62
7
  6
CONTINUOUS
 10
184.4328524904
 20
158.2054920719
 11
184.7828524904
 21
158.2054920719
  0
LINE
  5
45D
100
AcDbEntity
  8
0
100
AcDbLine
 62
7
  6
CONTINUOUS
 10
184.4328524904
 20
158.4856446058
 11
184.7828524904
 21
158.4856446058
  0
LINE
  5
45E
100
AcDbEntity
  8
0
100
AcDbLine
 62
7
  6
CONTINUOUS
 10
184.4328524904
 20
158.5388195235
 11
184.7828524904
 21
158.5388195235
  0
LINE
  5
45F
100
AcDbEntity
  8
B-ACHSEN
100
AcDbLine
 62
7
  6
CONTINUOUS
 10
197.5122806321
 20
134.728712634
 11
197.0961177965
 21
131.3300494767
  0
LINE
  5
460
100
AcDbEntity
  8
B-ACHSEN
100
AcDbLine
 62
7
  6
CONTINUOUS
 10
196.4838728986
 20
126.3300494767
 11
195.9328524904
 21
121.8300494767
  0
LINE
  5
461
100
AcDbEntity
  8
0
100
AcDbLine
 62
7
  6
CONTINUOUS
 10
184.4328524904
 20
159.2419883178
 11
184.7828524904
 21
159.2419883178
  0
LINE
  5
462
100
AcDbEntity
  8
0
100
AcDbLine
 62
7
  6
CONTINUOUS
 10
184.4328524904
 20
159.6034241321
 11
184.7828524904
 21
159.6034241321
  0
LINE
  5
463
100
AcDbEntity
  8
0
100
AcDbLine
 62
7
  6
CONTINUOUS
 10
184.4328524904
 20
159.7804164964
 11
184.7828524904
 21
159.7804164964
  0
LINE
  5
464
100
AcDbEntity
  8
0
100
AcDbLine
 62
7
  6
CONTINUOUS
 10
184.4328524904
 20
160.0065000558
 11
184.7828524904
 21
160.0065000558
  0
LINE
  5
465
100
AcDbEntity
  8
0
100
AcDbLine
 62
7
  6
CONTINUOUS
 10
184.4328524904
 20
160.195027072
 11
184.7828524904
 21
160.195027072
  0
LINE
  5
466
100
AcDbEntity
  8
0
100
AcDbLine
 62
7
  6
CONTINUOUS
 10
184.4328524904
 20
160.3459979055
 11
184.7828524904
 21
160.3459979055
  0
LINE
  5
467
100
AcDbEntity
  8
0
100
AcDbLine
 62
7
  6
CONTINUOUS
 10
184.4328524904
 20
161.0491666998
 11
184.7828524904
 21
161.0491666998
  0
LINE
  5
468
100
AcDbEntity
  8
0
100
AcDbLine
 62
7
  6
CONTINUOUS
 10
184.4328524904
 20
161.4106023418
 11
184.7828524904
 21
161.4106023418
  0
LINE
  5
469
100
AcDbEntity
  8
0
100
AcDbLine
 62
7
  6
CONTINUOUS
 10
197.0452205241
 20
126.8300494767
 11
197.2641074809
 21
128.6172835446
  0
LINE
  5
46A
100
AcDbEntity
  8
0
100
AcDbLine
 62
7
  6
CONTINUOUS
 10
197.5386277985
 20
130.8300494767
 11
197.4865218559
 21
130.4045176126
  0
LINE
  5
46B
100
AcDbEntity
  8
0
100
AcDbLine
 62
7
  6
CONTINUOUS
 10
197.3302039991
 20
129.1279217816
 11
197.267676868
 21
128.6172835446
  0
LINE
  5
46C
100
AcDbEntity
  8
0
100
AcDbLine
 62
7
  6
CONTINUOUS
 10
197.2967972667
 20
129.9470706202
 11
197.3230346868
 21
130.1598368503
  0
LINE
  5
46D
100
AcDbEntity
  8
0
100
AcDbLine
 62
7
  6
CONTINUOUS
 10
196.8506816077
 20
126.3300494767
 11
196.916296554
 21
126.8619643814
  0
LINE
  5
46E
100
AcDbEntity
  8
0
100
AcDbLine
 62
7
  6
CONTINUOUS
 10
197.2567464397
 20
130.1598368503
 11
197.2304164954
 21
129.9470706202
  0
LINE
  5
46F
100
AcDbEntity
  8
0
100
AcDbLine
 62
7
  6
CONTINUOUS
 10
184.4328524904
 20
162.376233536
 11
184.7828524904
 21
162.376233536
  0
LINE
  5
470
100
AcDbEntity
  8
0
100
AcDbLine
 62
7
  6
CONTINUOUS
 10
184.4328524904
 20
163.758409695
 11
184.7828524904
 21
163.758409695
  0
LINE
  5
471
100
AcDbEntity
  8
0
100
AcDbLine
 62
7
  6
CONTINUOUS
 10
184.4328524904
 20
164.013299869
 11
184.7828524904
 21
164.013299869
  0
LINE
  5
472
100
AcDbEntity
  8
0
100
AcDbLine
 62
7
  6
CONTINUOUS
 10
184.4328524904
 20
164.1775355181
 11
184.7828524904
 21
164.1775355181
  0
LINE
  5
473
100
AcDbEntity
  8
0
100
AcDbLine
 62
7
  6
CONTINUOUS
 10
184.4328524904
 20
164.2756443428
 11
184.7828524904
 21
164.2756443428
  0
LINE
  5
474
100
AcDbEntity
  8
0
100
AcDbLine
 62
7
  6
CONTINUOUS
 10
184.4328524904
 20
165.2894901688
 11
184.7828524904
 21
165.2894901688
  0
LINE
  5
475
100
AcDbEntity
  8
0
100
AcDbLine
 62
7
  6
CONTINUOUS
 10
184.4328524904
 20
165.59412908
 11
184.7828524904
 21
165.59412908
  0
LINE
  5
476
100
AcDbEntity
  8
0
100
AcDbLine
 62
7
  6
CONTINUOUS
 10
184.4328524904
 20
166.1396697466
 11
184.7828524904
 21
166.1396697466
  0
LINE
  5
477
100
AcDbEntity
  8
0
100
AcDbLine
 62
7
  6
CONTINUOUS
 10
184.4328524904
 20
168.6061663146
 11
184.7828524904
 21
168.6061663146
  0
LINE
  5
478
100
AcDbEntity
  8
0
100
AcDbLine
 62
7
  6
CONTINUOUS
 10
184.4328524904
 20
169.7870528468
 11
184.7828524904
 21
169.7870528468
  0
LINE
  5
479
100
AcDbEntity
  8
0
100
AcDbLine
 62
7
  6
CONTINUOUS
 10
184.4328524904
 20
169.9805918548
 11
184.7828524904
 21
169.9805918548
  0
LINE
  5
47A
100
AcDbEntity
  8
0
100
AcDbLine
 62
7
  6
CONTINUOUS
 10
184.4328524904
 20
170.0199707199
 11
184.7828524904
 21
170.0199707199
  0
LINE
  5
47B
100
AcDbEntity
  8
0
100
AcDbLine
 62
7
  6
CONTINUOUS
 10
184.4328524904
 20
170.1394009956
 11
184.7828524904
 21
170.1394009956
  0
LINE
  5
47C
100
AcDbEntity
  8
0
100
AcDbLine
 62
7
  6
CONTINUOUS
 10
184.4328524904
 20
170.2056180569
 11
184.7828524904
 21
170.2056180569
  0
LINE
  5
47D
100
AcDbEntity
  8
0
100
AcDbLine
 62
7
  6
CONTINUOUS
 10
184.4328524904
 20
170.403691604
 11
184.7828524904
 21
170.403691604
  0
LINE
  5
47E
100
AcDbEntity
  8
0
100
AcDbLine
 62
7
  6
CONTINUOUS
 10
184.4328524904
 20
170.6457181532
 11
184.7828524904
 21
170.6457181532
  0
LINE
  5
47F
100
AcDbEntity
  8
0
100
AcDbLine
 62
7
  6
CONTINUOUS
 10
184.4328524904
 20
170.9316973654
 11
184.7828524904
 21
170.9316973654
  0
LINE
  5
480
100
AcDbEntity
  8
0
100
AcDbLine
 62
7
  6
CONTINUOUS
 10
184.4328524904
 20
171.3495330635
 11
184.7828524904
 21
171.3495330635
  0
LINE
  5
481
100
AcDbEntity
  8
0
100
AcDbLine
 62
7
  6
CONTINUOUS
 10
184.4328524904
 20
171.6463565777
 11
184.7828524904
 21
171.6463565777
  0
LINE
  5
482
100
AcDbEntity
  8
0
100
AcDbLine
 62
7
  6
CONTINUOUS
 10
184.4328524904
 20
171.882673497
 11
184.7828524904
 21
171.882673497
  0
LINE
  5
483
100
AcDbEntity
  8
0
100
AcDbLine
 62
7
  6
CONTINUOUS
 10
184.4328524904
 20
172.102435648
 11
184.7828524904
 21
172.102435648
  0
LINE
  5
484
100
AcDbEntity
  8
0
100
AcDbLine
 62
7
  6
CONTINUOUS
 10
184.4328524904
 20
172.2616912041
 11
184.7828524904
 21
172.2616912041
  0
LINE
  5
485
100
AcDbEntity
  8
0
100
AcDbLine
 62
7
  6
CONTINUOUS
 10
184.4328524904
 20
174.0867811628
 11
184.7828524904
 21
174.0867811628
  0
LINE
  5
486
100
AcDbEntity
  8
RUNDUNGEN
100
AcDbLine
 62
7
  6
CONTINUOUS
 10
185.2661858238
 20
174.3300494767
 11
184.7828524904
 21
174.3300494767
  0
LINE
  5
487
100
AcDbEntity
  8
RUNDUNGEN
100
AcDbLine
 62
7
  6
CONTINUOUS
 10
184.4328524904
 20
174.3300494767
 11
184.2661858238
 21
174.3300494767
  0
LINE
  5
488
100
AcDbEntity
  8
0
100
AcDbLine
 62
7
  6
CONTINUOUS
 10
184.4328524904
 20
174.389105933
 11
184.7828524904
 21
174.389105933
  0
LINE
  5
489
100
AcDbEntity
  8
B-ACHSEN
100
AcDbLine
 62
7
  6
CONTINUOUS
 10
186.4328524904
 20
98.4967161434
 11
185.7661858238
 21
97.8300494767
  0
LINE
  5
48A
100
AcDbEntity
  8
RUNDUNGEN
100
AcDbLine
 62
7
  6
CONTINUOUS
 10
185.2661858238
 20
180.8300494767
 11
184.2661858238
 21
180.8300494767
  0
LINE
  5
48B
100
AcDbEntity
  8
BEZUGSACHSEN
100
AcDbLine
 62
7
  6
CONTINUOUS
 10
172.5995191571
 20
186.8300494767
 11
184.2661858238
 21
186.8300494767
  0
ARC
  5
48C
100
AcDbEntity
  8
0
100
AcDbCircle
 62
7
  6
CONTINUOUS
 10
79.5517803963
 20
141.9124071566
 40
46.6666666667
100
AcDbArc
 50
14.7071900927
 51
74.2638676914
  0
ARC
  5
48D
100
AcDbEntity
  8
B-ACHSEN
100
AcDbCircle
 62
7
  6
CONTINUOUS
 10
84.1147967017
 20
120.2700494767
 40
1.56
100
AcDbArc
 50
343.2629076439
 51
90.0
  0
ARC
  5
48E
100
AcDbEntity
  8
0
100
AcDbCircle
 62
7
  6
CONTINUOUS
 10
21.746052981
 20
181.6326460858
 40
106.65
100
AcDbArc
 50
329.9621953981
 51
344.8500636879
  0
ARC
  5
48F
100
AcDbEntity
  8
RUNDUNGEN
100
AcDbCircle
 62
7
  6
CONTINUOUS
 10
82.2081300351
 20
178.8300494767
 40
2.0
100
AcDbArc
 50
90.0
 51
180.0
  0
ARC
  5
490
100
AcDbEntity
  8
RUNDUNGEN
100
AcDbCircle
 62
7
  6
CONTINUOUS
 10
82.2081300351
 20
176.3300494767
 40
2.0
100
AcDbArc
 50
180.0
 51
270.0
  0
ARC
  5
491
100
AcDbEntity
  8
0
100
AcDbCircle
 62
7
  6
CONTINUOUS
 10
104.8644796738
 20
141.9124071566
 40
46.6666666667
100
AcDbArc
 50
105.7361323086
 51
165.2928099073
  0
ARC
  5
492
100
AcDbEntity
  8
B-ACHSEN
100
AcDbCircle
 62
7
  6
CONTINUOUS
 10
100.3014633684
 20
120.2700494767
 40
1.56
100
AcDbArc
 50
90.0
 51
196.7370923561
  0
ARC
  5
493
100
AcDbEntity
  8
0
100
AcDbCircle
 62
7
  6
CONTINUOUS
 10
162.6702070891
 20
181.6326460858
 40
106.65
100
AcDbArc
 50
195.1499363121
 51
210.0378046019
  0
ARC
  5
494
100
AcDbEntity
  8
RUNDUNGEN
100
AcDbCircle
 62
7
  6
CONTINUOUS
 10
92.2081300351
 20
153.3300494767
 40
17.5
100
AcDbArc
 50
255.4211961779
 51
284.5789158462
  0
ARC
  5
495
100
AcDbEntity
  8
0
100
AcDbCircle
 62
7
  6
CONTINUOUS
 10
92.2081300351
 20
153.3300494767
 40
17.5
100
AcDbArc
 50
284.5789158462
 51
295.8950745206
  0
ARC
  5
496
100
AcDbEntity
  8
0
100
AcDbCircle
 62
7
  6
CONTINUOUS
 10
92.2081300351
 20
153.3300494767
 40
17.5
100
AcDbArc
 50
244.1046388526
 51
255.4211961779
  0
ARC
  5
497
100
AcDbEntity
  8
RUNDUNGEN
100
AcDbCircle
 62
7
  6
CONTINUOUS
 10
92.2081300351
 20
153.3300494767
 40
17.5
100
AcDbArc
 50
351.8204054927
 51
188.1795945076
  0
ARC
  5
498
100
AcDbEntity
  8
0
100
AcDbCircle
 62
7
  6
CONTINUOUS
 10
92.2081300351
 20
153.3300494767
 40
17.5
100
AcDbArc
 50
322.1087617343
 51
217.8912545981
  0
ARC
  5
499
100
AcDbEntity
  8
RUNDUNGEN
100
AcDbCircle
 62
7
  6
CONTINUOUS
 10
102.2081300351
 20
176.3300494767
 40
2.0
100
AcDbArc
 50
270.0
 51
360.0
  0
ARC
  5
49A
100
AcDbEntity
  8
RUNDUNGEN
100
AcDbCircle
 62
7
  6
CONTINUOUS
 10
102.2081300351
 20
178.8300494767
 40
2.0
100
AcDbArc
 50
0.0
 51
90.0
  0
ARC
  5
49B
100
AcDbEntity
  8
B-ACHSEN
100
AcDbCircle
 62
7
  6
CONTINUOUS
 10
198.2661858238
 20
150.4133828101
 40
14.0
100
AcDbArc
 50
253.8869679055
 51
261.1524953192
  0
ARC
  5
49C
100
AcDbEntity
  8
BEZUGSACHSEN
100
AcDbCircle
 62
7
  6
CONTINUOUS
 10
158.5995191571
 20
150.4133828101
 40
14.0
100
AcDbArc
 50
278.8475046808
 51
286.1130320945
  0
ARC
  5
49D
100
AcDbEntity
  8
0
100
AcDbCircle
 62
7
  6
CONTINUOUS
 10
198.2661858238
 20
150.4133828101
 40
14.0
100
AcDbArc
 50
179.9999990099
 51
253.8869679055
  0
ARC
  5
49E
100
AcDbEntity
  8
0
100
AcDbCircle
 62
7
  6
CONTINUOUS
 10
158.5995191571
 20
150.4133828101
 40
14.0
100
AcDbArc
 50
286.1130320945
 51
360.0
  0
ARC
  5
49F
100
AcDbEntity
  8
B-ACHSEN
100
AcDbCircle
 62
7
  6
CONTINUOUS
 10
195.8563156737
 20
134.9314838534
 40
1.6683333333
100
AcDbArc
 50
353.0189425932
 51
81.1524953192
  0
ARC
  5
4A0
100
AcDbEntity
  8
BEZUGSACHSEN
100
AcDbCircle
 62
7
  6
CONTINUOUS
 10
161.0093893072
 20
134.9314838534
 40
1.6683333333
100
AcDbArc
 50
98.8475046808
 51
186.9810574068
  0
ARC
  5
4A1
100
AcDbEntity
  8
B-ACHSEN
100
AcDbCircle
 62
7
  6
CONTINUOUS
 10
170.3395191571
 20
120.2700494767
 40
1.56
100
AcDbArc
 50
343.2629076439
 51
90.0
  0
ARC
  5
4A2
100
AcDbEntity
  8
B-ACHSEN
100
AcDbCircle
 62
7
  6
CONTINUOUS
 10
186.5261858238
 20
120.2700494767
 40
1.56
100
AcDbArc
 50
90.0
 51
196.7370923561
  0
SPLINE
  5
4A3
100
AcDbEntity
  8
0
100
AcDbSpline
 62
7
  6
CONTINUOUS
 70
0
 71
3
 72
16
 73
12
 74
0
 42
0.0000001
 43
0.0000001
 44
0.0000000001
 40
0.0
 40
0.0
 40
0.0
 40
0.0
 40
0.1446271351
 40
0.2830621113
 40
0.4157083365
 40
0.5432039395
 40
0.6660983485
 40
0.7844243878
 40
0.89705901
 40
0.9502150348
 40
1.0
 40
1.0
 40
1.0
 40
1.0
 10
84.5656872682
 20
137.5870340418
 30
0.0
 10
84.2166548128
 20
137.7564801757
 30
0.0
 10
83.5332493936
 20
138.0876488745
 30
0.0
 10
82.551222662
 20
138.6175306701
 30
0.0
 10
81.6485862026
 20
139.1929864322
 30
0.0
 10
80.8330198193
 20
139.8204447118
 30
0.0
 10
80.1063644988
 20
140.4934811731
 30
0.0
 10
79.4659767997
 20
141.1955431996
 30
0.0
 10
78.9920848714
 20
141.7929882039
 30
0.0
 10
78.6451603248
 20
142.2556647546
 30
0.0
 10
78.4795881986
 20
142.4767139749
 30
0.0
 10
78.3975619241
 20
142.5821145504
 30
0.0
  0
SPLINE
  5
4A4
100
AcDbEntity
  8
0
100
AcDbSpline
 62
7
  6
CONTINUOUS
 70
0
 71
3
 72
16
 73
12
 74
0
 42
0.0000001
 43
0.0000001
 44
0.0000000001
 40
0.0
 40
0.0
 40
0.0
 40
0.0
 40
0.0497865425
 40
0.1029430931
 40
0.2155780258
 40
0.333903774
 40
0.4567976786
 40
0.5842927803
 40
0.7169386972
 40
0.8553732157
 40
1.0
 40
1.0
 40
1.0
 40
1.0
 10
106.0186372836
 20
142.5820432968
 30
0.0
 10
105.9366121271
 20
142.4766437322
 30
0.0
 10
105.7710508246
 20
142.2555940609
 30
0.0
 10
105.4241329255
 20
141.7929353942
 30
0.0
 10
104.9502599793
 20
141.1955151499
 30
0.0
 10
104.3098983474
 20
140.4934862432
 30
0.0
 10
103.583278949
 20
139.8204785703
 30
0.0
 10
102.7677525815
 20
139.1930468334
 30
0.0
 10
101.8651675337
 20
138.6176017709
 30
0.0
 10
100.8831851862
 20
138.0877445771
 30
0.0
 10
100.1998196961
 20
137.7565733032
 30
0.0
 10
99.8508021185
 20
137.5871366989
 30
0.0
  0
SPLINE
  5
4A5
100
AcDbEntity
  8
0
100
AcDbSpline
 62
7
  6
CONTINUOUS
 70
0
 71
3
 72
14
 73
10
 74
0
 42
0.0000001
 43
0.0000001
 44
0.0000000001
 40
0.0
 40
0.0
 40
0.0
 40
0.0
 40
0.1330273898
 40
0.263289312
 40
0.3910378333
 40
0.516543598
 40
0.6400304932
 40
0.7616802941
 40
1.0
 40
1.0
 40
1.0
 40
1.0
 10
122.6683111969
 20
147.1519225345
 30
0.0
 10
122.0503352323
 20
146.3729712861
 30
0.0
 10
120.6845292247
 20
144.9423274
 30
0.0
 10
118.4009665523
 20
143.1093432526
 30
0.0
 10
115.9895554406
 20
141.5513194723
 30
0.0
 10
113.4992155603
 20
140.2306728943
 30
0.0
 10
110.9577319172
 20
139.121400714
 30
0.0
 10
107.5505990723
 20
137.911840725
 30
0.0
 10
104.9270153649
 20
137.2683326127
 30
0.0
 10
103.1719952741
 20
136.9633580643
 30
0.0
  0
SPLINE
  5
4A6
100
AcDbEntity
  8
B-ACHSEN
100
AcDbSpline
 62
7
  6
CONTINUOUS
 70
0
 71
3
 72
9
 73
5
 74
0
 42
0.0000001
 43
0.0000001
 44
0.0000000001
 40
0.0
 40
0.0
 40
0.0
 40
0.0
 40
0.5114190807
 40
1.0
 40
1.0
 40
1.0
 40
1.0
 10
84.4530415358
 20
136.5799660208
 30
0.0
 10
83.9031207389
 20
136.6167472581
 30
0.0
 10
82.8290300854
 20
136.7091655757
 30
0.0
 10
81.7615072157
 20
136.8648614118
 30
0.0
 10
81.2442647961
 20
136.9633580643
 30
0.0
  0
SPLINE
  5
4A7
100
AcDbEntity
  8
0
100
AcDbSpline
 62
7
  6
CONTINUOUS
 70
0
 71
3
 72
14
 73
10
 74
0
 42
0.0000001
 43
0.0000001
 44
0.0000000001
 40
0.0
 40
0.0
 40
0.0
 40
0.0
 40
0.238320715
 40
0.3599707626
 40
0.4834579183
 40
0.6089638232
 40
0.7367122733
 40
0.8669738684
 40
1.0
 40
1.0
 40
1.0
 40
1.0
 10
81.2442647961
 20
136.9633580643
 30
0.0
 10
79.4892372547
 20
137.2683339074
 30
0.0
 10
76.8656438349
 20
137.9118427339
 30
0.0
 10
73.458501647
 20
139.1214105626
 30
0.0
 10
70.9170143586
 20
140.2306865327
 30
0.0
 10
68.4266732089
 20
141.5513359024
 30
0.0
 10
66.015264597
 20
143.1093606081
 30
0.0
 10
63.7317189558
 20
144.9423458609
 30
0.0
 10
62.3659189995
 20
146.3729786454
 30
0.0
 10
61.7479488733
 20
147.1519225345
 30
0.0
  0
SPLINE
  5
4A8
100
AcDbEntity
  8
B-ACHSEN
100
AcDbSpline
 62
7
  6
CONTINUOUS
 70
0
 71
3
 72
12
 73
8
 74
0
 42
0.0000001
 43
0.0000001
 44
0.0000000001
 40
0.0
 40
0.0
 40
0.0
 40
0.0
 40
0.2556830528
 40
0.5097009005
 40
0.7590310746
 40
0.8809054197
 40
1.0
 40
1.0
 40
1.0
 40
1.0
 10
92.2081300351
 20
134.728712634
 30
0.0
 10
91.5548067786
 20
134.9197592406
 30
0.0
 10
90.2543885285
 20
135.3073862282
 30
0.0
 10
88.3112219786
 20
135.8617534599
 30
0.0
 10
86.6929946711
 20
136.2566653878
 30
0.0
 10
85.407564218
 20
136.4860859178
 30
0.0
 10
84.7693902344
 20
136.5588071619
 30
0.0
 10
84.4530415358
 20
136.5799660208
 30
0.0
  0
SPLINE
  5
4A9
100
AcDbEntity
  8
B-ACHSEN
100
AcDbSpline
 62
7
  6
CONTINUOUS
 70
0
 71
3
 72
12
 73
8
 74
0
 42
0.0000001
 43
0.0000001
 44
0.0000000001
 40
0.0
 40
0.0
 40
0.0
 40
0.0
 40
0.1190945817
 40
0.2409689358
 40
0.4902991024
 40
0.7443169482
 40
1.0
 40
1.0
 40
1.0
 40
1.0
 10
99.9632185343
 20
136.5799660208
 30
0.0
 10
99.6468698321
 20
136.5588071616
 30
0.0
 10
99.0086958132
 20
136.4860859742
 30
0.0
 10
97.7232653738
 20
136.2566653138
 30
0.0
 10
96.1050380507
 20
135.8617534758
 30
0.0
 10
94.1618715339
 20
135.3073862173
 30
0.0
 10
92.8614532893
 20
134.9197592399
 30
0.0
 10
92.2081300351
 20
134.728712634
 30
0.0
  0
SPLINE
  5
4AA
100
AcDbEntity
  8
B-ACHSEN
100
AcDbSpline
 62
7
  6
CONTINUOUS
 70
0
 71
3
 72
9
 73
5
 74
0
 42
0.0000001
 43
0.0000001
 44
0.0000000001
 40
0.0
 40
0.0
 40
0.0
 40
0.0
 40
0.488580932
 40
1.0
 40
1.0
 40
1.0
 40
1.0
 10
103.1719952741
 20
136.9633580643
 30
0.0
 10
102.654752841
 20
136.8648614092
 30
0.0
 10
101.5872299708
 20
136.7091655762
 30
0.0
 10
100.5131393176
 20
136.6167472572
 30
0.0
 10
99.9632185343
 20
136.5799660208
 30
0.0
  0
SPLINE
  5
4AB
100
AcDbEntity
  8
0
100
AcDbSpline
 62
7
  6
CONTINUOUS
 70
0
 71
3
 72
8
 73
4
 74
0
 42
0.0000001
 43
0.0000001
 44
0.0000000001
 40
0.0
 40
0.0
 40
0.0
 40
0.0
 40
1.0
 40
1.0
 40
1.0
 40
1.0
 10
195.2915721747
 20
126.3300494767
 30
0.0
 10
195.5161715895
 20
127.9966166283
 30
0.0
 10
195.7400031331
 20
129.6632874058
 30
0.0
 10
195.9631514397
 20
131.3300494767
 30
0.0
  0
LINE
  5
4AC
100
AcDbEntity
  8
0
100
AcDbLine
 62
7
  6
CONTINUOUS
 10
196.2524746904
 20
128.1385600484
 11
196.321090468
 21
128.6704750277
  0
LINE
  5
4AD
100
AcDbEntity
  8
0
100
AcDbLine
 62
7
  6
CONTINUOUS
 10
197.3266464245
 20
129.1279217816
 11
197.3727744023
 21
129.5045631654
  0
LINE
  5
4AE
100
AcDbEntity
  8
0
100
AcDbLine
 62
7
  6
CONTINUOUS
 10
197.3727744023
 20
129.5045631654
 11
197.4250454614
 21
129.9313638269
  0
LINE
  5
4AF
100
AcDbEntity
  8
0
100
AcDbLine
 62
7
  6
CONTINUOUS
 10
197.4250454614
 20
129.9313638269
 11
197.4511059989
 21
130.1441517202
  0
LINE
  5
4B0
100
AcDbEntity
  8
0
100
AcDbLine
 62
7
  6
CONTINUOUS
 10
197.4511059989
 20
130.1441517202
 11
197.4829934734
 21
130.4045176126
  0
LINE
  5
4B1
100
AcDbEntity
  8
0
100
AcDbLine
 62
7
  6
CONTINUOUS
 10
196.7475169872
 20
130.1598368503
 11
196.7211715039
 21
129.9470706202
  0
LINE
  5
4B2
100
AcDbEntity
  8
0
100
AcDbLine
 62
7
  6
CONTINUOUS
 10
196.562198174
 20
127.1020340929
 11
196.5319920059
 21
126.8555710355
  0
LINE
  5
4B3
100
AcDbEntity
  8
0
100
AcDbLine
 62
7
  6
CONTINUOUS
 10
194.8145389744
 20
130.5853687144
 11
194.6962976332
 21
129.7343046881
  0
SPLINE
  5
4B4
100
AcDbEntity
  8
0
100
AcDbSpline
 62
7
  6
CONTINUOUS
 70
0
 71
3
 72
8
 73
4
 74
0
 42
0.0000001
 43
0.0000001
 44
0.0000000001
 40
0.0
 40
0.0
 40
0.0
 40
0.0
 40
1.0
 40
1.0
 40
1.0
 40
1.0
 10
195.6179443728
 20
130.4789857484
 30
0.0
 10
195.4300861297
 20
129.0959273174
 30
0.0
 10
195.2416620531
 20
127.7129455989
 30
0.0
 10
195.0526126991
 20
126.3300494767
 30
0.0
  0
LINE
  5
4B5
100
AcDbEntity
  8
0
100
AcDbLine
 62
7
  6
CONTINUOUS
 10
195.3834924477
 20
130.5853687144
 11
195.2661290739
 21
129.7343046881
  0
LINE
  5
4B6
100
AcDbEntity
  8
0
100
AcDbLine
 62
7
  6
CONTINUOUS
 10
195.8920160343
 20
128.6704750277
 11
195.8217072273
 21
128.1385600484
  0
LINE
  5
4B7
100
AcDbEntity
  8
0
100
AcDbLine
 62
7
  6
CONTINUOUS
 10
196.2972781585
 20
126.8619643814
 11
196.2293810675
 21
126.3300494767
  0
SPLINE
  5
4B8
100
AcDbEntity
  8
0
100
AcDbSpline
 62
7
  6
CONTINUOUS
 70
0
 71
3
 72
11
 73
7
 74
0
 42
0.0000001
 43
0.0000001
 44
0.0000000001
 40
0.0
 40
0.0
 40
0.0
 40
0.0
 40
0.2416587805
 40
0.4891562274
 40
0.7421075569
 40
1.0
 40
1.0
 40
1.0
 40
1.0
 10
171.2085627361
 20
128.2467161434
 30
0.0
 10
171.4368620239
 20
129.7562445453
 30
0.0
 10
171.8023213949
 20
132.8267822201
 30
0.0
 10
172.1275308272
 20
137.5051634533
 30
0.0
 10
172.2659752998
 20
142.2951430453
 30
0.0
 10
172.2478354357
 20
145.5230153941
 30
0.0
 10
172.2143227499
 20
147.1519225345
 30
0.0
  0
SPLINE
  5
4B9
100
AcDbEntity
  8
0
100
AcDbSpline
 62
7
  6
CONTINUOUS
 70
0
 71
3
 72
11
 73
7
 74
0
 42
0.0000001
 43
0.0000001
 44
0.0000000001
 40
0.0
 40
0.0
 40
0.0
 40
0.0
 40
0.2578925723
 40
0.5108439595
 40
0.7583413586
 40
1.0
 40
1.0
 40
1.0
 40
1.0
 10
184.6513822309
 20
147.1519225345
 30
0.0
 10
184.6178695283
 20
145.5230145788
 30
0.0
 10
184.5997296575
 20
142.2951410496
 30
0.0
 10
184.7381742909
 20
137.50516058
 30
0.0
 10
185.0633840199
 20
132.8267801924
 30
0.0
 10
185.4288430884
 20
129.7562436761
 30
0.0
 10
185.6571422448
 20
128.2467161434
 30
0.0
  0
SPLINE
  5
4BA
100
AcDbEntity
  8
0
100
AcDbSpline
 62
7
  6
CONTINUOUS
 70
0
 71
3
 72
8
 73
4
 74
0
 42
0.0000001
 43
0.0000001
 44
0.0000000001
 40
0.0
 40
0.0
 40
0.0
 40
0.0
 40
1.0
 40
1.0
 40
1.0
 40
1.0
 10
194.4882826552
 20
126.3300494767
 30
0.0
 10
194.6428961769
 20
127.453134125
 30
0.0
 10
194.7970522603
 20
128.5762818282
 30
0.0
 10
194.9507880377
 20
129.6994869649
 30
0.0
  0
LINE
  5
4BB
100
AcDbEntity
  8
0
100
AcDbLine
 62
7
  6
CONTINUOUS
 10
194.9507880377
 20
129.6994869649
 11
194.9555530378
 21
129.7343014159
  0
LINE
  5
4BC
100
AcDbEntity
  8
0
100
AcDbLine
 62
7
  6
CONTINUOUS
 10
197.5232393792
 20
130.8300494767
 11
197.4913627676
 21
130.5699348368
  0
LINE
  5
4BD
100
AcDbEntity
  8
0
100
AcDbLine
 62
7
  6
CONTINUOUS
 10
197.4913627676
 20
130.5699348368
 11
197.4393583833
 21
130.1455813483
  0
LINE
  5
4BE
100
AcDbEntity
  8
0
100
AcDbLine
 62
7
  6
CONTINUOUS
 10
197.4393583833
 20
130.1455813483
 11
197.4132813507
 21
129.9327954626
  0
LINE
  5
4BF
100
AcDbEntity
  8
0
100
AcDbLine
 62
7
  6
CONTINUOUS
 10
197.4132813507
 20
129.9327954626
 11
197.3609768933
 21
129.5059980815
  0
LINE
  5
4C0
100
AcDbEntity
  8
0
100
AcDbLine
 62
7
  6
CONTINUOUS
 10
197.3609768933
 20
129.5059980815
 11
197.3215430571
 21
129.1842234035
  0
LINE
  5
4C1
100
AcDbEntity
  8
0
100
AcDbLine
 62
7
  6
CONTINUOUS
 10
197.3215430571
 20
129.1842234035
 11
197.0330382443
 21
126.8300494767
  0
LINE
  5
4C2
100
AcDbEntity
  8
0
100
AcDbLine
 62
7
  6
CONTINUOUS
 10
195.7716094793
 20
126.8619643814
 11
195.7035455216
 21
126.3300494767
  0
ELLIPSE
  5
4C3
100
AcDbEntity
  8
0
100
AcDbEllipse
 62
7
  6
CONTINUOUS
 10
178.4328524904
 20
148.5448412913
 30
0.0
 11
0.0
 21
31.686080058
 31
0.0
 40
0.6601684032
 41
-2.2063870728
 42
-2.1774861755
  0
ELLIPSE
  5
4C4
100
AcDbEntity
  8
0
100
AcDbEllipse
 62
7
  6
CONTINUOUS
 10
178.4328524904
 20
131.9517356894
 30
0.0
 11
19.2337181392
 21
-0.0
 31
0.0
 40
0.2554437908
 41
-0.2593498548
 42
-0.2370122267
  0
ELLIPSE
  5
4C5
100
AcDbEntity
  8
0
100
AcDbEllipse
 62
7
  6
CONTINUOUS
 10
178.4328524904
 20
136.1317815361
 30
0.0
 11
19.6474035272
 21
-0.0
 31
0.0
 40
0.8557230392
 41
-0.3429014658
 42
-0.3294958181
  0
ELLIPSE
  5
4C6
100
AcDbEntity
  8
0
100
AcDbEllipse
 62
7
  6
CONTINUOUS
 10
178.4328524904
 20
148.8233197105
 30
0.0
 11
-0.0
 21
40.8045651115
 31
0.0
 40
0.5076631183
 41
-2.045851069
 42
-2.0370754325
  0
ELLIPSE
  5
4C7
100
AcDbEntity
  8
0
100
AcDbEllipse
 62
7
  6
CONTINUOUS
 10
178.4328524904
 20
130.6911812983
 30
0.0
 11
19.0822916202
 21
-0.0
 31
0.0
 40
0.2128381771
 41
0.1314860271
 42
0.1579569253
  0
ELLIPSE
  5
4C8
100
AcDbEntity
  8
0
100
AcDbEllipse
 62
7
  6
CONTINUOUS
 10
178.4328524904
 20
130.2584428651
 30
0.0
 11
18.9775506038
 21
-0.0
 31
0.0
 40
0.640256089
 41
0.0619678185
 42
0.0795228454
  0
ELLIPSE
  5
4C9
100
AcDbEntity
  8
0
100
AcDbEllipse
 62
7
  6
CONTINUOUS
 10
178.4328524904
 20
131.4340552632
 30
0.0
 11
0.0
 21
24.4847887725
 31
0.0
 40
0.7737030014
 41
-1.6054650589
 42
-1.588079537
  0
ELLIPSE
  5
4CA
100
AcDbEntity
  8
0
100
AcDbEllipse
 62
7
  6
CONTINUOUS
 10
178.4328524904
 20
211.0263834406
 30
0.0
 11
0.0
 21
147.7055793159
 31
0.0
 40
0.1528302891
 41
-2.1501518142
 42
-2.1467129268
  0
ELLIPSE
  5
4CB
100
AcDbEntity
  8
0
100
AcDbEllipse
 62
7
  6
CONTINUOUS
 10
178.4328524904
 20
248.4065428686
 30
0.0
 11
0.0
 21
171.0782760125
 31
0.0
 40
0.1528302891
 41
-2.3390991862
 42
-2.3356459194
  0
ELLIPSE
  5
4CC
100
AcDbEntity
  8
0
100
AcDbEllipse
 62
7
  6
CONTINUOUS
 10
178.4328524904
 20
143.2509951614
 30
0.0
 11
0.0
 21
39.4979833627
 31
0.0
 40
0.5076631183
 41
-1.9344368577
 42
-1.9258054517
  0
ELLIPSE
  5
4CD
100
AcDbEntity
  8
0
100
AcDbEllipse
 62
7
  6
CONTINUOUS
 10
178.4328524904
 20
135.0431364731
 30
0.0
 11
0.0
 21
22.0430580812
 31
0.0
 40
0.881689359
 41
-1.9510381799
 42
-1.83896902
  0
ELLIPSE
  5
4CE
100
AcDbEntity
  8
0
100
AcDbEllipse
 62
7
  6
CONTINUOUS
 10
178.4328524904
 20
270.5693875778
 30
0.0
 11
-0.0
 21
182.3637845176
 31
0.0
 40
0.1528302891
 41
-2.4495466988
 42
-2.4458979717
  0
ELLIPSE
  5
4CF
100
AcDbEntity
  8
0
100
AcDbEllipse
 62
7
  6
CONTINUOUS
 10
178.4328524904
 20
154.090368799
 30
0.0
 11
-0.0
 21
54.7666240387
 31
0.0
 40
0.3720332904
 41
-2.0360052598
 42
-2.0273302149
  0
ELLIPSE
  5
4D0
100
AcDbEntity
  8
0
100
AcDbEllipse
 62
7
  6
CONTINUOUS
 10
178.4328524904
 20
135.9041300064
 30
0.0
 11
0.0
 21
21.911118709
 31
0.0
 40
0.868746329
 41
-1.9278659244
 42
-1.8663762067
  0
ELLIPSE
  5
4D1
100
AcDbEntity
  8
0
100
AcDbEllipse
 62
7
  6
CONTINUOUS
 10
178.4328524904
 20
135.9041300064
 30
0.0
 11
0.0
 21
21.911118709
 31
0.0
 40
0.868746329
 41
-1.9961849031
 42
-1.9327783133
  0
ELLIPSE
  5
4D2
100
AcDbEntity
  8
0
100
AcDbEllipse
 62
7
  6
CONTINUOUS
 10
178.4328524904
 20
149.283645058
 30
0.0
 11
0.0
 21
31.0705608398
 31
0.0
 40
0.6601686765
 41
-2.2165498562
 42
-2.1868673891
  0
ELLIPSE
  5
4D3
100
AcDbEntity
  8
0
100
AcDbEllipse
 62
7
  6
CONTINUOUS
 10
178.4328524904
 20
149.4251745771
 30
0.0
 11
0.0
 21
31.8466144618
 31
0.0
 40
0.6601686765
 41
-2.2038129031
 42
-2.1751084882
  0
ELLIPSE
  5
4D4
100
AcDbEntity
  8
0
100
AcDbEllipse
 62
7
  6
CONTINUOUS
 10
178.4328524904
 20
135.9858580107
 30
0.0
 11
0.0
 21
22.4966908398
 31
0.0
 40
0.868746329
 41
-1.9883943185
 42
-1.8622504625
  0
ELLIPSE
  5
4D5
100
AcDbEntity
  8
0
100
AcDbEllipse
 62
7
  6
CONTINUOUS
 10
178.4328524904
 20
154.5360181236
 30
0.0
 11
-0.0
 21
56.1920817306
 31
0.0
 40
0.3720332904
 41
-2.0321495043
 42
-2.0237101304
  0
ELLIPSE
  5
4D6
100
AcDbEntity
  8
0
100
AcDbEllipse
 62
7
  6
CONTINUOUS
 10
178.4328524904
 20
133.6260691652
 30
0.0
 11
-0.0
 21
37.2411599259
 31
0.0
 40
0.5076631183
 41
-1.6640065437
 42
-1.6554027451
  0
ELLIPSE
  5
4D7
100
AcDbEntity
  8
0
100
AcDbEllipse
 62
7
  6
CONTINUOUS
 10
178.4328524904
 20
129.6787225985
 30
0.0
 11
18.86153543
 21
0.0
 31
0.0
 40
0.8557230392
 41
0.0496021673
 42
0.0628054304
  0
ELLIPSE
  5
4D8
100
AcDbEntity
  8
0
100
AcDbEllipse
 62
7
  6
CONTINUOUS
 10
178.4328524904
 20
130.0349702977
 30
0.0
 11
18.9991269028
 21
-0.0
 31
0.0
 40
0.2554437908
 41
0.1357458137
 42
0.1579048104
  0
ELLIPSE
  5
4D9
100
AcDbEntity
  8
0
100
AcDbEllipse
 62
7
  6
CONTINUOUS
 10
178.4328524904
 20
273.210202648
 30
0.0
 11
-0.0
 21
186.5872632897
 31
0.0
 40
0.1528302891
 41
-2.4444306102
 42
-2.4408860061
  0
ELLIPSE
  5
4DA
100
AcDbEntity
  8
0
100
AcDbEllipse
 62
7
  6
CONTINUOUS
 10
178.4328524904
 20
141.1392882921
 30
0.0
 11
0.0
 21
26.0018725652
 31
0.0
 40
0.7737035687
 41
-1.9887495936
 42
-1.970912475
  0
ELLIPSE
  5
4DB
100
AcDbEntity
  8
0
100
AcDbEllipse
 62
7
  6
CONTINUOUS
 10
178.4328524904
 20
135.0215795923
 30
0.0
 11
19.5590076517
 21
0.0
 31
0.0
 40
0.640256089
 41
-0.3260153517
 42
-0.3081334207
  0
ELLIPSE
  5
4DC
100
AcDbEntity
  8
0
100
AcDbEllipse
 62
7
  6
CONTINUOUS
 10
178.4328524904
 20
132.1075842225
 30
0.0
 11
19.2574047021
 21
0.0
 31
0.0
 40
0.1824163876
 41
-0.2543567812
 42
-0.2231874455
  0
ELLIPSE
  5
4DD
100
AcDbEntity
  8
0
100
AcDbEllipse
 62
7
  6
CONTINUOUS
 10
178.4328524904
 20
132.1055317159
 30
0.0
 11
18.7535445624
 21
-0.0
 31
0.0
 40
0.1824163876
 41
-0.2607273899
 42
-0.2286737198
  0
ELLIPSE
  5
4DE
100
AcDbEntity
  8
0
100
AcDbEllipse
 62
7
  6
CONTINUOUS
 10
178.4328524904
 20
134.9962945145
 30
0.0
 11
19.0537274655
 21
-0.0
 31
0.0
 40
0.640256089
 41
-0.3328006792
 42
-0.314404728
  0
ELLIPSE
  5
4DF
100
AcDbEntity
  8
0
100
AcDbEllipse
 62
7
  6
CONTINUOUS
 10
178.4328524904
 20
141.0362478628
 30
0.0
 11
-0.0
 21
25.3427001201
 31
0.0
 40
0.7737035687
 41
-1.9958637746
 42
-1.977507718
  0
ENDSEC
  0
SECTION
  2
OBJECTS
  0
DICTIONARY
  5
C
100
AcDbDictionary
280
0
281
1
  3
ACAD_GROUP
350
D
  3
ACAD_MLINESTYLE
350
17
  3
ACAD_LAYOUT
350
1A
  3
ACAD_PLOTSETTINGS
350
19
  3
ACAD_PLOTSTYLENAME
350
E
  0
DICTIONARY
  5
D
102
{ACAD_REACTORS
330
C
102
}
100
AcDbDictionary
280
0
281
1
  0
ACDBDICTIONARYWDFLT
  5
E
102
{ACAD_REACTORS
330
C
102
}
100
AcDbDictionary
281
1
  3
Normal
350
F
100
AcDbDictionaryWithDefault
340
F
  0
DICTIONARY
  5
17
102
{ACAD_REACTORS
330
C
102
}
100
AcDbDictionary
280
0
281
1
  3
Standard
350
18
  0
DICTIONARY
  5
19
102
{ACAD_REACTORS
330
C
102
}
100
AcDbDictionary
281
1
  0
DICTIONARY
  5
1A
102
{ACAD_REACTORS
330
C
102
}
100
AcDbDictionary
281
1
  3
Model
350
4E0
  3
Layout1
350
4E1
  0
ACDBPLACEHOLDER
  5
F
102
{ACAD_REACTORS
330
E
102
}
  0
MLINESTYLE
  5
18
102
{ACAD_REACTORS
330
17
102
}
100
AcDbMlineStyle
  2
STANDARD
 70
0
  3

 62
256
 51
90.0
 52
90.0
 71
2
 49
0.5
 62
256
  6
BYLAYER
 49
-0.5
 62
256
  6
BYLAYER
  0
LAYOUT
  5
4E0
102
{ACAD_REACTORS
330
1A
102
}
100
AcDbPlotSettings
  1

  2
none_device
  4
ISO_A4_(297.00_x_210.00_MM)
  6

 40
0.0
 41
0.0
 42
0.0
 43
0.0
 44
297.0
 45
210.0
 46
0.0
 47
0.0
 48
0.0
 49
0.0
140
0.0
141
0.0
142
1.0
143
1.0
 70
1024
 72
1
 73
0
 74
0
  7

 75
0
147
1.0
148
0.0
149
0.0
100
AcDbLayout
  1
Model
 70
0
 71
0
 10
0.0
 20
0.0
 11
297.0
 21
210.0
 12
0.0
 22
0.0
 32
0.0
 14
0.0
 24
0.0
 34
0.0
 15
0.0
 25
0.0
 35
0.0
146
0.0
 13
0.0
 23
0.0
 33
0.0
 16
1.0
 26
0.0
 36
0.0
 17
0.0
 27
1.0
 37
0.0
 76
0
330
210
345
0
346
0
  0
LAYOUT
  5
4E1
102
{ACAD_REACTORS
330
1A
102
}
100
AcDbPlotSettings
  1

  2
none_device
  4
ISO_A4_(297.00_x_210.00_MM)
  6

 40
0.0
 41
0.0
 42
0.0
 43
0.0
 44
297.0
 45
210.0
 46
0.0
 47
0.0
 48
0.0
 49
0.0
140
0.0
141
0.0
142
1.0
143
1.0
 70
0
 72
1
 73
0
 74
0
  7

 75
0
147
1.0
148
0.0
149
0.0
100
AcDbLayout
  1
Layout1
 70
0
 71
1
 10
0.0
 20
0.0
 11
297.0
 21
210.0
 12
0.0
 22
0.0
 32
0.0
 14
0.0
 24
0.0
 34
0.0
 15
0.0
 25
0.0
 35
0.0
146
0.0
 13
0.0
 23
0.0
 33
0.0
 16
1.0
 26
0.0
 36
0.0
 17
0.0
 27
1.0
 37
0.0
 76
0
330
211
345
0
346
0
  0
ENDSEC
  0
EOF
