999
DXF file: PSA-INOX-STAR-M16_7904107_M34811-P-1.dxf
999
Pro/ENGINEER 2010140 by Parametric Technology Corporation
  0
SECTION
  2
HEADER
  9
$ACADVER
  1
AC1015
  9
$DWGCODEPAGE
  3
ANSI_1252
  9
$EXTMAX
 10
297.0
 20
210.0
 30
0.0
  9
$EXTMIN
 10
0.0
 20
0.0
 30
0.0
  9
$LIMMIN
 10
0.0
 20
0.0
  9
$LIMMAX
 10
297.0
 20
210.0
  9
$VIEWCTR
 10
148.5
 20
105.0
  9
$VIEWSIZE
 40
210.0
  9
$CLAYER
  8
0
  9
$LTSCALE
 40
16.335
  9
$CELTYPE
  6
BYLAYER
  9
$DIMSCALE
 40
1.0
  9
$DIMASZ
 40
3.5
  9
$DIMEXO
 40
1.85625
  9
$DIMDLI
 40
11.286
  9
$DIMEXE
 40
5.346
  9
$DIMCEN
 40
2.673
  9
$DIMLFAC
 40
1.0
  9
$DIMBLK
  1
_FILLED
  9
$DIMTXT
 40
3.5
  9
$DIMTOL
 70
1
  9
$DIMLIM
 70
0
  9
$DIMTFAC
 40
1.0
  9
$DIMTP
 40
0.005
  9
$DIMTM
 40
0.005
  9
$PDMODE
 70
3
  9
$PDSIZE
 40
0.3125
  9
$HANDSEED
  5
4E2
  9
$TILEMODE
 70
1
  9
$MEASUREMENT
 70
1
  9
$INSUNITS
 70
4
  0
ENDSEC
  0
SECTION
  2
CLASSES
  0
CLASS
  1
ACDBDICTIONARYWDFLT
  2
AcDbDictionaryWithDefault
  3
AutoCAD 2000
 90
0
280
0
281
0
  0
CLASS
  1
ACDBPLACEHOLDER
  2
AcDbPlaceHolder
  3
AutoCAD 2000
 90
0
280
0
281
0
  0
CLASS
  1
LAYOUT
  2
AcDbLayout
  3
AutoCAD 2000
 90
0
280
0
281
0
  0
ENDSEC
  0
SECTION
  2
TABLES
  0
TABLE
  2
VPORT
  5
8
100
AcDbSymbolTable
 70
2
  0
VPORT
  5
1F4
100
AcDbSymbolTableRecord
100
AcDbViewportTableRecord
  2
*ACTIVE
 70
0
 10
0.0
 20
0.0
 11
1.0
 21
1.0
 12
148.5
 22
105.0
 13
0.0
 23
0.0
 14
1.0
 24
1.0
 15
0.0
 25
0.0
 16
0.0
 26
0.0
 36
1.0
 17
0.0
 27
0.0
 37
0.0
 40
210.0
 41
1.4142857143
 42
50.0
 43
0.0
 44
0.0
 50
0.0
 51
0.0
 71
0
 72
100
 73
1
 74
1
 75
0
 76
0
 77
0
 78
0
  0
ENDTAB
  0
TABLE
  2
LTYPE
  5
5
100
AcDbSymbolTable
 70
6
  0
LTYPE
  5
14
100
AcDbSymbolTableRecord
100
AcDbLinetypeTableRecord
  2
BYBLOCK
 70
0
  3

 72
65
 73
0
 40
0.0
  0
LTYPE
  5
15
100
AcDbSymbolTableRecord
100
AcDbLinetypeTableRecord
  2
BYLAYER
 70
0
  3

 72
65
 73
0
 40
0.0
  0
LTYPE
  5
16
100
AcDbSymbolTableRecord
100
AcDbLinetypeTableRecord
  2
CONTINUOUS
 70
64
  3
Solid line
 72
65
 73
0
 40
0.0
  0
LTYPE
  5
1F5
100
AcDbSymbolTableRecord
100
AcDbLinetypeTableRecord
  2
CENTER
 70
64
  3
____ _ ____ _ ____ _ ____ _ ____ _ ____ _ ____
 72
65
 73
4
 40
0.6
 49
0.375
 74
0
 49
-0.075
 74
0
 49
0.075
 74
0
 49
-0.075
 74
0
  0
LTYPE
  5
1F6
100
AcDbSymbolTableRecord
100
AcDbLinetypeTableRecord
  2
HIDDEN
 70
64
  3
- - - - - - - - - - - - - - - - - - - -
 72
65
 73
2
 40
0.2
 49
0.1
 74
0
 49
-0.1
 74
0
  0
LTYPE
  5
1F7
100
AcDbSymbolTableRecord
100
AcDbLinetypeTableRecord
  2
PHANTOM
 70
64
  3
_____ _ _ _____ _ _ _____ _ _ _____
 72
65
 73
6
 40
0.8
 49
0.45
 74
0
 49
-0.05
 74
0
 49
0.1
 74
0
 49
-0.05
 74
0
 49
0.1
 74
0
 49
-0.05
 74
0
  0
LTYPE
  5
1F8
100
AcDbSymbolTableRecord
100
AcDbLinetypeTableRecord
  2
DOT
 70
64
  3
. . . . . . . . . . . . . . . . . . . .
 72
65
 73
2
 40
0.2
 49
0.1
 74
0
 49
-0.1
 74
0
  0
LTYPE
  5
1F9
100
AcDbSymbolTableRecord
100
AcDbLinetypeTableRecord
  2
DASHED
 70
64
  3
- - - - - - - - - - - - - - - - - - - -
 72
65
 73
2
 40
0.2
 49
0.1
 74
0
 49
-0.1
 74
0
  0
ENDTAB
  0
TABLE
  2
LAYER
  5
2
100
AcDbSymbolTable
 70
36
  0
LAYER
  5
10
100
AcDbSymbolTableRecord
100
AcDbLayerTableRecord
  2
0
 70
0
 62
7
  6
CONTINUOUS
370
-3
390
F
  0
LAYER
  5
1FA
100
AcDbSymbolTableRecord
100
AcDbLayerTableRecord
  2
DEFAULT_1
 70
0
 62
7
  6
CENTER
370
-3
390
F
  0
LAYER
  5
1FB
100
AcDbSymbolTableRecord
100
AcDbLayerTableRecord
  2
DEFAULT_2
 70
0
 62
8
  6
HIDDEN
370
-3
390
F
  0
LAYER
  5
1FC
100
AcDbSymbolTableRecord
100
AcDbLayerTableRecord
  2
DEFAULT_3
 70
0
 62
7
  6
PHANTOM
370
-3
390
F
  0
LAYER
  5
1FD
100
AcDbSymbolTableRecord
100
AcDbLayerTableRecord
  2
B-ACHSEN
 70
0
 62
7
  6
CONTINUOUS
370
-3
390
F
  0
LAYER
  5
1FE
100
AcDbSymbolTableRecord
100
AcDbLayerTableRecord
  2
B-EBENEN
 70
0
 62
7
  6
CONTINUOUS
370
-3
390
F
  0
LAYER
  5
1FF
100
AcDbSymbolTableRecord
100
AcDbLayerTableRecord
  2
B-KOORSYS
 70
0
 62
7
  6
CONTINUOUS
370
-3
390
F
  0
LAYER
  5
200
100
AcDbSymbolTableRecord
100
AcDbLayerTableRecord
  2
B-KURVEN
 70
0
 62
7
  6
CONTINUOUS
370
-3
390
F
  0
LAYER
  5
201
100
AcDbSymbolTableRecord
100
AcDbLayerTableRecord
  2
BEMASSUNG
 70
0
 62
7
  6
CONTINUOUS
370
-3
390
F
  0
LAYER
  5
202
100
AcDbSymbolTableRecord
100
AcDbLayerTableRecord
  2
BEZUGSACHSEN
 70
0
 62
7
  6
CONTINUOUS
370
-3
390
F
  0
LAYER
  5
203
100
AcDbSymbolTableRecord
100
AcDbLayerTableRecord
  2
BEZUGSEBENEN
 70
0
 62
7
  6
CONTINUOUS
370
-3
390
F
  0
LAYER
  5
204
100
AcDbSymbolTableRecord
100
AcDbLayerTableRecord
  2
BEZUGSPUNKTE
 70
0
 62
7
  6
CONTINUOUS
370
-3
390
F
  0
LAYER
  5
205
100
AcDbSymbolTableRecord
100
AcDbLayerTableRecord
  2
BOHRUNGEN
 70
0
 62
7
  6
CONTINUOUS
370
-3
390
F
  0
LAYER
  5
206
100
AcDbSymbolTableRecord
100
AcDbLayerTableRecord
  2
FLAECHEN
 70
0
 62
7
  6
CONTINUOUS
370
-3
390
F
  0
LAYER
  5
207
100
AcDbSymbolTableRecord
100
AcDbLayerTableRecord
  2
FLAECHENVERBUND
 70
0
 62
7
  6
CONTINUOUS
370
-3
390
F
  0
LAYER
  5
208
100
AcDbSymbolTableRecord
100
AcDbLayerTableRecord
  2
KURVEN
 70
0
 62
7
  6
CONTINUOUS
370
-3
390
F
  0
LAYER
  5
209
100
AcDbSymbolTableRecord
100
AcDbLayerTableRecord
  2
KURVENELEMENTE
 70
0
 62
7
  6
CONTINUOUS
370
-3
390
F
  0
LAYER
  5
20A
100
AcDbSymbolTableRecord
100
AcDbLayerTableRecord
  2
NOTIZEN
 70
0
 62
7
  6
CONTINUOUS
370
-3
390
F
  0
LAYER
  5
20B
100
AcDbSymbolTableRecord
100
AcDbLayerTableRecord
  2
RUNDUNGEN
 70
0
 62
7
  6
CONTINUOUS
370
-3
390
F
  0
LAYER
  5
20C
100
AcDbSymbolTableRecord
100
AcDbLayerTableRecord
  2
VERBUNDFLAECHEN
 70
0
 62
7
  6
CONTINUOUS
370
-3
390
F
  0
LAYER
  5
20D
100
AcDbSymbolTableRecord
100
AcDbLayerTableRecord
  2
ZEICHNUNGSBEMASSUNGEN
 70
0
 62
7
  6
CONTINUOUS
370
-3
390
F
  0
ENDTAB
  0
TABLE
  2
STYLE
  5
3
100
AcDbSymbolTable
 70
1
  0
STYLE
  5
11
100
AcDbSymbolTableRecord
100
AcDbTextStyleTableRecord
  2
STANDARD
 70
0
 40
0.0
 41
0.7
 50
0.0
 71
0
 42
0.2
  3
txt
  4

  0
STYLE
  5
20E
100
AcDbSymbolTableRecord
100
AcDbTextStyleTableRecord
  2
TEXTSTYLE_1
 70
0
 40
0.0
 41
0.8
 50
0.0
 71
0
 42
0.2
  3
gdt
  4

  0
ENDTAB
  0
TABLE
  2
VIEW
  5
6
100
AcDbSymbolTable
 70
0
  0
ENDTAB
  0
TABLE
  2
UCS
  5
7
100
AcDbSymbolTable
 70
0
  0
ENDTAB
  0
TABLE
  2
APPID
  5
9
100
AcDbSymbolTable
 70
1
  0
APPID
  5
20F
100
AcDbSymbolTableRecord
100
AcDbRegAppTableRecord
  2
ACAD
 70
0
  0
ENDTAB
  0
TABLE
  2
BLOCK_RECORD
  5
1
100
AcDbSymbolTable
 70
0
  0
BLOCK_RECORD
  5
210
100
AcDbSymbolTableRecord
100
AcDbBlockTableRecord
  2
*Model_Space
  0
BLOCK_RECORD
  5
211
100
AcDbSymbolTableRecord
100
AcDbBlockTableRecord
  2
*Paper_Space
  0
ENDTAB
  0
TABLE
  2
DIMSTYLE
  5
A
100
AcDbSymbolTable
 70
1
100
AcDbDimStyleTable
 71
0
  0
DIMSTYLE
105
212
100
AcDbSymbolTableRecord
100
AcDbDimStyleTableRecord
  2
STANDARD
 70
0
  3

  4

 40
1.0
 41
3.5
 42
0.0625
 43
0.38
 44
0.18
 45
0.0
 46
0.0
 47
0.005
 48
0.005
140
3.5
141
0.09
142
0.0
143
25.4
144
1.0
145
0.0
146
1.0
147
0.09
 71
1.0
 72
0.0
 73
0
 74
0
 75
0
 76
0
 77
1
 78
8
170
0
171
2
172
0
173
0
174
0
175
0
176
0
177
0
178
5
270
2
271
3
272
3
273
2
274
2
275
0
280
0
281
0
282
0
283
1
284
8
285
0
286
0
287
3
288
0
340
11
  0
ENDTAB
  0
ENDSEC
  0
SECTION
  2
BLOCKS
  0
BLOCK
  5
20
100
AcDbEntity
  8
0
100
AcDbBlockBegin
  2
*Model_Space
 70
0
 10
0.0
 20
0.0
 30
0.0
  3
*Model_Space
  1

  0
ENDBLK
  5
21
100
AcDbEntity
  8
0
100
AcDbBlockEnd
  0
BLOCK
  5
1C
100
AcDbEntity
  8
0
100
AcDbBlockBegin
  2
*Paper_Space
 70
0
 10
0.0
 20
0.0
 30
0.0
  3
*Paper_Space
  1

  0
ENDBLK
  5
1D
100
AcDbEntity
  8
0
100
AcDbBlockEnd
  0
ENDSEC
  0
SECTION
  2
ENTITIES
  0
MTEXT
  5
213
100
AcDbEntity
  8
0
100
AcDbMText
 62
5
  6
CONTINUOUS
  7
STANDARD
 71
2
 72
1
 10
173.4524934713
 20
139.2902653053
 30
0.0
 11
0.0
 21
1.0
 31
0.0
 44
0.9
  1
RUD PSA\PINOX STAR M16\P1-2 Pers
 40
2.5
 41
25.3571428571
  0
LINE
  5
214
100
AcDbEntity
  8
0
100
AcDbLine
 62
7
  6
CONTINUOUS
 10
0.0
 20
0.0
 11
0.0
 21
210.0
  0
LINE
  5
215
100
AcDbEntity
  8
0
100
AcDbLine
 62
7
  6
CONTINUOUS
 10
0.0
 20
0.0
 11
297.0
 21
0.0
  0
LINE
  5
216
100
AcDbEntity
  8
0
100
AcDbLine
 62
7
  6
CONTINUOUS
 10
0.0
 20
210.0
 11
297.0
 21
210.0
  0
LINE
  5
217
100
AcDbEntity
  8
0
100
AcDbLine
 62
7
  6
CONTINUOUS
 10
297.0
 20
0.0
 11
297.0
 21
210.0
  0
LINE
  5
218
100
AcDbEntity
  8
B-ACHSEN
100
AcDbLine
 62
7
  6
CONTINUOUS
 10
101.1021048787
 20
74.8873047557
 11
86.5021048787
 21
74.8873047557
  0
LINE
  5
219
100
AcDbEntity
  8
B-ACHSEN
100
AcDbLine
 62
7
  6
CONTINUOUS
 10
101.8021048787
 20
75.5873047557
 11
85.8021048787
 21
75.5873047557
  0
LINE
  5
21A
100
AcDbEntity
  8
0
100
AcDbLine
 62
7
  6
CONTINUOUS
 10
78.1291619179
 20
177.4463612119
 11
77.7309166963
 21
177.1440364418
  0
LINE
  5
21B
100
AcDbEntity
  8
0
100
AcDbLine
 62
7
  6
CONTINUOUS
 10
73.608250364
 20
173.0378471338
 11
73.3485549673
 21
172.8443081257
  0
LINE
  5
21C
100
AcDbEntity
  8
0
100
AcDbLine
 62
7
  6
CONTINUOUS
 10
75.7351647415
 20
175.318946483
 11
75.4531421989
 21
175.1596909269
  0
LINE
  5
21D
100
AcDbEntity
  8
0
100
AcDbLine
 62
7
  6
CONTINUOUS
 10
76.9766038222
 20
174.1527672477
 11
76.6945812796
 21
173.9935116916
  0
LINE
  5
21E
100
AcDbEntity
  8
0
100
AcDbLine
 62
7
  6
CONTINUOUS
 10
73.7220975018
 20
172.631118886
 11
73.9047151748
 21
172.7262510584
  0
LINE
  5
21F
100
AcDbEntity
  8
0
100
AcDbLine
 62
7
  6
CONTINUOUS
 10
77.053682491
 20
173.6304721221
 11
77.2912701586
 21
173.7457748455
  0
LINE
  5
220
100
AcDbEntity
  8
0
100
AcDbLine
 62
7
  6
CONTINUOUS
 10
76.5494865906
 20
173.251453409
 11
76.7870752753
 21
173.3667571385
  0
LINE
  5
221
100
AcDbEntity
  8
0
100
AcDbLine
 62
7
  6
CONTINUOUS
 10
75.8566782853
 20
174.84060419
 11
76.049832095
 21
174.9119550869
  0
LINE
  5
222
100
AcDbEntity
  8
0
100
AcDbLine
 62
7
  6
CONTINUOUS
 10
76.4279740639
 20
173.729796708
 11
76.2348202542
 21
173.6584458112
  0
LINE
  5
223
100
AcDbEntity
  8
B-ACHSEN
100
AcDbLine
 62
7
  6
CONTINUOUS
 10
85.8021048787
 20
75.5873047557
 11
86.5021048787
 21
74.8873047557
  0
LINE
  5
224
100
AcDbEntity
  8
0
100
AcDbLine
 62
7
  6
CONTINUOUS
 10
73.3485549673
 20
172.8443081257
 11
72.4236187543
 21
171.6634215936
  0
LINE
  5
225
100
AcDbEntity
  8
0
100
AcDbLine
 62
7
  6
CONTINUOUS
 10
72.9898560392
 20
171.696250006
 11
73.7220975018
 21
172.631118886
  0
LINE
  5
226
100
AcDbEntity
  8
0
100
AcDbLine
 62
7
  6
CONTINUOUS
 10
74.7271073843
 20
171.8439390771
 11
73.9948659217
 21
170.909070197
  0
LINE
  5
227
100
AcDbEntity
  8
0
100
AcDbLine
 62
7
  6
CONTINUOUS
 10
69.9109720836
 20
167.0705551479
 11
69.7111459269
 21
166.815664974
  0
LINE
  5
228
100
AcDbEntity
  8
0
100
AcDbLine
 62
7
  6
CONTINUOUS
 10
70.1816739249
 20
166.6172845008
 11
70.3572189502
 21
166.8145835621
  0
LINE
  5
229
100
AcDbEntity
  8
0
100
AcDbLine
 62
7
  6
CONTINUOUS
 10
75.4531421989
 20
175.1596909269
 11
75.2309698582
 21
174.939928776
  0
LINE
  5
22A
100
AcDbEntity
  8
0
100
AcDbLine
 62
7
  6
CONTINUOUS
 10
75.5900710696
 20
174.5768892064
 11
75.8566782853
 21
174.84060419
  0
LINE
  5
22B
100
AcDbEntity
  8
0
100
AcDbLine
 62
7
  6
CONTINUOUS
 10
76.4225365104
 20
174.801786199
 11
76.6891437261
 21
175.0655011825
  0
LINE
  5
22C
100
AcDbEntity
  8
0
100
AcDbLine
 62
7
  6
CONTINUOUS
 10
76.6945812796
 20
173.9935116916
 11
76.4279740639
 21
173.729796708
  0
LINE
  5
22D
100
AcDbEntity
  8
0
100
AcDbLine
 62
7
  6
CONTINUOUS
 10
76.7870752753
 20
173.3667571385
 11
77.053682491
 21
173.6304721221
  0
LINE
  5
22E
100
AcDbEntity
  8
0
100
AcDbLine
 62
7
  6
CONTINUOUS
 10
76.821531276
 20
172.4431789864
 11
76.5549240603
 21
172.1794640029
  0
LINE
  5
22F
100
AcDbEntity
  8
0
100
AcDbLine
 62
7
  6
CONTINUOUS
 10
77.9514356453
 20
172.7228730711
 11
77.5959586797
 21
172.3712524224
  0
LINE
  5
230
100
AcDbEntity
  8
0
100
AcDbLine
 62
7
  6
CONTINUOUS
 10
77.9550599331
 20
172.0082128105
 11
78.3105368986
 21
172.3598334592
  0
LINE
  5
231
100
AcDbEntity
  8
0
100
AcDbLine
 62
7
  6
CONTINUOUS
 10
79.9733121822
 20
175.5339330054
 11
79.0772595792
 21
174.8537016238
  0
LINE
  5
232
100
AcDbEntity
  8
0
100
AcDbLine
 62
7
  6
CONTINUOUS
 10
79.2333179518
 20
174.5447656591
 11
80.2289315754
 21
175.300578017
  0
LINE
  5
233
100
AcDbEntity
  8
0
100
AcDbLine
 62
7
  6
CONTINUOUS
 10
79.3530255819
 20
173.3534212256
 11
79.6517097829
 21
173.5801650195
  0
LINE
  5
234
100
AcDbEntity
  8
0
100
AcDbLine
 62
7
  6
CONTINUOUS
 10
81.0455697674
 20
174.6383030126
 11
81.3442539685
 21
174.8650468064
  0
LINE
  5
235
100
AcDbEntity
  8
0
100
AcDbLine
 62
7
  6
CONTINUOUS
 10
70.1649384419
 20
167.234790797
 11
69.9109720836
 21
167.0705551479
  0
LINE
  5
236
100
AcDbEntity
  8
0
100
AcDbLine
 62
7
  6
CONTINUOUS
 10
77.6730373852
 20
171.8489572597
 11
77.9550599331
 21
172.0082128105
  0
LINE
  5
237
100
AcDbEntity
  8
0
100
AcDbLine
 62
7
  6
CONTINUOUS
 10
77.5959586797
 20
172.3712524224
 11
77.3583710121
 21
172.2559496989
  0
LINE
  5
238
100
AcDbEntity
  8
0
100
AcDbLine
 62
7
  6
CONTINUOUS
 10
70.3572189502
 20
166.8145835621
 11
70.5869044549
 21
166.9212287575
  0
LINE
  5
239
100
AcDbEntity
  8
0
100
AcDbLine
 62
7
  6
CONTINUOUS
 10
69.7111459269
 20
166.815664974
 11
69.1284032174
 21
165.4334888149
  0
LINE
  5
23A
100
AcDbEntity
  8
0
100
AcDbLine
 62
7
  6
CONTINUOUS
 10
69.7446168928
 20
165.5806523815
 11
70.1816739249
 21
166.6172845008
  0
LINE
  5
23B
100
AcDbEntity
  8
0
100
AcDbLine
 62
7
  6
CONTINUOUS
 10
67.9950028792
 20
160.7445710945
 11
67.8661169382
 21
160.4474384707
  0
LINE
  5
23C
100
AcDbEntity
  8
0
100
AcDbLine
 62
7
  6
CONTINUOUS
 10
75.2309698582
 20
174.939928776
 11
75.1130815773
 21
174.7036118567
  0
LINE
  5
23D
100
AcDbEntity
  8
0
100
AcDbLine
 62
7
  6
CONTINUOUS
 10
68.2962128549
 20
160.4484931904
 11
68.4072376426
 21
160.6219084181
  0
LINE
  5
23E
100
AcDbEntity
  8
0
100
AcDbLine
 62
7
  6
CONTINUOUS
 10
71.8314402799
 20
162.3330744951
 11
71.6827814932
 21
162.1148004915
  0
LINE
  5
23F
100
AcDbEntity
  8
0
100
AcDbLine
 62
7
  6
CONTINUOUS
 10
74.3968697996
 20
170.5941983323
 11
75.0905719594
 21
171.4798632314
  0
LINE
  5
240
100
AcDbEntity
  8
0
100
AcDbLine
 62
7
  6
CONTINUOUS
 10
75.5726495068
 20
169.1969250256
 11
75.8038835601
 21
169.4921466586
  0
LINE
  5
241
100
AcDbEntity
  8
0
100
AcDbLine
 62
7
  6
CONTINUOUS
 10
71.9276045666
 20
161.7228724404
 11
72.1582914074
 21
161.9184639215
  0
LINE
  5
242
100
AcDbEntity
  8
0
100
AcDbLine
 62
7
  6
CONTINUOUS
 10
68.2834243719
 20
160.9555233759
 11
67.9950028792
 21
160.7445710945
  0
LINE
  5
243
100
AcDbEntity
  8
0
100
AcDbLine
 62
7
  6
CONTINUOUS
 10
71.6827814932
 20
162.1148004915
 11
71.4687523765
 21
161.9794484089
  0
LINE
  5
244
100
AcDbEntity
  8
0
100
AcDbLine
 62
7
  6
CONTINUOUS
 10
68.4072376426
 20
160.6219084181
 11
68.593564937
 21
160.7213042583
  0
LINE
  5
245
100
AcDbEntity
  8
0
100
AcDbLine
 62
7
  6
CONTINUOUS
 10
71.5328619392
 20
161.5726470286
 11
71.9276045666
 21
161.7228724404
  0
LINE
  5
246
100
AcDbEntity
  8
0
100
AcDbLine
 62
7
  6
CONTINUOUS
 10
68.6471483713
 20
161.0924562697
 11
68.2834243719
 21
160.9555233759
  0
LINE
  5
247
100
AcDbEntity
  8
0
100
AcDbLine
 62
7
  6
CONTINUOUS
 10
111.5753065866
 20
174.311086051
 11
111.8467053113
 21
174.3956772825
  0
LINE
  5
248
100
AcDbEntity
  8
0
100
AcDbLine
 62
7
  6
CONTINUOUS
 10
68.8014490753
 20
164.4678576207
 11
68.701502706
 21
164.1064219788
  0
LINE
  5
249
100
AcDbEntity
  8
0
100
AcDbLine
 62
7
  6
CONTINUOUS
 10
68.3017172287
 20
162.6606794111
 11
68.2017708117
 21
162.2992435968
  0
LINE
  5
24A
100
AcDbEntity
  8
0
100
AcDbLine
 62
7
  6
CONTINUOUS
 10
75.5166176637
 20
174.3845251197
 11
75.5900710696
 21
174.5768892064
  0
LINE
  5
24B
100
AcDbEntity
  8
0
100
AcDbLine
 62
7
  6
CONTINUOUS
 10
75.0905719594
 20
171.4798632314
 11
75.2162660634
 21
171.7783595277
  0
LINE
  5
24C
100
AcDbEntity
  8
0
100
AcDbLine
 62
7
  6
CONTINUOUS
 10
72.9264209647
 20
165.4600649118
 11
72.4893639326
 21
164.4234327925
  0
LINE
  5
24D
100
AcDbEntity
  8
0
100
AcDbLine
 62
7
  6
CONTINUOUS
 10
72.8142063082
 20
163.8795082564
 11
73.3969490176
 21
165.2616844154
  0
LINE
  5
24E
100
AcDbEntity
  8
0
100
AcDbLine
 62
7
  6
CONTINUOUS
 10
78.0693229091
 20
172.9591889844
 11
77.9514356453
 21
172.7228730711
  0
LINE
  5
24F
100
AcDbEntity
  8
0
100
AcDbLine
 62
7
  6
CONTINUOUS
 10
78.3105368986
 20
172.3598334592
 11
78.4728590322
 21
172.6401022104
  0
LINE
  5
250
100
AcDbEntity
  8
0
100
AcDbLine
 62
7
  6
CONTINUOUS
 10
72.1582914074
 20
161.9184639215
 11
72.3236079613
 21
162.1969773116
  0
LINE
  5
251
100
AcDbEntity
  8
0
100
AcDbLine
 62
7
  6
CONTINUOUS
 10
111.7127395121
 20
174.7851006298
 11
111.3795018606
 21
174.6420371721
  0
LINE
  5
252
100
AcDbEntity
  8
0
100
AcDbLine
 62
7
  6
CONTINUOUS
 10
111.2694644466
 20
171.7854806267
 11
110.9980658951
 21
171.700889559
  0
LINE
  5
253
100
AcDbEntity
  8
0
100
AcDbLine
 62
7
  6
CONTINUOUS
 10
67.8661169382
 20
160.4474384707
 11
67.651783201
 21
158.962830425
  0
LINE
  5
254
100
AcDbEntity
  8
0
100
AcDbLine
 62
7
  6
CONTINUOUS
 10
68.1265319881
 20
159.2731785466
 11
68.2962128549
 21
160.4484931904
  0
LINE
  5
255
100
AcDbEntity
  8
0
100
AcDbLine
 62
7
  6
CONTINUOUS
 10
69.5597091493
 20
160.2660814868
 11
69.3900282825
 21
159.090766843
  0
LINE
  5
256
100
AcDbEntity
  8
0
100
AcDbLine
 62
7
  6
CONTINUOUS
 10
69.8954267058
 20
159.0178021752
 11
70.0472464321
 21
160.0693995114
  0
LINE
  5
257
100
AcDbEntity
  8
0
100
AcDbLine
 62
7
  6
CONTINUOUS
 10
75.1130815773
 20
174.7036118567
 11
75.0550434983
 21
174.4067883424
  0
LINE
  5
258
100
AcDbEntity
  8
0
100
AcDbLine
 62
7
  6
CONTINUOUS
 10
74.7757237646
 20
172.0440285377
 11
74.7271073843
 21
171.8439390771
  0
LINE
  5
259
100
AcDbEntity
  8
0
100
AcDbLine
 62
7
  6
CONTINUOUS
 10
71.8980712245
 20
162.5740317046
 11
71.8314402799
 21
162.3330744951
  0
LINE
  5
25A
100
AcDbEntity
  8
0
100
AcDbLine
 62
7
  6
CONTINUOUS
 10
72.3236079613
 20
162.1969773116
 11
72.390238906
 21
162.4379345211
  0
LINE
  5
25B
100
AcDbEntity
  8
0
100
AcDbLine
 62
7
  6
CONTINUOUS
 10
111.132031651
 20
171.3114661707
 11
111.4652695916
 21
171.4545294096
  0
LINE
  5
25C
100
AcDbEntity
  8
0
100
AcDbLine
 62
7
  6
CONTINUOUS
 10
72.390238906
 20
162.4379345211
 11
72.3914995708
 21
162.7618136378
  0
LINE
  5
25D
100
AcDbEntity
  8
0
100
AcDbLine
 62
7
  6
CONTINUOUS
 10
72.9451233239
 20
165.7234907975
 11
72.9264209647
 21
165.4600649118
  0
LINE
  5
25E
100
AcDbEntity
  8
0
100
AcDbLine
 62
7
  6
CONTINUOUS
 10
73.3969490176
 20
165.2616844154
 11
73.4399325015
 21
165.5827014167
  0
LINE
  5
25F
100
AcDbEntity
  8
0
100
AcDbLine
 62
7
  6
CONTINUOUS
 10
71.6107379893
 20
158.3912737924
 11
71.6643214236
 21
158.7624258038
  0
LINE
  5
260
100
AcDbEntity
  8
0
100
AcDbLine
 62
7
  6
CONTINUOUS
 10
71.8875857247
 20
160.308892459
 11
71.9500997484
 21
160.7419032569
  0
LINE
  5
261
100
AcDbEntity
  8
0
100
AcDbLine
 62
7
  6
CONTINUOUS
 10
78.4728590322
 20
172.6401022104
 11
78.5308970954
 21
172.9369257405
  0
LINE
  5
262
100
AcDbEntity
  8
0
100
AcDbLine
 62
7
  6
CONTINUOUS
 10
111.3795018606
 20
174.6420371721
 11
111.0273654385
 21
174.3950882392
  0
LINE
  5
263
100
AcDbEntity
  8
0
100
AcDbLine
 62
7
  6
CONTINUOUS
 10
111.4652695916
 20
171.4545294096
 11
111.8174055947
 21
171.7014784385
  0
LINE
  5
264
100
AcDbEntity
  8
0
100
AcDbLine
 62
7
  6
CONTINUOUS
 10
111.2850094378
 20
174.122609672
 11
111.5753065866
 21
174.311086051
  0
LINE
  5
265
100
AcDbEntity
  8
0
100
AcDbLine
 62
7
  6
CONTINUOUS
 10
111.5597615954
 20
171.9739570057
 11
111.2694644466
 21
171.7854806267
  0
LINE
  5
266
100
AcDbEntity
  8
0
100
AcDbLine
 62
7
  6
CONTINUOUS
 10
117.179960781
 20
166.1445745881
 11
116.8610158989
 21
166.0255626572
  0
LINE
  5
267
100
AcDbEntity
  8
0
100
AcDbLine
 62
7
  6
CONTINUOUS
 10
117.0718510674
 20
165.7039781016
 11
117.2313233968
 21
165.7634840254
  0
LINE
  5
268
100
AcDbEntity
  8
0
100
AcDbLine
 62
7
  6
CONTINUOUS
 10
116.1172965057
 20
163.8801867355
 11
115.8780880117
 21
163.7909278499
  0
LINE
  5
269
100
AcDbEntity
  8
0
100
AcDbLine
 62
7
  6
CONTINUOUS
 10
71.8826742319
 20
162.8376717753
 11
71.8980712245
 21
162.5740317046
  0
LINE
  5
26A
100
AcDbEntity
  8
0
100
AcDbLine
 62
7
  6
CONTINUOUS
 10
75.5030144597
 20
174.1316544381
 11
75.5166176637
 21
174.3845251197
  0
LINE
  5
26B
100
AcDbEntity
  8
0
100
AcDbLine
 62
7
  6
CONTINUOUS
 10
78.0829260712
 20
173.2120597084
 11
78.0693229091
 21
172.9591889844
  0
LINE
  5
26C
100
AcDbEntity
  8
0
100
AcDbLine
 62
7
  6
CONTINUOUS
 10
111.0273654385
 20
174.3950882392
 11
110.0997788506
 21
173.5180023067
  0
LINE
  5
26D
100
AcDbEntity
  8
0
100
AcDbLine
 62
7
  6
CONTINUOUS
 10
110.3574228499
 20
173.2455237394
 11
111.2850094378
 21
174.122609672
  0
LINE
  5
26E
100
AcDbEntity
  8
0
100
AcDbLine
 62
7
  6
CONTINUOUS
 10
115.2804791565
 20
165.6359250989
 11
114.9833844984
 21
165.4583565517
  0
LINE
  5
26F
100
AcDbEntity
  8
0
100
AcDbLine
 62
7
  6
CONTINUOUS
 10
116.8610158989
 20
166.0255626572
 11
116.5639212409
 21
165.8479941101
  0
LINE
  5
270
100
AcDbEntity
  8
0
100
AcDbLine
 62
7
  6
CONTINUOUS
 10
115.9294508509
 20
163.4098373706
 11
116.3281316743
 21
163.5586021799
  0
LINE
  5
271
100
AcDbEntity
  8
B-ACHSEN
100
AcDbLine
 62
7
  6
CONTINUOUS
 10
75.516390593
 20
131.3039714223
 11
76.3021048787
 21
124.8873047557
  0
LINE
  5
272
100
AcDbEntity
  8
0
100
AcDbLine
 62
7
  6
CONTINUOUS
 10
108.2828513362
 20
178.2826384659
 11
106.0525435353
 21
174.9621374324
  0
LINE
  5
273
100
AcDbEntity
  8
0
100
AcDbLine
 62
7
  6
CONTINUOUS
 10
106.3638405072
 20
174.7530460761
 11
108.5941483081
 21
178.0735471095
  0
LINE
  5
274
100
AcDbEntity
  8
0
100
AcDbLine
 62
7
  6
CONTINUOUS
 10
110.0997788506
 20
173.5180023067
 11
109.8335240986
 21
173.1802271753
  0
LINE
  5
275
100
AcDbEntity
  8
0
100
AcDbLine
 62
7
  6
CONTINUOUS
 10
109.3050482223
 20
177.6071951352
 11
106.7944114742
 21
174.4932421621
  0
LINE
  5
276
100
AcDbEntity
  8
0
100
AcDbLine
 62
7
  6
CONTINUOUS
 10
107.0863445655
 20
174.2578699669
 11
109.2764745328
 21
176.974297076
  0
LINE
  5
277
100
AcDbEntity
  8
0
100
AcDbLine
 62
7
  6
CONTINUOUS
 10
110.9593357625
 20
176.2734193441
 11
108.8226236293
 21
173.6232465921
  0
LINE
  5
278
100
AcDbEntity
  8
0
100
AcDbLine
 62
7
  6
CONTINUOUS
 10
108.7406321056
 20
172.9240941758
 11
111.2512688537
 21
176.038047149
  0
LINE
  5
279
100
AcDbEntity
  8
0
100
AcDbLine
 62
7
  6
CONTINUOUS
 10
112.4873481833
 20
172.8510429383
 11
111.5597615954
 21
171.9739570057
  0
LINE
  5
27A
100
AcDbEntity
  8
0
100
AcDbLine
 62
7
  6
CONTINUOUS
 10
111.8174055947
 20
171.7014784385
 11
112.7449921827
 21
172.578564371
  0
LINE
  5
27B
100
AcDbEntity
  8
0
100
AcDbLine
 62
7
  6
CONTINUOUS
 10
115.194219667
 20
165.1367719961
 11
115.4115781603
 21
165.2845875814
  0
LINE
  5
27C
100
AcDbEntity
  8
0
100
AcDbLine
 62
7
  6
CONTINUOUS
 10
116.8544925741
 20
165.5561625164
 11
117.0718510674
 21
165.7039781016
  0
LINE
  5
27D
100
AcDbEntity
  8
0
100
AcDbLine
 62
7
  6
CONTINUOUS
 10
117.8573058009
 20
164.329330301
 11
118.0746642942
 21
164.4771458862
  0
LINE
  5
27E
100
AcDbEntity
  8
0
100
AcDbLine
 62
7
  6
CONTINUOUS
 10
116.0682885467
 20
157.3049460018
 11
119.9522087308
 21
158.6888408524
  0
LINE
  5
27F
100
AcDbEntity
  8
0
100
AcDbLine
 62
7
  6
CONTINUOUS
 10
117.0240108782
 20
158.0262131514
 11
116.0318549304
 21
157.6781719275
  0
LINE
  5
280
100
AcDbEntity
  8
0
100
AcDbLine
 62
7
  6
CONTINUOUS
 10
119.5891046226
 20
158.9045841261
 11
117.3567535468
 21
158.1214924315
  0
LINE
  5
281
100
AcDbEntity
  8
B-ACHSEN
100
AcDbLine
 62
7
  6
CONTINUOUS
 10
101.8021048787
 20
118.2173047557
 11
85.8021048787
 21
118.2173047557
  0
LINE
  5
282
100
AcDbEntity
  8
0
100
AcDbLine
 62
7
  6
CONTINUOUS
 10
69.5022677958
 20
160.4638182705
 11
69.5597091493
 21
160.2660814868
  0
LINE
  5
283
100
AcDbEntity
  8
0
100
AcDbLine
 62
7
  6
CONTINUOUS
 10
73.4399325015
 20
165.5827014167
 11
73.3802135072
 21
165.8791907232
  0
LINE
  5
284
100
AcDbEntity
  8
0
100
AcDbLine
 62
7
  6
CONTINUOUS
 10
75.2162660634
 20
171.7783595277
 11
75.169420454
 21
172.1326102575
  0
LINE
  5
285
100
AcDbEntity
  8
RUNDUNGEN
100
AcDbLine
 62
7
  6
CONTINUOUS
 10
81.8021048787
 20
181.8873047557
 11
81.8021048787
 21
179.3873047557
  0
LINE
  5
286
100
AcDbEntity
  8
0
100
AcDbLine
 62
7
  6
CONTINUOUS
 10
85.0521048787
 20
133.6426239934
 11
85.0521048787
 21
132.791559967
  0
LINE
  5
287
100
AcDbEntity
  8
0
100
AcDbLine
 62
7
  6
CONTINUOUS
 10
85.5521048787
 20
133.5362410273
 11
85.5521048787
 21
129.3873047557
  0
LINE
  5
288
100
AcDbEntity
  8
0
100
AcDbLine
 62
7
  6
CONTINUOUS
 10
110.153007198
 20
172.9662209981
 11
110.3574228499
 21
173.2455237394
  0
LINE
  5
289
100
AcDbEntity
  8
0
100
AcDbLine
 62
7
  6
CONTINUOUS
 10
112.6917638352
 20
173.1303456796
 11
112.4873481833
 21
172.8510429383
  0
LINE
  5
28A
100
AcDbEntity
  8
0
100
AcDbLine
 62
7
  6
CONTINUOUS
 10
112.7449921827
 20
172.578564371
 11
113.0112473536
 21
172.9163394064
  0
LINE
  5
28B
100
AcDbEntity
  8
0
100
AcDbLine
 62
7
  6
CONTINUOUS
 10
114.9833844984
 20
165.4583565517
 11
114.6502530932
 21
165.1339229524
  0
LINE
  5
28C
100
AcDbEntity
  8
0
100
AcDbLine
 62
7
  6
CONTINUOUS
 10
116.3281316743
 20
163.5586021799
 11
116.6033769434
 21
163.7947261281
  0
LINE
  5
28D
100
AcDbEntity
  8
0
100
AcDbLine
 62
7
  6
CONTINUOUS
 10
117.8638291257
 20
164.7987304419
 11
117.726206797
 21
164.6806678185
  0
LINE
  5
28E
100
AcDbEntity
  8
0
100
AcDbLine
 62
7
  6
CONTINUOUS
 10
69.9323637381
 20
160.4648731672
 11
69.799619878
 21
160.7366293384
  0
LINE
  5
28F
100
AcDbEntity
  8
0
100
AcDbLine
 62
7
  6
CONTINUOUS
 10
72.8611234417
 20
165.9623896649
 11
72.9451233239
 21
165.7234907975
  0
LINE
  5
290
100
AcDbEntity
  8
0
100
AcDbLine
 62
7
  6
CONTINUOUS
 10
72.3914995708
 20
162.7618136378
 11
72.2940746192
 21
163.0481365758
  0
LINE
  5
291
100
AcDbEntity
  8
0
100
AcDbLine
 62
7
  6
CONTINUOUS
 10
75.0550434983
 20
174.4067883424
 11
75.1167068402
 21
173.9889526444
  0
LINE
  5
292
100
AcDbEntity
  8
0
100
AcDbLine
 62
7
  6
CONTINUOUS
 10
78.5308970954
 20
172.9369257405
 11
78.4692337326
 21
173.3547614598
  0
LINE
  5
293
100
AcDbEntity
  8
B-ACHSEN
100
AcDbLine
 62
7
  6
CONTINUOUS
 10
85.8021048787
 20
118.2173047557
 11
85.8021048787
 21
75.5873047557
  0
LINE
  5
294
100
AcDbEntity
  8
0
100
AcDbLine
 62
7
  6
CONTINUOUS
 10
86.0521048787
 20
129.3873047557
 11
86.0521048787
 21
134.3873047557
  0
LINE
  5
295
100
AcDbEntity
  8
0
100
AcDbLine
 62
7
  6
CONTINUOUS
 10
86.7187715056
 20
131.7277303066
 11
86.7187715056
 21
131.1958153274
  0
LINE
  5
296
100
AcDbEntity
  8
0
100
AcDbLine
 62
7
  6
CONTINUOUS
 10
87.8854381325
 20
131.1958153274
 11
87.8854381325
 21
131.7277303066
  0
LINE
  5
297
100
AcDbEntity
  8
0
100
AcDbLine
 62
7
  6
CONTINUOUS
 10
88.5521048787
 20
129.9192196604
 11
88.5521048787
 21
129.3873047557
  0
LINE
  5
298
100
AcDbEntity
  8
0
100
AcDbLine
 62
7
  6
CONTINUOUS
 10
88.7187716248
 20
133.6426239934
 11
88.6354381325
 21
133.2170921292
  0
LINE
  5
299
100
AcDbEntity
  8
0
100
AcDbLine
 62
7
  6
CONTINUOUS
 10
89.0521048787
 20
133.2170921292
 11
89.2187713864
 21
133.5362410273
  0
LINE
  5
29A
100
AcDbEntity
  8
0
100
AcDbLine
 62
7
  6
CONTINUOUS
 10
85.5521048787
 20
134.3873047557
 11
85.0521048787
 21
133.6426239934
  0
LINE
  5
29B
100
AcDbEntity
  8
0
100
AcDbLine
 62
7
  6
CONTINUOUS
 10
85.0521048787
 20
132.791559967
 11
85.5521048787
 21
133.5362410273
  0
LINE
  5
29C
100
AcDbEntity
  8
0
100
AcDbLine
 62
7
  6
CONTINUOUS
 10
89.0521048787
 20
134.0681558575
 11
88.7187716248
 21
133.6426239934
  0
LINE
  5
29D
100
AcDbEntity
  8
0
100
AcDbLine
 62
7
  6
CONTINUOUS
 10
116.3128056102
 20
164.0865577219
 11
116.1172965057
 21
163.8801867355
  0
LINE
  5
29E
100
AcDbEntity
  8
0
100
AcDbLine
 62
7
  6
CONTINUOUS
 10
89.2187713864
 20
133.5362410273
 11
89.4687713864
 21
133.7490069594
  0
LINE
  5
29F
100
AcDbEntity
  8
0
100
AcDbLine
 62
7
  6
CONTINUOUS
 10
119.5064386915
 20
154.9318411658
 11
119.331990294
 21
154.8128242923
  0
LINE
  5
2A0
100
AcDbEntity
  8
0
100
AcDbLine
 62
7
  6
CONTINUOUS
 10
89.3854383709
 20
134.2809217896
 11
89.0521048787
 21
134.0681558575
  0
LINE
  5
2A1
100
AcDbEntity
  8
0
100
AcDbLine
 62
7
  6
CONTINUOUS
 10
119.3189756686
 20
154.438050201
 11
119.6657033924
 21
154.6136225526
  0
LINE
  5
2A2
100
AcDbEntity
  8
0
100
AcDbLine
 62
7
  6
CONTINUOUS
 10
101.768771291
 20
129.8873047557
 11
102.168771291
 21
129.9724111359
  0
LINE
  5
2A3
100
AcDbEntity
  8
B-ACHSEN
100
AcDbLine
 62
7
  6
CONTINUOUS
 10
111.3021048787
 20
124.8873047557
 11
76.3021048787
 21
124.8873047557
  0
LINE
  5
2A4
100
AcDbEntity
  8
0
100
AcDbLine
 62
7
  6
CONTINUOUS
 10
71.7685914844
 20
163.0637553347
 11
71.8826742319
 21
162.8376717753
  0
LINE
  5
2A5
100
AcDbEntity
  8
0
100
AcDbLine
 62
7
  6
CONTINUOUS
 10
74.7188001957
 20
172.2473926616
 11
74.7757237646
 21
172.0440285377
  0
LINE
  5
2A6
100
AcDbEntity
  8
0
100
AcDbLine
 62
7
  6
CONTINUOUS
 10
91.0521048787
 20
133.2170921292
 11
91.0521048787
 21
133.0043258991
  0
LINE
  5
2A7
100
AcDbEntity
  8
0
100
AcDbLine
 62
7
  6
CONTINUOUS
 10
91.5521048787
 20
129.3873047557
 11
91.5521048787
 21
129.9192196604
  0
LINE
  5
2A8
100
AcDbEntity
  8
0
100
AcDbLine
 62
7
  6
CONTINUOUS
 10
91.5521048787
 20
133.0043258991
 11
91.5521048787
 21
133.2170921292
  0
LINE
  5
2A9
100
AcDbEntity
  8
0
100
AcDbLine
 62
7
  6
CONTINUOUS
 10
93.0354377034
 20
133.8873047557
 11
93.0354377034
 21
129.8873047557
  0
LINE
  5
2AA
100
AcDbEntity
  8
0
100
AcDbLine
 62
7
  6
CONTINUOUS
 10
93.4354377034
 20
129.8873047557
 11
93.4354377034
 21
131.6745388236
  0
LINE
  5
2AB
100
AcDbEntity
  8
0
100
AcDbLine
 62
7
  6
CONTINUOUS
 10
93.4354377034
 20
132.1851770606
 11
93.4354377034
 21
133.4617728915
  0
LINE
  5
2AC
100
AcDbEntity
  8
0
100
AcDbLine
 62
7
  6
CONTINUOUS
 10
91.4687713864
 20
132.5787940349
 11
91.5521048787
 21
133.0043258991
  0
LINE
  5
2AD
100
AcDbEntity
  8
B-ACHSEN
100
AcDbLine
 62
7
  6
CONTINUOUS
 10
87.1982991639
 20
122.8231452347
 11
85.8021048787
 21
118.2173047557
  0
LINE
  5
2AE
100
AcDbEntity
  8
0
100
AcDbLine
 62
7
  6
CONTINUOUS
 10
91.0521048787
 20
133.0043258991
 11
90.8854383709
 21
132.5787940349
  0
LINE
  5
2AF
100
AcDbEntity
  8
0
100
AcDbLine
 62
7
  6
CONTINUOUS
 10
109.8335240986
 20
173.1802271753
 11
109.6720489061
 21
172.8555114717
  0
LINE
  5
2B0
100
AcDbEntity
  8
0
100
AcDbLine
 62
7
  6
CONTINUOUS
 10
113.0112473536
 20
172.9163394064
 11
113.172722257
 21
173.2410553288
  0
LINE
  5
2B1
100
AcDbEntity
  8
0
100
AcDbLine
 62
7
  6
CONTINUOUS
 10
112.606274045
 20
168.3467454478
 11
113.6459956213
 21
170.4009872348
  0
LINE
  5
2B2
100
AcDbEntity
  8
0
100
AcDbLine
 62
7
  6
CONTINUOUS
 10
91.3021048787
 20
132.2596451368
 11
91.4687713864
 21
132.5787940349
  0
LINE
  5
2B3
100
AcDbEntity
  8
0
100
AcDbLine
 62
7
  6
CONTINUOUS
 10
115.020560619
 20
164.8718443309
 11
115.194219667
 21
165.1367719961
  0
LINE
  5
2B4
100
AcDbEntity
  8
0
100
AcDbLine
 62
7
  6
CONTINUOUS
 10
118.0746642942
 20
164.4771458862
 11
118.328059451
 21
164.7718264924
  0
LINE
  5
2B5
100
AcDbEntity
  8
0
100
AcDbLine
 62
7
  6
CONTINUOUS
 10
90.8854383709
 20
132.5787940349
 11
88.5521048787
 21
129.9192196604
  0
LINE
  5
2B6
100
AcDbEntity
  8
0
100
AcDbLine
 62
7
  6
CONTINUOUS
 10
89.2187713864
 20
129.9192196604
 11
91.3021048787
 21
132.2596451368
  0
LINE
  5
2B7
100
AcDbEntity
  8
0
100
AcDbLine
 62
7
  6
CONTINUOUS
 10
94.9021043065
 20
132.2702834334
 11
94.7021043065
 21
132.1851770606
  0
LINE
  5
2B8
100
AcDbEntity
  8
0
100
AcDbLine
 62
7
  6
CONTINUOUS
 10
99.9021041157
 20
132.6107089247
 11
99.568771291
 21
132.5256025519
  0
LINE
  5
2B9
100
AcDbEntity
  8
0
100
AcDbLine
 62
7
  6
CONTINUOUS
 10
94.6354377034
 20
131.6745388236
 11
94.9687711003
 21
131.7596451964
  0
LINE
  5
2BA
100
AcDbEntity
  8
0
100
AcDbLine
 62
7
  6
CONTINUOUS
 10
99.5021041157
 20
132.1000706877
 11
99.9021041157
 21
132.1851770606
  0
LINE
  5
2BB
100
AcDbEntity
  8
0
100
AcDbLine
 62
7
  6
CONTINUOUS
 10
101.2354377034
 20
132.6107089247
 11
100.8354377034
 21
132.5256025519
  0
LINE
  5
2BC
100
AcDbEntity
  8
0
100
AcDbLine
 62
7
  6
CONTINUOUS
 10
97.1687709096
 20
132.6107089247
 11
96.7687709096
 21
132.5256025519
  0
LINE
  5
2BD
100
AcDbEntity
  8
0
100
AcDbLine
 62
7
  6
CONTINUOUS
 10
97.1687709096
 20
129.8873047557
 11
97.6354377034
 21
129.9724111359
  0
LINE
  5
2BE
100
AcDbEntity
  8
0
100
AcDbLine
 62
7
  6
CONTINUOUS
 10
97.5687709096
 20
130.3128366794
 11
97.1021044972
 21
130.2277302768
  0
LINE
  5
2BF
100
AcDbEntity
  8
0
100
AcDbLine
 62
7
  6
CONTINUOUS
 10
85.5521048787
 20
129.3873047557
 11
86.0521048787
 21
129.3873047557
  0
LINE
  5
2C0
100
AcDbEntity
  8
0
100
AcDbLine
 62
7
  6
CONTINUOUS
 10
88.5521048787
 20
129.3873047557
 11
91.5521048787
 21
129.3873047557
  0
LINE
  5
2C1
100
AcDbEntity
  8
0
100
AcDbLine
 62
7
  6
CONTINUOUS
 10
93.0354377034
 20
129.8873047557
 11
93.4354377034
 21
129.8873047557
  0
LINE
  5
2C2
100
AcDbEntity
  8
0
100
AcDbLine
 62
7
  6
CONTINUOUS
 10
98.7021044972
 20
129.8873047557
 11
99.0354377034
 21
129.8873047557
  0
LINE
  5
2C3
100
AcDbEntity
  8
0
100
AcDbLine
 62
7
  6
CONTINUOUS
 10
101.368771291
 20
129.8873047557
 11
101.768771291
 21
129.8873047557
  0
LINE
  5
2C4
100
AcDbEntity
  8
0
100
AcDbLine
 62
7
  6
CONTINUOUS
 10
91.5521048787
 20
129.9192196604
 11
89.2187713864
 21
129.9192196604
  0
LINE
  5
2C5
100
AcDbEntity
  8
0
100
AcDbLine
 62
7
  6
CONTINUOUS
 10
101.768771291
 20
130.2277302768
 11
101.368771291
 21
130.2277302768
  0
LINE
  5
2C6
100
AcDbEntity
  8
0
100
AcDbLine
 62
7
  6
CONTINUOUS
 10
100.768771291
 20
130.5681557979
 11
100.4354377034
 21
130.5681557979
  0
LINE
  5
2C7
100
AcDbEntity
  8
0
100
AcDbLine
 62
7
  6
CONTINUOUS
 10
98.1687709096
 20
130.7383686032
 11
97.8354377034
 21
130.7383686032
  0
LINE
  5
2C8
100
AcDbEntity
  8
0
100
AcDbLine
 62
7
  6
CONTINUOUS
 10
86.7187715056
 20
131.1958153274
 11
87.8854381325
 21
131.1958153274
  0
LINE
  5
2C9
100
AcDbEntity
  8
0
100
AcDbLine
 62
7
  6
CONTINUOUS
 10
96.3687709096
 20
131.2490068402
 11
98.1687709096
 21
131.2490068402
  0
LINE
  5
2CA
100
AcDbEntity
  8
0
100
AcDbLine
 62
7
  6
CONTINUOUS
 10
115.6664324128
 20
131.3039714223
 11
104.1029351177
 21
131.3039714223
  0
LINE
  5
2CB
100
AcDbEntity
  8
0
100
AcDbLine
 62
7
  6
CONTINUOUS
 10
83.5012746396
 20
131.3039714223
 11
71.9377773445
 21
131.3039714223
  0
LINE
  5
2CC
100
AcDbEntity
  8
0
100
AcDbLine
 62
7
  6
CONTINUOUS
 10
97.8354377034
 20
131.5894324507
 11
96.4354377034
 21
131.5894324507
  0
LINE
  5
2CD
100
AcDbEntity
  8
0
100
AcDbLine
 62
7
  6
CONTINUOUS
 10
93.4354377034
 20
131.6745388236
 11
94.6354377034
 21
131.6745388236
  0
LINE
  5
2CE
100
AcDbEntity
  8
0
100
AcDbLine
 62
7
  6
CONTINUOUS
 10
87.8854381325
 20
131.7277303066
 11
86.7187715056
 21
131.7277303066
  0
LINE
  5
2CF
100
AcDbEntity
  8
0
100
AcDbLine
 62
7
  6
CONTINUOUS
 10
102.2354377034
 20
131.9298579421
 11
102.568771291
 21
131.9298579421
  0
LINE
  5
2D0
100
AcDbEntity
  8
0
100
AcDbLine
 62
7
  6
CONTINUOUS
 10
94.7021043065
 20
132.1851770606
 11
93.4354377034
 21
132.1851770606
  0
LINE
  5
2D1
100
AcDbEntity
  8
0
100
AcDbLine
 62
7
  6
CONTINUOUS
 10
101.2354377034
 20
132.2702834334
 11
101.6354377034
 21
132.2702834334
  0
LINE
  5
2D2
100
AcDbEntity
  8
0
100
AcDbLine
 62
7
  6
CONTINUOUS
 10
101.6354377034
 20
132.6107089247
 11
101.2354377034
 21
132.6107089247
  0
LINE
  5
2D3
100
AcDbEntity
  8
0
100
AcDbLine
 62
7
  6
CONTINUOUS
 10
99.0354377034
 20
132.6107089247
 11
98.7021044972
 21
132.6107089247
  0
LINE
  5
2D4
100
AcDbEntity
  8
0
100
AcDbLine
 62
7
  6
CONTINUOUS
 10
96.7687709096
 20
129.9724111359
 11
97.1687709096
 21
129.8873047557
  0
LINE
  5
2D5
100
AcDbEntity
  8
0
100
AcDbLine
 62
7
  6
CONTINUOUS
 10
100.968771291
 20
129.9724111359
 11
101.368771291
 21
129.8873047557
  0
LINE
  5
2D6
100
AcDbEntity
  8
0
100
AcDbLine
 62
7
  6
CONTINUOUS
 10
101.368771291
 20
130.2277302768
 11
100.968771291
 21
130.3128366794
  0
LINE
  5
2D7
100
AcDbEntity
  8
0
100
AcDbLine
 62
7
  6
CONTINUOUS
 10
97.1021044972
 20
132.2702834334
 11
97.5021044972
 21
132.1851770606
  0
LINE
  5
2D8
100
AcDbEntity
  8
0
100
AcDbLine
 62
7
  6
CONTINUOUS
 10
90.2187713864
 20
133.8553899254
 11
90.6354383709
 21
133.7490069594
  0
LINE
  5
2D9
100
AcDbEntity
  8
0
100
AcDbLine
 62
7
  6
CONTINUOUS
 10
97.1021044972
 20
130.2277302768
 11
96.8354377034
 21
130.3128366794
  0
LINE
  5
2DA
100
AcDbEntity
  8
0
100
AcDbLine
 62
7
  6
CONTINUOUS
 10
96.5687709096
 20
130.0575175162
 11
96.7687709096
 21
129.9724111359
  0
LINE
  5
2DB
100
AcDbEntity
  8
0
100
AcDbLine
 62
7
  6
CONTINUOUS
 10
100.768771291
 20
130.0575175162
 11
100.968771291
 21
129.9724111359
  0
LINE
  5
2DC
100
AcDbEntity
  8
0
100
AcDbLine
 62
7
  6
CONTINUOUS
 10
96.8354377034
 20
130.3128366794
 11
96.7021044972
 21
130.3979430523
  0
LINE
  5
2DD
100
AcDbEntity
  8
0
100
AcDbLine
 62
7
  6
CONTINUOUS
 10
91.1354383709
 20
134.0681558575
 11
90.8021048787
 21
134.2809217896
  0
LINE
  5
2DE
100
AcDbEntity
  8
0
100
AcDbLine
 62
7
  6
CONTINUOUS
 10
90.6354383709
 20
133.7490069594
 11
90.8854383709
 21
133.5362410273
  0
LINE
  5
2DF
100
AcDbEntity
  8
0
100
AcDbLine
 62
7
  6
CONTINUOUS
 10
96.3687709096
 20
130.2277302768
 11
96.5687709096
 21
130.0575175162
  0
LINE
  5
2E0
100
AcDbEntity
  8
0
100
AcDbLine
 62
7
  6
CONTINUOUS
 10
91.4687713864
 20
133.6426239934
 11
91.1354383709
 21
134.0681558575
  0
LINE
  5
2E1
100
AcDbEntity
  8
0
100
AcDbLine
 62
7
  6
CONTINUOUS
 10
73.3802135072
 20
165.8791907232
 11
73.16365184
 21
166.2418068571
  0
LINE
  5
2E2
100
AcDbEntity
  8
0
100
AcDbLine
 62
7
  6
CONTINUOUS
 10
90.8854383709
 20
133.5362410273
 11
91.0521048787
 21
133.2170921292
  0
LINE
  5
2E3
100
AcDbEntity
  8
0
100
AcDbLine
 62
7
  6
CONTINUOUS
 10
75.169420454
 20
172.1326102575
 11
75.0170348953
 21
172.4901356505
  0
LINE
  5
2E4
100
AcDbEntity
  8
0
100
AcDbLine
 62
7
  6
CONTINUOUS
 10
77.9922452154
 20
173.4814851584
 11
78.0829260712
 21
173.2120597084
  0
LINE
  5
2E5
100
AcDbEntity
  8
0
100
AcDbLine
 62
7
  6
CONTINUOUS
 10
91.5521048787
 20
133.2170921292
 11
91.4687713864
 21
133.6426239934
  0
LINE
  5
2E6
100
AcDbEntity
  8
0
100
AcDbLine
 62
7
  6
CONTINUOUS
 10
95.1021043065
 20
132.9511346545
 11
95.1021043065
 21
132.6958152976
  0
LINE
  5
2E7
100
AcDbEntity
  8
0
100
AcDbLine
 62
7
  6
CONTINUOUS
 10
95.5021043065
 20
132.6107089247
 11
95.5021043065
 21
132.9511346545
  0
LINE
  5
2E8
100
AcDbEntity
  8
0
100
AcDbLine
 62
7
  6
CONTINUOUS
 10
96.3687709096
 20
131.0787940945
 11
96.3687709096
 21
131.2490068402
  0
LINE
  5
2E9
100
AcDbEntity
  8
0
100
AcDbLine
 62
7
  6
CONTINUOUS
 10
96.4354377034
 20
131.5894324507
 11
96.4354377034
 21
131.6745388236
  0
LINE
  5
2EA
100
AcDbEntity
  8
0
100
AcDbLine
 62
7
  6
CONTINUOUS
 10
97.8354377034
 20
131.7596451964
 11
97.8354377034
 21
131.5894324507
  0
LINE
  5
2EB
100
AcDbEntity
  8
0
100
AcDbLine
 62
7
  6
CONTINUOUS
 10
98.1687709096
 20
131.2490068402
 11
98.1687709096
 21
131.5894324507
  0
LINE
  5
2EC
100
AcDbEntity
  8
0
100
AcDbLine
 62
7
  6
CONTINUOUS
 10
98.7021044972
 20
132.6107089247
 11
98.7021044972
 21
129.8873047557
  0
LINE
  5
2ED
100
AcDbEntity
  8
0
100
AcDbLine
 62
7
  6
CONTINUOUS
 10
96.1021043065
 20
131.7596451964
 11
96.0354377034
 21
131.2490068402
  0
LINE
  5
2EE
100
AcDbEntity
  8
0
100
AcDbLine
 62
7
  6
CONTINUOUS
 10
98.1021044972
 20
130.3979430523
 11
98.1687709096
 21
130.7383686032
  0
LINE
  5
2EF
100
AcDbEntity
  8
0
100
AcDbLine
 62
7
  6
CONTINUOUS
 10
108.8226236293
 20
173.6232465921
 11
109.7429478592
 21
177.2541368425
  0
LINE
  5
2F0
100
AcDbEntity
  8
0
100
AcDbLine
 62
7
  6
CONTINUOUS
 10
95.1021043065
 20
132.6958152976
 11
95.0354377034
 21
132.4404961791
  0
LINE
  5
2F1
100
AcDbEntity
  8
0
100
AcDbLine
 62
7
  6
CONTINUOUS
 10
95.4354377034
 20
132.3553898062
 11
95.5021043065
 21
132.6107089247
  0
LINE
  5
2F2
100
AcDbEntity
  8
0
100
AcDbLine
 62
7
  6
CONTINUOUS
 10
97.8354377034
 20
130.7383686032
 11
97.7687709096
 21
130.4830494251
  0
LINE
  5
2F3
100
AcDbEntity
  8
0
100
AcDbLine
 62
7
  6
CONTINUOUS
 10
109.2764745328
 20
176.974297076
 11
108.3027324688
 21
173.2771524685
  0
LINE
  5
2F4
100
AcDbEntity
  8
0
100
AcDbLine
 62
7
  6
CONTINUOUS
 10
110.053371149
 20
172.6999777255
 11
110.153007198
 21
172.9662209981
  0
LINE
  5
2F5
100
AcDbEntity
  8
0
100
AcDbLine
 62
7
  6
CONTINUOUS
 10
112.7914000575
 20
173.396589116
 11
112.6917638352
 21
173.1303456796
  0
LINE
  5
2F6
100
AcDbEntity
  8
0
100
AcDbLine
 62
7
  6
CONTINUOUS
 10
96.2354377034
 20
132.1000706877
 11
96.1021043065
 21
131.7596451964
  0
LINE
  5
2F7
100
AcDbEntity
  8
0
100
AcDbLine
 62
7
  6
CONTINUOUS
 10
96.4354377034
 20
131.6745388236
 11
96.5021044972
 21
131.8447515692
  0
LINE
  5
2F8
100
AcDbEntity
  8
0
100
AcDbLine
 62
7
  6
CONTINUOUS
 10
114.3979015629
 20
172.710238274
 11
113.4273174701
 21
170.705626146
  0
LINE
  5
2F9
100
AcDbEntity
  8
0
100
AcDbLine
 62
7
  6
CONTINUOUS
 10
113.1909670423
 20
170.3051613003
 11
112.3875958938
 21
168.651384359
  0
LINE
  5
2FA
100
AcDbEntity
  8
0
100
AcDbLine
 62
7
  6
CONTINUOUS
 10
113.8132081484
 20
170.7518230025
 11
114.616579714
 21
172.4055993628
  0
LINE
  5
2FB
100
AcDbEntity
  8
0
100
AcDbLine
 62
7
  6
CONTINUOUS
 10
95.2354377034
 20
132.0149643149
 11
95.4354377034
 21
132.3553898062
  0
LINE
  5
2FC
100
AcDbEntity
  8
0
100
AcDbLine
 62
7
  6
CONTINUOUS
 10
99.0354377034
 20
131.5894324507
 11
99.2354377034
 21
131.9298579421
  0
LINE
  5
2FD
100
AcDbEntity
  8
0
100
AcDbLine
 62
7
  6
CONTINUOUS
 10
116.5639212409
 20
165.8479941101
 11
116.3323760848
 21
165.4947568043
  0
LINE
  5
2FE
100
AcDbEntity
  8
0
100
AcDbLine
 62
7
  6
CONTINUOUS
 10
116.6033769434
 20
163.7947261281
 11
116.8349220995
 21
164.147963434
  0
LINE
  5
2FF
100
AcDbEntity
  8
0
100
AcDbLine
 62
7
  6
CONTINUOUS
 10
117.9796019538
 20
164.9753484247
 11
117.8638291257
 21
164.7987304419
  0
LINE
  5
300
100
AcDbEntity
  8
0
100
AcDbLine
 62
7
  6
CONTINUOUS
 10
95.0354377034
 20
132.4404961791
 11
94.9021043065
 21
132.2702834334
  0
LINE
  5
301
100
AcDbEntity
  8
0
100
AcDbLine
 62
7
  6
CONTINUOUS
 10
96.3687709096
 20
132.2702834334
 11
96.2354377034
 21
132.1000706877
  0
LINE
  5
302
100
AcDbEntity
  8
0
100
AcDbLine
 62
7
  6
CONTINUOUS
 10
96.5021044972
 20
131.8447515692
 11
96.7021044972
 21
132.1000706877
  0
LINE
  5
303
100
AcDbEntity
  8
0
100
AcDbLine
 62
7
  6
CONTINUOUS
 10
99.1687709096
 20
132.2702834334
 11
99.0354377034
 21
132.1000706877
  0
LINE
  5
304
100
AcDbEntity
  8
0
100
AcDbLine
 62
7
  6
CONTINUOUS
 10
97.9021044972
 20
130.142623904
 11
98.1021044972
 21
130.3979430523
  0
LINE
  5
305
100
AcDbEntity
  8
0
100
AcDbLine
 62
7
  6
CONTINUOUS
 10
94.9687711003
 20
131.7596451964
 11
95.2354377034
 21
132.0149643149
  0
LINE
  5
306
100
AcDbEntity
  8
0
100
AcDbLine
 62
7
  6
CONTINUOUS
 10
119.6657033924
 20
154.6136225526
 11
119.9295451343
 21
154.8546114029
  0
LINE
  5
307
100
AcDbEntity
  8
0
100
AcDbLine
 62
7
  6
CONTINUOUS
 10
96.5687709096
 20
132.4404961791
 11
96.3687709096
 21
132.2702834334
  0
LINE
  5
308
100
AcDbEntity
  8
0
100
AcDbLine
 62
7
  6
CONTINUOUS
 10
99.3687709096
 20
132.4404961791
 11
99.1687709096
 21
132.2702834334
  0
LINE
  5
309
100
AcDbEntity
  8
0
100
AcDbLine
 62
7
  6
CONTINUOUS
 10
97.7687709096
 20
130.4830494251
 11
97.5687709096
 21
130.3128366794
  0
LINE
  5
30A
100
AcDbEntity
  8
0
100
AcDbLine
 62
7
  6
CONTINUOUS
 10
96.7021044972
 20
132.1000706877
 11
96.8354377034
 21
132.1851770606
  0
LINE
  5
30B
100
AcDbEntity
  8
0
100
AcDbLine
 62
7
  6
CONTINUOUS
 10
99.2354377034
 20
131.9298579421
 11
99.5021041157
 21
132.1000706877
  0
LINE
  5
30C
100
AcDbEntity
  8
0
100
AcDbLine
 62
7
  6
CONTINUOUS
 10
100.8354377034
 20
132.5256025519
 11
100.568771291
 21
132.3553898062
  0
LINE
  5
30D
100
AcDbEntity
  8
0
100
AcDbLine
 62
7
  6
CONTINUOUS
 10
100.8354377034
 20
132.1000706877
 11
100.968771291
 21
132.1851770606
  0
LINE
  5
30E
100
AcDbEntity
  8
0
100
AcDbLine
 62
7
  6
CONTINUOUS
 10
97.6354377034
 20
129.9724111359
 11
97.9021044972
 21
130.142623904
  0
LINE
  5
30F
100
AcDbEntity
  8
0
100
AcDbLine
 62
7
  6
CONTINUOUS
 10
96.7687709096
 20
132.5256025519
 11
96.5687709096
 21
132.4404961791
  0
LINE
  5
310
100
AcDbEntity
  8
0
100
AcDbLine
 62
7
  6
CONTINUOUS
 10
99.568771291
 20
132.5256025519
 11
99.3687709096
 21
132.4404961791
  0
LINE
  5
311
100
AcDbEntity
  8
0
100
AcDbLine
 62
7
  6
CONTINUOUS
 10
96.8354377034
 20
132.1851770606
 11
97.1021044972
 21
132.2702834334
  0
LINE
  5
312
100
AcDbEntity
  8
0
100
AcDbLine
 62
7
  6
CONTINUOUS
 10
100.968771291
 20
132.1851770606
 11
101.2354377034
 21
132.2702834334
  0
LINE
  5
313
100
AcDbEntity
  8
0
100
AcDbLine
 62
7
  6
CONTINUOUS
 10
102.0354377034
 20
130.3128366794
 11
101.768771291
 21
130.2277302768
  0
LINE
  5
314
100
AcDbEntity
  8
0
100
AcDbLine
 62
7
  6
CONTINUOUS
 10
89.4687713864
 20
133.7490069594
 11
89.8854383709
 21
133.8553899254
  0
LINE
  5
315
100
AcDbEntity
  8
0
100
AcDbLine
 62
7
  6
CONTINUOUS
 10
89.9687713864
 20
134.3873047557
 11
89.3854383709
 21
134.2809217896
  0
LINE
  5
316
100
AcDbEntity
  8
0
100
AcDbLine
 62
7
  6
CONTINUOUS
 10
88.6354381325
 20
133.2170921292
 11
89.0521048787
 21
133.2170921292
  0
LINE
  5
317
100
AcDbEntity
  8
0
100
AcDbLine
 62
7
  6
CONTINUOUS
 10
93.4354377034
 20
133.4617728915
 11
94.7021043065
 21
133.4617728915
  0
LINE
  5
318
100
AcDbEntity
  8
0
100
AcDbLine
 62
7
  6
CONTINUOUS
 10
89.8854383709
 20
133.8553899254
 11
90.2187713864
 21
133.8553899254
  0
LINE
  5
319
100
AcDbEntity
  8
0
100
AcDbLine
 62
7
  6
CONTINUOUS
 10
94.6354377034
 20
133.8873047557
 11
93.0354377034
 21
133.8873047557
  0
LINE
  5
31A
100
AcDbEntity
  8
0
100
AcDbLine
 62
7
  6
CONTINUOUS
 10
90.3021048787
 20
134.3873047557
 11
89.9687713864
 21
134.3873047557
  0
LINE
  5
31B
100
AcDbEntity
  8
0
100
AcDbLine
 62
7
  6
CONTINUOUS
 10
86.0521048787
 20
134.3873047557
 11
85.5521048787
 21
134.3873047557
  0
LINE
  5
31C
100
AcDbEntity
  8
0
100
AcDbLine
 62
7
  6
CONTINUOUS
 10
97.5687709096
 20
132.5256025519
 11
97.1687709096
 21
132.6107089247
  0
LINE
  5
31D
100
AcDbEntity
  8
0
100
AcDbLine
 62
7
  6
CONTINUOUS
 10
90.8021048787
 20
134.2809217896
 11
90.3021048787
 21
134.3873047557
  0
LINE
  5
31E
100
AcDbEntity
  8
0
100
AcDbLine
 62
7
  6
CONTINUOUS
 10
101.6354377034
 20
132.2702834334
 11
102.0354377034
 21
132.1851770606
  0
LINE
  5
31F
100
AcDbEntity
  8
0
100
AcDbLine
 62
7
  6
CONTINUOUS
 10
102.0354377034
 20
132.5256025519
 11
101.6354377034
 21
132.6107089247
  0
LINE
  5
320
100
AcDbEntity
  8
0
100
AcDbLine
 62
7
  6
CONTINUOUS
 10
94.9687711003
 20
133.8021983828
 11
94.6354377034
 21
133.8873047557
  0
LINE
  5
321
100
AcDbEntity
  8
0
100
AcDbLine
 62
7
  6
CONTINUOUS
 10
100.8354377034
 20
131.334113213
 11
101.968771291
 21
130.9085813489
  0
LINE
  5
322
100
AcDbEntity
  8
0
100
AcDbLine
 62
7
  6
CONTINUOUS
 10
102.168771291
 20
131.1639004674
 11
101.0354377034
 21
131.5894324507
  0
LINE
  5
323
100
AcDbEntity
  8
0
100
AcDbLine
 62
7
  6
CONTINUOUS
 10
94.7021043065
 20
133.4617728915
 11
94.9021043065
 21
133.3766665187
  0
LINE
  5
324
100
AcDbEntity
  8
0
100
AcDbLine
 62
7
  6
CONTINUOUS
 10
102.2354377034
 20
132.4404961791
 11
102.0354377034
 21
132.5256025519
  0
LINE
  5
325
100
AcDbEntity
  8
0
100
AcDbLine
 62
7
  6
CONTINUOUS
 10
100.968771291
 20
130.3128366794
 11
100.8354377034
 21
130.3979430523
  0
LINE
  5
326
100
AcDbEntity
  8
0
100
AcDbLine
 62
7
  6
CONTINUOUS
 10
102.0354377034
 20
132.1851770606
 11
102.168771291
 21
132.1000706877
  0
LINE
  5
327
100
AcDbEntity
  8
0
100
AcDbLine
 62
7
  6
CONTINUOUS
 10
97.9021044972
 20
132.2702834334
 11
97.5687709096
 21
132.5256025519
  0
LINE
  5
328
100
AcDbEntity
  8
0
100
AcDbLine
 62
7
  6
CONTINUOUS
 10
97.5021044972
 20
132.1851770606
 11
97.7021044972
 21
132.0149643149
  0
LINE
  5
329
100
AcDbEntity
  8
0
100
AcDbLine
 62
7
  6
CONTINUOUS
 10
100.568771291
 20
130.2277302768
 11
100.768771291
 21
130.0575175162
  0
LINE
  5
32A
100
AcDbEntity
  8
0
100
AcDbLine
 62
7
  6
CONTINUOUS
 10
101.0354377034
 20
131.5894324507
 11
100.8354377034
 21
131.7596451964
  0
LINE
  5
32B
100
AcDbEntity
  8
0
100
AcDbLine
 62
7
  6
CONTINUOUS
 10
101.968771291
 20
130.9085813489
 11
102.168771291
 21
130.7383686032
  0
LINE
  5
32C
100
AcDbEntity
  8
0
100
AcDbLine
 62
7
  6
CONTINUOUS
 10
95.2354377034
 20
133.5468792643
 11
94.9687711003
 21
133.8021983828
  0
LINE
  5
32D
100
AcDbEntity
  8
0
100
AcDbLine
 62
7
  6
CONTINUOUS
 10
100.568771291
 20
131.5894324507
 11
100.8354377034
 21
131.334113213
  0
LINE
  5
32E
100
AcDbEntity
  8
0
100
AcDbLine
 62
7
  6
CONTINUOUS
 10
102.4354377034
 20
130.9085813489
 11
102.168771291
 21
131.1639004674
  0
LINE
  5
32F
100
AcDbEntity
  8
0
100
AcDbLine
 62
7
  6
CONTINUOUS
 10
69.351662808
 20
160.6118572225
 11
69.5022677958
 21
160.4638182705
  0
LINE
  5
330
100
AcDbEntity
  8
0
100
AcDbLine
 62
7
  6
CONTINUOUS
 10
72.2940746192
 20
163.0481365758
 11
72.0325937859
 21
163.3798252382
  0
LINE
  5
331
100
AcDbEntity
  8
0
100
AcDbLine
 62
7
  6
CONTINUOUS
 10
96.2354377034
 20
130.3979430523
 11
96.3687709096
 21
130.2277302768
  0
LINE
  5
332
100
AcDbEntity
  8
0
100
AcDbLine
 62
7
  6
CONTINUOUS
 10
96.7021044972
 20
130.3979430523
 11
96.5021044972
 21
130.6532622304
  0
LINE
  5
333
100
AcDbEntity
  8
0
100
AcDbLine
 62
7
  6
CONTINUOUS
 10
94.9021043065
 20
133.3766665187
 11
95.0354377034
 21
133.206453773
  0
LINE
  5
334
100
AcDbEntity
  8
0
100
AcDbLine
 62
7
  6
CONTINUOUS
 10
95.4354377034
 20
133.206453773
 11
95.2354377034
 21
133.5468792643
  0
LINE
  5
335
100
AcDbEntity
  8
0
100
AcDbLine
 62
7
  6
CONTINUOUS
 10
98.1021044972
 20
131.9298579421
 11
97.9021044972
 21
132.2702834334
  0
LINE
  5
336
100
AcDbEntity
  8
0
100
AcDbLine
 62
7
  6
CONTINUOUS
 10
97.7021044972
 20
132.0149643149
 11
97.8354377034
 21
131.7596451964
  0
LINE
  5
337
100
AcDbEntity
  8
0
100
AcDbLine
 62
7
  6
CONTINUOUS
 10
78.4692337326
 20
173.3547614598
 11
78.318702633
 21
173.684693547
  0
LINE
  5
338
100
AcDbEntity
  8
0
100
AcDbLine
 62
7
  6
CONTINUOUS
 10
79.0772595792
 20
174.8537016238
 11
78.1358770506
 21
177.0240524854
  0
LINE
  5
339
100
AcDbEntity
  8
0
100
AcDbLine
 62
7
  6
CONTINUOUS
 10
79.6517097829
 20
173.5801650195
 11
79.2333179518
 21
174.5447656591
  0
LINE
  5
33A
100
AcDbEntity
  8
0
100
AcDbLine
 62
7
  6
CONTINUOUS
 10
77.7309166963
 20
177.1440364418
 11
79.3530255819
 21
173.3534212256
  0
LINE
  5
33B
100
AcDbEntity
  8
0
100
AcDbLine
 62
7
  6
CONTINUOUS
 10
96.1021043065
 20
130.7383686032
 11
96.2354377034
 21
130.3979430523
  0
LINE
  5
33C
100
AcDbEntity
  8
0
100
AcDbLine
 62
7
  6
CONTINUOUS
 10
96.5021044972
 20
130.6532622304
 11
96.4354377034
 21
130.823474976
  0
LINE
  5
33D
100
AcDbEntity
  8
B-ACHSEN
100
AcDbLine
 62
7
  6
CONTINUOUS
 10
100.4059105935
 20
122.8231452347
 11
101.8021048787
 21
118.2173047557
  0
LINE
  5
33E
100
AcDbEntity
  8
0
100
AcDbLine
 62
7
  6
CONTINUOUS
 10
95.0354377034
 20
133.206453773
 11
95.1021043065
 21
132.9511346545
  0
LINE
  5
33F
100
AcDbEntity
  8
0
100
AcDbLine
 62
7
  6
CONTINUOUS
 10
95.5021043065
 20
132.9511346545
 11
95.4354377034
 21
133.206453773
  0
LINE
  5
340
100
AcDbEntity
  8
0
100
AcDbLine
 62
7
  6
CONTINUOUS
 10
96.4354377034
 20
130.823474976
 11
96.3687709096
 21
131.0787940945
  0
LINE
  5
341
100
AcDbEntity
  8
0
100
AcDbLine
 62
7
  6
CONTINUOUS
 10
98.1687709096
 20
131.5894324507
 11
98.1021044972
 21
131.9298579421
  0
LINE
  5
342
100
AcDbEntity
  8
0
100
AcDbLine
 62
7
  6
CONTINUOUS
 10
96.0354377034
 20
131.2490068402
 11
96.1021043065
 21
130.7383686032
  0
LINE
  5
343
100
AcDbEntity
  8
0
100
AcDbLine
 62
7
  6
CONTINUOUS
 10
99.0354377034
 20
129.8873047557
 11
99.0354377034
 21
131.5894324507
  0
LINE
  5
344
100
AcDbEntity
  8
0
100
AcDbLine
 62
7
  6
CONTINUOUS
 10
99.0354377034
 20
132.1000706877
 11
99.0354377034
 21
132.6107089247
  0
LINE
  5
345
100
AcDbEntity
  8
0
100
AcDbLine
 62
7
  6
CONTINUOUS
 10
99.9021041157
 20
132.1851770606
 11
99.9021041157
 21
132.6107089247
  0
LINE
  5
346
100
AcDbEntity
  8
0
100
AcDbLine
 62
7
  6
CONTINUOUS
 10
100.4354377034
 20
132.1000706877
 11
100.4354377034
 21
131.9298579421
  0
LINE
  5
347
100
AcDbEntity
  8
B-ACHSEN
100
AcDbLine
 62
7
  6
CONTINUOUS
 10
101.8021048787
 20
118.2173047557
 11
101.8021048787
 21
75.5873047557
  0
LINE
  5
348
100
AcDbEntity
  8
0
100
AcDbLine
 62
7
  6
CONTINUOUS
 10
102.568771291
 20
130.3979430523
 11
102.568771291
 21
130.5681557979
  0
LINE
  5
349
100
AcDbEntity
  8
0
100
AcDbLine
 62
7
  6
CONTINUOUS
 10
109.6720489061
 20
172.8555114717
 11
109.5964552323
 21
172.4399694263
  0
LINE
  5
34A
100
AcDbEntity
  8
0
100
AcDbLine
 62
7
  6
CONTINUOUS
 10
114.6502530932
 20
165.1339229524
 11
114.5202935814
 21
164.7518832412
  0
LINE
  5
34B
100
AcDbEntity
  8
0
100
AcDbLine
 62
7
  6
CONTINUOUS
 10
100.768771291
 20
131.9298579421
 11
100.8354377034
 21
132.1000706877
  0
LINE
  5
34C
100
AcDbEntity
  8
0
100
AcDbLine
 62
7
  6
CONTINUOUS
 10
102.2354377034
 20
130.5681557979
 11
102.168771291
 21
130.3979430523
  0
LINE
  5
34D
100
AcDbEntity
  8
0
100
AcDbLine
 62
7
  6
CONTINUOUS
 10
116.7605697467
 20
165.3209878339
 11
116.8544925741
 21
165.5561625164
  0
LINE
  5
34E
100
AcDbEntity
  8
0
100
AcDbLine
 62
7
  6
CONTINUOUS
 10
116.4067284376
 20
164.3217324043
 11
116.3128056102
 21
164.0865577219
  0
LINE
  5
34F
100
AcDbEntity
  8
0
100
AcDbLine
 62
7
  6
CONTINUOUS
 10
118.328059451
 20
164.7718264924
 11
118.4798689425
 21
165.0953094962
  0
LINE
  5
350
100
AcDbEntity
  8
0
100
AcDbLine
 62
7
  6
CONTINUOUS
 10
100.568771291
 20
132.3553898062
 11
100.4354377034
 21
132.1000706877
  0
LINE
  5
351
100
AcDbEntity
  8
0
100
AcDbLine
 62
7
  6
CONTINUOUS
 10
102.4354377034
 20
130.142623904
 11
102.568771291
 21
130.3979430523
  0
LINE
  5
352
100
AcDbEntity
  8
0
100
AcDbLine
 62
7
  6
CONTINUOUS
 10
102.168771291
 20
130.3979430523
 11
102.0354377034
 21
130.3128366794
  0
LINE
  5
353
100
AcDbEntity
  8
0
100
AcDbLine
 62
7
  6
CONTINUOUS
 10
102.168771291
 20
129.9724111359
 11
102.4354377034
 21
130.142623904
  0
LINE
  5
354
100
AcDbEntity
  8
0
100
AcDbLine
 62
7
  6
CONTINUOUS
 10
69.799619878
 20
160.7366293384
 11
69.4894793129
 21
160.970848456
  0
LINE
  5
355
100
AcDbEntity
  8
0
100
AcDbLine
 62
7
  6
CONTINUOUS
 10
102.4354377034
 20
132.2702834334
 11
102.2354377034
 21
132.4404961791
  0
LINE
  5
356
100
AcDbEntity
  8
0
100
AcDbLine
 62
7
  6
CONTINUOUS
 10
71.5558230971
 20
163.2522823509
 11
71.7685914844
 21
163.0637553347
  0
LINE
  5
357
100
AcDbEntity
  8
0
100
AcDbLine
 62
7
  6
CONTINUOUS
 10
72.6744214277
 20
166.1767614678
 11
72.8611234417
 21
165.9623896649
  0
LINE
  5
358
100
AcDbEntity
  8
0
100
AcDbLine
 62
7
  6
CONTINUOUS
 10
75.1167068402
 20
173.9889526444
 11
75.3116727729
 21
173.7029734321
  0
LINE
  5
359
100
AcDbEntity
  8
0
100
AcDbLine
 62
7
  6
CONTINUOUS
 10
75.6381303581
 20
173.9061816512
 11
75.5030144597
 21
174.1316544381
  0
LINE
  5
35A
100
AcDbEntity
  8
0
100
AcDbLine
 62
7
  6
CONTINUOUS
 10
100.4354377034
 20
130.5681557979
 11
100.568771291
 21
130.2277302768
  0
LINE
  5
35B
100
AcDbEntity
  8
0
100
AcDbLine
 62
7
  6
CONTINUOUS
 10
100.8354377034
 20
130.3979430523
 11
100.768771291
 21
130.5681557979
  0
LINE
  5
35C
100
AcDbEntity
  8
0
100
AcDbLine
 62
7
  6
CONTINUOUS
 10
100.4354377034
 20
131.9298579421
 11
100.568771291
 21
131.5894324507
  0
LINE
  5
35D
100
AcDbEntity
  8
0
100
AcDbLine
 62
7
  6
CONTINUOUS
 10
100.8354377034
 20
131.7596451964
 11
100.768771291
 21
131.9298579421
  0
LINE
  5
35E
100
AcDbEntity
  8
0
100
AcDbLine
 62
7
  6
CONTINUOUS
 10
102.168771291
 20
130.7383686032
 11
102.2354377034
 21
130.5681557979
  0
LINE
  5
35F
100
AcDbEntity
  8
0
100
AcDbLine
 62
7
  6
CONTINUOUS
 10
102.568771291
 20
130.5681557979
 11
102.4354377034
 21
130.9085813489
  0
LINE
  5
360
100
AcDbEntity
  8
0
100
AcDbLine
 62
7
  6
CONTINUOUS
 10
102.168771291
 20
132.1000706877
 11
102.2354377034
 21
131.9298579421
  0
LINE
  5
361
100
AcDbEntity
  8
0
100
AcDbLine
 62
7
  6
CONTINUOUS
 10
102.568771291
 20
131.9298579421
 11
102.4354377034
 21
132.2702834334
  0
LINE
  5
362
100
AcDbEntity
  8
RUNDUNGEN
100
AcDbLine
 62
7
  6
CONTINUOUS
 10
105.8021048787
 20
179.3873047557
 11
105.8021048787
 21
181.8873047557
  0
LINE
  5
363
100
AcDbEntity
  8
0
100
AcDbLine
 62
7
  6
CONTINUOUS
 10
113.172722257
 20
173.2410553288
 11
113.2483159092
 21
173.6565973538
  0
LINE
  5
364
100
AcDbEntity
  8
0
100
AcDbLine
 62
7
  6
CONTINUOUS
 10
119.598001107
 20
155.116274538
 11
119.5064386915
 21
154.9318411658
  0
LINE
  5
365
100
AcDbEntity
  8
0
100
AcDbLine
 62
7
  6
CONTINUOUS
 10
72.0325937859
 20
163.3798252382
 11
71.7377974038
 21
163.5910351316
  0
LINE
  5
366
100
AcDbEntity
  8
0
100
AcDbLine
 62
7
  6
CONTINUOUS
 10
73.16365184
 20
166.2418068571
 11
72.8985284381
 21
166.4892420953
  0
LINE
  5
367
100
AcDbEntity
  8
0
100
AcDbLine
 62
7
  6
CONTINUOUS
 10
74.5563375597
 20
172.4540325749
 11
74.7188001957
 21
172.2473926616
  0
LINE
  5
368
100
AcDbEntity
  8
0
100
AcDbLine
 62
7
  6
CONTINUOUS
 10
75.0170348953
 20
172.4901356505
 11
74.8545722592
 21
172.6967755638
  0
LINE
  5
369
100
AcDbEntity
  8
0
100
AcDbLine
 62
7
  6
CONTINUOUS
 10
110.0585149052
 20
172.4467936208
 11
110.053371149
 21
172.6999777255
  0
LINE
  5
36A
100
AcDbEntity
  8
0
100
AcDbLine
 62
7
  6
CONTINUOUS
 10
116.3323760848
 20
165.4947568043
 11
116.2603027579
 21
165.2010267624
  0
LINE
  5
36B
100
AcDbEntity
  8
0
100
AcDbLine
 62
7
  6
CONTINUOUS
 10
116.8349220995
 20
164.147963434
 11
116.9069949263
 21
164.4416948161
  0
LINE
  5
36C
100
AcDbEntity
  8
0
100
AcDbLine
 62
7
  6
CONTINUOUS
 10
115.9974879915
 20
154.4283192635
 11
117.9732775319
 21
154.9225459017
  0
LINE
  5
36D
100
AcDbEntity
  8
0
100
AcDbLine
 62
7
  6
CONTINUOUS
 10
117.8161819518
 20
155.30322734
 11
116.012671688
 21
154.8655547503
  0
LINE
  5
36E
100
AcDbEntity
  8
0
100
AcDbLine
 62
7
  6
CONTINUOUS
 10
119.0616412394
 20
154.3844483964
 11
119.3189756686
 21
154.438050201
  0
LINE
  5
36F
100
AcDbEntity
  8
0
100
AcDbLine
 62
7
  6
CONTINUOUS
 10
119.331990294
 20
154.8128242923
 11
119.0746558648
 21
154.7592224877
  0
LINE
  5
370
100
AcDbEntity
  8
0
100
AcDbLine
 62
7
  6
CONTINUOUS
 10
69.1078941602
 20
160.710198166
 11
69.351662808
 21
160.6118572225
  0
LINE
  5
371
100
AcDbEntity
  8
0
100
AcDbLine
 62
7
  6
CONTINUOUS
 10
69.4894793129
 20
160.970848456
 11
69.2457106651
 21
161.0691893994
  0
LINE
  5
372
100
AcDbEntity
  8
0
100
AcDbLine
 62
7
  6
CONTINUOUS
 10
71.2443691078
 20
163.4032531845
 11
71.5558230971
 21
163.2522823509
  0
LINE
  5
373
100
AcDbEntity
  8
0
100
AcDbLine
 62
7
  6
CONTINUOUS
 10
72.3850169493
 20
166.3666055701
 11
72.6744214277
 21
166.1767614678
  0
LINE
  5
374
100
AcDbEntity
  8
0
100
AcDbLine
 62
7
  6
CONTINUOUS
 10
72.4236187543
 20
171.6634215936
 11
75.5726495068
 21
169.1969250256
  0
LINE
  5
375
100
AcDbEntity
  8
0
100
AcDbLine
 62
7
  6
CONTINUOUS
 10
75.8038835601
 20
169.4921466586
 11
74.3968697996
 21
170.5941983323
  0
LINE
  5
376
100
AcDbEntity
  8
0
100
AcDbLine
 62
7
  6
CONTINUOUS
 10
73.9948659217
 20
170.909070197
 11
72.9898560392
 21
171.696250006
  0
LINE
  5
377
100
AcDbEntity
  8
0
100
AcDbLine
 62
7
  6
CONTINUOUS
 10
75.3116727729
 20
173.7029734321
 11
75.5510737481
 21
173.4609468829
  0
LINE
  5
378
100
AcDbEntity
  8
0
100
AcDbLine
 62
7
  6
CONTINUOUS
 10
75.7578307619
 20
173.7851684614
 11
75.6381303581
 21
173.9061816512
  0
LINE
  5
379
100
AcDbEntity
  8
0
100
AcDbLine
 62
7
  6
CONTINUOUS
 10
77.8126946097
 20
173.6630049432
 11
77.9922452154
 21
173.4814851584
  0
LINE
  5
37A
100
AcDbEntity
  8
0
100
AcDbLine
 62
7
  6
CONTINUOUS
 10
78.318702633
 20
173.684693547
 11
78.0194516235
 21
173.9872265217
  0
LINE
  5
37B
100
AcDbEntity
  8
0
100
AcDbLine
 62
7
  6
CONTINUOUS
 10
115.028223957
 20
164.6078659107
 11
115.020560619
 21
164.8718443309
  0
LINE
  5
37C
100
AcDbEntity
  8
0
100
AcDbLine
 62
7
  6
CONTINUOUS
 10
112.786256258
 20
173.6497731797
 11
112.7914000575
 21
173.396589116
  0
LINE
  5
37D
100
AcDbEntity
  8
0
100
AcDbLine
 62
7
  6
CONTINUOUS
 10
116.0799139359
 20
156.801888032
 11
116.0668993105
 21
156.4271139406
  0
LINE
  5
37E
100
AcDbEntity
  8
0
100
AcDbLine
 62
7
  6
CONTINUOUS
 10
116.012671688
 20
154.8655547503
 11
115.9974879915
 21
154.4283192635
  0
LINE
  5
37F
100
AcDbEntity
  8
0
100
AcDbLine
 62
7
  6
CONTINUOUS
 10
116.7463830839
 20
165.1155661133
 11
116.7605697467
 21
165.3209878339
  0
LINE
  5
380
100
AcDbEntity
  8
0
100
AcDbLine
 62
7
  6
CONTINUOUS
 10
117.9937886166
 20
165.1807701453
 11
117.9796019538
 21
164.9753484247
  0
LINE
  5
381
100
AcDbEntity
  8
B-ACHSEN
100
AcDbLine
 62
7
  6
CONTINUOUS
 10
112.0878191644
 20
131.3039714223
 11
111.3021048787
 21
124.8873047557
  0
LINE
  5
382
100
AcDbEntity
  8
0
100
AcDbLine
 62
7
  6
CONTINUOUS
 10
119.9295451343
 20
154.8546114029
 11
120.0254457417
 21
155.1639689956
  0
LINE
  5
383
100
AcDbEntity
  8
0
100
AcDbLine
 62
7
  6
CONTINUOUS
 10
119.2203984513
 20
161.1015028569
 11
119.6347892103
 21
161.1982378881
  0
LINE
  5
384
100
AcDbEntity
  8
0
100
AcDbLine
 62
7
  6
CONTINUOUS
 10
67.651783201
 20
158.962830425
 11
71.6107379893
 21
158.3912737924
  0
LINE
  5
385
100
AcDbEntity
  8
0
100
AcDbLine
 62
7
  6
CONTINUOUS
 10
68.2017708117
 20
162.2992435968
 11
70.7446372135
 21
161.5960748025
  0
LINE
  5
386
100
AcDbEntity
  8
0
100
AcDbLine
 62
7
  6
CONTINUOUS
 10
70.8445836305
 20
161.9575106168
 11
68.3017172287
 21
162.6606794111
  0
LINE
  5
387
100
AcDbEntity
  8
0
100
AcDbLine
 62
7
  6
CONTINUOUS
 10
69.1284032174
 20
165.4334888149
 11
72.8142063082
 21
163.8795082564
  0
LINE
  5
388
100
AcDbEntity
  8
0
100
AcDbLine
 62
7
  6
CONTINUOUS
 10
72.4893639326
 20
164.4234327925
 11
69.7446168928
 21
165.5806523815
  0
LINE
  5
389
100
AcDbEntity
  8
0
100
AcDbLine
 62
7
  6
CONTINUOUS
 10
71.7377974038
 20
163.5910351316
 11
71.3443154771
 21
163.7646888264
  0
LINE
  5
38A
100
AcDbEntity
  8
0
100
AcDbLine
 62
7
  6
CONTINUOUS
 10
72.8985284381
 20
166.4892420953
 11
72.5307026267
 21
166.7121496099
  0
LINE
  5
38B
100
AcDbEntity
  8
0
100
AcDbLine
 62
7
  6
CONTINUOUS
 10
74.355335433
 20
172.6114686543
 11
74.5563375597
 21
172.4540325749
  0
LINE
  5
38C
100
AcDbEntity
  8
0
100
AcDbLine
 62
7
  6
CONTINUOUS
 10
74.8545722592
 20
172.6967755638
 11
74.5865694863
 21
172.9066902873
  0
LINE
  5
38D
100
AcDbEntity
  8
0
100
AcDbLine
 62
7
  6
CONTINUOUS
 10
109.5964552323
 20
172.4399694263
 11
109.644539764
 21
172.1413721661
  0
LINE
  5
38E
100
AcDbEntity
  8
0
100
AcDbLine
 62
7
  6
CONTINUOUS
 10
115.8253977248
 20
159.7931193143
 11
115.8618313412
 21
159.4198933886
  0
LINE
  5
38F
100
AcDbEntity
  8
0
100
AcDbLine
 62
7
  6
CONTINUOUS
 10
116.0318549304
 20
157.6781719275
 11
116.0682885467
 21
157.3049460018
  0
LINE
  5
390
100
AcDbEntity
  8
0
100
AcDbLine
 62
7
  6
CONTINUOUS
 10
116.9025655367
 20
159.2702990957
 11
117.0240108782
 21
158.0262131514
  0
LINE
  5
391
100
AcDbEntity
  8
0
100
AcDbLine
 62
7
  6
CONTINUOUS
 10
117.3567535468
 20
158.1214924315
 11
117.2474526978
 21
159.2411702086
  0
LINE
  5
392
100
AcDbEntity
  8
0
100
AcDbLine
 62
7
  6
CONTINUOUS
 10
114.5202935814
 20
164.7518832412
 11
114.5498069131
 21
164.4293481186
  0
LINE
  5
393
100
AcDbEntity
  8
0
100
AcDbLine
 62
7
  6
CONTINUOUS
 10
116.9069949263
 20
164.4416948161
 11
116.8774820878
 21
164.7642285958
  0
LINE
  5
394
100
AcDbEntity
  8
0
100
AcDbLine
 62
7
  6
CONTINUOUS
 10
116.2603027579
 20
165.2010267624
 11
116.2679660959
 21
164.9370483421
  0
LINE
  5
395
100
AcDbEntity
  8
0
100
AcDbLine
 62
7
  6
CONTINUOUS
 10
116.3990650997
 20
164.5857108246
 11
116.4067284376
 21
164.3217324043
  0
LINE
  5
396
100
AcDbEntity
  8
0
100
AcDbLine
 62
7
  6
CONTINUOUS
 10
117.8530567072
 20
156.3650867888
 11
117.8161819518
 21
155.30322734
  0
LINE
  5
397
100
AcDbEntity
  8
0
100
AcDbLine
 62
7
  6
CONTINUOUS
 10
118.3221743269
 20
155.1605796488
 11
118.3633873239
 21
156.3473647478
  0
LINE
  5
398
100
AcDbEntity
  8
0
100
AcDbLine
 62
7
  6
CONTINUOUS
 10
119.639214104
 20
156.3030596371
 11
119.598001107
 21
155.116274538
  0
LINE
  5
399
100
AcDbEntity
  8
0
100
AcDbLine
 62
7
  6
CONTINUOUS
 10
120.0254457417
 20
155.1639689956
 11
120.0775042433
 21
156.6630653609
  0
LINE
  5
39A
100
AcDbEntity
  8
0
100
AcDbLine
 62
7
  6
CONTINUOUS
 10
115.5121881524
 20
161.2627473508
 11
118.9930709925
 21
162.0753217211
  0
LINE
  5
39B
100
AcDbEntity
  8
0
100
AcDbLine
 62
7
  6
CONTINUOUS
 10
118.9078232362
 20
162.440503621
 11
115.426940396
 21
161.6279292508
  0
LINE
  5
39C
100
AcDbEntity
  8
0
100
AcDbLine
 62
7
  6
CONTINUOUS
 10
119.0948865364
 20
163.5110575163
 11
118.6804957774
 21
163.4143224851
  0
LINE
  5
39D
100
AcDbEntity
  8
0
100
AcDbLine
 62
7
  6
CONTINUOUS
 10
118.72142059
 20
154.3962630986
 11
119.0616412394
 21
154.3844483964
  0
LINE
  5
39E
100
AcDbEntity
  8
0
100
AcDbLine
 62
7
  6
CONTINUOUS
 10
119.0746558648
 20
154.7592224877
 11
118.8194903182
 21
154.7680835165
  0
LINE
  5
39F
100
AcDbEntity
  8
0
100
AcDbLine
 62
7
  6
CONTINUOUS
 10
116.0668993105
 20
156.4271139406
 11
117.8530567072
 21
156.3650867888
  0
LINE
  5
3A0
100
AcDbEntity
  8
0
100
AcDbLine
 62
7
  6
CONTINUOUS
 10
118.3633873239
 20
156.3473647478
 11
119.639214104
 21
156.3030596371
  0
LINE
  5
3A1
100
AcDbEntity
  8
0
100
AcDbLine
 62
7
  6
CONTINUOUS
 10
120.0775042433
 20
156.6630653609
 11
116.0799139359
 21
156.801888032
  0
LINE
  5
3A2
100
AcDbEntity
  8
0
100
AcDbLine
 62
7
  6
CONTINUOUS
 10
70.7446372135
 20
161.5960748025
 11
71.1714346601
 21
161.5428998847
  0
LINE
  5
3A3
100
AcDbEntity
  8
0
100
AcDbLine
 62
7
  6
CONTINUOUS
 10
71.6643214236
 20
158.7624258038
 11
69.8954267058
 21
159.0178021752
  0
LINE
  5
3A4
100
AcDbEntity
  8
0
100
AcDbLine
 62
7
  6
CONTINUOUS
 10
69.3900282825
 20
159.090766843
 11
68.1265319881
 21
159.2731785466
  0
LINE
  5
3A5
100
AcDbEntity
  8
0
100
AcDbLine
 62
7
  6
CONTINUOUS
 10
68.8551947125
 20
160.746680534
 11
69.1078941602
 21
160.710198166
  0
LINE
  5
3A6
100
AcDbEntity
  8
0
100
AcDbLine
 62
7
  6
CONTINUOUS
 10
69.2457106651
 20
161.0691893994
 11
68.9087781469
 21
161.1178325454
  0
LINE
  5
3A7
100
AcDbEntity
  8
0
100
AcDbLine
 62
7
  6
CONTINUOUS
 10
68.701502706
 20
164.1064219788
 11
71.2443691078
 21
163.4032531845
  0
LINE
  5
3A8
100
AcDbEntity
  8
0
100
AcDbLine
 62
7
  6
CONTINUOUS
 10
71.3443154771
 20
163.7646888264
 11
68.8014490753
 21
164.4678576207
  0
LINE
  5
3A9
100
AcDbEntity
  8
0
100
AcDbLine
 62
7
  6
CONTINUOUS
 10
71.2086968443
 20
166.8625567994
 11
72.3850169493
 21
166.3666055701
  0
LINE
  5
3AA
100
AcDbEntity
  8
0
100
AcDbLine
 62
7
  6
CONTINUOUS
 10
72.5307026267
 20
166.7121496099
 11
71.3543825217
 21
167.2081008392
  0
LINE
  5
3AB
100
AcDbEntity
  8
0
100
AcDbLine
 62
7
  6
CONTINUOUS
 10
77.0455167566
 20
172.3056120343
 11
76.821531276
 21
172.4431789864
  0
LINE
  5
3AC
100
AcDbEntity
  8
0
100
AcDbLine
 62
7
  6
CONTINUOUS
 10
75.9818162425
 20
173.6476015092
 11
75.7578307619
 21
173.7851684614
  0
LINE
  5
3AD
100
AcDbEntity
  8
0
100
AcDbLine
 62
7
  6
CONTINUOUS
 10
76.5549240603
 20
172.1794640029
 11
76.8387597429
 21
171.9813904558
  0
LINE
  5
3AE
100
AcDbEntity
  8
0
100
AcDbLine
 62
7
  6
CONTINUOUS
 10
75.5510737481
 20
173.4609468829
 11
75.8349094307
 21
173.2628733358
  0
LINE
  5
3AF
100
AcDbEntity
  8
0
100
AcDbLine
 62
7
  6
CONTINUOUS
 10
81.3442539685
 20
174.8650468064
 11
78.1291619179
 21
177.4463612119
  0
LINE
  5
3B0
100
AcDbEntity
  8
0
100
AcDbLine
 62
7
  6
CONTINUOUS
 10
80.2289315754
 20
175.300578017
 11
81.0455697674
 21
174.6383030126
  0
LINE
  5
3B1
100
AcDbEntity
  8
0
100
AcDbLine
 62
7
  6
CONTINUOUS
 10
78.1358770506
 20
177.0240524854
 11
79.9733121822
 21
175.5339330054
  0
LINE
  5
3B2
100
AcDbEntity
  8
0
100
AcDbLine
 62
7
  6
CONTINUOUS
 10
113.2483159092
 20
173.6565973538
 11
113.200231607
 21
173.9551943388
  0
LINE
  5
3B3
100
AcDbEntity
  8
0
100
AcDbLine
 62
7
  6
CONTINUOUS
 10
119.9522087308
 20
158.6888408524
 11
119.903630622
 21
159.1864749454
  0
LINE
  5
3B4
100
AcDbEntity
  8
0
100
AcDbLine
 62
7
  6
CONTINUOUS
 10
118.4798689425
 20
165.0953094962
 11
118.4503556039
 21
165.4178446161
  0
LINE
  5
3B5
100
AcDbEntity
  8
0
100
AcDbLine
 62
7
  6
CONTINUOUS
 10
117.5207554404
 20
166.2050297359
 11
117.179960781
 21
166.1445745881
  0
LINE
  5
3B6
100
AcDbEntity
  8
0
100
AcDbLine
 62
7
  6
CONTINUOUS
 10
71.9500997484
 20
160.7419032569
 11
69.9323637381
 21
160.4648731672
  0
LINE
  5
3B7
100
AcDbEntity
  8
0
100
AcDbLine
 62
7
  6
CONTINUOUS
 10
70.0472464321
 20
160.0693995114
 11
71.8875857247
 21
160.308892459
  0
LINE
  5
3B8
100
AcDbEntity
  8
0
100
AcDbLine
 62
7
  6
CONTINUOUS
 10
117.2313233968
 20
165.7634840254
 11
117.4923821149
 21
165.7941862946
  0
LINE
  5
3B9
100
AcDbEntity
  8
0
100
AcDbLine
 62
7
  6
CONTINUOUS
 10
68.593564937
 20
160.7213042583
 11
68.8551947125
 21
160.746680534
  0
LINE
  5
3BA
100
AcDbEntity
  8
0
100
AcDbLine
 62
7
  6
CONTINUOUS
 10
68.9087781469
 20
161.1178325454
 11
68.6471483713
 21
161.0924562697
  0
LINE
  5
3BB
100
AcDbEntity
  8
0
100
AcDbLine
 62
7
  6
CONTINUOUS
 10
71.1714346601
 20
161.5428998847
 11
71.5328619392
 21
161.5726470286
  0
LINE
  5
3BC
100
AcDbEntity
  8
0
100
AcDbLine
 62
7
  6
CONTINUOUS
 10
115.5668066351
 20
163.4079375614
 11
115.9294508509
 21
163.4098373706
  0
LINE
  5
3BD
100
AcDbEntity
  8
0
100
AcDbLine
 62
7
  6
CONTINUOUS
 10
71.1893530445
 20
161.9270182156
 11
70.8445836305
 21
161.9575106168
  0
LINE
  5
3BE
100
AcDbEntity
  8
0
100
AcDbLine
 62
7
  6
CONTINUOUS
 10
115.8618313412
 20
159.4198933886
 11
116.9025655367
 21
159.2702990957
  0
LINE
  5
3BF
100
AcDbEntity
  8
0
100
AcDbLine
 62
7
  6
CONTINUOUS
 10
117.2474526978
 20
159.2411702086
 11
119.5891046226
 21
158.9045841261
  0
LINE
  5
3C0
100
AcDbEntity
  8
0
100
AcDbLine
 62
7
  6
CONTINUOUS
 10
119.903630622
 20
159.1864749454
 11
115.8253977248
 21
159.7931193143
  0
LINE
  5
3C1
100
AcDbEntity
  8
0
100
AcDbLine
 62
7
  6
CONTINUOUS
 10
70.8707306587
 20
166.9372199946
 11
71.2086968443
 21
166.8625567994
  0
LINE
  5
3C2
100
AcDbEntity
  8
0
100
AcDbLine
 62
7
  6
CONTINUOUS
 10
71.3543825217
 20
167.2081008392
 11
70.9379947834
 21
167.3158275392
  0
LINE
  5
3C3
100
AcDbEntity
  8
0
100
AcDbLine
 62
7
  6
CONTINUOUS
 10
118.4684244024
 20
154.4675869442
 11
118.72142059
 21
154.3962630986
  0
LINE
  5
3C4
100
AcDbEntity
  8
0
100
AcDbLine
 62
7
  6
CONTINUOUS
 10
118.8194903182
 20
154.7680835165
 11
118.5664941306
 21
154.8394073621
  0
LINE
  5
3C5
100
AcDbEntity
  8
0
100
AcDbLine
 62
7
  6
CONTINUOUS
 10
76.8387597429
 20
171.9813904558
 11
77.2713144231
 21
171.8107149094
  0
LINE
  5
3C6
100
AcDbEntity
  8
0
100
AcDbLine
 62
7
  6
CONTINUOUS
 10
74.1157941911
 20
172.7197006058
 11
74.355335433
 21
172.6114686543
  0
LINE
  5
3C7
100
AcDbEntity
  8
0
100
AcDbLine
 62
7
  6
CONTINUOUS
 10
74.5865694863
 20
172.9066902873
 11
74.3470282444
 21
173.0149222388
  0
LINE
  5
3C8
100
AcDbEntity
  8
0
100
AcDbLine
 62
7
  6
CONTINUOUS
 10
78.0194516235
 20
173.9872265217
 11
77.6911809821
 21
174.1413473209
  0
LINE
  5
3C9
100
AcDbEntity
  8
0
100
AcDbLine
 62
7
  6
CONTINUOUS
 10
76.2584012317
 20
174.8788465562
 11
76.4225365104
 21
174.801786199
  0
LINE
  5
3CA
100
AcDbEntity
  8
0
100
AcDbLine
 62
7
  6
CONTINUOUS
 10
76.6891437261
 20
175.0655011825
 11
76.4651582454
 21
175.2030681347
  0
LINE
  5
3CB
100
AcDbEntity
  8
0
100
AcDbLine
 62
7
  6
CONTINUOUS
 10
118.400722117
 20
154.9702389296
 11
118.3221743269
 21
155.1605796488
  0
LINE
  5
3CC
100
AcDbEntity
  8
0
100
AcDbLine
 62
7
  6
CONTINUOUS
 10
114.5498069131
 20
164.4293481186
 11
114.7246054182
 21
163.9608985421
  0
LINE
  5
3CD
100
AcDbEntity
  8
0
100
AcDbLine
 62
7
  6
CONTINUOUS
 10
115.203022462
 20
164.1394163341
 11
115.028223957
 21
164.6078659107
  0
LINE
  5
3CE
100
AcDbEntity
  8
0
100
AcDbLine
 62
7
  6
CONTINUOUS
 10
115.426940396
 20
161.6279292508
 11
115.5121881524
 21
161.2627473508
  0
LINE
  5
3CF
100
AcDbEntity
  8
0
100
AcDbLine
 62
7
  6
CONTINUOUS
 10
118.6804957774
 20
163.4143224851
 11
118.9078232362
 21
162.440503621
  0
LINE
  5
3D0
100
AcDbEntity
  8
0
100
AcDbLine
 62
7
  6
CONTINUOUS
 10
118.9930709925
 20
162.0753217211
 11
119.2203984513
 21
161.1015028569
  0
LINE
  5
3D1
100
AcDbEntity
  8
0
100
AcDbLine
 62
7
  6
CONTINUOUS
 10
71.4687523765
 20
161.9794484089
 11
71.1893530445
 21
161.9270182156
  0
LINE
  5
3D2
100
AcDbEntity
  8
0
100
AcDbLine
 62
7
  6
CONTINUOUS
 10
113.4273174701
 20
170.705626146
 11
111.1484198432
 21
170.3776713288
  0
LINE
  5
3D3
100
AcDbEntity
  8
0
100
AcDbLine
 62
7
  6
CONTINUOUS
 10
111.3670979943
 20
170.0730324176
 11
113.1909670423
 21
170.3051613003
  0
LINE
  5
3D4
100
AcDbEntity
  8
0
100
AcDbLine
 62
7
  6
CONTINUOUS
 10
115.6370776135
 20
170.9839513042
 11
113.8132081484
 21
170.7518230025
  0
LINE
  5
3D5
100
AcDbEntity
  8
0
100
AcDbLine
 62
7
  6
CONTINUOUS
 10
113.6459956213
 20
170.4009872348
 11
115.8557557646
 21
170.6793123929
  0
LINE
  5
3D6
100
AcDbEntity
  8
0
100
AcDbLine
 62
7
  6
CONTINUOUS
 10
70.5869044549
 20
166.9212287575
 11
70.8707306587
 21
166.9372199946
  0
LINE
  5
3D7
100
AcDbEntity
  8
0
100
AcDbLine
 62
7
  6
CONTINUOUS
 10
70.9379947834
 20
167.3158275392
 11
70.5757474663
 21
167.3328996217
  0
LINE
  5
3D8
100
AcDbEntity
  8
0
100
AcDbLine
 62
7
  6
CONTINUOUS
 10
115.8780880117
 20
163.7909278499
 11
115.5951800164
 21
163.8187810234
  0
LINE
  5
3D9
100
AcDbEntity
  8
0
100
AcDbLine
 62
7
  6
CONTINUOUS
 10
115.1604624459
 20
163.5231511619
 11
115.5668066351
 21
163.4079375614
  0
LINE
  5
3DA
100
AcDbEntity
  8
0
100
AcDbLine
 62
7
  6
CONTINUOUS
 10
77.5442741703
 20
173.7566191475
 11
77.8126946097
 21
173.6630049432
  0
LINE
  5
3DB
100
AcDbEntity
  8
0
100
AcDbLine
 62
7
  6
CONTINUOUS
 10
118.134711304
 20
154.6667886839
 11
118.4684244024
 21
154.4675869442
  0
LINE
  5
3DC
100
AcDbEntity
  8
0
100
AcDbLine
 62
7
  6
CONTINUOUS
 10
118.5664941306
 20
154.8394073621
 11
118.400722117
 21
154.9702389296
  0
LINE
  5
3DD
100
AcDbEntity
  8
0
100
AcDbLine
 62
7
  6
CONTINUOUS
 10
114.7246054182
 20
163.9608985421
 11
114.913590593
 21
163.6978706887
  0
LINE
  5
3DE
100
AcDbEntity
  8
0
100
AcDbLine
 62
7
  6
CONTINUOUS
 10
117.9732775319
 20
154.9225459017
 11
118.134711304
 21
154.6667886839
  0
LINE
  5
3DF
100
AcDbEntity
  8
0
100
AcDbLine
 62
7
  6
CONTINUOUS
 10
109.644539764
 20
172.1413721661
 11
109.7974039094
 21
171.8558343848
  0
LINE
  5
3E0
100
AcDbEntity
  8
0
100
AcDbLine
 62
7
  6
CONTINUOUS
 10
110.1684385532
 20
172.206668766
 11
110.0585149052
 21
172.4467936208
  0
LINE
  5
3E1
100
AcDbEntity
  8
0
100
AcDbLine
 62
7
  6
CONTINUOUS
 10
112.6763326099
 20
173.8898980345
 11
112.786256258
 21
173.6497731797
  0
LINE
  5
3E2
100
AcDbEntity
  8
0
100
AcDbLine
 62
7
  6
CONTINUOUS
 10
115.4115781603
 20
165.2845875814
 11
115.2804791565
 21
165.6359250989
  0
LINE
  5
3E3
100
AcDbEntity
  8
0
100
AcDbLine
 62
7
  6
CONTINUOUS
 10
116.2679660959
 20
164.9370483421
 11
116.3990650997
 21
164.5857108246
  0
LINE
  5
3E4
100
AcDbEntity
  8
0
100
AcDbLine
 62
7
  6
CONTINUOUS
 10
116.8774820878
 20
164.7642285958
 11
116.7463830839
 21
165.1155661133
  0
LINE
  5
3E5
100
AcDbEntity
  8
0
100
AcDbLine
 62
7
  6
CONTINUOUS
 10
117.726206797
 20
164.6806678185
 11
117.8573058009
 21
164.329330301
  0
LINE
  5
3E6
100
AcDbEntity
  8
0
100
AcDbLine
 62
7
  6
CONTINUOUS
 10
117.8626896127
 20
165.5321076628
 11
117.9937886166
 21
165.1807701453
  0
LINE
  5
3E7
100
AcDbEntity
  8
0
100
AcDbLine
 62
7
  6
CONTINUOUS
 10
118.4503556039
 20
165.4178446161
 11
118.3411066008
 21
165.710625434
  0
LINE
  5
3E8
100
AcDbEntity
  8
0
100
AcDbLine
 62
7
  6
CONTINUOUS
 10
119.6347892103
 20
161.1982378881
 11
119.0948865364
 21
163.5110575163
  0
LINE
  5
3E9
100
AcDbEntity
  8
0
100
AcDbLine
 62
7
  6
CONTINUOUS
 10
70.5757474663
 20
167.3328996217
 11
70.1649384419
 21
167.234790797
  0
LINE
  5
3EA
100
AcDbEntity
  8
0
100
AcDbLine
 62
7
  6
CONTINUOUS
 10
110.7129124809
 20
171.2592290549
 11
111.132031651
 21
171.3114661707
  0
LINE
  5
3EB
100
AcDbEntity
  8
0
100
AcDbLine
 62
7
  6
CONTINUOUS
 10
112.1318586606
 20
174.8373377252
 11
111.7127395121
 21
174.7851006298
  0
LINE
  5
3EC
100
AcDbEntity
  8
0
100
AcDbLine
 62
7
  6
CONTINUOUS
 10
73.9047151748
 20
172.7262510584
 11
74.1157941911
 21
172.7197006058
  0
LINE
  5
3ED
100
AcDbEntity
  8
0
100
AcDbLine
 62
7
  6
CONTINUOUS
 10
77.3583710121
 20
172.2559496989
 11
77.0455167566
 21
172.3056120343
  0
LINE
  5
3EE
100
AcDbEntity
  8
0
100
AcDbLine
 62
7
  6
CONTINUOUS
 10
75.8349094307
 20
173.2628733358
 11
76.2520477041
 21
173.1966562745
  0
LINE
  5
3EF
100
AcDbEntity
  8
0
100
AcDbLine
 62
7
  6
CONTINUOUS
 10
77.6911809821
 20
174.1413473209
 11
77.2740427088
 21
174.2075643822
  0
LINE
  5
3F0
100
AcDbEntity
  8
0
100
AcDbLine
 62
7
  6
CONTINUOUS
 10
76.049832095
 20
174.9119550869
 11
76.2584012317
 21
174.8788465562
  0
LINE
  5
3F1
100
AcDbEntity
  8
0
100
AcDbLine
 62
7
  6
CONTINUOUS
 10
74.3470282444
 20
173.0149222388
 11
73.9634086325
 21
173.0772259988
  0
LINE
  5
3F2
100
AcDbEntity
  8
0
100
AcDbLine
 62
7
  6
CONTINUOUS
 10
117.9270996017
 20
166.0898161249
 11
117.5207554404
 21
166.2050297359
  0
LINE
  5
3F3
100
AcDbEntity
  8
0
100
AcDbLine
 62
7
  6
CONTINUOUS
 10
76.4651582454
 20
175.2030681347
 11
76.09245383
 21
175.3132370226
  0
LINE
  5
3F4
100
AcDbEntity
  8
0
100
AcDbLine
 62
7
  6
CONTINUOUS
 10
115.5951800164
 20
163.8187810234
 11
115.3701581293
 21
163.9349438376
  0
LINE
  5
3F5
100
AcDbEntity
  8
0
100
AcDbLine
 62
7
  6
CONTINUOUS
 10
114.913590593
 20
163.6978706887
 11
115.1604624459
 21
163.5231511619
  0
LINE
  5
3F6
100
AcDbEntity
  8
0
100
AcDbLine
 62
7
  6
CONTINUOUS
 10
109.7974039094
 20
171.8558343848
 11
110.1409291599
 21
171.4925297151
  0
LINE
  5
3F7
100
AcDbEntity
  8
0
100
AcDbLine
 62
7
  6
CONTINUOUS
 10
110.5119638038
 20
171.8433640963
 11
110.1684385532
 21
172.206668766
  0
LINE
  5
3F8
100
AcDbEntity
  8
0
100
AcDbLine
 62
7
  6
CONTINUOUS
 10
115.3701581293
 20
163.9349438376
 11
115.203022462
 21
164.1394163341
  0
LINE
  5
3F9
100
AcDbEntity
  8
0
100
AcDbLine
 62
7
  6
CONTINUOUS
 10
118.3411066008
 20
165.710625434
 11
118.1739709335
 21
165.9150979305
  0
LINE
  5
3FA
100
AcDbEntity
  8
0
100
AcDbLine
 62
7
  6
CONTINUOUS
 10
111.1484198432
 20
170.3776713288
 11
111.3670979943
 21
170.0730324176
  0
LINE
  5
3FB
100
AcDbEntity
  8
0
100
AcDbLine
 62
7
  6
CONTINUOUS
 10
112.3875958938
 20
168.651384359
 11
112.606274045
 21
168.3467454478
  0
LINE
  5
3FC
100
AcDbEntity
  8
0
100
AcDbLine
 62
7
  6
CONTINUOUS
 10
113.200231607
 20
173.9551943388
 11
113.0473672104
 21
174.2407323748
  0
LINE
  5
3FD
100
AcDbEntity
  8
0
100
AcDbLine
 62
7
  6
CONTINUOUS
 10
76.2520477041
 20
173.1966562745
 11
76.5494865906
 21
173.251453409
  0
LINE
  5
3FE
100
AcDbEntity
  8
0
100
AcDbLine
 62
7
  6
CONTINUOUS
 10
77.2740427088
 20
174.2075643822
 11
76.9766038222
 21
174.1527672477
  0
LINE
  5
3FF
100
AcDbEntity
  8
0
100
AcDbLine
 62
7
  6
CONTINUOUS
 10
73.9634086325
 20
173.0772259988
 11
73.608250364
 21
173.0378471338
  0
LINE
  5
400
100
AcDbEntity
  8
0
100
AcDbLine
 62
7
  6
CONTINUOUS
 10
77.2713144231
 20
171.8107149094
 11
77.6730373852
 21
171.8489572597
  0
LINE
  5
401
100
AcDbEntity
  8
0
100
AcDbLine
 62
7
  6
CONTINUOUS
 10
76.2348202542
 20
173.6584458112
 11
75.9818162425
 21
173.6476015092
  0
LINE
  5
402
100
AcDbEntity
  8
0
100
AcDbLine
 62
7
  6
CONTINUOUS
 10
77.2912701586
 20
173.7457748455
 11
77.5442741703
 21
173.7566191475
  0
LINE
  5
403
100
AcDbEntity
  8
0
100
AcDbLine
 62
7
  6
CONTINUOUS
 10
76.09245383
 20
175.3132370226
 11
75.7351647415
 21
175.318946483
  0
LINE
  5
404
100
AcDbEntity
  8
0
100
AcDbLine
 62
7
  6
CONTINUOUS
 10
110.9980658951
 20
171.700889559
 11
110.745565652
 21
171.7201840216
  0
LINE
  5
405
100
AcDbEntity
  8
0
100
AcDbLine
 62
7
  6
CONTINUOUS
 10
111.8467053113
 20
174.3956772825
 11
112.0992055112
 21
174.3763827789
  0
LINE
  5
406
100
AcDbEntity
  8
0
100
AcDbLine
 62
7
  6
CONTINUOUS
 10
110.417471762
 20
171.3239364644
 11
110.7129124809
 21
171.2592290549
  0
LINE
  5
407
100
AcDbEntity
  8
0
100
AcDbLine
 62
7
  6
CONTINUOUS
 10
117.4923821149
 20
165.7941862946
 11
117.7174039461
 21
165.6780234596
  0
LINE
  5
408
100
AcDbEntity
  8
0
100
AcDbLine
 62
7
  6
CONTINUOUS
 10
110.745565652
 20
171.7201840216
 11
110.5119638038
 21
171.8433640963
  0
LINE
  5
409
100
AcDbEntity
  8
0
100
AcDbLine
 62
7
  6
CONTINUOUS
 10
110.1409291599
 20
171.4925297151
 11
110.417471762
 21
171.3239364644
  0
LINE
  5
40A
100
AcDbEntity
  8
0
100
AcDbLine
 62
7
  6
CONTINUOUS
 10
106.0525435353
 20
174.9621374324
 11
106.3638405072
 21
174.7530460761
  0
LINE
  5
40B
100
AcDbEntity
  8
0
100
AcDbLine
 62
7
  6
CONTINUOUS
 10
118.1739709335
 20
165.9150979305
 11
117.9270996017
 21
166.0898161249
  0
LINE
  5
40C
100
AcDbEntity
  8
0
100
AcDbLine
 62
7
  6
CONTINUOUS
 10
106.7944114742
 20
174.4932421621
 11
107.0863445655
 21
174.2578699669
  0
LINE
  5
40D
100
AcDbEntity
  8
0
100
AcDbLine
 62
7
  6
CONTINUOUS
 10
108.3027324688
 20
173.2771524685
 11
108.7406321056
 21
172.9240941758
  0
LINE
  5
40E
100
AcDbEntity
  8
0
100
AcDbLine
 62
7
  6
CONTINUOUS
 10
117.7174039461
 20
165.6780234596
 11
117.8626896127
 21
165.5321076628
  0
LINE
  5
40F
100
AcDbEntity
  8
0
100
AcDbLine
 62
7
  6
CONTINUOUS
 10
112.3328073594
 20
174.2532027042
 11
112.6763326099
 21
173.8898980345
  0
LINE
  5
410
100
AcDbEntity
  8
0
100
AcDbLine
 62
7
  6
CONTINUOUS
 10
113.0473672104
 20
174.2407323748
 11
112.7038419599
 21
174.6040370445
  0
LINE
  5
411
100
AcDbEntity
  8
0
100
AcDbLine
 62
7
  6
CONTINUOUS
 10
115.8557557646
 20
170.6793123929
 11
115.6370776135
 21
170.9839513042
  0
LINE
  5
412
100
AcDbEntity
  8
0
100
AcDbLine
 62
7
  6
CONTINUOUS
 10
114.616579714
 20
172.4055993628
 11
114.3979015629
 21
172.710238274
  0
LINE
  5
413
100
AcDbEntity
  8
B-ACHSEN
100
AcDbLine
 62
7
  6
CONTINUOUS
 10
101.8021048787
 20
75.5873047557
 11
101.1021048787
 21
74.8873047557
  0
LINE
  5
414
100
AcDbEntity
  8
RUNDUNGEN
100
AcDbLine
 62
7
  6
CONTINUOUS
 10
83.8021048787
 20
177.3873047557
 11
103.8021048787
 21
177.3873047557
  0
LINE
  5
415
100
AcDbEntity
  8
0
100
AcDbLine
 62
7
  6
CONTINUOUS
 10
112.4272996089
 20
174.7726300405
 11
112.1318586606
 21
174.8373377252
  0
LINE
  5
416
100
AcDbEntity
  8
0
100
AcDbLine
 62
7
  6
CONTINUOUS
 10
112.0992055112
 20
174.3763827789
 11
112.3328073594
 21
174.2532027042
  0
LINE
  5
417
100
AcDbEntity
  8
0
100
AcDbLine
 62
7
  6
CONTINUOUS
 10
112.7038419599
 20
174.6040370445
 11
112.4272996089
 21
174.7726300405
  0
LINE
  5
418
100
AcDbEntity
  8
0
100
AcDbLine
 62
7
  6
CONTINUOUS
 10
108.5941483081
 20
178.0735471095
 11
108.2828513362
 21
178.2826384659
  0
LINE
  5
419
100
AcDbEntity
  8
0
100
AcDbLine
 62
7
  6
CONTINUOUS
 10
111.2512688537
 20
176.038047149
 11
110.9593357625
 21
176.2734193441
  0
LINE
  5
41A
100
AcDbEntity
  8
0
100
AcDbLine
 62
7
  6
CONTINUOUS
 10
109.7429478592
 20
177.2541368425
 11
109.3050482223
 21
177.6071951352
  0
LINE
  5
41B
100
AcDbEntity
  8
RUNDUNGEN
100
AcDbLine
 62
7
  6
CONTINUOUS
 10
103.8021048787
 20
183.8873047557
 11
83.8021048787
 21
183.8873047557
  0
LINE
  5
41C
100
AcDbEntity
  8
B-ACHSEN
100
AcDbLine
 62
7
  6
CONTINUOUS
 10
171.1328524904
 20
74.8873047557
 11
185.7328524904
 21
74.8873047557
  0
LINE
  5
41D
100
AcDbEntity
  8
B-ACHSEN
100
AcDbLine
 62
7
  6
CONTINUOUS
 10
170.4328524904
 20
75.5873047557
 11
186.4328524904
 21
75.5873047557
  0
LINE
  5
41E
100
AcDbEntity
  8
B-ACHSEN
100
AcDbLine
 62
7
  6
CONTINUOUS
 10
170.4328524904
 20
75.5873047557
 11
171.1328524904
 21
74.8873047557
  0
LINE
  5
41F
100
AcDbEntity
  8
B-ACHSEN
100
AcDbLine
 62
7
  6
CONTINUOUS
 10
159.3534243487
 20
137.7859679129
 11
160.9328524904
 21
124.8873047557
  0
LINE
  5
420
100
AcDbEntity
  8
B-ACHSEN
100
AcDbLine
 62
7
  6
CONTINUOUS
 10
170.4328524904
 20
118.2173047557
 11
186.4328524904
 21
118.2173047557
  0
LINE
  5
421
100
AcDbEntity
  8
B-ACHSEN
100
AcDbLine
 62
7
  6
CONTINUOUS
 10
170.4328524904
 20
118.2173047557
 11
170.4328524904
 21
75.5873047557
  0
LINE
  5
422
100
AcDbEntity
  8
0
100
AcDbLine
 62
7
  6
CONTINUOUS
 10
172.5995191571
 20
153.470638089
 11
172.5995191571
 21
189.8873047557
  0
LINE
  5
423
100
AcDbEntity
  8
B-ACHSEN
100
AcDbLine
 62
7
  6
CONTINUOUS
 10
171.8290467756
 20
122.8231452347
 11
170.4328524904
 21
118.2173047557
  0
LINE
  5
424
100
AcDbEntity
  8
B-ACHSEN
100
AcDbLine
 62
7
  6
CONTINUOUS
 10
160.9328524904
 20
124.8873047557
 11
195.9328524904
 21
124.8873047557
  0
LINE
  5
425
100
AcDbEntity
  8
0
100
AcDbLine
 62
7
  6
CONTINUOUS
 10
194.4882826552
 20
129.3873047557
 11
195.2915721747
 21
129.3873047557
  0
LINE
  5
426
100
AcDbEntity
  8
0
100
AcDbLine
 62
7
  6
CONTINUOUS
 10
195.7035455216
 20
129.3873047557
 11
196.8506816077
 21
129.3873047557
  0
LINE
  5
427
100
AcDbEntity
  8
0
100
AcDbLine
 62
7
  6
CONTINUOUS
 10
196.916296554
 20
129.8873047557
 11
197.0330382443
 21
129.8873047557
  0
LINE
  5
428
100
AcDbEntity
  8
0
100
AcDbLine
 62
7
  6
CONTINUOUS
 10
196.916296554
 20
129.9192196604
 11
196.4798261577
 21
129.9192196604
  0
LINE
  5
429
100
AcDbEntity
  8
0
100
AcDbLine
 62
7
  6
CONTINUOUS
 10
195.7716094793
 20
129.9192196604
 11
196.2972781585
 21
129.9192196604
  0
LINE
  5
42A
100
AcDbEntity
  8
0
100
AcDbLine
 62
7
  6
CONTINUOUS
 10
195.5349885874
 20
131.1958153274
 11
196.2524746904
 21
131.1958153274
  0
LINE
  5
42B
100
AcDbEntity
  8
0
100
AcDbLine
 62
7
  6
CONTINUOUS
 10
193.5411364209
 20
131.3039714223
 11
185.6571422448
 21
131.3039714223
  0
LINE
  5
42C
100
AcDbEntity
  8
0
100
AcDbLine
 62
7
  6
CONTINUOUS
 10
163.3245685564
 20
131.3039714223
 11
171.2085627361
 21
131.3039714223
  0
LINE
  5
42D
100
AcDbEntity
  8
0
100
AcDbLine
 62
7
  6
CONTINUOUS
 10
197.2641074809
 20
131.6745388236
 11
197.2676768647
 21
131.6745388236
  0
LINE
  5
42E
100
AcDbEntity
  8
0
100
AcDbLine
 62
7
  6
CONTINUOUS
 10
195.606471755
 20
131.7277303066
 11
196.321090468
 21
131.7277303066
  0
LINE
  5
42F
100
AcDbEntity
  8
0
100
AcDbLine
 62
7
  6
CONTINUOUS
 10
197.330203989
 20
132.1851770606
 11
197.3266464245
 21
132.1851770606
  0
LINE
  5
430
100
AcDbEntity
  8
0
100
AcDbLine
 62
7
  6
CONTINUOUS
 10
196.642564116
 20
132.5787940349
 11
197.1525453978
 21
132.5787940349
  0
LINE
  5
431
100
AcDbEntity
  8
0
100
AcDbLine
 62
7
  6
CONTINUOUS
 10
194.6962976332
 20
132.791559967
 11
195.2661290739
 21
132.791559967
  0
LINE
  5
432
100
AcDbEntity
  8
0
100
AcDbLine
 62
7
  6
CONTINUOUS
 10
196.7211715039
 20
133.0043258991
 11
197.2304164954
 21
133.0043258991
  0
LINE
  5
433
100
AcDbEntity
  8
0
100
AcDbLine
 62
7
  6
CONTINUOUS
 10
196.2175366418
 20
133.2170921292
 11
197.2567464397
 21
133.2170921292
  0
LINE
  5
434
100
AcDbEntity
  8
0
100
AcDbLine
 62
7
  6
CONTINUOUS
 10
197.4829934734
 20
133.4617728915
 11
197.4865218461
 21
133.4617728915
  0
LINE
  5
435
100
AcDbEntity
  8
0
100
AcDbLine
 62
7
  6
CONTINUOUS
 10
196.9364450363
 20
133.5362410273
 11
197.2711894523
 21
133.5362410273
  0
LINE
  5
436
100
AcDbEntity
  8
0
100
AcDbLine
 62
7
  6
CONTINUOUS
 10
194.8145389744
 20
133.6426239934
 11
195.3834924477
 21
133.6426239934
  0
LINE
  5
437
100
AcDbEntity
  8
0
100
AcDbLine
 62
7
  6
CONTINUOUS
 10
196.2957155053
 20
133.6426239934
 11
196.8188911609
 21
133.6426239934
  0
LINE
  5
438
100
AcDbEntity
  8
0
100
AcDbLine
 62
7
  6
CONTINUOUS
 10
197.0233357316
 20
133.7490069594
 11
197.2572002752
 21
133.7490069594
  0
LINE
  5
439
100
AcDbEntity
  8
0
100
AcDbLine
 62
7
  6
CONTINUOUS
 10
197.1288697261
 20
133.8553899254
 11
197.1956096996
 21
133.8553899254
  0
LINE
  5
43A
100
AcDbEntity
  8
0
100
AcDbLine
 62
7
  6
CONTINUOUS
 10
197.371022401
 20
133.8873047557
 11
197.5232393792
 21
133.8873047557
  0
LINE
  5
43B
100
AcDbEntity
  8
0
100
AcDbLine
 62
7
  6
CONTINUOUS
 10
196.4411227723
 20
134.0681558575
 11
196.9616095067
 21
134.0681558575
  0
LINE
  5
43C
100
AcDbEntity
  8
0
100
AcDbLine
 62
7
  6
CONTINUOUS
 10
196.5525783443
 20
134.2809217896
 11
197.0706568301
 21
134.2809217896
  0
LINE
  5
43D
100
AcDbEntity
  8
0
100
AcDbLine
 62
7
  6
CONTINUOUS
 10
195.1736700298
 20
134.3873047557
 11
195.9631514397
 21
134.3873047557
  0
LINE
  5
43E
100
AcDbEntity
  8
0
100
AcDbLine
 62
7
  6
CONTINUOUS
 10
196.6982029175
 20
134.3873047557
 11
197.2775833521
 21
134.3873047557
  0
LINE
  5
43F
100
AcDbEntity
  8
B-ACHSEN
100
AcDbLine
 62
7
  6
CONTINUOUS
 10
185.0366582052
 20
122.8231452347
 11
186.4328524904
 21
118.2173047557
  0
LINE
  5
440
100
AcDbEntity
  8
0
100
AcDbLine
 62
7
  6
CONTINUOUS
 10
184.2661858238
 20
153.4706383309
 11
184.2661858238
 21
189.8873047557
  0
LINE
  5
441
100
AcDbEntity
  8
0
100
AcDbLine
 62
7
  6
CONTINUOUS
 10
184.4328524904
 20
177.4463612119
 11
184.4328524904
 21
168.3467454478
  0
LINE
  5
442
100
AcDbEntity
  8
0
100
AcDbLine
 62
7
  6
CONTINUOUS
 10
184.4328524904
 20
167.3328996217
 11
184.4328524904
 21
157.3049460018
  0
LINE
  5
443
100
AcDbEntity
  8
0
100
AcDbLine
 62
7
  6
CONTINUOUS
 10
184.4328524904
 20
156.801888032
 11
184.4328524904
 21
154.3844483964
  0
LINE
  5
444
100
AcDbEntity
  8
0
100
AcDbLine
 62
7
  6
CONTINUOUS
 10
184.7828524904
 20
177.4463612119
 11
184.7828524904
 21
168.3467454478
  0
LINE
  5
445
100
AcDbEntity
  8
0
100
AcDbLine
 62
7
  6
CONTINUOUS
 10
184.7828524904
 20
167.3328996217
 11
184.7828524904
 21
157.3049460018
  0
LINE
  5
446
100
AcDbEntity
  8
0
100
AcDbLine
 62
7
  6
CONTINUOUS
 10
184.7828524904
 20
156.801888032
 11
184.7828524904
 21
154.3844483964
  0
LINE
  5
447
100
AcDbEntity
  8
RUNDUNGEN
100
AcDbLine
 62
7
  6
CONTINUOUS
 10
185.2661858238
 20
183.8873047557
 11
185.2661858238
 21
177.3873047557
  0
LINE
  5
448
100
AcDbEntity
  8
B-ACHSEN
100
AcDbLine
 62
7
  6
CONTINUOUS
 10
186.4328524904
 20
118.2173047557
 11
186.4328524904
 21
75.5873047557
  0
LINE
  5
449
100
AcDbEntity
  8
B-ACHSEN
100
AcDbLine
 62
7
  6
CONTINUOUS
 10
197.5122806321
 20
137.7859679129
 11
197.0961177965
 21
134.3873047557
  0
LINE
  5
44A
100
AcDbEntity
  8
B-ACHSEN
100
AcDbLine
 62
7
  6
CONTINUOUS
 10
196.4838728986
 20
129.3873047557
 11
195.9328524904
 21
124.8873047557
  0
LINE
  5
44B
100
AcDbEntity
  8
0
100
AcDbLine
 62
7
  6
CONTINUOUS
 10
197.0452205241
 20
129.8873047557
 11
197.2641074809
 21
131.6745388236
  0
LINE
  5
44C
100
AcDbEntity
  8
0
100
AcDbLine
 62
7
  6
CONTINUOUS
 10
197.5386277985
 20
133.8873047557
 11
197.4865218559
 21
133.4617728915
  0
LINE
  5
44D
100
AcDbEntity
  8
0
100
AcDbLine
 62
7
  6
CONTINUOUS
 10
197.3302039991
 20
132.1851770606
 11
197.267676868
 21
131.6745388236
  0
LINE
  5
44E
100
AcDbEntity
  8
0
100
AcDbLine
 62
7
  6
CONTINUOUS
 10
196.8506816077
 20
129.3873047557
 11
196.916296554
 21
129.9192196604
  0
LINE
  5
44F
100
AcDbEntity
  8
0
100
AcDbLine
 62
7
  6
CONTINUOUS
 10
197.2967972667
 20
133.0043258991
 11
197.3230346868
 21
133.2170921292
  0
LINE
  5
450
100
AcDbEntity
  8
0
100
AcDbLine
 62
7
  6
CONTINUOUS
 10
197.2567464397
 20
133.2170921292
 11
197.2304164954
 21
133.0043258991
  0
LINE
  5
451
100
AcDbEntity
  8
0
100
AcDbLine
 62
7
  6
CONTINUOUS
 10
184.4328524904
 20
154.3844483964
 11
184.7828524904
 21
154.3844483964
  0
LINE
  5
452
100
AcDbEntity
  8
0
100
AcDbLine
 62
7
  6
CONTINUOUS
 10
184.4328524904
 20
154.3962630986
 11
184.7828524904
 21
154.3962630986
  0
LINE
  5
453
100
AcDbEntity
  8
0
100
AcDbLine
 62
7
  6
CONTINUOUS
 10
184.4328524904
 20
154.4283192635
 11
184.7828524904
 21
154.4283192635
  0
LINE
  5
454
100
AcDbEntity
  8
0
100
AcDbLine
 62
7
  6
CONTINUOUS
 10
184.4328524904
 20
154.8655547503
 11
184.7828524904
 21
154.8655547503
  0
LINE
  5
455
100
AcDbEntity
  8
0
100
AcDbLine
 62
7
  6
CONTINUOUS
 10
184.4328524904
 20
155.30322734
 11
184.7828524904
 21
155.30322734
  0
LINE
  5
456
100
AcDbEntity
  8
0
100
AcDbLine
 62
7
  6
CONTINUOUS
 10
184.4328524904
 20
156.3650867888
 11
184.7828524904
 21
156.3650867888
  0
LINE
  5
457
100
AcDbEntity
  8
0
100
AcDbLine
 62
7
  6
CONTINUOUS
 10
184.4328524904
 20
156.4271139406
 11
184.7828524904
 21
156.4271139406
  0
LINE
  5
458
100
AcDbEntity
  8
0
100
AcDbLine
 62
7
  6
CONTINUOUS
 10
184.4328524904
 20
156.801888032
 11
184.7828524904
 21
156.801888032
  0
LINE
  5
459
100
AcDbEntity
  8
0
100
AcDbLine
 62
7
  6
CONTINUOUS
 10
172.5995191571
 20
156.8173643053
 11
184.2661858238
 21
156.8173643053
  0
LINE
  5
45A
100
AcDbEntity
  8
0
100
AcDbLine
 62
7
  6
CONTINUOUS
 10
184.4328524904
 20
157.3049460018
 11
184.7828524904
 21
157.3049460018
  0
LINE
  5
45B
100
AcDbEntity
  8
0
100
AcDbLine
 62
7
  6
CONTINUOUS
 10
184.4328524904
 20
157.6781719275
 11
184.7828524904
 21
157.6781719275
  0
LINE
  5
45C
100
AcDbEntity
  8
0
100
AcDbLine
 62
7
  6
CONTINUOUS
 10
184.4328524904
 20
158.0262131514
 11
184.7828524904
 21
158.0262131514
  0
LINE
  5
45D
100
AcDbEntity
  8
0
100
AcDbLine
 62
7
  6
CONTINUOUS
 10
184.4328524904
 20
158.3912737924
 11
184.7828524904
 21
158.3912737924
  0
LINE
  5
45E
100
AcDbEntity
  8
0
100
AcDbLine
 62
7
  6
CONTINUOUS
 10
184.4328524904
 20
158.962830425
 11
184.7828524904
 21
158.962830425
  0
LINE
  5
45F
100
AcDbEntity
  8
0
100
AcDbLine
 62
7
  6
CONTINUOUS
 10
184.4328524904
 20
160.4474384707
 11
184.7828524904
 21
160.4474384707
  0
LINE
  5
460
100
AcDbEntity
  8
0
100
AcDbLine
 62
7
  6
CONTINUOUS
 10
184.4328524904
 20
160.7445710945
 11
184.7828524904
 21
160.7445710945
  0
LINE
  5
461
100
AcDbEntity
  8
0
100
AcDbLine
 62
7
  6
CONTINUOUS
 10
184.4328524904
 20
160.9555233759
 11
184.7828524904
 21
160.9555233759
  0
LINE
  5
462
100
AcDbEntity
  8
0
100
AcDbLine
 62
7
  6
CONTINUOUS
 10
184.4328524904
 20
161.0924562697
 11
184.7828524904
 21
161.0924562697
  0
LINE
  5
463
100
AcDbEntity
  8
0
100
AcDbLine
 62
7
  6
CONTINUOUS
 10
184.4328524904
 20
161.1178325454
 11
184.7828524904
 21
161.1178325454
  0
LINE
  5
464
100
AcDbEntity
  8
0
100
AcDbLine
 62
7
  6
CONTINUOUS
 10
184.4328524904
 20
161.2627473508
 11
184.7828524904
 21
161.2627473508
  0
LINE
  5
465
100
AcDbEntity
  8
0
100
AcDbLine
 62
7
  6
CONTINUOUS
 10
184.4328524904
 20
161.5428998847
 11
184.7828524904
 21
161.5428998847
  0
LINE
  5
466
100
AcDbEntity
  8
0
100
AcDbLine
 62
7
  6
CONTINUOUS
 10
184.4328524904
 20
161.5960748025
 11
184.7828524904
 21
161.5960748025
  0
LINE
  5
467
100
AcDbEntity
  8
0
100
AcDbLine
 62
7
  6
CONTINUOUS
 10
184.4328524904
 20
162.2992435968
 11
184.7828524904
 21
162.2992435968
  0
LINE
  5
468
100
AcDbEntity
  8
0
100
AcDbLine
 62
7
  6
CONTINUOUS
 10
184.4328524904
 20
162.6606794111
 11
184.7828524904
 21
162.6606794111
  0
LINE
  5
469
100
AcDbEntity
  8
0
100
AcDbLine
 62
7
  6
CONTINUOUS
 10
184.4328524904
 20
162.8376717753
 11
184.7828524904
 21
162.8376717753
  0
LINE
  5
46A
100
AcDbEntity
  8
0
100
AcDbLine
 62
7
  6
CONTINUOUS
 10
184.4328524904
 20
163.0637553347
 11
184.7828524904
 21
163.0637553347
  0
LINE
  5
46B
100
AcDbEntity
  8
0
100
AcDbLine
 62
7
  6
CONTINUOUS
 10
184.4328524904
 20
163.2522823509
 11
184.7828524904
 21
163.2522823509
  0
LINE
  5
46C
100
AcDbEntity
  8
0
100
AcDbLine
 62
7
  6
CONTINUOUS
 10
184.4328524904
 20
163.4032531845
 11
184.7828524904
 21
163.4032531845
  0
LINE
  5
46D
100
AcDbEntity
  8
0
100
AcDbLine
 62
7
  6
CONTINUOUS
 10
184.4328524904
 20
164.1064219788
 11
184.7828524904
 21
164.1064219788
  0
LINE
  5
46E
100
AcDbEntity
  8
0
100
AcDbLine
 62
7
  6
CONTINUOUS
 10
184.4328524904
 20
164.4678576207
 11
184.7828524904
 21
164.4678576207
  0
LINE
  5
46F
100
AcDbEntity
  8
0
100
AcDbLine
 62
7
  6
CONTINUOUS
 10
184.4328524904
 20
165.4334888149
 11
184.7828524904
 21
165.4334888149
  0
LINE
  5
470
100
AcDbEntity
  8
0
100
AcDbLine
 62
7
  6
CONTINUOUS
 10
184.4328524904
 20
166.815664974
 11
184.7828524904
 21
166.815664974
  0
LINE
  5
471
100
AcDbEntity
  8
0
100
AcDbLine
 62
7
  6
CONTINUOUS
 10
184.4328524904
 20
167.0705551479
 11
184.7828524904
 21
167.0705551479
  0
LINE
  5
472
100
AcDbEntity
  8
0
100
AcDbLine
 62
7
  6
CONTINUOUS
 10
184.4328524904
 20
167.234790797
 11
184.7828524904
 21
167.234790797
  0
LINE
  5
473
100
AcDbEntity
  8
0
100
AcDbLine
 62
7
  6
CONTINUOUS
 10
184.4328524904
 20
167.3328996217
 11
184.7828524904
 21
167.3328996217
  0
LINE
  5
474
100
AcDbEntity
  8
0
100
AcDbLine
 62
7
  6
CONTINUOUS
 10
184.4328524904
 20
168.3467454478
 11
184.7828524904
 21
168.3467454478
  0
LINE
  5
475
100
AcDbEntity
  8
0
100
AcDbLine
 62
7
  6
CONTINUOUS
 10
184.4328524904
 20
168.651384359
 11
184.7828524904
 21
168.651384359
  0
LINE
  5
476
100
AcDbEntity
  8
0
100
AcDbLine
 62
7
  6
CONTINUOUS
 10
184.4328524904
 20
169.1969250256
 11
184.7828524904
 21
169.1969250256
  0
LINE
  5
477
100
AcDbEntity
  8
0
100
AcDbLine
 62
7
  6
CONTINUOUS
 10
184.4328524904
 20
171.6634215936
 11
184.7828524904
 21
171.6634215936
  0
LINE
  5
478
100
AcDbEntity
  8
0
100
AcDbLine
 62
7
  6
CONTINUOUS
 10
184.4328524904
 20
172.8443081257
 11
184.7828524904
 21
172.8443081257
  0
LINE
  5
479
100
AcDbEntity
  8
0
100
AcDbLine
 62
7
  6
CONTINUOUS
 10
184.4328524904
 20
173.0378471338
 11
184.7828524904
 21
173.0378471338
  0
LINE
  5
47A
100
AcDbEntity
  8
0
100
AcDbLine
 62
7
  6
CONTINUOUS
 10
184.4328524904
 20
173.0772259988
 11
184.7828524904
 21
173.0772259988
  0
LINE
  5
47B
100
AcDbEntity
  8
0
100
AcDbLine
 62
7
  6
CONTINUOUS
 10
184.4328524904
 20
173.1966562745
 11
184.7828524904
 21
173.1966562745
  0
LINE
  5
47C
100
AcDbEntity
  8
0
100
AcDbLine
 62
7
  6
CONTINUOUS
 10
184.4328524904
 20
173.2628733358
 11
184.7828524904
 21
173.2628733358
  0
LINE
  5
47D
100
AcDbEntity
  8
0
100
AcDbLine
 62
7
  6
CONTINUOUS
 10
184.4328524904
 20
173.4609468829
 11
184.7828524904
 21
173.4609468829
  0
LINE
  5
47E
100
AcDbEntity
  8
0
100
AcDbLine
 62
7
  6
CONTINUOUS
 10
184.4328524904
 20
173.7029734321
 11
184.7828524904
 21
173.7029734321
  0
LINE
  5
47F
100
AcDbEntity
  8
0
100
AcDbLine
 62
7
  6
CONTINUOUS
 10
184.4328524904
 20
173.9889526444
 11
184.7828524904
 21
173.9889526444
  0
LINE
  5
480
100
AcDbEntity
  8
0
100
AcDbLine
 62
7
  6
CONTINUOUS
 10
184.4328524904
 20
174.4067883424
 11
184.7828524904
 21
174.4067883424
  0
LINE
  5
481
100
AcDbEntity
  8
0
100
AcDbLine
 62
7
  6
CONTINUOUS
 10
184.4328524904
 20
174.7036118567
 11
184.7828524904
 21
174.7036118567
  0
LINE
  5
482
100
AcDbEntity
  8
0
100
AcDbLine
 62
7
  6
CONTINUOUS
 10
184.4328524904
 20
174.939928776
 11
184.7828524904
 21
174.939928776
  0
LINE
  5
483
100
AcDbEntity
  8
0
100
AcDbLine
 62
7
  6
CONTINUOUS
 10
184.4328524904
 20
175.1596909269
 11
184.7828524904
 21
175.1596909269
  0
LINE
  5
484
100
AcDbEntity
  8
0
100
AcDbLine
 62
7
  6
CONTINUOUS
 10
184.4328524904
 20
175.318946483
 11
184.7828524904
 21
175.318946483
  0
LINE
  5
485
100
AcDbEntity
  8
0
100
AcDbLine
 62
7
  6
CONTINUOUS
 10
184.4328524904
 20
177.1440364418
 11
184.7828524904
 21
177.1440364418
  0
LINE
  5
486
100
AcDbEntity
  8
RUNDUNGEN
100
AcDbLine
 62
7
  6
CONTINUOUS
 10
185.2661858238
 20
177.3873047557
 11
184.7828524904
 21
177.3873047557
  0
LINE
  5
487
100
AcDbEntity
  8
RUNDUNGEN
100
AcDbLine
 62
7
  6
CONTINUOUS
 10
184.4328524904
 20
177.3873047557
 11
184.2661858238
 21
177.3873047557
  0
LINE
  5
488
100
AcDbEntity
  8
B-ACHSEN
100
AcDbLine
 62
7
  6
CONTINUOUS
 10
186.4328524904
 20
75.5873047557
 11
185.7328524904
 21
74.8873047557
  0
LINE
  5
489
100
AcDbEntity
  8
0
100
AcDbLine
 62
7
  6
CONTINUOUS
 10
184.4328524904
 20
177.4463612119
 11
184.7828524904
 21
177.4463612119
  0
LINE
  5
48A
100
AcDbEntity
  8
RUNDUNGEN
100
AcDbLine
 62
7
  6
CONTINUOUS
 10
185.2661858238
 20
183.8873047557
 11
184.2661858238
 21
183.8873047557
  0
LINE
  5
48B
100
AcDbEntity
  8
BEZUGSACHSEN
100
AcDbLine
 62
7
  6
CONTINUOUS
 10
172.5995191571
 20
189.8873047557
 11
184.2661858238
 21
189.8873047557
  0
ARC
  5
48C
100
AcDbEntity
  8
0
100
AcDbCircle
 62
7
  6
CONTINUOUS
 10
81.1457552399
 20
144.9696624355
 40
46.6666666667
100
AcDbArc
 50
14.7071900927
 51
74.2638676914
  0
ARC
  5
48D
100
AcDbEntity
  8
B-ACHSEN
100
AcDbCircle
 62
7
  6
CONTINUOUS
 10
85.6671048787
 20
123.2873047557
 40
1.6
100
AcDbArc
 50
343.1360749531
 51
90.0
  0
ARC
  5
48E
100
AcDbEntity
  8
0
100
AcDbCircle
 62
7
  6
CONTINUOUS
 10
23.3400278246
 20
184.6899013647
 40
106.65
100
AcDbArc
 50
329.9621953981
 51
344.8500636879
  0
ARC
  5
48F
100
AcDbEntity
  8
RUNDUNGEN
100
AcDbCircle
 62
7
  6
CONTINUOUS
 10
83.8021048787
 20
181.8873047557
 40
2.0
100
AcDbArc
 50
90.0
 51
180.0
  0
ARC
  5
490
100
AcDbEntity
  8
RUNDUNGEN
100
AcDbCircle
 62
7
  6
CONTINUOUS
 10
83.8021048787
 20
179.3873047557
 40
2.0
100
AcDbArc
 50
180.0
 51
270.0
  0
ARC
  5
491
100
AcDbEntity
  8
0
100
AcDbCircle
 62
7
  6
CONTINUOUS
 10
106.4584545174
 20
144.9696624355
 40
46.6666666667
100
AcDbArc
 50
105.7361323086
 51
165.2928099073
  0
ARC
  5
492
100
AcDbEntity
  8
B-ACHSEN
100
AcDbCircle
 62
7
  6
CONTINUOUS
 10
101.9371048787
 20
123.2873047557
 40
1.6
100
AcDbArc
 50
90.0
 51
196.8639250469
  0
ARC
  5
493
100
AcDbEntity
  8
0
100
AcDbCircle
 62
7
  6
CONTINUOUS
 10
164.2641819327
 20
184.6899013647
 40
106.65
100
AcDbArc
 50
195.1499363121
 51
210.0378046019
  0
ARC
  5
494
100
AcDbEntity
  8
RUNDUNGEN
100
AcDbCircle
 62
7
  6
CONTINUOUS
 10
93.8021048787
 20
156.3873047557
 40
17.5
100
AcDbArc
 50
255.4211961779
 51
284.5789158462
  0
ARC
  5
495
100
AcDbEntity
  8
0
100
AcDbCircle
 62
7
  6
CONTINUOUS
 10
93.8021048787
 20
156.3873047557
 40
17.5
100
AcDbArc
 50
284.5789158462
 51
295.8950745206
  0
ARC
  5
496
100
AcDbEntity
  8
0
100
AcDbCircle
 62
7
  6
CONTINUOUS
 10
93.8021048787
 20
156.3873047557
 40
17.5
100
AcDbArc
 50
244.1046388526
 51
255.4211961779
  0
ARC
  5
497
100
AcDbEntity
  8
RUNDUNGEN
100
AcDbCircle
 62
7
  6
CONTINUOUS
 10
93.8021048787
 20
156.3873047557
 40
17.5
100
AcDbArc
 50
351.8204054927
 51
188.1795945076
  0
ARC
  5
498
100
AcDbEntity
  8
0
100
AcDbCircle
 62
7
  6
CONTINUOUS
 10
93.8021048787
 20
156.3873047557
 40
17.5
100
AcDbArc
 50
322.1087617343
 51
217.8912545981
  0
ARC
  5
499
100
AcDbEntity
  8
RUNDUNGEN
100
AcDbCircle
 62
7
  6
CONTINUOUS
 10
103.8021048787
 20
179.3873047557
 40
2.0
100
AcDbArc
 50
270.0
 51
360.0
  0
ARC
  5
49A
100
AcDbEntity
  8
RUNDUNGEN
100
AcDbCircle
 62
7
  6
CONTINUOUS
 10
103.8021048787
 20
181.8873047557
 40
2.0
100
AcDbArc
 50
0.0
 51
90.0
  0
ARC
  5
49B
100
AcDbEntity
  8
B-ACHSEN
100
AcDbCircle
 62
7
  6
CONTINUOUS
 10
198.2661858238
 20
153.470638089
 40
14.0
100
AcDbArc
 50
253.8869679055
 51
261.1524953192
  0
ARC
  5
49C
100
AcDbEntity
  8
BEZUGSACHSEN
100
AcDbCircle
 62
7
  6
CONTINUOUS
 10
158.5995191571
 20
153.470638089
 40
14.0
100
AcDbArc
 50
278.8475046808
 51
286.1130320945
  0
ARC
  5
49D
100
AcDbEntity
  8
0
100
AcDbCircle
 62
7
  6
CONTINUOUS
 10
198.2661858238
 20
153.470638089
 40
14.0
100
AcDbArc
 50
179.9999990099
 51
253.8869679055
  0
ARC
  5
49E
100
AcDbEntity
  8
0
100
AcDbCircle
 62
7
  6
CONTINUOUS
 10
158.5995191571
 20
153.470638089
 40
14.0
100
AcDbArc
 50
286.1130320945
 51
360.0
  0
ARC
  5
49F
100
AcDbEntity
  8
B-ACHSEN
100
AcDbCircle
 62
7
  6
CONTINUOUS
 10
195.8563156737
 20
137.9887391323
 40
1.6683333333
100
AcDbArc
 50
353.0189425932
 51
81.1524953192
  0
ARC
  5
4A0
100
AcDbEntity
  8
BEZUGSACHSEN
100
AcDbCircle
 62
7
  6
CONTINUOUS
 10
161.0093893072
 20
137.9887391323
 40
1.6683333333
100
AcDbArc
 50
98.8475046808
 51
186.9810574068
  0
ARC
  5
4A1
100
AcDbEntity
  8
B-ACHSEN
100
AcDbCircle
 62
7
  6
CONTINUOUS
 10
170.2978524904
 20
123.2873047557
 40
1.6
100
AcDbArc
 50
343.1360749531
 51
90.0
  0
ARC
  5
4A2
100
AcDbEntity
  8
B-ACHSEN
100
AcDbCircle
 62
7
  6
CONTINUOUS
 10
186.5678524904
 20
123.2873047557
 40
1.6
100
AcDbArc
 50
90.0
 51
196.8639250469
  0
SPLINE
  5
4A3
100
AcDbEntity
  8
0
100
AcDbSpline
 62
7
  6
CONTINUOUS
 70
0
 71
3
 72
16
 73
12
 74
0
 42
0.0000001
 43
0.0000001
 44
0.0000000001
 40
0.0
 40
0.0
 40
0.0
 40
0.0
 40
0.1446271351
 40
0.2830621113
 40
0.4157083365
 40
0.5432039395
 40
0.6660983485
 40
0.7844243878
 40
0.89705901
 40
0.9502150348
 40
1.0
 40
1.0
 40
1.0
 40
1.0
 10
86.1596621118
 20
140.6442893208
 30
0.0
 10
85.8106296564
 20
140.8137354546
 30
0.0
 10
85.1272242371
 20
141.1449041535
 30
0.0
 10
84.1451975056
 20
141.6747859491
 30
0.0
 10
83.2425610462
 20
142.2502417112
 30
0.0
 10
82.4269946629
 20
142.8776999908
 30
0.0
 10
81.7003393424
 20
143.5507364521
 30
0.0
 10
81.0599516433
 20
144.2527984786
 30
0.0
 10
80.586059715
 20
144.8502434828
 30
0.0
 10
80.2391351684
 20
145.3129200336
 30
0.0
 10
80.0735630422
 20
145.5339692539
 30
0.0
 10
79.9915367676
 20
145.6393698294
 30
0.0
  0
SPLINE
  5
4A4
100
AcDbEntity
  8
0
100
AcDbSpline
 62
7
  6
CONTINUOUS
 70
0
 71
3
 72
16
 73
12
 74
0
 42
0.0000001
 43
0.0000001
 44
0.0000000001
 40
0.0
 40
0.0
 40
0.0
 40
0.0
 40
0.0497865425
 40
0.1029430931
 40
0.2155780258
 40
0.333903774
 40
0.4567976786
 40
0.5842927803
 40
0.7169386972
 40
0.8553732157
 40
1.0
 40
1.0
 40
1.0
 40
1.0
 10
107.6126121272
 20
145.6392985757
 30
0.0
 10
107.5305869707
 20
145.5338990112
 30
0.0
 10
107.3650256681
 20
145.3128493399
 30
0.0
 10
107.0181077691
 20
144.8501906732
 30
0.0
 10
106.5442348229
 20
144.2527704288
 30
0.0
 10
105.903873191
 20
143.5507415222
 30
0.0
 10
105.1772537926
 20
142.8777338493
 30
0.0
 10
104.3617274251
 20
142.2503021123
 30
0.0
 10
103.4591423773
 20
141.6748570498
 30
0.0
 10
102.4771600298
 20
141.144999856
 30
0.0
 10
101.7937945397
 20
140.8138285822
 30
0.0
 10
101.4447769621
 20
140.6443919779
 30
0.0
  0
SPLINE
  5
4A5
100
AcDbEntity
  8
0
100
AcDbSpline
 62
7
  6
CONTINUOUS
 70
0
 71
3
 72
14
 73
10
 74
0
 42
0.0000001
 43
0.0000001
 44
0.0000000001
 40
0.0
 40
0.0
 40
0.0
 40
0.0
 40
0.1330273898
 40
0.263289312
 40
0.3910378333
 40
0.516543598
 40
0.6400304932
 40
0.7616802941
 40
1.0
 40
1.0
 40
1.0
 40
1.0
 10
124.2622860405
 20
150.2091778135
 30
0.0
 10
123.6443100758
 20
149.4302265651
 30
0.0
 10
122.2785040683
 20
147.9995826789
 30
0.0
 10
119.9949413959
 20
146.1665985316
 30
0.0
 10
117.5835302842
 20
144.6085747512
 30
0.0
 10
115.0931904039
 20
143.2879281733
 30
0.0
 10
112.5517067608
 20
142.1786559929
 30
0.0
 10
109.1445739159
 20
140.9690960039
 30
0.0
 10
106.5209902085
 20
140.3255878917
 30
0.0
 10
104.7659701177
 20
140.0206133432
 30
0.0
  0
SPLINE
  5
4A6
100
AcDbEntity
  8
B-ACHSEN
100
AcDbSpline
 62
7
  6
CONTINUOUS
 70
0
 71
3
 72
9
 73
5
 74
0
 42
0.0000001
 43
0.0000001
 44
0.0000000001
 40
0.0
 40
0.0
 40
0.0
 40
0.0
 40
0.5114190807
 40
1.0
 40
1.0
 40
1.0
 40
1.0
 10
86.0470163794
 20
139.6372212997
 30
0.0
 10
85.4970955825
 20
139.6740025371
 30
0.0
 10
84.423004929
 20
139.7664208547
 30
0.0
 10
83.3554820593
 20
139.9221166907
 30
0.0
 10
82.8382396397
 20
140.0206133432
 30
0.0
  0
SPLINE
  5
4A7
100
AcDbEntity
  8
0
100
AcDbSpline
 62
7
  6
CONTINUOUS
 70
0
 71
3
 72
14
 73
10
 74
0
 42
0.0000001
 43
0.0000001
 44
0.0000000001
 40
0.0
 40
0.0
 40
0.0
 40
0.0
 40
0.238320715
 40
0.3599707626
 40
0.4834579183
 40
0.6089638232
 40
0.7367122733
 40
0.8669738684
 40
1.0
 40
1.0
 40
1.0
 40
1.0
 10
82.8382396397
 20
140.0206133432
 30
0.0
 10
81.0832120983
 20
140.3255891864
 30
0.0
 10
78.4596186785
 20
140.9690980128
 30
0.0
 10
75.0524764905
 20
142.1786658416
 30
0.0
 10
72.5109892022
 20
143.2879418117
 30
0.0
 10
70.0206480524
 20
144.6085911813
 30
0.0
 10
67.6092394406
 20
146.166615887
 30
0.0
 10
65.3256937994
 20
147.9996011399
 30
0.0
 10
63.9598938431
 20
149.4302339243
 30
0.0
 10
63.3419237169
 20
150.2091778135
 30
0.0
  0
SPLINE
  5
4A8
100
AcDbEntity
  8
B-ACHSEN
100
AcDbSpline
 62
7
  6
CONTINUOUS
 70
0
 71
3
 72
12
 73
8
 74
0
 42
0.0000001
 43
0.0000001
 44
0.0000000001
 40
0.0
 40
0.0
 40
0.0
 40
0.0
 40
0.2556830528
 40
0.5097009005
 40
0.7590310746
 40
0.8809054197
 40
1.0
 40
1.0
 40
1.0
 40
1.0
 10
93.8021048787
 20
137.7859679129
 30
0.0
 10
93.1487816222
 20
137.9770145195
 30
0.0
 10
91.8483633721
 20
138.3646415071
 30
0.0
 10
89.9051968222
 20
138.9190087388
 30
0.0
 10
88.2869695147
 20
139.3139206667
 30
0.0
 10
87.0015390616
 20
139.5433411967
 30
0.0
 10
86.363365078
 20
139.6160624408
 30
0.0
 10
86.0470163794
 20
139.6372212997
 30
0.0
  0
SPLINE
  5
4A9
100
AcDbEntity
  8
B-ACHSEN
100
AcDbSpline
 62
7
  6
CONTINUOUS
 70
0
 71
3
 72
12
 73
8
 74
0
 42
0.0000001
 43
0.0000001
 44
0.0000000001
 40
0.0
 40
0.0
 40
0.0
 40
0.0
 40
0.1190945817
 40
0.2409689358
 40
0.4902991024
 40
0.7443169482
 40
1.0
 40
1.0
 40
1.0
 40
1.0
 10
101.5571933779
 20
139.6372212997
 30
0.0
 10
101.2408446757
 20
139.6160624406
 30
0.0
 10
100.6026706568
 20
139.5433412532
 30
0.0
 10
99.3172402173
 20
139.3139205927
 30
0.0
 10
97.6990128943
 20
138.9190087547
 30
0.0
 10
95.7558463775
 20
138.3646414962
 30
0.0
 10
94.4554281329
 20
137.9770145188
 30
0.0
 10
93.8021048787
 20
137.7859679129
 30
0.0
  0
SPLINE
  5
4AA
100
AcDbEntity
  8
B-ACHSEN
100
AcDbSpline
 62
7
  6
CONTINUOUS
 70
0
 71
3
 72
9
 73
5
 74
0
 42
0.0000001
 43
0.0000001
 44
0.0000000001
 40
0.0
 40
0.0
 40
0.0
 40
0.0
 40
0.488580932
 40
1.0
 40
1.0
 40
1.0
 40
1.0
 10
104.7659701177
 20
140.0206133432
 30
0.0
 10
104.2487276846
 20
139.9221166882
 30
0.0
 10
103.1812048144
 20
139.7664208551
 30
0.0
 10
102.1071141612
 20
139.6740025361
 30
0.0
 10
101.5571933779
 20
139.6372212997
 30
0.0
  0
SPLINE
  5
4AB
100
AcDbEntity
  8
0
100
AcDbSpline
 62
7
  6
CONTINUOUS
 70
0
 71
3
 72
8
 73
4
 74
0
 42
0.0000001
 43
0.0000001
 44
0.0000000001
 40
0.0
 40
0.0
 40
0.0
 40
0.0
 40
1.0
 40
1.0
 40
1.0
 40
1.0
 10
195.2915721747
 20
129.3873047557
 30
0.0
 10
195.5161715895
 20
131.0538719072
 30
0.0
 10
195.7400031331
 20
132.7205426848
 30
0.0
 10
195.9631514397
 20
134.3873047557
 30
0.0
  0
LINE
  5
4AC
100
AcDbEntity
  8
0
100
AcDbLine
 62
7
  6
CONTINUOUS
 10
196.2524746904
 20
131.1958153274
 11
196.321090468
 21
131.7277303066
  0
LINE
  5
4AD
100
AcDbEntity
  8
0
100
AcDbLine
 62
7
  6
CONTINUOUS
 10
197.3266464245
 20
132.1851770606
 11
197.3727744023
 21
132.5618184444
  0
LINE
  5
4AE
100
AcDbEntity
  8
0
100
AcDbLine
 62
7
  6
CONTINUOUS
 10
197.3727744023
 20
132.5618184444
 11
197.4250454614
 21
132.9886191059
  0
LINE
  5
4AF
100
AcDbEntity
  8
0
100
AcDbLine
 62
7
  6
CONTINUOUS
 10
197.4250454614
 20
132.9886191059
 11
197.4511059989
 21
133.2014069991
  0
LINE
  5
4B0
100
AcDbEntity
  8
0
100
AcDbLine
 62
7
  6
CONTINUOUS
 10
197.4511059989
 20
133.2014069991
 11
197.4829934734
 21
133.4617728915
  0
LINE
  5
4B1
100
AcDbEntity
  8
0
100
AcDbLine
 62
7
  6
CONTINUOUS
 10
196.7475169872
 20
133.2170921292
 11
196.7211715039
 21
133.0043258991
  0
LINE
  5
4B2
100
AcDbEntity
  8
0
100
AcDbLine
 62
7
  6
CONTINUOUS
 10
196.562198174
 20
130.1592893718
 11
196.5319920059
 21
129.9128263144
  0
LINE
  5
4B3
100
AcDbEntity
  8
0
100
AcDbLine
 62
7
  6
CONTINUOUS
 10
194.8145389744
 20
133.6426239934
 11
194.6962976332
 21
132.791559967
  0
SPLINE
  5
4B4
100
AcDbEntity
  8
0
100
AcDbSpline
 62
7
  6
CONTINUOUS
 70
0
 71
3
 72
8
 73
4
 74
0
 42
0.0000001
 43
0.0000001
 44
0.0000000001
 40
0.0
 40
0.0
 40
0.0
 40
0.0
 40
1.0
 40
1.0
 40
1.0
 40
1.0
 10
195.6179443728
 20
133.5362410273
 30
0.0
 10
195.4300861297
 20
132.1531825963
 30
0.0
 10
195.2416620531
 20
130.7702008779
 30
0.0
 10
195.0526126991
 20
129.3873047557
 30
0.0
  0
LINE
  5
4B5
100
AcDbEntity
  8
0
100
AcDbLine
 62
7
  6
CONTINUOUS
 10
195.3834924477
 20
133.6426239934
 11
195.2661290739
 21
132.791559967
  0
LINE
  5
4B6
100
AcDbEntity
  8
0
100
AcDbLine
 62
7
  6
CONTINUOUS
 10
195.8920160343
 20
131.7277303066
 11
195.8217072273
 21
131.1958153274
  0
LINE
  5
4B7
100
AcDbEntity
  8
0
100
AcDbLine
 62
7
  6
CONTINUOUS
 10
196.2972781585
 20
129.9192196604
 11
196.2293810675
 21
129.3873047557
  0
SPLINE
  5
4B8
100
AcDbEntity
  8
0
100
AcDbSpline
 62
7
  6
CONTINUOUS
 70
0
 71
3
 72
11
 73
7
 74
0
 42
0.0000001
 43
0.0000001
 44
0.0000000001
 40
0.0
 40
0.0
 40
0.0
 40
0.0
 40
0.2416587805
 40
0.4891562274
 40
0.7421075569
 40
1.0
 40
1.0
 40
1.0
 40
1.0
 10
171.2085627361
 20
131.3039714223
 30
0.0
 10
171.4368620239
 20
132.8134998243
 30
0.0
 10
171.8023213949
 20
135.884037499
 30
0.0
 10
172.1275308272
 20
140.5624187322
 30
0.0
 10
172.2659752998
 20
145.3523983243
 30
0.0
 10
172.2478354357
 20
148.5802706731
 30
0.0
 10
172.2143227499
 20
150.2091778135
 30
0.0
  0
SPLINE
  5
4B9
100
AcDbEntity
  8
0
100
AcDbSpline
 62
7
  6
CONTINUOUS
 70
0
 71
3
 72
11
 73
7
 74
0
 42
0.0000001
 43
0.0000001
 44
0.0000000001
 40
0.0
 40
0.0
 40
0.0
 40
0.0
 40
0.2578925723
 40
0.5108439595
 40
0.7583413586
 40
1.0
 40
1.0
 40
1.0
 40
1.0
 10
184.6513822309
 20
150.2091778135
 30
0.0
 10
184.6178695283
 20
148.5802698577
 30
0.0
 10
184.5997296575
 20
145.3523963285
 30
0.0
 10
184.7381742909
 20
140.5624158589
 30
0.0
 10
185.0633840199
 20
135.8840354714
 30
0.0
 10
185.4288430884
 20
132.813498955
 30
0.0
 10
185.6571422448
 20
131.3039714223
 30
0.0
  0
SPLINE
  5
4BA
100
AcDbEntity
  8
0
100
AcDbSpline
 62
7
  6
CONTINUOUS
 70
0
 71
3
 72
8
 73
4
 74
0
 42
0.0000001
 43
0.0000001
 44
0.0000000001
 40
0.0
 40
0.0
 40
0.0
 40
0.0
 40
1.0
 40
1.0
 40
1.0
 40
1.0
 10
194.4882826552
 20
129.3873047557
 30
0.0
 10
194.6428961769
 20
130.510389404
 30
0.0
 10
194.7970522603
 20
131.6335371071
 30
0.0
 10
194.9507880377
 20
132.7567422438
 30
0.0
  0
LINE
  5
4BB
100
AcDbEntity
  8
0
100
AcDbLine
 62
7
  6
CONTINUOUS
 10
194.9507880377
 20
132.7567422438
 11
194.9555530378
 21
132.7915566948
  0
LINE
  5
4BC
100
AcDbEntity
  8
0
100
AcDbLine
 62
7
  6
CONTINUOUS
 10
197.5232393792
 20
133.8873047557
 11
197.4913627676
 21
133.6271901157
  0
LINE
  5
4BD
100
AcDbEntity
  8
0
100
AcDbLine
 62
7
  6
CONTINUOUS
 10
197.4913627676
 20
133.6271901157
 11
197.4393583833
 21
133.2028366272
  0
LINE
  5
4BE
100
AcDbEntity
  8
0
100
AcDbLine
 62
7
  6
CONTINUOUS
 10
197.4393583833
 20
133.2028366272
 11
197.4132813507
 21
132.9900507416
  0
LINE
  5
4BF
100
AcDbEntity
  8
0
100
AcDbLine
 62
7
  6
CONTINUOUS
 10
197.4132813507
 20
132.9900507416
 11
197.3609768933
 21
132.5632533605
  0
LINE
  5
4C0
100
AcDbEntity
  8
0
100
AcDbLine
 62
7
  6
CONTINUOUS
 10
197.3609768933
 20
132.5632533605
 11
197.3215430571
 21
132.2414786825
  0
LINE
  5
4C1
100
AcDbEntity
  8
0
100
AcDbLine
 62
7
  6
CONTINUOUS
 10
197.3215430571
 20
132.2414786825
 11
197.0330382443
 21
129.8873047557
  0
LINE
  5
4C2
100
AcDbEntity
  8
0
100
AcDbLine
 62
7
  6
CONTINUOUS
 10
195.7716094793
 20
129.9192196604
 11
195.7035455216
 21
129.3873047557
  0
ELLIPSE
  5
4C3
100
AcDbEntity
  8
0
100
AcDbEllipse
 62
7
  6
CONTINUOUS
 10
178.4328524904
 20
151.6020965702
 30
0.0
 11
-0.0
 21
31.686080058
 31
0.0
 40
0.6601684032
 41
-2.2063870728
 42
-2.1774861755
  0
ELLIPSE
  5
4C4
100
AcDbEntity
  8
0
100
AcDbEllipse
 62
7
  6
CONTINUOUS
 10
178.4328524904
 20
135.0089909683
 30
0.0
 11
19.2337181392
 21
-0.0
 31
0.0
 40
0.2554437908
 41
-0.2593498548
 42
-0.2370122267
  0
ELLIPSE
  5
4C5
100
AcDbEntity
  8
0
100
AcDbEllipse
 62
7
  6
CONTINUOUS
 10
178.4328524904
 20
139.189036815
 30
0.0
 11
19.6474035272
 21
0.0
 31
0.0
 40
0.8557230392
 41
-0.3429014658
 42
-0.3294958181
  0
ELLIPSE
  5
4C6
100
AcDbEntity
  8
0
100
AcDbEllipse
 62
7
  6
CONTINUOUS
 10
178.4328524904
 20
151.8805749895
 30
0.0
 11
-0.0
 21
40.8045651115
 31
0.0
 40
0.5076631183
 41
-2.045851069
 42
-2.0370754325
  0
ELLIPSE
  5
4C7
100
AcDbEntity
  8
0
100
AcDbEllipse
 62
7
  6
CONTINUOUS
 10
178.4328524904
 20
133.7484365773
 30
0.0
 11
19.0822916202
 21
0.0
 31
0.0
 40
0.2128381771
 41
0.1314860271
 42
0.1579569253
  0
ELLIPSE
  5
4C8
100
AcDbEntity
  8
0
100
AcDbEllipse
 62
7
  6
CONTINUOUS
 10
178.4328524904
 20
133.315698144
 30
0.0
 11
18.9775506038
 21
0.0
 31
0.0
 40
0.640256089
 41
0.0619678185
 42
0.0795228454
  0
ELLIPSE
  5
4C9
100
AcDbEntity
  8
0
100
AcDbEllipse
 62
7
  6
CONTINUOUS
 10
178.4328524904
 20
134.4913105421
 30
0.0
 11
-0.0
 21
24.4847887725
 31
0.0
 40
0.7737030014
 41
-1.6054650589
 42
-1.588079537
  0
ELLIPSE
  5
4CA
100
AcDbEntity
  8
0
100
AcDbEllipse
 62
7
  6
CONTINUOUS
 10
178.4328524904
 20
214.0836387195
 30
0.0
 11
0.0
 21
147.7055793159
 31
0.0
 40
0.1528302891
 41
-2.1501518142
 42
-2.1467129268
  0
ELLIPSE
  5
4CB
100
AcDbEntity
  8
0
100
AcDbEllipse
 62
7
  6
CONTINUOUS
 10
178.4328524904
 20
251.4637981476
 30
0.0
 11
-0.0
 21
171.0782760125
 31
0.0
 40
0.1528302891
 41
-2.3390991862
 42
-2.3356459194
  0
ELLIPSE
  5
4CC
100
AcDbEntity
  8
0
100
AcDbEllipse
 62
7
  6
CONTINUOUS
 10
178.4328524904
 20
146.3082504404
 30
0.0
 11
0.0
 21
39.4979833627
 31
0.0
 40
0.5076631183
 41
-1.9344368577
 42
-1.9258054517
  0
ELLIPSE
  5
4CD
100
AcDbEntity
  8
0
100
AcDbEllipse
 62
7
  6
CONTINUOUS
 10
178.4328524904
 20
138.1003917521
 30
0.0
 11
-0.0
 21
22.0430580812
 31
0.0
 40
0.881689359
 41
-1.9510381799
 42
-1.83896902
  0
ELLIPSE
  5
4CE
100
AcDbEntity
  8
0
100
AcDbEllipse
 62
7
  6
CONTINUOUS
 10
178.4328524904
 20
273.6266428568
 30
0.0
 11
-0.0
 21
182.3637845176
 31
0.0
 40
0.1528302891
 41
-2.4495466988
 42
-2.4458979717
  0
ELLIPSE
  5
4CF
100
AcDbEntity
  8
0
100
AcDbEllipse
 62
7
  6
CONTINUOUS
 10
178.4328524904
 20
157.1476240779
 30
0.0
 11
0.0
 21
54.7666240387
 31
0.0
 40
0.3720332904
 41
-2.0360052598
 42
-2.0273302149
  0
ELLIPSE
  5
4D0
100
AcDbEntity
  8
0
100
AcDbEllipse
 62
7
  6
CONTINUOUS
 10
178.4328524904
 20
138.9613852853
 30
0.0
 11
0.0
 21
21.911118709
 31
0.0
 40
0.868746329
 41
-1.9278659244
 42
-1.8663762067
  0
ELLIPSE
  5
4D1
100
AcDbEntity
  8
0
100
AcDbEllipse
 62
7
  6
CONTINUOUS
 10
178.4328524904
 20
138.9613852853
 30
0.0
 11
0.0
 21
21.911118709
 31
0.0
 40
0.868746329
 41
-1.9961849031
 42
-1.9327783133
  0
ELLIPSE
  5
4D2
100
AcDbEntity
  8
0
100
AcDbEllipse
 62
7
  6
CONTINUOUS
 10
178.4328524904
 20
152.340900337
 30
0.0
 11
0.0
 21
31.0705608398
 31
0.0
 40
0.6601686765
 41
-2.2165498562
 42
-2.1868673891
  0
ELLIPSE
  5
4D3
100
AcDbEntity
  8
0
100
AcDbEllipse
 62
7
  6
CONTINUOUS
 10
178.4328524904
 20
152.482429856
 30
0.0
 11
-0.0
 21
31.8466144618
 31
0.0
 40
0.6601686765
 41
-2.2038129031
 42
-2.1751084882
  0
ELLIPSE
  5
4D4
100
AcDbEntity
  8
0
100
AcDbEllipse
 62
7
  6
CONTINUOUS
 10
178.4328524904
 20
139.0431132896
 30
0.0
 11
0.0
 21
22.4966908398
 31
0.0
 40
0.868746329
 41
-1.9883943185
 42
-1.8622504625
  0
ELLIPSE
  5
4D5
100
AcDbEntity
  8
0
100
AcDbEllipse
 62
7
  6
CONTINUOUS
 10
178.4328524904
 20
157.5932734025
 30
0.0
 11
-0.0
 21
56.1920817306
 31
0.0
 40
0.3720332904
 41
-2.0321495043
 42
-2.0237101304
  0
ELLIPSE
  5
4D6
100
AcDbEntity
  8
0
100
AcDbEllipse
 62
7
  6
CONTINUOUS
 10
178.4328524904
 20
136.6833244441
 30
0.0
 11
-0.0
 21
37.2411599259
 31
0.0
 40
0.5076631183
 41
-1.6640065437
 42
-1.6554027451
  0
ELLIPSE
  5
4D7
100
AcDbEntity
  8
0
100
AcDbEllipse
 62
7
  6
CONTINUOUS
 10
178.4328524904
 20
132.7359778775
 30
0.0
 11
18.86153543
 21
0.0
 31
0.0
 40
0.8557230392
 41
0.0496021673
 42
0.0628054304
  0
ELLIPSE
  5
4D8
100
AcDbEntity
  8
0
100
AcDbEllipse
 62
7
  6
CONTINUOUS
 10
178.4328524904
 20
133.0922255767
 30
0.0
 11
18.9991269028
 21
0.0
 31
0.0
 40
0.2554437908
 41
0.1357458137
 42
0.1579048104
  0
ELLIPSE
  5
4D9
100
AcDbEntity
  8
0
100
AcDbEllipse
 62
7
  6
CONTINUOUS
 10
178.4328524904
 20
276.267457927
 30
0.0
 11
0.0
 21
186.5872632897
 31
0.0
 40
0.1528302891
 41
-2.4444306102
 42
-2.4408860061
  0
ELLIPSE
  5
4DA
100
AcDbEntity
  8
0
100
AcDbEllipse
 62
7
  6
CONTINUOUS
 10
178.4328524904
 20
144.196543571
 30
0.0
 11
-0.0
 21
26.0018725652
 31
0.0
 40
0.7737035687
 41
-1.9887495936
 42
-1.970912475
  0
ELLIPSE
  5
4DB
100
AcDbEntity
  8
0
100
AcDbEllipse
 62
7
  6
CONTINUOUS
 10
178.4328524904
 20
138.0788348712
 30
0.0
 11
19.5590076517
 21
-0.0
 31
0.0
 40
0.640256089
 41
-0.3260153517
 42
-0.3081334207
  0
ELLIPSE
  5
4DC
100
AcDbEntity
  8
0
100
AcDbEllipse
 62
7
  6
CONTINUOUS
 10
178.4328524904
 20
135.1648395014
 30
0.0
 11
19.2574047021
 21
0.0
 31
0.0
 40
0.1824163876
 41
-0.2543567812
 42
-0.2231874455
  0
ELLIPSE
  5
4DD
100
AcDbEntity
  8
0
100
AcDbEllipse
 62
7
  6
CONTINUOUS
 10
178.4328524904
 20
135.1627869948
 30
0.0
 11
18.7535445624
 21
0.0
 31
0.0
 40
0.1824163876
 41
-0.2607273899
 42
-0.2286737198
  0
ELLIPSE
  5
4DE
100
AcDbEntity
  8
0
100
AcDbEllipse
 62
7
  6
CONTINUOUS
 10
178.4328524904
 20
138.0535497935
 30
0.0
 11
19.0537274655
 21
0.0
 31
0.0
 40
0.640256089
 41
-0.3328006792
 42
-0.314404728
  0
ELLIPSE
  5
4DF
100
AcDbEntity
  8
0
100
AcDbEllipse
 62
7
  6
CONTINUOUS
 10
178.4328524904
 20
144.0935031418
 30
0.0
 11
-0.0
 21
25.3427001201
 31
0.0
 40
0.7737035687
 41
-1.9958637746
 42
-1.977507718
  0
ENDSEC
  0
SECTION
  2
OBJECTS
  0
DICTIONARY
  5
C
100
AcDbDictionary
280
0
281
1
  3
ACAD_GROUP
350
D
  3
ACAD_MLINESTYLE
350
17
  3
ACAD_LAYOUT
350
1A
  3
ACAD_PLOTSETTINGS
350
19
  3
ACAD_PLOTSTYLENAME
350
E
  0
DICTIONARY
  5
D
102
{ACAD_REACTORS
330
C
102
}
100
AcDbDictionary
280
0
281
1
  0
ACDBDICTIONARYWDFLT
  5
E
102
{ACAD_REACTORS
330
C
102
}
100
AcDbDictionary
281
1
  3
Normal
350
F
100
AcDbDictionaryWithDefault
340
F
  0
DICTIONARY
  5
17
102
{ACAD_REACTORS
330
C
102
}
100
AcDbDictionary
280
0
281
1
  3
Standard
350
18
  0
DICTIONARY
  5
19
102
{ACAD_REACTORS
330
C
102
}
100
AcDbDictionary
281
1
  0
DICTIONARY
  5
1A
102
{ACAD_REACTORS
330
C
102
}
100
AcDbDictionary
281
1
  3
Model
350
4E0
  3
Layout1
350
4E1
  0
ACDBPLACEHOLDER
  5
F
102
{ACAD_REACTORS
330
E
102
}
  0
MLINESTYLE
  5
18
102
{ACAD_REACTORS
330
17
102
}
100
AcDbMlineStyle
  2
STANDARD
 70
0
  3

 62
256
 51
90.0
 52
90.0
 71
2
 49
0.5
 62
256
  6
BYLAYER
 49
-0.5
 62
256
  6
BYLAYER
  0
LAYOUT
  5
4E0
102
{ACAD_REACTORS
330
1A
102
}
100
AcDbPlotSettings
  1

  2
none_device
  4
ISO_A4_(297.00_x_210.00_MM)
  6

 40
0.0
 41
0.0
 42
0.0
 43
0.0
 44
297.0
 45
210.0
 46
0.0
 47
0.0
 48
0.0
 49
0.0
140
0.0
141
0.0
142
1.0
143
1.0
 70
1024
 72
1
 73
0
 74
0
  7

 75
0
147
1.0
148
0.0
149
0.0
100
AcDbLayout
  1
Model
 70
0
 71
0
 10
0.0
 20
0.0
 11
297.0
 21
210.0
 12
0.0
 22
0.0
 32
0.0
 14
0.0
 24
0.0
 34
0.0
 15
0.0
 25
0.0
 35
0.0
146
0.0
 13
0.0
 23
0.0
 33
0.0
 16
1.0
 26
0.0
 36
0.0
 17
0.0
 27
1.0
 37
0.0
 76
0
330
210
345
0
346
0
  0
LAYOUT
  5
4E1
102
{ACAD_REACTORS
330
1A
102
}
100
AcDbPlotSettings
  1

  2
none_device
  4
ISO_A4_(297.00_x_210.00_MM)
  6

 40
0.0
 41
0.0
 42
0.0
 43
0.0
 44
297.0
 45
210.0
 46
0.0
 47
0.0
 48
0.0
 49
0.0
140
0.0
141
0.0
142
1.0
143
1.0
 70
0
 72
1
 73
0
 74
0
  7

 75
0
147
1.0
148
0.0
149
0.0
100
AcDbLayout
  1
Layout1
 70
0
 71
1
 10
0.0
 20
0.0
 11
297.0
 21
210.0
 12
0.0
 22
0.0
 32
0.0
 14
0.0
 24
0.0
 34
0.0
 15
0.0
 25
0.0
 35
0.0
146
0.0
 13
0.0
 23
0.0
 33
0.0
 16
1.0
 26
0.0
 36
0.0
 17
0.0
 27
1.0
 37
0.0
 76
0
330
211
345
0
346
0
  0
ENDSEC
  0
EOF
