999
DXF file: PSA-INOX-STAR-M12_7997097_M33132-P-3.dxf
999
Pro/ENGINEER 2010140 by Parametric Technology Corporation
  0
SECTION
  2
HEADER
  9
$ACADVER
  1
AC1015
  9
$DWGCODEPAGE
  3
ANSI_1252
  9
$EXTMAX
 10
297.0
 20
210.0
 30
0.0
  9
$EXTMIN
 10
0.0
 20
0.0
 30
0.0
  9
$LIMMIN
 10
0.0
 20
0.0
  9
$LIMMAX
 10
297.0
 20
210.0
  9
$VIEWCTR
 10
148.5
 20
105.0
  9
$VIEWSIZE
 40
210.0
  9
$CLAYER
  8
0
  9
$LTSCALE
 40
16.335
  9
$CELTYPE
  6
BYLAYER
  9
$DIMSCALE
 40
1.0
  9
$DIMASZ
 40
3.5
  9
$DIMEXO
 40
1.85625
  9
$DIMDLI
 40
11.286
  9
$DIMEXE
 40
5.346
  9
$DIMCEN
 40
2.673
  9
$DIMLFAC
 40
1.0
  9
$DIMBLK
  1
_FILLED
  9
$DIMTXT
 40
3.5
  9
$DIMTOL
 70
1
  9
$DIMLIM
 70
0
  9
$DIMTFAC
 40
1.0
  9
$DIMTP
 40
0.005
  9
$DIMTM
 40
0.005
  9
$PDMODE
 70
3
  9
$PDSIZE
 40
0.3125
  9
$HANDSEED
  5
4A1
  9
$TILEMODE
 70
1
  9
$MEASUREMENT
 70
1
  9
$INSUNITS
 70
4
  0
ENDSEC
  0
SECTION
  2
CLASSES
  0
CLASS
  1
ACDBDICTIONARYWDFLT
  2
AcDbDictionaryWithDefault
  3
AutoCAD 2000
 90
0
280
0
281
0
  0
CLASS
  1
ACDBPLACEHOLDER
  2
AcDbPlaceHolder
  3
AutoCAD 2000
 90
0
280
0
281
0
  0
CLASS
  1
LAYOUT
  2
AcDbLayout
  3
AutoCAD 2000
 90
0
280
0
281
0
  0
ENDSEC
  0
SECTION
  2
TABLES
  0
TABLE
  2
VPORT
  5
8
100
AcDbSymbolTable
 70
2
  0
VPORT
  5
1F4
100
AcDbSymbolTableRecord
100
AcDbViewportTableRecord
  2
*ACTIVE
 70
0
 10
0.0
 20
0.0
 11
1.0
 21
1.0
 12
148.5
 22
105.0
 13
0.0
 23
0.0
 14
1.0
 24
1.0
 15
0.0
 25
0.0
 16
0.0
 26
0.0
 36
1.0
 17
0.0
 27
0.0
 37
0.0
 40
210.0
 41
1.4142857143
 42
50.0
 43
0.0
 44
0.0
 50
0.0
 51
0.0
 71
0
 72
100
 73
1
 74
1
 75
0
 76
0
 77
0
 78
0
  0
ENDTAB
  0
TABLE
  2
LTYPE
  5
5
100
AcDbSymbolTable
 70
6
  0
LTYPE
  5
14
100
AcDbSymbolTableRecord
100
AcDbLinetypeTableRecord
  2
BYBLOCK
 70
0
  3

 72
65
 73
0
 40
0.0
  0
LTYPE
  5
15
100
AcDbSymbolTableRecord
100
AcDbLinetypeTableRecord
  2
BYLAYER
 70
0
  3

 72
65
 73
0
 40
0.0
  0
LTYPE
  5
16
100
AcDbSymbolTableRecord
100
AcDbLinetypeTableRecord
  2
CONTINUOUS
 70
64
  3
Solid line
 72
65
 73
0
 40
0.0
  0
LTYPE
  5
1F5
100
AcDbSymbolTableRecord
100
AcDbLinetypeTableRecord
  2
CENTER
 70
64
  3
____ _ ____ _ ____ _ ____ _ ____ _ ____ _ ____
 72
65
 73
4
 40
0.6
 49
0.375
 74
0
 49
-0.075
 74
0
 49
0.075
 74
0
 49
-0.075
 74
0
  0
LTYPE
  5
1F6
100
AcDbSymbolTableRecord
100
AcDbLinetypeTableRecord
  2
HIDDEN
 70
64
  3
- - - - - - - - - - - - - - - - - - - -
 72
65
 73
2
 40
0.2
 49
0.1
 74
0
 49
-0.1
 74
0
  0
LTYPE
  5
1F7
100
AcDbSymbolTableRecord
100
AcDbLinetypeTableRecord
  2
PHANTOM
 70
64
  3
_____ _ _ _____ _ _ _____ _ _ _____
 72
65
 73
6
 40
0.8
 49
0.45
 74
0
 49
-0.05
 74
0
 49
0.1
 74
0
 49
-0.05
 74
0
 49
0.1
 74
0
 49
-0.05
 74
0
  0
LTYPE
  5
1F8
100
AcDbSymbolTableRecord
100
AcDbLinetypeTableRecord
  2
DOT
 70
64
  3
. . . . . . . . . . . . . . . . . . . .
 72
65
 73
2
 40
0.2
 49
0.1
 74
0
 49
-0.1
 74
0
  0
LTYPE
  5
1F9
100
AcDbSymbolTableRecord
100
AcDbLinetypeTableRecord
  2
DASHED
 70
64
  3
- - - - - - - - - - - - - - - - - - - -
 72
65
 73
2
 40
0.2
 49
0.1
 74
0
 49
-0.1
 74
0
  0
ENDTAB
  0
TABLE
  2
LAYER
  5
2
100
AcDbSymbolTable
 70
36
  0
LAYER
  5
10
100
AcDbSymbolTableRecord
100
AcDbLayerTableRecord
  2
0
 70
0
 62
7
  6
CONTINUOUS
370
-3
390
F
  0
LAYER
  5
1FA
100
AcDbSymbolTableRecord
100
AcDbLayerTableRecord
  2
DEFAULT_1
 70
0
 62
7
  6
CENTER
370
-3
390
F
  0
LAYER
  5
1FB
100
AcDbSymbolTableRecord
100
AcDbLayerTableRecord
  2
DEFAULT_2
 70
0
 62
8
  6
HIDDEN
370
-3
390
F
  0
LAYER
  5
1FC
100
AcDbSymbolTableRecord
100
AcDbLayerTableRecord
  2
DEFAULT_3
 70
0
 62
7
  6
PHANTOM
370
-3
390
F
  0
LAYER
  5
1FD
100
AcDbSymbolTableRecord
100
AcDbLayerTableRecord
  2
B-ACHSEN
 70
0
 62
7
  6
CONTINUOUS
370
-3
390
F
  0
LAYER
  5
1FE
100
AcDbSymbolTableRecord
100
AcDbLayerTableRecord
  2
B-EBENEN
 70
0
 62
7
  6
CONTINUOUS
370
-3
390
F
  0
LAYER
  5
1FF
100
AcDbSymbolTableRecord
100
AcDbLayerTableRecord
  2
B-KOORSYS
 70
0
 62
7
  6
CONTINUOUS
370
-3
390
F
  0
LAYER
  5
200
100
AcDbSymbolTableRecord
100
AcDbLayerTableRecord
  2
B-KURVEN
 70
0
 62
7
  6
CONTINUOUS
370
-3
390
F
  0
LAYER
  5
201
100
AcDbSymbolTableRecord
100
AcDbLayerTableRecord
  2
BEMASSUNG
 70
0
 62
7
  6
CONTINUOUS
370
-3
390
F
  0
LAYER
  5
202
100
AcDbSymbolTableRecord
100
AcDbLayerTableRecord
  2
BEZUGSACHSEN
 70
0
 62
7
  6
CONTINUOUS
370
-3
390
F
  0
LAYER
  5
203
100
AcDbSymbolTableRecord
100
AcDbLayerTableRecord
  2
BEZUGSEBENEN
 70
0
 62
7
  6
CONTINUOUS
370
-3
390
F
  0
LAYER
  5
204
100
AcDbSymbolTableRecord
100
AcDbLayerTableRecord
  2
BEZUGSPUNKTE
 70
0
 62
7
  6
CONTINUOUS
370
-3
390
F
  0
LAYER
  5
205
100
AcDbSymbolTableRecord
100
AcDbLayerTableRecord
  2
BOHRUNGEN
 70
0
 62
7
  6
CONTINUOUS
370
-3
390
F
  0
LAYER
  5
206
100
AcDbSymbolTableRecord
100
AcDbLayerTableRecord
  2
FLAECHEN
 70
0
 62
7
  6
CONTINUOUS
370
-3
390
F
  0
LAYER
  5
207
100
AcDbSymbolTableRecord
100
AcDbLayerTableRecord
  2
FLAECHENVERBUND
 70
0
 62
7
  6
CONTINUOUS
370
-3
390
F
  0
LAYER
  5
208
100
AcDbSymbolTableRecord
100
AcDbLayerTableRecord
  2
KURVEN
 70
0
 62
7
  6
CONTINUOUS
370
-3
390
F
  0
LAYER
  5
209
100
AcDbSymbolTableRecord
100
AcDbLayerTableRecord
  2
KURVENELEMENTE
 70
0
 62
7
  6
CONTINUOUS
370
-3
390
F
  0
LAYER
  5
20A
100
AcDbSymbolTableRecord
100
AcDbLayerTableRecord
  2
NOTIZEN
 70
0
 62
7
  6
CONTINUOUS
370
-3
390
F
  0
LAYER
  5
20B
100
AcDbSymbolTableRecord
100
AcDbLayerTableRecord
  2
RUNDUNGEN
 70
0
 62
7
  6
CONTINUOUS
370
-3
390
F
  0
LAYER
  5
20C
100
AcDbSymbolTableRecord
100
AcDbLayerTableRecord
  2
VERBUNDFLAECHEN
 70
0
 62
7
  6
CONTINUOUS
370
-3
390
F
  0
LAYER
  5
20D
100
AcDbSymbolTableRecord
100
AcDbLayerTableRecord
  2
ZEICHNUNGSBEMASSUNGEN
 70
0
 62
7
  6
CONTINUOUS
370
-3
390
F
  0
ENDTAB
  0
TABLE
  2
STYLE
  5
3
100
AcDbSymbolTable
 70
1
  0
STYLE
  5
11
100
AcDbSymbolTableRecord
100
AcDbTextStyleTableRecord
  2
STANDARD
 70
0
 40
0.0
 41
0.7
 50
0.0
 71
0
 42
0.2
  3
txt
  4

  0
STYLE
  5
20E
100
AcDbSymbolTableRecord
100
AcDbTextStyleTableRecord
  2
TEXTSTYLE_1
 70
0
 40
0.0
 41
0.8
 50
0.0
 71
0
 42
0.2
  3
gdt
  4

  0
ENDTAB
  0
TABLE
  2
VIEW
  5
6
100
AcDbSymbolTable
 70
0
  0
ENDTAB
  0
TABLE
  2
UCS
  5
7
100
AcDbSymbolTable
 70
0
  0
ENDTAB
  0
TABLE
  2
APPID
  5
9
100
AcDbSymbolTable
 70
1
  0
APPID
  5
20F
100
AcDbSymbolTableRecord
100
AcDbRegAppTableRecord
  2
ACAD
 70
0
  0
ENDTAB
  0
TABLE
  2
BLOCK_RECORD
  5
1
100
AcDbSymbolTable
 70
0
  0
BLOCK_RECORD
  5
210
100
AcDbSymbolTableRecord
100
AcDbBlockTableRecord
  2
*Model_Space
  0
BLOCK_RECORD
  5
211
100
AcDbSymbolTableRecord
100
AcDbBlockTableRecord
  2
*Paper_Space
  0
ENDTAB
  0
TABLE
  2
DIMSTYLE
  5
A
100
AcDbSymbolTable
 70
1
100
AcDbDimStyleTable
 71
0
  0
DIMSTYLE
105
212
100
AcDbSymbolTableRecord
100
AcDbDimStyleTableRecord
  2
STANDARD
 70
0
  3

  4

 40
1.0
 41
3.5
 42
0.0625
 43
0.38
 44
0.18
 45
0.0
 46
0.0
 47
0.005
 48
0.005
140
3.5
141
0.09
142
0.0
143
25.4
144
1.0
145
0.0
146
1.0
147
0.09
 71
1.0
 72
0.0
 73
0
 74
0
 75
0
 76
0
 77
1
 78
8
170
0
171
2
172
0
173
0
174
0
175
0
176
0
177
0
178
5
270
2
271
3
272
3
273
2
274
2
275
0
280
0
281
0
282
0
283
1
284
8
285
0
286
0
287
3
288
0
340
11
  0
ENDTAB
  0
ENDSEC
  0
SECTION
  2
BLOCKS
  0
BLOCK
  5
20
100
AcDbEntity
  8
0
100
AcDbBlockBegin
  2
*Model_Space
 70
0
 10
0.0
 20
0.0
 30
0.0
  3
*Model_Space
  1

  0
ENDBLK
  5
21
100
AcDbEntity
  8
0
100
AcDbBlockEnd
  0
BLOCK
  5
1C
100
AcDbEntity
  8
0
100
AcDbBlockBegin
  2
*Paper_Space
 70
0
 10
0.0
 20
0.0
 30
0.0
  3
*Paper_Space
  1

  0
ENDBLK
  5
1D
100
AcDbEntity
  8
0
100
AcDbBlockEnd
  0
ENDSEC
  0
SECTION
  2
ENTITIES
  0
MTEXT
  5
213
100
AcDbEntity
  8
0
100
AcDbMText
 62
5
  6
CONTINUOUS
  7
STANDARD
 71
2
 72
1
 10
167.7928484173
 20
136.6263710308
 30
0.0
 11
0.0
 21
1.0
 31
0.0
 44
0.9
  1
RUD PSA\PINOX STAR M12\P1 Pers
 40
2.0
 41
20.2857142857
  0
LINE
  5
214
100
AcDbEntity
  8
0
100
AcDbLine
 62
7
  6
CONTINUOUS
 10
0.0
 20
0.0
 11
0.0
 21
210.0
  0
LINE
  5
215
100
AcDbEntity
  8
0
100
AcDbLine
 62
7
  6
CONTINUOUS
 10
0.0
 20
0.0
 11
297.0
 21
0.0
  0
LINE
  5
216
100
AcDbEntity
  8
0
100
AcDbLine
 62
7
  6
CONTINUOUS
 10
0.0
 20
210.0
 11
297.0
 21
210.0
  0
LINE
  5
217
100
AcDbEntity
  8
0
100
AcDbLine
 62
7
  6
CONTINUOUS
 10
297.0
 20
0.0
 11
297.0
 21
210.0
  0
LINE
  5
218
100
AcDbEntity
  8
B-ACHSEN
100
AcDbLine
 62
7
  6
CONTINUOUS
 10
104.4792567784
 20
106.1499012918
 11
93.4792567784
 21
106.1499012918
  0
LINE
  5
219
100
AcDbEntity
  8
B-ACHSEN
100
AcDbLine
 62
7
  6
CONTINUOUS
 10
104.9792567784
 20
106.6499012918
 11
92.9792567784
 21
106.6499012918
  0
LINE
  5
21A
100
AcDbEntity
  8
0
100
AcDbLine
 62
7
  6
CONTINUOUS
 10
80.6629463292
 20
163.6645257753
 11
80.4225321613
 21
163.4291267478
  0
LINE
  5
21B
100
AcDbEntity
  8
0
100
AcDbLine
 62
7
  6
CONTINUOUS
 10
85.4933567312
 20
168.8508412559
 11
84.2561801565
 21
167.8761520117
  0
LINE
  5
21C
100
AcDbEntity
  8
0
100
AcDbLine
 62
7
  6
CONTINUOUS
 10
84.7958972619
 20
167.827347626
 11
85.7753291102
 21
168.5989769209
  0
LINE
  5
21D
100
AcDbEntity
  8
0
100
AcDbLine
 62
7
  6
CONTINUOUS
 10
88.26482178
 20
170.6509345743
 11
87.97841741
 21
170.4908151691
  0
LINE
  5
21E
100
AcDbEntity
  8
0
100
AcDbLine
 62
7
  6
CONTINUOUS
 10
88.1964526514
 20
170.1008171806
 11
88.5401384198
 21
170.2929607599
  0
LINE
  5
21F
100
AcDbEntity
  8
0
100
AcDbLine
 62
7
  6
CONTINUOUS
 10
89.0655202227
 20
170.1601060155
 11
89.4092059911
 21
170.3522495949
  0
LINE
  5
220
100
AcDbEntity
  8
0
100
AcDbLine
 62
7
  6
CONTINUOUS
 10
89.0488874182
 20
169.3829652711
 11
88.7052016498
 21
169.1908216918
  0
LINE
  5
221
100
AcDbEntity
  8
0
100
AcDbLine
 62
7
  6
CONTINUOUS
 10
85.79718605
 20
168.995405866
 11
85.4933567312
 21
168.8508412559
  0
LINE
  5
222
100
AcDbEntity
  8
0
100
AcDbLine
 62
7
  6
CONTINUOUS
 10
91.6587785804
 20
172.1628022117
 11
91.1650755749
 21
171.9842474115
  0
LINE
  5
223
100
AcDbEntity
  8
0
100
AcDbLine
 62
7
  6
CONTINUOUS
 10
92.7524781262
 20
170.1035041439
 11
91.6416453045
 21
169.7017554604
  0
LINE
  5
224
100
AcDbEntity
  8
0
100
AcDbLine
 62
7
  6
CONTINUOUS
 10
85.7753291102
 20
168.5989769209
 11
85.9760607744
 21
168.6623177371
  0
LINE
  5
225
100
AcDbEntity
  8
0
100
AcDbLine
 62
7
  6
CONTINUOUS
 10
88.5875653569
 20
170.7460543147
 11
88.26482178
 21
170.6509345743
  0
LINE
  5
226
100
AcDbEntity
  8
0
100
AcDbLine
 62
7
  6
CONTINUOUS
 10
89.3716309951
 20
169.4780850115
 11
89.0488874182
 21
169.3829652711
  0
LINE
  5
227
100
AcDbEntity
  8
B-ACHSEN
100
AcDbLine
 62
7
  6
CONTINUOUS
 10
92.9792567784
 20
106.6499012918
 11
93.4792567784
 21
106.1499012918
  0
LINE
  5
228
100
AcDbEntity
  8
0
100
AcDbLine
 62
7
  6
CONTINUOUS
 10
79.0618035458
 20
161.1375390761
 11
78.9042128872
 21
160.7767008203
  0
LINE
  5
229
100
AcDbEntity
  8
0
100
AcDbLine
 62
7
  6
CONTINUOUS
 10
78.2738502528
 20
159.3333477973
 11
78.116259519
 21
158.9725093695
  0
LINE
  5
22A
100
AcDbEntity
  8
0
100
AcDbLine
 62
7
  6
CONTINUOUS
 10
77.6817913004
 20
157.3630200269
 11
77.527181925
 21
157.0641764356
  0
LINE
  5
22B
100
AcDbEntity
  8
0
100
AcDbLine
 62
7
  6
CONTINUOUS
 10
80.4225321613
 20
163.4291267478
 11
79.5689445032
 21
162.1054904269
  0
LINE
  5
22C
100
AcDbEntity
  8
0
100
AcDbLine
 62
7
  6
CONTINUOUS
 10
80.1578410384
 20
162.1942470089
 11
80.798031782
 21
163.1869742495
  0
LINE
  5
22D
100
AcDbEntity
  8
0
100
AcDbLine
 62
7
  6
CONTINUOUS
 10
77.9040577974
 20
157.0340339633
 11
78.0256529145
 21
157.2058474886
  0
LINE
  5
22E
100
AcDbEntity
  8
0
100
AcDbLine
 62
7
  6
CONTINUOUS
 10
86.6915562613
 20
167.3299622689
 11
86.9032163954
 21
167.5915175577
  0
LINE
  5
22F
100
AcDbEntity
  8
0
100
AcDbLine
 62
7
  6
CONTINUOUS
 10
88.0609489741
 20
169.9397457261
 11
88.1964526514
 21
170.1008171806
  0
LINE
  5
230
100
AcDbEntity
  8
0
100
AcDbLine
 62
7
  6
CONTINUOUS
 10
87.97841741
 20
170.4908151691
 11
87.7856323343
 21
170.2977195405
  0
LINE
  5
231
100
AcDbEntity
  8
0
100
AcDbLine
 62
7
  6
CONTINUOUS
 10
80.798031782
 20
163.1869742495
 11
81.0028795262
 21
163.3672213429
  0
LINE
  5
232
100
AcDbEntity
  8
0
100
AcDbLine
 62
7
  6
CONTINUOUS
 10
86.4665981244
 20
167.7215466667
 11
85.4871662761
 21
166.9499173719
  0
LINE
  5
233
100
AcDbEntity
  8
0
100
AcDbLine
 62
7
  6
CONTINUOUS
 10
85.7636738302
 20
166.5989453358
 11
86.6915562613
 21
167.3299622689
  0
LINE
  5
234
100
AcDbEntity
  8
0
100
AcDbLine
 62
7
  6
CONTINUOUS
 10
86.4221562548
 20
165.1268707344
 11
86.7314503985
 21
165.3705430455
  0
LINE
  5
235
100
AcDbEntity
  8
0
100
AcDbLine
 62
7
  6
CONTINUOUS
 10
88.9232368911
 20
168.8008237032
 11
89.2669226595
 21
168.9929672826
  0
LINE
  5
236
100
AcDbEntity
  8
0
100
AcDbLine
 62
7
  6
CONTINUOUS
 10
88.6411405462
 20
167.9605867508
 11
88.2974547778
 21
167.7684431714
  0
LINE
  5
237
100
AcDbEntity
  8
0
100
AcDbLine
 62
7
  6
CONTINUOUS
 10
89.8120108393
 20
168.0179721745
 11
89.3537622741
 21
167.7617802467
  0
LINE
  5
238
100
AcDbEntity
  8
0
100
AcDbLine
 62
7
  6
CONTINUOUS
 10
89.5717975409
 20
167.3717822126
 11
90.0300461062
 21
167.6279741404
  0
LINE
  5
239
100
AcDbEntity
  8
0
100
AcDbLine
 62
7
  6
CONTINUOUS
 10
80.9303773434
 20
163.804414119
 11
80.6629463292
 21
163.6645257753
  0
LINE
  5
23A
100
AcDbEntity
  8
0
100
AcDbLine
 62
7
  6
CONTINUOUS
 10
81.0028795262
 20
163.3672213429
 11
81.2347445237
 21
163.4519583836
  0
LINE
  5
23B
100
AcDbEntity
  8
0
100
AcDbLine
 62
7
  6
CONTINUOUS
 10
91.6812410842
 20
169.3993210155
 11
92.9154993042
 21
169.8457082714
  0
LINE
  5
23C
100
AcDbEntity
  8
0
100
AcDbLine
 62
7
  6
CONTINUOUS
 10
91.3680346212
 20
168.3357807915
 11
91.7383122285
 21
168.4696970194
  0
LINE
  5
23D
100
AcDbEntity
  8
0
100
AcDbLine
 62
7
  6
CONTINUOUS
 10
93.4662748664
 20
169.0946395863
 11
93.8365524736
 21
169.2285558142
  0
LINE
  5
23E
100
AcDbEntity
  8
0
100
AcDbLine
 62
7
  6
CONTINUOUS
 10
89.2490539609
 20
167.2766624779
 11
89.5717975409
 21
167.3717822126
  0
LINE
  5
23F
100
AcDbEntity
  8
0
100
AcDbLine
 62
7
  6
CONTINUOUS
 10
77.527181925
 20
157.0641764356
 11
77.1310110147
 21
155.5398163699
  0
LINE
  5
240
100
AcDbEntity
  8
0
100
AcDbLine
 62
7
  6
CONTINUOUS
 10
77.5904225092
 20
155.8272489719
 11
77.9040577974
 21
157.0340339633
  0
LINE
  5
241
100
AcDbEntity
  8
0
100
AcDbLine
 62
7
  6
CONTINUOUS
 10
78.9851643
 20
156.7530616676
 11
78.6715290118
 21
155.5462766761
  0
LINE
  5
242
100
AcDbEntity
  8
0
100
AcDbLine
 62
7
  6
CONTINUOUS
 10
79.1039715321
 20
155.4338877788
 11
79.3845925856
 21
156.5136427951
  0
LINE
  5
243
100
AcDbEntity
  8
0
100
AcDbLine
 62
7
  6
CONTINUOUS
 10
81.4395510522
 20
158.9533240372
 11
81.3344905631
 21
158.7127650853
  0
LINE
  5
244
100
AcDbEntity
  8
0
100
AcDbLine
 62
7
  6
CONTINUOUS
 10
81.7439524126
 20
158.5339388065
 11
81.8490129017
 21
158.7744977584
  0
LINE
  5
245
100
AcDbEntity
  8
0
100
AcDbLine
 62
7
  6
CONTINUOUS
 10
86.575160604
 20
167.9018781616
 11
86.4665981244
 21
167.7215466667
  0
LINE
  5
246
100
AcDbEntity
  8
0
100
AcDbLine
 62
7
  6
CONTINUOUS
 10
87.7856323343
 20
170.2977195405
 11
87.6291864655
 21
170.0396242471
  0
LINE
  5
247
100
AcDbEntity
  8
0
100
AcDbLine
 62
7
  6
CONTINUOUS
 10
82.9884465431
 20
161.7744178118
 11
82.3482557995
 21
160.7816905711
  0
LINE
  5
248
100
AcDbEntity
  8
0
100
AcDbLine
 62
7
  6
CONTINUOUS
 10
82.5103585495
 20
160.2086289644
 11
83.3639462076
 21
161.5322652853
  0
LINE
  5
249
100
AcDbEntity
  8
0
100
AcDbLine
 62
7
  6
CONTINUOUS
 10
81.5443832742
 20
158.2630447537
 11
81.7439524126
 21
158.5339388065
  0
LINE
  5
24A
100
AcDbEntity
  8
0
100
AcDbLine
 62
7
  6
CONTINUOUS
 10
81.3344905631
 20
158.7127650853
 11
81.1611865906
 21
158.5020108539
  0
LINE
  5
24B
100
AcDbEntity
  8
0
100
AcDbLine
 62
7
  6
CONTINUOUS
 10
90.004794604
 20
168.2110670702
 11
89.8120108393
 21
168.0179721745
  0
LINE
  5
24C
100
AcDbEntity
  8
0
100
AcDbLine
 62
7
  6
CONTINUOUS
 10
90.0300461062
 20
167.6279741404
 11
90.2801112661
 21
167.853093216
  0
LINE
  5
24D
100
AcDbEntity
  8
0
100
AcDbLine
 62
7
  6
CONTINUOUS
 10
81.3028354999
 20
158.0820945623
 11
81.5443832742
 21
158.2630447537
  0
LINE
  5
24E
100
AcDbEntity
  8
0
100
AcDbLine
 62
7
  6
CONTINUOUS
 10
77.9640410298
 20
157.5608855287
 11
77.6817913004
 21
157.3630200269
  0
LINE
  5
24F
100
AcDbEntity
  8
0
100
AcDbLine
 62
7
  6
CONTINUOUS
 10
81.1611865906
 20
158.5020108539
 11
80.9459039462
 21
158.3812004995
  0
LINE
  5
250
100
AcDbEntity
  8
0
100
AcDbLine
 62
7
  6
CONTINUOUS
 10
78.0256529145
 20
157.2058474886
 11
78.2028146796
 21
157.2954145889
  0
LINE
  5
251
100
AcDbEntity
  8
0
100
AcDbLine
 62
7
  6
CONTINUOUS
 10
108.280625818
 20
171.130655147
 11
107.9376753788
 21
170.970788319
  0
LINE
  5
252
100
AcDbEntity
  8
B-ACHSEN
100
AcDbLine
 62
7
  6
CONTINUOUS
 10
104.9792567784
 20
119.1499012918
 11
92.9792567784
 21
119.1499012918
  0
LINE
  5
253
100
AcDbEntity
  8
0
100
AcDbLine
 62
7
  6
CONTINUOUS
 10
78.9626119104
 20
156.9623381587
 11
78.9851643
 21
156.7530616676
  0
LINE
  5
254
100
AcDbEntity
  8
0
100
AcDbLine
 62
7
  6
CONTINUOUS
 10
81.4763679078
 20
159.2236873654
 11
81.4395510522
 21
158.9533240372
  0
LINE
  5
255
100
AcDbEntity
  8
0
100
AcDbLine
 62
7
  6
CONTINUOUS
 10
81.8490129017
 20
158.7744977584
 11
81.9120947609
 21
159.1050005691
  0
LINE
  5
256
100
AcDbEntity
  8
0
100
AcDbLine
 62
7
  6
CONTINUOUS
 10
80.5184778274
 20
154.6594365693
 11
80.617520555
 21
155.0405265858
  0
LINE
  5
257
100
AcDbEntity
  8
0
100
AcDbLine
 62
7
  6
CONTINUOUS
 10
81.0301985707
 20
156.6284015936
 11
81.145748451
 21
157.0730067339
  0
LINE
  5
258
100
AcDbEntity
  8
0
100
AcDbLine
 62
7
  6
CONTINUOUS
 10
83.068127747
 20
162.0353824046
 11
82.9884465431
 21
161.7744178118
  0
LINE
  5
259
100
AcDbEntity
  8
0
100
AcDbLine
 62
7
  6
CONTINUOUS
 10
83.3639462076
 20
161.5322652853
 11
83.4791938298
 21
161.8483818157
  0
LINE
  5
25A
100
AcDbEntity
  8
0
100
AcDbLine
 62
7
  6
CONTINUOUS
 10
87.9617845037
 20
169.7136746069
 11
88.0609489741
 21
169.9397457261
  0
LINE
  5
25B
100
AcDbEntity
  8
0
100
AcDbLine
 62
7
  6
CONTINUOUS
 10
90.103959049
 20
168.437138235
 11
90.004794604
 21
168.2110670702
  0
LINE
  5
25C
100
AcDbEntity
  8
0
100
AcDbLine
 62
7
  6
CONTINUOUS
 10
90.2801112661
 20
167.853093216
 11
90.4365571254
 21
168.1111885265
  0
LINE
  5
25D
100
AcDbEntity
  8
0
100
AcDbLine
 62
7
  6
CONTINUOUS
 10
108.249759472
 20
167.7216518989
 11
108.5927099229
 21
167.8815187501
  0
LINE
  5
25E
100
AcDbEntity
  8
0
100
AcDbLine
 62
7
  6
CONTINUOUS
 10
78.3018574071
 20
157.6765046053
 11
77.9640410298
 21
157.5608855287
  0
LINE
  5
25F
100
AcDbEntity
  8
0
100
AcDbLine
 62
7
  6
CONTINUOUS
 10
80.9248006026
 20
157.9607534703
 11
81.3028354999
 21
158.0820945623
  0
LINE
  5
260
100
AcDbEntity
  8
B-ACHSEN
100
AcDbLine
 62
7
  6
CONTINUOUS
 10
113.9792567784
 20
124.1499012918
 11
83.9792567784
 21
124.1499012918
  0
LINE
  5
261
100
AcDbEntity
  8
0
100
AcDbLine
 62
7
  6
CONTINUOUS
 10
81.9120947609
 20
159.1050005691
 11
81.8806679649
 21
159.4051682814
  0
LINE
  5
262
100
AcDbEntity
  8
0
100
AcDbLine
 62
7
  6
CONTINUOUS
 10
83.4791938298
 20
161.8483818157
 11
83.4962917472
 21
162.1497051688
  0
LINE
  5
263
100
AcDbEntity
  8
0
100
AcDbLine
 62
7
  6
CONTINUOUS
 10
86.9032163954
 20
167.5915175577
 11
86.9711591074
 21
167.9294520929
  0
LINE
  5
264
100
AcDbEntity
  8
0
100
AcDbLine
 62
7
  6
CONTINUOUS
 10
87.6291864655
 20
170.0396242471
 11
87.5454203215
 21
169.6515303571
  0
LINE
  5
265
100
AcDbEntity
  8
0
100
AcDbLine
 62
7
  6
CONTINUOUS
 10
107.9770378203
 20
170.5331439322
 11
108.1822449748
 21
170.679467722
  0
LINE
  5
266
100
AcDbEntity
  8
0
100
AcDbLine
 62
7
  6
CONTINUOUS
 10
110.7600959284
 20
167.9731125184
 11
108.9150553045
 21
167.093662407
  0
LINE
  5
267
100
AcDbEntity
  8
0
100
AcDbLine
 62
7
  6
CONTINUOUS
 10
112.5619030773
 20
168.791929627
 11
111.075518665
 21
168.1140430236
  0
LINE
  5
268
100
AcDbEntity
  8
0
100
AcDbLine
 62
7
  6
CONTINUOUS
 10
109.2000286299
 20
166.890462496
 11
110.6864124987
 21
167.5683494869
  0
LINE
  5
269
100
AcDbEntity
  8
0
100
AcDbLine
 62
7
  6
CONTINUOUS
 10
111.0450692537
 20
167.7699126073
 11
112.8468764027
 21
168.588729716
  0
LINE
  5
26A
100
AcDbEntity
  8
0
100
AcDbLine
 62
7
  6
CONTINUOUS
 10
105.7417562062
 20
128.0754332155
 11
105.4417564923
 21
127.9903268129
  0
LINE
  5
26B
100
AcDbEntity
  8
0
100
AcDbLine
 62
7
  6
CONTINUOUS
 10
105.4417564923
 20
127.6499012918
 11
105.8917564923
 21
127.735007672
  0
LINE
  5
26C
100
AcDbEntity
  8
0
100
AcDbLine
 62
7
  6
CONTINUOUS
 10
100.2667560632
 20
127.6499012918
 11
100.7917562062
 21
127.735007672
  0
LINE
  5
26D
100
AcDbEntity
  8
0
100
AcDbLine
 62
7
  6
CONTINUOUS
 10
100.7167560632
 20
128.0754332155
 11
100.1917563493
 21
127.9903268129
  0
LINE
  5
26E
100
AcDbEntity
  8
0
100
AcDbLine
 62
7
  6
CONTINUOUS
 10
93.4792567784
 20
127.1499012918
 11
94.0417567784
 21
127.1499012918
  0
LINE
  5
26F
100
AcDbEntity
  8
0
100
AcDbLine
 62
7
  6
CONTINUOUS
 10
95.6167562062
 20
127.6499012918
 11
96.0667562062
 21
127.6499012918
  0
LINE
  5
270
100
AcDbEntity
  8
0
100
AcDbLine
 62
7
  6
CONTINUOUS
 10
101.9917563493
 20
127.6499012918
 11
102.3667562062
 21
127.6499012918
  0
LINE
  5
271
100
AcDbEntity
  8
0
100
AcDbLine
 62
7
  6
CONTINUOUS
 10
104.9917564923
 20
127.6499012918
 11
105.4417564923
 21
127.6499012918
  0
LINE
  5
272
100
AcDbEntity
  8
0
100
AcDbLine
 62
7
  6
CONTINUOUS
 10
105.4417564923
 20
127.9903268129
 11
104.9917564923
 21
127.9903268129
  0
LINE
  5
273
100
AcDbEntity
  8
0
100
AcDbLine
 62
7
  6
CONTINUOUS
 10
79.33948783
 20
156.9321958681
 11
79.2613687926
 21
157.2237187843
  0
LINE
  5
274
100
AcDbEntity
  8
B-ACHSEN
100
AcDbLine
 62
7
  6
CONTINUOUS
 10
83.3057873907
 20
129.6499012918
 11
83.9792567784
 21
124.1499012918
  0
LINE
  5
275
100
AcDbEntity
  8
0
100
AcDbLine
 62
7
  6
CONTINUOUS
 10
83.0496596202
 20
162.2815544724
 11
83.068127747
 21
162.0353824046
  0
LINE
  5
276
100
AcDbEntity
  8
0
100
AcDbLine
 62
7
  6
CONTINUOUS
 10
86.5860890739
 20
168.1000926342
 11
86.575160604
 21
167.9018781616
  0
LINE
  5
277
100
AcDbEntity
  8
0
100
AcDbLine
 62
7
  6
CONTINUOUS
 10
90.4365571254
 20
168.1111885265
 11
90.5203232566
 21
168.4992824393
  0
LINE
  5
278
100
AcDbEntity
  8
0
100
AcDbLine
 62
7
  6
CONTINUOUS
 10
107.9376753788
 20
170.970788319
 11
107.6987363295
 21
170.7580746008
  0
LINE
  5
279
100
AcDbEntity
  8
0
100
AcDbLine
 62
7
  6
CONTINUOUS
 10
108.5927099229
 20
167.8815187501
 11
108.8316492934
 21
168.0942323636
  0
LINE
  5
27A
100
AcDbEntity
  8
0
100
AcDbLine
 62
7
  6
CONTINUOUS
 10
108.5533474106
 20
168.3191629974
 11
108.3481403506
 21
168.1728393936
  0
LINE
  5
27B
100
AcDbEntity
  8
0
100
AcDbLine
 62
7
  6
CONTINUOUS
 10
115.6629735516
 20
165.0964582778
 11
115.391532641
 21
164.9606253959
  0
LINE
  5
27C
100
AcDbEntity
  8
0
100
AcDbLine
 62
7
  6
CONTINUOUS
 10
115.5464451806
 20
164.6380612464
 11
115.7589370112
 21
164.7283917187
  0
LINE
  5
27D
100
AcDbEntity
  8
0
100
AcDbLine
 62
7
  6
CONTINUOUS
 10
114.8226018542
 20
162.1633896398
 11
115.1296859204
 21
162.253046344
  0
LINE
  5
27E
100
AcDbEntity
  8
0
100
AcDbLine
 62
7
  6
CONTINUOUS
 10
104.5417564923
 20
129.9477735967
 11
104.8417562062
 21
130.0328799695
  0
LINE
  5
27F
100
AcDbEntity
  8
0
100
AcDbLine
 62
7
  6
CONTINUOUS
 10
99.8917562062
 20
129.9477735967
 11
100.1917563493
 21
130.0328799695
  0
LINE
  5
280
100
AcDbEntity
  8
0
100
AcDbLine
 62
7
  6
CONTINUOUS
 10
103.3417559201
 20
130.3733054608
 11
102.9667564923
 21
130.288199088
  0
LINE
  5
281
100
AcDbEntity
  8
0
100
AcDbLine
 62
7
  6
CONTINUOUS
 10
97.4167562062
 20
129.4371353597
 11
97.7917562778
 21
129.5222417325
  0
LINE
  5
282
100
AcDbEntity
  8
0
100
AcDbLine
 62
7
  6
CONTINUOUS
 10
102.8917559201
 20
129.8626672238
 11
103.3417559201
 21
129.9477735967
  0
LINE
  5
283
100
AcDbEntity
  8
0
100
AcDbLine
 62
7
  6
CONTINUOUS
 10
104.8417562062
 20
130.3733054608
 11
104.3917562062
 21
130.288199088
  0
LINE
  5
284
100
AcDbEntity
  8
0
100
AcDbLine
 62
7
  6
CONTINUOUS
 10
100.2667560632
 20
130.3733054608
 11
99.8167560632
 21
130.288199088
  0
LINE
  5
285
100
AcDbEntity
  8
0
100
AcDbLine
 62
7
  6
CONTINUOUS
 10
104.3167564923
 20
128.330752334
 11
103.9417562062
 21
128.330752334
  0
LINE
  5
286
100
AcDbEntity
  8
0
100
AcDbLine
 62
7
  6
CONTINUOUS
 10
101.3917560632
 20
128.5009651393
 11
101.0167562062
 21
128.5009651393
  0
LINE
  5
287
100
AcDbEntity
  8
0
100
AcDbLine
 62
7
  6
CONTINUOUS
 10
99.3667560632
 20
129.0116033763
 11
101.3917560632
 21
129.0116033763
  0
LINE
  5
288
100
AcDbEntity
  8
0
100
AcDbLine
 62
7
  6
CONTINUOUS
 10
101.0167562062
 20
129.3520289868
 11
99.4417562062
 21
129.3520289868
  0
LINE
  5
289
100
AcDbEntity
  8
0
100
AcDbLine
 62
7
  6
CONTINUOUS
 10
96.0667562062
 20
129.4371353597
 11
97.4167562062
 21
129.4371353597
  0
LINE
  5
28A
100
AcDbEntity
  8
0
100
AcDbLine
 62
7
  6
CONTINUOUS
 10
117.6367433555
 20
129.6499012918
 11
107.1321680764
 21
129.6499012918
  0
LINE
  5
28B
100
AcDbEntity
  8
0
100
AcDbLine
 62
7
  6
CONTINUOUS
 10
90.8263454804
 20
129.6499012918
 11
80.3217702014
 21
129.6499012918
  0
LINE
  5
28C
100
AcDbEntity
  8
0
100
AcDbLine
 62
7
  6
CONTINUOUS
 10
105.9667562062
 20
129.6924544782
 11
106.3417564923
 21
129.6924544782
  0
LINE
  5
28D
100
AcDbEntity
  8
0
100
AcDbLine
 62
7
  6
CONTINUOUS
 10
97.4917561347
 20
129.9477735967
 11
96.0667562062
 21
129.9477735967
  0
LINE
  5
28E
100
AcDbEntity
  8
0
100
AcDbLine
 62
7
  6
CONTINUOUS
 10
104.8417562062
 20
130.0328799695
 11
105.2917562062
 21
130.0328799695
  0
LINE
  5
28F
100
AcDbEntity
  8
0
100
AcDbLine
 62
7
  6
CONTINUOUS
 10
105.2917562062
 20
130.3733054608
 11
104.8417562062
 21
130.3733054608
  0
LINE
  5
290
100
AcDbEntity
  8
0
100
AcDbLine
 62
7
  6
CONTINUOUS
 10
102.3667562062
 20
130.3733054608
 11
101.9917563493
 21
130.3733054608
  0
LINE
  5
291
100
AcDbEntity
  8
0
100
AcDbLine
 62
7
  6
CONTINUOUS
 10
99.8167560632
 20
127.735007672
 11
100.2667560632
 21
127.6499012918
  0
LINE
  5
292
100
AcDbEntity
  8
0
100
AcDbLine
 62
7
  6
CONTINUOUS
 10
104.5417564923
 20
127.735007672
 11
104.9917564923
 21
127.6499012918
  0
LINE
  5
293
100
AcDbEntity
  8
0
100
AcDbLine
 62
7
  6
CONTINUOUS
 10
104.9917564923
 20
127.9903268129
 11
104.5417564923
 21
128.0754332155
  0
LINE
  5
294
100
AcDbEntity
  8
0
100
AcDbLine
 62
7
  6
CONTINUOUS
 10
100.1917563493
 20
130.0328799695
 11
100.6417563493
 21
129.9477735967
  0
LINE
  5
295
100
AcDbEntity
  8
0
100
AcDbLine
 62
7
  6
CONTINUOUS
 10
100.7167560632
 20
130.288199088
 11
100.2667560632
 21
130.3733054608
  0
LINE
  5
296
100
AcDbEntity
  8
0
100
AcDbLine
 62
7
  6
CONTINUOUS
 10
100.1917563493
 20
127.9903268129
 11
99.8917562062
 21
128.0754332155
  0
LINE
  5
297
100
AcDbEntity
  8
0
100
AcDbLine
 62
7
  6
CONTINUOUS
 10
99.5917560632
 20
127.8201140523
 11
99.8167560632
 21
127.735007672
  0
LINE
  5
298
100
AcDbEntity
  8
0
100
AcDbLine
 62
7
  6
CONTINUOUS
 10
104.3167564923
 20
127.8201140523
 11
104.5417564923
 21
127.735007672
  0
LINE
  5
299
100
AcDbEntity
  8
0
100
AcDbLine
 62
7
  6
CONTINUOUS
 10
99.8917562062
 20
128.0754332155
 11
99.7417563493
 21
128.1605395884
  0
LINE
  5
29A
100
AcDbEntity
  8
0
100
AcDbLine
 62
7
  6
CONTINUOUS
 10
81.4186759221
 20
159.4637152668
 11
81.4763679078
 21
159.2236873654
  0
LINE
  5
29B
100
AcDbEntity
  8
0
100
AcDbLine
 62
7
  6
CONTINUOUS
 10
86.9711591074
 20
167.9294520929
 11
86.9414678099
 21
168.2852696059
  0
LINE
  5
29C
100
AcDbEntity
  8
0
100
AcDbLine
 62
7
  6
CONTINUOUS
 10
90.1095042251
 20
168.6961855777
 11
90.103959049
 21
168.437138235
  0
LINE
  5
29D
100
AcDbEntity
  8
0
100
AcDbLine
 62
7
  6
CONTINUOUS
 10
107.6987363295
 20
170.7580746008
 11
107.4780705939
 21
170.4525472884
  0
LINE
  5
29E
100
AcDbEntity
  8
0
100
AcDbLine
 62
7
  6
CONTINUOUS
 10
107.7901041684
 20
170.29400692
 11
107.9770378203
 21
170.5331439322
  0
LINE
  5
29F
100
AcDbEntity
  8
0
100
AcDbLine
 62
7
  6
CONTINUOUS
 10
96.0667562062
 20
131.2243694276
 11
97.4917561347
 21
131.2243694276
  0
LINE
  5
2A0
100
AcDbEntity
  8
0
100
AcDbLine
 62
7
  6
CONTINUOUS
 10
97.4167562062
 20
131.6499012918
 11
95.6167562062
 21
131.6499012918
  0
LINE
  5
2A1
100
AcDbEntity
  8
0
100
AcDbLine
 62
7
  6
CONTINUOUS
 10
94.0417567784
 20
132.1499012918
 11
93.4792567784
 21
132.1499012918
  0
LINE
  5
2A2
100
AcDbEntity
  8
0
100
AcDbLine
 62
7
  6
CONTINUOUS
 10
105.2917562062
 20
130.0328799695
 11
105.7417562062
 21
129.9477735967
  0
LINE
  5
2A3
100
AcDbEntity
  8
0
100
AcDbLine
 62
7
  6
CONTINUOUS
 10
105.7417562062
 20
130.288199088
 11
105.2917562062
 21
130.3733054608
  0
LINE
  5
2A4
100
AcDbEntity
  8
0
100
AcDbLine
 62
7
  6
CONTINUOUS
 10
97.7917562778
 20
131.5647949189
 11
97.4167562062
 21
131.6499012918
  0
LINE
  5
2A5
100
AcDbEntity
  8
0
100
AcDbLine
 62
7
  6
CONTINUOUS
 10
104.3917562062
 20
129.0967097491
 11
105.6667564923
 21
128.671177885
  0
LINE
  5
2A6
100
AcDbEntity
  8
0
100
AcDbLine
 62
7
  6
CONTINUOUS
 10
105.8917564923
 20
128.9264970035
 11
104.6167562062
 21
129.3520289868
  0
LINE
  5
2A7
100
AcDbEntity
  8
0
100
AcDbLine
 62
7
  6
CONTINUOUS
 10
97.4917561347
 20
131.2243694276
 11
97.7167561347
 21
131.1392630548
  0
LINE
  5
2A8
100
AcDbEntity
  8
0
100
AcDbLine
 62
7
  6
CONTINUOUS
 10
105.9667562062
 20
130.2030927152
 11
105.7417562062
 21
130.288199088
  0
LINE
  5
2A9
100
AcDbEntity
  8
0
100
AcDbLine
 62
7
  6
CONTINUOUS
 10
104.5417564923
 20
128.0754332155
 11
104.3917562062
 21
128.1605395884
  0
LINE
  5
2AA
100
AcDbEntity
  8
0
100
AcDbLine
 62
7
  6
CONTINUOUS
 10
101.0917563493
 20
130.0328799695
 11
100.7167560632
 21
130.288199088
  0
LINE
  5
2AB
100
AcDbEntity
  8
0
100
AcDbLine
 62
7
  6
CONTINUOUS
 10
99.3667560632
 20
127.9903268129
 11
99.5917560632
 21
127.8201140523
  0
LINE
  5
2AC
100
AcDbEntity
  8
0
100
AcDbLine
 62
7
  6
CONTINUOUS
 10
100.6417563493
 20
129.9477735967
 11
100.8667563493
 21
129.777560851
  0
LINE
  5
2AD
100
AcDbEntity
  8
0
100
AcDbLine
 62
7
  6
CONTINUOUS
 10
104.0917564923
 20
127.9903268129
 11
104.3167564923
 21
127.8201140523
  0
LINE
  5
2AE
100
AcDbEntity
  8
0
100
AcDbLine
 62
7
  6
CONTINUOUS
 10
98.0917562062
 20
131.3094758004
 11
97.7917562778
 21
131.5647949189
  0
LINE
  5
2AF
100
AcDbEntity
  8
0
100
AcDbLine
 62
7
  6
CONTINUOUS
 10
99.2167562062
 20
128.1605395884
 11
99.3667560632
 21
127.9903268129
  0
LINE
  5
2B0
100
AcDbEntity
  8
0
100
AcDbLine
 62
7
  6
CONTINUOUS
 10
99.7417563493
 20
128.1605395884
 11
99.5167563493
 21
128.4158587665
  0
LINE
  5
2B1
100
AcDbEntity
  8
0
100
AcDbLine
 62
7
  6
CONTINUOUS
 10
97.7167561347
 20
131.1392630548
 11
97.8667562062
 21
130.9690503091
  0
LINE
  5
2B2
100
AcDbEntity
  8
0
100
AcDbLine
 62
7
  6
CONTINUOUS
 10
83.4962917472
 20
162.1497051688
 11
83.3882231188
 21
162.5317460249
  0
LINE
  5
2B3
100
AcDbEntity
  8
0
100
AcDbLine
 62
7
  6
CONTINUOUS
 10
90.5203232566
 20
168.4992824393
 11
90.4895292004
 21
168.8233294923
  0
LINE
  5
2B4
100
AcDbEntity
  8
0
100
AcDbLine
 62
7
  6
CONTINUOUS
 10
91.1650755749
 20
171.9842474115
 11
91.3680346212
 21
168.3357807915
  0
LINE
  5
2B5
100
AcDbEntity
  8
0
100
AcDbLine
 62
7
  6
CONTINUOUS
 10
92.9167567784
 20
131.4052205295
 11
92.9167567784
 21
130.5541565031
  0
LINE
  5
2B6
100
AcDbEntity
  8
B-ACHSEN
100
AcDbLine
 62
7
  6
CONTINUOUS
 10
92.9792567784
 20
119.1499012918
 11
92.9792567784
 21
106.6499012918
  0
LINE
  5
2B7
100
AcDbEntity
  8
0
100
AcDbLine
 62
7
  6
CONTINUOUS
 10
108.8316492934
 20
168.0942323636
 11
109.052314637
 21
168.3997596412
  0
LINE
  5
2B8
100
AcDbEntity
  8
0
100
AcDbLine
 62
7
  6
CONTINUOUS
 10
108.7402810625
 20
168.5583000096
 11
108.5533474106
 21
168.3191629974
  0
LINE
  5
2B9
100
AcDbEntity
  8
0
100
AcDbLine
 62
7
  6
CONTINUOUS
 10
115.391532641
 20
164.9606253959
 11
115.1557354955
 21
164.7786151201
  0
LINE
  5
2BA
100
AcDbEntity
  8
0
100
AcDbLine
 62
7
  6
CONTINUOUS
 10
115.4285466904
 20
164.5470561722
 11
115.5464451806
 21
164.6380612464
  0
LINE
  5
2BB
100
AcDbEntity
  8
0
100
AcDbLine
 62
7
  6
CONTINUOUS
 10
117.7877036515
 20
163.0886294479
 11
117.4638073188
 21
162.9049761739
  0
LINE
  5
2BC
100
AcDbEntity
  8
0
100
AcDbLine
 62
7
  6
CONTINUOUS
 10
117.9241651332
 20
162.0930755491
 11
115.2034355749
 21
160.550387842
  0
LINE
  5
2BD
100
AcDbEntity
  8
0
100
AcDbLine
 62
7
  6
CONTINUOUS
 10
115.376069673
 20
160.2459252529
 11
118.0967992313
 21
161.78861296
  0
LINE
  5
2BE
100
AcDbEntity
  8
0
100
AcDbLine
 62
7
  6
CONTINUOUS
 10
118.5571570458
 20
160.9767123352
 11
118.8810533786
 21
161.1603656092
  0
LINE
  5
2BF
100
AcDbEntity
  8
0
100
AcDbLine
 62
7
  6
CONTINUOUS
 10
105.7417562062
 20
129.9477735967
 11
105.8917564923
 21
129.8626672238
  0
LINE
  5
2C0
100
AcDbEntity
  8
0
100
AcDbLine
 62
7
  6
CONTINUOUS
 10
104.6167562062
 20
129.3520289868
 11
104.3917562062
 21
129.5222417325
  0
LINE
  5
2C1
100
AcDbEntity
  8
0
100
AcDbLine
 62
7
  6
CONTINUOUS
 10
105.6667564923
 20
128.671177885
 11
105.8917564923
 21
128.5009651393
  0
LINE
  5
2C2
100
AcDbEntity
  8
0
100
AcDbLine
 62
7
  6
CONTINUOUS
 10
106.1917562062
 20
130.0328799695
 11
105.9667562062
 21
130.2030927152
  0
LINE
  5
2C3
100
AcDbEntity
  8
0
100
AcDbLine
 62
7
  6
CONTINUOUS
 10
104.0917564923
 20
129.3520289868
 11
104.3917562062
 21
129.0967097491
  0
LINE
  5
2C4
100
AcDbEntity
  8
0
100
AcDbLine
 62
7
  6
CONTINUOUS
 10
106.1917562062
 20
128.671177885
 11
105.8917564923
 21
128.9264970035
  0
LINE
  5
2C5
100
AcDbEntity
  8
0
100
AcDbLine
 62
7
  6
CONTINUOUS
 10
78.8514786619
 20
157.1268311905
 11
78.9626119104
 21
156.9623381587
  0
LINE
  5
2C6
100
AcDbEntity
  8
0
100
AcDbLine
 62
7
  6
CONTINUOUS
 10
98.3167562062
 20
130.9690503091
 11
98.0917562062
 21
131.3094758004
  0
LINE
  5
2C7
100
AcDbEntity
  8
0
100
AcDbLine
 62
7
  6
CONTINUOUS
 10
81.8806679649
 20
159.4051682814
 11
81.7127538957
 21
159.7649447491
  0
LINE
  5
2C8
100
AcDbEntity
  8
0
100
AcDbLine
 62
7
  6
CONTINUOUS
 10
99.0667561347
 20
128.5009651393
 11
99.2167562062
 21
128.1605395884
  0
LINE
  5
2C9
100
AcDbEntity
  8
0
100
AcDbLine
 62
7
  6
CONTINUOUS
 10
91.6416453045
 20
169.7017554604
 11
91.513234144
 21
171.793409142
  0
LINE
  5
2CA
100
AcDbEntity
  8
0
100
AcDbLine
 62
7
  6
CONTINUOUS
 10
91.7383122285
 20
168.4696970194
 11
91.6812410842
 21
169.3993210155
  0
LINE
  5
2CB
100
AcDbEntity
  8
0
100
AcDbLine
 62
7
  6
CONTINUOUS
 10
93.4792567784
 20
131.2988375634
 11
93.4792567784
 21
127.1499012918
  0
LINE
  5
2CC
100
AcDbEntity
  8
0
100
AcDbLine
 62
7
  6
CONTINUOUS
 10
94.0417567784
 20
127.1499012918
 11
94.0417567784
 21
132.1499012918
  0
LINE
  5
2CD
100
AcDbEntity
  8
0
100
AcDbLine
 62
7
  6
CONTINUOUS
 10
95.6167562062
 20
131.6499012918
 11
95.6167562062
 21
127.6499012918
  0
LINE
  5
2CE
100
AcDbEntity
  8
0
100
AcDbLine
 62
7
  6
CONTINUOUS
 10
96.0667562062
 20
127.6499012918
 11
96.0667562062
 21
129.4371353597
  0
LINE
  5
2CF
100
AcDbEntity
  8
0
100
AcDbLine
 62
7
  6
CONTINUOUS
 10
96.0667562062
 20
129.9477735967
 11
96.0667562062
 21
131.2243694276
  0
LINE
  5
2D0
100
AcDbEntity
  8
0
100
AcDbLine
 62
7
  6
CONTINUOUS
 10
104.8873221678
 20
172.6328800074
 11
103.7838034309
 21
169.3113974473
  0
LINE
  5
2D1
100
AcDbEntity
  8
0
100
AcDbLine
 62
7
  6
CONTINUOUS
 10
104.1159516869
 20
169.2010455736
 11
105.0785957082
 21
172.0985091341
  0
LINE
  5
2D2
100
AcDbEntity
  8
0
100
AcDbLine
 62
7
  6
CONTINUOUS
 10
107.4780705939
 20
170.4525472884
 11
106.972090708
 21
169.4566954806
  0
LINE
  5
2D3
100
AcDbEntity
  8
0
100
AcDbLine
 62
7
  6
CONTINUOUS
 10
107.2841242824
 20
169.2981551123
 11
107.7901041684
 21
170.29400692
  0
LINE
  5
2D4
100
AcDbEntity
  8
0
100
AcDbLine
 62
7
  6
CONTINUOUS
 10
109.2462609485
 20
169.5541518173
 11
108.7402810625
 21
168.5583000096
  0
LINE
  5
2D5
100
AcDbEntity
  8
0
100
AcDbLine
 62
7
  6
CONTINUOUS
 10
115.1516209509
 20
162.7121179772
 11
114.9747732157
 21
162.575610366
  0
LINE
  5
2D6
100
AcDbEntity
  8
0
100
AcDbLine
 62
7
  6
CONTINUOUS
 10
115.1296859204
 20
162.253046344
 11
115.4244321458
 21
162.4805590294
  0
LINE
  5
2D7
100
AcDbEntity
  8
0
100
AcDbLine
 62
7
  6
CONTINUOUS
 10
79.2613687926
 20
157.2237187843
 11
79.0225951428
 21
157.489189724
  0
LINE
  5
2D8
100
AcDbEntity
  8
0
100
AcDbLine
 62
7
  6
CONTINUOUS
 10
81.2664751907
 20
159.6734076997
 11
81.4186759221
 21
159.4637152668
  0
LINE
  5
2D9
100
AcDbEntity
  8
0
100
AcDbLine
 62
7
  6
CONTINUOUS
 10
101.3167563493
 20
129.6924544782
 11
101.0917563493
 21
130.0328799695
  0
LINE
  5
2DA
100
AcDbEntity
  8
0
100
AcDbLine
 62
7
  6
CONTINUOUS
 10
100.8667563493
 20
129.777560851
 11
101.0167562062
 21
129.5222417325
  0
LINE
  5
2DB
100
AcDbEntity
  8
0
100
AcDbLine
 62
7
  6
CONTINUOUS
 10
82.9330422503
 20
162.5129339586
 11
83.0496596202
 21
162.2815544724
  0
LINE
  5
2DC
100
AcDbEntity
  8
0
100
AcDbLine
 62
7
  6
CONTINUOUS
 10
99.5167563493
 20
128.4158587665
 11
99.4417562062
 21
128.5860715121
  0
LINE
  5
2DD
100
AcDbEntity
  8
0
100
AcDbLine
 62
7
  6
CONTINUOUS
 10
87.5454203215
 20
169.6515303571
 11
87.6334957507
 21
169.3595075238
  0
LINE
  5
2DE
100
AcDbEntity
  8
0
100
AcDbLine
 62
7
  6
CONTINUOUS
 10
97.8667562062
 20
130.9690503091
 11
97.9417561347
 21
130.7137311906
  0
LINE
  5
2DF
100
AcDbEntity
  8
0
100
AcDbLine
 62
7
  6
CONTINUOUS
 10
98.3917561347
 20
130.7137311906
 11
98.3167562062
 21
130.9690503091
  0
LINE
  5
2E0
100
AcDbEntity
  8
0
100
AcDbLine
 62
7
  6
CONTINUOUS
 10
99.4417562062
 20
128.5860715121
 11
99.3667560632
 21
128.8413906306
  0
LINE
  5
2E1
100
AcDbEntity
  8
0
100
AcDbLine
 62
7
  6
CONTINUOUS
 10
88.0135208278
 20
169.4866512563
 11
87.9617845037
 21
169.7136746069
  0
LINE
  5
2E2
100
AcDbEntity
  8
0
100
AcDbLine
 62
7
  6
CONTINUOUS
 10
97.9417561347
 20
130.7137311906
 11
97.9417561347
 21
130.4584118337
  0
LINE
  5
2E3
100
AcDbEntity
  8
0
100
AcDbLine
 62
7
  6
CONTINUOUS
 10
98.3917561347
 20
130.3733054608
 11
98.3917561347
 21
130.7137311906
  0
LINE
  5
2E4
100
AcDbEntity
  8
0
100
AcDbLine
 62
7
  6
CONTINUOUS
 10
99.3667560632
 20
128.8413906306
 11
99.3667560632
 21
129.0116033763
  0
LINE
  5
2E5
100
AcDbEntity
  8
0
100
AcDbLine
 62
7
  6
CONTINUOUS
 10
103.7579843061
 20
172.8813735892
 11
102.9794359613
 21
169.4690631586
  0
LINE
  5
2E6
100
AcDbEntity
  8
0
100
AcDbLine
 62
7
  6
CONTINUOUS
 10
103.3206670044
 20
169.3912083242
 11
104.0992153492
 21
172.8035187548
  0
LINE
  5
2E7
100
AcDbEntity
  8
0
100
AcDbLine
 62
7
  6
CONTINUOUS
 10
106.972090708
 20
169.4566954806
 11
106.8554364567
 21
169.0983214639
  0
LINE
  5
2E8
100
AcDbEntity
  8
0
100
AcDbLine
 62
7
  6
CONTINUOUS
 10
106.7694956449
 20
172.0075527144
 11
105.8303307593
 21
169.1807590368
  0
LINE
  5
2E9
100
AcDbEntity
  8
0
100
AcDbLine
 62
7
  6
CONTINUOUS
 10
105.9981251641
 20
168.5757182806
 11
107.101643901
 21
171.8972008407
  0
LINE
  5
2EA
100
AcDbEntity
  8
0
100
AcDbLine
 62
7
  6
CONTINUOUS
 10
109.052314637
 20
168.3997596412
 11
109.5582945229
 21
169.395611449
  0
LINE
  5
2EB
100
AcDbEntity
  8
0
100
AcDbLine
 62
7
  6
CONTINUOUS
 10
114.0014269263
 20
163.5928512315
 11
114.1426307313
 21
163.7755361092
  0
LINE
  5
2EC
100
AcDbEntity
  8
0
100
AcDbLine
 62
7
  6
CONTINUOUS
 10
115.2873428854
 20
164.3643712945
 11
115.4285466904
 21
164.5470561722
  0
LINE
  5
2ED
100
AcDbEntity
  8
0
100
AcDbLine
 62
7
  6
CONTINUOUS
 10
113.9287687815
 20
164.0525975941
 11
113.7286157314
 21
163.8244101793
  0
LINE
  5
2EE
100
AcDbEntity
  8
0
100
AcDbLine
 62
7
  6
CONTINUOUS
 10
115.1557354955
 20
164.7786151201
 11
114.9555824454
 21
164.5504277053
  0
LINE
  5
2EF
100
AcDbEntity
  8
0
100
AcDbLine
 62
7
  6
CONTINUOUS
 10
116.8846201253
 20
156.8351079764
 11
119.8111365401
 21
158.9697305696
  0
LINE
  5
2F0
100
AcDbEntity
  8
0
100
AcDbLine
 62
7
  6
CONTINUOUS
 10
117.5071779146
 20
157.7018556171
 11
116.7581890068
 21
157.1614745989
  0
LINE
  5
2F1
100
AcDbEntity
  8
0
100
AcDbLine
 62
7
  6
CONTINUOUS
 10
119.4490901725
 20
159.0797077939
 11
117.7638646953
 21
157.8638514083
  0
LINE
  5
2F2
100
AcDbEntity
  8
0
100
AcDbLine
 62
7
  6
CONTINUOUS
 10
117.5089667879
 20
154.2224815183
 11
119.0628883806
 21
155.1138399895
  0
LINE
  5
2F3
100
AcDbEntity
  8
0
100
AcDbLine
 62
7
  6
CONTINUOUS
 10
118.840122458
 20
155.422153663
 11
117.4185156128
 21
154.6206698771
  0
LINE
  5
2F4
100
AcDbEntity
  8
0
100
AcDbLine
 62
7
  6
CONTINUOUS
 10
120.2376997059
 20
155.3208864509
 11
120.0327671669
 21
155.2145147745
  0
LINE
  5
2F5
100
AcDbEntity
  8
0
100
AcDbLine
 62
7
  6
CONTINUOUS
 10
120.1102969145
 20
154.873209723
 11
120.3152294536
 21
154.9795813993
  0
LINE
  5
2F6
100
AcDbEntity
  8
0
100
AcDbLine
 62
7
  6
CONTINUOUS
 10
81.7127538957
 20
159.7649447491
 11
81.4923094829
 21
160.0044415791
  0
LINE
  5
2F7
100
AcDbEntity
  8
0
100
AcDbLine
 62
7
  6
CONTINUOUS
 10
83.3882231188
 20
162.5317460249
 11
83.209022435
 21
162.8034842891
  0
LINE
  5
2F8
100
AcDbEntity
  8
0
100
AcDbLine
 62
7
  6
CONTINUOUS
 10
103.9417562062
 20
128.330752334
 11
104.0917564923
 21
127.9903268129
  0
LINE
  5
2F9
100
AcDbEntity
  8
0
100
AcDbLine
 62
7
  6
CONTINUOUS
 10
104.3917562062
 20
128.1605395884
 11
104.3167564923
 21
128.330752334
  0
LINE
  5
2FA
100
AcDbEntity
  8
0
100
AcDbLine
 62
7
  6
CONTINUOUS
 10
103.9417562062
 20
129.6924544782
 11
104.0917564923
 21
129.3520289868
  0
LINE
  5
2FB
100
AcDbEntity
  8
0
100
AcDbLine
 62
7
  6
CONTINUOUS
 10
104.3917562062
 20
129.5222417325
 11
104.3167564923
 21
129.6924544782
  0
LINE
  5
2FC
100
AcDbEntity
  8
0
100
AcDbLine
 62
7
  6
CONTINUOUS
 10
86.4993847141
 20
168.3161910139
 11
86.5860890739
 21
168.1000926342
  0
LINE
  5
2FD
100
AcDbEntity
  8
0
100
AcDbLine
 62
7
  6
CONTINUOUS
 10
86.9414678099
 20
168.2852696059
 11
86.8547634501
 21
168.5013679856
  0
LINE
  5
2FE
100
AcDbEntity
  8
B-ACHSEN
100
AcDbLine
 62
7
  6
CONTINUOUS
 10
103.9288223523
 20
122.642964062
 11
104.9792567784
 21
119.1499012918
  0
LINE
  5
2FF
100
AcDbEntity
  8
0
100
AcDbLine
 62
7
  6
CONTINUOUS
 10
101.3917560632
 20
129.3520289868
 11
101.3167563493
 21
129.6924544782
  0
LINE
  5
300
100
AcDbEntity
  8
0
100
AcDbLine
 62
7
  6
CONTINUOUS
 10
98.9917562062
 20
129.0116033763
 11
99.0667561347
 21
128.5009651393
  0
LINE
  5
301
100
AcDbEntity
  8
0
100
AcDbLine
 62
7
  6
CONTINUOUS
 10
99.4417562062
 20
129.3520289868
 11
99.4417562062
 21
129.4371353597
  0
LINE
  5
302
100
AcDbEntity
  8
0
100
AcDbLine
 62
7
  6
CONTINUOUS
 10
101.0167562062
 20
129.5222417325
 11
101.0167562062
 21
129.3520289868
  0
LINE
  5
303
100
AcDbEntity
  8
0
100
AcDbLine
 62
7
  6
CONTINUOUS
 10
101.3917560632
 20
129.0116033763
 11
101.3917560632
 21
129.3520289868
  0
LINE
  5
304
100
AcDbEntity
  8
0
100
AcDbLine
 62
7
  6
CONTINUOUS
 10
101.9917563493
 20
130.3733054608
 11
101.9917563493
 21
127.6499012918
  0
LINE
  5
305
100
AcDbEntity
  8
0
100
AcDbLine
 62
7
  6
CONTINUOUS
 10
102.3667562062
 20
127.6499012918
 11
102.3667562062
 21
129.3520289868
  0
LINE
  5
306
100
AcDbEntity
  8
0
100
AcDbLine
 62
7
  6
CONTINUOUS
 10
102.3667562062
 20
129.8626672238
 11
102.3667562062
 21
130.3733054608
  0
LINE
  5
307
100
AcDbEntity
  8
0
100
AcDbLine
 62
7
  6
CONTINUOUS
 10
99.0667561347
 20
129.5222417325
 11
98.9917562062
 21
129.0116033763
  0
LINE
  5
308
100
AcDbEntity
  8
0
100
AcDbLine
 62
7
  6
CONTINUOUS
 10
107.2012020204
 20
169.0061712099
 11
107.2841242824
 21
169.2981551123
  0
LINE
  5
309
100
AcDbEntity
  8
0
100
AcDbLine
 62
7
  6
CONTINUOUS
 10
109.3291832105
 20
169.8461357197
 11
109.2462609485
 21
169.5541518173
  0
LINE
  5
30A
100
AcDbEntity
  8
0
100
AcDbLine
 62
7
  6
CONTINUOUS
 10
97.9417561347
 20
130.4584118337
 11
97.8667562062
 21
130.2030927152
  0
LINE
  5
30B
100
AcDbEntity
  8
0
100
AcDbLine
 62
7
  6
CONTINUOUS
 10
98.3167562062
 20
130.1179863423
 11
98.3917561347
 21
130.3733054608
  0
LINE
  5
30C
100
AcDbEntity
  8
B-ACHSEN
100
AcDbLine
 62
7
  6
CONTINUOUS
 10
94.0296912045
 20
122.642964062
 11
92.9792567784
 21
119.1499012918
  0
LINE
  5
30D
100
AcDbEntity
  8
0
100
AcDbLine
 62
7
  6
CONTINUOUS
 10
109.5582945229
 20
169.395611449
 11
109.6749491663
 21
169.7539855004
  0
LINE
  5
30E
100
AcDbEntity
  8
0
100
AcDbLine
 62
7
  6
CONTINUOUS
 10
93.4792567784
 20
132.1499012918
 11
92.9167567784
 21
131.4052205295
  0
LINE
  5
30F
100
AcDbEntity
  8
0
100
AcDbLine
 62
7
  6
CONTINUOUS
 10
92.9167567784
 20
130.5541565031
 11
93.4792567784
 21
131.2988375634
  0
LINE
  5
310
100
AcDbEntity
  8
0
100
AcDbLine
 62
7
  6
CONTINUOUS
 10
116.4964863203
 20
163.5291407049
 11
116.6376901253
 21
163.7118255826
  0
LINE
  5
311
100
AcDbEntity
  8
0
100
AcDbLine
 62
7
  6
CONTINUOUS
 10
78.6517645073
 20
157.2465405813
 11
78.8514786619
 21
157.1268311905
  0
LINE
  5
312
100
AcDbEntity
  8
0
100
AcDbLine
 62
7
  6
CONTINUOUS
 10
79.0225951428
 20
157.489189724
 11
78.8228809882
 21
157.6088991148
  0
LINE
  5
313
100
AcDbEntity
  8
0
100
AcDbLine
 62
7
  6
CONTINUOUS
 10
81.0197658161
 20
159.852765029
 11
81.2664751907
 21
159.6734076997
  0
LINE
  5
314
100
AcDbEntity
  8
0
100
AcDbLine
 62
7
  6
CONTINUOUS
 10
82.7182751866
 20
162.7295202605
 11
82.9330422503
 21
162.5129339586
  0
LINE
  5
315
100
AcDbEntity
  8
0
100
AcDbLine
 62
7
  6
CONTINUOUS
 10
87.6334957507
 20
169.3595075238
 11
87.77885268
 21
169.0995086826
  0
LINE
  5
316
100
AcDbEntity
  8
0
100
AcDbLine
 62
7
  6
CONTINUOUS
 10
88.0861992416
 20
169.3566519268
 11
88.0135208278
 21
169.4866512563
  0
LINE
  5
317
100
AcDbEntity
  8
0
100
AcDbLine
 62
7
  6
CONTINUOUS
 10
105.8917564923
 20
128.5009651393
 11
105.9667562062
 21
128.330752334
  0
LINE
  5
318
100
AcDbEntity
  8
0
100
AcDbLine
 62
7
  6
CONTINUOUS
 10
106.3417564923
 20
128.330752334
 11
106.1917562062
 21
128.671177885
  0
LINE
  5
319
100
AcDbEntity
  8
0
100
AcDbLine
 62
7
  6
CONTINUOUS
 10
105.8917564923
 20
129.8626672238
 11
105.9667562062
 21
129.6924544782
  0
LINE
  5
31A
100
AcDbEntity
  8
0
100
AcDbLine
 62
7
  6
CONTINUOUS
 10
106.3417564923
 20
129.6924544782
 11
106.1917562062
 21
130.0328799695
  0
LINE
  5
31B
100
AcDbEntity
  8
0
100
AcDbLine
 62
7
  6
CONTINUOUS
 10
103.3417559201
 20
129.9477735967
 11
103.3417559201
 21
130.3733054608
  0
LINE
  5
31C
100
AcDbEntity
  8
0
100
AcDbLine
 62
7
  6
CONTINUOUS
 10
103.9417562062
 20
129.8626672238
 11
103.9417562062
 21
129.6924544782
  0
LINE
  5
31D
100
AcDbEntity
  8
B-ACHSEN
100
AcDbLine
 62
7
  6
CONTINUOUS
 10
104.9792567784
 20
119.1499012918
 11
104.9792567784
 21
106.6499012918
  0
LINE
  5
31E
100
AcDbEntity
  8
0
100
AcDbLine
 62
7
  6
CONTINUOUS
 10
106.8554364567
 20
169.0983214639
 11
106.8245195684
 21
168.7799142211
  0
LINE
  5
31F
100
AcDbEntity
  8
0
100
AcDbLine
 62
7
  6
CONTINUOUS
 10
101.3167563493
 20
128.1605395884
 11
101.3917560632
 21
128.5009651393
  0
LINE
  5
320
100
AcDbEntity
  8
0
100
AcDbLine
 62
7
  6
CONTINUOUS
 10
101.0167562062
 20
128.5009651393
 11
100.9417560632
 21
128.2456459612
  0
LINE
  5
321
100
AcDbEntity
  8
0
100
AcDbLine
 62
7
  6
CONTINUOUS
 10
99.2167562062
 20
129.8626672238
 11
99.0667561347
 21
129.5222417325
  0
LINE
  5
322
100
AcDbEntity
  8
0
100
AcDbLine
 62
7
  6
CONTINUOUS
 10
99.4417562062
 20
129.4371353597
 11
99.5167563493
 21
129.6073481053
  0
LINE
  5
323
100
AcDbEntity
  8
0
100
AcDbLine
 62
7
  6
CONTINUOUS
 10
115.2571817241
 20
162.9409791283
 11
115.1516209509
 21
162.7121179772
  0
LINE
  5
324
100
AcDbEntity
  8
0
100
AcDbLine
 62
7
  6
CONTINUOUS
 10
113.7286157314
 20
163.8244101793
 11
113.540800419
 21
163.4583667036
  0
LINE
  5
325
100
AcDbEntity
  8
0
100
AcDbLine
 62
7
  6
CONTINUOUS
 10
115.4244321458
 20
162.4805590294
 11
115.5889421641
 21
162.7549227175
  0
LINE
  5
326
100
AcDbEntity
  8
0
100
AcDbLine
 62
7
  6
CONTINUOUS
 10
116.3648789304
 20
163.9433845304
 11
116.2826243705
 21
163.8062021898
  0
LINE
  5
327
100
AcDbEntity
  8
0
100
AcDbLine
 62
7
  6
CONTINUOUS
 10
120.3152294536
 20
154.9795813993
 11
120.5669369295
 21
155.2162166812
  0
LINE
  5
328
100
AcDbEntity
  8
0
100
AcDbLine
 62
7
  6
CONTINUOUS
 10
77.1310110147
 20
155.5398163699
 11
80.5184778274
 21
154.6594365693
  0
LINE
  5
329
100
AcDbEntity
  8
0
100
AcDbLine
 62
7
  6
CONTINUOUS
 10
78.116259519
 20
158.9725093695
 11
80.2318124479
 21
158.0485735781
  0
LINE
  5
32A
100
AcDbEntity
  8
0
100
AcDbLine
 62
7
  6
CONTINUOUS
 10
80.3894031816
 20
158.4094120059
 11
78.2738502528
 21
159.3333477973
  0
LINE
  5
32B
100
AcDbEntity
  8
0
100
AcDbLine
 62
7
  6
CONTINUOUS
 10
79.5689445032
 20
162.1054904269
 11
82.5103585495
 21
160.2086289644
  0
LINE
  5
32C
100
AcDbEntity
  8
0
100
AcDbLine
 62
7
  6
CONTINUOUS
 10
82.3482557995
 20
160.7816905711
 11
80.1578410384
 21
162.1942470089
  0
LINE
  5
32D
100
AcDbEntity
  8
0
100
AcDbLine
 62
7
  6
CONTINUOUS
 10
81.4923094829
 20
160.0044415791
 11
81.1773564747
 21
160.2136032847
  0
LINE
  5
32E
100
AcDbEntity
  8
0
100
AcDbLine
 62
7
  6
CONTINUOUS
 10
83.209022435
 20
162.8034842891
 11
82.9316721011
 21
163.0604293407
  0
LINE
  5
32F
100
AcDbEntity
  8
0
100
AcDbLine
 62
7
  6
CONTINUOUS
 10
84.2561801565
 20
167.8761520117
 11
86.4221562548
 21
165.1268707344
  0
LINE
  5
330
100
AcDbEntity
  8
0
100
AcDbLine
 62
7
  6
CONTINUOUS
 10
86.7314503985
 20
165.3705430455
 11
85.7636738302
 21
166.5989453358
  0
LINE
  5
331
100
AcDbEntity
  8
0
100
AcDbLine
 62
7
  6
CONTINUOUS
 10
85.4871662761
 20
166.9499173719
 11
84.7958972619
 21
167.827347626
  0
LINE
  5
332
100
AcDbEntity
  8
0
100
AcDbLine
 62
7
  6
CONTINUOUS
 10
86.3611308079
 20
168.4916771958
 11
86.4993847141
 21
168.3161910139
  0
LINE
  5
333
100
AcDbEntity
  8
0
100
AcDbLine
 62
7
  6
CONTINUOUS
 10
86.8547634501
 20
168.5013679856
 11
86.6704249516
 21
168.7353495069
  0
LINE
  5
334
100
AcDbEntity
  8
0
100
AcDbLine
 62
7
  6
CONTINUOUS
 10
90.0004866044
 20
168.891184572
 11
90.1095042251
 21
168.6961855777
  0
LINE
  5
335
100
AcDbEntity
  8
0
100
AcDbLine
 62
7
  6
CONTINUOUS
 10
90.4895292004
 20
168.8233294923
 11
90.307833166
 21
169.1483278161
  0
LINE
  5
336
100
AcDbEntity
  8
0
100
AcDbLine
 62
7
  6
CONTINUOUS
 10
107.204017145
 20
168.7541541279
 11
107.2012020204
 21
169.0061712099
  0
LINE
  5
337
100
AcDbEntity
  8
0
100
AcDbLine
 62
7
  6
CONTINUOUS
 10
106.3417564923
 20
128.1605395884
 11
106.3417564923
 21
128.330752334
  0
LINE
  5
338
100
AcDbEntity
  8
0
100
AcDbLine
 62
7
  6
CONTINUOUS
 10
110.9470544149
 20
169.9433956604
 11
110.7600959284
 21
167.9731125184
  0
LINE
  5
339
100
AcDbEntity
  8
0
100
AcDbLine
 62
7
  6
CONTINUOUS
 10
110.6864124987
 20
167.5683494869
 11
110.5299039669
 21
165.9421963736
  0
LINE
  5
33A
100
AcDbEntity
  8
0
100
AcDbLine
 62
7
  6
CONTINUOUS
 10
111.075518665
 20
168.1140430236
 11
111.2320277403
 21
169.7401957493
  0
LINE
  5
33B
100
AcDbEntity
  8
0
100
AcDbLine
 62
7
  6
CONTINUOUS
 10
109.6749491663
 20
169.7539855004
 11
109.7058657334
 21
170.072392848
  0
LINE
  5
33C
100
AcDbEntity
  8
0
100
AcDbLine
 62
7
  6
CONTINUOUS
 10
110.8148772923
 20
165.7389964626
 11
111.0450692537
 21
167.7699126073
  0
LINE
  5
33D
100
AcDbEntity
  8
0
100
AcDbLine
 62
7
  6
CONTINUOUS
 10
113.9315101247
 20
163.3178128459
 11
114.0014269263
 21
163.5928512315
  0
LINE
  5
33E
100
AcDbEntity
  8
0
100
AcDbLine
 62
7
  6
CONTINUOUS
 10
116.6376901253
 20
163.7118255826
 11
116.7665561307
 21
164.0323664734
  0
LINE
  5
33F
100
AcDbEntity
  8
0
100
AcDbLine
 62
7
  6
CONTINUOUS
 10
98.0917562062
 20
129.777560851
 11
98.3167562062
 21
130.1179863423
  0
LINE
  5
340
100
AcDbEntity
  8
0
100
AcDbLine
 62
7
  6
CONTINUOUS
 10
120.3570927301
 20
155.4676457454
 11
120.2376997059
 21
155.3208864509
  0
LINE
  5
341
100
AcDbEntity
  8
0
100
AcDbLine
 62
7
  6
CONTINUOUS
 10
97.8667562062
 20
130.2030927152
 11
97.7167561347
 21
130.0328799695
  0
LINE
  5
342
100
AcDbEntity
  8
0
100
AcDbLine
 62
7
  6
CONTINUOUS
 10
99.3667560632
 20
130.0328799695
 11
99.2167562062
 21
129.8626672238
  0
LINE
  5
343
100
AcDbEntity
  8
0
100
AcDbLine
 62
7
  6
CONTINUOUS
 10
99.5167563493
 20
129.6073481053
 11
99.7417563493
 21
129.8626672238
  0
LINE
  5
344
100
AcDbEntity
  8
0
100
AcDbLine
 62
7
  6
CONTINUOUS
 10
97.7917562778
 20
129.5222417325
 11
98.0917562062
 21
129.777560851
  0
LINE
  5
345
100
AcDbEntity
  8
0
100
AcDbLine
 62
7
  6
CONTINUOUS
 10
119.8198243614
 20
154.8072269206
 11
120.1102969145
 21
154.873209723
  0
LINE
  5
346
100
AcDbEntity
  8
0
100
AcDbLine
 62
7
  6
CONTINUOUS
 10
120.0327671669
 20
155.2145147745
 11
119.8149127012
 21
155.1650276612
  0
LINE
  5
347
100
AcDbEntity
  8
0
100
AcDbLine
 62
7
  6
CONTINUOUS
 10
117.0954748989
 20
156.0427746927
 11
118.6204549382
 21
156.3891842084
  0
LINE
  5
348
100
AcDbEntity
  8
0
100
AcDbLine
 62
7
  6
CONTINUOUS
 10
119.0561634628
 20
156.4881583426
 11
120.1454349775
 21
156.7355937242
  0
LINE
  5
349
100
AcDbEntity
  8
0
100
AcDbLine
 62
7
  6
CONTINUOUS
 10
120.430995667
 20
157.1593772209
 11
117.0179451513
 21
156.3840797442
  0
LINE
  5
34A
100
AcDbEntity
  8
0
100
AcDbLine
 62
7
  6
CONTINUOUS
 10
80.617520555
 20
155.0405265858
 11
79.1039715321
 21
155.4338877788
  0
LINE
  5
34B
100
AcDbEntity
  8
0
100
AcDbLine
 62
7
  6
CONTINUOUS
 10
78.6715290118
 20
155.5462766761
 11
77.5904225092
 21
155.8272489719
  0
LINE
  5
34C
100
AcDbEntity
  8
0
100
AcDbLine
 62
7
  6
CONTINUOUS
 10
78.4355430452
 20
157.3027350824
 11
78.6517645073
 21
157.2465405813
  0
LINE
  5
34D
100
AcDbEntity
  8
0
100
AcDbLine
 62
7
  6
CONTINUOUS
 10
78.8228809882
 20
157.6088991148
 11
78.5345857728
 21
157.6838250988
  0
LINE
  5
34E
100
AcDbEntity
  8
0
100
AcDbLine
 62
7
  6
CONTINUOUS
 10
78.9042128872
 20
160.7767008203
 11
81.0197658161
 21
159.852765029
  0
LINE
  5
34F
100
AcDbEntity
  8
0
100
AcDbLine
 62
7
  6
CONTINUOUS
 10
81.1773564747
 20
160.2136032847
 11
79.0618035458
 21
161.1375390761
  0
LINE
  5
350
100
AcDbEntity
  8
0
100
AcDbLine
 62
7
  6
CONTINUOUS
 10
81.7795260471
 20
163.3349015626
 11
82.7182751866
 21
162.7295202605
  0
LINE
  5
351
100
AcDbEntity
  8
0
100
AcDbLine
 62
7
  6
CONTINUOUS
 10
82.9316721011
 20
163.0604293407
 11
81.9929229616
 21
163.6658106429
  0
LINE
  5
352
100
AcDbEntity
  8
0
100
AcDbLine
 62
7
  6
CONTINUOUS
 10
88.2974547778
 20
167.7684431714
 11
88.5000930038
 21
167.5404686866
  0
LINE
  5
353
100
AcDbEntity
  8
0
100
AcDbLine
 62
7
  6
CONTINUOUS
 10
87.77885268
 20
169.0995086826
 11
87.981490906
 21
168.8715341978
  0
LINE
  5
354
100
AcDbEntity
  8
0
100
AcDbLine
 62
7
  6
CONTINUOUS
 10
105.0785957082
 20
172.0985091341
 11
105.49990278
 21
168.7412460911
  0
LINE
  5
355
100
AcDbEntity
  8
0
100
AcDbLine
 62
7
  6
CONTINUOUS
 10
109.3263681804
 20
170.0981529877
 11
109.3291832105
 21
169.8461357197
  0
LINE
  5
356
100
AcDbEntity
  8
0
100
AcDbLine
 62
7
  6
CONTINUOUS
 10
114.9555824454
 20
164.5504277053
 11
114.8623603703
 21
164.183709548
  0
LINE
  5
357
100
AcDbEntity
  8
0
100
AcDbLine
 62
7
  6
CONTINUOUS
 10
115.5889421641
 20
162.7549227175
 11
115.6821642393
 21
163.1216408748
  0
LINE
  5
358
100
AcDbEntity
  8
0
100
AcDbLine
 62
7
  6
CONTINUOUS
 10
116.4114903759
 20
164.1267430806
 11
116.3648789304
 21
163.9433845304
  0
LINE
  5
359
100
AcDbEntity
  8
0
100
AcDbLine
 62
7
  6
CONTINUOUS
 10
104.3167564923
 20
129.6924544782
 11
104.3917562062
 21
129.8626672238
  0
LINE
  5
35A
100
AcDbEntity
  8
0
100
AcDbLine
 62
7
  6
CONTINUOUS
 10
105.9667562062
 20
128.330752334
 11
105.8917564923
 21
128.1605395884
  0
LINE
  5
35B
100
AcDbEntity
  8
0
100
AcDbLine
 62
7
  6
CONTINUOUS
 10
104.0917564923
 20
130.1179863423
 11
103.9417562062
 21
129.8626672238
  0
LINE
  5
35C
100
AcDbEntity
  8
0
100
AcDbLine
 62
7
  6
CONTINUOUS
 10
120.5669369295
 20
155.2162166812
 11
120.7331045947
 21
155.4932408833
  0
LINE
  5
35D
100
AcDbEntity
  8
0
100
AcDbLine
 62
7
  6
CONTINUOUS
 10
102.3667562062
 20
129.3520289868
 11
102.5917562062
 21
129.6924544782
  0
LINE
  5
35E
100
AcDbEntity
  8
0
100
AcDbLine
 62
7
  6
CONTINUOUS
 10
102.5167560632
 20
130.0328799695
 11
102.3667562062
 21
129.8626672238
  0
LINE
  5
35F
100
AcDbEntity
  8
0
100
AcDbLine
 62
7
  6
CONTINUOUS
 10
101.0917563493
 20
127.9052204401
 11
101.3167563493
 21
128.1605395884
  0
LINE
  5
360
100
AcDbEntity
  8
0
100
AcDbLine
 62
7
  6
CONTINUOUS
 10
99.5917560632
 20
130.2030927152
 11
99.3667560632
 21
130.0328799695
  0
LINE
  5
361
100
AcDbEntity
  8
0
100
AcDbLine
 62
7
  6
CONTINUOUS
 10
102.7417560632
 20
130.2030927152
 11
102.5167560632
 21
130.0328799695
  0
LINE
  5
362
100
AcDbEntity
  8
0
100
AcDbLine
 62
7
  6
CONTINUOUS
 10
99.7417563493
 20
129.8626672238
 11
99.8917562062
 21
129.9477735967
  0
LINE
  5
363
100
AcDbEntity
  8
0
100
AcDbLine
 62
7
  6
CONTINUOUS
 10
97.7167561347
 20
130.0328799695
 11
97.4917561347
 21
129.9477735967
  0
LINE
  5
364
100
AcDbEntity
  8
0
100
AcDbLine
 62
7
  6
CONTINUOUS
 10
99.8167560632
 20
130.288199088
 11
99.5917560632
 21
130.2030927152
  0
LINE
  5
365
100
AcDbEntity
  8
0
100
AcDbLine
 62
7
  6
CONTINUOUS
 10
119.589048376
 20
154.8146244628
 11
119.8198243614
 21
154.8072269206
  0
LINE
  5
366
100
AcDbEntity
  8
0
100
AcDbLine
 62
7
  6
CONTINUOUS
 10
119.8149127012
 20
155.1650276612
 11
119.5841367157
 21
155.1724252034
  0
LINE
  5
367
100
AcDbEntity
  8
0
100
AcDbLine
 62
7
  6
CONTINUOUS
 10
80.6886427257
 20
158.3503339805
 11
80.3894031816
 21
158.4094120059
  0
LINE
  5
368
100
AcDbEntity
  8
0
100
AcDbLine
 62
7
  6
CONTINUOUS
 10
80.2318124479
 20
158.0485735781
 11
80.5992957758
 21
157.9596915205
  0
LINE
  5
369
100
AcDbEntity
  8
0
100
AcDbLine
 62
7
  6
CONTINUOUS
 10
81.9929229616
 20
163.6658106429
 11
81.644440419
 21
163.8124532015
  0
LINE
  5
36A
100
AcDbEntity
  8
0
100
AcDbLine
 62
7
  6
CONTINUOUS
 10
88.8074395653
 20
167.7976119307
 11
88.6411405462
 21
167.9605867508
  0
LINE
  5
36B
100
AcDbEntity
  8
0
100
AcDbLine
 62
7
  6
CONTINUOUS
 10
88.2524982607
 20
169.1936771067
 11
88.0861992416
 21
169.3566519268
  0
LINE
  5
36C
100
AcDbEntity
  8
0
100
AcDbLine
 62
7
  6
CONTINUOUS
 10
89.4092059911
 20
170.3522495949
 11
89.242906972
 21
170.5152244149
  0
LINE
  5
36D
100
AcDbEntity
  8
0
100
AcDbLine
 62
7
  6
CONTINUOUS
 10
93.8365524736
 20
169.2285558142
 11
91.6587785804
 21
172.1628022117
  0
LINE
  5
36E
100
AcDbEntity
  8
0
100
AcDbLine
 62
7
  6
CONTINUOUS
 10
92.9154993042
 20
169.8457082714
 11
93.4662748664
 21
169.0946395863
  0
LINE
  5
36F
100
AcDbEntity
  8
0
100
AcDbLine
 62
7
  6
CONTINUOUS
 10
91.513234144
 20
171.793409142
 11
92.7524781262
 21
170.1035041439
  0
LINE
  5
370
100
AcDbEntity
  8
0
100
AcDbLine
 62
7
  6
CONTINUOUS
 10
106.8245195684
 20
168.7799142211
 11
106.8976140818
 21
168.4086601113
  0
LINE
  5
371
100
AcDbEntity
  8
0
100
AcDbLine
 62
7
  6
CONTINUOUS
 10
105.8303307593
 20
169.1807590368
 11
105.3855445518
 21
172.4673521969
  0
LINE
  5
372
100
AcDbEntity
  8
0
100
AcDbLine
 62
7
  6
CONTINUOUS
 10
113.540800419
 20
163.4583667036
 11
113.5421706878
 21
163.0909748619
  0
LINE
  5
373
100
AcDbEntity
  8
0
100
AcDbLine
 62
7
  6
CONTINUOUS
 10
115.2763753702
 20
164.1348354779
 11
115.2873428854
 21
164.3643712945
  0
LINE
  5
374
100
AcDbEntity
  8
0
100
AcDbLine
 62
7
  6
CONTINUOUS
 10
115.2681492394
 20
163.1705149449
 11
115.2571817241
 21
162.9409791283
  0
LINE
  5
375
100
AcDbEntity
  8
0
100
AcDbLine
 62
7
  6
CONTINUOUS
 10
116.7665561307
 20
164.0323664734
 11
116.8008297766
 21
164.3535810367
  0
LINE
  5
376
100
AcDbEntity
  8
0
100
AcDbLine
 62
7
  6
CONTINUOUS
 10
106.1917562062
 20
127.9052204401
 11
106.3417564923
 21
128.1605395884
  0
LINE
  5
377
100
AcDbEntity
  8
0
100
AcDbLine
 62
7
  6
CONTINUOUS
 10
100.9417560632
 20
128.2456459612
 11
100.7167560632
 21
128.0754332155
  0
LINE
  5
378
100
AcDbEntity
  8
0
100
AcDbLine
 62
7
  6
CONTINUOUS
 10
102.5917562062
 20
129.6924544782
 11
102.8917559201
 21
129.8626672238
  0
LINE
  5
379
100
AcDbEntity
  8
0
100
AcDbLine
 62
7
  6
CONTINUOUS
 10
104.3917562062
 20
130.288199088
 11
104.0917564923
 21
130.1179863423
  0
LINE
  5
37A
100
AcDbEntity
  8
0
100
AcDbLine
 62
7
  6
CONTINUOUS
 10
104.3917562062
 20
129.8626672238
 11
104.5417564923
 21
129.9477735967
  0
LINE
  5
37B
100
AcDbEntity
  8
0
100
AcDbLine
 62
7
  6
CONTINUOUS
 10
100.7917562062
 20
127.735007672
 11
101.0917563493
 21
127.9052204401
  0
LINE
  5
37C
100
AcDbEntity
  8
0
100
AcDbLine
 62
7
  6
CONTINUOUS
 10
102.9667564923
 20
130.288199088
 11
102.7417560632
 21
130.2030927152
  0
LINE
  5
37D
100
AcDbEntity
  8
0
100
AcDbLine
 62
7
  6
CONTINUOUS
 10
116.1681769597
 20
158.6845192521
 11
117.0857410137
 21
158.7897439438
  0
LINE
  5
37E
100
AcDbEntity
  8
0
100
AcDbLine
 62
7
  6
CONTINUOUS
 10
117.3845713398
 20
158.8429512757
 11
119.4490901725
 21
159.0797077939
  0
LINE
  5
37F
100
AcDbEntity
  8
0
100
AcDbLine
 62
7
  6
CONTINUOUS
 10
119.6425618762
 20
159.4048856513
 11
116.0417458412
 21
159.0108858746
  0
LINE
  5
380
100
AcDbEntity
  8
0
100
AcDbLine
 62
7
  6
CONTINUOUS
 10
81.145748451
 20
157.0730067339
 11
79.33948783
 21
156.9321958681
  0
LINE
  5
381
100
AcDbEntity
  8
0
100
AcDbLine
 62
7
  6
CONTINUOUS
 10
79.3845925856
 20
156.5136427951
 11
81.0301985707
 21
156.6284015936
  0
LINE
  5
382
100
AcDbEntity
  8
0
100
AcDbLine
 62
7
  6
CONTINUOUS
 10
78.2028146796
 20
157.2954145889
 11
78.4355430452
 21
157.3027350824
  0
LINE
  5
383
100
AcDbEntity
  8
0
100
AcDbLine
 62
7
  6
CONTINUOUS
 10
78.5345857728
 20
157.6838250988
 11
78.3018574071
 21
157.6765046053
  0
LINE
  5
384
100
AcDbEntity
  8
0
100
AcDbLine
 62
7
  6
CONTINUOUS
 10
80.5992957758
 20
157.9596915205
 11
80.9248006026
 21
157.9607534703
  0
LINE
  5
385
100
AcDbEntity
  8
0
100
AcDbLine
 62
7
  6
CONTINUOUS
 10
81.4936269499
 20
163.4411852585
 11
81.7795260471
 21
163.3349015626
  0
LINE
  5
386
100
AcDbEntity
  8
0
100
AcDbLine
 62
7
  6
CONTINUOUS
 10
88.5000930038
 20
167.5404686866
 11
88.8536319606
 21
167.3115420841
  0
LINE
  5
387
100
AcDbEntity
  8
0
100
AcDbLine
 62
7
  6
CONTINUOUS
 10
86.1713276137
 20
168.6265508522
 11
86.3611308079
 21
168.4916771958
  0
LINE
  5
388
100
AcDbEntity
  8
0
100
AcDbLine
 62
7
  6
CONTINUOUS
 10
86.6704249516
 20
168.7353495069
 11
86.4806217574
 21
168.8702231633
  0
LINE
  5
389
100
AcDbEntity
  8
0
100
AcDbLine
 62
7
  6
CONTINUOUS
 10
90.307833166
 20
169.1483278161
 11
90.0479134906
 21
169.3442782178
  0
LINE
  5
38A
100
AcDbEntity
  8
0
100
AcDbLine
 62
7
  6
CONTINUOUS
 10
88.9355604105
 20
170.2580811708
 11
89.0655202227
 21
170.1601060155
  0
LINE
  5
38B
100
AcDbEntity
  8
0
100
AcDbLine
 62
7
  6
CONTINUOUS
 10
109.7058657334
 20
170.072392848
 11
109.6327712082
 21
170.4436469345
  0
LINE
  5
38C
100
AcDbEntity
  8
0
100
AcDbLine
 62
7
  6
CONTINUOUS
 10
114.8623603703
 20
164.183709548
 11
114.8870359694
 21
163.9079975218
  0
LINE
  5
38D
100
AcDbEntity
  8
0
100
AcDbLine
 62
7
  6
CONTINUOUS
 10
115.6821642393
 20
163.1216408748
 11
115.6574878243
 21
163.3973539579
  0
LINE
  5
38E
100
AcDbEntity
  8
B-ACHSEN
100
AcDbLine
 62
7
  6
CONTINUOUS
 10
114.6527261662
 20
129.6499012918
 11
113.9792567784
 21
124.1499012918
  0
LINE
  5
38F
100
AcDbEntity
  8
0
100
AcDbLine
 62
7
  6
CONTINUOUS
 10
120.3909459437
 20
155.6547939603
 11
120.3570927301
 21
155.4676457454
  0
LINE
  5
390
100
AcDbEntity
  8
0
100
AcDbLine
 62
7
  6
CONTINUOUS
 10
105.8917564923
 20
128.1605395884
 11
105.7417562062
 21
128.0754332155
  0
LINE
  5
391
100
AcDbEntity
  8
0
100
AcDbLine
 62
7
  6
CONTINUOUS
 10
105.8917564923
 20
127.735007672
 11
106.1917562062
 21
127.9052204401
  0
LINE
  5
392
100
AcDbEntity
  8
0
100
AcDbLine
 62
7
  6
CONTINUOUS
 10
114.9747732157
 20
162.575610366
 11
114.7266384358
 21
162.5314562307
  0
LINE
  5
393
100
AcDbEntity
  8
0
100
AcDbLine
 62
7
  6
CONTINUOUS
 10
80.9459039462
 20
158.3812004995
 11
80.6886427257
 21
158.3503339805
  0
LINE
  5
394
100
AcDbEntity
  8
0
100
AcDbLine
 62
7
  6
CONTINUOUS
 10
81.644440419
 20
163.8124532015
 11
81.3229748979
 21
163.8635849632
  0
LINE
  5
395
100
AcDbEntity
  8
0
100
AcDbLine
 62
7
  6
CONTINUOUS
 10
119.2598111524
 20
154.9192942325
 11
119.589048376
 21
154.8146244628
  0
LINE
  5
396
100
AcDbEntity
  8
0
100
AcDbLine
 62
7
  6
CONTINUOUS
 10
89.776906136
 20
169.0221353089
 11
90.0004866044
 21
168.891184572
  0
LINE
  5
397
100
AcDbEntity
  8
0
100
AcDbLine
 62
7
  6
CONTINUOUS
 10
107.2925699301
 20
168.5421036686
 11
107.204017145
 21
168.7541541279
  0
LINE
  5
398
100
AcDbEntity
  8
0
100
AcDbLine
 62
7
  6
CONTINUOUS
 10
120.7331045947
 20
155.4932408833
 11
120.7411146576
 21
155.7941570147
  0
LINE
  5
399
100
AcDbEntity
  8
0
100
AcDbLine
 62
7
  6
CONTINUOUS
 10
114.444229948
 20
162.1660874844
 11
114.8226018542
 21
162.1633896398
  0
LINE
  5
39A
100
AcDbEntity
  8
0
100
AcDbLine
 62
7
  6
CONTINUOUS
 10
116.041345437
 20
165.0937604172
 11
115.6629735516
 21
165.0964582778
  0
LINE
  5
39B
100
AcDbEntity
  8
0
100
AcDbLine
 62
7
  6
CONTINUOUS
 10
81.2347445237
 20
163.4519583836
 11
81.4936269499
 21
163.4411852585
  0
LINE
  5
39C
100
AcDbEntity
  8
0
100
AcDbLine
 62
7
  6
CONTINUOUS
 10
86.4806217574
 20
168.8702231633
 11
86.1416363162
 21
168.9823683651
  0
LINE
  5
39D
100
AcDbEntity
  8
0
100
AcDbLine
 62
7
  6
CONTINUOUS
 10
89.0883000956
 20
167.6986846806
 11
88.8074395653
 21
167.7976119307
  0
LINE
  5
39E
100
AcDbEntity
  8
0
100
AcDbLine
 62
7
  6
CONTINUOUS
 10
87.981490906
 20
168.8715341978
 11
88.3559707052
 21
168.7396307697
  0
LINE
  5
39F
100
AcDbEntity
  8
0
100
AcDbLine
 62
7
  6
CONTINUOUS
 10
90.0479134906
 20
169.3442782178
 11
89.6734336915
 21
169.4761816459
  0
LINE
  5
3A0
100
AcDbEntity
  8
0
100
AcDbLine
 62
7
  6
CONTINUOUS
 10
119.5841367157
 20
155.1724252034
 11
119.4130573902
 21
155.2532017419
  0
LINE
  5
3A1
100
AcDbEntity
  8
0
100
AcDbLine
 62
7
  6
CONTINUOUS
 10
89.242906972
 20
170.5152244149
 11
88.9257072602
 21
170.6791512843
  0
LINE
  5
3A2
100
AcDbEntity
  8
0
100
AcDbLine
 62
7
  6
CONTINUOUS
 10
106.8976140818
 20
168.4086601113
 11
107.0381725766
 21
168.170186236
  0
LINE
  5
3A3
100
AcDbEntity
  8
0
100
AcDbLine
 62
7
  6
CONTINUOUS
 10
113.5421706878
 20
163.0909748619
 11
113.661440273
 21
162.8145870455
  0
LINE
  5
3A4
100
AcDbEntity
  8
0
100
AcDbLine
 62
7
  6
CONTINUOUS
 10
109.2378153717
 20
170.3102034005
 11
109.3263681804
 21
170.0981529877
  0
LINE
  5
3A5
100
AcDbEntity
  8
0
100
AcDbLine
 62
7
  6
CONTINUOUS
 10
116.0417458412
 20
159.0108858746
 11
116.1681769597
 21
158.6845192521
  0
LINE
  5
3A6
100
AcDbEntity
  8
0
100
AcDbLine
 62
7
  6
CONTINUOUS
 10
116.7581890068
 20
157.1614745989
 11
116.8846201253
 21
156.8351079764
  0
LINE
  5
3A7
100
AcDbEntity
  8
0
100
AcDbLine
 62
7
  6
CONTINUOUS
 10
114.0151357847
 20
163.0876022999
 11
113.9315101247
 21
163.3178128459
  0
LINE
  5
3A8
100
AcDbEntity
  8
0
100
AcDbLine
 62
7
  6
CONTINUOUS
 10
114.8870359694
 20
163.9079975218
 11
114.9706616295
 21
163.6777869758
  0
LINE
  5
3A9
100
AcDbEntity
  8
0
100
AcDbLine
 62
7
  6
CONTINUOUS
 10
115.3243571
 20
163.9508021983
 11
115.2763753702
 21
164.1348354779
  0
LINE
  5
3AA
100
AcDbEntity
  8
0
100
AcDbLine
 62
7
  6
CONTINUOUS
 10
117.0179451513
 20
156.3840797442
 11
117.0954748989
 21
156.0427746927
  0
LINE
  5
3AB
100
AcDbEntity
  8
0
100
AcDbLine
 62
7
  6
CONTINUOUS
 10
117.4185156128
 20
154.6206698771
 11
117.5089667879
 21
154.2224815183
  0
LINE
  5
3AC
100
AcDbEntity
  8
0
100
AcDbLine
 62
7
  6
CONTINUOUS
 10
108.3481403506
 20
168.1728393936
 11
108.1246595612
 21
168.1193293026
  0
LINE
  5
3AD
100
AcDbEntity
  8
0
100
AcDbLine
 62
7
  6
CONTINUOUS
 10
108.1822449748
 20
170.679467722
 11
108.4057257406
 21
170.7329777665
  0
LINE
  5
3AE
100
AcDbEntity
  8
0
100
AcDbLine
 62
7
  6
CONTINUOUS
 10
81.3229748979
 20
163.8635849632
 11
80.9303773434
 21
163.804414119
  0
LINE
  5
3AF
100
AcDbEntity
  8
0
100
AcDbLine
 62
7
  6
CONTINUOUS
 10
107.9742733
 20
167.6945651309
 11
108.249759472
 21
167.7216518989
  0
LINE
  5
3B0
100
AcDbEntity
  8
0
100
AcDbLine
 62
7
  6
CONTINUOUS
 10
88.8536319606
 20
167.3115420841
 11
89.2490539609
 21
167.2766624779
  0
LINE
  5
3B1
100
AcDbEntity
  8
0
100
AcDbLine
 62
7
  6
CONTINUOUS
 10
88.4970195587
 20
169.1597495669
 11
88.2524982607
 21
169.1936771067
  0
LINE
  5
3B2
100
AcDbEntity
  8
0
100
AcDbLine
 62
7
  6
CONTINUOUS
 10
89.532384838
 20
169.0560628487
 11
89.776906136
 21
169.0221353089
  0
LINE
  5
3B3
100
AcDbEntity
  8
0
100
AcDbLine
 62
7
  6
CONTINUOUS
 10
85.9760607744
 20
168.6623177371
 11
86.1713276137
 21
168.6265508522
  0
LINE
  5
3B4
100
AcDbEntity
  8
0
100
AcDbLine
 62
7
  6
CONTINUOUS
 10
88.9257072602
 20
170.6791512843
 11
88.5875653569
 21
170.7460543147
  0
LINE
  5
3B5
100
AcDbEntity
  8
0
100
AcDbLine
 62
7
  6
CONTINUOUS
 10
114.7266384358
 20
162.5314562307
 11
114.5018089294
 21
162.5789818671
  0
LINE
  5
3B6
100
AcDbEntity
  8
0
100
AcDbLine
 62
7
  6
CONTINUOUS
 10
115.7589370112
 20
164.7283917187
 11
115.9837664763
 21
164.6808660504
  0
LINE
  5
3B7
100
AcDbEntity
  8
0
100
AcDbLine
 62
7
  6
CONTINUOUS
 10
88.7483205109
 20
170.3240328849
 11
88.9355604105
 21
170.2580811708
  0
LINE
  5
3B8
100
AcDbEntity
  8
0
100
AcDbLine
 62
7
  6
CONTINUOUS
 10
114.1837565372
 20
162.2597904072
 11
114.444229948
 21
162.1660874844
  0
LINE
  5
3B9
100
AcDbEntity
  8
0
100
AcDbLine
 62
7
  6
CONTINUOUS
 10
114.5018089294
 20
162.5789818671
 11
114.3002847792
 21
162.718187339
  0
LINE
  5
3BA
100
AcDbEntity
  8
0
100
AcDbLine
 62
7
  6
CONTINUOUS
 10
113.9465892674
 20
162.4451720846
 11
114.1837565372
 21
162.2597904072
  0
LINE
  5
3BB
100
AcDbEntity
  8
0
100
AcDbLine
 62
7
  6
CONTINUOUS
 10
107.0381725766
 20
168.170186236
 11
107.2644684639
 21
167.9716791926
  0
LINE
  5
3BC
100
AcDbEntity
  8
0
100
AcDbLine
 62
7
  6
CONTINUOUS
 10
107.466860423
 20
168.370019925
 11
107.2925699301
 21
168.5421036686
  0
LINE
  5
3BD
100
AcDbEntity
  8
0
100
AcDbLine
 62
7
  6
CONTINUOUS
 10
119.0628883806
 20
155.1138399895
 11
119.2598111524
 21
154.9192942325
  0
LINE
  5
3BE
100
AcDbEntity
  8
0
100
AcDbLine
 62
7
  6
CONTINUOUS
 10
113.661440273
 20
162.8145870455
 11
113.9465892674
 21
162.4451720846
  0
LINE
  5
3BF
100
AcDbEntity
  8
0
100
AcDbLine
 62
7
  6
CONTINUOUS
 10
114.3002847792
 20
162.718187339
 11
114.0151357847
 21
163.0876022999
  0
LINE
  5
3C0
100
AcDbEntity
  8
0
100
AcDbLine
 62
7
  6
CONTINUOUS
 10
114.1426307313
 20
163.7755361092
 11
113.9287687815
 21
164.0525975941
  0
LINE
  5
3C1
100
AcDbEntity
  8
0
100
AcDbLine
 62
7
  6
CONTINUOUS
 10
119.4130573902
 20
155.2532017419
 11
119.301674429
 21
155.4073585786
  0
LINE
  5
3C2
100
AcDbEntity
  8
0
100
AcDbLine
 62
7
  6
CONTINUOUS
 10
109.6327712082
 20
170.4436469345
 11
109.4922130021
 21
170.6821206413
  0
LINE
  5
3C3
100
AcDbEntity
  8
0
100
AcDbLine
 62
7
  6
CONTINUOUS
 10
115.2034355749
 20
160.550387842
 11
115.376069673
 21
160.2459252529
  0
LINE
  5
3C4
100
AcDbEntity
  8
0
100
AcDbLine
 62
7
  6
CONTINUOUS
 10
115.6574878243
 20
163.3973539579
 11
115.5382190498
 21
163.6737407134
  0
LINE
  5
3C5
100
AcDbEntity
  8
0
100
AcDbLine
 62
7
  6
CONTINUOUS
 10
116.8008297766
 20
164.3535810367
 11
116.6815601863
 21
164.6299688491
  0
LINE
  5
3C6
100
AcDbEntity
  8
0
100
AcDbLine
 62
7
  6
CONTINUOUS
 10
117.0857410137
 20
158.7897439438
 11
117.5071779146
 21
157.7018556171
  0
LINE
  5
3C7
100
AcDbEntity
  8
0
100
AcDbLine
 62
7
  6
CONTINUOUS
 10
117.7638646953
 20
157.8638514083
 11
117.3845713398
 21
158.8429512757
  0
LINE
  5
3C8
100
AcDbEntity
  8
0
100
AcDbLine
 62
7
  6
CONTINUOUS
 10
119.8111365401
 20
158.9697305696
 11
119.6425618762
 21
159.4048856513
  0
LINE
  5
3C9
100
AcDbEntity
  8
0
100
AcDbLine
 62
7
  6
CONTINUOUS
 10
115.1845235793
 20
163.4007254909
 11
115.2681492394
 21
163.1705149449
  0
LINE
  5
3CA
100
AcDbEntity
  8
0
100
AcDbLine
 62
7
  6
CONTINUOUS
 10
116.3635086461
 20
164.3107763601
 11
116.4114903759
 21
164.1267430806
  0
LINE
  5
3CB
100
AcDbEntity
  8
0
100
AcDbLine
 62
7
  6
CONTINUOUS
 10
118.6204549382
 20
156.3891842084
 11
118.840122458
 21
155.422153663
  0
LINE
  5
3CC
100
AcDbEntity
  8
0
100
AcDbLine
 62
7
  6
CONTINUOUS
 10
119.301674429
 20
155.4073585786
 11
119.0561634628
 21
156.4881583426
  0
LINE
  5
3CD
100
AcDbEntity
  8
0
100
AcDbLine
 62
7
  6
CONTINUOUS
 10
120.1454349775
 20
156.7355937242
 11
120.3909459437
 21
155.6547939603
  0
LINE
  5
3CE
100
AcDbEntity
  8
0
100
AcDbLine
 62
7
  6
CONTINUOUS
 10
120.7411146576
 20
155.7941570147
 11
120.430995667
 21
157.1593772209
  0
LINE
  5
3CF
100
AcDbEntity
  8
0
100
AcDbLine
 62
7
  6
CONTINUOUS
 10
89.3537622741
 20
167.7617802467
 11
89.0883000956
 21
167.6986846806
  0
LINE
  5
3D0
100
AcDbEntity
  8
0
100
AcDbLine
 62
7
  6
CONTINUOUS
 10
88.6577734016
 20
168.7377274041
 11
88.9232368911
 21
168.8008237032
  0
LINE
  5
3D1
100
AcDbEntity
  8
0
100
AcDbLine
 62
7
  6
CONTINUOUS
 10
89.2669226595
 20
168.9929672826
 11
89.532384838
 21
169.0560628487
  0
LINE
  5
3D2
100
AcDbEntity
  8
0
100
AcDbLine
 62
7
  6
CONTINUOUS
 10
88.7052016498
 20
169.1908216918
 11
88.4970195587
 21
169.1597495669
  0
LINE
  5
3D3
100
AcDbEntity
  8
0
100
AcDbLine
 62
7
  6
CONTINUOUS
 10
108.5561122787
 20
171.1577417463
 11
108.280625818
 21
171.130655147
  0
LINE
  5
3D4
100
AcDbEntity
  8
0
100
AcDbLine
 62
7
  6
CONTINUOUS
 10
88.3559707052
 20
168.7396307697
 11
88.6577734016
 21
168.7377274041
  0
LINE
  5
3D5
100
AcDbEntity
  8
0
100
AcDbLine
 62
7
  6
CONTINUOUS
 10
89.6734336915
 20
169.4761816459
 11
89.3716309951
 21
169.4780850115
  0
LINE
  5
3D6
100
AcDbEntity
  8
0
100
AcDbLine
 62
7
  6
CONTINUOUS
 10
86.1416363162
 20
168.9823683651
 11
85.79718605
 21
168.995405866
  0
LINE
  5
3D7
100
AcDbEntity
  8
0
100
AcDbLine
 62
7
  6
CONTINUOUS
 10
108.1246595612
 20
168.1193293026
 11
107.8829050898
 21
168.1586328176
  0
LINE
  5
3D8
100
AcDbEntity
  8
0
100
AcDbLine
 62
7
  6
CONTINUOUS
 10
107.6805131307
 20
167.7602920852
 11
107.9742733
 21
167.6945651309
  0
LINE
  5
3D9
100
AcDbEntity
  8
0
100
AcDbLine
 62
7
  6
CONTINUOUS
 10
102.9794359613
 20
169.4690631586
 11
103.3206670044
 21
169.3912083242
  0
LINE
  5
3DA
100
AcDbEntity
  8
0
100
AcDbLine
 62
7
  6
CONTINUOUS
 10
103.7838034309
 20
169.3113974473
 11
104.1159516869
 21
169.2010455736
  0
LINE
  5
3DB
100
AcDbEntity
  8
0
100
AcDbLine
 62
7
  6
CONTINUOUS
 10
105.49990278
 20
168.7412460911
 11
105.9981251641
 21
168.5757182806
  0
LINE
  5
3DC
100
AcDbEntity
  8
0
100
AcDbLine
 62
7
  6
CONTINUOUS
 10
116.3018180165
 20
165.0000585394
 11
116.041345437
 21
165.0937604172
  0
LINE
  5
3DD
100
AcDbEntity
  8
0
100
AcDbLine
 62
7
  6
CONTINUOUS
 10
107.2644684639
 20
167.9716791926
 11
107.6805131307
 21
167.7602920852
  0
LINE
  5
3DE
100
AcDbEntity
  8
0
100
AcDbLine
 62
7
  6
CONTINUOUS
 10
107.8829050898
 20
168.1586328176
 11
107.466860423
 21
168.370019925
  0
LINE
  5
3DF
100
AcDbEntity
  8
0
100
AcDbLine
 62
7
  6
CONTINUOUS
 10
115.9837664763
 20
164.6808660504
 11
116.1496466963
 21
164.587837845
  0
LINE
  5
3E0
100
AcDbEntity
  8
0
100
AcDbLine
 62
7
  6
CONTINUOUS
 10
116.5033421668
 20
164.8608530676
 11
116.3018180165
 21
165.0000585394
  0
LINE
  5
3E1
100
AcDbEntity
  8
0
100
AcDbLine
 62
7
  6
CONTINUOUS
 10
108.9150553045
 20
167.093662407
 11
109.2000286299
 21
166.890462496
  0
LINE
  5
3E2
100
AcDbEntity
  8
0
100
AcDbLine
 62
7
  6
CONTINUOUS
 10
110.5299039669
 20
165.9421963736
 11
110.8148772923
 21
165.7389964626
  0
LINE
  5
3E3
100
AcDbEntity
  8
0
100
AcDbLine
 62
7
  6
CONTINUOUS
 10
109.4922130021
 20
170.6821206413
 11
109.2659168142
 21
170.88062783
  0
LINE
  5
3E4
100
AcDbEntity
  8
0
100
AcDbLine
 62
7
  6
CONTINUOUS
 10
109.0635248788
 20
170.4822871441
 11
109.2378153717
 21
170.3102034005
  0
LINE
  5
3E5
100
AcDbEntity
  8
0
100
AcDbLine
 62
7
  6
CONTINUOUS
 10
114.9706616295
 20
163.6777869758
 11
115.1845235793
 21
163.4007254909
  0
LINE
  5
3E6
100
AcDbEntity
  8
0
100
AcDbLine
 62
7
  6
CONTINUOUS
 10
115.5382190498
 20
163.6737407134
 11
115.3243571
 21
163.9508021983
  0
LINE
  5
3E7
100
AcDbEntity
  8
0
100
AcDbLine
 62
7
  6
CONTINUOUS
 10
116.2826243705
 20
163.8062021898
 11
116.4964863203
 21
163.5291407049
  0
LINE
  5
3E8
100
AcDbEntity
  8
0
100
AcDbLine
 62
7
  6
CONTINUOUS
 10
116.1496466963
 20
164.587837845
 11
116.3635086461
 21
164.3107763601
  0
LINE
  5
3E9
100
AcDbEntity
  8
0
100
AcDbLine
 62
7
  6
CONTINUOUS
 10
116.6815601863
 20
164.6299688491
 11
116.5033421668
 21
164.8608530676
  0
LINE
  5
3EA
100
AcDbEntity
  8
0
100
AcDbLine
 62
7
  6
CONTINUOUS
 10
117.4638073188
 20
162.9049761739
 11
117.9241651332
 21
162.0930755491
  0
LINE
  5
3EB
100
AcDbEntity
  8
0
100
AcDbLine
 62
7
  6
CONTINUOUS
 10
118.0967992313
 20
161.78861296
 11
118.5571570458
 21
160.9767123352
  0
LINE
  5
3EC
100
AcDbEntity
  8
0
100
AcDbLine
 62
7
  6
CONTINUOUS
 10
118.8810533786
 20
161.1603656092
 11
117.7877036515
 21
163.0886294479
  0
LINE
  5
3ED
100
AcDbEntity
  8
B-ACHSEN
100
AcDbLine
 62
7
  6
CONTINUOUS
 10
104.9792567784
 20
106.6499012918
 11
104.4792567784
 21
106.1499012918
  0
LINE
  5
3EE
100
AcDbEntity
  8
0
100
AcDbLine
 62
7
  6
CONTINUOUS
 10
88.5401384198
 20
170.2929607599
 11
88.7483205109
 21
170.3240328849
  0
LINE
  5
3EF
100
AcDbEntity
  8
0
100
AcDbLine
 62
7
  6
CONTINUOUS
 10
108.4057257406
 20
170.7329777665
 11
108.647480212
 21
170.6936742515
  0
LINE
  5
3F0
100
AcDbEntity
  8
0
100
AcDbLine
 62
7
  6
CONTINUOUS
 10
108.8498721474
 20
171.0920149374
 11
108.5561122787
 21
171.1577417463
  0
LINE
  5
3F1
100
AcDbEntity
  8
0
100
AcDbLine
 62
7
  6
CONTINUOUS
 10
104.0992153492
 20
172.8035187548
 11
103.7579843061
 21
172.8813735892
  0
LINE
  5
3F2
100
AcDbEntity
  8
0
100
AcDbLine
 62
7
  6
CONTINUOUS
 10
107.101643901
 20
171.8972008407
 11
106.7694956449
 21
172.0075527144
  0
LINE
  5
3F3
100
AcDbEntity
  8
0
100
AcDbLine
 62
7
  6
CONTINUOUS
 10
105.3855445518
 20
172.4673521969
 11
104.8873221678
 21
172.6328800074
  0
LINE
  5
3F4
100
AcDbEntity
  8
0
100
AcDbLine
 62
7
  6
CONTINUOUS
 10
108.647480212
 20
170.6936742515
 11
109.0635248788
 21
170.4822871441
  0
LINE
  5
3F5
100
AcDbEntity
  8
0
100
AcDbLine
 62
7
  6
CONTINUOUS
 10
109.2659168142
 20
170.88062783
 11
108.8498721474
 21
171.0920149374
  0
LINE
  5
3F6
100
AcDbEntity
  8
0
100
AcDbLine
 62
7
  6
CONTINUOUS
 10
112.8468764027
 20
168.588729716
 11
112.5619030773
 21
168.791929627
  0
LINE
  5
3F7
100
AcDbEntity
  8
0
100
AcDbLine
 62
7
  6
CONTINUOUS
 10
111.2320277403
 20
169.7401957493
 11
110.9470544149
 21
169.9433956604
  0
LINE
  5
3F8
100
AcDbEntity
  8
B-ACHSEN
100
AcDbLine
 62
7
  6
CONTINUOUS
 10
166.2628255613
 20
106.1499012918
 11
177.2628255613
 21
106.1499012918
  0
LINE
  5
3F9
100
AcDbEntity
  8
B-ACHSEN
100
AcDbLine
 62
7
  6
CONTINUOUS
 10
165.7628255613
 20
106.6499012918
 11
177.7628255613
 21
106.6499012918
  0
LINE
  5
3FA
100
AcDbEntity
  8
B-ACHSEN
100
AcDbLine
 62
7
  6
CONTINUOUS
 10
165.7628255613
 20
106.6499012918
 11
166.2628255613
 21
106.1499012918
  0
LINE
  5
3FB
100
AcDbEntity
  8
B-ACHSEN
100
AcDbLine
 62
7
  6
CONTINUOUS
 10
165.7628255613
 20
119.1499012918
 11
177.7628255613
 21
119.1499012918
  0
LINE
  5
3FC
100
AcDbEntity
  8
B-ACHSEN
100
AcDbLine
 62
7
  6
CONTINUOUS
 10
156.7628255613
 20
124.1499012918
 11
186.7628255613
 21
124.1499012918
  0
LINE
  5
3FD
100
AcDbEntity
  8
0
100
AcDbLine
 62
7
  6
CONTINUOUS
 10
186.1122280554
 20
127.1499012918
 11
186.846337073
 21
127.1499012918
  0
LINE
  5
3FE
100
AcDbEntity
  8
B-ACHSEN
100
AcDbLine
 62
7
  6
CONTINUOUS
 10
155.4090300113
 20
135.2058982837
 11
156.7628255613
 21
124.1499012918
  0
LINE
  5
3FF
100
AcDbEntity
  8
0
100
AcDbLine
 62
7
  6
CONTINUOUS
 10
186.9107363056
 20
127.6499012918
 11
187.6430244747
 21
127.6499012918
  0
LINE
  5
400
100
AcDbEntity
  8
0
100
AcDbLine
 62
7
  6
CONTINUOUS
 10
187.4372594818
 20
127.735007672
 11
187.6835398243
 21
127.735007672
  0
LINE
  5
401
100
AcDbEntity
  8
0
100
AcDbLine
 62
7
  6
CONTINUOUS
 10
187.4478588669
 20
127.8201140523
 11
187.7042114885
 21
127.8201140523
  0
LINE
  5
402
100
AcDbEntity
  8
0
100
AcDbLine
 62
7
  6
CONTINUOUS
 10
187.4690572156
 20
127.9903268129
 11
187.7321155419
 21
127.9903268129
  0
LINE
  5
403
100
AcDbEntity
  8
0
100
AcDbLine
 62
7
  6
CONTINUOUS
 10
187.4902543314
 20
128.1605395884
 11
187.7558952665
 21
128.1605395884
  0
LINE
  5
404
100
AcDbEntity
  8
0
100
AcDbLine
 62
7
  6
CONTINUOUS
 10
187.5326460674
 20
128.5009651393
 11
187.7991046701
 21
128.5009651393
  0
LINE
  5
405
100
AcDbEntity
  8
0
100
AcDbLine
 62
7
  6
CONTINUOUS
 10
187.5962262642
 20
129.0116033763
 11
187.86186566
 21
129.0116033763
  0
LINE
  5
406
100
AcDbEntity
  8
0
100
AcDbLine
 62
7
  6
CONTINUOUS
 10
187.6492038798
 20
129.4371353597
 11
187.8382187951
 21
129.4371353597
  0
LINE
  5
407
100
AcDbEntity
  8
0
100
AcDbLine
 62
7
  6
CONTINUOUS
 10
187.8807117502
 20
129.5222417325
 11
187.9241607939
 21
129.5222417325
  0
LINE
  5
408
100
AcDbEntity
  8
0
100
AcDbLine
 62
7
  6
CONTINUOUS
 10
185.1489258155
 20
129.6499012918
 11
178.7510303234
 21
129.6499012918
  0
LINE
  5
409
100
AcDbEntity
  8
0
100
AcDbLine
 62
7
  6
CONTINUOUS
 10
158.3767253071
 20
129.6499012918
 11
164.7746207992
 21
129.6499012918
  0
LINE
  5
40A
100
AcDbEntity
  8
0
100
AcDbLine
 62
7
  6
CONTINUOUS
 10
187.944735122
 20
129.8626672238
 11
187.9643417433
 21
129.8626672238
  0
LINE
  5
40B
100
AcDbEntity
  8
0
100
AcDbLine
 62
7
  6
CONTINUOUS
 10
187.9081251063
 20
129.9477735967
 11
187.7127690088
 21
129.9477735967
  0
LINE
  5
40C
100
AcDbEntity
  8
0
100
AcDbLine
 62
7
  6
CONTINUOUS
 10
187.9709850536
 20
130.0328799695
 11
187.9822965779
 21
130.0328799695
  0
LINE
  5
40D
100
AcDbEntity
  8
0
100
AcDbLine
 62
7
  6
CONTINUOUS
 10
187.7233622295
 20
130.0328799695
 11
187.9377285866
 21
130.0328799695
  0
LINE
  5
40E
100
AcDbEntity
  8
0
100
AcDbLine
 62
7
  6
CONTINUOUS
 10
187.7445483873
 20
130.2030927152
 11
187.9696287692
 21
130.2030927152
  0
LINE
  5
40F
100
AcDbEntity
  8
0
100
AcDbLine
 62
7
  6
CONTINUOUS
 10
187.776325796
 20
130.4584118337
 11
188.0059301648
 21
130.4584118337
  0
LINE
  5
410
100
AcDbEntity
  8
0
100
AcDbLine
 62
7
  6
CONTINUOUS
 10
186.3363251499
 20
130.5541565031
 11
186.8804551738
 21
130.5541565031
  0
LINE
  5
411
100
AcDbEntity
  8
0
100
AcDbLine
 62
7
  6
CONTINUOUS
 10
187.8081012704
 20
130.7137311906
 11
188.0372573467
 21
130.7137311906
  0
LINE
  5
412
100
AcDbEntity
  8
0
100
AcDbLine
 62
7
  6
CONTINUOUS
 10
187.8398747647
 20
130.9690503091
 11
188.0636389351
 21
130.9690503091
  0
LINE
  5
413
100
AcDbEntity
  8
0
100
AcDbLine
 62
7
  6
CONTINUOUS
 10
187.8610558897
 20
131.1392630548
 11
188.0736126894
 21
131.1392630548
  0
LINE
  5
414
100
AcDbEntity
  8
0
100
AcDbLine
 62
7
  6
CONTINUOUS
 10
187.8716463144
 20
131.2243694276
 11
188.0650986382
 21
131.2243694276
  0
LINE
  5
415
100
AcDbEntity
  8
0
100
AcDbLine
 62
7
  6
CONTINUOUS
 10
186.4491305039
 20
131.4052205295
 11
186.9926771031
 21
131.4052205295
  0
LINE
  5
416
100
AcDbEntity
  8
0
100
AcDbLine
 62
7
  6
CONTINUOUS
 10
187.4250819322
 20
131.6499012918
 11
188.1104254084
 21
131.6499012918
  0
LINE
  5
417
100
AcDbEntity
  8
0
100
AcDbLine
 62
7
  6
CONTINUOUS
 10
186.766070386
 20
132.1499012918
 11
187.4892727316
 21
132.1499012918
  0
LINE
  5
418
100
AcDbEntity
  8
B-ACHSEN
100
AcDbLine
 62
7
  6
CONTINUOUS
 10
165.7628255613
 20
119.1499012918
 11
165.7628255613
 21
106.6499012918
  0
LINE
  5
419
100
AcDbEntity
  8
BEZUGSACHSEN
100
AcDbLine
 62
7
  6
CONTINUOUS
 10
166.7628255613
 20
180.1499012918
 11
166.7628255613
 21
151.1499012918
  0
LINE
  5
41A
100
AcDbEntity
  8
0
100
AcDbLine
 62
7
  6
CONTINUOUS
 10
166.7628255613
 20
148.6499014511
 11
166.7628255613
 21
151.1499012918
  0
LINE
  5
41B
100
AcDbEntity
  8
B-ACHSEN
100
AcDbLine
 62
7
  6
CONTINUOUS
 10
176.7123911352
 20
122.642964062
 11
177.7628255613
 21
119.1499012918
  0
LINE
  5
41C
100
AcDbEntity
  8
B-ACHSEN
100
AcDbLine
 62
7
  6
CONTINUOUS
 10
166.8132599874
 20
122.642964062
 11
165.7628255613
 21
119.1499012918
  0
LINE
  5
41D
100
AcDbEntity
  8
B-ACHSEN
100
AcDbLine
 62
7
  6
CONTINUOUS
 10
176.7628255613
 20
180.1499012918
 11
176.7628255613
 21
151.1499012918
  0
LINE
  5
41E
100
AcDbEntity
  8
0
100
AcDbLine
 62
7
  6
CONTINUOUS
 10
176.7628255613
 20
148.6499012918
 11
176.7628255613
 21
151.1499012918
  0
LINE
  5
41F
100
AcDbEntity
  8
0
100
AcDbLine
 62
7
  6
CONTINUOUS
 10
177.2628255613
 20
172.8813735892
 11
177.2628255613
 21
165.1268707344
  0
LINE
  5
420
100
AcDbEntity
  8
0
100
AcDbLine
 62
7
  6
CONTINUOUS
 10
177.2628255613
 20
165.0964582778
 11
177.2628255613
 21
157.6838250988
  0
LINE
  5
421
100
AcDbEntity
  8
0
100
AcDbLine
 62
7
  6
CONTINUOUS
 10
177.2628255613
 20
157.6765046053
 11
177.2628255613
 21
154.2224815183
  0
LINE
  5
422
100
AcDbEntity
  8
B-ACHSEN
100
AcDbLine
 62
7
  6
CONTINUOUS
 10
177.7628255613
 20
119.1499012918
 11
177.7628255613
 21
106.6499012918
  0
LINE
  5
423
100
AcDbEntity
  8
0
100
AcDbLine
 62
7
  6
CONTINUOUS
 10
166.7628255613
 20
150.4280414997
 11
176.7628255613
 21
150.4280414997
  0
LINE
  5
424
100
AcDbEntity
  8
BEZUGSACHSEN
100
AcDbLine
 62
7
  6
CONTINUOUS
 10
166.7628255613
 20
151.1499012918
 11
176.7628255613
 21
151.1499012918
  0
LINE
  5
425
100
AcDbEntity
  8
0
100
AcDbLine
 62
7
  6
CONTINUOUS
 10
176.7628255613
 20
154.2224815183
 11
177.2628255613
 21
154.2224815183
  0
LINE
  5
426
100
AcDbEntity
  8
0
100
AcDbLine
 62
7
  6
CONTINUOUS
 10
176.7628255613
 20
154.6206698771
 11
177.2628255613
 21
154.6206698771
  0
LINE
  5
427
100
AcDbEntity
  8
0
100
AcDbLine
 62
7
  6
CONTINUOUS
 10
176.7628255613
 20
154.6594365693
 11
177.2628255613
 21
154.6594365693
  0
LINE
  5
428
100
AcDbEntity
  8
0
100
AcDbLine
 62
7
  6
CONTINUOUS
 10
176.7628255613
 20
155.5398163699
 11
177.2628255613
 21
155.5398163699
  0
LINE
  5
429
100
AcDbEntity
  8
0
100
AcDbLine
 62
7
  6
CONTINUOUS
 10
176.7628255613
 20
157.0641764356
 11
177.2628255613
 21
157.0641764356
  0
LINE
  5
42A
100
AcDbEntity
  8
0
100
AcDbLine
 62
7
  6
CONTINUOUS
 10
176.7628255613
 20
157.3630200269
 11
177.2628255613
 21
157.3630200269
  0
LINE
  5
42B
100
AcDbEntity
  8
0
100
AcDbLine
 62
7
  6
CONTINUOUS
 10
176.7628255613
 20
157.5608855287
 11
177.2628255613
 21
157.5608855287
  0
LINE
  5
42C
100
AcDbEntity
  8
0
100
AcDbLine
 62
7
  6
CONTINUOUS
 10
176.7628255613
 20
157.6765046053
 11
177.2628255613
 21
157.6765046053
  0
LINE
  5
42D
100
AcDbEntity
  8
0
100
AcDbLine
 62
7
  6
CONTINUOUS
 10
176.7628255613
 20
157.6838250988
 11
177.2628255613
 21
157.6838250988
  0
LINE
  5
42E
100
AcDbEntity
  8
0
100
AcDbLine
 62
7
  6
CONTINUOUS
 10
176.7628255613
 20
157.7018556171
 11
177.2628255613
 21
157.7018556171
  0
LINE
  5
42F
100
AcDbEntity
  8
0
100
AcDbLine
 62
7
  6
CONTINUOUS
 10
176.7628255613
 20
157.9596915205
 11
177.2628255613
 21
157.9596915205
  0
LINE
  5
430
100
AcDbEntity
  8
0
100
AcDbLine
 62
7
  6
CONTINUOUS
 10
176.7628255613
 20
158.0485735781
 11
177.2628255613
 21
158.0485735781
  0
LINE
  5
431
100
AcDbEntity
  8
0
100
AcDbLine
 62
7
  6
CONTINUOUS
 10
176.7628255613
 20
158.9725093695
 11
177.2628255613
 21
158.9725093695
  0
LINE
  5
432
100
AcDbEntity
  8
0
100
AcDbLine
 62
7
  6
CONTINUOUS
 10
176.7628255613
 20
159.3333477973
 11
177.2628255613
 21
159.3333477973
  0
LINE
  5
433
100
AcDbEntity
  8
0
100
AcDbLine
 62
7
  6
CONTINUOUS
 10
176.7628255613
 20
159.4637152668
 11
177.2628255613
 21
159.4637152668
  0
LINE
  5
434
100
AcDbEntity
  8
0
100
AcDbLine
 62
7
  6
CONTINUOUS
 10
176.7628255613
 20
159.6734076997
 11
177.2628255613
 21
159.6734076997
  0
LINE
  5
435
100
AcDbEntity
  8
B-ACHSEN
100
AcDbLine
 62
7
  6
CONTINUOUS
 10
188.1166211114
 20
135.2058982837
 11
187.6834945013
 21
131.6686976352
  0
LINE
  5
436
100
AcDbEntity
  8
B-ACHSEN
100
AcDbLine
 62
7
  6
CONTINUOUS
 10
187.1913969899
 20
127.6499012918
 11
186.7628255613
 21
124.1499012918
  0
LINE
  5
437
100
AcDbEntity
  8
0
100
AcDbLine
 62
7
  6
CONTINUOUS
 10
188.0179961706
 20
130.3733054608
 11
188.0597081011
 21
130.7137311906
  0
LINE
  5
438
100
AcDbEntity
  8
0
100
AcDbLine
 62
7
  6
CONTINUOUS
 10
188.0372573467
 20
130.7137311906
 11
188.0059301648
 21
130.4584118337
  0
LINE
  5
439
100
AcDbEntity
  8
0
100
AcDbLine
 62
7
  6
CONTINUOUS
 10
176.7628255613
 20
159.852765029
 11
177.2628255613
 21
159.852765029
  0
LINE
  5
43A
100
AcDbEntity
  8
0
100
AcDbLine
 62
7
  6
CONTINUOUS
 10
176.7628255613
 20
160.7767008203
 11
177.2628255613
 21
160.7767008203
  0
LINE
  5
43B
100
AcDbEntity
  8
0
100
AcDbLine
 62
7
  6
CONTINUOUS
 10
176.7628255613
 20
161.1375390761
 11
177.2628255613
 21
161.1375390761
  0
LINE
  5
43C
100
AcDbEntity
  8
0
100
AcDbLine
 62
7
  6
CONTINUOUS
 10
176.7628255613
 20
162.1054904269
 11
177.2628255613
 21
162.1054904269
  0
LINE
  5
43D
100
AcDbEntity
  8
0
100
AcDbLine
 62
7
  6
CONTINUOUS
 10
176.7628255613
 20
163.4291267478
 11
177.2628255613
 21
163.4291267478
  0
LINE
  5
43E
100
AcDbEntity
  8
0
100
AcDbLine
 62
7
  6
CONTINUOUS
 10
176.7628255613
 20
163.6645257753
 11
177.2628255613
 21
163.6645257753
  0
LINE
  5
43F
100
AcDbEntity
  8
0
100
AcDbLine
 62
7
  6
CONTINUOUS
 10
176.7628255613
 20
163.804414119
 11
177.2628255613
 21
163.804414119
  0
LINE
  5
440
100
AcDbEntity
  8
0
100
AcDbLine
 62
7
  6
CONTINUOUS
 10
176.7628255613
 20
163.8635849632
 11
177.2628255613
 21
163.8635849632
  0
LINE
  5
441
100
AcDbEntity
  8
0
100
AcDbLine
 62
7
  6
CONTINUOUS
 10
176.7628255613
 20
164.0525975941
 11
177.2628255613
 21
164.0525975941
  0
LINE
  5
442
100
AcDbEntity
  8
0
100
AcDbLine
 62
7
  6
CONTINUOUS
 10
176.7628255613
 20
164.183709548
 11
177.2628255613
 21
164.183709548
  0
LINE
  5
443
100
AcDbEntity
  8
0
100
AcDbLine
 62
7
  6
CONTINUOUS
 10
176.7628255613
 20
164.5504277053
 11
177.2628255613
 21
164.5504277053
  0
LINE
  5
444
100
AcDbEntity
  8
0
100
AcDbLine
 62
7
  6
CONTINUOUS
 10
176.7628255613
 20
164.7786151201
 11
177.2628255613
 21
164.7786151201
  0
LINE
  5
445
100
AcDbEntity
  8
0
100
AcDbLine
 62
7
  6
CONTINUOUS
 10
176.7628255613
 20
164.9606253959
 11
177.2628255613
 21
164.9606253959
  0
LINE
  5
446
100
AcDbEntity
  8
0
100
AcDbLine
 62
7
  6
CONTINUOUS
 10
176.7628255613
 20
165.0964582778
 11
177.2628255613
 21
165.0964582778
  0
LINE
  5
447
100
AcDbEntity
  8
0
100
AcDbLine
 62
7
  6
CONTINUOUS
 10
176.7628255613
 20
165.1268707344
 11
177.2628255613
 21
165.1268707344
  0
LINE
  5
448
100
AcDbEntity
  8
0
100
AcDbLine
 62
7
  6
CONTINUOUS
 10
176.7628255613
 20
167.8761520117
 11
177.2628255613
 21
167.8761520117
  0
LINE
  5
449
100
AcDbEntity
  8
0
100
AcDbLine
 62
7
  6
CONTINUOUS
 10
176.7628255613
 20
168.8508412559
 11
177.2628255613
 21
168.8508412559
  0
LINE
  5
44A
100
AcDbEntity
  8
0
100
AcDbLine
 62
7
  6
CONTINUOUS
 10
176.7628255613
 20
168.995405866
 11
177.2628255613
 21
168.995405866
  0
LINE
  5
44B
100
AcDbEntity
  8
0
100
AcDbLine
 62
7
  6
CONTINUOUS
 10
176.7628255613
 20
169.0995086826
 11
177.2628255613
 21
169.0995086826
  0
LINE
  5
44C
100
AcDbEntity
  8
0
100
AcDbLine
 62
7
  6
CONTINUOUS
 10
176.7628255613
 20
169.3595075238
 11
177.2628255613
 21
169.3595075238
  0
LINE
  5
44D
100
AcDbEntity
  8
0
100
AcDbLine
 62
7
  6
CONTINUOUS
 10
176.7628255613
 20
169.6515303571
 11
177.2628255613
 21
169.6515303571
  0
LINE
  5
44E
100
AcDbEntity
  8
0
100
AcDbLine
 62
7
  6
CONTINUOUS
 10
176.7628255613
 20
170.0396242471
 11
177.2628255613
 21
170.0396242471
  0
LINE
  5
44F
100
AcDbEntity
  8
0
100
AcDbLine
 62
7
  6
CONTINUOUS
 10
176.7628255613
 20
170.2977195405
 11
177.2628255613
 21
170.2977195405
  0
LINE
  5
450
100
AcDbEntity
  8
0
100
AcDbLine
 62
7
  6
CONTINUOUS
 10
176.7628255613
 20
170.4908151691
 11
177.2628255613
 21
170.4908151691
  0
LINE
  5
451
100
AcDbEntity
  8
B-ACHSEN
100
AcDbLine
 62
7
  6
CONTINUOUS
 10
177.7628255613
 20
106.6499012918
 11
177.2628255613
 21
106.1499012918
  0
LINE
  5
452
100
AcDbEntity
  8
0
100
AcDbLine
 62
7
  6
CONTINUOUS
 10
176.7628255613
 20
170.6509345743
 11
177.2628255613
 21
170.6509345743
  0
LINE
  5
453
100
AcDbEntity
  8
0
100
AcDbLine
 62
7
  6
CONTINUOUS
 10
176.7628255613
 20
170.7460543147
 11
177.2628255613
 21
170.7460543147
  0
LINE
  5
454
100
AcDbEntity
  8
0
100
AcDbLine
 62
7
  6
CONTINUOUS
 10
176.7628255613
 20
171.9842474115
 11
177.2628255613
 21
171.9842474115
  0
LINE
  5
455
100
AcDbEntity
  8
0
100
AcDbLine
 62
7
  6
CONTINUOUS
 10
176.7628255613
 20
172.1628022117
 11
177.2628255613
 21
172.1628022117
  0
LINE
  5
456
100
AcDbEntity
  8
0
100
AcDbLine
 62
7
  6
CONTINUOUS
 10
176.7628255613
 20
172.8813735892
 11
177.2628255613
 21
172.8813735892
  0
LINE
  5
457
100
AcDbEntity
  8
BEZUGSACHSEN
100
AcDbLine
 62
7
  6
CONTINUOUS
 10
166.7628255613
 20
180.1499012918
 11
176.7628255613
 21
180.1499012918
  0
ARC
  5
458
100
AcDbEntity
  8
0
100
AcDbCircle
 62
7
  6
CONTINUOUS
 10
158.6783938651
 20
176.7345863023
 40
91.4151411666
100
AcDbArc
 50
196.7245024793
 51
211.0017597964
  0
ARC
  5
459
100
AcDbEntity
  8
0
100
AcDbCircle
 62
7
  6
CONTINUOUS
 10
39.2801196918
 20
176.7345863023
 40
91.4151411666
100
AcDbArc
 50
328.9982402036
 51
343.2754975207
  0
ARC
  5
45A
100
AcDbEntity
  8
0
100
AcDbCircle
 62
7
  6
CONTINUOUS
 10
149.3611788717
 20
167.1584705271
 40
80.0
100
AcDbArc
 50
191.5432229203
 51
192.0713941636
  0
ARC
  5
45B
100
AcDbEntity
  8
0
100
AcDbCircle
 62
7
  6
CONTINUOUS
 10
48.5973346852
 20
167.1584705271
 40
80.0
100
AcDbArc
 50
347.9286058364
 51
348.4567770797
  0
ARC
  5
45C
100
AcDbEntity
  8
B-ACHSEN
100
AcDbCircle
 62
7
  6
CONTINUOUS
 10
109.8350717613
 20
141.6511833773
 40
40.0
100
AcDbArc
 50
105.7473166471
 51
166.2628553634
  0
ARC
  5
45D
100
AcDbEntity
  8
B-ACHSEN
100
AcDbCircle
 62
7
  6
CONTINUOUS
 10
88.1234417956
 20
141.6511833773
 40
40.0
100
AcDbArc
 50
13.7371446366
 51
74.2526833529
  0
ARC
  5
45E
100
AcDbEntity
  8
RUNDUNGEN
100
AcDbCircle
 62
7
  6
CONTINUOUS
 10
98.9792567784
 20
151.1499012918
 40
15.0
100
AcDbArc
 50
255.6604352171
 51
284.3395485006
  0
ARC
  5
45F
100
AcDbEntity
  8
0
100
AcDbCircle
 62
7
  6
CONTINUOUS
 10
98.9792567784
 20
151.1499012918
 40
15.0
100
AcDbArc
 50
235.7507263726
 51
255.6604352171
  0
ARC
  5
460
100
AcDbEntity
  8
0
100
AcDbCircle
 62
7
  6
CONTINUOUS
 10
98.9792567784
 20
151.1499012918
 40
15.0
100
AcDbArc
 50
284.3395485006
 51
304.248442125
  0
ARC
  5
461
100
AcDbEntity
  8
RUNDUNGEN
100
AcDbCircle
 62
7
  6
CONTINUOUS
 10
98.9792567784
 20
151.1499012918
 40
15.0
100
AcDbArc
 50
352.0164438548
 51
187.9835561456
  0
ARC
  5
462
100
AcDbEntity
  8
0
100
AcDbCircle
 62
7
  6
CONTINUOUS
 10
98.9792567784
 20
151.1499012918
 40
15.0
100
AcDbArc
 50
310.4854279744
 51
229.5160314152
  0
ARC
  5
463
100
AcDbEntity
  8
0
100
AcDbCircle
 62
7
  6
CONTINUOUS
 10
99.1733349894
 20
150.8957557166
 40
14.6807082663
100
AcDbArc
 50
304.1805097363
 51
310.5532941948
  0
ARC
  5
464
100
AcDbEntity
  8
0
100
AcDbCircle
 62
7
  6
CONTINUOUS
 10
98.7849566363
 20
150.8954654728
 40
14.6803430188
100
AcDbArc
 50
229.4481121003
 51
235.8187524882
  0
ARC
  5
465
100
AcDbEntity
  8
B-ACHSEN
100
AcDbCircle
 62
7
  6
CONTINUOUS
 10
105.0492567784
 20
122.9799012918
 40
1.17
100
AcDbArc
 50
90.0
 51
196.7370923561
  0
ARC
  5
466
100
AcDbEntity
  8
B-ACHSEN
100
AcDbCircle
 62
7
  6
CONTINUOUS
 10
92.9092567784
 20
122.9799012918
 40
1.17
100
AcDbArc
 50
343.2629076439
 51
90.0
  0
ARC
  5
467
100
AcDbEntity
  8
B-ACHSEN
100
AcDbCircle
 62
7
  6
CONTINUOUS
 10
188.7628255613
 20
148.6499012918
 40
12.0
100
AcDbArc
 50
256.138169497
 51
261.1524958114
  0
ARC
  5
468
100
AcDbEntity
  8
BEZUGSACHSEN
100
AcDbCircle
 62
7
  6
CONTINUOUS
 10
154.7628255613
 20
148.6499012918
 40
12.0
100
AcDbArc
 50
278.8475046808
 51
283.861830503
  0
ARC
  5
469
100
AcDbEntity
  8
0
100
AcDbCircle
 62
7
  6
CONTINUOUS
 10
188.7628255613
 20
148.6499012918
 40
12.0
100
AcDbArc
 50
180.0
 51
256.138169497
  0
ARC
  5
46A
100
AcDbEntity
  8
0
100
AcDbCircle
 62
7
  6
CONTINUOUS
 10
154.7628255613
 20
148.6499012918
 40
12.0
100
AcDbArc
 50
283.861830503
 51
0.0000007607
  0
ARC
  5
46B
100
AcDbEntity
  8
B-ACHSEN
100
AcDbCircle
 62
7
  6
CONTINUOUS
 10
186.6972225755
 20
135.3797021861
 40
1.43
100
AcDbArc
 50
353.0189425932
 51
81.1524911885
  0
ARC
  5
46C
100
AcDbEntity
  8
BEZUGSACHSEN
100
AcDbCircle
 62
7
  6
CONTINUOUS
 10
156.8284285471
 20
135.3797021861
 40
1.43
100
AcDbArc
 50
98.8475046808
 51
186.9810574068
  0
ARC
  5
46D
100
AcDbEntity
  8
B-ACHSEN
100
AcDbCircle
 62
7
  6
CONTINUOUS
 10
165.6928255613
 20
122.9799012918
 40
1.17
100
AcDbArc
 50
343.2629076439
 51
90.0
  0
ARC
  5
46E
100
AcDbEntity
  8
B-ACHSEN
100
AcDbCircle
 62
7
  6
CONTINUOUS
 10
177.8328255613
 20
122.9799012918
 40
1.17
100
AcDbArc
 50
90.0
 51
196.7370923561
  0
SPLINE
  5
46F
100
AcDbEntity
  8
B-ACHSEN
100
AcDbSpline
 62
7
  6
CONTINUOUS
 70
0
 71
3
 72
9
 73
5
 74
0
 42
0.0000001
 43
0.0000001
 44
0.0000000001
 40
0.0
 40
0.0
 40
0.0
 40
0.0
 40
0.2439606652
 40
1.0
 40
1.0
 40
1.0
 40
1.0
 10
107.6488291541
 20
136.9993856666
 30
0.0
 10
107.4852292628
 20
136.9754552828
 30
0.0
 10
106.8133574112
 20
136.8860333924
 30
0.0
 10
106.1377279681
 20
136.8268818228
 30
0.0
 10
105.6264754921
 20
136.792686901
 30
0.0
  0
SPLINE
  5
470
100
AcDbEntity
  8
B-ACHSEN
100
AcDbSpline
 62
7
  6
CONTINUOUS
 70
0
 71
3
 72
9
 73
5
 74
0
 42
0.0000001
 43
0.0000001
 44
0.0000000001
 40
0.0
 40
0.0
 40
0.0
 40
0.0
 40
0.2558813828
 40
1.0
 40
1.0
 40
1.0
 40
1.0
 10
92.3320383027
 20
136.7926868851
 30
0.0
 10
92.159009445
 20
136.8042598515
 30
0.0
 10
91.4831701799
 20
136.8543141355
 30
0.0
 10
90.8086771014
 20
136.9263960899
 30
0.0
 10
90.3096844027
 20
136.9993856666
 30
0.0
  0
SPLINE
  5
471
100
AcDbEntity
  8
RUNDUNGEN
100
AcDbSpline
 62
7
  6
CONTINUOUS
 70
0
 71
3
 72
9
 73
5
 74
0
 42
0.0000001
 43
0.0000001
 44
0.0000000001
 40
0.0
 40
0.0
 40
0.0
 40
0.0
 40
0.2512130419
 40
1.0
 40
1.0
 40
1.0
 40
1.0
 10
103.8746675801
 20
136.7926871157
 30
0.0
 10
103.7749210319
 20
136.7864893525
 30
0.0
 10
103.378446248
 20
136.7546915393
 30
0.0
 10
102.9836399217
 20
136.6911886617
 30
0.0
 10
102.6950353112
 20
136.617407237
 30
0.0
  0
SPLINE
  5
472
100
AcDbEntity
  8
RUNDUNGEN
100
AcDbSpline
 62
7
  6
CONTINUOUS
 70
0
 71
3
 72
9
 73
5
 74
0
 42
0.0000001
 43
0.0000001
 44
0.0000000001
 40
0.0
 40
0.0
 40
0.0
 40
0.0
 40
0.2491169796
 40
1.0
 40
1.0
 40
1.0
 40
1.0
 10
95.2630273733
 20
136.6175154903
 30
0.0
 10
95.1670303267
 20
136.6420630632
 30
0.0
 10
94.7786290391
 20
136.7286841713
 30
0.0
 10
94.3818779269
 20
136.7741643132
 30
0.0
 10
94.0837904982
 20
136.7926907321
 30
0.0
  0
SPLINE
  5
473
100
AcDbEntity
  8
B-ACHSEN
100
AcDbSpline
 62
7
  6
CONTINUOUS
 70
0
 71
3
 72
12
 73
8
 74
0
 42
0.0000001
 43
0.0000001
 44
0.0000000001
 40
0.0
 40
0.0
 40
0.0
 40
0.0
 40
0.2556830369
 40
0.5097008653
 40
0.7590310437
 40
0.8809054164
 40
1.0
 40
1.0
 40
1.0
 40
1.0
 10
98.9792567784
 20
135.2058982837
 30
0.0
 10
98.4192654698
 20
135.3696525021
 30
0.0
 10
97.3046213712
 20
135.7019041685
 30
0.0
 10
95.6390501677
 20
136.1770760608
 30
0.0
 10
94.2519981946
 20
136.515571888
 30
0.0
 10
93.1502006643
 20
136.7122183208
 30
0.0
 10
92.6031943277
 20
136.7745507128
 30
0.0
 10
92.3320383029
 20
136.7926868851
 30
0.0
  0
SPLINE
  5
474
100
AcDbEntity
  8
0
100
AcDbSpline
 62
7
  6
CONTINUOUS
 70
0
 71
3
 72
13
 73
9
 74
0
 42
0.0000001
 43
0.0000001
 44
0.0000000001
 40
0.0
 40
0.0
 40
0.0
 40
0.0
 40
0.1305432595
 40
0.2591010243
 40
0.3859406656
 40
0.5112596822
 40
0.7578435015
 40
1.0
 40
1.0
 40
1.0
 40
1.0
 10
124.5579740567
 20
143.8041203258
 30
0.0
 10
123.9416083604
 20
143.2903573703
 30
0.0
 10
122.6562000858
 20
142.3437980214
 30
0.0
 10
120.6199869036
 20
141.1217947472
 30
0.0
 10
118.5237716328
 20
140.0766694
 30
0.0
 10
115.6917339002
 20
138.8981368554
 30
0.0
 10
112.0801743872
 20
137.7707792636
 30
0.0
 10
109.1237877371
 20
137.1994092086
 30
0.0
 10
107.6488291541
 20
136.9993856666
 30
0.0
  0
SPLINE
  5
475
100
AcDbEntity
  8
B-ACHSEN
100
AcDbSpline
 62
7
  6
CONTINUOUS
 70
0
 71
3
 72
12
 73
8
 74
0
 42
0.0000001
 43
0.0000001
 44
0.0000000001
 40
0.0
 40
0.0
 40
0.0
 40
0.0
 40
0.1190945843
 40
0.2409689659
 40
0.4902991366
 40
0.7443169635
 40
1.0
 40
1.0
 40
1.0
 40
1.0
 10
105.6264754921
 20
136.792686901
 30
0.0
 10
105.3553194555
 20
136.7745507355
 30
0.0
 10
104.80831307
 20
136.7122184016
 30
0.0
 10
103.7065155126
 20
136.5155718635
 30
0.0
 10
102.3194634759
 20
136.1770761082
 30
0.0
 10
100.6538922404
 20
135.7019041776
 30
0.0
 10
99.5392481058
 20
135.3696525076
 30
0.0
 10
98.9792567784
 20
135.2058982837
 30
0.0
  0
SPLINE
  5
476
100
AcDbEntity
  8
0
100
AcDbSpline
 62
7
  6
CONTINUOUS
 70
0
 71
3
 72
13
 73
9
 74
0
 42
0.0000001
 43
0.0000001
 44
0.0000000001
 40
0.0
 40
0.0
 40
0.0
 40
0.0
 40
0.2421568855
 40
0.4887408567
 40
0.6140598898
 40
0.7408994675
 40
0.8694570627
 40
1.0
 40
1.0
 40
1.0
 40
1.0
 10
90.3096844027
 20
136.9993856666
 30
0.0
 10
88.8347234495
 20
137.19940953
 30
0.0
 10
85.878333588
 20
137.7707806747
 30
0.0
 10
82.266770855
 20
138.8981394981
 30
0.0
 10
79.4347326638
 20
140.0766727381
 30
0.0
 10
77.3385190188
 20
141.1217984031
 30
0.0
 10
75.3023090948
 20
142.3438005243
 30
0.0
 10
74.0169036805
 20
143.2903586339
 30
0.0
 10
73.4005395002
 20
143.8041203258
 30
0.0
  0
LINE
  5
477
100
AcDbEntity
  8
0
100
AcDbLine
 62
7
  6
CONTINUOUS
 10
187.7127690088
 20
129.9477735967
 11
187.8716463144
 21
131.2243694276
  0
LINE
  5
478
100
AcDbEntity
  8
0
100
AcDbLine
 62
7
  6
CONTINUOUS
 10
187.4266600968
 20
127.6499012918
 11
187.6492038798
 21
129.4371353597
  0
SPLINE
  5
479
100
AcDbEntity
  8
0
100
AcDbSpline
 62
7
  6
CONTINUOUS
 70
0
 71
3
 72
8
 73
4
 74
0
 42
0.0000001
 43
0.0000001
 44
0.0000000001
 40
0.0
 40
0.0
 40
0.0
 40
0.0
 40
1.0
 40
1.0
 40
1.0
 40
1.0
 10
186.846337073
 20
127.1499012918
 30
0.0
 10
187.0234923496
 20
128.5248764796
 30
0.0
 10
187.2003508498
 20
129.8998899313
 30
0.0
 10
187.3769417694
 20
131.2749377146
 30
0.0
  0
LINE
  5
47A
100
AcDbEntity
  8
0
100
AcDbLine
 62
7
  6
CONTINUOUS
 10
187.3769417694
 20
131.2749377146
 11
187.4892727316
 21
132.1499012918
  0
SPLINE
  5
47B
100
AcDbEntity
  8
0
100
AcDbSpline
 62
7
  6
CONTINUOUS
 70
0
 71
3
 72
8
 73
4
 74
0
 42
0.0000001
 43
0.0000001
 44
0.0000000001
 40
0.0
 40
0.0
 40
0.0
 40
0.0
 40
1.0
 40
1.0
 40
1.0
 40
1.0
 10
186.1122280554
 20
127.1499012918
 30
0.0
 10
186.2597864137
 20
128.2751371561
 30
0.0
 10
186.40705843
 20
129.4004106008
 30
0.0
 10
186.5540689155
 20
130.525718175
 30
0.0
  0
LINE
  5
47C
100
AcDbEntity
  8
0
100
AcDbLine
 62
7
  6
CONTINUOUS
 10
186.5540689155
 20
130.525718175
 11
186.5577837988
 21
130.5541545827
  0
LINE
  5
47D
100
AcDbEntity
  8
0
100
AcDbLine
 62
7
  6
CONTINUOUS
 10
187.8369979724
 20
131.6499012918
 11
187.3362632627
 21
127.6499012918
  0
LINE
  5
47E
100
AcDbEntity
  8
0
100
AcDbLine
 62
7
  6
CONTINUOUS
 10
186.9926771031
 20
131.4052205295
 11
186.8804551738
 21
130.5541565031
  0
LINE
  5
47F
100
AcDbEntity
  8
0
100
AcDbLine
 62
7
  6
CONTINUOUS
 10
186.4491305039
 20
131.4052205295
 11
186.3363251499
 21
130.5541565031
  0
SPLINE
  5
480
100
AcDbEntity
  8
0
100
AcDbSpline
 62
7
  6
CONTINUOUS
 70
0
 71
3
 72
8
 73
4
 74
0
 42
0.0000001
 43
0.0000001
 44
0.0000000001
 40
0.0
 40
0.0
 40
0.0
 40
0.0
 40
1.0
 40
1.0
 40
1.0
 40
1.0
 10
187.1908970529
 20
131.2988375634
 30
0.0
 10
187.0111076005
 20
129.9158118184
 30
0.0
 10
186.8309701334
 20
128.5328312593
 30
0.0
 10
186.6504454441
 20
127.1499012918
 30
0.0
  0
SPLINE
  5
481
100
AcDbEntity
  8
0
100
AcDbSpline
 62
7
  6
CONTINUOUS
 70
0
 71
3
 72
10
 73
6
 74
0
 42
0.0000001
 43
0.0000001
 44
0.0000000001
 40
0.0
 40
0.0
 40
0.0
 40
0.0
 40
0.2421591119
 40
0.4897674628
 40
1.0
 40
1.0
 40
1.0
 40
1.0
 10
164.7746207992
 20
129.6499012918
 30
0.0
 10
164.9429137227
 20
130.7834781698
 30
0.0
 10
165.2271199969
 20
133.0847291818
 30
0.0
 10
165.6180405829
 20
137.8017853127
 30
0.0
 10
165.7290129588
 20
141.3895092871
 30
0.0
 10
165.7409131375
 20
143.8041203258
 30
0.0
  0
SPLINE
  5
482
100
AcDbEntity
  8
0
100
AcDbSpline
 62
7
  6
CONTINUOUS
 70
0
 71
3
 72
10
 73
6
 74
0
 42
0.0000001
 43
0.0000001
 44
0.0000000001
 40
0.0
 40
0.0
 40
0.0
 40
0.0
 40
0.5102326819
 40
0.7578410222
 40
1.0
 40
1.0
 40
1.0
 40
1.0
 10
177.7847379851
 20
143.8041203258
 30
0.0
 10
177.7966381672
 20
141.3895086027
 30
0.0
 10
177.9076106282
 20
137.8017839948
 30
0.0
 10
178.2985312482
 20
133.0847278665
 30
0.0
 10
178.5827374932
 20
130.7834775419
 30
0.0
 10
178.7510303234
 20
129.6499012918
 30
0.0
  0
ELLIPSE
  5
483
100
AcDbEntity
  8
0
100
AcDbEllipse
 62
7
  6
CONTINUOUS
 10
171.7628255613
 20
139.6767041947
 30
0.0
 11
-0.0
 21
39.50063736
 31
0.0
 40
0.4232691832
 41
-1.8666366462
 42
-1.8576392311
  0
ELLIPSE
  5
484
100
AcDbEntity
  8
0
100
AcDbEllipse
 62
7
  6
CONTINUOUS
 10
171.7628255613
 20
131.0069542146
 30
0.0
 11
0.0
 21
18.5456909216
 31
0.0
 40
0.8727005454
 41
-1.7341814853
 42
-1.72488657
  0
ELLIPSE
  5
485
100
AcDbEntity
  8
0
100
AcDbEllipse
 62
7
  6
CONTINUOUS
 10
171.7628255613
 20
129.4151026515
 30
0.0
 11
16.0790201538
 21
0.0
 31
0.0
 40
0.7597679024
 41
-0.1309358918
 42
-0.1168948921
  0
ELLIPSE
  5
486
100
AcDbEntity
  8
0
100
AcDbEllipse
 62
7
  6
CONTINUOUS
 10
171.7628255613
 20
128.3323776356
 30
0.0
 11
15.9986865329
 21
0.0
 31
0.0
 40
0.3786569462
 41
-0.0987687287
 42
-0.0846607569
  0
ELLIPSE
  5
487
100
AcDbEntity
  8
0
100
AcDbEllipse
 62
7
  6
CONTINUOUS
 10
171.7628255613
 20
127.9633483991
 30
0.0
 11
15.9664040673
 21
0.0
 31
0.0
 40
0.1891760241
 41
-0.1039617668
 42
-0.0756701699
  0
ELLIPSE
  5
488
100
AcDbEntity
  8
0
100
AcDbEllipse
 62
7
  6
CONTINUOUS
 10
171.7628255613
 20
130.2561266938
 30
0.0
 11
16.2339948457
 21
-0.0
 31
0.0
 40
0.378656913
 41
-0.0086275663
 42
-0.0072565912
  0
ELLIPSE
  5
489
100
AcDbEntity
  8
0
100
AcDbEllipse
 62
7
  6
CONTINUOUS
 10
171.7628255613
 20
130.883972447
 30
0.0
 11
16.2581084298
 21
-0.0
 31
0.0
 40
0.7597678353
 41
-0.0689556818
 42
-0.0551492558
  0
ELLIPSE
  5
48A
100
AcDbEntity
  8
0
100
AcDbEllipse
 62
7
  6
CONTINUOUS
 10
171.7628255613
 20
132.1929730172
 30
0.0
 11
0.0
 21
18.7104841719
 31
0.0
 40
0.8727007012
 41
-1.6956660344
 42
-1.6865026032
  0
ELLIPSE
  5
48B
100
AcDbEntity
  8
0
100
AcDbEllipse
 62
7
  6
CONTINUOUS
 10
171.7628255613
 20
140.3530493414
 30
0.0
 11
0.0
 21
39.6885855615
 31
0.0
 40
0.4232692636
 41
-1.8471970636
 42
-1.8382923665
  0
ELLIPSE
  5
48C
100
AcDbEntity
  8
0
100
AcDbEllipse
 62
7
  6
CONTINUOUS
 10
171.7628255613
 20
428.3937832935
 30
0.0
 11
0.0
 21
359.2043828506
 31
0.0
 40
0.081107749
 41
-2.5561347617
 42
-2.5535671099
  0
ELLIPSE
  5
48D
100
AcDbEntity
  8
0
100
AcDbEllipse
 62
7
  6
CONTINUOUS
 10
171.7628255613
 20
428.9514637404
 30
0.0
 11
0.0
 21
359.6692348825
 31
0.0
 40
0.0811078111
 41
-2.5595695566
 42
-2.5569919113
  0
ELLIPSE
  5
48E
100
AcDbEntity
  8
0
100
AcDbEllipse
 62
7
  6
CONTINUOUS
 10
171.7628255613
 20
134.6737062281
 30
0.0
 11
-0.0
 21
25.4068828986
 31
0.0
 40
0.6494957509
 41
4.5660541908
 42
4.5795848126
  0
ELLIPSE
  5
48F
100
AcDbEntity
  8
0
100
AcDbEllipse
 62
7
  6
CONTINUOUS
 10
171.7628255613
 20
132.014609447
 30
0.0
 11
16.3771003744
 21
0.0
 31
0.0
 40
0.8557232455
 41
-0.0503366738
 42
-0.0321024172
  0
ELLIPSE
  5
490
100
AcDbEntity
  8
0
100
AcDbEllipse
 62
7
  6
CONTINUOUS
 10
171.7628255613
 20
131.3986700412
 30
0.0
 11
16.3850082979
 21
-0.0
 31
0.0
 40
0.227037969
 41
0.0446718532
 42
0.0675863804
  0
ELLIPSE
  5
491
100
AcDbEntity
  8
0
100
AcDbEllipse
 62
7
  6
CONTINUOUS
 10
171.7628255613
 20
129.8939619592
 30
0.0
 11
16.2008294882
 21
0.0
 31
0.0
 40
0.227037969
 41
-0.1245198311
 42
-0.1012330887
  0
ELLIPSE
  5
492
100
AcDbEntity
  8
0
100
AcDbEllipse
 62
7
  6
CONTINUOUS
 10
171.7628255613
 20
131.9931003582
 30
0.0
 11
16.374480949
 21
0.0
 31
0.0
 40
0.8557232455
 41
-0.1772653635
 42
-0.1587833939
  0
ELLIPSE
  5
493
100
AcDbEntity
  8
0
100
AcDbEllipse
 62
7
  6
CONTINUOUS
 10
171.7628255613
 20
135.8683769675
 30
0.0
 11
0.0
 21
25.6282142583
 31
0.0
 40
0.6494957509
 41
4.4724322732
 42
4.4860849398
  0
ELLIPSE
  5
494
100
AcDbEntity
  8
0
100
AcDbEllipse
 62
7
  6
CONTINUOUS
 10
171.7628255613
 20
160.7302980284
 30
0.0
 11
-0.0
 21
68.027177601
 31
0.0
 40
0.2670115464
 41
-2.0375630118
 42
-2.0333646684
  0
ELLIPSE
  5
495
100
AcDbEntity
  8
0
100
AcDbEllipse
 62
7
  6
CONTINUOUS
 10
171.7628255613
 20
156.3010864795
 30
0.0
 11
0.0
 21
66.1808699001
 31
0.0
 40
0.2670115464
 41
-1.9677684111
 42
-1.9635888585
  0
ELLIPSE
  5
496
100
AcDbEntity
  8
0
100
AcDbEllipse
 62
7
  6
CONTINUOUS
 10
171.7628255613
 20
142.3866666372
 30
0.0
 11
-0.0
 21
23.4813597131
 31
0.0
 40
0.7453659101
 41
-2.0989167921
 42
-2.0625778787
  0
ELLIPSE
  5
497
100
AcDbEntity
  8
0
100
AcDbEllipse
 62
7
  6
CONTINUOUS
 10
171.7628255613
 20
143.1496686158
 30
0.0
 11
0.0
 21
22.9381561023
 31
0.0
 40
0.7453662165
 41
-2.1083135264
 42
-2.0709269556
  0
ELLIPSE
  5
498
100
AcDbEntity
  8
0
100
AcDbEllipse
 62
7
  6
CONTINUOUS
 10
171.7628255613
 20
130.9479177003
 30
0.0
 11
16.3186130404
 21
0.0
 31
0.0
 40
0.378656913
 41
0.0309712134
 42
0.0447543405
  0
ELLIPSE
  5
499
100
AcDbEntity
  8
0
100
AcDbEllipse
 62
7
  6
CONTINUOUS
 10
171.7628255613
 20
132.308674371
 30
0.0
 11
-0.0
 21
18.7265340069
 31
0.0
 40
0.8727019741
 41
-1.6423936267
 42
-1.6332837413
  0
ELLIPSE
  5
49A
100
AcDbEntity
  8
0
100
AcDbEllipse
 62
7
  6
CONTINUOUS
 10
171.7628255613
 20
154.4470001884
 30
0.0
 11
0.0
 21
65.4079978529
 31
0.0
 40
0.2670115464
 41
-1.9421204684
 42
-1.9379348942
  0
ELLIPSE
  5
49B
100
AcDbEntity
  8
0
100
AcDbEllipse
 62
7
  6
CONTINUOUS
 10
171.7628255613
 20
162.6873890152
 30
0.0
 11
-0.0
 21
68.8429869432
 31
0.0
 40
0.2670115464
 41
-2.0621962741
 42
-2.0579945332
  0
ELLIPSE
  5
49C
100
AcDbEntity
  8
0
100
AcDbEllipse
 62
7
  6
CONTINUOUS
 10
171.7628255613
 20
134.1021659499
 30
0.0
 11
0.0
 21
18.9757380726
 31
0.0
 40
0.8727019741
 41
-1.7869217274
 42
-1.7777471671
  0
ELLIPSE
  5
49D
100
AcDbEntity
  8
0
100
AcDbEllipse
 62
7
  6
CONTINUOUS
 10
171.7628255613
 20
130.7962924628
 30
0.0
 11
16.3000666098
 21
0.0
 31
0.0
 40
0.378656913
 41
-0.1379125574
 42
-0.1240045437
  0
ELLIPSE
  5
49E
100
AcDbEntity
  8
0
100
AcDbEllipse
 62
7
  6
CONTINUOUS
 10
171.7628255613
 20
143.260692764
 30
0.0
 11
0.0
 21
23.6230363984
 31
0.0
 40
0.7453662165
 41
-2.0965449236
 42
-2.0604691045
  0
ENDSEC
  0
SECTION
  2
OBJECTS
  0
DICTIONARY
  5
C
100
AcDbDictionary
280
0
281
1
  3
ACAD_GROUP
350
D
  3
ACAD_MLINESTYLE
350
17
  3
ACAD_LAYOUT
350
1A
  3
ACAD_PLOTSETTINGS
350
19
  3
ACAD_PLOTSTYLENAME
350
E
  0
DICTIONARY
  5
D
102
{ACAD_REACTORS
330
C
102
}
100
AcDbDictionary
280
0
281
1
  0
ACDBDICTIONARYWDFLT
  5
E
102
{ACAD_REACTORS
330
C
102
}
100
AcDbDictionary
281
1
  3
Normal
350
F
100
AcDbDictionaryWithDefault
340
F
  0
DICTIONARY
  5
17
102
{ACAD_REACTORS
330
C
102
}
100
AcDbDictionary
280
0
281
1
  3
Standard
350
18
  0
DICTIONARY
  5
19
102
{ACAD_REACTORS
330
C
102
}
100
AcDbDictionary
281
1
  0
DICTIONARY
  5
1A
102
{ACAD_REACTORS
330
C
102
}
100
AcDbDictionary
281
1
  3
Model
350
49F
  3
Layout1
350
4A0
  0
ACDBPLACEHOLDER
  5
F
102
{ACAD_REACTORS
330
E
102
}
  0
MLINESTYLE
  5
18
102
{ACAD_REACTORS
330
17
102
}
100
AcDbMlineStyle
  2
STANDARD
 70
0
  3

 62
256
 51
90.0
 52
90.0
 71
2
 49
0.5
 62
256
  6
BYLAYER
 49
-0.5
 62
256
  6
BYLAYER
  0
LAYOUT
  5
49F
102
{ACAD_REACTORS
330
1A
102
}
100
AcDbPlotSettings
  1

  2
none_device
  4
ISO_A4_(297.00_x_210.00_MM)
  6

 40
0.0
 41
0.0
 42
0.0
 43
0.0
 44
297.0
 45
210.0
 46
0.0
 47
0.0
 48
0.0
 49
0.0
140
0.0
141
0.0
142
1.0
143
1.0
 70
1024
 72
1
 73
0
 74
0
  7

 75
0
147
1.0
148
0.0
149
0.0
100
AcDbLayout
  1
Model
 70
0
 71
0
 10
0.0
 20
0.0
 11
297.0
 21
210.0
 12
0.0
 22
0.0
 32
0.0
 14
0.0
 24
0.0
 34
0.0
 15
0.0
 25
0.0
 35
0.0
146
0.0
 13
0.0
 23
0.0
 33
0.0
 16
1.0
 26
0.0
 36
0.0
 17
0.0
 27
1.0
 37
0.0
 76
0
330
210
345
0
346
0
  0
LAYOUT
  5
4A0
102
{ACAD_REACTORS
330
1A
102
}
100
AcDbPlotSettings
  1

  2
none_device
  4
ISO_A4_(297.00_x_210.00_MM)
  6

 40
0.0
 41
0.0
 42
0.0
 43
0.0
 44
297.0
 45
210.0
 46
0.0
 47
0.0
 48
0.0
 49
0.0
140
0.0
141
0.0
142
1.0
143
1.0
 70
0
 72
1
 73
0
 74
0
  7

 75
0
147
1.0
148
0.0
149
0.0
100
AcDbLayout
  1
Layout1
 70
0
 71
1
 10
0.0
 20
0.0
 11
297.0
 21
210.0
 12
0.0
 22
0.0
 32
0.0
 14
0.0
 24
0.0
 34
0.0
 15
0.0
 25
0.0
 35
0.0
146
0.0
 13
0.0
 23
0.0
 33
0.0
 16
1.0
 26
0.0
 36
0.0
 17
0.0
 27
1.0
 37
0.0
 76
0
330
211
345
0
346
0
  0
ENDSEC
  0
EOF
