999
DXF file: PSA-INOX-STAR-M12_7997820_M33132-P-5.dxf
999
Pro/ENGINEER 2010140 by Parametric Technology Corporation
  0
SECTION
  2
HEADER
  9
$ACADVER
  1
AC1015
  9
$DWGCODEPAGE
  3
ANSI_1252
  9
$EXTMAX
 10
297.0
 20
210.0
 30
0.0
  9
$EXTMIN
 10
0.0
 20
0.0
 30
0.0
  9
$LIMMIN
 10
0.0
 20
0.0
  9
$LIMMAX
 10
297.0
 20
210.0
  9
$VIEWCTR
 10
148.5
 20
105.0
  9
$VIEWSIZE
 40
210.0
  9
$CLAYER
  8
0
  9
$LTSCALE
 40
16.335
  9
$CELTYPE
  6
BYLAYER
  9
$DIMSCALE
 40
1.0
  9
$DIMASZ
 40
3.5
  9
$DIMEXO
 40
1.85625
  9
$DIMDLI
 40
11.286
  9
$DIMEXE
 40
5.346
  9
$DIMCEN
 40
2.673
  9
$DIMLFAC
 40
1.0
  9
$DIMBLK
  1
_FILLED
  9
$DIMTXT
 40
3.5
  9
$DIMTOL
 70
1
  9
$DIMLIM
 70
0
  9
$DIMTFAC
 40
1.0
  9
$DIMTP
 40
0.005
  9
$DIMTM
 40
0.005
  9
$PDMODE
 70
3
  9
$PDSIZE
 40
0.3125
  9
$HANDSEED
  5
4A1
  9
$TILEMODE
 70
1
  9
$MEASUREMENT
 70
1
  9
$INSUNITS
 70
4
  0
ENDSEC
  0
SECTION
  2
CLASSES
  0
CLASS
  1
ACDBDICTIONARYWDFLT
  2
AcDbDictionaryWithDefault
  3
AutoCAD 2000
 90
0
280
0
281
0
  0
CLASS
  1
ACDBPLACEHOLDER
  2
AcDbPlaceHolder
  3
AutoCAD 2000
 90
0
280
0
281
0
  0
CLASS
  1
LAYOUT
  2
AcDbLayout
  3
AutoCAD 2000
 90
0
280
0
281
0
  0
ENDSEC
  0
SECTION
  2
TABLES
  0
TABLE
  2
VPORT
  5
8
100
AcDbSymbolTable
 70
2
  0
VPORT
  5
1F4
100
AcDbSymbolTableRecord
100
AcDbViewportTableRecord
  2
*ACTIVE
 70
0
 10
0.0
 20
0.0
 11
1.0
 21
1.0
 12
148.5
 22
105.0
 13
0.0
 23
0.0
 14
1.0
 24
1.0
 15
0.0
 25
0.0
 16
0.0
 26
0.0
 36
1.0
 17
0.0
 27
0.0
 37
0.0
 40
210.0
 41
1.4142857143
 42
50.0
 43
0.0
 44
0.0
 50
0.0
 51
0.0
 71
0
 72
100
 73
1
 74
1
 75
0
 76
0
 77
0
 78
0
  0
ENDTAB
  0
TABLE
  2
LTYPE
  5
5
100
AcDbSymbolTable
 70
6
  0
LTYPE
  5
14
100
AcDbSymbolTableRecord
100
AcDbLinetypeTableRecord
  2
BYBLOCK
 70
0
  3

 72
65
 73
0
 40
0.0
  0
LTYPE
  5
15
100
AcDbSymbolTableRecord
100
AcDbLinetypeTableRecord
  2
BYLAYER
 70
0
  3

 72
65
 73
0
 40
0.0
  0
LTYPE
  5
16
100
AcDbSymbolTableRecord
100
AcDbLinetypeTableRecord
  2
CONTINUOUS
 70
64
  3
Solid line
 72
65
 73
0
 40
0.0
  0
LTYPE
  5
1F5
100
AcDbSymbolTableRecord
100
AcDbLinetypeTableRecord
  2
CENTER
 70
64
  3
____ _ ____ _ ____ _ ____ _ ____ _ ____ _ ____
 72
65
 73
4
 40
0.6
 49
0.375
 74
0
 49
-0.075
 74
0
 49
0.075
 74
0
 49
-0.075
 74
0
  0
LTYPE
  5
1F6
100
AcDbSymbolTableRecord
100
AcDbLinetypeTableRecord
  2
HIDDEN
 70
64
  3
- - - - - - - - - - - - - - - - - - - -
 72
65
 73
2
 40
0.2
 49
0.1
 74
0
 49
-0.1
 74
0
  0
LTYPE
  5
1F7
100
AcDbSymbolTableRecord
100
AcDbLinetypeTableRecord
  2
PHANTOM
 70
64
  3
_____ _ _ _____ _ _ _____ _ _ _____
 72
65
 73
6
 40
0.8
 49
0.45
 74
0
 49
-0.05
 74
0
 49
0.1
 74
0
 49
-0.05
 74
0
 49
0.1
 74
0
 49
-0.05
 74
0
  0
LTYPE
  5
1F8
100
AcDbSymbolTableRecord
100
AcDbLinetypeTableRecord
  2
DOT
 70
64
  3
. . . . . . . . . . . . . . . . . . . .
 72
65
 73
2
 40
0.2
 49
0.1
 74
0
 49
-0.1
 74
0
  0
LTYPE
  5
1F9
100
AcDbSymbolTableRecord
100
AcDbLinetypeTableRecord
  2
DASHED
 70
64
  3
- - - - - - - - - - - - - - - - - - - -
 72
65
 73
2
 40
0.2
 49
0.1
 74
0
 49
-0.1
 74
0
  0
ENDTAB
  0
TABLE
  2
LAYER
  5
2
100
AcDbSymbolTable
 70
36
  0
LAYER
  5
10
100
AcDbSymbolTableRecord
100
AcDbLayerTableRecord
  2
0
 70
0
 62
7
  6
CONTINUOUS
370
-3
390
F
  0
LAYER
  5
1FA
100
AcDbSymbolTableRecord
100
AcDbLayerTableRecord
  2
DEFAULT_1
 70
0
 62
7
  6
CENTER
370
-3
390
F
  0
LAYER
  5
1FB
100
AcDbSymbolTableRecord
100
AcDbLayerTableRecord
  2
DEFAULT_2
 70
0
 62
8
  6
HIDDEN
370
-3
390
F
  0
LAYER
  5
1FC
100
AcDbSymbolTableRecord
100
AcDbLayerTableRecord
  2
DEFAULT_3
 70
0
 62
7
  6
PHANTOM
370
-3
390
F
  0
LAYER
  5
1FD
100
AcDbSymbolTableRecord
100
AcDbLayerTableRecord
  2
B-ACHSEN
 70
0
 62
7
  6
CONTINUOUS
370
-3
390
F
  0
LAYER
  5
1FE
100
AcDbSymbolTableRecord
100
AcDbLayerTableRecord
  2
B-EBENEN
 70
0
 62
7
  6
CONTINUOUS
370
-3
390
F
  0
LAYER
  5
1FF
100
AcDbSymbolTableRecord
100
AcDbLayerTableRecord
  2
B-KOORSYS
 70
0
 62
7
  6
CONTINUOUS
370
-3
390
F
  0
LAYER
  5
200
100
AcDbSymbolTableRecord
100
AcDbLayerTableRecord
  2
B-KURVEN
 70
0
 62
7
  6
CONTINUOUS
370
-3
390
F
  0
LAYER
  5
201
100
AcDbSymbolTableRecord
100
AcDbLayerTableRecord
  2
BEMASSUNG
 70
0
 62
7
  6
CONTINUOUS
370
-3
390
F
  0
LAYER
  5
202
100
AcDbSymbolTableRecord
100
AcDbLayerTableRecord
  2
BEZUGSACHSEN
 70
0
 62
7
  6
CONTINUOUS
370
-3
390
F
  0
LAYER
  5
203
100
AcDbSymbolTableRecord
100
AcDbLayerTableRecord
  2
BEZUGSEBENEN
 70
0
 62
7
  6
CONTINUOUS
370
-3
390
F
  0
LAYER
  5
204
100
AcDbSymbolTableRecord
100
AcDbLayerTableRecord
  2
BEZUGSPUNKTE
 70
0
 62
7
  6
CONTINUOUS
370
-3
390
F
  0
LAYER
  5
205
100
AcDbSymbolTableRecord
100
AcDbLayerTableRecord
  2
BOHRUNGEN
 70
0
 62
7
  6
CONTINUOUS
370
-3
390
F
  0
LAYER
  5
206
100
AcDbSymbolTableRecord
100
AcDbLayerTableRecord
  2
FLAECHEN
 70
0
 62
7
  6
CONTINUOUS
370
-3
390
F
  0
LAYER
  5
207
100
AcDbSymbolTableRecord
100
AcDbLayerTableRecord
  2
FLAECHENVERBUND
 70
0
 62
7
  6
CONTINUOUS
370
-3
390
F
  0
LAYER
  5
208
100
AcDbSymbolTableRecord
100
AcDbLayerTableRecord
  2
KURVEN
 70
0
 62
7
  6
CONTINUOUS
370
-3
390
F
  0
LAYER
  5
209
100
AcDbSymbolTableRecord
100
AcDbLayerTableRecord
  2
KURVENELEMENTE
 70
0
 62
7
  6
CONTINUOUS
370
-3
390
F
  0
LAYER
  5
20A
100
AcDbSymbolTableRecord
100
AcDbLayerTableRecord
  2
NOTIZEN
 70
0
 62
7
  6
CONTINUOUS
370
-3
390
F
  0
LAYER
  5
20B
100
AcDbSymbolTableRecord
100
AcDbLayerTableRecord
  2
RUNDUNGEN
 70
0
 62
7
  6
CONTINUOUS
370
-3
390
F
  0
LAYER
  5
20C
100
AcDbSymbolTableRecord
100
AcDbLayerTableRecord
  2
VERBUNDFLAECHEN
 70
0
 62
7
  6
CONTINUOUS
370
-3
390
F
  0
LAYER
  5
20D
100
AcDbSymbolTableRecord
100
AcDbLayerTableRecord
  2
ZEICHNUNGSBEMASSUNGEN
 70
0
 62
7
  6
CONTINUOUS
370
-3
390
F
  0
ENDTAB
  0
TABLE
  2
STYLE
  5
3
100
AcDbSymbolTable
 70
1
  0
STYLE
  5
11
100
AcDbSymbolTableRecord
100
AcDbTextStyleTableRecord
  2
STANDARD
 70
0
 40
0.0
 41
0.7
 50
0.0
 71
0
 42
0.2
  3
txt
  4

  0
STYLE
  5
20E
100
AcDbSymbolTableRecord
100
AcDbTextStyleTableRecord
  2
TEXTSTYLE_1
 70
0
 40
0.0
 41
0.8
 50
0.0
 71
0
 42
0.2
  3
gdt
  4

  0
ENDTAB
  0
TABLE
  2
VIEW
  5
6
100
AcDbSymbolTable
 70
0
  0
ENDTAB
  0
TABLE
  2
UCS
  5
7
100
AcDbSymbolTable
 70
0
  0
ENDTAB
  0
TABLE
  2
APPID
  5
9
100
AcDbSymbolTable
 70
1
  0
APPID
  5
20F
100
AcDbSymbolTableRecord
100
AcDbRegAppTableRecord
  2
ACAD
 70
0
  0
ENDTAB
  0
TABLE
  2
BLOCK_RECORD
  5
1
100
AcDbSymbolTable
 70
0
  0
BLOCK_RECORD
  5
210
100
AcDbSymbolTableRecord
100
AcDbBlockTableRecord
  2
*Model_Space
  0
BLOCK_RECORD
  5
211
100
AcDbSymbolTableRecord
100
AcDbBlockTableRecord
  2
*Paper_Space
  0
ENDTAB
  0
TABLE
  2
DIMSTYLE
  5
A
100
AcDbSymbolTable
 70
1
100
AcDbDimStyleTable
 71
0
  0
DIMSTYLE
105
212
100
AcDbSymbolTableRecord
100
AcDbDimStyleTableRecord
  2
STANDARD
 70
0
  3

  4

 40
1.0
 41
3.5
 42
0.0625
 43
0.38
 44
0.18
 45
0.0
 46
0.0
 47
0.005
 48
0.005
140
3.5
141
0.09
142
0.0
143
25.4
144
1.0
145
0.0
146
1.0
147
0.09
 71
1.0
 72
0.0
 73
0
 74
0
 75
0
 76
0
 77
1
 78
8
170
0
171
2
172
0
173
0
174
0
175
0
176
0
177
0
178
5
270
2
271
3
272
3
273
2
274
2
275
0
280
0
281
0
282
0
283
1
284
8
285
0
286
0
287
3
288
0
340
11
  0
ENDTAB
  0
ENDSEC
  0
SECTION
  2
BLOCKS
  0
BLOCK
  5
20
100
AcDbEntity
  8
0
100
AcDbBlockBegin
  2
*Model_Space
 70
0
 10
0.0
 20
0.0
 30
0.0
  3
*Model_Space
  1

  0
ENDBLK
  5
21
100
AcDbEntity
  8
0
100
AcDbBlockEnd
  0
BLOCK
  5
1C
100
AcDbEntity
  8
0
100
AcDbBlockBegin
  2
*Paper_Space
 70
0
 10
0.0
 20
0.0
 30
0.0
  3
*Paper_Space
  1

  0
ENDBLK
  5
1D
100
AcDbEntity
  8
0
100
AcDbBlockEnd
  0
ENDSEC
  0
SECTION
  2
ENTITIES
  0
MTEXT
  5
213
100
AcDbEntity
  8
0
100
AcDbMText
 62
5
  6
CONTINUOUS
  7
STANDARD
 71
2
 72
1
 10
170.9854070128
 20
143.6026467259
 30
0.0
 11
0.0
 21
1.0
 31
0.0
 44
0.9
  1
RUD PSA\PINOX STAR M12\P1 Pers
 40
2.0
 41
20.2857142857
  0
LINE
  5
214
100
AcDbEntity
  8
0
100
AcDbLine
 62
7
  6
CONTINUOUS
 10
0.0
 20
0.0
 11
0.0
 21
210.0
  0
LINE
  5
215
100
AcDbEntity
  8
0
100
AcDbLine
 62
7
  6
CONTINUOUS
 10
0.0
 20
0.0
 11
297.0
 21
0.0
  0
LINE
  5
216
100
AcDbEntity
  8
0
100
AcDbLine
 62
7
  6
CONTINUOUS
 10
0.0
 20
210.0
 11
297.0
 21
210.0
  0
LINE
  5
217
100
AcDbEntity
  8
0
100
AcDbLine
 62
7
  6
CONTINUOUS
 10
297.0
 20
0.0
 11
297.0
 21
210.0
  0
LINE
  5
218
100
AcDbEntity
  8
B-ACHSEN
100
AcDbLine
 62
7
  6
CONTINUOUS
 10
108.0722328603
 20
81.0041439925
 11
97.0722328603
 21
81.0041439925
  0
LINE
  5
219
100
AcDbEntity
  8
B-ACHSEN
100
AcDbLine
 62
7
  6
CONTINUOUS
 10
108.5722328603
 20
81.5041439925
 11
96.5722328603
 21
81.5041439925
  0
LINE
  5
21A
100
AcDbEntity
  8
0
100
AcDbLine
 62
7
  6
CONTINUOUS
 10
89.3901621319
 20
175.8496485667
 11
89.0863328131
 21
175.7050839567
  0
LINE
  5
21B
100
AcDbEntity
  8
0
100
AcDbLine
 62
7
  6
CONTINUOUS
 10
95.2517546622
 20
179.0170449124
 11
94.7580516568
 21
178.8384901122
  0
LINE
  5
21C
100
AcDbEntity
  8
0
100
AcDbLine
 62
7
  6
CONTINUOUS
 10
89.3683051921
 20
175.4532196216
 11
89.5690368562
 21
175.5165604378
  0
LINE
  5
21D
100
AcDbEntity
  8
0
100
AcDbLine
 62
7
  6
CONTINUOUS
 10
92.1805414388
 20
177.6002970154
 11
91.8577978619
 21
177.505177275
  0
LINE
  5
21E
100
AcDbEntity
  8
0
100
AcDbLine
 62
7
  6
CONTINUOUS
 10
89.0863328131
 20
175.7050839567
 11
87.8491562383
 21
174.7303947124
  0
LINE
  5
21F
100
AcDbEntity
  8
0
100
AcDbLine
 62
7
  6
CONTINUOUS
 10
88.3888733437
 20
174.6815903267
 11
89.3683051921
 21
175.4532196216
  0
LINE
  5
220
100
AcDbEntity
  8
0
100
AcDbLine
 62
7
  6
CONTINUOUS
 10
90.0595742063
 20
174.5757893675
 11
89.080142358
 21
173.8041600726
  0
LINE
  5
221
100
AcDbEntity
  8
0
100
AcDbLine
 62
7
  6
CONTINUOUS
 10
91.8577978619
 20
177.505177275
 11
91.5713934919
 21
177.3450578699
  0
LINE
  5
222
100
AcDbEntity
  8
0
100
AcDbLine
 62
7
  6
CONTINUOUS
 10
91.7894287333
 20
176.9550598813
 11
92.1331145017
 21
177.1472034607
  0
LINE
  5
223
100
AcDbEntity
  8
0
100
AcDbLine
 62
7
  6
CONTINUOUS
 10
92.6584963046
 20
177.0143487162
 11
93.002182073
 21
177.2064922956
  0
LINE
  5
224
100
AcDbEntity
  8
0
100
AcDbLine
 62
7
  6
CONTINUOUS
 10
92.6418635
 20
176.2372079719
 11
92.2981777316
 21
176.0450643925
  0
LINE
  5
225
100
AcDbEntity
  8
0
100
AcDbLine
 62
7
  6
CONTINUOUS
 10
92.516212973
 20
175.6550664039
 11
92.8598987414
 21
175.8472099833
  0
LINE
  5
226
100
AcDbEntity
  8
0
100
AcDbLine
 62
7
  6
CONTINUOUS
 10
92.234116628
 20
174.8148294515
 11
91.8904308596
 21
174.6226858721
  0
LINE
  5
227
100
AcDbEntity
  8
0
100
AcDbLine
 62
7
  6
CONTINUOUS
 10
93.4049869212
 20
174.8722148753
 11
92.9467383559
 21
174.6160229475
  0
LINE
  5
228
100
AcDbEntity
  8
0
100
AcDbLine
 62
7
  6
CONTINUOUS
 10
93.1647736228
 20
174.2260249134
 11
93.623022188
 21
174.4822168412
  0
LINE
  5
229
100
AcDbEntity
  8
0
100
AcDbLine
 62
7
  6
CONTINUOUS
 10
84.5233534253
 20
170.6586568197
 11
84.255922411
 21
170.518768476
  0
LINE
  5
22A
100
AcDbEntity
  8
0
100
AcDbLine
 62
7
  6
CONTINUOUS
 10
84.595855608
 20
170.2214640436
 11
84.8277206055
 21
170.3062010843
  0
LINE
  5
22B
100
AcDbEntity
  8
0
100
AcDbLine
 62
7
  6
CONTINUOUS
 10
96.3454542081
 20
176.9577468447
 11
95.2346213864
 21
176.5559981611
  0
LINE
  5
22C
100
AcDbEntity
  8
0
100
AcDbLine
 62
7
  6
CONTINUOUS
 10
95.2742171661
 20
176.2535637162
 11
96.508475386
 21
176.6999509721
  0
LINE
  5
22D
100
AcDbEntity
  8
0
100
AcDbLine
 62
7
  6
CONTINUOUS
 10
94.9610107031
 20
175.1900234923
 11
95.3312883103
 21
175.3239397201
  0
LINE
  5
22E
100
AcDbEntity
  8
0
100
AcDbLine
 62
7
  6
CONTINUOUS
 10
97.0592509483
 20
175.948882287
 11
97.4295285555
 21
176.0827985149
  0
LINE
  5
22F
100
AcDbEntity
  8
0
100
AcDbLine
 62
7
  6
CONTINUOUS
 10
92.9646070769
 20
176.3323277123
 11
92.6418635
 21
176.2372079719
  0
LINE
  5
230
100
AcDbEntity
  8
0
100
AcDbLine
 62
7
  6
CONTINUOUS
 10
92.8420300427
 20
174.1309051787
 11
93.1647736228
 21
174.2260249134
  0
LINE
  5
231
100
AcDbEntity
  8
B-ACHSEN
100
AcDbLine
 62
7
  6
CONTINUOUS
 10
96.5722328603
 20
81.5041439925
 11
97.0722328603
 21
81.0041439925
  0
LINE
  5
232
100
AcDbEntity
  8
0
100
AcDbLine
 62
7
  6
CONTINUOUS
 10
91.653925056
 20
176.7939884268
 11
91.7894287333
 21
176.9550598813
  0
LINE
  5
233
100
AcDbEntity
  8
0
100
AcDbLine
 62
7
  6
CONTINUOUS
 10
91.5713934919
 20
177.3450578699
 11
91.3786084162
 21
177.1519622412
  0
LINE
  5
234
100
AcDbEntity
  8
0
100
AcDbLine
 62
7
  6
CONTINUOUS
 10
84.255922411
 20
170.518768476
 11
84.0155082431
 21
170.2833694485
  0
LINE
  5
235
100
AcDbEntity
  8
0
100
AcDbLine
 62
7
  6
CONTINUOUS
 10
93.623022188
 20
174.4822168412
 11
93.8730873479
 21
174.7073359168
  0
LINE
  5
236
100
AcDbEntity
  8
0
100
AcDbLine
 62
7
  6
CONTINUOUS
 10
84.3910078639
 20
170.0412169502
 11
84.595855608
 21
170.2214640436
  0
LINE
  5
237
100
AcDbEntity
  8
0
100
AcDbLine
 62
7
  6
CONTINUOUS
 10
89.3566499121
 20
173.4531880365
 11
90.2845323431
 21
174.1842049697
  0
LINE
  5
238
100
AcDbEntity
  8
0
100
AcDbLine
 62
7
  6
CONTINUOUS
 10
90.0151323367
 20
171.9811134352
 11
90.3244264804
 21
172.2247857462
  0
LINE
  5
239
100
AcDbEntity
  8
0
100
AcDbLine
 62
7
  6
CONTINUOUS
 10
81.5570171117
 20
164.4151282294
 11
81.2747673822
 21
164.2172627277
  0
LINE
  5
23A
100
AcDbEntity
  8
0
100
AcDbLine
 62
7
  6
CONTINUOUS
 10
84.7541626724
 20
165.3562535546
 11
84.5388800281
 21
165.2354432003
  0
LINE
  5
23B
100
AcDbEntity
  8
0
100
AcDbLine
 62
7
  6
CONTINUOUS
 10
81.6186289964
 20
164.0600901894
 11
81.7957907614
 21
164.1496572896
  0
LINE
  5
23C
100
AcDbEntity
  8
0
100
AcDbLine
 62
7
  6
CONTINUOUS
 10
111.8736018998
 20
177.9848978477
 11
111.5306514607
 21
177.8250310197
  0
LINE
  5
23D
100
AcDbEntity
  8
0
100
AcDbLine
 62
7
  6
CONTINUOUS
 10
81.894833489
 20
164.5307473061
 11
81.5570171117
 21
164.4151282294
  0
LINE
  5
23E
100
AcDbEntity
  8
0
100
AcDbLine
 62
7
  6
CONTINUOUS
 10
82.6547796277
 20
167.9917817768
 11
82.4971889691
 21
167.6309435211
  0
LINE
  5
23F
100
AcDbEntity
  8
0
100
AcDbLine
 62
7
  6
CONTINUOUS
 10
81.8668263346
 20
166.187590498
 11
81.7092356009
 21
165.8267520702
  0
LINE
  5
240
100
AcDbEntity
  8
0
100
AcDbLine
 62
7
  6
CONTINUOUS
 10
81.2747673822
 20
164.2172627277
 11
81.1201580068
 21
163.9184191363
  0
LINE
  5
241
100
AcDbEntity
  8
0
100
AcDbLine
 62
7
  6
CONTINUOUS
 10
90.1681366858
 20
174.7561208623
 11
90.0595742063
 21
174.5757893675
  0
LINE
  5
242
100
AcDbEntity
  8
0
100
AcDbLine
 62
7
  6
CONTINUOUS
 10
91.3786084162
 20
177.1519622412
 11
91.2221625473
 21
176.8938669478
  0
LINE
  5
243
100
AcDbEntity
  8
0
100
AcDbLine
 62
7
  6
CONTINUOUS
 10
84.0155082431
 20
170.2833694485
 11
83.161920585
 21
168.9597331276
  0
LINE
  5
244
100
AcDbEntity
  8
0
100
AcDbLine
 62
7
  6
CONTINUOUS
 10
83.7508171203
 20
169.0484897096
 11
84.3910078639
 21
170.0412169502
  0
LINE
  5
245
100
AcDbEntity
  8
0
100
AcDbLine
 62
7
  6
CONTINUOUS
 10
86.5814226249
 20
168.6286605125
 11
85.9412318813
 21
167.6359332719
  0
LINE
  5
246
100
AcDbEntity
  8
0
100
AcDbLine
 62
7
  6
CONTINUOUS
 10
86.1033346314
 20
167.0628716651
 11
86.9569222895
 21
168.386507986
  0
LINE
  5
247
100
AcDbEntity
  8
0
100
AcDbLine
 62
7
  6
CONTINUOUS
 10
81.4970338792
 20
163.888276664
 11
81.6186289964
 21
164.0600901894
  0
LINE
  5
248
100
AcDbEntity
  8
0
100
AcDbLine
 62
7
  6
CONTINUOUS
 10
85.1373593561
 20
165.1172874544
 11
85.3369284944
 21
165.3881815072
  0
LINE
  5
249
100
AcDbEntity
  8
0
100
AcDbLine
 62
7
  6
CONTINUOUS
 10
90.2845323431
 20
174.1842049697
 11
90.4961924772
 21
174.4457602584
  0
LINE
  5
24A
100
AcDbEntity
  8
0
100
AcDbLine
 62
7
  6
CONTINUOUS
 10
84.9274666449
 20
165.5670077861
 11
84.7541626724
 21
165.3562535546
  0
LINE
  5
24B
100
AcDbEntity
  8
0
100
AcDbLine
 62
7
  6
CONTINUOUS
 10
93.5977706859
 20
175.065309771
 11
93.4049869212
 21
174.8722148753
  0
LINE
  5
24C
100
AcDbEntity
  8
0
100
AcDbLine
 62
7
  6
CONTINUOUS
 10
84.8958115817
 20
164.936337263
 11
85.1373593561
 21
165.1172874544
  0
LINE
  5
24D
100
AcDbEntity
  8
0
100
AcDbLine
 62
7
  6
CONTINUOUS
 10
114.3530720103
 20
174.8273552191
 11
112.5080313864
 21
173.9479051077
  0
LINE
  5
24E
100
AcDbEntity
  8
0
100
AcDbLine
 62
7
  6
CONTINUOUS
 10
111.8427355538
 20
174.5758945996
 11
112.1856860048
 21
174.7357614508
  0
LINE
  5
24F
100
AcDbEntity
  8
0
100
AcDbLine
 62
7
  6
CONTINUOUS
 10
116.1548791592
 20
175.6461723277
 11
114.6684947468
 21
174.9682857243
  0
LINE
  5
250
100
AcDbEntity
  8
0
100
AcDbLine
 62
7
  6
CONTINUOUS
 10
112.7930047117
 20
173.7447051967
 11
114.2793885806
 21
174.4225921877
  0
LINE
  5
251
100
AcDbEntity
  8
0
100
AcDbLine
 62
7
  6
CONTINUOUS
 10
114.6380453356
 20
174.6241553081
 11
116.4398524845
 21
175.4429724167
  0
LINE
  5
252
100
AcDbEntity
  8
0
100
AcDbLine
 62
7
  6
CONTINUOUS
 10
84.5177766845
 20
164.814996171
 11
84.8958115817
 21
164.936337263
  0
LINE
  5
253
100
AcDbEntity
  8
0
100
AcDbLine
 62
7
  6
CONTINUOUS
 10
81.1201580068
 20
163.9184191363
 11
80.7239870966
 21
162.3940590706
  0
LINE
  5
254
100
AcDbEntity
  8
0
100
AcDbLine
 62
7
  6
CONTINUOUS
 10
81.183398591
 20
162.6814916726
 11
81.4970338792
 21
163.888276664
  0
LINE
  5
255
100
AcDbEntity
  8
0
100
AcDbLine
 62
7
  6
CONTINUOUS
 10
85.0325271341
 20
165.8075667379
 11
84.9274666449
 21
165.5670077861
  0
LINE
  5
256
100
AcDbEntity
  8
0
100
AcDbLine
 62
7
  6
CONTINUOUS
 10
85.3369284944
 20
165.3881815072
 11
85.4419889836
 21
165.6287404591
  0
LINE
  5
257
100
AcDbEntity
  8
0
100
AcDbLine
 62
7
  6
CONTINUOUS
 10
93.8730873479
 20
174.7073359168
 11
94.0295332072
 21
174.9654312273
  0
LINE
  5
258
100
AcDbEntity
  8
0
100
AcDbLine
 62
7
  6
CONTINUOUS
 10
111.5700139021
 20
177.3873866329
 11
111.7752210567
 21
177.5337104228
  0
LINE
  5
259
100
AcDbEntity
  8
0
100
AcDbLine
 62
7
  6
CONTINUOUS
 10
112.1463234925
 20
175.1734056982
 11
111.9411164324
 21
175.0270820943
  0
LINE
  5
25A
100
AcDbEntity
  8
0
100
AcDbLine
 62
7
  6
CONTINUOUS
 10
119.1394212624
 20
171.4923039471
 11
119.3519130931
 21
171.5826344194
  0
LINE
  5
25B
100
AcDbEntity
  8
0
100
AcDbLine
 62
7
  6
CONTINUOUS
 10
118.415577936
 20
169.0176323405
 11
118.7226620023
 21
169.1072890447
  0
LINE
  5
25C
100
AcDbEntity
  8
0
100
AcDbLine
 62
7
  6
CONTINUOUS
 10
82.5781403818
 20
163.6073043683
 11
82.2645050937
 21
162.4005193769
  0
LINE
  5
25D
100
AcDbEntity
  8
0
100
AcDbLine
 62
7
  6
CONTINUOUS
 10
82.6969476139
 20
162.2881304795
 11
82.9775686675
 21
163.3678854958
  0
LINE
  5
25E
100
AcDbEntity
  8
0
100
AcDbLine
 62
7
  6
CONTINUOUS
 10
84.1114539093
 20
161.5136792701
 11
84.2104966368
 21
161.8947692865
  0
LINE
  5
25F
100
AcDbEntity
  8
0
100
AcDbLine
 62
7
  6
CONTINUOUS
 10
84.6231746526
 20
163.4826442944
 11
84.7387245329
 21
163.9272494347
  0
LINE
  5
260
100
AcDbEntity
  8
0
100
AcDbLine
 62
7
  6
CONTINUOUS
 10
86.6611038288
 20
168.8896251053
 11
86.5814226249
 21
168.6286605125
  0
LINE
  5
261
100
AcDbEntity
  8
0
100
AcDbLine
 62
7
  6
CONTINUOUS
 10
86.9569222895
 20
168.386507986
 11
87.0721699117
 21
168.7026245165
  0
LINE
  5
262
100
AcDbEntity
  8
0
100
AcDbLine
 62
7
  6
CONTINUOUS
 10
91.5547605855
 20
176.5679173076
 11
91.653925056
 21
176.7939884268
  0
LINE
  5
263
100
AcDbEntity
  8
0
100
AcDbLine
 62
7
  6
CONTINUOUS
 10
93.6969351308
 20
175.2913809357
 11
93.5977706859
 21
175.065309771
  0
LINE
  5
264
100
AcDbEntity
  8
0
100
AcDbLine
 62
7
  6
CONTINUOUS
 10
111.5306514607
 20
177.8250310197
 11
111.2917124114
 21
177.6123173015
  0
LINE
  5
265
100
AcDbEntity
  8
0
100
AcDbLine
 62
7
  6
CONTINUOUS
 10
112.1856860048
 20
174.7357614508
 11
112.4246253753
 21
174.9484750643
  0
LINE
  5
266
100
AcDbEntity
  8
0
100
AcDbLine
 62
7
  6
CONTINUOUS
 10
119.2559496334
 20
171.9507009785
 11
118.9845087228
 21
171.8148680966
  0
LINE
  5
267
100
AcDbEntity
  8
0
100
AcDbLine
 62
7
  6
CONTINUOUS
 10
85.0693439896
 20
166.0779300661
 11
85.0325271341
 21
165.8075667379
  0
LINE
  5
268
100
AcDbEntity
  8
0
100
AcDbLine
 62
7
  6
CONTINUOUS
 10
85.4419889836
 20
165.6287404591
 11
85.5050708427
 21
165.9592432698
  0
LINE
  5
269
100
AcDbEntity
  8
0
100
AcDbLine
 62
7
  6
CONTINUOUS
 10
90.4961924772
 20
174.4457602584
 11
90.5641351893
 21
174.7836947937
  0
LINE
  5
26A
100
AcDbEntity
  8
0
100
AcDbLine
 62
7
  6
CONTINUOUS
 10
91.2221625473
 20
176.8938669478
 11
91.1383964033
 21
176.5057730578
  0
LINE
  5
26B
100
AcDbEntity
  8
0
100
AcDbLine
 62
7
  6
CONTINUOUS
 10
111.3830802502
 20
177.1482496207
 11
111.5700139021
 21
177.3873866329
  0
LINE
  5
26C
100
AcDbEntity
  8
0
100
AcDbLine
 62
7
  6
CONTINUOUS
 10
118.9845087228
 20
171.8148680966
 11
118.7487115774
 21
171.6328578208
  0
LINE
  5
26D
100
AcDbEntity
  8
0
100
AcDbLine
 62
7
  6
CONTINUOUS
 10
119.0215227723
 20
171.401298873
 11
119.1394212624
 21
171.4923039471
  0
LINE
  5
26E
100
AcDbEntity
  8
0
100
AcDbLine
 62
7
  6
CONTINUOUS
 10
121.3806797334
 20
169.9428721486
 11
121.0567834006
 21
169.7592188746
  0
LINE
  5
26F
100
AcDbEntity
  8
0
100
AcDbLine
 62
7
  6
CONTINUOUS
 10
121.5171412151
 20
168.9473182499
 11
118.7964116567
 21
167.4046305428
  0
LINE
  5
270
100
AcDbEntity
  8
0
100
AcDbLine
 62
7
  6
CONTINUOUS
 10
118.9690457548
 20
167.1001679536
 11
121.6897753132
 21
168.6428556607
  0
LINE
  5
271
100
AcDbEntity
  8
0
100
AcDbLine
 62
7
  6
CONTINUOUS
 10
122.1501331277
 20
167.830955036
 11
122.4740294604
 21
168.0146083099
  0
LINE
  5
272
100
AcDbEntity
  8
0
100
AcDbLine
 62
7
  6
CONTINUOUS
 10
82.5555879922
 20
163.8165808594
 11
82.5781403818
 21
163.6073043683
  0
LINE
  5
273
100
AcDbEntity
  8
0
100
AcDbLine
 62
7
  6
CONTINUOUS
 10
87.0721699117
 20
168.7026245165
 11
87.089267829
 21
169.0039478696
  0
LINE
  5
274
100
AcDbEntity
  8
0
100
AcDbLine
 62
7
  6
CONTINUOUS
 10
94.0295332072
 20
174.9654312273
 11
94.1132993385
 21
175.35352514
  0
LINE
  5
275
100
AcDbEntity
  8
0
100
AcDbLine
 62
7
  6
CONTINUOUS
 10
111.2917124114
 20
177.6123173015
 11
111.0710466757
 21
177.3067899891
  0
LINE
  5
276
100
AcDbEntity
  8
0
100
AcDbLine
 62
7
  6
CONTINUOUS
 10
112.4246253753
 20
174.9484750643
 11
112.6452907189
 21
175.254002342
  0
LINE
  5
277
100
AcDbEntity
  8
0
100
AcDbLine
 62
7
  6
CONTINUOUS
 10
112.3332571444
 20
175.4125427103
 11
112.1463234925
 21
175.1734056982
  0
LINE
  5
278
100
AcDbEntity
  8
0
100
AcDbLine
 62
7
  6
CONTINUOUS
 10
118.7445970328
 20
169.566360678
 11
118.5677492976
 21
169.4298530667
  0
LINE
  5
279
100
AcDbEntity
  8
0
100
AcDbLine
 62
7
  6
CONTINUOUS
 10
118.7226620023
 20
169.1072890447
 11
119.0174082277
 21
169.3348017302
  0
LINE
  5
27A
100
AcDbEntity
  8
0
100
AcDbLine
 62
7
  6
CONTINUOUS
 10
85.5050708427
 20
165.9592432698
 11
85.4736440467
 21
166.2594109822
  0
LINE
  5
27B
100
AcDbEntity
  8
0
100
AcDbLine
 62
7
  6
CONTINUOUS
 10
86.642635702
 20
169.1357971731
 11
86.6611038288
 21
168.8896251053
  0
LINE
  5
27C
100
AcDbEntity
  8
0
100
AcDbLine
 62
7
  6
CONTINUOUS
 10
90.1790651557
 20
174.9543353349
 11
90.1681366858
 21
174.7561208623
  0
LINE
  5
27D
100
AcDbEntity
  8
0
100
AcDbLine
 62
7
  6
CONTINUOUS
 10
111.0710466757
 20
177.3067899891
 11
110.5650667898
 21
176.3109381814
  0
LINE
  5
27E
100
AcDbEntity
  8
0
100
AcDbLine
 62
7
  6
CONTINUOUS
 10
110.8771003643
 20
176.152397813
 11
111.3830802502
 21
177.1482496207
  0
LINE
  5
27F
100
AcDbEntity
  8
0
100
AcDbLine
 62
7
  6
CONTINUOUS
 10
117.5217448633
 20
170.9068402948
 11
117.3215918133
 21
170.67865288
  0
LINE
  5
280
100
AcDbEntity
  8
0
100
AcDbLine
 62
7
  6
CONTINUOUS
 10
118.7487115774
 20
171.6328578208
 11
118.5485585273
 21
171.404670406
  0
LINE
  5
281
100
AcDbEntity
  8
0
100
AcDbLine
 62
7
  6
CONTINUOUS
 10
120.4775962072
 20
163.6893506771
 11
123.404112622
 21
165.8239732704
  0
LINE
  5
282
100
AcDbEntity
  8
0
100
AcDbLine
 62
7
  6
CONTINUOUS
 10
121.1001539965
 20
164.5560983178
 11
120.3511650887
 21
164.0157172996
  0
LINE
  5
283
100
AcDbEntity
  8
0
100
AcDbLine
 62
7
  6
CONTINUOUS
 10
123.0420662543
 20
165.9339504946
 11
121.3568407771
 21
164.718094109
  0
LINE
  5
284
100
AcDbEntity
  8
0
100
AcDbLine
 62
7
  6
CONTINUOUS
 10
121.1019428698
 20
161.076724219
 11
122.6558644624
 21
161.9680826902
  0
LINE
  5
285
100
AcDbEntity
  8
0
100
AcDbLine
 62
7
  6
CONTINUOUS
 10
122.4330985399
 20
162.2763963637
 11
121.0114916947
 21
161.4749125779
  0
LINE
  5
286
100
AcDbEntity
  8
0
100
AcDbLine
 62
7
  6
CONTINUOUS
 10
123.8306757878
 20
162.1751291516
 11
123.6257432487
 21
162.0687574753
  0
LINE
  5
287
100
AcDbEntity
  8
0
100
AcDbLine
 62
7
  6
CONTINUOUS
 10
123.7032729964
 20
161.7274524237
 11
123.9082055355
 21
161.8338241
  0
LINE
  5
288
100
AcDbEntity
  8
B-ACHSEN
100
AcDbLine
 62
7
  6
CONTINUOUS
 10
86.8987634725
 20
136.5041439925
 11
87.5722328603
 21
131.0041439925
  0
LINE
  5
289
100
AcDbEntity
  8
0
100
AcDbLine
 62
7
  6
CONTINUOUS
 10
90.5641351893
 20
174.7836947937
 11
90.5344438918
 21
175.1395123066
  0
LINE
  5
28A
100
AcDbEntity
  8
0
100
AcDbLine
 62
7
  6
CONTINUOUS
 10
93.702480307
 20
175.5504282784
 11
93.6969351308
 21
175.2913809357
  0
LINE
  5
28B
100
AcDbEntity
  8
0
100
AcDbLine
 62
7
  6
CONTINUOUS
 10
108.4802982497
 20
179.4871227082
 11
107.3767795128
 21
176.165640148
  0
LINE
  5
28C
100
AcDbEntity
  8
0
100
AcDbLine
 62
7
  6
CONTINUOUS
 10
107.7089277688
 20
176.0552882743
 11
108.6715717901
 21
178.9527518348
  0
LINE
  5
28D
100
AcDbEntity
  8
0
100
AcDbLine
 62
7
  6
CONTINUOUS
 10
112.8392370303
 20
176.408394518
 11
112.3332571444
 21
175.4125427103
  0
LINE
  5
28E
100
AcDbEntity
  8
0
100
AcDbLine
 62
7
  6
CONTINUOUS
 10
112.6452907189
 20
175.254002342
 11
113.1512706048
 21
176.2498541497
  0
LINE
  5
28F
100
AcDbEntity
  8
0
100
AcDbLine
 62
7
  6
CONTINUOUS
 10
117.5944030081
 20
170.4470939322
 11
117.7356068132
 21
170.6297788099
  0
LINE
  5
290
100
AcDbEntity
  8
0
100
AcDbLine
 62
7
  6
CONTINUOUS
 10
118.8803189673
 20
171.2186139952
 11
119.0215227723
 21
171.401298873
  0
LINE
  5
291
100
AcDbEntity
  8
0
100
AcDbLine
 62
7
  6
CONTINUOUS
 10
120.0894624021
 20
170.3833834056
 11
120.2306662072
 21
170.5660682833
  0
LINE
  5
292
100
AcDbEntity
  8
B-ACHSEN
100
AcDbLine
 62
7
  6
CONTINUOUS
 10
108.5722328603
 20
126.0041439925
 11
96.5722328603
 21
126.0041439925
  0
LINE
  5
293
100
AcDbEntity
  8
0
100
AcDbLine
 62
7
  6
CONTINUOUS
 10
82.9324639119
 20
163.7864385688
 11
82.8543448744
 21
164.077961485
  0
LINE
  5
294
100
AcDbEntity
  8
0
100
AcDbLine
 62
7
  6
CONTINUOUS
 10
85.0116520039
 20
166.3179579675
 11
85.0693439896
 21
166.0779300661
  0
LINE
  5
295
100
AcDbEntity
  8
0
100
AcDbLine
 62
7
  6
CONTINUOUS
 10
94.1132993385
 20
175.35352514
 11
94.0825052823
 21
175.677572193
  0
LINE
  5
296
100
AcDbEntity
  8
0
100
AcDbLine
 62
7
  6
CONTINUOUS
 10
95.2346213864
 20
176.5559981611
 11
95.1062102258
 21
178.6476518427
  0
LINE
  5
297
100
AcDbEntity
  8
0
100
AcDbLine
 62
7
  6
CONTINUOUS
 10
95.3312883103
 20
175.3239397201
 11
95.2742171661
 21
176.2535637162
  0
LINE
  5
298
100
AcDbEntity
  8
0
100
AcDbLine
 62
7
  6
CONTINUOUS
 10
94.7580516568
 20
178.8384901122
 11
94.9610107031
 21
175.1900234923
  0
LINE
  5
299
100
AcDbEntity
  8
0
100
AcDbLine
 62
7
  6
CONTINUOUS
 10
96.5097328603
 20
138.2594632302
 11
96.5097328603
 21
137.4083992038
  0
LINE
  5
29A
100
AcDbEntity
  8
B-ACHSEN
100
AcDbLine
 62
7
  6
CONTINUOUS
 10
96.5722328603
 20
126.0041439925
 11
96.5722328603
 21
81.5041439925
  0
LINE
  5
29B
100
AcDbEntity
  8
0
100
AcDbLine
 62
7
  6
CONTINUOUS
 10
97.0722328603
 20
138.1530802642
 11
97.0722328603
 21
134.0041439925
  0
LINE
  5
29C
100
AcDbEntity
  8
0
100
AcDbLine
 62
7
  6
CONTINUOUS
 10
97.6347328603
 20
134.0041439925
 11
97.6347328603
 21
139.0041439925
  0
LINE
  5
29D
100
AcDbEntity
  8
0
100
AcDbLine
 62
7
  6
CONTINUOUS
 10
107.350960388
 20
179.73561629
 11
106.5724120432
 21
176.3233058594
  0
LINE
  5
29E
100
AcDbEntity
  8
0
100
AcDbLine
 62
7
  6
CONTINUOUS
 10
106.9136430862
 20
176.2454510249
 11
107.6921914311
 21
179.6577614555
  0
LINE
  5
29F
100
AcDbEntity
  8
0
100
AcDbLine
 62
7
  6
CONTINUOUS
 10
110.7941781023
 20
175.8604139106
 11
110.8771003643
 21
176.152397813
  0
LINE
  5
2A0
100
AcDbEntity
  8
0
100
AcDbLine
 62
7
  6
CONTINUOUS
 10
110.5650667898
 20
176.3109381814
 11
110.4484125385
 21
175.9525641647
  0
LINE
  5
2A1
100
AcDbEntity
  8
0
100
AcDbLine
 62
7
  6
CONTINUOUS
 10
110.3624717268
 20
178.8617954152
 11
109.4233068412
 21
176.0350017375
  0
LINE
  5
2A2
100
AcDbEntity
  8
0
100
AcDbLine
 62
7
  6
CONTINUOUS
 10
109.5911012459
 20
175.4299609813
 11
110.6946199828
 21
178.7514435415
  0
LINE
  5
2A3
100
AcDbEntity
  8
0
100
AcDbLine
 62
7
  6
CONTINUOUS
 10
117.3215918133
 20
170.67865288
 11
117.1337765008
 21
170.3126094043
  0
LINE
  5
2A4
100
AcDbEntity
  8
0
100
AcDbLine
 62
7
  6
CONTINUOUS
 10
119.0174082277
 20
169.3348017302
 11
119.1819182459
 21
169.6091654182
  0
LINE
  5
2A5
100
AcDbEntity
  8
0
100
AcDbLine
 62
7
  6
CONTINUOUS
 10
119.9578550123
 20
170.7976272311
 11
119.8756004523
 21
170.6604448905
  0
LINE
  5
2A6
100
AcDbEntity
  8
0
100
AcDbLine
 62
7
  6
CONTINUOUS
 10
97.0722328603
 20
139.0041439925
 11
96.5097328603
 21
138.2594632302
  0
LINE
  5
2A7
100
AcDbEntity
  8
0
100
AcDbLine
 62
7
  6
CONTINUOUS
 10
96.5097328603
 20
137.4083992038
 11
97.0722328603
 21
138.1530802642
  0
LINE
  5
2A8
100
AcDbEntity
  8
0
100
AcDbLine
 62
7
  6
CONTINUOUS
 10
123.9082055355
 20
161.8338241
 11
124.1599130113
 21
162.0704593819
  0
LINE
  5
2A9
100
AcDbEntity
  8
0
100
AcDbLine
 62
7
  6
CONTINUOUS
 10
87.089267829
 20
169.0039478696
 11
86.9811992006
 21
169.3859887256
  0
LINE
  5
2AA
100
AcDbEntity
  8
0
100
AcDbLine
 62
7
  6
CONTINUOUS
 10
99.2097322881
 20
138.5041439925
 11
99.2097322881
 21
134.5041439925
  0
LINE
  5
2AB
100
AcDbEntity
  8
0
100
AcDbLine
 62
7
  6
CONTINUOUS
 10
99.6597322881
 20
134.5041439925
 11
99.6597322881
 21
136.2913780604
  0
LINE
  5
2AC
100
AcDbEntity
  8
0
100
AcDbLine
 62
7
  6
CONTINUOUS
 10
99.6597322881
 20
136.8020162974
 11
99.6597322881
 21
138.0786121283
  0
LINE
  5
2AD
100
AcDbEntity
  8
0
100
AcDbLine
 62
7
  6
CONTINUOUS
 10
101.5347322166
 20
137.5679738913
 11
101.5347322166
 21
137.3126545344
  0
LINE
  5
2AE
100
AcDbEntity
  8
0
100
AcDbLine
 62
7
  6
CONTINUOUS
 10
101.9847322166
 20
137.2275481616
 11
101.9847322166
 21
137.5679738913
  0
LINE
  5
2AF
100
AcDbEntity
  8
0
100
AcDbLine
 62
7
  6
CONTINUOUS
 10
102.959732145
 20
135.6956333314
 11
102.959732145
 21
135.865846077
  0
LINE
  5
2B0
100
AcDbEntity
  8
0
100
AcDbLine
 62
7
  6
CONTINUOUS
 10
103.0347322881
 20
136.2062716876
 11
103.0347322881
 21
136.2913780604
  0
LINE
  5
2B1
100
AcDbEntity
  8
0
100
AcDbLine
 62
7
  6
CONTINUOUS
 10
102.6597322166
 20
136.3764844332
 11
102.5847322881
 21
135.865846077
  0
LINE
  5
2B2
100
AcDbEntity
  8
0
100
AcDbLine
 62
7
  6
CONTINUOUS
 10
112.9221592924
 20
176.7003784204
 11
112.8392370303
 21
176.408394518
  0
LINE
  5
2B3
100
AcDbEntity
  8
0
100
AcDbLine
 62
7
  6
CONTINUOUS
 10
101.5347322166
 20
137.3126545344
 11
101.4597322881
 21
137.0573354159
  0
LINE
  5
2B4
100
AcDbEntity
  8
0
100
AcDbLine
 62
7
  6
CONTINUOUS
 10
101.9097322881
 20
136.9722290431
 11
101.9847322166
 21
137.2275481616
  0
LINE
  5
2B5
100
AcDbEntity
  8
B-ACHSEN
100
AcDbLine
 62
7
  6
CONTINUOUS
 10
97.6226672864
 20
129.4972067627
 11
96.5722328603
 21
126.0041439925
  0
LINE
  5
2B6
100
AcDbEntity
  8
0
100
AcDbLine
 62
7
  6
CONTINUOUS
 10
113.1512706048
 20
176.2498541497
 11
113.2679252482
 21
176.6082282012
  0
LINE
  5
2B7
100
AcDbEntity
  8
0
100
AcDbLine
 62
7
  6
CONTINUOUS
 10
102.8097322881
 20
136.7169099246
 11
102.6597322166
 21
136.3764844332
  0
LINE
  5
2B8
100
AcDbEntity
  8
0
100
AcDbLine
 62
7
  6
CONTINUOUS
 10
103.0347322881
 20
136.2913780604
 11
103.1097324311
 21
136.4615908061
  0
LINE
  5
2B9
100
AcDbEntity
  8
0
100
AcDbLine
 62
7
  6
CONTINUOUS
 10
118.850157806
 20
169.795221829
 11
118.7445970328
 21
169.566360678
  0
LINE
  5
2BA
100
AcDbEntity
  8
0
100
AcDbLine
 62
7
  6
CONTINUOUS
 10
101.6847322881
 20
136.6318035517
 11
101.9097322881
 21
136.9722290431
  0
LINE
  5
2BB
100
AcDbEntity
  8
0
100
AcDbLine
 62
7
  6
CONTINUOUS
 10
123.950068812
 20
162.3218884462
 11
123.8306757878
 21
162.1751291516
  0
LINE
  5
2BC
100
AcDbEntity
  8
0
100
AcDbLine
 62
7
  6
CONTINUOUS
 10
101.4597322881
 20
137.0573354159
 11
101.3097322166
 21
136.8871226702
  0
LINE
  5
2BD
100
AcDbEntity
  8
0
100
AcDbLine
 62
7
  6
CONTINUOUS
 10
102.959732145
 20
136.8871226702
 11
102.8097322881
 21
136.7169099246
  0
LINE
  5
2BE
100
AcDbEntity
  8
0
100
AcDbLine
 62
7
  6
CONTINUOUS
 10
103.1097324311
 20
136.4615908061
 11
103.3347324311
 21
136.7169099246
  0
LINE
  5
2BF
100
AcDbEntity
  8
0
100
AcDbLine
 62
7
  6
CONTINUOUS
 10
101.3847323596
 20
136.3764844332
 11
101.6847322881
 21
136.6318035517
  0
LINE
  5
2C0
100
AcDbEntity
  8
0
100
AcDbLine
 62
7
  6
CONTINUOUS
 10
103.184732145
 20
137.0573354159
 11
102.959732145
 21
136.8871226702
  0
LINE
  5
2C1
100
AcDbEntity
  8
0
100
AcDbLine
 62
7
  6
CONTINUOUS
 10
106.334732145
 20
137.0573354159
 11
106.109732145
 21
136.8871226702
  0
LINE
  5
2C2
100
AcDbEntity
  8
0
100
AcDbLine
 62
7
  6
CONTINUOUS
 10
104.534732145
 20
135.0998886619
 11
104.309732145
 21
134.9296759163
  0
LINE
  5
2C3
100
AcDbEntity
  8
0
100
AcDbLine
 62
7
  6
CONTINUOUS
 10
103.3347324311
 20
136.7169099246
 11
103.4847322881
 21
136.8020162974
  0
LINE
  5
2C4
100
AcDbEntity
  8
0
100
AcDbLine
 62
7
  6
CONTINUOUS
 10
106.1847322881
 20
136.5466971789
 11
106.484732002
 21
136.7169099246
  0
LINE
  5
2C5
100
AcDbEntity
  8
0
100
AcDbLine
 62
7
  6
CONTINUOUS
 10
107.9847322881
 20
137.1424417887
 11
107.6847325742
 21
136.9722290431
  0
LINE
  5
2C6
100
AcDbEntity
  8
0
100
AcDbLine
 62
7
  6
CONTINUOUS
 10
107.9847322881
 20
136.7169099246
 11
108.1347325742
 21
136.8020162974
  0
LINE
  5
2C7
100
AcDbEntity
  8
0
100
AcDbLine
 62
7
  6
CONTINUOUS
 10
104.3847322881
 20
134.5892503728
 11
104.6847324311
 21
134.7594631408
  0
LINE
  5
2C8
100
AcDbEntity
  8
0
100
AcDbLine
 62
7
  6
CONTINUOUS
 10
101.3097322166
 20
136.8871226702
 11
101.0847322166
 21
136.8020162974
  0
LINE
  5
2C9
100
AcDbEntity
  8
0
100
AcDbLine
 62
7
  6
CONTINUOUS
 10
103.409732145
 20
137.1424417887
 11
103.184732145
 21
137.0573354159
  0
LINE
  5
2CA
100
AcDbEntity
  8
0
100
AcDbLine
 62
7
  6
CONTINUOUS
 10
106.5597325742
 20
137.1424417887
 11
106.334732145
 21
137.0573354159
  0
LINE
  5
2CB
100
AcDbEntity
  8
0
100
AcDbLine
 62
7
  6
CONTINUOUS
 10
109.3347322881
 20
134.9296759163
 11
109.0347325742
 21
134.8445695136
  0
LINE
  5
2CC
100
AcDbEntity
  8
0
100
AcDbLine
 62
7
  6
CONTINUOUS
 10
109.0347325742
 20
134.5041439925
 11
109.4847325742
 21
134.5892503728
  0
LINE
  5
2CD
100
AcDbEntity
  8
0
100
AcDbLine
 62
7
  6
CONTINUOUS
 10
103.859732145
 20
134.5041439925
 11
104.3847322881
 21
134.5892503728
  0
LINE
  5
2CE
100
AcDbEntity
  8
B-ACHSEN
100
AcDbLine
 62
7
  6
CONTINUOUS
 10
117.5722328603
 20
131.0041439925
 11
87.5722328603
 21
131.0041439925
  0
LINE
  5
2CF
100
AcDbEntity
  8
0
100
AcDbLine
 62
7
  6
CONTINUOUS
 10
97.0722328603
 20
134.0041439925
 11
97.6347328603
 21
134.0041439925
  0
LINE
  5
2D0
100
AcDbEntity
  8
0
100
AcDbLine
 62
7
  6
CONTINUOUS
 10
99.2097322881
 20
134.5041439925
 11
99.6597322881
 21
134.5041439925
  0
LINE
  5
2D1
100
AcDbEntity
  8
0
100
AcDbLine
 62
7
  6
CONTINUOUS
 10
105.5847324311
 20
134.5041439925
 11
105.9597322881
 21
134.5041439925
  0
LINE
  5
2D2
100
AcDbEntity
  8
0
100
AcDbLine
 62
7
  6
CONTINUOUS
 10
108.5847325742
 20
134.5041439925
 11
109.0347325742
 21
134.5041439925
  0
LINE
  5
2D3
100
AcDbEntity
  8
0
100
AcDbLine
 62
7
  6
CONTINUOUS
 10
82.4444547437
 20
163.9810738912
 11
82.5555879922
 21
163.8165808594
  0
LINE
  5
2D4
100
AcDbEntity
  8
0
100
AcDbLine
 62
7
  6
CONTINUOUS
 10
85.4736440467
 20
166.2594109822
 11
85.3057299776
 21
166.6191874498
  0
LINE
  5
2D5
100
AcDbEntity
  8
0
100
AcDbLine
 62
7
  6
CONTINUOUS
 10
101.4597322881
 20
137.8232930098
 11
101.5347322166
 21
137.5679738913
  0
LINE
  5
2D6
100
AcDbEntity
  8
0
100
AcDbLine
 62
7
  6
CONTINUOUS
 10
101.9847322166
 20
137.5679738913
 11
101.9097322881
 21
137.8232930098
  0
LINE
  5
2D7
100
AcDbEntity
  8
0
100
AcDbLine
 62
7
  6
CONTINUOUS
 10
91.6064969096
 20
176.340893957
 11
91.5547605855
 21
176.5679173076
  0
LINE
  5
2D8
100
AcDbEntity
  8
0
100
AcDbLine
 62
7
  6
CONTINUOUS
 10
102.5847322881
 20
135.865846077
 11
102.6597322166
 21
135.35520784
  0
LINE
  5
2D9
100
AcDbEntity
  8
0
100
AcDbLine
 62
7
  6
CONTINUOUS
 10
104.6097322881
 20
136.3764844332
 11
104.6097322881
 21
136.2062716876
  0
LINE
  5
2DA
100
AcDbEntity
  8
0
100
AcDbLine
 62
7
  6
CONTINUOUS
 10
104.984732145
 20
135.865846077
 11
104.984732145
 21
136.2062716876
  0
LINE
  5
2DB
100
AcDbEntity
  8
0
100
AcDbLine
 62
7
  6
CONTINUOUS
 10
105.5847324311
 20
137.2275481616
 11
105.5847324311
 21
134.5041439925
  0
LINE
  5
2DC
100
AcDbEntity
  8
0
100
AcDbLine
 62
7
  6
CONTINUOUS
 10
105.9597322881
 20
134.5041439925
 11
105.9597322881
 21
136.2062716876
  0
LINE
  5
2DD
100
AcDbEntity
  8
0
100
AcDbLine
 62
7
  6
CONTINUOUS
 10
105.9597322881
 20
136.7169099246
 11
105.9597322881
 21
137.2275481616
  0
LINE
  5
2DE
100
AcDbEntity
  8
0
100
AcDbLine
 62
7
  6
CONTINUOUS
 10
106.934732002
 20
136.8020162974
 11
106.934732002
 21
137.2275481616
  0
LINE
  5
2DF
100
AcDbEntity
  8
0
100
AcDbLine
 62
7
  6
CONTINUOUS
 10
110.4484125385
 20
175.9525641647
 11
110.4174956502
 21
175.6341569219
  0
LINE
  5
2E0
100
AcDbEntity
  8
0
100
AcDbLine
 62
7
  6
CONTINUOUS
 10
104.9097324311
 20
135.0147822891
 11
104.984732145
 21
135.35520784
  0
LINE
  5
2E1
100
AcDbEntity
  8
0
100
AcDbLine
 62
7
  6
CONTINUOUS
 10
104.6097322881
 20
135.35520784
 11
104.534732145
 21
135.0998886619
  0
LINE
  5
2E2
100
AcDbEntity
  8
0
100
AcDbLine
 62
7
  6
CONTINUOUS
 10
120.2306662072
 20
170.5660682833
 11
120.3595322126
 21
170.8866091741
  0
LINE
  5
2E3
100
AcDbEntity
  8
0
100
AcDbLine
 62
7
  6
CONTINUOUS
 10
107.9097325742
 20
136.5466971789
 11
107.9847322881
 21
136.7169099246
  0
LINE
  5
2E4
100
AcDbEntity
  8
0
100
AcDbLine
 62
7
  6
CONTINUOUS
 10
107.6847325742
 20
136.9722290431
 11
107.5347322881
 21
136.7169099246
  0
LINE
  5
2E5
100
AcDbEntity
  8
0
100
AcDbLine
 62
7
  6
CONTINUOUS
 10
124.1599130113
 20
162.0704593819
 11
124.3260806765
 21
162.347483584
  0
LINE
  5
2E6
100
AcDbEntity
  8
0
100
AcDbLine
 62
7
  6
CONTINUOUS
 10
105.9597322881
 20
136.2062716876
 11
106.1847322881
 21
136.5466971789
  0
LINE
  5
2E7
100
AcDbEntity
  8
0
100
AcDbLine
 62
7
  6
CONTINUOUS
 10
106.109732145
 20
136.8871226702
 11
105.9597322881
 21
136.7169099246
  0
LINE
  5
2E8
100
AcDbEntity
  8
0
100
AcDbLine
 62
7
  6
CONTINUOUS
 10
104.6847324311
 20
134.7594631408
 11
104.9097324311
 21
135.0147822891
  0
LINE
  5
2E9
100
AcDbEntity
  8
0
100
AcDbLine
 62
7
  6
CONTINUOUS
 10
109.4847325742
 20
135.0147822891
 11
109.3347322881
 21
134.9296759163
  0
LINE
  5
2EA
100
AcDbEntity
  8
0
100
AcDbLine
 62
7
  6
CONTINUOUS
 10
109.4847325742
 20
134.5892503728
 11
109.7847322881
 21
134.7594631408
  0
LINE
  5
2EB
100
AcDbEntity
  8
0
100
AcDbLine
 62
7
  6
CONTINUOUS
 10
108.1347325742
 20
136.8020162974
 11
108.4347322881
 21
136.8871226702
  0
LINE
  5
2EC
100
AcDbEntity
  8
0
100
AcDbLine
 62
7
  6
CONTINUOUS
 10
103.4847322881
 20
136.8020162974
 11
103.7847324311
 21
136.8871226702
  0
LINE
  5
2ED
100
AcDbEntity
  8
0
100
AcDbLine
 62
7
  6
CONTINUOUS
 10
106.934732002
 20
137.2275481616
 11
106.5597325742
 21
137.1424417887
  0
LINE
  5
2EE
100
AcDbEntity
  8
0
100
AcDbLine
 62
7
  6
CONTINUOUS
 10
101.0097322881
 20
136.2913780604
 11
101.3847323596
 21
136.3764844332
  0
LINE
  5
2EF
100
AcDbEntity
  8
0
100
AcDbLine
 62
7
  6
CONTINUOUS
 10
106.484732002
 20
136.7169099246
 11
106.934732002
 21
136.8020162974
  0
LINE
  5
2F0
100
AcDbEntity
  8
0
100
AcDbLine
 62
7
  6
CONTINUOUS
 10
108.4347322881
 20
137.2275481616
 11
107.9847322881
 21
137.1424417887
  0
LINE
  5
2F1
100
AcDbEntity
  8
0
100
AcDbLine
 62
7
  6
CONTINUOUS
 10
103.859732145
 20
137.2275481616
 11
103.409732145
 21
137.1424417887
  0
LINE
  5
2F2
100
AcDbEntity
  8
0
100
AcDbLine
 62
7
  6
CONTINUOUS
 10
104.309732145
 20
134.9296759163
 11
103.7847324311
 21
134.8445695136
  0
LINE
  5
2F3
100
AcDbEntity
  8
0
100
AcDbLine
 62
7
  6
CONTINUOUS
 10
109.0347325742
 20
134.8445695136
 11
108.5847325742
 21
134.8445695136
  0
LINE
  5
2F4
100
AcDbEntity
  8
0
100
AcDbLine
 62
7
  6
CONTINUOUS
 10
107.9097325742
 20
135.1849950348
 11
107.5347322881
 21
135.1849950348
  0
LINE
  5
2F5
100
AcDbEntity
  8
0
100
AcDbLine
 62
7
  6
CONTINUOUS
 10
104.984732145
 20
135.35520784
 11
104.6097322881
 21
135.35520784
  0
LINE
  5
2F6
100
AcDbEntity
  8
0
100
AcDbLine
 62
7
  6
CONTINUOUS
 10
102.959732145
 20
135.865846077
 11
104.984732145
 21
135.865846077
  0
LINE
  5
2F7
100
AcDbEntity
  8
0
100
AcDbLine
 62
7
  6
CONTINUOUS
 10
104.6097322881
 20
136.2062716876
 11
103.0347322881
 21
136.2062716876
  0
LINE
  5
2F8
100
AcDbEntity
  8
0
100
AcDbLine
 62
7
  6
CONTINUOUS
 10
99.6597322881
 20
136.2913780604
 11
101.0097322881
 21
136.2913780604
  0
LINE
  5
2F9
100
AcDbEntity
  8
0
100
AcDbLine
 62
7
  6
CONTINUOUS
 10
121.2297194373
 20
136.5041439925
 11
110.7251441583
 21
136.5041439925
  0
LINE
  5
2FA
100
AcDbEntity
  8
0
100
AcDbLine
 62
7
  6
CONTINUOUS
 10
94.4193215623
 20
136.5041439925
 11
83.9147462833
 21
136.5041439925
  0
LINE
  5
2FB
100
AcDbEntity
  8
0
100
AcDbLine
 62
7
  6
CONTINUOUS
 10
109.5597322881
 20
136.5466971789
 11
109.9347325742
 21
136.5466971789
  0
LINE
  5
2FC
100
AcDbEntity
  8
0
100
AcDbLine
 62
7
  6
CONTINUOUS
 10
101.0847322166
 20
136.8020162974
 11
99.6597322881
 21
136.8020162974
  0
LINE
  5
2FD
100
AcDbEntity
  8
0
100
AcDbLine
 62
7
  6
CONTINUOUS
 10
108.4347322881
 20
136.8871226702
 11
108.8847322881
 21
136.8871226702
  0
LINE
  5
2FE
100
AcDbEntity
  8
0
100
AcDbLine
 62
7
  6
CONTINUOUS
 10
108.8847322881
 20
137.2275481616
 11
108.4347322881
 21
137.2275481616
  0
LINE
  5
2FF
100
AcDbEntity
  8
0
100
AcDbLine
 62
7
  6
CONTINUOUS
 10
105.9597322881
 20
137.2275481616
 11
105.5847324311
 21
137.2275481616
  0
LINE
  5
300
100
AcDbEntity
  8
0
100
AcDbLine
 62
7
  6
CONTINUOUS
 10
99.6597322881
 20
138.0786121283
 11
101.0847322166
 21
138.0786121283
  0
LINE
  5
301
100
AcDbEntity
  8
0
100
AcDbLine
 62
7
  6
CONTINUOUS
 10
101.0097322881
 20
138.5041439925
 11
99.2097322881
 21
138.5041439925
  0
LINE
  5
302
100
AcDbEntity
  8
0
100
AcDbLine
 62
7
  6
CONTINUOUS
 10
103.409732145
 20
134.5892503728
 11
103.859732145
 21
134.5041439925
  0
LINE
  5
303
100
AcDbEntity
  8
0
100
AcDbLine
 62
7
  6
CONTINUOUS
 10
108.1347325742
 20
134.5892503728
 11
108.5847325742
 21
134.5041439925
  0
LINE
  5
304
100
AcDbEntity
  8
0
100
AcDbLine
 62
7
  6
CONTINUOUS
 10
108.5847325742
 20
134.8445695136
 11
108.1347325742
 21
134.9296759163
  0
LINE
  5
305
100
AcDbEntity
  8
0
100
AcDbLine
 62
7
  6
CONTINUOUS
 10
103.7847324311
 20
136.8871226702
 11
104.2347324311
 21
136.8020162974
  0
LINE
  5
306
100
AcDbEntity
  8
0
100
AcDbLine
 62
7
  6
CONTINUOUS
 10
104.309732145
 20
137.1424417887
 11
103.859732145
 21
137.2275481616
  0
LINE
  5
307
100
AcDbEntity
  8
0
100
AcDbLine
 62
7
  6
CONTINUOUS
 10
108.8847322881
 20
136.8871226702
 11
109.3347322881
 21
136.8020162974
  0
LINE
  5
308
100
AcDbEntity
  8
0
100
AcDbLine
 62
7
  6
CONTINUOUS
 10
109.3347322881
 20
137.1424417887
 11
108.8847322881
 21
137.2275481616
  0
LINE
  5
309
100
AcDbEntity
  8
0
100
AcDbLine
 62
7
  6
CONTINUOUS
 10
101.3847323596
 20
138.4190376197
 11
101.0097322881
 21
138.5041439925
  0
LINE
  5
30A
100
AcDbEntity
  8
0
100
AcDbLine
 62
7
  6
CONTINUOUS
 10
103.7847324311
 20
134.8445695136
 11
103.4847322881
 21
134.9296759163
  0
LINE
  5
30B
100
AcDbEntity
  8
0
100
AcDbLine
 62
7
  6
CONTINUOUS
 10
107.9847322881
 20
135.9509524499
 11
109.2597325742
 21
135.5254205857
  0
LINE
  5
30C
100
AcDbEntity
  8
0
100
AcDbLine
 62
7
  6
CONTINUOUS
 10
109.4847325742
 20
135.7807397042
 11
108.2097322881
 21
136.2062716876
  0
LINE
  5
30D
100
AcDbEntity
  8
0
100
AcDbLine
 62
7
  6
CONTINUOUS
 10
103.184732145
 20
134.6743567531
 11
103.409732145
 21
134.5892503728
  0
LINE
  5
30E
100
AcDbEntity
  8
0
100
AcDbLine
 62
7
  6
CONTINUOUS
 10
107.9097325742
 20
134.6743567531
 11
108.1347325742
 21
134.5892503728
  0
LINE
  5
30F
100
AcDbEntity
  8
0
100
AcDbLine
 62
7
  6
CONTINUOUS
 10
101.0847322166
 20
138.0786121283
 11
101.3097322166
 21
137.9935057555
  0
LINE
  5
310
100
AcDbEntity
  8
0
100
AcDbLine
 62
7
  6
CONTINUOUS
 10
103.4847322881
 20
134.9296759163
 11
103.3347324311
 21
135.0147822891
  0
LINE
  5
311
100
AcDbEntity
  8
0
100
AcDbLine
 62
7
  6
CONTINUOUS
 10
108.1347325742
 20
134.9296759163
 11
107.9847322881
 21
135.0147822891
  0
LINE
  5
312
100
AcDbEntity
  8
0
100
AcDbLine
 62
7
  6
CONTINUOUS
 10
104.6847324311
 20
136.8871226702
 11
104.309732145
 21
137.1424417887
  0
LINE
  5
313
100
AcDbEntity
  8
0
100
AcDbLine
 62
7
  6
CONTINUOUS
 10
102.959732145
 20
134.8445695136
 11
103.184732145
 21
134.6743567531
  0
LINE
  5
314
100
AcDbEntity
  8
0
100
AcDbLine
 62
7
  6
CONTINUOUS
 10
104.2347324311
 20
136.8020162974
 11
104.4597324311
 21
136.6318035517
  0
LINE
  5
315
100
AcDbEntity
  8
0
100
AcDbLine
 62
7
  6
CONTINUOUS
 10
107.6847325742
 20
134.8445695136
 11
107.9097325742
 21
134.6743567531
  0
LINE
  5
316
100
AcDbEntity
  8
0
100
AcDbLine
 62
7
  6
CONTINUOUS
 10
101.6847322881
 20
138.1637185012
 11
101.3847323596
 21
138.4190376197
  0
LINE
  5
317
100
AcDbEntity
  8
0
100
AcDbLine
 62
7
  6
CONTINUOUS
 10
102.8097322881
 20
135.0147822891
 11
102.959732145
 21
134.8445695136
  0
LINE
  5
318
100
AcDbEntity
  8
0
100
AcDbLine
 62
7
  6
CONTINUOUS
 10
103.3347324311
 20
135.0147822891
 11
103.1097324311
 21
135.2701014672
  0
LINE
  5
319
100
AcDbEntity
  8
0
100
AcDbLine
 62
7
  6
CONTINUOUS
 10
101.3097322166
 20
137.9935057555
 11
101.4597322881
 21
137.8232930098
  0
LINE
  5
31A
100
AcDbEntity
  8
0
100
AcDbLine
 62
7
  6
CONTINUOUS
 10
101.9097322881
 20
137.8232930098
 11
101.6847322881
 21
138.1637185012
  0
LINE
  5
31B
100
AcDbEntity
  8
0
100
AcDbLine
 62
7
  6
CONTINUOUS
 10
104.9097324311
 20
136.5466971789
 11
104.6847324311
 21
136.8871226702
  0
LINE
  5
31C
100
AcDbEntity
  8
0
100
AcDbLine
 62
7
  6
CONTINUOUS
 10
104.4597324311
 20
136.6318035517
 11
104.6097322881
 21
136.3764844332
  0
LINE
  5
31D
100
AcDbEntity
  8
0
100
AcDbLine
 62
7
  6
CONTINUOUS
 10
86.5260183322
 20
169.3671766594
 11
86.642635702
 21
169.1357971731
  0
LINE
  5
31E
100
AcDbEntity
  8
0
100
AcDbLine
 62
7
  6
CONTINUOUS
 10
102.6597322166
 20
135.35520784
 11
102.8097322881
 21
135.0147822891
  0
LINE
  5
31F
100
AcDbEntity
  8
0
100
AcDbLine
 62
7
  6
CONTINUOUS
 10
103.1097324311
 20
135.2701014672
 11
103.0347322881
 21
135.4403142129
  0
LINE
  5
320
100
AcDbEntity
  8
0
100
AcDbLine
 62
7
  6
CONTINUOUS
 10
90.0923607959
 20
175.1704337146
 11
90.1790651557
 21
174.9543353349
  0
LINE
  5
321
100
AcDbEntity
  8
0
100
AcDbLine
 62
7
  6
CONTINUOUS
 10
90.5344438918
 20
175.1395123066
 11
90.447739532
 21
175.3556106863
  0
LINE
  5
322
100
AcDbEntity
  8
0
100
AcDbLine
 62
7
  6
CONTINUOUS
 10
91.1383964033
 20
176.5057730578
 11
91.2264718325
 21
176.2137502245
  0
LINE
  5
323
100
AcDbEntity
  8
B-ACHSEN
100
AcDbLine
 62
7
  6
CONTINUOUS
 10
107.5217984342
 20
129.4972067627
 11
108.5722328603
 21
126.0041439925
  0
LINE
  5
324
100
AcDbEntity
  8
0
100
AcDbLine
 62
7
  6
CONTINUOUS
 10
103.0347322881
 20
135.4403142129
 11
102.959732145
 21
135.6956333314
  0
LINE
  5
325
100
AcDbEntity
  8
0
100
AcDbLine
 62
7
  6
CONTINUOUS
 10
104.984732145
 20
136.2062716876
 11
104.9097324311
 21
136.5466971789
  0
LINE
  5
326
100
AcDbEntity
  8
0
100
AcDbLine
 62
7
  6
CONTINUOUS
 10
107.5347322881
 20
136.7169099246
 11
107.5347322881
 21
136.5466971789
  0
LINE
  5
327
100
AcDbEntity
  8
B-ACHSEN
100
AcDbLine
 62
7
  6
CONTINUOUS
 10
108.5722328603
 20
126.0041439925
 11
108.5722328603
 21
81.5041439925
  0
LINE
  5
328
100
AcDbEntity
  8
0
100
AcDbLine
 62
7
  6
CONTINUOUS
 10
109.9347325742
 20
135.0147822891
 11
109.9347325742
 21
135.1849950348
  0
LINE
  5
329
100
AcDbEntity
  8
0
100
AcDbLine
 62
7
  6
CONTINUOUS
 10
114.5400304968
 20
176.7976383611
 11
114.3530720103
 21
174.8273552191
  0
LINE
  5
32A
100
AcDbEntity
  8
0
100
AcDbLine
 62
7
  6
CONTINUOUS
 10
114.2793885806
 20
174.4225921877
 11
114.1228800488
 21
172.7964390744
  0
LINE
  5
32B
100
AcDbEntity
  8
0
100
AcDbLine
 62
7
  6
CONTINUOUS
 10
114.6684947468
 20
174.9682857243
 11
114.8250038221
 21
176.5944384501
  0
LINE
  5
32C
100
AcDbEntity
  8
0
100
AcDbLine
 62
7
  6
CONTINUOUS
 10
113.2679252482
 20
176.6082282012
 11
113.2988418153
 21
176.9266355487
  0
LINE
  5
32D
100
AcDbEntity
  8
0
100
AcDbLine
 62
7
  6
CONTINUOUS
 10
114.4078533741
 20
172.5932391633
 11
114.6380453356
 21
174.6241553081
  0
LINE
  5
32E
100
AcDbEntity
  8
0
100
AcDbLine
 62
7
  6
CONTINUOUS
 10
117.5244862065
 20
170.1720555466
 11
117.5944030081
 21
170.4470939322
  0
LINE
  5
32F
100
AcDbEntity
  8
0
100
AcDbLine
 62
7
  6
CONTINUOUS
 10
118.5485585273
 20
171.404670406
 11
118.4553364521
 21
171.0379522487
  0
LINE
  5
330
100
AcDbEntity
  8
0
100
AcDbLine
 62
7
  6
CONTINUOUS
 10
119.1819182459
 20
169.6091654182
 11
119.2751403211
 21
169.9758835755
  0
LINE
  5
331
100
AcDbEntity
  8
0
100
AcDbLine
 62
7
  6
CONTINUOUS
 10
120.0044664578
 20
170.9809857813
 11
119.9578550123
 21
170.7976272311
  0
LINE
  5
332
100
AcDbEntity
  8
0
100
AcDbLine
 62
7
  6
CONTINUOUS
 10
109.5597322881
 20
135.1849950348
 11
109.4847325742
 21
135.0147822891
  0
LINE
  5
333
100
AcDbEntity
  8
0
100
AcDbLine
 62
7
  6
CONTINUOUS
 10
109.7847322881
 20
134.7594631408
 11
109.9347325742
 21
135.0147822891
  0
LINE
  5
334
100
AcDbEntity
  8
0
100
AcDbLine
 62
7
  6
CONTINUOUS
 10
97.6347328603
 20
139.0041439925
 11
97.0722328603
 21
139.0041439925
  0
LINE
  5
335
100
AcDbEntity
  8
0
100
AcDbLine
 62
7
  6
CONTINUOUS
 10
109.5597322881
 20
137.0573354159
 11
109.3347322881
 21
137.1424417887
  0
LINE
  5
336
100
AcDbEntity
  8
0
100
AcDbLine
 62
7
  6
CONTINUOUS
 10
109.3347322881
 20
136.8020162974
 11
109.4847325742
 21
136.7169099246
  0
LINE
  5
337
100
AcDbEntity
  8
0
100
AcDbLine
 62
7
  6
CONTINUOUS
 10
108.2097322881
 20
136.2062716876
 11
107.9847322881
 21
136.3764844332
  0
LINE
  5
338
100
AcDbEntity
  8
0
100
AcDbLine
 62
7
  6
CONTINUOUS
 10
109.2597325742
 20
135.5254205857
 11
109.4847325742
 21
135.35520784
  0
LINE
  5
339
100
AcDbEntity
  8
0
100
AcDbLine
 62
7
  6
CONTINUOUS
 10
109.7847322881
 20
136.8871226702
 11
109.5597322881
 21
137.0573354159
  0
LINE
  5
33A
100
AcDbEntity
  8
0
100
AcDbLine
 62
7
  6
CONTINUOUS
 10
107.6847325742
 20
136.2062716876
 11
107.9847322881
 21
135.9509524499
  0
LINE
  5
33B
100
AcDbEntity
  8
0
100
AcDbLine
 62
7
  6
CONTINUOUS
 10
109.7847322881
 20
135.5254205857
 11
109.4847325742
 21
135.7807397042
  0
LINE
  5
33C
100
AcDbEntity
  8
0
100
AcDbLine
 62
7
  6
CONTINUOUS
 10
82.8543448744
 20
164.077961485
 11
82.6155712247
 21
164.3434324247
  0
LINE
  5
33D
100
AcDbEntity
  8
0
100
AcDbLine
 62
7
  6
CONTINUOUS
 10
84.8594512725
 20
166.5276504004
 11
85.0116520039
 21
166.3179579675
  0
LINE
  5
33E
100
AcDbEntity
  8
0
100
AcDbLine
 62
7
  6
CONTINUOUS
 10
86.9811992006
 20
169.3859887256
 11
86.8019985168
 21
169.6577269899
  0
LINE
  5
33F
100
AcDbEntity
  8
0
100
AcDbLine
 62
7
  6
CONTINUOUS
 10
107.5347322881
 20
135.1849950348
 11
107.6847325742
 21
134.8445695136
  0
LINE
  5
340
100
AcDbEntity
  8
0
100
AcDbLine
 62
7
  6
CONTINUOUS
 10
107.9847322881
 20
135.0147822891
 11
107.9097325742
 21
135.1849950348
  0
LINE
  5
341
100
AcDbEntity
  8
0
100
AcDbLine
 62
7
  6
CONTINUOUS
 10
107.5347322881
 20
136.5466971789
 11
107.6847325742
 21
136.2062716876
  0
LINE
  5
342
100
AcDbEntity
  8
0
100
AcDbLine
 62
7
  6
CONTINUOUS
 10
107.9847322881
 20
136.3764844332
 11
107.9097325742
 21
136.5466971789
  0
LINE
  5
343
100
AcDbEntity
  8
0
100
AcDbLine
 62
7
  6
CONTINUOUS
 10
109.4847325742
 20
135.35520784
 11
109.5597322881
 21
135.1849950348
  0
LINE
  5
344
100
AcDbEntity
  8
0
100
AcDbLine
 62
7
  6
CONTINUOUS
 10
109.9347325742
 20
135.1849950348
 11
109.7847322881
 21
135.5254205857
  0
LINE
  5
345
100
AcDbEntity
  8
0
100
AcDbLine
 62
7
  6
CONTINUOUS
 10
109.4847325742
 20
136.7169099246
 11
109.5597322881
 21
136.5466971789
  0
LINE
  5
346
100
AcDbEntity
  8
0
100
AcDbLine
 62
7
  6
CONTINUOUS
 10
109.9347325742
 20
136.5466971789
 11
109.7847322881
 21
136.8871226702
  0
LINE
  5
347
100
AcDbEntity
  8
0
100
AcDbLine
 62
7
  6
CONTINUOUS
 10
110.7969932268
 20
175.6083968286
 11
110.7941781023
 21
175.8604139106
  0
LINE
  5
348
100
AcDbEntity
  8
0
100
AcDbLine
 62
7
  6
CONTINUOUS
 10
112.9193442623
 20
176.9523956884
 11
112.9221592924
 21
176.7003784204
  0
LINE
  5
349
100
AcDbEntity
  8
0
100
AcDbLine
 62
7
  6
CONTINUOUS
 10
85.3057299776
 20
166.6191874498
 11
85.0852855647
 21
166.8586842798
  0
LINE
  5
34A
100
AcDbEntity
  8
0
100
AcDbLine
 62
7
  6
CONTINUOUS
 10
91.2264718325
 20
176.2137502245
 11
91.3718287619
 21
175.9537513834
  0
LINE
  5
34B
100
AcDbEntity
  8
0
100
AcDbLine
 62
7
  6
CONTINUOUS
 10
91.6791753234
 20
176.2108946275
 11
91.6064969096
 21
176.340893957
  0
LINE
  5
34C
100
AcDbEntity
  8
0
100
AcDbLine
 62
7
  6
CONTINUOUS
 10
109.4233068412
 20
176.0350017375
 11
108.9785206337
 21
179.3215948976
  0
LINE
  5
34D
100
AcDbEntity
  8
0
100
AcDbLine
 62
7
  6
CONTINUOUS
 10
108.6715717901
 20
178.9527518348
 11
109.0928788619
 21
175.5954887919
  0
LINE
  5
34E
100
AcDbEntity
  8
0
100
AcDbLine
 62
7
  6
CONTINUOUS
 10
117.1337765008
 20
170.3126094043
 11
117.1351467697
 21
169.9452175626
  0
LINE
  5
34F
100
AcDbEntity
  8
0
100
AcDbLine
 62
7
  6
CONTINUOUS
 10
118.869351452
 20
170.9890781786
 11
118.8803189673
 21
171.2186139952
  0
LINE
  5
350
100
AcDbEntity
  8
0
100
AcDbLine
 62
7
  6
CONTINUOUS
 10
118.8611253212
 20
170.0247576456
 11
118.850157806
 21
169.795221829
  0
LINE
  5
351
100
AcDbEntity
  8
0
100
AcDbLine
 62
7
  6
CONTINUOUS
 10
120.3595322126
 20
170.8866091741
 11
120.3938058585
 21
171.2078237374
  0
LINE
  5
352
100
AcDbEntity
  8
B-ACHSEN
100
AcDbLine
 62
7
  6
CONTINUOUS
 10
118.245702248
 20
136.5041439925
 11
117.5722328603
 21
131.0041439925
  0
LINE
  5
353
100
AcDbEntity
  8
0
100
AcDbLine
 62
7
  6
CONTINUOUS
 10
123.9839220256
 20
162.509036661
 11
123.950068812
 21
162.3218884462
  0
LINE
  5
354
100
AcDbEntity
  8
0
100
AcDbLine
 62
7
  6
CONTINUOUS
 10
82.2447405891
 20
164.100783282
 11
82.4444547437
 21
163.9810738912
  0
LINE
  5
355
100
AcDbEntity
  8
0
100
AcDbLine
 62
7
  6
CONTINUOUS
 10
82.6155712247
 20
164.3434324247
 11
82.4158570701
 21
164.4631418156
  0
LINE
  5
356
100
AcDbEntity
  8
0
100
AcDbLine
 62
7
  6
CONTINUOUS
 10
84.6127418979
 20
166.7070077297
 11
84.8594512725
 21
166.5276504004
  0
LINE
  5
357
100
AcDbEntity
  8
0
100
AcDbLine
 62
7
  6
CONTINUOUS
 10
86.8019985168
 20
169.6577269899
 11
86.524648183
 21
169.9146720414
  0
LINE
  5
358
100
AcDbEntity
  8
0
100
AcDbLine
 62
7
  6
CONTINUOUS
 10
86.3112512684
 20
169.5837629612
 11
86.5260183322
 21
169.3671766594
  0
LINE
  5
359
100
AcDbEntity
  8
0
100
AcDbLine
 62
7
  6
CONTINUOUS
 10
87.8491562383
 20
174.7303947124
 11
90.0151323367
 21
171.9811134352
  0
LINE
  5
35A
100
AcDbEntity
  8
0
100
AcDbLine
 62
7
  6
CONTINUOUS
 10
90.3244264804
 20
172.2247857462
 11
89.3566499121
 21
173.4531880365
  0
LINE
  5
35B
100
AcDbEntity
  8
0
100
AcDbLine
 62
7
  6
CONTINUOUS
 10
89.080142358
 20
173.8041600726
 11
88.3888733437
 21
174.6815903267
  0
LINE
  5
35C
100
AcDbEntity
  8
0
100
AcDbLine
 62
7
  6
CONTINUOUS
 10
89.9541068898
 20
175.3459198966
 11
90.0923607959
 21
175.1704337146
  0
LINE
  5
35D
100
AcDbEntity
  8
0
100
AcDbLine
 62
7
  6
CONTINUOUS
 10
90.447739532
 20
175.3556106863
 11
90.2634010335
 21
175.5895922076
  0
LINE
  5
35E
100
AcDbEntity
  8
0
100
AcDbLine
 62
7
  6
CONTINUOUS
 10
93.5934626863
 20
175.7454272727
 11
93.702480307
 21
175.5504282784
  0
LINE
  5
35F
100
AcDbEntity
  8
0
100
AcDbLine
 62
7
  6
CONTINUOUS
 10
94.0825052823
 20
175.677572193
 11
93.9008092478
 21
176.0025705169
  0
LINE
  5
360
100
AcDbEntity
  8
0
100
AcDbLine
 62
7
  6
CONTINUOUS
 10
110.4174956502
 20
175.6341569219
 11
110.4905901636
 21
175.2629028121
  0
LINE
  5
361
100
AcDbEntity
  8
0
100
AcDbLine
 62
7
  6
CONTINUOUS
 10
118.4553364521
 20
171.0379522487
 11
118.4800120513
 21
170.7622402225
  0
LINE
  5
362
100
AcDbEntity
  8
0
100
AcDbLine
 62
7
  6
CONTINUOUS
 10
119.2751403211
 20
169.9758835755
 11
119.2504639061
 21
170.2515966586
  0
LINE
  5
363
100
AcDbEntity
  8
0
100
AcDbLine
 62
7
  6
CONTINUOUS
 10
83.161920585
 20
168.9597331276
 11
86.1033346314
 21
167.0628716651
  0
LINE
  5
364
100
AcDbEntity
  8
0
100
AcDbLine
 62
7
  6
CONTINUOUS
 10
85.9412318813
 20
167.6359332719
 11
83.7508171203
 21
169.0484897096
  0
LINE
  5
365
100
AcDbEntity
  8
0
100
AcDbLine
 62
7
  6
CONTINUOUS
 10
85.0852855647
 20
166.8586842798
 11
84.7703325565
 21
167.0678459855
  0
LINE
  5
366
100
AcDbEntity
  8
0
100
AcDbLine
 62
7
  6
CONTINUOUS
 10
91.8904308596
 20
174.6226858721
 11
92.0930690856
 21
174.3947113873
  0
LINE
  5
367
100
AcDbEntity
  8
0
100
AcDbLine
 62
7
  6
CONTINUOUS
 10
91.3718287619
 20
175.9537513834
 11
91.5744669879
 21
175.7257768985
  0
LINE
  5
368
100
AcDbEntity
  8
0
100
AcDbLine
 62
7
  6
CONTINUOUS
 10
96.508475386
 20
176.6999509721
 11
97.0592509483
 21
175.948882287
  0
LINE
  5
369
100
AcDbEntity
  8
0
100
AcDbLine
 62
7
  6
CONTINUOUS
 10
95.1062102258
 20
178.6476518427
 11
96.3454542081
 21
176.9577468447
  0
LINE
  5
36A
100
AcDbEntity
  8
0
100
AcDbLine
 62
7
  6
CONTINUOUS
 10
113.2988418153
 20
176.9266355487
 11
113.2257472901
 21
177.2978896352
  0
LINE
  5
36B
100
AcDbEntity
  8
0
100
AcDbLine
 62
7
  6
CONTINUOUS
 10
124.3260806765
 20
162.347483584
 11
124.3340907395
 21
162.6483997154
  0
LINE
  5
36C
100
AcDbEntity
  8
0
100
AcDbLine
 62
7
  6
CONTINUOUS
 10
123.4128004433
 20
161.6614696214
 11
123.7032729964
 21
161.7274524237
  0
LINE
  5
36D
100
AcDbEntity
  8
0
100
AcDbLine
 62
7
  6
CONTINUOUS
 10
123.6257432487
 20
162.0687574753
 11
123.407888783
 21
162.019270362
  0
LINE
  5
36E
100
AcDbEntity
  8
0
100
AcDbLine
 62
7
  6
CONTINUOUS
 10
120.6884509808
 20
162.8970173934
 11
122.2134310201
 21
163.2434269092
  0
LINE
  5
36F
100
AcDbEntity
  8
0
100
AcDbLine
 62
7
  6
CONTINUOUS
 10
122.6491395446
 20
163.3424010433
 11
123.7384110594
 21
163.589836425
  0
LINE
  5
370
100
AcDbEntity
  8
0
100
AcDbLine
 62
7
  6
CONTINUOUS
 10
124.0239717488
 20
164.0136199217
 11
120.6109212331
 21
163.238322445
  0
LINE
  5
371
100
AcDbEntity
  8
0
100
AcDbLine
 62
7
  6
CONTINUOUS
 10
80.7239870966
 20
162.3940590706
 11
84.1114539093
 21
161.5136792701
  0
LINE
  5
372
100
AcDbEntity
  8
0
100
AcDbLine
 62
7
  6
CONTINUOUS
 10
84.2104966368
 20
161.8947692865
 11
82.6969476139
 21
162.2881304795
  0
LINE
  5
373
100
AcDbEntity
  8
0
100
AcDbLine
 62
7
  6
CONTINUOUS
 10
82.2645050937
 20
162.4005193769
 11
81.183398591
 21
162.6814916726
  0
LINE
  5
374
100
AcDbEntity
  8
0
100
AcDbLine
 62
7
  6
CONTINUOUS
 10
82.0285191271
 20
164.1569777831
 11
82.2447405891
 21
164.100783282
  0
LINE
  5
375
100
AcDbEntity
  8
0
100
AcDbLine
 62
7
  6
CONTINUOUS
 10
82.4158570701
 20
164.4631418156
 11
82.1275618546
 21
164.5380677996
  0
LINE
  5
376
100
AcDbEntity
  8
0
100
AcDbLine
 62
7
  6
CONTINUOUS
 10
81.7092356009
 20
165.8267520702
 11
83.8247885297
 21
164.9028162789
  0
LINE
  5
377
100
AcDbEntity
  8
0
100
AcDbLine
 62
7
  6
CONTINUOUS
 10
83.9823792635
 20
165.2636547067
 11
81.8668263346
 21
166.187590498
  0
LINE
  5
378
100
AcDbEntity
  8
0
100
AcDbLine
 62
7
  6
CONTINUOUS
 10
82.4971889691
 20
167.6309435211
 11
84.6127418979
 21
166.7070077297
  0
LINE
  5
379
100
AcDbEntity
  8
0
100
AcDbLine
 62
7
  6
CONTINUOUS
 10
84.7703325565
 20
167.0678459855
 11
82.6547796277
 21
167.9917817768
  0
LINE
  5
37A
100
AcDbEntity
  8
0
100
AcDbLine
 62
7
  6
CONTINUOUS
 10
85.372502129
 20
170.1891442634
 11
86.3112512684
 21
169.5837629612
  0
LINE
  5
37B
100
AcDbEntity
  8
0
100
AcDbLine
 62
7
  6
CONTINUOUS
 10
86.524648183
 20
169.9146720414
 11
85.5858990435
 21
170.5200533436
  0
LINE
  5
37C
100
AcDbEntity
  8
0
100
AcDbLine
 62
7
  6
CONTINUOUS
 10
92.4004156471
 20
174.6518546314
 11
92.234116628
 21
174.8148294515
  0
LINE
  5
37D
100
AcDbEntity
  8
0
100
AcDbLine
 62
7
  6
CONTINUOUS
 10
91.8454743425
 20
176.0479198074
 11
91.6791753234
 21
176.2108946275
  0
LINE
  5
37E
100
AcDbEntity
  8
0
100
AcDbLine
 62
7
  6
CONTINUOUS
 10
93.002182073
 20
177.2064922956
 11
92.8358830539
 21
177.3694671157
  0
LINE
  5
37F
100
AcDbEntity
  8
0
100
AcDbLine
 62
7
  6
CONTINUOUS
 10
97.4295285555
 20
176.0827985149
 11
95.2517546622
 21
179.0170449124
  0
LINE
  5
380
100
AcDbEntity
  8
0
100
AcDbLine
 62
7
  6
CONTINUOUS
 10
110.8855460119
 20
175.3963463693
 11
110.7969932268
 21
175.6083968286
  0
LINE
  5
381
100
AcDbEntity
  8
0
100
AcDbLine
 62
7
  6
CONTINUOUS
 10
120.6109212331
 20
163.238322445
 11
120.6884509808
 21
162.8970173934
  0
LINE
  5
382
100
AcDbEntity
  8
0
100
AcDbLine
 62
7
  6
CONTINUOUS
 10
121.0114916947
 20
161.4749125779
 11
121.1019428698
 21
161.076724219
  0
LINE
  5
383
100
AcDbEntity
  8
0
100
AcDbLine
 62
7
  6
CONTINUOUS
 10
123.1820244578
 20
161.6688671635
 11
123.4128004433
 21
161.6614696214
  0
LINE
  5
384
100
AcDbEntity
  8
0
100
AcDbLine
 62
7
  6
CONTINUOUS
 10
84.2816188075
 20
165.2045766813
 11
83.9823792635
 21
165.2636547067
  0
LINE
  5
385
100
AcDbEntity
  8
0
100
AcDbLine
 62
7
  6
CONTINUOUS
 10
83.8247885297
 20
164.9028162789
 11
84.1922718577
 21
164.8139342212
  0
LINE
  5
386
100
AcDbEntity
  8
0
100
AcDbLine
 62
7
  6
CONTINUOUS
 10
85.0866030317
 20
170.2954279592
 11
85.372502129
 21
170.1891442634
  0
LINE
  5
387
100
AcDbEntity
  8
0
100
AcDbLine
 62
7
  6
CONTINUOUS
 10
85.5858990435
 20
170.5200533436
 11
85.2374165008
 21
170.6666959022
  0
LINE
  5
388
100
AcDbEntity
  8
0
100
AcDbLine
 62
7
  6
CONTINUOUS
 10
92.0930690856
 20
174.3947113873
 11
92.4466080425
 21
174.1657847849
  0
LINE
  5
389
100
AcDbEntity
  8
0
100
AcDbLine
 62
7
  6
CONTINUOUS
 10
89.7643036955
 20
175.4807935529
 11
89.9541068898
 21
175.3459198966
  0
LINE
  5
38A
100
AcDbEntity
  8
0
100
AcDbLine
 62
7
  6
CONTINUOUS
 10
90.2634010335
 20
175.5895922076
 11
90.0735978392
 21
175.724465864
  0
LINE
  5
38B
100
AcDbEntity
  8
0
100
AcDbLine
 62
7
  6
CONTINUOUS
 10
93.9008092478
 20
176.0025705169
 11
93.6408895725
 21
176.1985209185
  0
LINE
  5
38C
100
AcDbEntity
  8
0
100
AcDbLine
 62
7
  6
CONTINUOUS
 10
92.5285364924
 20
177.1123238715
 11
92.6584963046
 21
177.0143487162
  0
LINE
  5
38D
100
AcDbEntity
  8
0
100
AcDbLine
 62
7
  6
CONTINUOUS
 10
110.4905901636
 20
175.2629028121
 11
110.6311486584
 21
175.0244289367
  0
LINE
  5
38E
100
AcDbEntity
  8
0
100
AcDbLine
 62
7
  6
CONTINUOUS
 10
117.1351467697
 20
169.9452175626
 11
117.2544163548
 21
169.6688297462
  0
LINE
  5
38F
100
AcDbEntity
  8
0
100
AcDbLine
 62
7
  6
CONTINUOUS
 10
112.8307914535
 20
177.1644461012
 11
112.9193442623
 21
176.9523956884
  0
LINE
  5
390
100
AcDbEntity
  8
0
100
AcDbLine
 62
7
  6
CONTINUOUS
 10
119.6347219231
 20
165.8651285754
 11
119.7611530416
 21
165.5387619529
  0
LINE
  5
391
100
AcDbEntity
  8
0
100
AcDbLine
 62
7
  6
CONTINUOUS
 10
120.3511650887
 20
164.0157172996
 11
120.4775962072
 21
163.6893506771
  0
LINE
  5
392
100
AcDbEntity
  8
0
100
AcDbLine
 62
7
  6
CONTINUOUS
 10
120.6787170956
 20
165.6439866445
 11
121.1001539965
 21
164.5560983178
  0
LINE
  5
393
100
AcDbEntity
  8
0
100
AcDbLine
 62
7
  6
CONTINUOUS
 10
117.6081118666
 20
169.9418450006
 11
117.5244862065
 21
170.1720555466
  0
LINE
  5
394
100
AcDbEntity
  8
0
100
AcDbLine
 62
7
  6
CONTINUOUS
 10
118.4800120513
 20
170.7622402225
 11
118.5636377113
 21
170.5320296765
  0
LINE
  5
395
100
AcDbEntity
  8
0
100
AcDbLine
 62
7
  6
CONTINUOUS
 10
118.7774996612
 20
170.2549681916
 11
118.8611253212
 21
170.0247576456
  0
LINE
  5
396
100
AcDbEntity
  8
0
100
AcDbLine
 62
7
  6
CONTINUOUS
 10
118.9173331818
 20
170.8050448991
 11
118.869351452
 21
170.9890781786
  0
LINE
  5
397
100
AcDbEntity
  8
0
100
AcDbLine
 62
7
  6
CONTINUOUS
 10
119.9564847279
 20
171.1650190609
 11
120.0044664578
 21
170.9809857813
  0
LINE
  5
398
100
AcDbEntity
  8
0
100
AcDbLine
 62
7
  6
CONTINUOUS
 10
122.2134310201
 20
163.2434269092
 11
122.4330985399
 21
162.2763963637
  0
LINE
  5
399
100
AcDbEntity
  8
0
100
AcDbLine
 62
7
  6
CONTINUOUS
 10
122.8946505108
 20
162.2616012794
 11
122.6491395446
 21
163.3424010433
  0
LINE
  5
39A
100
AcDbEntity
  8
0
100
AcDbLine
 62
7
  6
CONTINUOUS
 10
123.7384110594
 20
163.589836425
 11
123.9839220256
 21
162.509036661
  0
LINE
  5
39B
100
AcDbEntity
  8
0
100
AcDbLine
 62
7
  6
CONTINUOUS
 10
124.3340907395
 20
162.6483997154
 11
124.0239717488
 21
164.0136199217
  0
LINE
  5
39C
100
AcDbEntity
  8
0
100
AcDbLine
 62
7
  6
CONTINUOUS
 10
118.5677492976
 20
169.4298530667
 11
118.3196145176
 21
169.3856989314
  0
LINE
  5
39D
100
AcDbEntity
  8
0
100
AcDbLine
 62
7
  6
CONTINUOUS
 10
119.7611530416
 20
165.5387619529
 11
120.6787170956
 21
165.6439866445
  0
LINE
  5
39E
100
AcDbEntity
  8
0
100
AcDbLine
 62
7
  6
CONTINUOUS
 10
120.9775474217
 20
165.6971939765
 11
123.0420662543
 21
165.9339504946
  0
LINE
  5
39F
100
AcDbEntity
  8
0
100
AcDbLine
 62
7
  6
CONTINUOUS
 10
123.2355379581
 20
166.259128352
 11
119.6347219231
 21
165.8651285754
  0
LINE
  5
3A0
100
AcDbEntity
  8
0
100
AcDbLine
 62
7
  6
CONTINUOUS
 10
84.7387245329
 20
163.9272494347
 11
82.9324639119
 21
163.7864385688
  0
LINE
  5
3A1
100
AcDbEntity
  8
0
100
AcDbLine
 62
7
  6
CONTINUOUS
 10
82.9775686675
 20
163.3678854958
 11
84.6231746526
 21
163.4826442944
  0
LINE
  5
3A2
100
AcDbEntity
  8
0
100
AcDbLine
 62
7
  6
CONTINUOUS
 10
81.7957907614
 20
164.1496572896
 11
82.0285191271
 21
164.1569777831
  0
LINE
  5
3A3
100
AcDbEntity
  8
0
100
AcDbLine
 62
7
  6
CONTINUOUS
 10
82.1275618546
 20
164.5380677996
 11
81.894833489
 21
164.5307473061
  0
LINE
  5
3A4
100
AcDbEntity
  8
0
100
AcDbLine
 62
7
  6
CONTINUOUS
 10
84.1922718577
 20
164.8139342212
 11
84.5177766845
 21
164.814996171
  0
LINE
  5
3A5
100
AcDbEntity
  8
0
100
AcDbLine
 62
7
  6
CONTINUOUS
 10
123.407888783
 20
162.019270362
 11
123.1771127976
 21
162.0266679041
  0
LINE
  5
3A6
100
AcDbEntity
  8
0
100
AcDbLine
 62
7
  6
CONTINUOUS
 10
93.3698822179
 20
175.8763780096
 11
93.5934626863
 21
175.7454272727
  0
LINE
  5
3A7
100
AcDbEntity
  8
0
100
AcDbLine
 62
7
  6
CONTINUOUS
 10
113.2257472901
 20
177.2978896352
 11
113.085189084
 21
177.536363342
  0
LINE
  5
3A8
100
AcDbEntity
  8
0
100
AcDbLine
 62
7
  6
CONTINUOUS
 10
118.7964116567
 20
167.4046305428
 11
118.9690457548
 21
167.1001679536
  0
LINE
  5
3A9
100
AcDbEntity
  8
0
100
AcDbLine
 62
7
  6
CONTINUOUS
 10
119.2504639061
 20
170.2515966586
 11
119.1311951316
 21
170.5279834141
  0
LINE
  5
3AA
100
AcDbEntity
  8
0
100
AcDbLine
 62
7
  6
CONTINUOUS
 10
120.3938058585
 20
171.2078237374
 11
120.2745362682
 21
171.4842115499
  0
LINE
  5
3AB
100
AcDbEntity
  8
0
100
AcDbLine
 62
7
  6
CONTINUOUS
 10
121.3568407771
 20
164.718094109
 11
120.9775474217
 21
165.6971939765
  0
LINE
  5
3AC
100
AcDbEntity
  8
0
100
AcDbLine
 62
7
  6
CONTINUOUS
 10
123.404112622
 20
165.8239732704
 11
123.2355379581
 21
166.259128352
  0
LINE
  5
3AD
100
AcDbEntity
  8
0
100
AcDbLine
 62
7
  6
CONTINUOUS
 10
84.5388800281
 20
165.2354432003
 11
84.2816188075
 21
165.2045766813
  0
LINE
  5
3AE
100
AcDbEntity
  8
0
100
AcDbLine
 62
7
  6
CONTINUOUS
 10
118.0372060299
 20
169.0203301851
 11
118.415577936
 21
169.0176323405
  0
LINE
  5
3AF
100
AcDbEntity
  8
0
100
AcDbLine
 62
7
  6
CONTINUOUS
 10
84.8277206055
 20
170.3062010843
 11
85.0866030317
 21
170.2954279592
  0
LINE
  5
3B0
100
AcDbEntity
  8
0
100
AcDbLine
 62
7
  6
CONTINUOUS
 10
85.2374165008
 20
170.6666959022
 11
84.9159509798
 21
170.7178276639
  0
LINE
  5
3B1
100
AcDbEntity
  8
0
100
AcDbLine
 62
7
  6
CONTINUOUS
 10
122.8527872343
 20
161.7735369332
 11
123.1820244578
 21
161.6688671635
  0
LINE
  5
3B2
100
AcDbEntity
  8
0
100
AcDbLine
 62
7
  6
CONTINUOUS
 10
90.0735978392
 20
175.724465864
 11
89.734612398
 21
175.8366110659
  0
LINE
  5
3B3
100
AcDbEntity
  8
0
100
AcDbLine
 62
7
  6
CONTINUOUS
 10
92.6812761775
 20
174.5529273813
 11
92.4004156471
 21
174.6518546314
  0
LINE
  5
3B4
100
AcDbEntity
  8
0
100
AcDbLine
 62
7
  6
CONTINUOUS
 10
91.5744669879
 20
175.7257768985
 11
91.9489467871
 21
175.5938734704
  0
LINE
  5
3B5
100
AcDbEntity
  8
0
100
AcDbLine
 62
7
  6
CONTINUOUS
 10
123.1771127976
 20
162.0266679041
 11
123.0060334721
 21
162.1074444426
  0
LINE
  5
3B6
100
AcDbEntity
  8
0
100
AcDbLine
 62
7
  6
CONTINUOUS
 10
92.8358830539
 20
177.3694671157
 11
92.5186833421
 21
177.533393985
  0
LINE
  5
3B7
100
AcDbEntity
  8
0
100
AcDbLine
 62
7
  6
CONTINUOUS
 10
110.6311486584
 20
175.0244289367
 11
110.8574445458
 21
174.8259218933
  0
LINE
  5
3B8
100
AcDbEntity
  8
0
100
AcDbLine
 62
7
  6
CONTINUOUS
 10
111.0598365049
 20
175.2242626257
 11
110.8855460119
 21
175.3963463693
  0
LINE
  5
3B9
100
AcDbEntity
  8
0
100
AcDbLine
 62
7
  6
CONTINUOUS
 10
122.6558644624
 20
161.9680826902
 11
122.8527872343
 21
161.7735369332
  0
LINE
  5
3BA
100
AcDbEntity
  8
0
100
AcDbLine
 62
7
  6
CONTINUOUS
 10
117.2544163548
 20
169.6688297462
 11
117.5395653493
 21
169.2994147853
  0
LINE
  5
3BB
100
AcDbEntity
  8
0
100
AcDbLine
 62
7
  6
CONTINUOUS
 10
117.8932608611
 20
169.5724300397
 11
117.6081118666
 21
169.9418450006
  0
LINE
  5
3BC
100
AcDbEntity
  8
0
100
AcDbLine
 62
7
  6
CONTINUOUS
 10
117.7356068132
 20
170.6297788099
 11
117.5217448633
 21
170.9068402948
  0
LINE
  5
3BD
100
AcDbEntity
  8
0
100
AcDbLine
 62
7
  6
CONTINUOUS
 10
118.5636377113
 20
170.5320296765
 11
118.7774996612
 21
170.2549681916
  0
LINE
  5
3BE
100
AcDbEntity
  8
0
100
AcDbLine
 62
7
  6
CONTINUOUS
 10
119.1311951316
 20
170.5279834141
 11
118.9173331818
 21
170.8050448991
  0
LINE
  5
3BF
100
AcDbEntity
  8
0
100
AcDbLine
 62
7
  6
CONTINUOUS
 10
119.8756004523
 20
170.6604448905
 11
120.0894624021
 21
170.3833834056
  0
LINE
  5
3C0
100
AcDbEntity
  8
0
100
AcDbLine
 62
7
  6
CONTINUOUS
 10
119.7426227781
 20
171.4420805458
 11
119.9564847279
 21
171.1650190609
  0
LINE
  5
3C1
100
AcDbEntity
  8
0
100
AcDbLine
 62
7
  6
CONTINUOUS
 10
123.0060334721
 20
162.1074444426
 11
122.8946505108
 21
162.2616012794
  0
LINE
  5
3C2
100
AcDbEntity
  8
0
100
AcDbLine
 62
7
  6
CONTINUOUS
 10
121.0567834006
 20
169.7592188746
 11
121.5171412151
 21
168.9473182499
  0
LINE
  5
3C3
100
AcDbEntity
  8
0
100
AcDbLine
 62
7
  6
CONTINUOUS
 10
121.6897753132
 20
168.6428556607
 11
122.1501331277
 21
167.830955036
  0
LINE
  5
3C4
100
AcDbEntity
  8
0
100
AcDbLine
 62
7
  6
CONTINUOUS
 10
122.4740294604
 20
168.0146083099
 11
121.3806797334
 21
169.9428721486
  0
LINE
  5
3C5
100
AcDbEntity
  8
0
100
AcDbLine
 62
7
  6
CONTINUOUS
 10
111.9411164324
 20
175.0270820943
 11
111.7176356431
 21
174.9735720033
  0
LINE
  5
3C6
100
AcDbEntity
  8
0
100
AcDbLine
 62
7
  6
CONTINUOUS
 10
111.7752210567
 20
177.5337104228
 11
111.9987018224
 21
177.5872204672
  0
LINE
  5
3C7
100
AcDbEntity
  8
0
100
AcDbLine
 62
7
  6
CONTINUOUS
 10
84.9159509798
 20
170.7178276639
 11
84.5233534253
 21
170.6586568197
  0
LINE
  5
3C8
100
AcDbEntity
  8
0
100
AcDbLine
 62
7
  6
CONTINUOUS
 10
111.5672493819
 20
174.5488078316
 11
111.8427355538
 21
174.5758945996
  0
LINE
  5
3C9
100
AcDbEntity
  8
0
100
AcDbLine
 62
7
  6
CONTINUOUS
 10
119.6343215189
 20
171.948003118
 11
119.2559496334
 21
171.9507009785
  0
LINE
  5
3CA
100
AcDbEntity
  8
0
100
AcDbLine
 62
7
  6
CONTINUOUS
 10
92.4466080425
 20
174.1657847849
 11
92.8420300427
 21
174.1309051787
  0
LINE
  5
3CB
100
AcDbEntity
  8
0
100
AcDbLine
 62
7
  6
CONTINUOUS
 10
92.0899956405
 20
176.0139922676
 11
91.8454743425
 21
176.0479198074
  0
LINE
  5
3CC
100
AcDbEntity
  8
0
100
AcDbLine
 62
7
  6
CONTINUOUS
 10
93.1253609199
 20
175.9103055495
 11
93.3698822179
 21
175.8763780096
  0
LINE
  5
3CD
100
AcDbEntity
  8
0
100
AcDbLine
 62
7
  6
CONTINUOUS
 10
89.5690368562
 20
175.5165604378
 11
89.7643036955
 21
175.4807935529
  0
LINE
  5
3CE
100
AcDbEntity
  8
0
100
AcDbLine
 62
7
  6
CONTINUOUS
 10
118.3196145176
 20
169.3856989314
 11
118.0947850113
 21
169.4332245679
  0
LINE
  5
3CF
100
AcDbEntity
  8
0
100
AcDbLine
 62
7
  6
CONTINUOUS
 10
119.3519130931
 20
171.5826344194
 11
119.5767425581
 21
171.5351087511
  0
LINE
  5
3D0
100
AcDbEntity
  8
0
100
AcDbLine
 62
7
  6
CONTINUOUS
 10
93.6408895725
 20
176.1985209185
 11
93.2664097733
 21
176.3304243466
  0
LINE
  5
3D1
100
AcDbEntity
  8
0
100
AcDbLine
 62
7
  6
CONTINUOUS
 10
92.3412965928
 20
177.1782755856
 11
92.5285364924
 21
177.1123238715
  0
LINE
  5
3D2
100
AcDbEntity
  8
0
100
AcDbLine
 62
7
  6
CONTINUOUS
 10
117.7767326191
 20
169.1140331079
 11
118.0372060299
 21
169.0203301851
  0
LINE
  5
3D3
100
AcDbEntity
  8
0
100
AcDbLine
 62
7
  6
CONTINUOUS
 10
110.8574445458
 20
174.8259218933
 11
111.2734892126
 21
174.6145347859
  0
LINE
  5
3D4
100
AcDbEntity
  8
0
100
AcDbLine
 62
7
  6
CONTINUOUS
 10
118.0947850113
 20
169.4332245679
 11
117.8932608611
 21
169.5724300397
  0
LINE
  5
3D5
100
AcDbEntity
  8
0
100
AcDbLine
 62
7
  6
CONTINUOUS
 10
112.5080313864
 20
173.9479051077
 11
112.7930047117
 21
173.7447051967
  0
LINE
  5
3D6
100
AcDbEntity
  8
0
100
AcDbLine
 62
7
  6
CONTINUOUS
 10
114.1228800488
 20
172.7964390744
 11
114.4078533741
 21
172.5932391633
  0
LINE
  5
3D7
100
AcDbEntity
  8
0
100
AcDbLine
 62
7
  6
CONTINUOUS
 10
117.5395653493
 20
169.2994147853
 11
117.7767326191
 21
169.1140331079
  0
LINE
  5
3D8
100
AcDbEntity
  8
0
100
AcDbLine
 62
7
  6
CONTINUOUS
 10
113.085189084
 20
177.536363342
 11
112.8588928961
 21
177.7348705307
  0
LINE
  5
3D9
100
AcDbEntity
  8
0
100
AcDbLine
 62
7
  6
CONTINUOUS
 10
112.6565009606
 20
177.3365298448
 11
112.8307914535
 21
177.1644461012
  0
LINE
  5
3DA
100
AcDbEntity
  8
0
100
AcDbLine
 62
7
  6
CONTINUOUS
 10
120.2745362682
 20
171.4842115499
 11
120.0963182486
 21
171.7150957683
  0
LINE
  5
3DB
100
AcDbEntity
  8
B-ACHSEN
100
AcDbLine
 62
7
  6
CONTINUOUS
 10
108.5722328603
 20
81.5041439925
 11
108.0722328603
 21
81.0041439925
  0
LINE
  5
3DC
100
AcDbEntity
  8
0
100
AcDbLine
 62
7
  6
CONTINUOUS
 10
92.9467383559
 20
174.6160229475
 11
92.6812761775
 21
174.5529273813
  0
LINE
  5
3DD
100
AcDbEntity
  8
0
100
AcDbLine
 62
7
  6
CONTINUOUS
 10
92.2507494835
 20
175.5919701048
 11
92.516212973
 21
175.6550664039
  0
LINE
  5
3DE
100
AcDbEntity
  8
0
100
AcDbLine
 62
7
  6
CONTINUOUS
 10
92.8598987414
 20
175.8472099833
 11
93.1253609199
 21
175.9103055495
  0
LINE
  5
3DF
100
AcDbEntity
  8
0
100
AcDbLine
 62
7
  6
CONTINUOUS
 10
92.2981777316
 20
176.0450643925
 11
92.0899956405
 21
176.0139922676
  0
LINE
  5
3E0
100
AcDbEntity
  8
0
100
AcDbLine
 62
7
  6
CONTINUOUS
 10
92.1331145017
 20
177.1472034607
 11
92.3412965928
 21
177.1782755856
  0
LINE
  5
3E1
100
AcDbEntity
  8
0
100
AcDbLine
 62
7
  6
CONTINUOUS
 10
112.1490883605
 20
178.011984447
 11
111.8736018998
 21
177.9848978477
  0
LINE
  5
3E2
100
AcDbEntity
  8
0
100
AcDbLine
 62
7
  6
CONTINUOUS
 10
91.9489467871
 20
175.5938734704
 11
92.2507494835
 21
175.5919701048
  0
LINE
  5
3E3
100
AcDbEntity
  8
0
100
AcDbLine
 62
7
  6
CONTINUOUS
 10
93.2664097733
 20
176.3304243466
 11
92.9646070769
 21
176.3323277123
  0
LINE
  5
3E4
100
AcDbEntity
  8
0
100
AcDbLine
 62
7
  6
CONTINUOUS
 10
89.734612398
 20
175.8366110659
 11
89.3901621319
 21
175.8496485667
  0
LINE
  5
3E5
100
AcDbEntity
  8
0
100
AcDbLine
 62
7
  6
CONTINUOUS
 10
111.7176356431
 20
174.9735720033
 11
111.4758811717
 21
175.0128755183
  0
LINE
  5
3E6
100
AcDbEntity
  8
0
100
AcDbLine
 62
7
  6
CONTINUOUS
 10
92.5186833421
 20
177.533393985
 11
92.1805414388
 21
177.6002970154
  0
LINE
  5
3E7
100
AcDbEntity
  8
0
100
AcDbLine
 62
7
  6
CONTINUOUS
 10
111.2734892126
 20
174.6145347859
 11
111.5672493819
 21
174.5488078316
  0
LINE
  5
3E8
100
AcDbEntity
  8
0
100
AcDbLine
 62
7
  6
CONTINUOUS
 10
106.5724120432
 20
176.3233058594
 11
106.9136430862
 21
176.2454510249
  0
LINE
  5
3E9
100
AcDbEntity
  8
0
100
AcDbLine
 62
7
  6
CONTINUOUS
 10
107.3767795128
 20
176.165640148
 11
107.7089277688
 21
176.0552882743
  0
LINE
  5
3EA
100
AcDbEntity
  8
0
100
AcDbLine
 62
7
  6
CONTINUOUS
 10
109.0928788619
 20
175.5954887919
 11
109.5911012459
 21
175.4299609813
  0
LINE
  5
3EB
100
AcDbEntity
  8
0
100
AcDbLine
 62
7
  6
CONTINUOUS
 10
119.8947940984
 20
171.8543012401
 11
119.6343215189
 21
171.948003118
  0
LINE
  5
3EC
100
AcDbEntity
  8
0
100
AcDbLine
 62
7
  6
CONTINUOUS
 10
111.4758811717
 20
175.0128755183
 11
111.0598365049
 21
175.2242626257
  0
LINE
  5
3ED
100
AcDbEntity
  8
0
100
AcDbLine
 62
7
  6
CONTINUOUS
 10
112.2404562938
 20
177.5479169522
 11
112.6565009606
 21
177.3365298448
  0
LINE
  5
3EE
100
AcDbEntity
  8
0
100
AcDbLine
 62
7
  6
CONTINUOUS
 10
112.8588928961
 20
177.7348705307
 11
112.4428482293
 21
177.9462576381
  0
LINE
  5
3EF
100
AcDbEntity
  8
0
100
AcDbLine
 62
7
  6
CONTINUOUS
 10
119.5767425581
 20
171.5351087511
 11
119.7426227781
 21
171.4420805458
  0
LINE
  5
3F0
100
AcDbEntity
  8
0
100
AcDbLine
 62
7
  6
CONTINUOUS
 10
120.0963182486
 20
171.7150957683
 11
119.8947940984
 21
171.8543012401
  0
LINE
  5
3F1
100
AcDbEntity
  8
0
100
AcDbLine
 62
7
  6
CONTINUOUS
 10
116.4398524845
 20
175.4429724167
 11
116.1548791592
 21
175.6461723277
  0
LINE
  5
3F2
100
AcDbEntity
  8
0
100
AcDbLine
 62
7
  6
CONTINUOUS
 10
114.8250038221
 20
176.5944384501
 11
114.5400304968
 21
176.7976383611
  0
LINE
  5
3F3
100
AcDbEntity
  8
0
100
AcDbLine
 62
7
  6
CONTINUOUS
 10
111.9987018224
 20
177.5872204672
 11
112.2404562938
 21
177.5479169522
  0
LINE
  5
3F4
100
AcDbEntity
  8
0
100
AcDbLine
 62
7
  6
CONTINUOUS
 10
112.4428482293
 20
177.9462576381
 11
112.1490883605
 21
178.011984447
  0
LINE
  5
3F5
100
AcDbEntity
  8
0
100
AcDbLine
 62
7
  6
CONTINUOUS
 10
107.6921914311
 20
179.6577614555
 11
107.350960388
 21
179.73561629
  0
LINE
  5
3F6
100
AcDbEntity
  8
0
100
AcDbLine
 62
7
  6
CONTINUOUS
 10
110.6946199828
 20
178.7514435415
 11
110.3624717268
 21
178.8617954152
  0
LINE
  5
3F7
100
AcDbEntity
  8
0
100
AcDbLine
 62
7
  6
CONTINUOUS
 10
108.9785206337
 20
179.3215948976
 11
108.4802982497
 21
179.4871227082
  0
LINE
  5
3F8
100
AcDbEntity
  8
B-ACHSEN
100
AcDbLine
 62
7
  6
CONTINUOUS
 10
169.420827506
 20
81.0041439925
 11
180.420827506
 21
81.0041439925
  0
LINE
  5
3F9
100
AcDbEntity
  8
B-ACHSEN
100
AcDbLine
 62
7
  6
CONTINUOUS
 10
168.920827506
 20
81.5041439925
 11
180.920827506
 21
81.5041439925
  0
LINE
  5
3FA
100
AcDbEntity
  8
B-ACHSEN
100
AcDbLine
 62
7
  6
CONTINUOUS
 10
168.920827506
 20
81.5041439925
 11
169.420827506
 21
81.0041439925
  0
LINE
  5
3FB
100
AcDbEntity
  8
B-ACHSEN
100
AcDbLine
 62
7
  6
CONTINUOUS
 10
158.5670319559
 20
142.0601409844
 11
159.920827506
 21
131.0041439925
  0
LINE
  5
3FC
100
AcDbEntity
  8
B-ACHSEN
100
AcDbLine
 62
7
  6
CONTINUOUS
 10
168.920827506
 20
126.0041439925
 11
180.920827506
 21
126.0041439925
  0
LINE
  5
3FD
100
AcDbEntity
  8
B-ACHSEN
100
AcDbLine
 62
7
  6
CONTINUOUS
 10
168.920827506
 20
126.0041439925
 11
168.920827506
 21
81.5041439925
  0
LINE
  5
3FE
100
AcDbEntity
  8
BEZUGSACHSEN
100
AcDbLine
 62
7
  6
CONTINUOUS
 10
169.920827506
 20
187.0041439925
 11
169.920827506
 21
158.0041439925
  0
LINE
  5
3FF
100
AcDbEntity
  8
0
100
AcDbLine
 62
7
  6
CONTINUOUS
 10
169.920827506
 20
155.5041441518
 11
169.920827506
 21
158.0041439925
  0
LINE
  5
400
100
AcDbEntity
  8
B-ACHSEN
100
AcDbLine
 62
7
  6
CONTINUOUS
 10
169.9712619321
 20
129.4972067627
 11
168.920827506
 21
126.0041439925
  0
LINE
  5
401
100
AcDbEntity
  8
B-ACHSEN
100
AcDbLine
 62
7
  6
CONTINUOUS
 10
159.920827506
 20
131.0041439925
 11
189.920827506
 21
131.0041439925
  0
LINE
  5
402
100
AcDbEntity
  8
0
100
AcDbLine
 62
7
  6
CONTINUOUS
 10
189.27023
 20
134.0041439925
 11
190.0043390177
 21
134.0041439925
  0
LINE
  5
403
100
AcDbEntity
  8
0
100
AcDbLine
 62
7
  6
CONTINUOUS
 10
190.0687382503
 20
134.5041439925
 11
190.8010264194
 21
134.5041439925
  0
LINE
  5
404
100
AcDbEntity
  8
0
100
AcDbLine
 62
7
  6
CONTINUOUS
 10
190.5952614265
 20
134.5892503728
 11
190.8415417689
 21
134.5892503728
  0
LINE
  5
405
100
AcDbEntity
  8
0
100
AcDbLine
 62
7
  6
CONTINUOUS
 10
190.6058608115
 20
134.6743567531
 11
190.8622134332
 21
134.6743567531
  0
LINE
  5
406
100
AcDbEntity
  8
0
100
AcDbLine
 62
7
  6
CONTINUOUS
 10
190.6270591602
 20
134.8445695136
 11
190.8901174866
 21
134.8445695136
  0
LINE
  5
407
100
AcDbEntity
  8
0
100
AcDbLine
 62
7
  6
CONTINUOUS
 10
190.6482562761
 20
135.0147822891
 11
190.9138972112
 21
135.0147822891
  0
LINE
  5
408
100
AcDbEntity
  8
0
100
AcDbLine
 62
7
  6
CONTINUOUS
 10
190.6906480121
 20
135.35520784
 11
190.9571066147
 21
135.35520784
  0
LINE
  5
409
100
AcDbEntity
  8
0
100
AcDbLine
 62
7
  6
CONTINUOUS
 10
190.7542282088
 20
135.865846077
 11
191.0198676047
 21
135.865846077
  0
LINE
  5
40A
100
AcDbEntity
  8
0
100
AcDbLine
 62
7
  6
CONTINUOUS
 10
190.8072058244
 20
136.2913780604
 11
190.9962207398
 21
136.2913780604
  0
LINE
  5
40B
100
AcDbEntity
  8
0
100
AcDbLine
 62
7
  6
CONTINUOUS
 10
191.0387136949
 20
136.3764844332
 11
191.0821627386
 21
136.3764844332
  0
LINE
  5
40C
100
AcDbEntity
  8
0
100
AcDbLine
 62
7
  6
CONTINUOUS
 10
188.3069277602
 20
136.5041439925
 11
181.9090322681
 21
136.5041439925
  0
LINE
  5
40D
100
AcDbEntity
  8
0
100
AcDbLine
 62
7
  6
CONTINUOUS
 10
161.5347272518
 20
136.5041439925
 11
167.9326227439
 21
136.5041439925
  0
LINE
  5
40E
100
AcDbEntity
  8
0
100
AcDbLine
 62
7
  6
CONTINUOUS
 10
191.1027370667
 20
136.7169099246
 11
191.1223436879
 21
136.7169099246
  0
LINE
  5
40F
100
AcDbEntity
  8
0
100
AcDbLine
 62
7
  6
CONTINUOUS
 10
191.0661270509
 20
136.8020162974
 11
190.8707709534
 21
136.8020162974
  0
LINE
  5
410
100
AcDbEntity
  8
0
100
AcDbLine
 62
7
  6
CONTINUOUS
 10
191.1289869983
 20
136.8871226702
 11
191.1402985225
 21
136.8871226702
  0
LINE
  5
411
100
AcDbEntity
  8
0
100
AcDbLine
 62
7
  6
CONTINUOUS
 10
190.8813641742
 20
136.8871226702
 11
191.0957305312
 21
136.8871226702
  0
LINE
  5
412
100
AcDbEntity
  8
0
100
AcDbLine
 62
7
  6
CONTINUOUS
 10
190.902550332
 20
137.0573354159
 11
191.1276307139
 21
137.0573354159
  0
LINE
  5
413
100
AcDbEntity
  8
0
100
AcDbLine
 62
7
  6
CONTINUOUS
 10
190.9343277407
 20
137.3126545344
 11
191.1639321095
 21
137.3126545344
  0
LINE
  5
414
100
AcDbEntity
  8
0
100
AcDbLine
 62
7
  6
CONTINUOUS
 10
189.4943270946
 20
137.4083992038
 11
190.0384571184
 21
137.4083992038
  0
LINE
  5
415
100
AcDbEntity
  8
0
100
AcDbLine
 62
7
  6
CONTINUOUS
 10
190.9661032151
 20
137.5679738913
 11
191.1952592914
 21
137.5679738913
  0
LINE
  5
416
100
AcDbEntity
  8
0
100
AcDbLine
 62
7
  6
CONTINUOUS
 10
190.9978767094
 20
137.8232930098
 11
191.2216408798
 21
137.8232930098
  0
LINE
  5
417
100
AcDbEntity
  8
0
100
AcDbLine
 62
7
  6
CONTINUOUS
 10
191.0190578344
 20
137.9935057555
 11
191.2316146341
 21
137.9935057555
  0
LINE
  5
418
100
AcDbEntity
  8
0
100
AcDbLine
 62
7
  6
CONTINUOUS
 10
191.0296482591
 20
138.0786121283
 11
191.2231005829
 21
138.0786121283
  0
LINE
  5
419
100
AcDbEntity
  8
B-ACHSEN
100
AcDbLine
 62
7
  6
CONTINUOUS
 10
179.8703930799
 20
129.4972067627
 11
180.920827506
 21
126.0041439925
  0
LINE
  5
41A
100
AcDbEntity
  8
B-ACHSEN
100
AcDbLine
 62
7
  6
CONTINUOUS
 10
179.920827506
 20
187.0041439925
 11
179.920827506
 21
158.0041439925
  0
LINE
  5
41B
100
AcDbEntity
  8
0
100
AcDbLine
 62
7
  6
CONTINUOUS
 10
179.920827506
 20
155.5041439925
 11
179.920827506
 21
158.0041439925
  0
LINE
  5
41C
100
AcDbEntity
  8
0
100
AcDbLine
 62
7
  6
CONTINUOUS
 10
180.420827506
 20
179.73561629
 11
180.420827506
 21
171.9811134352
  0
LINE
  5
41D
100
AcDbEntity
  8
0
100
AcDbLine
 62
7
  6
CONTINUOUS
 10
180.420827506
 20
171.9507009785
 11
180.420827506
 21
164.5380677996
  0
LINE
  5
41E
100
AcDbEntity
  8
0
100
AcDbLine
 62
7
  6
CONTINUOUS
 10
180.420827506
 20
164.5307473061
 11
180.420827506
 21
161.076724219
  0
LINE
  5
41F
100
AcDbEntity
  8
B-ACHSEN
100
AcDbLine
 62
7
  6
CONTINUOUS
 10
180.920827506
 20
126.0041439925
 11
180.920827506
 21
81.5041439925
  0
LINE
  5
420
100
AcDbEntity
  8
0
100
AcDbLine
 62
7
  6
CONTINUOUS
 10
189.6071324485
 20
138.2594632302
 11
190.1506790478
 21
138.2594632302
  0
LINE
  5
421
100
AcDbEntity
  8
0
100
AcDbLine
 62
7
  6
CONTINUOUS
 10
190.5830838768
 20
138.5041439925
 11
191.2684273531
 21
138.5041439925
  0
LINE
  5
422
100
AcDbEntity
  8
0
100
AcDbLine
 62
7
  6
CONTINUOUS
 10
189.9240723306
 20
139.0041439925
 11
190.6472746763
 21
139.0041439925
  0
LINE
  5
423
100
AcDbEntity
  8
B-ACHSEN
100
AcDbLine
 62
7
  6
CONTINUOUS
 10
191.274623056
 20
142.0601409844
 11
190.841496446
 21
138.5229403359
  0
LINE
  5
424
100
AcDbEntity
  8
B-ACHSEN
100
AcDbLine
 62
7
  6
CONTINUOUS
 10
190.3493989345
 20
134.5041439925
 11
189.920827506
 21
131.0041439925
  0
LINE
  5
425
100
AcDbEntity
  8
0
100
AcDbLine
 62
7
  6
CONTINUOUS
 10
191.1759981152
 20
137.2275481616
 11
191.2177100458
 21
137.5679738913
  0
LINE
  5
426
100
AcDbEntity
  8
0
100
AcDbLine
 62
7
  6
CONTINUOUS
 10
191.1952592914
 20
137.5679738913
 11
191.1639321095
 21
137.3126545344
  0
LINE
  5
427
100
AcDbEntity
  8
0
100
AcDbLine
 62
7
  6
CONTINUOUS
 10
169.920827506
 20
157.2822842004
 11
179.920827506
 21
157.2822842004
  0
LINE
  5
428
100
AcDbEntity
  8
BEZUGSACHSEN
100
AcDbLine
 62
7
  6
CONTINUOUS
 10
169.920827506
 20
158.0041439925
 11
179.920827506
 21
158.0041439925
  0
LINE
  5
429
100
AcDbEntity
  8
0
100
AcDbLine
 62
7
  6
CONTINUOUS
 10
179.920827506
 20
161.076724219
 11
180.420827506
 21
161.076724219
  0
LINE
  5
42A
100
AcDbEntity
  8
0
100
AcDbLine
 62
7
  6
CONTINUOUS
 10
179.920827506
 20
161.4749125779
 11
180.420827506
 21
161.4749125779
  0
LINE
  5
42B
100
AcDbEntity
  8
0
100
AcDbLine
 62
7
  6
CONTINUOUS
 10
179.920827506
 20
161.5136792701
 11
180.420827506
 21
161.5136792701
  0
LINE
  5
42C
100
AcDbEntity
  8
0
100
AcDbLine
 62
7
  6
CONTINUOUS
 10
179.920827506
 20
162.3940590706
 11
180.420827506
 21
162.3940590706
  0
LINE
  5
42D
100
AcDbEntity
  8
0
100
AcDbLine
 62
7
  6
CONTINUOUS
 10
179.920827506
 20
163.9184191363
 11
180.420827506
 21
163.9184191363
  0
LINE
  5
42E
100
AcDbEntity
  8
0
100
AcDbLine
 62
7
  6
CONTINUOUS
 10
179.920827506
 20
164.2172627277
 11
180.420827506
 21
164.2172627277
  0
LINE
  5
42F
100
AcDbEntity
  8
0
100
AcDbLine
 62
7
  6
CONTINUOUS
 10
179.920827506
 20
164.4151282294
 11
180.420827506
 21
164.4151282294
  0
LINE
  5
430
100
AcDbEntity
  8
0
100
AcDbLine
 62
7
  6
CONTINUOUS
 10
179.920827506
 20
164.5307473061
 11
180.420827506
 21
164.5307473061
  0
LINE
  5
431
100
AcDbEntity
  8
0
100
AcDbLine
 62
7
  6
CONTINUOUS
 10
179.920827506
 20
164.5380677996
 11
180.420827506
 21
164.5380677996
  0
LINE
  5
432
100
AcDbEntity
  8
0
100
AcDbLine
 62
7
  6
CONTINUOUS
 10
179.920827506
 20
164.5560983178
 11
180.420827506
 21
164.5560983178
  0
LINE
  5
433
100
AcDbEntity
  8
0
100
AcDbLine
 62
7
  6
CONTINUOUS
 10
179.920827506
 20
164.8139342212
 11
180.420827506
 21
164.8139342212
  0
LINE
  5
434
100
AcDbEntity
  8
0
100
AcDbLine
 62
7
  6
CONTINUOUS
 10
179.920827506
 20
164.9028162789
 11
180.420827506
 21
164.9028162789
  0
LINE
  5
435
100
AcDbEntity
  8
0
100
AcDbLine
 62
7
  6
CONTINUOUS
 10
179.920827506
 20
165.8267520702
 11
180.420827506
 21
165.8267520702
  0
LINE
  5
436
100
AcDbEntity
  8
0
100
AcDbLine
 62
7
  6
CONTINUOUS
 10
179.920827506
 20
166.187590498
 11
180.420827506
 21
166.187590498
  0
LINE
  5
437
100
AcDbEntity
  8
0
100
AcDbLine
 62
7
  6
CONTINUOUS
 10
179.920827506
 20
166.3179579675
 11
180.420827506
 21
166.3179579675
  0
LINE
  5
438
100
AcDbEntity
  8
0
100
AcDbLine
 62
7
  6
CONTINUOUS
 10
179.920827506
 20
166.5276504004
 11
180.420827506
 21
166.5276504004
  0
LINE
  5
439
100
AcDbEntity
  8
0
100
AcDbLine
 62
7
  6
CONTINUOUS
 10
179.920827506
 20
166.7070077297
 11
180.420827506
 21
166.7070077297
  0
LINE
  5
43A
100
AcDbEntity
  8
0
100
AcDbLine
 62
7
  6
CONTINUOUS
 10
179.920827506
 20
167.6309435211
 11
180.420827506
 21
167.6309435211
  0
LINE
  5
43B
100
AcDbEntity
  8
0
100
AcDbLine
 62
7
  6
CONTINUOUS
 10
179.920827506
 20
167.9917817768
 11
180.420827506
 21
167.9917817768
  0
LINE
  5
43C
100
AcDbEntity
  8
0
100
AcDbLine
 62
7
  6
CONTINUOUS
 10
179.920827506
 20
168.9597331276
 11
180.420827506
 21
168.9597331276
  0
LINE
  5
43D
100
AcDbEntity
  8
0
100
AcDbLine
 62
7
  6
CONTINUOUS
 10
179.920827506
 20
170.2833694485
 11
180.420827506
 21
170.2833694485
  0
LINE
  5
43E
100
AcDbEntity
  8
0
100
AcDbLine
 62
7
  6
CONTINUOUS
 10
179.920827506
 20
170.518768476
 11
180.420827506
 21
170.518768476
  0
LINE
  5
43F
100
AcDbEntity
  8
0
100
AcDbLine
 62
7
  6
CONTINUOUS
 10
179.920827506
 20
170.6586568197
 11
180.420827506
 21
170.6586568197
  0
LINE
  5
440
100
AcDbEntity
  8
0
100
AcDbLine
 62
7
  6
CONTINUOUS
 10
179.920827506
 20
170.7178276639
 11
180.420827506
 21
170.7178276639
  0
LINE
  5
441
100
AcDbEntity
  8
0
100
AcDbLine
 62
7
  6
CONTINUOUS
 10
179.920827506
 20
170.9068402948
 11
180.420827506
 21
170.9068402948
  0
LINE
  5
442
100
AcDbEntity
  8
0
100
AcDbLine
 62
7
  6
CONTINUOUS
 10
179.920827506
 20
171.0379522487
 11
180.420827506
 21
171.0379522487
  0
LINE
  5
443
100
AcDbEntity
  8
0
100
AcDbLine
 62
7
  6
CONTINUOUS
 10
179.920827506
 20
171.404670406
 11
180.420827506
 21
171.404670406
  0
LINE
  5
444
100
AcDbEntity
  8
B-ACHSEN
100
AcDbLine
 62
7
  6
CONTINUOUS
 10
180.920827506
 20
81.5041439925
 11
180.420827506
 21
81.0041439925
  0
LINE
  5
445
100
AcDbEntity
  8
0
100
AcDbLine
 62
7
  6
CONTINUOUS
 10
179.920827506
 20
171.6328578208
 11
180.420827506
 21
171.6328578208
  0
LINE
  5
446
100
AcDbEntity
  8
0
100
AcDbLine
 62
7
  6
CONTINUOUS
 10
179.920827506
 20
171.8148680966
 11
180.420827506
 21
171.8148680966
  0
LINE
  5
447
100
AcDbEntity
  8
0
100
AcDbLine
 62
7
  6
CONTINUOUS
 10
179.920827506
 20
171.9507009785
 11
180.420827506
 21
171.9507009785
  0
LINE
  5
448
100
AcDbEntity
  8
0
100
AcDbLine
 62
7
  6
CONTINUOUS
 10
179.920827506
 20
171.9811134352
 11
180.420827506
 21
171.9811134352
  0
LINE
  5
449
100
AcDbEntity
  8
0
100
AcDbLine
 62
7
  6
CONTINUOUS
 10
179.920827506
 20
174.7303947124
 11
180.420827506
 21
174.7303947124
  0
LINE
  5
44A
100
AcDbEntity
  8
0
100
AcDbLine
 62
7
  6
CONTINUOUS
 10
179.920827506
 20
175.7050839567
 11
180.420827506
 21
175.7050839567
  0
LINE
  5
44B
100
AcDbEntity
  8
0
100
AcDbLine
 62
7
  6
CONTINUOUS
 10
179.920827506
 20
175.8496485667
 11
180.420827506
 21
175.8496485667
  0
LINE
  5
44C
100
AcDbEntity
  8
0
100
AcDbLine
 62
7
  6
CONTINUOUS
 10
179.920827506
 20
175.9537513834
 11
180.420827506
 21
175.9537513834
  0
LINE
  5
44D
100
AcDbEntity
  8
0
100
AcDbLine
 62
7
  6
CONTINUOUS
 10
179.920827506
 20
176.2137502245
 11
180.420827506
 21
176.2137502245
  0
LINE
  5
44E
100
AcDbEntity
  8
0
100
AcDbLine
 62
7
  6
CONTINUOUS
 10
179.920827506
 20
176.5057730578
 11
180.420827506
 21
176.5057730578
  0
LINE
  5
44F
100
AcDbEntity
  8
0
100
AcDbLine
 62
7
  6
CONTINUOUS
 10
179.920827506
 20
176.8938669478
 11
180.420827506
 21
176.8938669478
  0
LINE
  5
450
100
AcDbEntity
  8
0
100
AcDbLine
 62
7
  6
CONTINUOUS
 10
179.920827506
 20
177.1519622412
 11
180.420827506
 21
177.1519622412
  0
LINE
  5
451
100
AcDbEntity
  8
0
100
AcDbLine
 62
7
  6
CONTINUOUS
 10
179.920827506
 20
177.3450578699
 11
180.420827506
 21
177.3450578699
  0
LINE
  5
452
100
AcDbEntity
  8
0
100
AcDbLine
 62
7
  6
CONTINUOUS
 10
179.920827506
 20
177.505177275
 11
180.420827506
 21
177.505177275
  0
LINE
  5
453
100
AcDbEntity
  8
0
100
AcDbLine
 62
7
  6
CONTINUOUS
 10
179.920827506
 20
177.6002970154
 11
180.420827506
 21
177.6002970154
  0
LINE
  5
454
100
AcDbEntity
  8
0
100
AcDbLine
 62
7
  6
CONTINUOUS
 10
179.920827506
 20
178.8384901122
 11
180.420827506
 21
178.8384901122
  0
LINE
  5
455
100
AcDbEntity
  8
0
100
AcDbLine
 62
7
  6
CONTINUOUS
 10
179.920827506
 20
179.0170449124
 11
180.420827506
 21
179.0170449124
  0
LINE
  5
456
100
AcDbEntity
  8
0
100
AcDbLine
 62
7
  6
CONTINUOUS
 10
179.920827506
 20
179.73561629
 11
180.420827506
 21
179.73561629
  0
LINE
  5
457
100
AcDbEntity
  8
BEZUGSACHSEN
100
AcDbLine
 62
7
  6
CONTINUOUS
 10
169.920827506
 20
187.0041439925
 11
179.920827506
 21
187.0041439925
  0
ARC
  5
458
100
AcDbEntity
  8
0
100
AcDbCircle
 62
7
  6
CONTINUOUS
 10
162.2713699469
 20
183.588829003
 40
91.4151411666
100
AcDbArc
 50
196.7245024793
 51
211.0017597964
  0
ARC
  5
459
100
AcDbEntity
  8
0
100
AcDbCircle
 62
7
  6
CONTINUOUS
 10
42.8730957736
 20
183.588829003
 40
91.4151411666
100
AcDbArc
 50
328.9982402036
 51
343.2754975207
  0
ARC
  5
45A
100
AcDbEntity
  8
0
100
AcDbCircle
 62
7
  6
CONTINUOUS
 10
152.9541549536
 20
174.0127132278
 40
80.0
100
AcDbArc
 50
191.5432229203
 51
192.0713941636
  0
ARC
  5
45B
100
AcDbEntity
  8
0
100
AcDbCircle
 62
7
  6
CONTINUOUS
 10
52.190310767
 20
174.0127132278
 40
80.0
100
AcDbArc
 50
347.9286058364
 51
348.4567770797
  0
ARC
  5
45C
100
AcDbEntity
  8
B-ACHSEN
100
AcDbCircle
 62
7
  6
CONTINUOUS
 10
113.4280478431
 20
148.505426078
 40
40.0
100
AcDbArc
 50
105.7473166471
 51
166.2628553634
  0
ARC
  5
45D
100
AcDbEntity
  8
B-ACHSEN
100
AcDbCircle
 62
7
  6
CONTINUOUS
 10
91.7164178774
 20
148.505426078
 40
40.0
100
AcDbArc
 50
13.7371446366
 51
74.2526833529
  0
ARC
  5
45E
100
AcDbEntity
  8
RUNDUNGEN
100
AcDbCircle
 62
7
  6
CONTINUOUS
 10
102.5722328603
 20
158.0041439925
 40
15.0
100
AcDbArc
 50
255.6604352171
 51
284.3395485006
  0
ARC
  5
45F
100
AcDbEntity
  8
0
100
AcDbCircle
 62
7
  6
CONTINUOUS
 10
102.5722328603
 20
158.0041439925
 40
15.0
100
AcDbArc
 50
235.7507263726
 51
255.6604352171
  0
ARC
  5
460
100
AcDbEntity
  8
0
100
AcDbCircle
 62
7
  6
CONTINUOUS
 10
102.5722328603
 20
158.0041439925
 40
15.0
100
AcDbArc
 50
284.3395485006
 51
304.248442125
  0
ARC
  5
461
100
AcDbEntity
  8
RUNDUNGEN
100
AcDbCircle
 62
7
  6
CONTINUOUS
 10
102.5722328603
 20
158.0041439925
 40
15.0
100
AcDbArc
 50
352.0164438548
 51
187.9835561456
  0
ARC
  5
462
100
AcDbEntity
  8
0
100
AcDbCircle
 62
7
  6
CONTINUOUS
 10
102.5722328603
 20
158.0041439925
 40
15.0
100
AcDbArc
 50
310.4854279744
 51
229.5160314152
  0
ARC
  5
463
100
AcDbEntity
  8
0
100
AcDbCircle
 62
7
  6
CONTINUOUS
 10
102.7663110713
 20
157.7499984173
 40
14.6807082663
100
AcDbArc
 50
304.1805097363
 51
310.5532941948
  0
ARC
  5
464
100
AcDbEntity
  8
0
100
AcDbCircle
 62
7
  6
CONTINUOUS
 10
102.3779327181
 20
157.7497081736
 40
14.6803430188
100
AcDbArc
 50
229.4481121003
 51
235.8187524881
  0
ARC
  5
465
100
AcDbEntity
  8
B-ACHSEN
100
AcDbCircle
 62
7
  6
CONTINUOUS
 10
108.6422328603
 20
129.8341439925
 40
1.17
100
AcDbArc
 50
90.0
 51
196.7370923561
  0
ARC
  5
466
100
AcDbEntity
  8
B-ACHSEN
100
AcDbCircle
 62
7
  6
CONTINUOUS
 10
96.5022328603
 20
129.8341439925
 40
1.17
100
AcDbArc
 50
343.2629076439
 51
90.0
  0
ARC
  5
467
100
AcDbEntity
  8
B-ACHSEN
100
AcDbCircle
 62
7
  6
CONTINUOUS
 10
191.920827506
 20
155.5041439925
 40
12.0
100
AcDbArc
 50
256.138169497
 51
261.1524958114
  0
ARC
  5
468
100
AcDbEntity
  8
BEZUGSACHSEN
100
AcDbCircle
 62
7
  6
CONTINUOUS
 10
157.920827506
 20
155.5041439925
 40
12.0
100
AcDbArc
 50
278.8475046808
 51
283.861830503
  0
ARC
  5
469
100
AcDbEntity
  8
0
100
AcDbCircle
 62
7
  6
CONTINUOUS
 10
191.920827506
 20
155.5041439925
 40
12.0
100
AcDbArc
 50
180.0
 51
256.138169497
  0
ARC
  5
46A
100
AcDbEntity
  8
0
100
AcDbCircle
 62
7
  6
CONTINUOUS
 10
157.920827506
 20
155.5041439925
 40
12.0
100
AcDbArc
 50
283.861830503
 51
0.0000007607
  0
ARC
  5
46B
100
AcDbEntity
  8
B-ACHSEN
100
AcDbCircle
 62
7
  6
CONTINUOUS
 10
189.8552245202
 20
142.2339448868
 40
1.43
100
AcDbArc
 50
353.0189425932
 51
81.1524911885
  0
ARC
  5
46C
100
AcDbEntity
  8
BEZUGSACHSEN
100
AcDbCircle
 62
7
  6
CONTINUOUS
 10
159.9864304918
 20
142.2339448868
 40
1.43
100
AcDbArc
 50
98.8475046808
 51
186.9810574068
  0
ARC
  5
46D
100
AcDbEntity
  8
B-ACHSEN
100
AcDbCircle
 62
7
  6
CONTINUOUS
 10
168.850827506
 20
129.8341439925
 40
1.17
100
AcDbArc
 50
343.2629076439
 51
90.0
  0
ARC
  5
46E
100
AcDbEntity
  8
B-ACHSEN
100
AcDbCircle
 62
7
  6
CONTINUOUS
 10
180.990827506
 20
129.8341439925
 40
1.17
100
AcDbArc
 50
90.0
 51
196.7370923561
  0
SPLINE
  5
46F
100
AcDbEntity
  8
B-ACHSEN
100
AcDbSpline
 62
7
  6
CONTINUOUS
 70
0
 71
3
 72
9
 73
5
 74
0
 42
0.0000001
 43
0.0000001
 44
0.0000000001
 40
0.0
 40
0.0
 40
0.0
 40
0.0
 40
0.2439606652
 40
1.0
 40
1.0
 40
1.0
 40
1.0
 10
111.241805236
 20
143.8536283673
 30
0.0
 10
111.0782053447
 20
143.8296979835
 30
0.0
 10
110.4063334931
 20
143.7402760932
 30
0.0
 10
109.7307040499
 20
143.6811245235
 30
0.0
 10
109.2194515739
 20
143.6469296017
 30
0.0
  0
SPLINE
  5
470
100
AcDbEntity
  8
B-ACHSEN
100
AcDbSpline
 62
7
  6
CONTINUOUS
 70
0
 71
3
 72
9
 73
5
 74
0
 42
0.0000001
 43
0.0000001
 44
0.0000000001
 40
0.0
 40
0.0
 40
0.0
 40
0.0
 40
0.2558813828
 40
1.0
 40
1.0
 40
1.0
 40
1.0
 10
95.9250143846
 20
143.6469295858
 30
0.0
 10
95.7519855268
 20
143.6585025522
 30
0.0
 10
95.0761462617
 20
143.7085568362
 30
0.0
 10
94.4016531833
 20
143.7806387906
 30
0.0
 10
93.9026604846
 20
143.8536283673
 30
0.0
  0
SPLINE
  5
471
100
AcDbEntity
  8
RUNDUNGEN
100
AcDbSpline
 62
7
  6
CONTINUOUS
 70
0
 71
3
 72
9
 73
5
 74
0
 42
0.0000001
 43
0.0000001
 44
0.0000000001
 40
0.0
 40
0.0
 40
0.0
 40
0.0
 40
0.2512130419
 40
1.0
 40
1.0
 40
1.0
 40
1.0
 10
107.4676436619
 20
143.6469298164
 30
0.0
 10
107.3678971137
 20
143.6407320532
 30
0.0
 10
106.9714223298
 20
143.6089342401
 30
0.0
 10
106.5766160035
 20
143.5454313625
 30
0.0
 10
106.288011393
 20
143.4716499378
 30
0.0
  0
SPLINE
  5
472
100
AcDbEntity
  8
RUNDUNGEN
100
AcDbSpline
 62
7
  6
CONTINUOUS
 70
0
 71
3
 72
9
 73
5
 74
0
 42
0.0000001
 43
0.0000001
 44
0.0000000001
 40
0.0
 40
0.0
 40
0.0
 40
0.0
 40
0.2491169796
 40
1.0
 40
1.0
 40
1.0
 40
1.0
 10
98.8560034552
 20
143.471758191
 30
0.0
 10
98.7600064085
 20
143.496305764
 30
0.0
 10
98.3716051209
 20
143.5829268721
 30
0.0
 10
97.9748540087
 20
143.6284070139
 30
0.0
 10
97.6767665801
 20
143.6469334328
 30
0.0
  0
SPLINE
  5
473
100
AcDbEntity
  8
B-ACHSEN
100
AcDbSpline
 62
7
  6
CONTINUOUS
 70
0
 71
3
 72
12
 73
8
 74
0
 42
0.0000001
 43
0.0000001
 44
0.0000000001
 40
0.0
 40
0.0
 40
0.0
 40
0.0
 40
0.2556830369
 40
0.5097008653
 40
0.7590310437
 40
0.8809054164
 40
1.0
 40
1.0
 40
1.0
 40
1.0
 10
102.5722328603
 20
142.0601409844
 30
0.0
 10
102.0122415517
 20
142.2238952028
 30
0.0
 10
100.8975974531
 20
142.5561468693
 30
0.0
 10
99.2320262496
 20
143.0313187615
 30
0.0
 10
97.8449742764
 20
143.3698145887
 30
0.0
 10
96.7431767461
 20
143.5664610216
 30
0.0
 10
96.1961704095
 20
143.6287934135
 30
0.0
 10
95.9250143847
 20
143.6469295858
 30
0.0
  0
SPLINE
  5
474
100
AcDbEntity
  8
0
100
AcDbSpline
 62
7
  6
CONTINUOUS
 70
0
 71
3
 72
13
 73
9
 74
0
 42
0.0000001
 43
0.0000001
 44
0.0000000001
 40
0.0
 40
0.0
 40
0.0
 40
0.0
 40
0.1305432595
 40
0.2591010243
 40
0.3859406656
 40
0.5112596822
 40
0.7578435015
 40
1.0
 40
1.0
 40
1.0
 40
1.0
 10
128.1509501386
 20
150.6583630266
 30
0.0
 10
127.5345844423
 20
150.144600071
 30
0.0
 10
126.2491761677
 20
149.1980407222
 30
0.0
 10
124.2129629854
 20
147.976037448
 30
0.0
 10
122.1167477146
 20
146.9309121008
 30
0.0
 10
119.2847099821
 20
145.7523795562
 30
0.0
 10
115.6731504691
 20
144.6250219643
 30
0.0
 10
112.7167638189
 20
144.0536519093
 30
0.0
 10
111.241805236
 20
143.8536283673
 30
0.0
  0
SPLINE
  5
475
100
AcDbEntity
  8
B-ACHSEN
100
AcDbSpline
 62
7
  6
CONTINUOUS
 70
0
 71
3
 72
12
 73
8
 74
0
 42
0.0000001
 43
0.0000001
 44
0.0000000001
 40
0.0
 40
0.0
 40
0.0
 40
0.0
 40
0.1190945843
 40
0.2409689659
 40
0.4902991366
 40
0.7443169635
 40
1.0
 40
1.0
 40
1.0
 40
1.0
 10
109.2194515739
 20
143.6469296017
 30
0.0
 10
108.9482955373
 20
143.6287934363
 30
0.0
 10
108.4012891519
 20
143.5664611024
 30
0.0
 10
107.2994915945
 20
143.3698145642
 30
0.0
 10
105.9124395578
 20
143.0313188089
 30
0.0
 10
104.2468683223
 20
142.5561468783
 30
0.0
 10
103.1322241877
 20
142.2238952083
 30
0.0
 10
102.5722328603
 20
142.0601409844
 30
0.0
  0
SPLINE
  5
476
100
AcDbEntity
  8
0
100
AcDbSpline
 62
7
  6
CONTINUOUS
 70
0
 71
3
 72
13
 73
9
 74
0
 42
0.0000001
 43
0.0000001
 44
0.0000000001
 40
0.0
 40
0.0
 40
0.0
 40
0.0
 40
0.2421568855
 40
0.4887408567
 40
0.6140598898
 40
0.7408994675
 40
0.8694570627
 40
1.0
 40
1.0
 40
1.0
 40
1.0
 10
93.9026604846
 20
143.8536283673
 30
0.0
 10
92.4276995314
 20
144.0536522307
 30
0.0
 10
89.4713096698
 20
144.6250233755
 30
0.0
 10
85.8597469368
 20
145.7523821988
 30
0.0
 10
83.0277087456
 20
146.9309154388
 30
0.0
 10
80.9314951006
 20
147.9760411038
 30
0.0
 10
78.8952851766
 20
149.198043225
 30
0.0
 10
77.6098797623
 20
150.1446013346
 30
0.0
 10
76.993515582
 20
150.6583630266
 30
0.0
  0
LINE
  5
477
100
AcDbEntity
  8
0
100
AcDbLine
 62
7
  6
CONTINUOUS
 10
190.8707709534
 20
136.8020162974
 11
191.0296482591
 21
138.0786121283
  0
LINE
  5
478
100
AcDbEntity
  8
0
100
AcDbLine
 62
7
  6
CONTINUOUS
 10
190.5846620414
 20
134.5041439925
 11
190.8072058244
 21
136.2913780604
  0
SPLINE
  5
479
100
AcDbEntity
  8
0
100
AcDbSpline
 62
7
  6
CONTINUOUS
 70
0
 71
3
 72
8
 73
4
 74
0
 42
0.0000001
 43
0.0000001
 44
0.0000000001
 40
0.0
 40
0.0
 40
0.0
 40
0.0
 40
1.0
 40
1.0
 40
1.0
 40
1.0
 10
190.0043390177
 20
134.0041439925
 30
0.0
 10
190.1814942942
 20
135.3791191804
 30
0.0
 10
190.3583527945
 20
136.754132632
 30
0.0
 10
190.5349437141
 20
138.1291804153
 30
0.0
  0
LINE
  5
47A
100
AcDbEntity
  8
0
100
AcDbLine
 62
7
  6
CONTINUOUS
 10
190.5349437141
 20
138.1291804153
 11
190.6472746763
 21
139.0041439925
  0
SPLINE
  5
47B
100
AcDbEntity
  8
0
100
AcDbSpline
 62
7
  6
CONTINUOUS
 70
0
 71
3
 72
8
 73
4
 74
0
 42
0.0000001
 43
0.0000001
 44
0.0000000001
 40
0.0
 40
0.0
 40
0.0
 40
0.0
 40
1.0
 40
1.0
 40
1.0
 40
1.0
 10
189.27023
 20
134.0041439925
 30
0.0
 10
189.4177883584
 20
135.1293798568
 30
0.0
 10
189.5650603747
 20
136.2546533015
 30
0.0
 10
189.7120708601
 20
137.3799608757
 30
0.0
  0
LINE
  5
47C
100
AcDbEntity
  8
0
100
AcDbLine
 62
7
  6
CONTINUOUS
 10
189.7120708601
 20
137.3799608757
 11
189.7157857434
 21
137.4083972834
  0
LINE
  5
47D
100
AcDbEntity
  8
0
100
AcDbLine
 62
7
  6
CONTINUOUS
 10
190.9949999171
 20
138.5041439925
 11
190.4942652074
 21
134.5041439925
  0
LINE
  5
47E
100
AcDbEntity
  8
0
100
AcDbLine
 62
7
  6
CONTINUOUS
 10
190.1506790478
 20
138.2594632302
 11
190.0384571184
 21
137.4083992038
  0
LINE
  5
47F
100
AcDbEntity
  8
0
100
AcDbLine
 62
7
  6
CONTINUOUS
 10
189.6071324485
 20
138.2594632302
 11
189.4943270946
 21
137.4083992038
  0
SPLINE
  5
480
100
AcDbEntity
  8
0
100
AcDbSpline
 62
7
  6
CONTINUOUS
 70
0
 71
3
 72
8
 73
4
 74
0
 42
0.0000001
 43
0.0000001
 44
0.0000000001
 40
0.0
 40
0.0
 40
0.0
 40
0.0
 40
1.0
 40
1.0
 40
1.0
 40
1.0
 10
190.3488989975
 20
138.1530802642
 30
0.0
 10
190.1691095451
 20
136.7700545191
 30
0.0
 10
189.9889720781
 20
135.3870739601
 30
0.0
 10
189.8084473887
 20
134.0041439925
 30
0.0
  0
SPLINE
  5
481
100
AcDbEntity
  8
0
100
AcDbSpline
 62
7
  6
CONTINUOUS
 70
0
 71
3
 72
10
 73
6
 74
0
 42
0.0000001
 43
0.0000001
 44
0.0000000001
 40
0.0
 40
0.0
 40
0.0
 40
0.0
 40
0.2421591119
 40
0.4897674628
 40
1.0
 40
1.0
 40
1.0
 40
1.0
 10
167.9326227439
 20
136.5041439925
 30
0.0
 10
168.1009156673
 20
137.6377208706
 30
0.0
 10
168.3851219416
 20
139.9389718825
 30
0.0
 10
168.7760425276
 20
144.6560280134
 30
0.0
 10
168.8870149035
 20
148.2437519879
 30
0.0
 10
168.8989150821
 20
150.6583630266
 30
0.0
  0
SPLINE
  5
482
100
AcDbEntity
  8
0
100
AcDbSpline
 62
7
  6
CONTINUOUS
 70
0
 71
3
 72
10
 73
6
 74
0
 42
0.0000001
 43
0.0000001
 44
0.0000000001
 40
0.0
 40
0.0
 40
0.0
 40
0.0
 40
0.5102326819
 40
0.7578410222
 40
1.0
 40
1.0
 40
1.0
 40
1.0
 10
180.9427399298
 20
150.6583630266
 30
0.0
 10
180.9546401118
 20
148.2437513034
 30
0.0
 10
181.0656125729
 20
144.6560266956
 30
0.0
 10
181.4565331928
 20
139.9389705673
 30
0.0
 10
181.7407394378
 20
137.6377202426
 30
0.0
 10
181.9090322681
 20
136.5041439925
 30
0.0
  0
ELLIPSE
  5
483
100
AcDbEntity
  8
0
100
AcDbEllipse
 62
7
  6
CONTINUOUS
 10
174.920827506
 20
146.5309468955
 30
0.0
 11
0.0
 21
39.50063736
 31
0.0
 40
0.4232691832
 41
-1.8666366462
 42
-1.8576392311
  0
ELLIPSE
  5
484
100
AcDbEntity
  8
0
100
AcDbEllipse
 62
7
  6
CONTINUOUS
 10
174.920827506
 20
137.8611969153
 30
0.0
 11
0.0
 21
18.5456909216
 31
0.0
 40
0.8727005454
 41
-1.7341814853
 42
-1.72488657
  0
ELLIPSE
  5
485
100
AcDbEntity
  8
0
100
AcDbEllipse
 62
7
  6
CONTINUOUS
 10
174.920827506
 20
136.2693453522
 30
0.0
 11
16.0790201538
 21
0.0
 31
0.0
 40
0.7597679024
 41
-0.1309358918
 42
-0.1168948921
  0
ELLIPSE
  5
486
100
AcDbEntity
  8
0
100
AcDbEllipse
 62
7
  6
CONTINUOUS
 10
174.920827506
 20
135.1866203363
 30
0.0
 11
15.9986865329
 21
-0.0
 31
0.0
 40
0.3786569462
 41
-0.0987687287
 42
-0.0846607569
  0
ELLIPSE
  5
487
100
AcDbEntity
  8
0
100
AcDbEllipse
 62
7
  6
CONTINUOUS
 10
174.920827506
 20
134.8175910998
 30
0.0
 11
15.9664040673
 21
-0.0
 31
0.0
 40
0.1891760241
 41
-0.1039617668
 42
-0.0756701699
  0
ELLIPSE
  5
488
100
AcDbEntity
  8
0
100
AcDbEllipse
 62
7
  6
CONTINUOUS
 10
174.920827506
 20
137.1103693945
 30
0.0
 11
16.2339948457
 21
-0.0
 31
0.0
 40
0.378656913
 41
-0.0086275663
 42
-0.0072565912
  0
ELLIPSE
  5
489
100
AcDbEntity
  8
0
100
AcDbEllipse
 62
7
  6
CONTINUOUS
 10
174.920827506
 20
137.7382151477
 30
0.0
 11
16.2581084298
 21
-0.0
 31
0.0
 40
0.7597678353
 41
-0.0689556818
 42
-0.0551492558
  0
ELLIPSE
  5
48A
100
AcDbEntity
  8
0
100
AcDbEllipse
 62
7
  6
CONTINUOUS
 10
174.920827506
 20
139.0472157179
 30
0.0
 11
0.0
 21
18.7104841719
 31
0.0
 40
0.8727007012
 41
-1.6956660344
 42
-1.6865026032
  0
ELLIPSE
  5
48B
100
AcDbEntity
  8
0
100
AcDbEllipse
 62
7
  6
CONTINUOUS
 10
174.920827506
 20
147.2072920421
 30
0.0
 11
-0.0
 21
39.6885855615
 31
0.0
 40
0.4232692636
 41
-1.8471970636
 42
-1.8382923665
  0
ELLIPSE
  5
48C
100
AcDbEntity
  8
0
100
AcDbEllipse
 62
7
  6
CONTINUOUS
 10
174.920827506
 20
435.2480259943
 30
0.0
 11
-0.0
 21
359.2043828506
 31
0.0
 40
0.081107749
 41
-2.5561347617
 42
-2.5535671099
  0
ELLIPSE
  5
48D
100
AcDbEntity
  8
0
100
AcDbEllipse
 62
7
  6
CONTINUOUS
 10
174.920827506
 20
435.8057064411
 30
0.0
 11
0.0
 21
359.6692348825
 31
0.0
 40
0.0811078111
 41
-2.5595695566
 42
-2.5569919113
  0
ELLIPSE
  5
48E
100
AcDbEntity
  8
0
100
AcDbEllipse
 62
7
  6
CONTINUOUS
 10
174.920827506
 20
141.5279489288
 30
0.0
 11
0.0
 21
25.4068828986
 31
0.0
 40
0.6494957509
 41
4.5660541908
 42
4.5795848126
  0
ELLIPSE
  5
48F
100
AcDbEntity
  8
0
100
AcDbEllipse
 62
7
  6
CONTINUOUS
 10
174.920827506
 20
138.8688521478
 30
0.0
 11
16.3771003744
 21
0.0
 31
0.0
 40
0.8557232455
 41
-0.0503366738
 42
-0.0321024172
  0
ELLIPSE
  5
490
100
AcDbEntity
  8
0
100
AcDbEllipse
 62
7
  6
CONTINUOUS
 10
174.920827506
 20
138.252912742
 30
0.0
 11
16.3850082979
 21
0.0
 31
0.0
 40
0.227037969
 41
0.0446718532
 42
0.0675863804
  0
ELLIPSE
  5
491
100
AcDbEntity
  8
0
100
AcDbEllipse
 62
7
  6
CONTINUOUS
 10
174.920827506
 20
136.74820466
 30
0.0
 11
16.2008294882
 21
0.0
 31
0.0
 40
0.227037969
 41
-0.1245198311
 42
-0.1012330887
  0
ELLIPSE
  5
492
100
AcDbEntity
  8
0
100
AcDbEllipse
 62
7
  6
CONTINUOUS
 10
174.920827506
 20
138.8473430589
 30
0.0
 11
16.374480949
 21
0.0
 31
0.0
 40
0.8557232455
 41
-0.1772653635
 42
-0.1587833939
  0
ELLIPSE
  5
493
100
AcDbEntity
  8
0
100
AcDbEllipse
 62
7
  6
CONTINUOUS
 10
174.920827506
 20
142.7226196682
 30
0.0
 11
-0.0
 21
25.6282142583
 31
0.0
 40
0.6494957509
 41
4.4724322732
 42
4.4860849398
  0
ELLIPSE
  5
494
100
AcDbEntity
  8
0
100
AcDbEllipse
 62
7
  6
CONTINUOUS
 10
174.920827506
 20
167.5845407291
 30
0.0
 11
-0.0
 21
68.027177601
 31
0.0
 40
0.2670115464
 41
-2.0375630118
 42
-2.0333646684
  0
ELLIPSE
  5
495
100
AcDbEntity
  8
0
100
AcDbEllipse
 62
7
  6
CONTINUOUS
 10
174.920827506
 20
163.1553291802
 30
0.0
 11
0.0
 21
66.1808699001
 31
0.0
 40
0.2670115464
 41
-1.9677684111
 42
-1.9635888585
  0
ELLIPSE
  5
496
100
AcDbEntity
  8
0
100
AcDbEllipse
 62
7
  6
CONTINUOUS
 10
174.920827506
 20
149.240909338
 30
0.0
 11
-0.0
 21
23.4813597131
 31
0.0
 40
0.7453659101
 41
-2.0989167921
 42
-2.0625778787
  0
ELLIPSE
  5
497
100
AcDbEntity
  8
0
100
AcDbEllipse
 62
7
  6
CONTINUOUS
 10
174.920827506
 20
150.0039113165
 30
0.0
 11
0.0
 21
22.9381561023
 31
0.0
 40
0.7453662165
 41
-2.1083135264
 42
-2.0709269556
  0
ELLIPSE
  5
498
100
AcDbEntity
  8
0
100
AcDbEllipse
 62
7
  6
CONTINUOUS
 10
174.920827506
 20
137.802160401
 30
0.0
 11
16.3186130404
 21
0.0
 31
0.0
 40
0.378656913
 41
0.0309712134
 42
0.0447543405
  0
ELLIPSE
  5
499
100
AcDbEntity
  8
0
100
AcDbEllipse
 62
7
  6
CONTINUOUS
 10
174.920827506
 20
139.1629170718
 30
0.0
 11
-0.0
 21
18.7265340069
 31
0.0
 40
0.8727019741
 41
-1.6423936267
 42
-1.6332837413
  0
ELLIPSE
  5
49A
100
AcDbEntity
  8
0
100
AcDbEllipse
 62
7
  6
CONTINUOUS
 10
174.920827506
 20
161.3012428891
 30
0.0
 11
0.0
 21
65.4079978529
 31
0.0
 40
0.2670115464
 41
-1.9421204684
 42
-1.9379348942
  0
ELLIPSE
  5
49B
100
AcDbEntity
  8
0
100
AcDbEllipse
 62
7
  6
CONTINUOUS
 10
174.920827506
 20
169.541631716
 30
0.0
 11
0.0
 21
68.8429869432
 31
0.0
 40
0.2670115464
 41
-2.0621962741
 42
-2.0579945332
  0
ELLIPSE
  5
49C
100
AcDbEntity
  8
0
100
AcDbEllipse
 62
7
  6
CONTINUOUS
 10
174.920827506
 20
140.9564086507
 30
0.0
 11
-0.0
 21
18.9757380726
 31
0.0
 40
0.8727019741
 41
-1.7869217274
 42
-1.7777471671
  0
ELLIPSE
  5
49D
100
AcDbEntity
  8
0
100
AcDbEllipse
 62
7
  6
CONTINUOUS
 10
174.920827506
 20
137.6505351635
 30
0.0
 11
16.3000666098
 21
0.0
 31
0.0
 40
0.378656913
 41
-0.1379125574
 42
-0.1240045437
  0
ELLIPSE
  5
49E
100
AcDbEntity
  8
0
100
AcDbEllipse
 62
7
  6
CONTINUOUS
 10
174.920827506
 20
150.1149354648
 30
0.0
 11
0.0
 21
23.6230363984
 31
0.0
 40
0.7453662165
 41
-2.0965449236
 42
-2.0604691045
  0
ENDSEC
  0
SECTION
  2
OBJECTS
  0
DICTIONARY
  5
C
100
AcDbDictionary
280
0
281
1
  3
ACAD_GROUP
350
D
  3
ACAD_MLINESTYLE
350
17
  3
ACAD_LAYOUT
350
1A
  3
ACAD_PLOTSETTINGS
350
19
  3
ACAD_PLOTSTYLENAME
350
E
  0
DICTIONARY
  5
D
102
{ACAD_REACTORS
330
C
102
}
100
AcDbDictionary
280
0
281
1
  0
ACDBDICTIONARYWDFLT
  5
E
102
{ACAD_REACTORS
330
C
102
}
100
AcDbDictionary
281
1
  3
Normal
350
F
100
AcDbDictionaryWithDefault
340
F
  0
DICTIONARY
  5
17
102
{ACAD_REACTORS
330
C
102
}
100
AcDbDictionary
280
0
281
1
  3
Standard
350
18
  0
DICTIONARY
  5
19
102
{ACAD_REACTORS
330
C
102
}
100
AcDbDictionary
281
1
  0
DICTIONARY
  5
1A
102
{ACAD_REACTORS
330
C
102
}
100
AcDbDictionary
281
1
  3
Model
350
49F
  3
Layout1
350
4A0
  0
ACDBPLACEHOLDER
  5
F
102
{ACAD_REACTORS
330
E
102
}
  0
MLINESTYLE
  5
18
102
{ACAD_REACTORS
330
17
102
}
100
AcDbMlineStyle
  2
STANDARD
 70
0
  3

 62
256
 51
90.0
 52
90.0
 71
2
 49
0.5
 62
256
  6
BYLAYER
 49
-0.5
 62
256
  6
BYLAYER
  0
LAYOUT
  5
49F
102
{ACAD_REACTORS
330
1A
102
}
100
AcDbPlotSettings
  1

  2
none_device
  4
ISO_A4_(297.00_x_210.00_MM)
  6

 40
0.0
 41
0.0
 42
0.0
 43
0.0
 44
297.0
 45
210.0
 46
0.0
 47
0.0
 48
0.0
 49
0.0
140
0.0
141
0.0
142
1.0
143
1.0
 70
1024
 72
1
 73
0
 74
0
  7

 75
0
147
1.0
148
0.0
149
0.0
100
AcDbLayout
  1
Model
 70
0
 71
0
 10
0.0
 20
0.0
 11
297.0
 21
210.0
 12
0.0
 22
0.0
 32
0.0
 14
0.0
 24
0.0
 34
0.0
 15
0.0
 25
0.0
 35
0.0
146
0.0
 13
0.0
 23
0.0
 33
0.0
 16
1.0
 26
0.0
 36
0.0
 17
0.0
 27
1.0
 37
0.0
 76
0
330
210
345
0
346
0
  0
LAYOUT
  5
4A0
102
{ACAD_REACTORS
330
1A
102
}
100
AcDbPlotSettings
  1

  2
none_device
  4
ISO_A4_(297.00_x_210.00_MM)
  6

 40
0.0
 41
0.0
 42
0.0
 43
0.0
 44
297.0
 45
210.0
 46
0.0
 47
0.0
 48
0.0
 49
0.0
140
0.0
141
0.0
142
1.0
143
1.0
 70
0
 72
1
 73
0
 74
0
  7

 75
0
147
1.0
148
0.0
149
0.0
100
AcDbLayout
  1
Layout1
 70
0
 71
1
 10
0.0
 20
0.0
 11
297.0
 21
210.0
 12
0.0
 22
0.0
 32
0.0
 14
0.0
 24
0.0
 34
0.0
 15
0.0
 25
0.0
 35
0.0
146
0.0
 13
0.0
 23
0.0
 33
0.0
 16
1.0
 26
0.0
 36
0.0
 17
0.0
 27
1.0
 37
0.0
 76
0
330
211
345
0
346
0
  0
ENDSEC
  0
EOF
