999
DXF file: ICE-CURT-K-8-GAKO_7904449_M34852-P-1.dxf
999
Pro/ENGINEER 2010140 by Parametric Technology Corporation
  0
SECTION
  2
HEADER
  9
$ACADVER
  1
AC1015
  9
$DWGCODEPAGE
  3
ANSI_1252
  9
$EXTMAX
 10
594.0
 20
420.0
 30
0.0
  9
$EXTMIN
 10
0.0
 20
0.0
 30
0.0
  9
$LIMMIN
 10
0.0
 20
0.0
  9
$LIMMAX
 10
594.0
 20
420.0
  9
$VIEWCTR
 10
297.0
 20
210.0
  9
$VIEWSIZE
 40
420.0
  9
$CLAYER
  8
0
  9
$LTSCALE
 40
32.67
  9
$CELTYPE
  6
BYLAYER
  9
$DIMSCALE
 40
1.0
  9
$DIMASZ
 40
3.5
  9
$DIMEXO
 40
3.7125
  9
$DIMDLI
 40
22.572
  9
$DIMEXE
 40
10.692
  9
$DIMCEN
 40
5.346
  9
$DIMLFAC
 40
1.0
  9
$DIMBLK
  1
_FILLED
  9
$DIMTXT
 40
3.5
  9
$DIMTOL
 70
1
  9
$DIMLIM
 70
0
  9
$DIMTFAC
 40
1.0
  9
$DIMTP
 40
0.005
  9
$DIMTM
 40
0.005
  9
$PDMODE
 70
3
  9
$PDSIZE
 40
0.3125
  9
$HANDSEED
  5
48C
  9
$TILEMODE
 70
1
  9
$MEASUREMENT
 70
1
  9
$INSUNITS
 70
4
  0
ENDSEC
  0
SECTION
  2
CLASSES
  0
CLASS
  1
ACDBDICTIONARYWDFLT
  2
AcDbDictionaryWithDefault
  3
AutoCAD 2000
 90
0
280
0
281
0
  0
CLASS
  1
ACDBPLACEHOLDER
  2
AcDbPlaceHolder
  3
AutoCAD 2000
 90
0
280
0
281
0
  0
CLASS
  1
LAYOUT
  2
AcDbLayout
  3
AutoCAD 2000
 90
0
280
0
281
0
  0
ENDSEC
  0
SECTION
  2
TABLES
  0
TABLE
  2
VPORT
  5
8
100
AcDbSymbolTable
 70
2
  0
VPORT
  5
1F4
100
AcDbSymbolTableRecord
100
AcDbViewportTableRecord
  2
*ACTIVE
 70
0
 10
0.0
 20
0.0
 11
1.0
 21
1.0
 12
297.0
 22
210.0
 13
0.0
 23
0.0
 14
1.0
 24
1.0
 15
0.0
 25
0.0
 16
0.0
 26
0.0
 36
1.0
 17
0.0
 27
0.0
 37
0.0
 40
420.0
 41
1.4142857143
 42
50.0
 43
0.0
 44
0.0
 50
0.0
 51
0.0
 71
0
 72
100
 73
1
 74
1
 75
0
 76
0
 77
0
 78
0
  0
ENDTAB
  0
TABLE
  2
LTYPE
  5
5
100
AcDbSymbolTable
 70
6
  0
LTYPE
  5
14
100
AcDbSymbolTableRecord
100
AcDbLinetypeTableRecord
  2
BYBLOCK
 70
0
  3

 72
65
 73
0
 40
0.0
  0
LTYPE
  5
15
100
AcDbSymbolTableRecord
100
AcDbLinetypeTableRecord
  2
BYLAYER
 70
0
  3

 72
65
 73
0
 40
0.0
  0
LTYPE
  5
16
100
AcDbSymbolTableRecord
100
AcDbLinetypeTableRecord
  2
CONTINUOUS
 70
64
  3
Solid line
 72
65
 73
0
 40
0.0
  0
LTYPE
  5
1F5
100
AcDbSymbolTableRecord
100
AcDbLinetypeTableRecord
  2
CENTER
 70
64
  3
____ _ ____ _ ____ _ ____ _ ____ _ ____ _ ____
 72
65
 73
4
 40
0.6
 49
0.375
 74
0
 49
-0.075
 74
0
 49
0.075
 74
0
 49
-0.075
 74
0
  0
LTYPE
  5
1F6
100
AcDbSymbolTableRecord
100
AcDbLinetypeTableRecord
  2
HIDDEN
 70
64
  3
- - - - - - - - - - - - - - - - - - - -
 72
65
 73
2
 40
0.2
 49
0.1
 74
0
 49
-0.1
 74
0
  0
LTYPE
  5
1F7
100
AcDbSymbolTableRecord
100
AcDbLinetypeTableRecord
  2
PHANTOM
 70
64
  3
_____ _ _ _____ _ _ _____ _ _ _____
 72
65
 73
6
 40
0.8
 49
0.45
 74
0
 49
-0.05
 74
0
 49
0.1
 74
0
 49
-0.05
 74
0
 49
0.1
 74
0
 49
-0.05
 74
0
  0
LTYPE
  5
1F8
100
AcDbSymbolTableRecord
100
AcDbLinetypeTableRecord
  2
DOT
 70
64
  3
. . . . . . . . . . . . . . . . . . . .
 72
65
 73
2
 40
0.2
 49
0.1
 74
0
 49
-0.1
 74
0
  0
LTYPE
  5
1F9
100
AcDbSymbolTableRecord
100
AcDbLinetypeTableRecord
  2
DASHED
 70
64
  3
- - - - - - - - - - - - - - - - - - - -
 72
65
 73
2
 40
0.2
 49
0.1
 74
0
 49
-0.1
 74
0
  0
ENDTAB
  0
TABLE
  2
LAYER
  5
2
100
AcDbSymbolTable
 70
36
  0
LAYER
  5
10
100
AcDbSymbolTableRecord
100
AcDbLayerTableRecord
  2
0
 70
0
 62
7
  6
CONTINUOUS
370
-3
390
F
  0
LAYER
  5
1FA
100
AcDbSymbolTableRecord
100
AcDbLayerTableRecord
  2
DEFAULT_1
 70
0
 62
7
  6
CENTER
370
-3
390
F
  0
LAYER
  5
1FB
100
AcDbSymbolTableRecord
100
AcDbLayerTableRecord
  2
DEFAULT_2
 70
0
 62
8
  6
HIDDEN
370
-3
390
F
  0
LAYER
  5
1FC
100
AcDbSymbolTableRecord
100
AcDbLayerTableRecord
  2
DEFAULT_3
 70
0
 62
7
  6
PHANTOM
370
-3
390
F
  0
LAYER
  5
1FD
100
AcDbSymbolTableRecord
100
AcDbLayerTableRecord
  2
AUSFORMSCHRAEGEN
 70
0
 62
7
  6
CONTINUOUS
370
-3
390
F
  0
LAYER
  5
1FE
100
AcDbSymbolTableRecord
100
AcDbLayerTableRecord
  2
BEZUGSACHSEN
 70
0
 62
7
  6
CONTINUOUS
370
-3
390
F
  0
LAYER
  5
1FF
100
AcDbSymbolTableRecord
100
AcDbLayerTableRecord
  2
BEZUGSEBENEN
 70
0
 62
7
  6
CONTINUOUS
370
-3
390
F
  0
LAYER
  5
200
100
AcDbSymbolTableRecord
100
AcDbLayerTableRecord
  2
BG_STARTBEZUEGE
 70
0
 62
7
  6
CONTINUOUS
370
-3
390
F
  0
LAYER
  5
201
100
AcDbSymbolTableRecord
100
AcDbLayerTableRecord
  2
FASEN
 70
0
 62
7
  6
CONTINUOUS
370
-3
390
F
  0
LAYER
  5
202
100
AcDbSymbolTableRecord
100
AcDbLayerTableRecord
  2
FLAECHEN
 70
0
 62
7
  6
CONTINUOUS
370
-3
390
F
  0
LAYER
  5
203
100
AcDbSymbolTableRecord
100
AcDbLayerTableRecord
  2
FLAECHENVERBUND
 70
0
 62
7
  6
CONTINUOUS
370
-3
390
F
  0
LAYER
  5
204
100
AcDbSymbolTableRecord
100
AcDbLayerTableRecord
  2
HILFEN
 70
0
 62
7
  6
CONTINUOUS
370
-3
390
F
  0
LAYER
  5
205
100
AcDbSymbolTableRecord
100
AcDbLayerTableRecord
  2
KONSTRUKTIONSELEMENTE
 70
0
 62
7
  6
CONTINUOUS
370
-3
390
F
  0
LAYER
  5
206
100
AcDbSymbolTableRecord
100
AcDbLayerTableRecord
  2
KURVEN
 70
0
 62
7
  6
CONTINUOUS
370
-3
390
F
  0
LAYER
  5
207
100
AcDbSymbolTableRecord
100
AcDbLayerTableRecord
  2
NORM
 70
0
 62
7
  6
CONTINUOUS
370
-3
390
F
  0
LAYER
  5
208
100
AcDbSymbolTableRecord
100
AcDbLayerTableRecord
  2
PLATZIERUNG
 70
0
 62
7
  6
CONTINUOUS
370
-3
390
F
  0
LAYER
  5
209
100
AcDbSymbolTableRecord
100
AcDbLayerTableRecord
  2
RUNDUNGEN
 70
0
 62
7
  6
CONTINUOUS
370
-3
390
F
  0
LAYER
  5
20A
100
AcDbSymbolTableRecord
100
AcDbLayerTableRecord
  2
TEIL_STARTBEZUEGE
 70
0
 62
7
  6
CONTINUOUS
370
-3
390
F
  0
LAYER
  5
20B
100
AcDbSymbolTableRecord
100
AcDbLayerTableRecord
  2
T_STARTBEZUEGE
 70
0
 62
7
  6
CONTINUOUS
370
-3
390
F
  0
LAYER
  5
20C
100
AcDbSymbolTableRecord
100
AcDbLayerTableRecord
  2
ZEICHNUNGSBEMASSUNGEN
 70
0
 62
7
  6
CONTINUOUS
370
-3
390
F
  0
ENDTAB
  0
TABLE
  2
STYLE
  5
3
100
AcDbSymbolTable
 70
1
  0
STYLE
  5
11
100
AcDbSymbolTableRecord
100
AcDbTextStyleTableRecord
  2
STANDARD
 70
0
 40
0.0
 41
0.7
 50
0.0
 71
0
 42
0.2
  3
txt
  4

  0
STYLE
  5
20D
100
AcDbSymbolTableRecord
100
AcDbTextStyleTableRecord
  2
TEXTSTYLE_1
 70
0
 40
0.0
 41
0.8
 50
0.0
 71
0
 42
0.2
  3
gdt
  4

  0
ENDTAB
  0
TABLE
  2
VIEW
  5
6
100
AcDbSymbolTable
 70
0
  0
ENDTAB
  0
TABLE
  2
UCS
  5
7
100
AcDbSymbolTable
 70
0
  0
ENDTAB
  0
TABLE
  2
APPID
  5
9
100
AcDbSymbolTable
 70
1
  0
APPID
  5
20E
100
AcDbSymbolTableRecord
100
AcDbRegAppTableRecord
  2
ACAD
 70
0
  0
ENDTAB
  0
TABLE
  2
BLOCK_RECORD
  5
1
100
AcDbSymbolTable
 70
0
  0
BLOCK_RECORD
  5
20F
100
AcDbSymbolTableRecord
100
AcDbBlockTableRecord
  2
*Model_Space
  0
BLOCK_RECORD
  5
210
100
AcDbSymbolTableRecord
100
AcDbBlockTableRecord
  2
*Paper_Space
  0
ENDTAB
  0
TABLE
  2
DIMSTYLE
  5
A
100
AcDbSymbolTable
 70
1
100
AcDbDimStyleTable
 71
0
  0
DIMSTYLE
105
211
100
AcDbSymbolTableRecord
100
AcDbDimStyleTableRecord
  2
STANDARD
 70
0
  3

  4

 40
1.0
 41
3.5
 42
0.0625
 43
0.38
 44
0.18
 45
0.0
 46
0.0
 47
0.005
 48
0.005
140
3.5
141
0.09
142
0.0
143
25.4
144
1.0
145
0.0
146
1.0
147
0.09
 71
1.0
 72
0.0
 73
0
 74
0
 75
0
 76
0
 77
1
 78
8
170
0
171
2
172
0
173
0
174
0
175
0
176
0
177
0
178
5
270
2
271
3
272
3
273
2
274
2
275
0
280
0
281
0
282
0
283
1
284
8
285
0
286
0
287
3
288
0
340
11
  0
ENDTAB
  0
ENDSEC
  0
SECTION
  2
BLOCKS
  0
BLOCK
  5
20
100
AcDbEntity
  8
0
100
AcDbBlockBegin
  2
*Model_Space
 70
0
 10
0.0
 20
0.0
 30
0.0
  3
*Model_Space
  1

  0
ENDBLK
  5
21
100
AcDbEntity
  8
0
100
AcDbBlockEnd
  0
BLOCK
  5
1C
100
AcDbEntity
  8
0
100
AcDbBlockBegin
  2
*Paper_Space
 70
0
 10
0.0
 20
0.0
 30
0.0
  3
*Paper_Space
  1

  0
ENDBLK
  5
1D
100
AcDbEntity
  8
0
100
AcDbBlockEnd
  0
ENDSEC
  0
SECTION
  2
ENTITIES
  0
MTEXT
  5
212
100
AcDbEntity
  8
0
100
AcDbMText
 62
5
  6
CONTINUOUS
  7
STANDARD
 71
2
 72
1
 10
257.7771890356
 20
311.8766424324
 30
0.0
 11
1.0
 21
0.0
 31
0.0
 44
0.9
  1
RUD\PICE\PCURT-K\P8
 40
5.0
 41
23.8095238095
  0
MTEXT
  5
213
100
AcDbEntity
  8
0
100
AcDbMText
 62
5
  6
CONTINUOUS
  7
STANDARD
 71
1
 72
1
 10
554.9346862097
 20
248.2895681643
 30
0.0
 11
0.0
 21
1.0
 31
0.0
 44
0.9
  1
RUD
 40
5.0
 41
13.3333333333
  0
MTEXT
  5
214
100
AcDbEntity
  8
0
100
AcDbMText
 62
5
  6
CONTINUOUS
  7
STANDARD
 71
1
 72
1
 10
555.04445706
 20
324.7420065772
 30
0.0
 11
0.0
 21
1.0
 31
0.0
 44
0.9
  1
ICE-CURT-K-8
 40
5.0
 41
46.7857142857
  0
MTEXT
  5
215
100
AcDbEntity
  8
0
100
AcDbMText
 62
5
  6
CONTINUOUS
  7
STANDARD
 71
1
 72
1
 10
291.4613144635
 20
90.2775872908
 30
0.0
 11
1.0
 21
0.0
 31
0.0
 44
0.9
  1
RUD ICE-CURT-K-8
 40
5.0
 41
63.0952380952
  0
LINE
  5
216
100
AcDbEntity
  8
0
100
AcDbLine
 62
7
  6
CONTINUOUS
 10
0.0
 20
0.0
 11
0.0
 21
420.0
  0
LINE
  5
217
100
AcDbEntity
  8
0
100
AcDbLine
 62
7
  6
CONTINUOUS
 10
0.0
 20
0.0
 11
594.0
 21
0.0
  0
LINE
  5
218
100
AcDbEntity
  8
0
100
AcDbLine
 62
7
  6
CONTINUOUS
 10
0.0
 20
420.0
 11
594.0
 21
420.0
  0
LINE
  5
219
100
AcDbEntity
  8
0
100
AcDbLine
 62
7
  6
CONTINUOUS
 10
594.0
 20
0.0
 11
594.0
 21
420.0
  0
LINE
  5
21A
100
AcDbEntity
  8
0
100
AcDbLine
 62
7
  6
CONTINUOUS
 10
17.5789855763
 20
311.670557344
 11
17.5789855763
 21
309.1318176831
  0
LINE
  5
21B
100
AcDbEntity
  8
BEZUGSACHSEN
100
AcDbLine
 62
7
  6
CONTINUOUS
 10
17.5789855763
 20
287.1375002351
 11
17.5789855763
 21
284.5987605742
  0
LINE
  5
21C
100
AcDbEntity
  8
BEZUGSACHSEN
100
AcDbLine
 62
7
  6
CONTINUOUS
 10
24.0789855763
 20
303.1846589591
 11
24.0789855763
 21
293.0846589591
  0
LINE
  5
21D
100
AcDbEntity
  8
BEZUGSACHSEN
100
AcDbLine
 62
7
  6
CONTINUOUS
 10
35.0789855763
 20
303.1846589591
 11
35.0789855763
 21
293.0846589591
  0
LINE
  5
21E
100
AcDbEntity
  8
0
100
AcDbLine
 62
7
  6
CONTINUOUS
 10
35.8081522628
 20
286.6346589591
 11
35.8081522628
 21
281.6346589591
  0
LINE
  5
21F
100
AcDbEntity
  8
0
100
AcDbLine
 62
7
  6
CONTINUOUS
 10
36.4331522628
 20
281.6346589591
 11
36.4331522628
 21
283.868701544
  0
LINE
  5
220
100
AcDbEntity
  8
0
100
AcDbLine
 62
7
  6
CONTINUOUS
 10
36.4331522628
 20
284.5069993403
 11
36.4331522628
 21
286.1027441289
  0
LINE
  5
221
100
AcDbEntity
  8
0
100
AcDbLine
 62
7
  6
CONTINUOUS
 10
39.0373188301
 20
285.4644463326
 11
39.0373188301
 21
285.1452971365
  0
LINE
  5
222
100
AcDbEntity
  8
0
100
AcDbLine
 62
7
  6
CONTINUOUS
 10
39.6623188301
 20
285.0389141705
 11
39.6623188301
 21
285.4644463326
  0
LINE
  5
223
100
AcDbEntity
  8
0
100
AcDbLine
 62
7
  6
CONTINUOUS
 10
40.5998188301
 20
286.6346589591
 11
40.5998188301
 21
283.3367865648
  0
LINE
  5
224
100
AcDbEntity
  8
0
100
AcDbLine
 62
7
  6
CONTINUOUS
 10
41.2248191282
 20
283.3367865648
 11
41.2248191282
 21
286.6346589591
  0
LINE
  5
225
100
AcDbEntity
  8
0
100
AcDbLine
 62
7
  6
CONTINUOUS
 10
43.7248191282
 20
286.6346589591
 11
43.7248191282
 21
283.3367865648
  0
LINE
  5
226
100
AcDbEntity
  8
0
100
AcDbLine
 62
7
  6
CONTINUOUS
 10
44.3498191282
 20
283.3367865648
 11
44.3498191282
 21
286.6346589591
  0
LINE
  5
227
100
AcDbEntity
  8
0
100
AcDbLine
 62
7
  6
CONTINUOUS
 10
45.1831522628
 20
286.6346589591
 11
45.1831522628
 21
281.6346589591
  0
LINE
  5
228
100
AcDbEntity
  8
0
100
AcDbLine
 62
7
  6
CONTINUOUS
 10
45.8081522628
 20
282.2729568299
 11
45.8081522628
 21
285.9963611629
  0
LINE
  5
229
100
AcDbEntity
  8
0
100
AcDbLine
 62
7
  6
CONTINUOUS
 10
48.7248185321
 20
284.9325312044
 11
48.7248185321
 21
283.3367865648
  0
LINE
  5
22A
100
AcDbEntity
  8
0
100
AcDbLine
 62
7
  6
CONTINUOUS
 10
49.3498185321
 20
283.3367865648
 11
49.3498185321
 21
284.9325312044
  0
LINE
  5
22B
100
AcDbEntity
  8
0
100
AcDbLine
 62
7
  6
CONTINUOUS
 10
17.8469347687
 20
312.670557344
 11
20.7129601725
 21
317.6346589591
  0
LINE
  5
22C
100
AcDbEntity
  8
BEZUGSACHSEN
100
AcDbLine
 62
7
  6
CONTINUOUS
 10
20.7129601725
 20
278.6346589591
 11
17.8469347687
 21
283.5987605742
  0
LINE
  5
22D
100
AcDbEntity
  8
0
100
AcDbLine
 62
7
  6
CONTINUOUS
 10
39.7664856955
 20
281.6346589591
 11
38.8289856955
 21
284.0814674761
  0
LINE
  5
22E
100
AcDbEntity
  8
0
100
AcDbLine
 62
7
  6
CONTINUOUS
 10
38.2039855465
 20
283.868701544
 11
39.0373188301
 21
281.6346589591
  0
LINE
  5
22F
100
AcDbEntity
  8
0
100
AcDbLine
 62
7
  6
CONTINUOUS
 10
38.9331522628
 20
285.7835952308
 11
39.0373188301
 21
285.4644463326
  0
LINE
  5
230
100
AcDbEntity
  8
0
100
AcDbLine
 62
7
  6
CONTINUOUS
 10
39.6623188301
 20
285.4644463326
 11
39.5581522628
 21
285.7835952308
  0
LINE
  5
231
100
AcDbEntity
  8
0
100
AcDbLine
 62
7
  6
CONTINUOUS
 10
41.3289853975
 20
282.9112547006
 11
41.2248191282
 21
283.3367865648
  0
LINE
  5
232
100
AcDbEntity
  8
0
100
AcDbLine
 62
7
  6
CONTINUOUS
 10
40.5998188301
 20
283.3367865648
 11
40.7039856955
 21
282.8048717346
  0
LINE
  5
233
100
AcDbEntity
  8
RUNDUNGEN
100
AcDbLine
 62
7
  6
CONTINUOUS
 10
57.5789855763
 20
317.1346589591
 11
57.5789855763
 21
302.929407162
  0
LINE
  5
234
100
AcDbEntity
  8
RUNDUNGEN
100
AcDbLine
 62
7
  6
CONTINUOUS
 10
57.5789855763
 20
293.339905248
 11
57.5789855763
 21
279.1346589591
  0
LINE
  5
235
100
AcDbEntity
  8
0
100
AcDbLine
 62
7
  6
CONTINUOUS
 10
44.2456522628
 20
282.8048717346
 11
44.3498191282
 21
283.3367865648
  0
LINE
  5
236
100
AcDbEntity
  8
0
100
AcDbLine
 62
7
  6
CONTINUOUS
 10
49.2456522628
 20
282.8048717346
 11
49.3498185321
 21
283.3367865648
  0
LINE
  5
237
100
AcDbEntity
  8
0
100
AcDbLine
 62
7
  6
CONTINUOUS
 10
43.7248191282
 20
283.3367865648
 11
43.6206522628
 21
282.9112547006
  0
LINE
  5
238
100
AcDbEntity
  8
0
100
AcDbLine
 62
7
  6
CONTINUOUS
 10
48.7248185321
 20
283.3367865648
 11
48.6206522628
 21
282.9112547006
  0
LINE
  5
239
100
AcDbEntity
  8
0
100
AcDbLine
 62
7
  6
CONTINUOUS
 10
39.0373188301
 20
285.1452971365
 11
38.9331522628
 21
284.8261482384
  0
LINE
  5
23A
100
AcDbEntity
  8
0
100
AcDbLine
 62
7
  6
CONTINUOUS
 10
39.5581522628
 20
284.7197652723
 11
39.6623188301
 21
285.0389141705
  0
LINE
  5
23B
100
AcDbEntity
  8
0
100
AcDbLine
 62
7
  6
CONTINUOUS
 10
40.7039856955
 20
282.8048717346
 11
40.9123191282
 21
282.3793397959
  0
LINE
  5
23C
100
AcDbEntity
  8
0
100
AcDbLine
 62
7
  6
CONTINUOUS
 10
49.2456522628
 20
285.4644463326
 11
49.0373185321
 21
285.8899781968
  0
LINE
  5
23D
100
AcDbEntity
  8
0
100
AcDbLine
 62
7
  6
CONTINUOUS
 10
48.6206522628
 20
285.3580630686
 11
48.7248185321
 21
284.9325312044
  0
LINE
  5
23E
100
AcDbEntity
  8
0
100
AcDbLine
 62
7
  6
CONTINUOUS
 10
49.3498185321
 20
284.9325312044
 11
49.2456522628
 21
285.4644463326
  0
LINE
  5
23F
100
AcDbEntity
  8
0
100
AcDbLine
 62
7
  6
CONTINUOUS
 10
44.0373191282
 20
282.3793397959
 11
44.2456522628
 21
282.8048717346
  0
LINE
  5
240
100
AcDbEntity
  8
0
100
AcDbLine
 62
7
  6
CONTINUOUS
 10
49.0373185321
 20
282.3793397959
 11
49.2456522628
 21
282.8048717346
  0
LINE
  5
241
100
AcDbEntity
  8
0
100
AcDbLine
 62
7
  6
CONTINUOUS
 10
39.5581522628
 20
285.7835952308
 11
39.2456522628
 21
286.2091270949
  0
LINE
  5
242
100
AcDbEntity
  8
0
100
AcDbLine
 62
7
  6
CONTINUOUS
 10
41.5373191282
 20
282.5921058025
 11
41.3289853975
 21
282.9112547006
  0
LINE
  5
243
100
AcDbEntity
  8
0
100
AcDbLine
 62
7
  6
CONTINUOUS
 10
48.4123185321
 20
285.6772122647
 11
48.6206522628
 21
285.3580630686
  0
LINE
  5
244
100
AcDbEntity
  8
RUNDUNGEN
100
AcDbLine
 62
7
  6
CONTINUOUS
 10
91.5789855763
 20
322.1346589063
 11
91.5789855763
 21
274.1346590119
  0
LINE
  5
245
100
AcDbEntity
  8
RUNDUNGEN
100
AcDbLine
 62
7
  6
CONTINUOUS
 10
98.5789855763
 20
272.6346589591
 11
98.5789855763
 21
323.6346589591
  0
LINE
  5
246
100
AcDbEntity
  8
0
100
AcDbLine
 62
7
  6
CONTINUOUS
 10
43.6206522628
 20
282.9112547006
 11
43.4123191282
 21
282.5921058025
  0
LINE
  5
247
100
AcDbEntity
  8
0
100
AcDbLine
 62
7
  6
CONTINUOUS
 10
48.6206522628
 20
282.9112547006
 11
48.4123185321
 21
282.5921058025
  0
LINE
  5
248
100
AcDbEntity
  8
0
100
AcDbLine
 62
7
  6
CONTINUOUS
 10
39.2456522628
 20
284.2942334082
 11
39.5581522628
 21
284.7197652723
  0
LINE
  5
249
100
AcDbEntity
  8
0
100
AcDbLine
 62
7
  6
CONTINUOUS
 10
40.9123191282
 20
282.3793397959
 11
41.3289853975
 21
281.9538078945
  0
LINE
  5
24A
100
AcDbEntity
  8
0
100
AcDbLine
 62
7
  6
CONTINUOUS
 10
38.7248188301
 20
285.9963611629
 11
38.9331522628
 21
285.7835952308
  0
LINE
  5
24B
100
AcDbEntity
  8
0
100
AcDbLine
 62
7
  6
CONTINUOUS
 10
49.0373185321
 20
285.8899781968
 11
48.6206522628
 21
286.315510061
  0
LINE
  5
24C
100
AcDbEntity
  8
0
100
AcDbLine
 62
7
  6
CONTINUOUS
 10
38.9331522628
 20
284.8261482384
 11
38.7248188301
 21
284.6133823063
  0
LINE
  5
24D
100
AcDbEntity
  8
0
100
AcDbLine
 62
7
  6
CONTINUOUS
 10
43.6206522628
 20
281.9538078945
 11
44.0373191282
 21
282.3793397959
  0
LINE
  5
24E
100
AcDbEntity
  8
0
100
AcDbLine
 62
7
  6
CONTINUOUS
 10
48.6206522628
 20
281.9538078945
 11
49.0373185321
 21
282.3793397959
  0
LINE
  5
24F
100
AcDbEntity
  8
0
100
AcDbLine
 62
7
  6
CONTINUOUS
 10
39.2456522628
 20
286.2091270949
 11
38.8289856955
 21
286.5282759931
  0
LINE
  5
250
100
AcDbEntity
  8
RUNDUNGEN
100
AcDbLine
 62
7
  6
CONTINUOUS
 10
120.0789855763
 20
321.1346589591
 11
120.0789855763
 21
275.1346589591
  0
LINE
  5
251
100
AcDbEntity
  8
RUNDUNGEN
100
AcDbLine
 62
7
  6
CONTINUOUS
 10
124.5789855763
 20
290.9888803484
 11
124.5789855763
 21
305.2804375698
  0
LINE
  5
252
100
AcDbEntity
  8
RUNDUNGEN
100
AcDbLine
 62
7
  6
CONTINUOUS
 10
134.007133583
 20
322.1346589591
 11
134.007133583
 21
305.2804375698
  0
LINE
  5
253
100
AcDbEntity
  8
RUNDUNGEN
100
AcDbLine
 62
7
  6
CONTINUOUS
 10
134.007133583
 20
290.9888803484
 11
134.007133583
 21
274.1346589591
  0
LINE
  5
254
100
AcDbEntity
  8
0
100
AcDbLine
 62
7
  6
CONTINUOUS
 10
41.8498191282
 20
282.3793397959
 11
41.5373191282
 21
282.5921058025
  0
LINE
  5
255
100
AcDbEntity
  8
0
100
AcDbLine
 62
7
  6
CONTINUOUS
 10
48.0998185321
 20
285.8899781968
 11
48.4123185321
 21
285.6772122647
  0
LINE
  5
256
100
AcDbEntity
  8
RUNDUNGEN
100
AcDbLine
 62
7
  6
CONTINUOUS
 10
146.5789855763
 20
303.1348843421
 11
146.5789855763
 21
293.1346048743
  0
LINE
  5
257
100
AcDbEntity
  8
0
100
AcDbLine
 62
7
  6
CONTINUOUS
 10
43.4123191282
 20
282.5921058025
 11
43.0998191282
 21
282.3793397959
  0
LINE
  5
258
100
AcDbEntity
  8
0
100
AcDbLine
 62
7
  6
CONTINUOUS
 10
48.4123185321
 20
282.5921058025
 11
48.0998185321
 21
282.3793397959
  0
LINE
  5
259
100
AcDbEntity
  8
0
100
AcDbLine
 62
7
  6
CONTINUOUS
 10
247.9712904217
 20
191.1346589591
 11
267.1866807309
 21
191.1346589591
  0
LINE
  5
25A
100
AcDbEntity
  8
0
100
AcDbLine
 62
7
  6
CONTINUOUS
 10
41.3289853975
 20
281.9538078945
 11
41.7456522628
 21
281.7410419345
  0
LINE
  5
25B
100
AcDbEntity
  8
0
100
AcDbLine
 62
7
  6
CONTINUOUS
 10
48.6206522628
 20
286.315510061
 11
48.2039859935
 21
286.5282759931
  0
LINE
  5
25C
100
AcDbEntity
  8
0
100
AcDbLine
 62
7
  6
CONTINUOUS
 10
247.9712904217
 20
405.1346589591
 11
237.5789855763
 21
399.1346589591
  0
LINE
  5
25D
100
AcDbEntity
  8
0
100
AcDbLine
 62
7
  6
CONTINUOUS
 10
38.8289856955
 20
284.0814674761
 11
39.2456522628
 21
284.2942334082
  0
LINE
  5
25E
100
AcDbEntity
  8
0
100
AcDbLine
 62
7
  6
CONTINUOUS
 10
237.5789855763
 20
197.1346589591
 11
277.5789855763
 21
197.1346589591
  0
LINE
  5
25F
100
AcDbEntity
  8
0
100
AcDbLine
 62
7
  6
CONTINUOUS
 10
237.5789855763
 20
208.1346589591
 11
277.5789855763
 21
208.1346589591
  0
LINE
  5
260
100
AcDbEntity
  8
0
100
AcDbLine
 62
7
  6
CONTINUOUS
 10
237.5789855763
 20
197.1346589591
 11
247.9712904217
 21
191.1346589591
  0
LINE
  5
261
100
AcDbEntity
  8
0
100
AcDbLine
 62
7
  6
CONTINUOUS
 10
187.5789855763
 20
288.1346589591
 11
187.5789855763
 21
289.4744049213
  0
LINE
  5
262
100
AcDbEntity
  8
0
100
AcDbLine
 62
7
  6
CONTINUOUS
 10
187.5789855763
 20
293.1346589591
 11
187.5789855763
 21
308.1346589591
  0
LINE
  5
263
100
AcDbEntity
  8
0
100
AcDbLine
 62
7
  6
CONTINUOUS
 10
189.5789855763
 20
306.1343925886
 11
189.5789855763
 21
293.1346589591
  0
LINE
  5
264
100
AcDbEntity
  8
0
100
AcDbLine
 62
7
  6
CONTINUOUS
 10
189.5789855763
 20
290.134920986
 11
189.5789855763
 21
292.5444890154
  0
LINE
  5
265
100
AcDbEntity
  8
0
100
AcDbLine
 62
7
  6
CONTINUOUS
 10
43.2039853975
 20
281.7410419345
 11
43.6206522628
 21
281.9538078945
  0
LINE
  5
266
100
AcDbEntity
  8
0
100
AcDbLine
 62
7
  6
CONTINUOUS
 10
48.2039859935
 20
281.7410419345
 11
48.6206522628
 21
281.9538078945
  0
LINE
  5
267
100
AcDbEntity
  8
0
100
AcDbLine
 62
7
  6
CONTINUOUS
 10
246.2392396141
 20
223.1346589591
 11
268.9187315384
 21
223.1346589591
  0
LINE
  5
268
100
AcDbEntity
  8
0
100
AcDbLine
 62
7
  6
CONTINUOUS
 10
42.2664853975
 20
282.2729568299
 11
41.8498191282
 21
282.3793397959
  0
LINE
  5
269
100
AcDbEntity
  8
0
100
AcDbLine
 62
7
  6
CONTINUOUS
 10
38.4123188301
 20
286.1027441289
 11
38.7248188301
 21
285.9963611629
  0
LINE
  5
26A
100
AcDbEntity
  8
0
100
AcDbLine
 62
7
  6
CONTINUOUS
 10
200.0789855763
 20
290.6346589591
 11
200.0789855763
 21
292.5444890154
  0
LINE
  5
26B
100
AcDbEntity
  8
0
100
AcDbLine
 62
7
  6
CONTINUOUS
 10
200.0789855763
 20
293.1346589591
 11
200.0789855763
 21
305.6346589591
  0
LINE
  5
26C
100
AcDbEntity
  8
0
100
AcDbLine
 62
7
  6
CONTINUOUS
 10
200.5789855763
 20
291.1346589591
 11
200.5789855763
 21
305.1346589591
  0
LINE
  5
26D
100
AcDbEntity
  8
0
100
AcDbLine
 62
7
  6
CONTINUOUS
 10
134.007133583
 20
274.1346589591
 11
139.8564853794
 21
278.2304191806
  0
LINE
  5
26E
100
AcDbEntity
  8
0
100
AcDbLine
 62
7
  6
CONTINUOUS
 10
38.7248188301
 20
284.6133823063
 11
38.4123188301
 21
284.5069993403
  0
LINE
  5
26F
100
AcDbEntity
  8
0
100
AcDbLine
 62
7
  6
CONTINUOUS
 10
41.7456522628
 20
281.7410419345
 11
42.2664853975
 21
281.6346589591
  0
LINE
  5
270
100
AcDbEntity
  8
0
100
AcDbLine
 62
7
  6
CONTINUOUS
 10
38.8289856955
 20
286.5282759931
 11
38.3081522628
 21
286.6346589591
  0
LINE
  5
271
100
AcDbEntity
  8
0
100
AcDbLine
 62
7
  6
CONTINUOUS
 10
48.2039859935
 20
286.5282759931
 11
47.6831522628
 21
286.6346589591
  0
LINE
  5
272
100
AcDbEntity
  8
0
100
AcDbLine
 62
7
  6
CONTINUOUS
 10
47.6831522628
 20
285.9963611629
 11
48.0998185321
 21
285.8899781968
  0
LINE
  5
273
100
AcDbEntity
  8
0
100
AcDbLine
 62
7
  6
CONTINUOUS
 10
134.007133583
 20
322.1346589591
 11
139.8564853794
 21
318.0388987377
  0
LINE
  5
274
100
AcDbEntity
  8
0
100
AcDbLine
 62
7
  6
CONTINUOUS
 10
189.5789855763
 20
290.1346589591
 11
187.5789855763
 21
288.1346589591
  0
LINE
  5
275
100
AcDbEntity
  8
0
100
AcDbLine
 62
7
  6
CONTINUOUS
 10
200.5789855763
 20
291.1346589591
 11
200.0789855763
 21
290.6346589591
  0
LINE
  5
276
100
AcDbEntity
  8
0
100
AcDbLine
 62
7
  6
CONTINUOUS
 10
472.0581520244
 20
313.8899781223
 11
472.4748188898
 21
313.9963610884
  0
LINE
  5
277
100
AcDbEntity
  8
0
100
AcDbLine
 62
7
  6
CONTINUOUS
 10
467.0581526204
 20
313.8899781223
 11
467.4748188898
 21
313.9963610884
  0
LINE
  5
278
100
AcDbEntity
  8
0
100
AcDbLine
 62
7
  6
CONTINUOUS
 10
189.5789855763
 20
306.1346589591
 11
187.5789855763
 21
308.1346589591
  0
LINE
  5
279
100
AcDbEntity
  8
0
100
AcDbLine
 62
7
  6
CONTINUOUS
 10
200.5789855763
 20
305.1346589591
 11
200.0789855763
 21
305.6346589591
  0
LINE
  5
27A
100
AcDbEntity
  8
0
100
AcDbLine
 62
7
  6
CONTINUOUS
 10
237.5789855763
 20
399.1346589591
 11
237.5789855763
 21
388.1346589591
  0
LINE
  5
27B
100
AcDbEntity
  8
0
100
AcDbLine
 62
7
  6
CONTINUOUS
 10
237.5789855763
 20
208.1346589591
 11
237.5789855763
 21
197.1346589591
  0
LINE
  5
27C
100
AcDbEntity
  8
RUNDUNGEN
100
AcDbLine
 62
7
  6
CONTINUOUS
 10
241.5789855763
 20
303.1344697988
 11
241.5789855763
 21
293.1348368236
  0
LINE
  5
27D
100
AcDbEntity
  8
0
100
AcDbLine
 62
7
  6
CONTINUOUS
 10
277.5789855763
 20
388.1346589591
 11
268.9187315384
 21
373.1346589591
  0
LINE
  5
27E
100
AcDbEntity
  8
0
100
AcDbLine
 62
7
  6
CONTINUOUS
 10
233.4154170626
 20
317.2552737175
 11
234.1263831219
 21
317.5140442007
  0
LINE
  5
27F
100
AcDbEntity
  8
0
100
AcDbLine
 62
7
  6
CONTINUOUS
 10
472.4748188898
 20
314.6346589591
 11
471.9539857551
 21
314.5282759838
  0
LINE
  5
280
100
AcDbEntity
  8
0
100
AcDbLine
 62
7
  6
CONTINUOUS
 10
467.4748188898
 20
314.6346589591
 11
466.9539851591
 21
314.5282759838
  0
LINE
  5
281
100
AcDbEntity
  8
BEZUGSACHSEN
100
AcDbLine
 62
7
  6
CONTINUOUS
 10
93.5789855763
 20
272.1346589591
 11
98.0789855763
 21
272.1346589591
  0
LINE
  5
282
100
AcDbEntity
  8
RUNDUNGEN
100
AcDbLine
 62
7
  6
CONTINUOUS
 10
134.007133583
 20
274.1346589591
 11
121.0789855763
 21
274.1346589591
  0
LINE
  5
283
100
AcDbEntity
  8
0
100
AcDbLine
 62
7
  6
CONTINUOUS
 10
121.0789855763
 20
274.1346589591
 11
134.007133583
 21
274.1346589591
  0
LINE
  5
284
100
AcDbEntity
  8
BEZUGSACHSEN
100
AcDbLine
 62
7
  6
CONTINUOUS
 10
491.8462698907
 20
277.1346589591
 11
491.4281583757
 21
277.1346589591
  0
LINE
  5
285
100
AcDbEntity
  8
BEZUGSACHSEN
100
AcDbLine
 62
7
  6
CONTINUOUS
 10
55.5789855763
 20
277.1346589591
 11
23.3117012618
 21
277.1346589591
  0
LINE
  5
286
100
AcDbEntity
  8
RUNDUNGEN
100
AcDbLine
 62
7
  6
CONTINUOUS
 10
459.5789855763
 20
277.1346589591
 11
491.8299660641
 21
277.1346589591
  0
LINE
  5
287
100
AcDbEntity
  8
RUNDUNGEN
100
AcDbLine
 62
7
  6
CONTINUOUS
 10
395.0789855763
 20
278.6346589591
 11
374.6130530632
 21
278.6346589591
  0
LINE
  5
288
100
AcDbEntity
  8
BEZUGSACHSEN
100
AcDbLine
 62
7
  6
CONTINUOUS
 10
280.3475477441
 20
278.6346589591
 11
265.0789855763
 21
278.6346589591
  0
LINE
  5
289
100
AcDbEntity
  8
BEZUGSACHSEN
100
AcDbLine
 62
7
  6
CONTINUOUS
 10
250.0789855763
 20
278.6346589591
 11
234.8104234085
 21
278.6346589591
  0
LINE
  5
28A
100
AcDbEntity
  8
0
100
AcDbLine
 62
7
  6
CONTINUOUS
 10
234.8104234085
 20
278.6346589591
 11
250.0789855763
 21
278.6346589591
  0
LINE
  5
28B
100
AcDbEntity
  8
0
100
AcDbLine
 62
7
  6
CONTINUOUS
 10
265.0789855763
 20
278.6346589591
 11
280.3475477441
 21
278.6346589591
  0
LINE
  5
28C
100
AcDbEntity
  8
0
100
AcDbLine
 62
7
  6
CONTINUOUS
 10
374.6130530632
 20
278.6346589591
 11
395.0789855763
 21
278.6346589591
  0
LINE
  5
28D
100
AcDbEntity
  8
0
100
AcDbLine
 62
7
  6
CONTINUOUS
 10
142.7243675611
 20
279.1346589591
 11
232.731376776
 21
279.1346589591
  0
LINE
  5
28E
100
AcDbEntity
  8
0
100
AcDbLine
 62
7
  6
CONTINUOUS
 10
282.4265943766
 20
279.1346589591
 11
372.4336035914
 21
279.1346589591
  0
LINE
  5
28F
100
AcDbEntity
  8
RUNDUNGEN
100
AcDbLine
 62
7
  6
CONTINUOUS
 10
478.5789855763
 20
280.6346589591
 11
464.5789855763
 21
280.6346589591
  0
LINE
  5
290
100
AcDbEntity
  8
BEZUGSACHSEN
100
AcDbLine
 62
7
  6
CONTINUOUS
 10
36.5789855763
 20
280.6346589591
 11
50.5789855763
 21
280.6346589591
  0
LINE
  5
291
100
AcDbEntity
  8
0
100
AcDbLine
 62
7
  6
CONTINUOUS
 10
35.8081522628
 20
281.6346589591
 11
36.4331522628
 21
281.6346589591
  0
LINE
  5
292
100
AcDbEntity
  8
0
100
AcDbLine
 62
7
  6
CONTINUOUS
 10
39.0373188301
 20
281.6346589591
 11
39.7664856955
 21
281.6346589591
  0
LINE
  5
293
100
AcDbEntity
  8
0
100
AcDbLine
 62
7
  6
CONTINUOUS
 10
42.2664853975
 20
281.6346589591
 11
42.6831522628
 21
281.6346589591
  0
LINE
  5
294
100
AcDbEntity
  8
0
100
AcDbLine
 62
7
  6
CONTINUOUS
 10
45.1831522628
 20
281.6346589591
 11
47.6831522628
 21
281.6346589591
  0
LINE
  5
295
100
AcDbEntity
  8
0
100
AcDbLine
 62
7
  6
CONTINUOUS
 10
47.6831522628
 20
282.2729568299
 11
45.8081522628
 21
282.2729568299
  0
LINE
  5
296
100
AcDbEntity
  8
0
100
AcDbLine
 62
7
  6
CONTINUOUS
 10
42.6831522628
 20
282.2729568299
 11
42.2664853975
 21
282.2729568299
  0
LINE
  5
297
100
AcDbEntity
  8
0
100
AcDbLine
 62
7
  6
CONTINUOUS
 10
233.4154170626
 20
279.0140442007
 11
234.1263831219
 21
278.7552737175
  0
LINE
  5
298
100
AcDbEntity
  8
0
100
AcDbLine
 62
7
  6
CONTINUOUS
 10
268.9187315384
 20
223.1346589591
 11
277.5789855763
 21
208.1346589591
  0
LINE
  5
299
100
AcDbEntity
  8
0
100
AcDbLine
 62
7
  6
CONTINUOUS
 10
250.5789855763
 20
373.1346589591
 11
250.5789855763
 21
317.4478819161
  0
LINE
  5
29A
100
AcDbEntity
  8
0
100
AcDbLine
 62
7
  6
CONTINUOUS
 10
250.5789855763
 20
278.821435621
 11
250.5789855763
 21
223.1346589591
  0
LINE
  5
29B
100
AcDbEntity
  8
0
100
AcDbLine
 62
7
  6
CONTINUOUS
 10
36.4331522628
 20
283.868701544
 11
38.2039855465
 21
283.868701544
  0
LINE
  5
29C
100
AcDbEntity
  8
0
100
AcDbLine
 62
7
  6
CONTINUOUS
 10
38.4123188301
 20
284.5069993403
 11
36.4331522628
 21
284.5069993403
  0
LINE
  5
29D
100
AcDbEntity
  8
0
100
AcDbLine
 62
7
  6
CONTINUOUS
 10
45.8081522628
 20
285.9963611629
 11
47.6831522628
 21
285.9963611629
  0
LINE
  5
29E
100
AcDbEntity
  8
0
100
AcDbLine
 62
7
  6
CONTINUOUS
 10
36.4331522628
 20
286.1027441289
 11
38.4123188301
 21
286.1027441289
  0
LINE
  5
29F
100
AcDbEntity
  8
0
100
AcDbLine
 62
7
  6
CONTINUOUS
 10
47.6831522628
 20
286.6346589591
 11
45.1831522628
 21
286.6346589591
  0
LINE
  5
2A0
100
AcDbEntity
  8
0
100
AcDbLine
 62
7
  6
CONTINUOUS
 10
44.3498191282
 20
286.6346589591
 11
43.7248191282
 21
286.6346589591
  0
LINE
  5
2A1
100
AcDbEntity
  8
0
100
AcDbLine
 62
7
  6
CONTINUOUS
 10
41.2248191282
 20
286.6346589591
 11
40.5998188301
 21
286.6346589591
  0
LINE
  5
2A2
100
AcDbEntity
  8
0
100
AcDbLine
 62
7
  6
CONTINUOUS
 10
38.3081522628
 20
286.6346589591
 11
35.8081522628
 21
286.6346589591
  0
LINE
  5
2A3
100
AcDbEntity
  8
RUNDUNGEN
100
AcDbLine
 62
7
  6
CONTINUOUS
 10
362.5789855763
 20
287.1346589591
 11
279.5790532941
 21
287.1346589591
  0
LINE
  5
2A4
100
AcDbEntity
  8
RUNDUNGEN
100
AcDbLine
 62
7
  6
CONTINUOUS
 10
235.5789217401
 20
287.1346589591
 11
152.5792453919
 21
287.1346589591
  0
LINE
  5
2A5
100
AcDbEntity
  8
BEZUGSACHSEN
100
AcDbLine
 62
7
  6
CONTINUOUS
 10
50.5789855763
 20
287.6346589591
 11
36.5789855763
 21
287.6346589591
  0
LINE
  5
2A6
100
AcDbEntity
  8
RUNDUNGEN
100
AcDbLine
 62
7
  6
CONTINUOUS
 10
464.5789855763
 20
287.6346589591
 11
478.5789855763
 21
287.6346589591
  0
LINE
  5
2A7
100
AcDbEntity
  8
0
100
AcDbLine
 62
7
  6
CONTINUOUS
 10
187.5789855763
 20
288.1346589591
 11
149.2654694237
 21
288.1346589591
  0
LINE
  5
2A8
100
AcDbEntity
  8
RUNDUNGEN
100
AcDbLine
 62
7
  6
CONTINUOUS
 10
187.5789855763
 20
288.1346589591
 11
149.2654694237
 21
288.1346589591
  0
LINE
  5
2A9
100
AcDbEntity
  8
0
100
AcDbLine
 62
7
  6
CONTINUOUS
 10
120.0789855763
 20
288.1346589591
 11
98.5789855763
 21
288.1346589591
  0
LINE
  5
2AA
100
AcDbEntity
  8
RUNDUNGEN
100
AcDbLine
 62
7
  6
CONTINUOUS
 10
120.0789855763
 20
288.1346589591
 11
98.5789855763
 21
288.1346589591
  0
LINE
  5
2AB
100
AcDbEntity
  8
0
100
AcDbLine
 62
7
  6
CONTINUOUS
 10
91.5789855763
 20
288.1346589591
 11
58.5789855763
 21
288.1346589591
  0
LINE
  5
2AC
100
AcDbEntity
  8
RUNDUNGEN
100
AcDbLine
 62
7
  6
CONTINUOUS
 10
91.5789855763
 20
288.1346589591
 11
58.5789855763
 21
288.1346589591
  0
LINE
  5
2AD
100
AcDbEntity
  8
0
100
AcDbLine
 62
7
  6
CONTINUOUS
 10
339.5789855763
 20
288.1346589591
 11
365.8956103666
 21
288.1346589591
  0
LINE
  5
2AE
100
AcDbEntity
  8
RUNDUNGEN
100
AcDbLine
 62
7
  6
CONTINUOUS
 10
339.5789855763
 20
288.1346589591
 11
365.8956103666
 21
288.1346589591
  0
LINE
  5
2AF
100
AcDbEntity
  8
0
100
AcDbLine
 62
7
  6
CONTINUOUS
 10
396.0789855763
 20
288.1346589591
 11
456.5789855763
 21
288.1346589591
  0
LINE
  5
2B0
100
AcDbEntity
  8
RUNDUNGEN
100
AcDbLine
 62
7
  6
CONTINUOUS
 10
396.0789855763
 20
288.1346589591
 11
456.5789855763
 21
288.1346589591
  0
LINE
  5
2B1
100
AcDbEntity
  8
0
100
AcDbLine
 62
7
  6
CONTINUOUS
 10
187.5789855763
 20
289.4744049213
 11
147.8277105406
 21
289.4744049213
  0
LINE
  5
2B2
100
AcDbEntity
  8
0
100
AcDbLine
 62
7
  6
CONTINUOUS
 10
120.0789855763
 20
289.4744049213
 11
98.5789855763
 21
289.4744049213
  0
LINE
  5
2B3
100
AcDbEntity
  8
0
100
AcDbLine
 62
7
  6
CONTINUOUS
 10
91.5789855763
 20
289.4744049213
 11
60.7618203563
 21
289.4744049213
  0
LINE
  5
2B4
100
AcDbEntity
  8
0
100
AcDbLine
 62
7
  6
CONTINUOUS
 10
200.0789855763
 20
290.6346589591
 11
189.5789855763
 21
290.6346589591
  0
LINE
  5
2B5
100
AcDbEntity
  8
0
100
AcDbLine
 62
7
  6
CONTINUOUS
 10
327.0789855763
 20
290.6346589591
 11
337.5789855763
 21
290.6346589591
  0
LINE
  5
2B6
100
AcDbEntity
  8
0
100
AcDbLine
 62
7
  6
CONTINUOUS
 10
200.0789855763
 20
292.5444890154
 11
189.5789855763
 21
292.5444890154
  0
LINE
  5
2B7
100
AcDbEntity
  8
BEZUGSACHSEN
100
AcDbLine
 62
7
  6
CONTINUOUS
 10
42.5289855763
 20
293.0846589591
 11
21.8909148117
 21
293.0846589591
  0
LINE
  5
2B8
100
AcDbEntity
  8
BEZUGSACHSEN
100
AcDbLine
 62
7
  6
CONTINUOUS
 10
488.3099856651
 20
293.0846589591
 11
493.2670563408
 21
293.0846589591
  0
LINE
  5
2B9
100
AcDbEntity
  8
RUNDUNGEN
100
AcDbLine
 62
7
  6
CONTINUOUS
 10
472.6289855763
 20
293.0846589591
 11
493.2670563408
 21
293.0846589591
  0
LINE
  5
2BA
100
AcDbEntity
  8
0
100
AcDbLine
 62
7
  6
CONTINUOUS
 10
200.5079177644
 20
293.1346589591
 11
146.5789855765
 21
293.1346589591
  0
LINE
  5
2BB
100
AcDbEntity
  8
0
100
AcDbLine
 62
7
  6
CONTINUOUS
 10
120.0789855763
 20
293.1346589591
 11
98.5789855763
 21
293.1346589591
  0
LINE
  5
2BC
100
AcDbEntity
  8
0
100
AcDbLine
 62
7
  6
CONTINUOUS
 10
91.5789855763
 20
293.1346589591
 11
65.5789855763
 21
293.1346589591
  0
LINE
  5
2BD
100
AcDbEntity
  8
0
100
AcDbLine
 62
7
  6
CONTINUOUS
 10
264.5789855763
 20
373.1346589591
 11
264.5789855763
 21
317.4478804514
  0
LINE
  5
2BE
100
AcDbEntity
  8
0
100
AcDbLine
 62
7
  6
CONTINUOUS
 10
264.5789855763
 20
278.8214375127
 11
264.5789855763
 21
223.1346589591
  0
LINE
  5
2BF
100
AcDbEntity
  8
RUNDUNGEN
100
AcDbLine
 62
7
  6
CONTINUOUS
 10
273.5789855763
 20
293.1348398865
 11
273.5789855763
 21
303.1344699831
  0
LINE
  5
2C0
100
AcDbEntity
  8
BEZUGSACHSEN
100
AcDbLine
 62
7
  6
CONTINUOUS
 10
26.8479854874
 20
303.1846589591
 11
21.8909148117
 21
303.1846589591
  0
LINE
  5
2C1
100
AcDbEntity
  8
RUNDUNGEN
100
AcDbLine
 62
7
  6
CONTINUOUS
 10
42.5289855763
 20
303.1846589591
 11
21.8909148117
 21
303.1846589591
  0
LINE
  5
2C2
100
AcDbEntity
  8
BEZUGSACHSEN
100
AcDbLine
 62
7
  6
CONTINUOUS
 10
472.6289855763
 20
303.1846589591
 11
493.2670563408
 21
303.1846589591
  0
LINE
  5
2C3
100
AcDbEntity
  8
0
100
AcDbLine
 62
7
  6
CONTINUOUS
 10
200.0789855763
 20
305.6346589591
 11
189.5789855763
 21
305.6346589591
  0
LINE
  5
2C4
100
AcDbEntity
  8
0
100
AcDbLine
 62
7
  6
CONTINUOUS
 10
327.0789855763
 20
305.6346589591
 11
337.5789855763
 21
305.6346589591
  0
LINE
  5
2C5
100
AcDbEntity
  8
0
100
AcDbLine
 62
7
  6
CONTINUOUS
 10
187.5789855763
 20
308.1346589591
 11
149.2654522872
 21
308.1346589591
  0
LINE
  5
2C6
100
AcDbEntity
  8
RUNDUNGEN
100
AcDbLine
 62
7
  6
CONTINUOUS
 10
187.5789855763
 20
308.1346589591
 11
149.2654522872
 21
308.1346589591
  0
LINE
  5
2C7
100
AcDbEntity
  8
0
100
AcDbLine
 62
7
  6
CONTINUOUS
 10
120.0789855763
 20
308.1346589591
 11
98.5789855763
 21
308.1346589591
  0
LINE
  5
2C8
100
AcDbEntity
  8
RUNDUNGEN
100
AcDbLine
 62
7
  6
CONTINUOUS
 10
120.0789855763
 20
308.1346589591
 11
98.5789855763
 21
308.1346589591
  0
LINE
  5
2C9
100
AcDbEntity
  8
0
100
AcDbLine
 62
7
  6
CONTINUOUS
 10
91.5789855763
 20
308.1346589591
 11
58.5789855763
 21
308.1346589591
  0
LINE
  5
2CA
100
AcDbEntity
  8
RUNDUNGEN
100
AcDbLine
 62
7
  6
CONTINUOUS
 10
91.5789855763
 20
308.1346589591
 11
58.5789855763
 21
308.1346589591
  0
LINE
  5
2CB
100
AcDbEntity
  8
0
100
AcDbLine
 62
7
  6
CONTINUOUS
 10
339.5789855763
 20
308.1346589591
 11
365.889555042
 21
308.1346589591
  0
LINE
  5
2CC
100
AcDbEntity
  8
RUNDUNGEN
100
AcDbLine
 62
7
  6
CONTINUOUS
 10
339.5789855763
 20
308.1346589591
 11
365.889555042
 21
308.1346589591
  0
LINE
  5
2CD
100
AcDbEntity
  8
0
100
AcDbLine
 62
7
  6
CONTINUOUS
 10
396.0789855763
 20
308.1346589591
 11
456.5789855763
 21
308.1346589591
  0
LINE
  5
2CE
100
AcDbEntity
  8
RUNDUNGEN
100
AcDbLine
 62
7
  6
CONTINUOUS
 10
396.0789855763
 20
308.1346589591
 11
456.5789855763
 21
308.1346589591
  0
LINE
  5
2CF
100
AcDbEntity
  8
RUNDUNGEN
100
AcDbLine
 62
7
  6
CONTINUOUS
 10
50.5789855763
 20
308.6346589591
 11
36.5789855763
 21
308.6346589591
  0
LINE
  5
2D0
100
AcDbEntity
  8
BEZUGSACHSEN
100
AcDbLine
 62
7
  6
CONTINUOUS
 10
464.5789855763
 20
308.6346589591
 11
478.5789855763
 21
308.6346589591
  0
LINE
  5
2D1
100
AcDbEntity
  8
RUNDUNGEN
100
AcDbLine
 62
7
  6
CONTINUOUS
 10
152.5791586621
 20
309.1346589591
 11
235.5788203595
 21
309.1346589591
  0
LINE
  5
2D2
100
AcDbEntity
  8
RUNDUNGEN
100
AcDbLine
 62
7
  6
CONTINUOUS
 10
279.5791507938
 20
309.1346589591
 11
362.5788114012
 21
309.1346589591
  0
LINE
  5
2D3
100
AcDbEntity
  8
0
100
AcDbLine
 62
7
  6
CONTINUOUS
 10
467.4748188898
 20
309.6346589591
 11
469.9748188898
 21
309.6346589591
  0
LINE
  5
2D4
100
AcDbEntity
  8
0
100
AcDbLine
 62
7
  6
CONTINUOUS
 10
470.8081520244
 20
309.6346589591
 11
471.4331520244
 21
309.6346589591
  0
LINE
  5
2D5
100
AcDbEntity
  8
0
100
AcDbLine
 62
7
  6
CONTINUOUS
 10
473.9331520244
 20
309.6346589591
 11
474.5581523224
 21
309.6346589591
  0
LINE
  5
2D6
100
AcDbEntity
  8
0
100
AcDbLine
 62
7
  6
CONTINUOUS
 10
476.8498188898
 20
309.6346589591
 11
479.3498188898
 21
309.6346589591
  0
LINE
  5
2D7
100
AcDbEntity
  8
0
100
AcDbLine
 62
7
  6
CONTINUOUS
 10
478.7248188898
 20
310.1665737893
 11
476.7456523224
 21
310.1665737893
  0
LINE
  5
2D8
100
AcDbEntity
  8
0
100
AcDbLine
 62
7
  6
CONTINUOUS
 10
469.3498188898
 20
310.2729567554
 11
467.4748188898
 21
310.2729567554
  0
LINE
  5
2D9
100
AcDbEntity
  8
0
100
AcDbLine
 62
7
  6
CONTINUOUS
 10
476.7456523224
 20
311.762318578
 11
478.7248188898
 21
311.762318578
  0
LINE
  5
2DA
100
AcDbEntity
  8
0
100
AcDbLine
 62
7
  6
CONTINUOUS
 10
478.7248188898
 20
312.4006163742
 11
476.9539856061
 21
312.4006163742
  0
LINE
  5
2DB
100
AcDbEntity
  8
0
100
AcDbLine
 62
7
  6
CONTINUOUS
 10
467.4748188898
 20
313.9963610884
 11
469.3498188898
 21
313.9963610884
  0
LINE
  5
2DC
100
AcDbEntity
  8
0
100
AcDbLine
 62
7
  6
CONTINUOUS
 10
472.4748188898
 20
313.9963610884
 11
472.8914857551
 21
313.9963610884
  0
LINE
  5
2DD
100
AcDbEntity
  8
0
100
AcDbLine
 62
7
  6
CONTINUOUS
 10
479.3498188898
 20
314.6346589591
 11
478.7248188898
 21
314.6346589591
  0
LINE
  5
2DE
100
AcDbEntity
  8
0
100
AcDbLine
 62
7
  6
CONTINUOUS
 10
476.1206523224
 20
314.6346589591
 11
475.3914854571
 21
314.6346589591
  0
LINE
  5
2DF
100
AcDbEntity
  8
0
100
AcDbLine
 62
7
  6
CONTINUOUS
 10
472.8914857551
 20
314.6346589591
 11
472.4748188898
 21
314.6346589591
  0
LINE
  5
2E0
100
AcDbEntity
  8
0
100
AcDbLine
 62
7
  6
CONTINUOUS
 10
469.9748188898
 20
314.6346589591
 11
467.4748188898
 21
314.6346589591
  0
LINE
  5
2E1
100
AcDbEntity
  8
BEZUGSACHSEN
100
AcDbLine
 62
7
  6
CONTINUOUS
 10
478.5789855763
 20
315.6346589591
 11
464.5789855763
 21
315.6346589591
  0
LINE
  5
2E2
100
AcDbEntity
  8
RUNDUNGEN
100
AcDbLine
 62
7
  6
CONTINUOUS
 10
36.5789855763
 20
315.6346589591
 11
50.5789855763
 21
315.6346589591
  0
LINE
  5
2E3
100
AcDbEntity
  8
0
100
AcDbLine
 62
7
  6
CONTINUOUS
 10
142.7243675611
 20
317.1346589591
 11
232.731376776
 21
317.1346589591
  0
LINE
  5
2E4
100
AcDbEntity
  8
RUNDUNGEN
100
AcDbLine
 62
7
  6
CONTINUOUS
 10
282.4265943766
 20
317.1346589591
 11
372.4336035914
 21
317.1346589591
  0
LINE
  5
2E5
100
AcDbEntity
  8
0
100
AcDbLine
 62
7
  6
CONTINUOUS
 10
282.4265943766
 20
317.1346589591
 11
372.4336035914
 21
317.1346589591
  0
LINE
  5
2E6
100
AcDbEntity
  8
RUNDUNGEN
100
AcDbLine
 62
7
  6
CONTINUOUS
 10
395.0789855763
 20
317.6346589591
 11
374.6130530632
 21
317.6346589591
  0
LINE
  5
2E7
100
AcDbEntity
  8
BEZUGSACHSEN
100
AcDbLine
 62
7
  6
CONTINUOUS
 10
280.3475477441
 20
317.6346589591
 11
265.0789855763
 21
317.6346589591
  0
LINE
  5
2E8
100
AcDbEntity
  8
BEZUGSACHSEN
100
AcDbLine
 62
7
  6
CONTINUOUS
 10
250.0789855763
 20
317.6346589591
 11
234.8104234085
 21
317.6346589591
  0
LINE
  5
2E9
100
AcDbEntity
  8
0
100
AcDbLine
 62
7
  6
CONTINUOUS
 10
234.8104234085
 20
317.6346589591
 11
250.0789855763
 21
317.6346589591
  0
LINE
  5
2EA
100
AcDbEntity
  8
0
100
AcDbLine
 62
7
  6
CONTINUOUS
 10
265.0789855763
 20
317.6346589591
 11
280.3475477441
 21
317.6346589591
  0
LINE
  5
2EB
100
AcDbEntity
  8
0
100
AcDbLine
 62
7
  6
CONTINUOUS
 10
374.6130530632
 20
317.6346589591
 11
395.0789855763
 21
317.6346589591
  0
LINE
  5
2EC
100
AcDbEntity
  8
0
100
AcDbLine
 62
7
  6
CONTINUOUS
 10
277.5789855763
 20
399.1346589591
 11
277.5789855763
 21
388.1346589591
  0
LINE
  5
2ED
100
AcDbEntity
  8
0
100
AcDbLine
 62
7
  6
CONTINUOUS
 10
277.5789855763
 20
208.1346589591
 11
277.5789855763
 21
197.1346589591
  0
LINE
  5
2EE
100
AcDbEntity
  8
0
100
AcDbLine
 62
7
  6
CONTINUOUS
 10
246.2392396141
 20
223.1346589591
 11
237.5789855763
 21
208.1346589591
  0
LINE
  5
2EF
100
AcDbEntity
  8
0
100
AcDbLine
 62
7
  6
CONTINUOUS
 10
281.0315880307
 20
278.7552737175
 11
281.74255409
 21
279.0140442007
  0
LINE
  5
2F0
100
AcDbEntity
  8
0
100
AcDbLine
 62
7
  6
CONTINUOUS
 10
48.0998185321
 20
282.3793397959
 11
47.6831522628
 21
282.2729568299
  0
LINE
  5
2F1
100
AcDbEntity
  8
0
100
AcDbLine
 62
7
  6
CONTINUOUS
 10
47.6831522628
 20
281.6346589591
 11
48.2039859935
 21
281.7410419345
  0
LINE
  5
2F2
100
AcDbEntity
  8
0
100
AcDbLine
 62
7
  6
CONTINUOUS
 10
42.6831522628
 20
281.6346589591
 11
43.2039853975
 21
281.7410419345
  0
LINE
  5
2F3
100
AcDbEntity
  8
BEZUGSACHSEN
100
AcDbLine
 62
7
  6
CONTINUOUS
 10
23.3117012618
 20
319.1346589591
 11
23.7298127769
 21
319.1346589591
  0
LINE
  5
2F4
100
AcDbEntity
  8
RUNDUNGEN
100
AcDbLine
 62
7
  6
CONTINUOUS
 10
23.3280050885
 20
319.1346589591
 11
55.5789855763
 21
319.1346589591
  0
LINE
  5
2F5
100
AcDbEntity
  8
BEZUGSACHSEN
100
AcDbLine
 62
7
  6
CONTINUOUS
 10
459.5789855763
 20
319.1346589591
 11
491.8462698907
 21
319.1346589591
  0
LINE
  5
2F6
100
AcDbEntity
  8
RUNDUNGEN
100
AcDbLine
 62
7
  6
CONTINUOUS
 10
134.007133583
 20
322.1346589591
 11
121.0789855763
 21
322.1346589591
  0
LINE
  5
2F7
100
AcDbEntity
  8
0
100
AcDbLine
 62
7
  6
CONTINUOUS
 10
121.0789855763
 20
322.1346589591
 11
134.007133583
 21
322.1346589591
  0
LINE
  5
2F8
100
AcDbEntity
  8
BEZUGSACHSEN
100
AcDbLine
 62
7
  6
CONTINUOUS
 10
93.5789855763
 20
324.1346589591
 11
98.0789855763
 21
324.1346589591
  0
LINE
  5
2F9
100
AcDbEntity
  8
0
100
AcDbLine
 62
7
  6
CONTINUOUS
 10
281.0315880307
 20
317.5140442007
 11
281.74255409
 21
317.2552737175
  0
LINE
  5
2FA
100
AcDbEntity
  8
0
100
AcDbLine
 62
7
  6
CONTINUOUS
 10
237.5789855763
 20
388.1346589591
 11
246.2392396141
 21
373.1346589591
  0
LINE
  5
2FB
100
AcDbEntity
  8
0
100
AcDbLine
 62
7
  6
CONTINUOUS
 10
326.5789855763
 20
305.1346589591
 11
327.0789855763
 21
305.6346589591
  0
LINE
  5
2FC
100
AcDbEntity
  8
0
100
AcDbLine
 62
7
  6
CONTINUOUS
 10
337.5789855763
 20
306.1346589591
 11
339.5789855763
 21
308.1346589591
  0
LINE
  5
2FD
100
AcDbEntity
  8
0
100
AcDbLine
 62
7
  6
CONTINUOUS
 10
43.0998191282
 20
282.3793397959
 11
42.6831522628
 21
282.2729568299
  0
LINE
  5
2FE
100
AcDbEntity
  8
0
100
AcDbLine
 62
7
  6
CONTINUOUS
 10
466.9539851591
 20
309.7410419251
 11
467.4748188898
 21
309.6346589591
  0
LINE
  5
2FF
100
AcDbEntity
  8
0
100
AcDbLine
 62
7
  6
CONTINUOUS
 10
326.5789855763
 20
291.1346589591
 11
327.0789855763
 21
290.6346589591
  0
LINE
  5
300
100
AcDbEntity
  8
0
100
AcDbLine
 62
7
  6
CONTINUOUS
 10
337.5789855763
 20
290.1346589591
 11
339.5789855763
 21
288.1346589591
  0
LINE
  5
301
100
AcDbEntity
  8
0
100
AcDbLine
 62
7
  6
CONTINUOUS
 10
326.5789855763
 20
305.1346589591
 11
326.5789855763
 21
291.1346589591
  0
LINE
  5
302
100
AcDbEntity
  8
0
100
AcDbLine
 62
7
  6
CONTINUOUS
 10
327.0789855763
 20
305.6346589591
 11
327.0789855763
 21
290.6346589591
  0
LINE
  5
303
100
AcDbEntity
  8
0
100
AcDbLine
 62
7
  6
CONTINUOUS
 10
476.4331523224
 20
311.6559356119
 11
476.7456523224
 21
311.762318578
  0
LINE
  5
304
100
AcDbEntity
  8
0
100
AcDbLine
 62
7
  6
CONTINUOUS
 10
476.3289854571
 20
309.7410419251
 11
476.8498188898
 21
309.6346589591
  0
LINE
  5
305
100
AcDbEntity
  8
0
100
AcDbLine
 62
7
  6
CONTINUOUS
 10
473.4123188898
 20
314.5282759838
 11
472.8914857551
 21
314.6346589591
  0
LINE
  5
306
100
AcDbEntity
  8
0
100
AcDbLine
 62
7
  6
CONTINUOUS
 10
467.4748188898
 20
310.2729567554
 11
467.0581526204
 21
310.3793397214
  0
LINE
  5
307
100
AcDbEntity
  8
0
100
AcDbLine
 62
7
  6
CONTINUOUS
 10
472.8914857551
 20
313.9963610884
 11
473.3081520244
 21
313.8899781223
  0
LINE
  5
308
100
AcDbEntity
  8
0
100
AcDbLine
 62
7
  6
CONTINUOUS
 10
337.5789855763
 20
306.1346589591
 11
337.5789855763
 21
290.1346589591
  0
LINE
  5
309
100
AcDbEntity
  8
0
100
AcDbLine
 62
7
  6
CONTINUOUS
 10
339.5789855763
 20
308.1346589591
 11
339.5789855763
 21
288.1346589591
  0
LINE
  5
30A
100
AcDbEntity
  8
0
100
AcDbLine
 62
7
  6
CONTINUOUS
 10
466.9539851591
 20
314.5282759838
 11
466.5373188898
 21
314.3155100237
  0
LINE
  5
30B
100
AcDbEntity
  8
0
100
AcDbLine
 62
7
  6
CONTINUOUS
 10
471.9539857551
 20
314.5282759838
 11
471.5373188898
 21
314.3155100237
  0
LINE
  5
30C
100
AcDbEntity
  8
0
100
AcDbLine
 62
7
  6
CONTINUOUS
 10
476.3289854571
 20
312.1878504421
 11
475.9123188898
 21
311.97508451
  0
LINE
  5
30D
100
AcDbEntity
  8
0
100
AcDbLine
 62
7
  6
CONTINUOUS
 10
246.2392396141
 20
373.1346589591
 11
268.9187315384
 21
373.1346589591
  0
LINE
  5
30E
100
AcDbEntity
  8
0
100
AcDbLine
 62
7
  6
CONTINUOUS
 10
476.7456523224
 20
310.1665737893
 11
476.4331523224
 21
310.2729567554
  0
LINE
  5
30F
100
AcDbEntity
  8
0
100
AcDbLine
 62
7
  6
CONTINUOUS
 10
466.7456526204
 20
313.6772121157
 11
467.0581526204
 21
313.8899781223
  0
LINE
  5
310
100
AcDbEntity
  8
0
100
AcDbLine
 62
7
  6
CONTINUOUS
 10
277.5789855763
 20
197.1346589591
 11
267.1866807309
 21
191.1346589591
  0
LINE
  5
311
100
AcDbEntity
  8
0
100
AcDbLine
 62
7
  6
CONTINUOUS
 10
237.5789855763
 20
388.1346589591
 11
277.5789855763
 21
388.1346589591
  0
LINE
  5
312
100
AcDbEntity
  8
0
100
AcDbLine
 62
7
  6
CONTINUOUS
 10
237.5789855763
 20
399.1346589591
 11
277.5789855763
 21
399.1346589591
  0
LINE
  5
313
100
AcDbEntity
  8
0
100
AcDbLine
 62
7
  6
CONTINUOUS
 10
247.9712904217
 20
405.1346589591
 11
267.1866807309
 21
405.1346589591
  0
LINE
  5
314
100
AcDbEntity
  8
0
100
AcDbLine
 62
7
  6
CONTINUOUS
 10
466.5373188898
 20
309.9538078572
 11
466.9539851591
 21
309.7410419251
  0
LINE
  5
315
100
AcDbEntity
  8
0
100
AcDbLine
 62
7
  6
CONTINUOUS
 10
267.1866807309
 20
405.1346589591
 11
277.5789855763
 21
399.1346589591
  0
LINE
  5
316
100
AcDbEntity
  8
RUNDUNGEN
100
AcDbLine
 62
7
  6
CONTINUOUS
 10
368.5789855763
 20
303.1344770533
 11
368.5789855763
 21
293.1348453204
  0
LINE
  5
317
100
AcDbEntity
  8
0
100
AcDbLine
 62
7
  6
CONTINUOUS
 10
374.6130530632
 20
317.6346589591
 11
374.6130530632
 21
278.6346589591
  0
LINE
  5
318
100
AcDbEntity
  8
0
100
AcDbLine
 62
7
  6
CONTINUOUS
 10
471.7456520244
 20
313.6772121157
 11
472.0581520244
 21
313.8899781223
  0
LINE
  5
319
100
AcDbEntity
  8
0
100
AcDbLine
 62
7
  6
CONTINUOUS
 10
473.8289857551
 20
314.3155100237
 11
473.4123188898
 21
314.5282759838
  0
LINE
  5
31A
100
AcDbEntity
  8
RUNDUNGEN
100
AcDbLine
 62
7
  6
CONTINUOUS
 10
396.0789855763
 20
279.6346589591
 11
396.0789855763
 21
316.6346589591
  0
LINE
  5
31B
100
AcDbEntity
  8
0
100
AcDbLine
 62
7
  6
CONTINUOUS
 10
466.5373188898
 20
314.3155100237
 11
466.1206526204
 21
313.8899781223
  0
LINE
  5
31C
100
AcDbEntity
  8
0
100
AcDbLine
 62
7
  6
CONTINUOUS
 10
471.5373188898
 20
314.3155100237
 11
471.1206520244
 21
313.8899781223
  0
LINE
  5
31D
100
AcDbEntity
  8
0
100
AcDbLine
 62
7
  6
CONTINUOUS
 10
467.0581526204
 20
310.3793397214
 11
466.7456526204
 21
310.5921056535
  0
LINE
  5
31E
100
AcDbEntity
  8
0
100
AcDbLine
 62
7
  6
CONTINUOUS
 10
473.3081520244
 20
313.8899781223
 11
473.6206520244
 21
313.6772121157
  0
LINE
  5
31F
100
AcDbEntity
  8
0
100
AcDbLine
 62
7
  6
CONTINUOUS
 10
475.9123188898
 20
310.0601908233
 11
476.3289854571
 21
309.7410419251
  0
LINE
  5
320
100
AcDbEntity
  8
0
100
AcDbLine
 62
7
  6
CONTINUOUS
 10
476.2248188898
 20
311.4431696798
 11
476.4331523224
 21
311.6559356119
  0
LINE
  5
321
100
AcDbEntity
  8
0
100
AcDbLine
 62
7
  6
CONTINUOUS
 10
466.1206526204
 20
310.3793397214
 11
466.5373188898
 21
309.9538078572
  0
LINE
  5
322
100
AcDbEntity
  8
0
100
AcDbLine
 62
7
  6
CONTINUOUS
 10
466.5373188898
 20
313.3580632176
 11
466.7456526204
 21
313.6772121157
  0
LINE
  5
323
100
AcDbEntity
  8
0
100
AcDbLine
 62
7
  6
CONTINUOUS
 10
471.5373188898
 20
313.3580632176
 11
471.7456520244
 21
313.6772121157
  0
LINE
  5
324
100
AcDbEntity
  8
0
100
AcDbLine
 62
7
  6
CONTINUOUS
 10
475.9123188898
 20
311.97508451
 11
475.5998188898
 21
311.5495526459
  0
LINE
  5
325
100
AcDbEntity
  8
0
100
AcDbLine
 62
7
  6
CONTINUOUS
 10
476.4331523224
 20
310.2729567554
 11
476.2248188898
 21
310.4857226874
  0
LINE
  5
326
100
AcDbEntity
  8
0
100
AcDbLine
 62
7
  6
CONTINUOUS
 10
474.2456520244
 20
313.8899781223
 11
473.8289857551
 21
314.3155100237
  0
LINE
  5
327
100
AcDbEntity
  8
0
100
AcDbLine
 62
7
  6
CONTINUOUS
 10
466.1206526204
 20
313.8899781223
 11
465.9123188898
 21
313.4644461836
  0
LINE
  5
328
100
AcDbEntity
  8
0
100
AcDbLine
 62
7
  6
CONTINUOUS
 10
471.1206520244
 20
313.8899781223
 11
470.9123188898
 21
313.4644461836
  0
LINE
  5
329
100
AcDbEntity
  8
0
100
AcDbLine
 62
7
  6
CONTINUOUS
 10
475.5998188898
 20
310.4857226874
 11
475.9123188898
 21
310.0601908233
  0
LINE
  5
32A
100
AcDbEntity
  8
0
100
AcDbLine
 62
7
  6
CONTINUOUS
 10
466.7456526204
 20
310.5921056535
 11
466.5373188898
 21
310.9112548496
  0
LINE
  5
32B
100
AcDbEntity
  8
0
100
AcDbLine
 62
7
  6
CONTINUOUS
 10
473.6206520244
 20
313.6772121157
 11
473.8289857551
 21
313.3580632176
  0
LINE
  5
32C
100
AcDbEntity
  8
0
100
AcDbLine
 62
7
  6
CONTINUOUS
 10
465.9123188898
 20
310.8048715856
 11
466.1206526204
 21
310.3793397214
  0
LINE
  5
32D
100
AcDbEntity
  8
RUNDUNGEN
100
AcDbLine
 62
7
  6
CONTINUOUS
 10
457.5789855763
 20
279.1346589591
 11
457.5789855763
 21
293.3399107795
  0
LINE
  5
32E
100
AcDbEntity
  8
RUNDUNGEN
100
AcDbLine
 62
7
  6
CONTINUOUS
 10
457.5789855763
 20
302.9294126243
 11
457.5789855763
 21
317.1346589591
  0
LINE
  5
32F
100
AcDbEntity
  8
0
100
AcDbLine
 62
7
  6
CONTINUOUS
 10
465.8081526204
 20
312.9325313534
 11
465.8081526204
 21
311.3367867138
  0
LINE
  5
330
100
AcDbEntity
  8
0
100
AcDbLine
 62
7
  6
CONTINUOUS
 10
466.4331526204
 20
311.3367867138
 11
466.4331526204
 21
312.9325313534
  0
LINE
  5
331
100
AcDbEntity
  8
0
100
AcDbLine
 62
7
  6
CONTINUOUS
 10
469.3498188898
 20
313.9963610884
 11
469.3498188898
 21
310.2729567554
  0
LINE
  5
332
100
AcDbEntity
  8
0
100
AcDbLine
 62
7
  6
CONTINUOUS
 10
469.9748188898
 20
309.6346589591
 11
469.9748188898
 21
314.6346589591
  0
LINE
  5
333
100
AcDbEntity
  8
0
100
AcDbLine
 62
7
  6
CONTINUOUS
 10
465.9123188898
 20
313.4644461836
 11
465.8081526204
 21
312.9325313534
  0
LINE
  5
334
100
AcDbEntity
  8
0
100
AcDbLine
 62
7
  6
CONTINUOUS
 10
470.9123188898
 20
313.4644461836
 11
470.8081520244
 21
312.9325313534
  0
LINE
  5
335
100
AcDbEntity
  8
0
100
AcDbLine
 62
7
  6
CONTINUOUS
 10
466.4331526204
 20
312.9325313534
 11
466.5373188898
 21
313.3580632176
  0
LINE
  5
336
100
AcDbEntity
  8
0
100
AcDbLine
 62
7
  6
CONTINUOUS
 10
471.4331520244
 20
312.9325313534
 11
471.5373188898
 21
313.3580632176
  0
LINE
  5
337
100
AcDbEntity
  8
0
100
AcDbLine
 62
7
  6
CONTINUOUS
 10
475.5998188898
 20
311.5495526459
 11
475.4956523224
 21
311.2304037478
  0
LINE
  5
338
100
AcDbEntity
  8
0
100
AcDbLine
 62
7
  6
CONTINUOUS
 10
476.1206523224
 20
311.1240207817
 11
476.2248188898
 21
311.4431696798
  0
LINE
  5
339
100
AcDbEntity
  8
0
100
AcDbLine
 62
7
  6
CONTINUOUS
 10
474.4539854571
 20
313.4644461836
 11
474.2456520244
 21
313.8899781223
  0
LINE
  5
33A
100
AcDbEntity
  8
0
100
AcDbLine
 62
7
  6
CONTINUOUS
 10
475.3914854571
 20
314.6346589591
 11
476.3289854571
 21
312.1878504421
  0
LINE
  5
33B
100
AcDbEntity
  8
0
100
AcDbLine
 62
7
  6
CONTINUOUS
 10
476.9539856061
 20
312.4006163742
 11
476.1206523224
 21
314.6346589591
  0
LINE
  5
33C
100
AcDbEntity
  8
0
100
AcDbLine
 62
7
  6
CONTINUOUS
 10
475.4956523224
 20
310.8048715856
 11
475.5998188898
 21
310.4857226874
  0
LINE
  5
33D
100
AcDbEntity
  8
0
100
AcDbLine
 62
7
  6
CONTINUOUS
 10
476.2248188898
 20
310.4857226874
 11
476.1206523224
 21
310.8048715856
  0
LINE
  5
33E
100
AcDbEntity
  8
0
100
AcDbLine
 62
7
  6
CONTINUOUS
 10
466.5373188898
 20
310.9112548496
 11
466.4331526204
 21
311.3367867138
  0
LINE
  5
33F
100
AcDbEntity
  8
0
100
AcDbLine
 62
7
  6
CONTINUOUS
 10
465.8081526204
 20
311.3367867138
 11
465.9123188898
 21
310.8048715856
  0
LINE
  5
340
100
AcDbEntity
  8
0
100
AcDbLine
 62
7
  6
CONTINUOUS
 10
470.8081520244
 20
312.9325313534
 11
470.8081520244
 21
309.6346589591
  0
LINE
  5
341
100
AcDbEntity
  8
0
100
AcDbLine
 62
7
  6
CONTINUOUS
 10
471.4331520244
 20
309.6346589591
 11
471.4331520244
 21
312.9325313534
  0
LINE
  5
342
100
AcDbEntity
  8
0
100
AcDbLine
 62
7
  6
CONTINUOUS
 10
473.9331520244
 20
312.9325313534
 11
473.9331520244
 21
309.6346589591
  0
LINE
  5
343
100
AcDbEntity
  8
0
100
AcDbLine
 62
7
  6
CONTINUOUS
 10
474.5581523224
 20
309.6346589591
 11
474.5581523224
 21
312.9325313534
  0
LINE
  5
344
100
AcDbEntity
  8
0
100
AcDbLine
 62
7
  6
CONTINUOUS
 10
475.4956523224
 20
311.2304037478
 11
475.4956523224
 21
310.8048715856
  0
LINE
  5
345
100
AcDbEntity
  8
0
100
AcDbLine
 62
7
  6
CONTINUOUS
 10
476.1206523224
 20
310.8048715856
 11
476.1206523224
 21
311.1240207817
  0
LINE
  5
346
100
AcDbEntity
  8
0
100
AcDbLine
 62
7
  6
CONTINUOUS
 10
478.7248188898
 20
314.6346589591
 11
478.7248188898
 21
312.4006163742
  0
LINE
  5
347
100
AcDbEntity
  8
0
100
AcDbLine
 62
7
  6
CONTINUOUS
 10
478.7248188898
 20
311.762318578
 11
478.7248188898
 21
310.1665737893
  0
LINE
  5
348
100
AcDbEntity
  8
0
100
AcDbLine
 62
7
  6
CONTINUOUS
 10
479.3498188898
 20
309.6346589591
 11
479.3498188898
 21
314.6346589591
  0
LINE
  5
349
100
AcDbEntity
  8
BEZUGSACHSEN
100
AcDbLine
 62
7
  6
CONTINUOUS
 10
480.0789855763
 20
303.1846589591
 11
480.0789855763
 21
293.0846589591
  0
LINE
  5
34A
100
AcDbEntity
  8
0
100
AcDbLine
 62
7
  6
CONTINUOUS
 10
497.3110363839
 20
283.5987605742
 11
494.4450109801
 21
278.6346589591
  0
LINE
  5
34B
100
AcDbEntity
  8
BEZUGSACHSEN
100
AcDbLine
 62
7
  6
CONTINUOUS
 10
494.4450109801
 20
317.6346589591
 11
497.3110363839
 21
312.670557344
  0
LINE
  5
34C
100
AcDbEntity
  8
0
100
AcDbLine
 62
7
  6
CONTINUOUS
 10
473.8289857551
 20
313.3580632176
 11
473.9331520244
 21
312.9325313534
  0
LINE
  5
34D
100
AcDbEntity
  8
0
100
AcDbLine
 62
7
  6
CONTINUOUS
 10
474.5581523224
 20
312.9325313534
 11
474.4539854571
 21
313.4644461836
  0
LINE
  5
34E
100
AcDbEntity
  8
BEZUGSACHSEN
100
AcDbLine
 62
7
  6
CONTINUOUS
 10
491.0789855763
 20
303.1846589591
 11
491.0789855763
 21
293.0846589591
  0
LINE
  5
34F
100
AcDbEntity
  8
0
100
AcDbLine
 62
7
  6
CONTINUOUS
 10
497.5789855763
 20
284.5987605742
 11
497.5789855763
 21
287.1375002351
  0
LINE
  5
350
100
AcDbEntity
  8
BEZUGSACHSEN
100
AcDbLine
 62
7
  6
CONTINUOUS
 10
497.5789855763
 20
309.1318176831
 11
497.5789855763
 21
311.670557344
  0
LINE
  5
351
100
AcDbEntity
  8
0
100
AcDbLine
 62
7
  6
CONTINUOUS
 10
547.8849065819
 20
191.1346589591
 11
567.1002968911
 21
191.1346589591
  0
LINE
  5
352
100
AcDbEntity
  8
0
100
AcDbLine
 62
7
  6
CONTINUOUS
 10
547.8849065819
 20
405.1346589591
 11
537.4926017365
 21
399.1346589591
  0
LINE
  5
353
100
AcDbEntity
  8
0
100
AcDbLine
 62
7
  6
CONTINUOUS
 10
537.4926017365
 20
197.1346589591
 11
577.4926017365
 21
197.1346589591
  0
LINE
  5
354
100
AcDbEntity
  8
0
100
AcDbLine
 62
7
  6
CONTINUOUS
 10
537.4926017365
 20
197.1346589591
 11
547.8849065819
 21
191.1346589591
  0
LINE
  5
355
100
AcDbEntity
  8
0
100
AcDbLine
 62
7
  6
CONTINUOUS
 10
537.4926017365
 20
208.1346589591
 11
577.4926017365
 21
208.1346589591
  0
LINE
  5
356
100
AcDbEntity
  8
0
100
AcDbLine
 62
7
  6
CONTINUOUS
 10
546.1529886443
 20
223.1346589591
 11
568.8322148286
 21
223.1346589591
  0
LINE
  5
357
100
AcDbEntity
  8
0
100
AcDbLine
 62
7
  6
CONTINUOUS
 10
577.4926017365
 20
388.1346589591
 11
568.8323476986
 21
373.1346589591
  0
LINE
  5
358
100
AcDbEntity
  8
0
100
AcDbLine
 62
7
  6
CONTINUOUS
 10
568.8323476986
 20
223.1346589591
 11
577.4926017365
 21
208.1346589591
  0
LINE
  5
359
100
AcDbEntity
  8
0
100
AcDbLine
 62
7
  6
CONTINUOUS
 10
537.4926017365
 20
399.1346589591
 11
537.4926017365
 21
388.1346589591
  0
LINE
  5
35A
100
AcDbEntity
  8
0
100
AcDbLine
 62
7
  6
CONTINUOUS
 10
537.4926017365
 20
208.1346589591
 11
537.4926017365
 21
197.1346589591
  0
LINE
  5
35B
100
AcDbEntity
  8
BEZUGSACHSEN
100
AcDbLine
 62
7
  6
CONTINUOUS
 10
567.3926017365
 20
277.1346589591
 11
547.5926017365
 21
277.1346589591
  0
LINE
  5
35C
100
AcDbEntity
  8
BEZUGSACHSEN
100
AcDbLine
 62
7
  6
CONTINUOUS
 10
545.5926017365
 20
279.1346589591
 11
545.5926017365
 21
317.1346589591
  0
LINE
  5
35D
100
AcDbEntity
  8
0
100
AcDbLine
 62
7
  6
CONTINUOUS
 10
550.4926017365
 20
373.1346589591
 11
550.4926017365
 21
323.1538711585
  0
LINE
  5
35E
100
AcDbEntity
  8
0
100
AcDbLine
 62
7
  6
CONTINUOUS
 10
550.4926017365
 20
273.1156567903
 11
550.4926017365
 21
223.1346589591
  0
LINE
  5
35F
100
AcDbEntity
  8
BEZUGSACHSEN
100
AcDbLine
 62
7
  6
CONTINUOUS
 10
551.9926017365
 20
293.0846589591
 11
551.9926017365
 21
303.1846589591
  0
LINE
  5
360
100
AcDbEntity
  8
BEZUGSACHSEN
100
AcDbLine
 62
7
  6
CONTINUOUS
 10
547.5926007467
 20
293.0846589591
 11
567.3926027263
 21
293.0846589591
  0
LINE
  5
361
100
AcDbEntity
  8
BEZUGSACHSEN
100
AcDbLine
 62
7
  6
CONTINUOUS
 10
562.9926017365
 20
293.0846589591
 11
562.9926017365
 21
303.1846589591
  0
LINE
  5
362
100
AcDbEntity
  8
0
100
AcDbLine
 62
7
  6
CONTINUOUS
 10
564.4926017365
 20
373.1346589591
 11
564.4926017365
 21
323.1538711584
  0
LINE
  5
363
100
AcDbEntity
  8
0
100
AcDbLine
 62
7
  6
CONTINUOUS
 10
564.4926017365
 20
273.1155855215
 11
564.4926017365
 21
223.1346589591
  0
LINE
  5
364
100
AcDbEntity
  8
RUNDUNGEN
100
AcDbLine
 62
7
  6
CONTINUOUS
 10
567.3926027263
 20
303.1846589591
 11
551.032421457
 21
303.1846589591
  0
LINE
  5
365
100
AcDbEntity
  8
BEZUGSACHSEN
100
AcDbLine
 62
7
  6
CONTINUOUS
 10
547.5926007467
 20
303.1846589591
 11
563.952782016
 21
303.1846589591
  0
LINE
  5
366
100
AcDbEntity
  8
BEZUGSACHSEN
100
AcDbLine
 62
7
  6
CONTINUOUS
 10
569.3926017365
 20
279.1346589591
 11
569.3926017365
 21
305.1846589591
  0
LINE
  5
367
100
AcDbEntity
  8
RUNDUNGEN
100
AcDbLine
 62
7
  6
CONTINUOUS
 10
569.3926017365
 20
288.1346589591
 11
569.3926017365
 21
291.0846586665
  0
LINE
  5
368
100
AcDbEntity
  8
RUNDUNGEN
100
AcDbLine
 62
7
  6
CONTINUOUS
 10
569.3926017365
 20
305.1846592517
 11
569.3926017365
 21
317.1346589591
  0
LINE
  5
369
100
AcDbEntity
  8
0
100
AcDbLine
 62
7
  6
CONTINUOUS
 10
577.4926017365
 20
399.1346589591
 11
577.4926017365
 21
388.1346589591
  0
LINE
  5
36A
100
AcDbEntity
  8
0
100
AcDbLine
 62
7
  6
CONTINUOUS
 10
577.4926017365
 20
208.1346589591
 11
577.4926017365
 21
197.1346589591
  0
LINE
  5
36B
100
AcDbEntity
  8
BEZUGSACHSEN
100
AcDbLine
 62
7
  6
CONTINUOUS
 10
547.5926017365
 20
319.1346589591
 11
559.5509534693
 21
319.1346589591
  0
LINE
  5
36C
100
AcDbEntity
  8
RUNDUNGEN
100
AcDbLine
 62
7
  6
CONTINUOUS
 10
559.5509534693
 20
319.1346589591
 11
567.3926017365
 21
319.1346589591
  0
LINE
  5
36D
100
AcDbEntity
  8
0
100
AcDbLine
 62
7
  6
CONTINUOUS
 10
546.1528557743
 20
223.1346589591
 11
537.4926017365
 21
208.1346589591
  0
LINE
  5
36E
100
AcDbEntity
  8
0
100
AcDbLine
 62
7
  6
CONTINUOUS
 10
537.4926017365
 20
388.1346589591
 11
546.1528557743
 21
373.1346589591
  0
LINE
  5
36F
100
AcDbEntity
  8
0
100
AcDbLine
 62
7
  6
CONTINUOUS
 10
546.1529886443
 20
373.1346589591
 11
568.8322148286
 21
373.1346589591
  0
LINE
  5
370
100
AcDbEntity
  8
0
100
AcDbLine
 62
7
  6
CONTINUOUS
 10
537.4926017365
 20
388.1346589591
 11
577.4926017365
 21
388.1346589591
  0
LINE
  5
371
100
AcDbEntity
  8
0
100
AcDbLine
 62
7
  6
CONTINUOUS
 10
577.4926017365
 20
197.1346589591
 11
567.1002968911
 21
191.1346589591
  0
LINE
  5
372
100
AcDbEntity
  8
0
100
AcDbLine
 62
7
  6
CONTINUOUS
 10
537.4926017365
 20
399.1346589591
 11
577.4926017365
 21
399.1346589591
  0
LINE
  5
373
100
AcDbEntity
  8
0
100
AcDbLine
 62
7
  6
CONTINUOUS
 10
547.8849065819
 20
405.1346589591
 11
567.1002968911
 21
405.1346589591
  0
LINE
  5
374
100
AcDbEntity
  8
0
100
AcDbLine
 62
7
  6
CONTINUOUS
 10
567.1002968911
 20
405.1346589591
 11
577.4926017365
 21
399.1346589591
  0
LINE
  5
375
100
AcDbEntity
  8
BEZUGSACHSEN
100
AcDbLine
 62
7
  6
CONTINUOUS
 10
57.5789855763
 20
96.3055281929
 11
57.5789855763
 21
76.5055281929
  0
LINE
  5
376
100
AcDbEntity
  8
RUNDUNGEN
100
AcDbLine
 62
7
  6
CONTINUOUS
 10
91.5789855763
 20
110.4055281929
 11
91.5789855763
 21
62.4055281929
  0
LINE
  5
377
100
AcDbEntity
  8
RUNDUNGEN
100
AcDbLine
 62
7
  6
CONTINUOUS
 10
98.5789855763
 20
60.9055281929
 11
98.5789855763
 21
111.9055281929
  0
LINE
  5
378
100
AcDbEntity
  8
BEZUGSACHSEN
100
AcDbLine
 62
7
  6
CONTINUOUS
 10
25.0181282761
 20
97.8270138654
 11
21.439397998
 21
94.7736993917
  0
LINE
  5
379
100
AcDbEntity
  8
RUNDUNGEN
100
AcDbLine
 62
7
  6
CONTINUOUS
 10
25.0181282761
 20
74.9840425204
 11
21.439397998
 21
78.0373569942
  0
LINE
  5
37A
100
AcDbEntity
  8
RUNDUNGEN
100
AcDbLine
 62
7
  6
CONTINUOUS
 10
120.0789855763
 20
109.4054294226
 11
120.0789855763
 21
63.4055281929
  0
LINE
  5
37B
100
AcDbEntity
  8
RUNDUNGEN
100
AcDbLine
 62
7
  6
CONTINUOUS
 10
124.5789855763
 20
62.405528193
 11
124.5789855763
 21
63.4940060251
  0
LINE
  5
37C
100
AcDbEntity
  8
0
100
AcDbLine
 62
7
  6
CONTINUOUS
 10
134.007133583
 20
110.4055281929
 11
134.007133583
 21
86.4055281929
  0
LINE
  5
37D
100
AcDbEntity
  8
RUNDUNGEN
100
AcDbLine
 62
7
  6
CONTINUOUS
 10
134.007133583
 20
86.4055281929
 11
134.007133583
 21
63.4940060251
  0
LWPOLYLINE
  5
37E
100
AcDbEntity
  8
RUNDUNGEN
100
AcDbPolyline
 62
7
  6
CONTINUOUS
 90
5
 70
0
 10
146.5383379568
 20
69.8648315695
 10
146.5373774261
 20
69.8620249902
 10
146.5342007599
 20
69.8533399927
 10
146.5415309359
 20
69.8691111275
 10
146.5617901345
 20
69.9076279007
  0
LINE
  5
37F
100
AcDbEntity
  8
0
100
AcDbLine
 62
7
  6
CONTINUOUS
 10
163.5789855763
 20
105.4055281929
 11
163.5789855763
 21
105.9800013659
  0
LINE
  5
380
100
AcDbEntity
  8
0
100
AcDbLine
 62
7
  6
CONTINUOUS
 10
171.5789855763
 20
104.0690499256
 11
171.5789855763
 21
104.7129037558
  0
LINE
  5
381
100
AcDbEntity
  8
RUNDUNGEN
100
AcDbLine
 62
7
  6
CONTINUOUS
 10
146.5617901345
 20
69.9076279007
 11
146.5989621884
 21
69.9706923277
  0
LWPOLYLINE
  5
382
100
AcDbEntity
  8
RUNDUNGEN
100
AcDbPolyline
 62
7
  6
CONTINUOUS
 90
27
 70
0
 10
146.5966095471
 20
69.9668824063
 10
146.6469505012
 20
70.0447461534
 10
146.7140810706
 20
70.1402250774
 10
146.7988206941
 20
70.2520514539
 10
146.9022279439
 20
70.3795494663
 10
147.0252321938
 20
70.5219577286
 10
147.168814359
 20
70.6785918837
 10
147.3343420299
 20
70.8491351827
 10
147.5211814099
 20
71.0311885487
 10
147.729018627
 20
71.2227735615
 10
147.9564532275
 20
71.4210279105
 10
148.2017423601
 20
71.6229858566
 10
148.4630013792
 20
71.8256852165
 10
148.7379248293
 20
72.0260156681
 10
149.023869434
 20
72.2208556376
 10
149.3173712949
 20
72.406830252
 10
149.616313717
 20
72.5817313378
 10
149.9167349858
 20
72.7426262198
 10
150.2193473054
 20
72.8894055677
 10
150.5234978204
 20
73.0210089126
 10
150.8297791926
 20
73.1369439694
 10
151.1387865702
 20
73.2364529305
 10
151.4496995359
 20
73.3181923887
 10
151.7625855715
 20
73.3812539205
 10
152.0754598502
 20
73.4244126157
 10
152.3870474404
 20
73.4472001654
 10
152.5789855763
 20
73.4510839425
  0
LINE
  5
383
100
AcDbEntity
  8
0
100
AcDbLine
 62
7
  6
CONTINUOUS
 10
179.5789855763
 20
105.4055281929
 11
179.5789855763
 21
105.9800013659
  0
LINE
  5
384
100
AcDbEntity
  8
RUNDUNGEN
100
AcDbLine
 62
7
  6
CONTINUOUS
 10
134.0072756075
 20
63.4041112553
 11
139.8588269375
 21
67.5021661911
  0
LINE
  5
385
100
AcDbEntity
  8
RUNDUNGEN
100
AcDbLine
 62
7
  6
CONTINUOUS
 10
139.8588269367
 20
67.5021660411
 11
139.8884168463
 21
67.52279004
  0
LINE
  5
386
100
AcDbEntity
  8
RUNDUNGEN
100
AcDbLine
 62
7
  6
CONTINUOUS
 10
139.8884168463
 20
67.52279004
 11
139.9738185213
 21
67.5805726187
  0
LINE
  5
387
100
AcDbEntity
  8
RUNDUNGEN
100
AcDbLine
 62
7
  6
CONTINUOUS
 10
139.9637381912
 20
67.5738847142
 11
140.046971204
 21
67.6280324373
  0
LINE
  5
388
100
AcDbEntity
  8
RUNDUNGEN
100
AcDbLine
 62
7
  6
CONTINUOUS
 10
140.0399163402
 20
67.6235687146
 11
140.080081783
 21
67.6489820186
  0
LINE
  5
389
100
AcDbEntity
  8
0
100
AcDbLine
 62
7
  6
CONTINUOUS
 10
134.007133583
 20
110.4055281929
 11
139.8564853794
 21
106.3097679715
  0
LINE
  5
38A
100
AcDbEntity
  8
RUNDUNGEN
100
AcDbLine
 62
7
  6
CONTINUOUS
 10
140.0800880153
 20
67.6489591229
 11
140.2785182007
 21
67.7661542373
  0
LINE
  5
38B
100
AcDbEntity
  8
RUNDUNGEN
100
AcDbLine
 62
7
  6
CONTINUOUS
 10
140.267743758
 20
67.7601147587
 11
140.6062774066
 21
67.931424808
  0
LINE
  5
38C
100
AcDbEntity
  8
RUNDUNGEN
100
AcDbLine
 62
7
  6
CONTINUOUS
 10
241.5789855763
 20
69.3879844847
 11
241.5789855763
 21
68.9056034454
  0
LINE
  5
38D
100
AcDbEntity
  8
RUNDUNGEN
100
AcDbLine
 62
7
  6
CONTINUOUS
 10
140.5948214854
 20
67.9262021054
 11
140.9515277574
 21
68.072270271
  0
LINE
  5
38E
100
AcDbEntity
  8
0
100
AcDbLine
 62
7
  6
CONTINUOUS
 10
233.4154170626
 20
105.5261429514
 11
234.1263831219
 21
105.7849134345
  0
LINE
  5
38F
100
AcDbEntity
  8
RUNDUNGEN
100
AcDbLine
 62
7
  6
CONTINUOUS
 10
140.9394421533
 20
68.0678737212
 11
141.3126137719
 21
68.1877071046
  0
LINE
  5
390
100
AcDbEntity
  8
RUNDUNGEN
100
AcDbLine
 62
7
  6
CONTINUOUS
 10
277.9958767584
 20
72.4536085761
 11
278.3548646794
 21
72.5478234439
  0
LINE
  5
391
100
AcDbEntity
  8
RUNDUNGEN
100
AcDbLine
 62
7
  6
CONTINUOUS
 10
278.344507111
 20
72.5454289591
 11
278.7032684244
 21
72.6169509485
  0
LINE
  5
392
100
AcDbEntity
  8
RUNDUNGEN
100
AcDbLine
 62
7
  6
CONTINUOUS
 10
278.6925655617
 20
72.6151610716
 11
279.0474219011
 21
72.663094016
  0
LINE
  5
393
100
AcDbEntity
  8
RUNDUNGEN
100
AcDbLine
 62
7
  6
CONTINUOUS
 10
279.0364905112
 20
72.661970586
 11
279.3832249168
 21
72.6864778881
  0
LINE
  5
394
100
AcDbEntity
  8
RUNDUNGEN
100
AcDbLine
 62
7
  6
CONTINUOUS
 10
142.45743877
 20
68.3711669406
 11
142.7243675613
 21
68.3777509319
  0
LINE
  5
395
100
AcDbEntity
  8
RUNDUNGEN
100
AcDbLine
 62
7
  6
CONTINUOUS
 10
279.3722605472
 20
72.6860565235
 11
279.5789855766
 21
72.6901556481
  0
LINE
  5
396
100
AcDbEntity
  8
RUNDUNGEN
100
AcDbLine
 62
7
  6
CONTINUOUS
 10
93.5789855763
 20
60.4055281929
 11
98.0789855763
 21
60.4055281929
  0
LINE
  5
397
100
AcDbEntity
  8
BEZUGSACHSEN
100
AcDbLine
 62
7
  6
CONTINUOUS
 10
93.5789855763
 20
60.4055281929
 11
98.0789855763
 21
60.4055281929
  0
LINE
  5
398
100
AcDbEntity
  8
0
100
AcDbLine
 62
7
  6
CONTINUOUS
 10
121.0789855763
 20
62.4055281929
 11
124.5789855763
 21
62.4055281929
  0
LINE
  5
399
100
AcDbEntity
  8
RUNDUNGEN
100
AcDbLine
 62
7
  6
CONTINUOUS
 10
134.0024053245
 20
63.4032995391
 11
124.5789855763
 21
63.4032995391
  0
LINE
  5
39A
100
AcDbEntity
  8
0
100
AcDbLine
 62
7
  6
CONTINUOUS
 10
243.5789855763
 20
66.9055281929
 11
253.1809448464
 21
66.9055281929
  0
LINE
  5
39B
100
AcDbEntity
  8
0
100
AcDbLine
 62
7
  6
CONTINUOUS
 10
261.9770263062
 20
66.9055281929
 11
271.5789855763
 21
66.9055281929
  0
LINE
  5
39C
100
AcDbEntity
  8
0
100
AcDbLine
 62
7
  6
CONTINUOUS
 10
374.6130530632
 20
66.9055281929
 11
395.0789855763
 21
66.9055281929
  0
LINE
  5
39D
100
AcDbEntity
  8
0
100
AcDbLine
 62
7
  6
CONTINUOUS
 10
370.5789855763
 20
67.4055281929
 11
372.4336035914
 21
67.4055281929
  0
LINE
  5
39E
100
AcDbEntity
  8
RUNDUNGEN
100
AcDbLine
 62
7
  6
CONTINUOUS
 10
142.7243675612
 20
68.3777504152
 11
144.6068060544
 21
68.3777504152
  0
LWPOLYLINE
  5
39F
100
AcDbEntity
  8
RUNDUNGEN
100
AcDbPolyline
 62
7
  6
CONTINUOUS
 90
24
 70
0
 10
235.5789861611
 20
72.6901555845
 10
235.7748149836
 20
72.6864774155
 10
236.1105235072
 20
72.6630951533
 10
236.4543391349
 20
72.6170121934
 10
236.8022660221
 20
72.5480169667
 10
237.1507652902
 20
72.4569312007
 10
237.4963559247
 20
72.3455294422
 10
237.8349433454
 20
72.2166401282
 10
238.1655084156
 20
72.07246388
 10
238.4865034744
 20
71.9155072062
 10
238.7971525118
 20
71.7479363611
 10
239.0969948321
 20
71.5716405225
 10
239.3848295356
 20
71.388851643
 10
239.6599356974
 20
71.2014571598
 10
239.921290668
 20
71.0114772322
 10
240.1684712552
 20
70.8204232787
 10
240.399416216
 20
70.6310598894
 10
240.6129771761
 20
70.4455308304
 10
240.8072980022
 20
70.266721363
 10
240.9812151381
 20
70.0970884072
 10
241.1336589909
 20
69.939225278
 10
241.264016695
 20
69.7955277264
 10
241.3724904039
 20
69.6677773064
 10
241.4593269496
 20
69.558028852
  0
LWPOLYLINE
  5
3A0
100
AcDbEntity
  8
RUNDUNGEN
100
AcDbPolyline
 62
7
  6
CONTINUOUS
 90
9
 70
0
 10
232.7313749302
 20
73.4510769289
 10
232.7779815258
 20
73.4492106265
 10
232.8313393622
 20
73.4425578861
 10
232.8849939751
 20
73.4313216242
 10
232.9398766403
 20
73.4154671678
 10
232.9947732568
 20
73.3955646733
 10
233.0502538561
 20
73.3716457254
 10
233.1066786609
 20
73.3436215819
 10
233.1301133492
 20
73.330933985
  0
LINE
  5
3A1
100
AcDbEntity
  8
RUNDUNGEN
100
AcDbLine
 62
7
  6
CONTINUOUS
 10
233.4751227277
 20
73.1406578363
 11
233.8551156854
 21
72.9330574414
  0
LINE
  5
3A2
100
AcDbEntity
  8
RUNDUNGEN
100
AcDbLine
 62
7
  6
CONTINUOUS
 10
233.130122375
 20
73.3309382798
 11
233.4809676299
 21
73.1374558864
  0
LINE
  5
3A3
100
AcDbEntity
  8
RUNDUNGEN
100
AcDbLine
 62
7
  6
CONTINUOUS
 10
241.4593269496
 20
69.558028852
 11
241.5295610166
 21
69.4620089095
  0
LINE
  5
3A4
100
AcDbEntity
  8
RUNDUNGEN
100
AcDbLine
 62
7
  6
CONTINUOUS
 10
241.5265205584
 20
69.4663502563
 11
241.5779245782
 21
69.3898667946
  0
LWPOLYLINE
  5
3A5
100
AcDbEntity
  8
RUNDUNGEN
100
AcDbPolyline
 62
7
  6
CONTINUOUS
 90
3
 70
0
 10
241.5757604176
 20
69.3932466438
 10
241.6087247941
 20
69.3394620673
 10
241.6186022933
 20
69.3220140407
  0
LINE
  5
3A6
100
AcDbEntity
  8
RUNDUNGEN
100
AcDbLine
 62
7
  6
CONTINUOUS
 10
141.6743145176
 20
68.2741262619
 11
142.073647275
 21
68.3383746399
  0
LINE
  5
3A7
100
AcDbEntity
  8
RUNDUNGEN
100
AcDbLine
 62
7
  6
CONTINUOUS
 10
142.0608013172
 20
68.3367905372
 11
142.4700893187
 21
68.3717737185
  0
LINE
  5
3A8
100
AcDbEntity
  8
RUNDUNGEN
100
AcDbLine
 62
7
  6
CONTINUOUS
 10
234.8104234085
 20
72.6901536791
 11
235.5789861579
 21
72.6901536791
  0
LINE
  5
3A9
100
AcDbEntity
  8
RUNDUNGEN
100
AcDbLine
 62
7
  6
CONTINUOUS
 10
279.5789855763
 20
72.6901536791
 11
280.3475477441
 21
72.6901536791
  0
LINE
  5
3AA
100
AcDbEntity
  8
RUNDUNGEN
100
AcDbLine
 62
7
  6
CONTINUOUS
 10
152.5789855763
 20
73.4510770428
 11
232.7313749345
 21
73.4510770428
  0
LINE
  5
3AB
100
AcDbEntity
  8
RUNDUNGEN
100
AcDbLine
 62
7
  6
CONTINUOUS
 10
282.4265943766
 20
73.4510770428
 11
362.5789847031
 21
73.4510770428
  0
LINE
  5
3AC
100
AcDbEntity
  8
RUNDUNGEN
100
AcDbLine
 62
7
  6
CONTINUOUS
 10
55.5789855763
 20
74.5055281929
 11
26.3162351085
 21
74.5055281929
  0
LINE
  5
3AD
100
AcDbEntity
  8
BEZUGSACHSEN
100
AcDbLine
 62
7
  6
CONTINUOUS
 10
459.5789855763
 20
74.5055281929
 11
488.841736044
 21
74.5055281929
  0
LINE
  5
3AE
100
AcDbEntity
  8
0
100
AcDbLine
 62
7
  6
CONTINUOUS
 10
120.0789855763
 20
76.4055281929
 11
98.5789855763
 21
76.4055281929
  0
LINE
  5
3AF
100
AcDbEntity
  8
0
100
AcDbLine
 62
7
  6
CONTINUOUS
 10
91.5789855763
 20
76.4055281929
 11
58.3722095357
 21
76.4055281929
  0
LINE
  5
3B0
100
AcDbEntity
  8
0
100
AcDbLine
 62
7
  6
CONTINUOUS
 10
396.0789855763
 20
76.4055281929
 11
456.7857628836
 21
76.4055281929
  0
LWPOLYLINE
  5
3B1
100
AcDbEntity
  8
RUNDUNGEN
100
AcDbPolyline
 62
7
  6
CONTINUOUS
 90
24
 70
0
 10
362.5789847004
 20
73.4510840429
 10
362.7799897794
 20
73.4468244138
 10
363.111677743
 20
73.4212440502
 10
363.4462878209
 20
73.372334228
 10
363.7815028808
 20
73.3006286253
 10
364.1149938838
 20
73.2075218134
 10
364.4442116484
 20
73.0950162235
 10
364.7661487278
 20
72.9660261875
 10
365.0804444199
 20
72.8225511803
 10
365.3863762465
 20
72.666764011
 10
365.6838693455
 20
72.5003606329
 10
365.9731007184
 20
72.3246204252
 10
366.2532809659
 20
72.1412982284
 10
366.5239457695
 20
71.9518285214
 10
366.7844107693
 20
71.7576771883
 10
367.0346473622
 20
71.5596882496
 10
367.2720662262
 20
71.3607178743
 10
367.4954728267
 20
71.1626050213
 10
367.7014529133
 20
70.9693151456
 10
367.8879044554
 20
70.7840445675
 10
368.052865744
 20
70.6102091919
 10
368.1948090038
 20
70.4511820404
 10
368.3140483309
 20
70.3086884484
 10
368.4105780983
 20
70.1851467302
  0
LINE
  5
3B2
100
AcDbEntity
  8
RUNDUNGEN
100
AcDbLine
 62
7
  6
CONTINUOUS
 10
273.5789855763
 20
69.388104363
 11
273.5789855763
 21
68.9055281929
  0
LINE
  5
3B3
100
AcDbEntity
  8
RUNDUNGEN
100
AcDbLine
 62
7
  6
CONTINUOUS
 10
141.300036353
 20
68.1841969258
 11
141.687161087
 21
68.2766821369
  0
LINE
  5
3B4
100
AcDbEntity
  8
0
100
AcDbLine
 62
7
  6
CONTINUOUS
 10
120.0789855763
 20
91.4055281929
 11
98.5789855763
 21
91.4055281929
  0
LINE
  5
3B5
100
AcDbEntity
  8
0
100
AcDbLine
 62
7
  6
CONTINUOUS
 10
91.5789855763
 20
91.4055281929
 11
60.7618203563
 21
91.4055281929
  0
LINE
  5
3B6
100
AcDbEntity
  8
0
100
AcDbLine
 62
7
  6
CONTINUOUS
 10
120.0789855763
 20
95.0657822308
 11
98.5789855763
 21
95.0657822308
  0
LINE
  5
3B7
100
AcDbEntity
  8
0
100
AcDbLine
 62
7
  6
CONTINUOUS
 10
91.5789855763
 20
95.0657822308
 11
65.5789855763
 21
95.0657822308
  0
LINE
  5
3B8
100
AcDbEntity
  8
0
100
AcDbLine
 62
7
  6
CONTINUOUS
 10
120.0789855763
 20
96.4055281929
 11
98.5789855763
 21
96.4055281929
  0
LINE
  5
3B9
100
AcDbEntity
  8
0
100
AcDbLine
 62
7
  6
CONTINUOUS
 10
91.5789855763
 20
96.4055281929
 11
58.372209536
 21
96.4055281929
  0
LINE
  5
3BA
100
AcDbEntity
  8
0
100
AcDbLine
 62
7
  6
CONTINUOUS
 10
396.0789855763
 20
96.4055281929
 11
456.7857628833
 21
96.4055281929
  0
LINE
  5
3BB
100
AcDbEntity
  8
BEZUGSACHSEN
100
AcDbLine
 62
7
  6
CONTINUOUS
 10
55.5789855763
 20
98.3055281929
 11
26.3162351085
 21
98.3055281929
  0
LINE
  5
3BC
100
AcDbEntity
  8
BEZUGSACHSEN
100
AcDbLine
 62
7
  6
CONTINUOUS
 10
459.5789855763
 20
98.3055281929
 11
488.841736044
 21
98.3055281929
  0
LINE
  5
3BD
100
AcDbEntity
  8
RUNDUNGEN
100
AcDbLine
 62
7
  6
CONTINUOUS
 10
313.5789144488
 20
103.9055281929
 11
287.5789701102
 21
103.9055281929
  0
LINE
  5
3BE
100
AcDbEntity
  8
0
100
AcDbLine
 62
7
  6
CONTINUOUS
 10
288.0789855763
 20
104.6055281929
 11
295.8789855763
 21
104.6055281929
  0
LINE
  5
3BF
100
AcDbEntity
  8
0
100
AcDbLine
 62
7
  6
CONTINUOUS
 10
297.0789855763
 20
104.6055281929
 11
304.2789855763
 21
104.6055281929
  0
LINE
  5
3C0
100
AcDbEntity
  8
0
100
AcDbLine
 62
7
  6
CONTINUOUS
 10
306.0789855763
 20
104.6055281929
 11
313.4289855763
 21
104.6055281929
  0
LINE
  5
3C1
100
AcDbEntity
  8
0
100
AcDbLine
 62
7
  6
CONTINUOUS
 10
178.5731621834
 20
106.0047364731
 11
179.5789855763
 21
105.9800013659
  0
LINE
  5
3C2
100
AcDbEntity
  8
0
100
AcDbLine
 62
7
  6
CONTINUOUS
 10
288.0789855763
 20
103.9055281929
 11
288.0789855763
 21
104.6055281929
  0
LINE
  5
3C3
100
AcDbEntity
  8
0
100
AcDbLine
 62
7
  6
CONTINUOUS
 10
289.5789855763
 20
103.9055281929
 11
289.5789855763
 21
104.6055281929
  0
LWPOLYLINE
  5
3C4
100
AcDbEntity
  8
RUNDUNGEN
100
AcDbPolyline
 62
7
  6
CONTINUOUS
 90
5
 70
0
 10
273.5251678578
 20
69.2947040925
 10
273.5245687409
 20
69.2932961592
 10
273.5300754195
 20
69.3045728721
 10
273.5480460577
 20
69.3373861467
 10
273.5803571976
 20
69.3903528203
  0
LINE
  5
3C5
100
AcDbEntity
  8
RUNDUNGEN
100
AcDbLine
 62
7
  6
CONTINUOUS
 10
273.5803571976
 20
69.3903528203
 11
273.6309130986
 21
69.4655819533
  0
LINE
  5
3C6
100
AcDbEntity
  8
RUNDUNGEN
100
AcDbLine
 62
7
  6
CONTINUOUS
 10
273.6289097151
 20
69.4627257206
 11
273.6978815126
 21
69.5570224845
  0
LINE
  5
3C7
100
AcDbEntity
  8
RUNDUNGEN
100
AcDbLine
 62
7
  6
CONTINUOUS
 10
273.6953609344
 20
69.5537092993
 11
273.7844370835
 21
69.666504526
  0
LINE
  5
3C8
100
AcDbEntity
  8
RUNDUNGEN
100
AcDbLine
 62
7
  6
CONTINUOUS
 10
273.7814055429
 20
69.6627966547
 11
273.8925639718
 21
69.7939402944
  0
LINE
  5
3C9
100
AcDbEntity
  8
RUNDUNGEN
100
AcDbLine
 62
7
  6
CONTINUOUS
 10
273.8890223846
 20
69.7898995912
 11
274.0225053385
 21
69.9372918424
  0
LINE
  5
3CA
100
AcDbEntity
  8
RUNDUNGEN
100
AcDbLine
 62
7
  6
CONTINUOUS
 10
274.0184857908
 20
69.9329914605
 11
274.1744690925
 21
70.0947888743
  0
LINE
  5
3CB
100
AcDbEntity
  8
RUNDUNGEN
100
AcDbLine
 62
7
  6
CONTINUOUS
 10
274.1700319119
 20
70.090321128
 11
274.3478860947
 21
70.2640779334
  0
LINE
  5
3CC
100
AcDbEntity
  8
RUNDUNGEN
100
AcDbLine
 62
7
  6
CONTINUOUS
 10
274.3430641506
 20
70.2595027639
 11
274.5417105491
 21
70.4425929614
  0
LINE
  5
3CD
100
AcDbEntity
  8
RUNDUNGEN
100
AcDbLine
 62
7
  6
CONTINUOUS
 10
274.5365381677
 20
70.4379593766
 11
274.7548226639
 21
70.627906417
  0
LINE
  5
3CE
100
AcDbEntity
  8
RUNDUNGEN
100
AcDbLine
 62
7
  6
CONTINUOUS
 10
274.7493170193
 20
70.6232510529
 11
274.9854203805
 21
70.8171724702
  0
LINE
  5
3CF
100
AcDbEntity
  8
RUNDUNGEN
100
AcDbLine
 62
7
  6
CONTINUOUS
 10
274.979582508
 20
70.8125144716
 11
275.2323695649
 21
71.0082419701
  0
LINE
  5
3D0
100
AcDbEntity
  8
RUNDUNGEN
100
AcDbLine
 62
7
  6
CONTINUOUS
 10
275.2261925443
 20
71.0036011914
 11
275.4936340506
 21
71.1983558344
  0
LINE
  5
3D1
100
AcDbEntity
  8
RUNDUNGEN
100
AcDbLine
 62
7
  6
CONTINUOUS
 10
275.4871071859
 20
71.1937507505
 11
275.7687823802
 21
71.3859800171
  0
LINE
  5
3D2
100
AcDbEntity
  8
RUNDUNGEN
100
AcDbLine
 62
7
  6
CONTINUOUS
 10
275.7618888241
 20
71.3814324957
 11
276.056777442
 21
71.5690696875
  0
LINE
  5
3D3
100
AcDbEntity
  8
RUNDUNGEN
100
AcDbLine
 62
7
  6
CONTINUOUS
 10
276.0495049124
 20
71.5646109349
 11
276.3568926721
 21
71.7457205292
  0
LWPOLYLINE
  5
3D4
100
AcDbEntity
  8
RUNDUNGEN
100
AcDbPolyline
 62
7
  6
CONTINUOUS
 90
9
 70
0
 10
281.671148362
 20
73.1342353175
 10
282.0383526605
 20
73.3366910411
 10
282.095223264
 20
73.3657550888
 10
282.1511313509
 20
73.3906789033
 10
282.20649976
 20
73.4115891171
 10
282.2618562718
 20
73.4284532651
 10
282.3160453426
 20
73.4406909351
 10
282.3699793604
 20
73.4483237027
 10
282.426594375
 20
73.4510770883
  0
LINE
  5
3D5
100
AcDbEntity
  8
RUNDUNGEN
100
AcDbLine
 62
7
  6
CONTINUOUS
 10
281.3028554651
 20
72.9330574405
 11
281.677007172
 21
73.1374578895
  0
LINE
  5
3D6
100
AcDbEntity
  8
RUNDUNGEN
100
AcDbLine
 62
7
  6
CONTINUOUS
 10
276.3492239733
 20
71.7413849416
 11
276.6679200525
 21
71.9136812566
  0
LINE
  5
3D7
100
AcDbEntity
  8
RUNDUNGEN
100
AcDbLine
 62
7
  6
CONTINUOUS
 10
276.6598344692
 20
71.9095089269
 11
276.9893773658
 21
72.0710343634
  0
LINE
  5
3D8
100
AcDbEntity
  8
RUNDUNGEN
100
AcDbLine
 62
7
  6
CONTINUOUS
 10
276.9808552686
 20
72.06707753
 11
277.3204567227
 21
72.2155864912
  0
LINE
  5
3D9
100
AcDbEntity
  8
RUNDUNGEN
100
AcDbLine
 62
7
  6
CONTINUOUS
 10
277.3114836929
 20
72.2119076415
 11
277.6596016024
 21
72.344820123
  0
LINE
  5
3DA
100
AcDbEntity
  8
RUNDUNGEN
100
AcDbLine
 62
7
  6
CONTINUOUS
 10
277.6501684797
 20
72.341487734
 11
278.0057960727
 21
72.4565208285
  0
LINE
  5
3DB
100
AcDbEntity
  8
0
100
AcDbLine
 62
7
  6
CONTINUOUS
 10
163.5789855763
 20
105.9800013659
 11
164.584802871
 21
106.0047378794
  0
LINE
  5
3DC
100
AcDbEntity
  8
0
100
AcDbLine
 62
7
  6
CONTINUOUS
 10
142.7243675611
 20
105.4055281929
 11
164.5789540383
 21
105.4055281929
  0
LINE
  5
3DD
100
AcDbEntity
  8
0
100
AcDbLine
 62
7
  6
CONTINUOUS
 10
178.5790171142
 20
105.4055281929
 11
232.731376776
 21
105.4055281929
  0
LINE
  5
3DE
100
AcDbEntity
  8
0
100
AcDbLine
 62
7
  6
CONTINUOUS
 10
282.4265943766
 20
105.4055281929
 11
284.4608077649
 21
105.4055281929
  0
LINE
  5
3DF
100
AcDbEntity
  8
0
100
AcDbLine
 62
7
  6
CONTINUOUS
 10
316.6970206903
 20
105.4055281929
 11
372.4336035914
 21
105.4055281929
  0
LINE
  5
3E0
100
AcDbEntity
  8
0
100
AcDbLine
 62
7
  6
CONTINUOUS
 10
234.8104234085
 20
105.9055281929
 11
253.1809448464
 21
105.9055281929
  0
LINE
  5
3E1
100
AcDbEntity
  8
0
100
AcDbLine
 62
7
  6
CONTINUOUS
 10
261.9770263062
 20
105.9055281929
 11
280.3475477441
 21
105.9055281929
  0
LINE
  5
3E2
100
AcDbEntity
  8
0
100
AcDbLine
 62
7
  6
CONTINUOUS
 10
374.6130530632
 20
105.9055281929
 11
395.0789855763
 21
105.9055281929
  0
LINE
  5
3E3
100
AcDbEntity
  8
0
100
AcDbLine
 62
7
  6
CONTINUOUS
 10
164.5784155367
 20
106.0055281929
 11
178.5795556917
 21
106.0055281929
  0
LINE
  5
3E4
100
AcDbEntity
  8
0
100
AcDbLine
 62
7
  6
CONTINUOUS
 10
121.0789855763
 20
110.4055281929
 11
134.007133583
 21
110.4055281929
  0
LINE
  5
3E5
100
AcDbEntity
  8
RUNDUNGEN
100
AcDbLine
 62
7
  6
CONTINUOUS
 10
93.5789855763
 20
112.4055281929
 11
98.0789855763
 21
112.4055281929
  0
LINE
  5
3E6
100
AcDbEntity
  8
BEZUGSACHSEN
100
AcDbLine
 62
7
  6
CONTINUOUS
 10
93.5789855763
 20
112.4055281929
 11
98.0789855763
 21
112.4055281929
  0
LINE
  5
3E7
100
AcDbEntity
  8
0
100
AcDbLine
 62
7
  6
CONTINUOUS
 10
281.0315880307
 20
105.7849134345
 11
281.74255409
 21
105.5261429514
  0
LWPOLYLINE
  5
3E8
100
AcDbEntity
  8
RUNDUNGEN
100
AcDbPolyline
 62
7
  6
CONTINUOUS
 90
11
 70
0
 10
286.017735452
 20
104.6555281723
 10
285.8885142092
 20
104.8016998159
 10
285.7455909582
 20
104.9346484006
 10
285.5903790755
 20
105.0530375041
 10
285.4243555002
 20
105.1557365654
 10
285.2491006714
 20
105.2417642923
 10
285.0662830784
 20
105.3102982304
 10
284.8776438084
 20
105.3606823651
 10
284.6849799815
 20
105.3924334789
 10
284.4901275652
 20
105.4052458592
 10
284.4564850121
 20
105.4055288344
  0
LINE
  5
3E9
100
AcDbEntity
  8
0
100
AcDbLine
 62
7
  6
CONTINUOUS
 10
294.1469347687
 20
103.9055281929
 11
294.1469347687
 21
104.6055281929
  0
LINE
  5
3EA
100
AcDbEntity
  8
0
100
AcDbLine
 62
7
  6
CONTINUOUS
 10
295.8789855763
 20
103.9055281929
 11
295.8789855763
 21
104.6055281929
  0
LINE
  5
3EB
100
AcDbEntity
  8
0
100
AcDbLine
 62
7
  6
CONTINUOUS
 10
297.0789855763
 20
103.9055281929
 11
297.0789855763
 21
104.6055281929
  0
LINE
  5
3EC
100
AcDbEntity
  8
0
100
AcDbLine
 62
7
  6
CONTINUOUS
 10
304.2789855763
 20
103.9055281929
 11
304.2789855763
 21
104.6055281929
  0
LINE
  5
3ED
100
AcDbEntity
  8
0
100
AcDbLine
 62
7
  6
CONTINUOUS
 10
306.0789855763
 20
103.9055281929
 11
306.0789855763
 21
104.6055281929
  0
LINE
  5
3EE
100
AcDbEntity
  8
0
100
AcDbLine
 62
7
  6
CONTINUOUS
 10
313.4289855763
 20
103.9055281929
 11
313.4289855763
 21
104.6055281929
  0
LINE
  5
3EF
100
AcDbEntity
  8
RUNDUNGEN
100
AcDbLine
 62
7
  6
CONTINUOUS
 10
368.4105780983
 20
70.1851467302
 11
368.4896036438
 21
70.0760510596
  0
LWPOLYLINE
  5
3F0
100
AcDbEntity
  8
RUNDUNGEN
100
AcDbPolyline
 62
7
  6
CONTINUOUS
 90
4
 70
0
 10
368.4868129004
 20
70.0800654902
 10
368.544645413
 20
69.9935317479
 10
368.585382672
 20
69.9266869297
 10
368.5984029998
 20
69.9036064421
  0
LINE
  5
3F1
100
AcDbEntity
  8
RUNDUNGEN
100
AcDbLine
 62
7
  6
CONTINUOUS
 10
368.5789855763
 20
69.9371837748
 11
368.5789855763
 21
69.4056100849
  0
LINE
  5
3F2
100
AcDbEntity
  8
0
100
AcDbLine
 62
7
  6
CONTINUOUS
 10
374.6130530632
 20
105.9055281929
 11
374.6130530632
 21
66.9055281929
  0
LINE
  5
3F3
100
AcDbEntity
  8
RUNDUNGEN
100
AcDbLine
 62
7
  6
CONTINUOUS
 10
396.0789855763
 20
67.9055281929
 11
396.0789855763
 21
104.9055281929
  0
LINE
  5
3F4
100
AcDbEntity
  8
BEZUGSACHSEN
100
AcDbLine
 62
7
  6
CONTINUOUS
 10
490.1398428765
 20
74.9840425204
 11
493.7185731546
 21
78.0373569942
  0
LINE
  5
3F5
100
AcDbEntity
  8
BEZUGSACHSEN
100
AcDbLine
 62
7
  6
CONTINUOUS
 10
490.1398428765
 20
97.8270138654
 11
493.7185731546
 21
94.7736993917
  0
LINE
  5
3F6
100
AcDbEntity
  8
BEZUGSACHSEN
100
AcDbLine
 62
7
  6
CONTINUOUS
 10
457.5789855763
 20
76.5055281929
 11
457.5789855763
 21
96.3055281929
  0
ARC
  5
3F7
100
AcDbEntity
  8
RUNDUNGEN
100
AcDbCircle
 62
7
  6
CONTINUOUS
 10
152.5789855763
 20
293.1346589591
 40
6.0
100
AcDbArc
 50
180.0005164764
 51
270.002481054
  0
ARC
  5
3F8
100
AcDbEntity
  8
RUNDUNGEN
100
AcDbCircle
 62
7
  6
CONTINUOUS
 10
235.5789855763
 20
293.1346589591
 40
6.0
100
AcDbArc
 50
269.9993904099
 51
0.0016984834
  0
ARC
  5
3F9
100
AcDbEntity
  8
0
100
AcDbCircle
 62
7
  6
CONTINUOUS
 10
65.5789855763
 20
288.1346589591
 40
5.0
100
AcDbArc
 50
90.0
 51
164.4577317766
  0
ARC
  5
3FA
100
AcDbEntity
  8
RUNDUNGEN
100
AcDbCircle
 62
7
  6
CONTINUOUS
 10
142.7243675611
 20
274.1346589591
 40
5.0
100
AcDbArc
 50
90.0
 51
125.0
  0
ARC
  5
3FB
100
AcDbEntity
  8
BEZUGSACHSEN
100
AcDbCircle
 62
7
  6
CONTINUOUS
 10
36.5789855763
 20
284.1346589591
 40
3.5
100
AcDbArc
 50
89.9999986653
 51
270.0000009097
  0
ARC
  5
3FC
100
AcDbEntity
  8
BEZUGSACHSEN
100
AcDbCircle
 62
7
  6
CONTINUOUS
 10
50.5789855763
 20
284.1346589591
 40
3.5
100
AcDbArc
 50
269.9999986653
 51
90.0000009097
  0
ARC
  5
3FD
100
AcDbEntity
  8
BEZUGSACHSEN
100
AcDbCircle
 62
7
  6
CONTINUOUS
 10
23.3110363839
 20
280.1346589591
 40
3.0
100
AcDbArc
 50
210.0
 51
270.0
  0
ARC
  5
3FE
100
AcDbEntity
  8
RUNDUNGEN
100
AcDbCircle
 62
7
  6
CONTINUOUS
 10
93.5789855763
 20
274.1346589591
 40
2.0
100
AcDbArc
 50
179.9999984885
 51
270.0
  0
ARC
  5
3FF
100
AcDbEntity
  8
BEZUGSACHSEN
100
AcDbCircle
 62
7
  6
CONTINUOUS
 10
19.5789855763
 20
284.5987605742
 40
2.0
100
AcDbArc
 50
180.0
 51
210.0
  0
ARC
  5
400
100
AcDbEntity
  8
BEZUGSACHSEN
100
AcDbCircle
 62
7
  6
CONTINUOUS
 10
19.5789855763
 20
287.1375002351
 40
2.0
100
AcDbArc
 50
142.3415379938
 51
180.0
  0
ARC
  5
401
100
AcDbEntity
  8
BEZUGSACHSEN
100
AcDbCircle
 62
7
  6
CONTINUOUS
 10
21.8909148117
 20
291.0846589591
 40
2.0
100
AcDbArc
 50
90.0
 51
156.9417559121
  0
ARC
  5
402
100
AcDbEntity
  8
BEZUGSACHSEN
100
AcDbCircle
 62
7
  6
CONTINUOUS
 10
55.5789855763
 20
279.1346589591
 40
2.0
100
AcDbArc
 50
270.0
 51
360.0
  0
ARC
  5
403
100
AcDbEntity
  8
RUNDUNGEN
100
AcDbCircle
 62
7
  6
CONTINUOUS
 10
234.8104234085
 20
280.6346589591
 40
2.0
100
AcDbArc
 50
250.0
 51
270.0
  0
ARC
  5
404
100
AcDbEntity
  8
RUNDUNGEN
100
AcDbCircle
 62
7
  6
CONTINUOUS
 10
232.731376776
 20
277.1346589591
 40
2.0
100
AcDbArc
 50
70.0
 51
90.0
  0
ARC
  5
405
100
AcDbEntity
  8
RUNDUNGEN
100
AcDbCircle
 62
7
  6
CONTINUOUS
 10
135.4185096789
 20
290.9887483916
 40
1.4113761021
100
AcDbArc
 50
177.7886256086
 51
179.9946431206
  0
ARC
  5
406
100
AcDbEntity
  8
RUNDUNGEN
100
AcDbCircle
 62
7
  6
CONTINUOUS
 10
58.5789855763
 20
287.1346589591
 40
1.0
100
AcDbArc
 50
90.0
 51
180.0
  0
ARC
  5
407
100
AcDbEntity
  8
RUNDUNGEN
100
AcDbCircle
 62
7
  6
CONTINUOUS
 10
121.0789855763
 20
275.1346589591
 40
1.0
100
AcDbArc
 50
180.0
 51
270.0
  0
ARC
  5
408
100
AcDbEntity
  8
RUNDUNGEN
100
AcDbCircle
 62
7
  6
CONTINUOUS
 10
98.0789855763
 20
272.6346589591
 40
0.5
100
AcDbArc
 50
270.0
 51
360.0
  0
ARC
  5
409
100
AcDbEntity
  8
0
100
AcDbCircle
 62
7
  6
CONTINUOUS
 10
176.7271203754
 20
309.9674507212
 40
29.1353600109
100
AcDbArc
 50
323.2731676295
 51
324.7079467431
  0
ARC
  5
40A
100
AcDbEntity
  8
BEZUGSACHSEN
100
AcDbCircle
 62
7
  6
CONTINUOUS
 10
5.3289855763
 20
298.1346589591
 40
16.0
100
AcDbArc
 50
322.3415379938
 51
336.9417559121
  0
ARC
  5
40B
100
AcDbEntity
  8
0
100
AcDbCircle
 62
7
  6
CONTINUOUS
 10
5.3289855763
 20
298.1346589591
 40
16.0
100
AcDbArc
 50
23.0582440879
 51
37.6584620062
  0
ARC
  5
40C
100
AcDbEntity
  8
RUNDUNGEN
100
AcDbCircle
 62
7
  6
CONTINUOUS
 10
152.5789855763
 20
303.1346589591
 40
6.0
100
AcDbArc
 50
89.9983471528
 51
179.9978476667
  0
ARC
  5
40D
100
AcDbEntity
  8
RUNDUNGEN
100
AcDbCircle
 62
7
  6
CONTINUOUS
 10
235.5789855763
 20
303.1346589591
 40
6.0
100
AcDbArc
 50
359.9981936497
 51
90.0015777035
  0
ARC
  5
40E
100
AcDbEntity
  8
BEZUGSACHSEN
100
AcDbCircle
 62
7
  6
CONTINUOUS
 10
42.5289855763
 20
298.1346589591
 40
5.05
100
AcDbArc
 50
270.0
 51
90.0
  0
ARC
  5
40F
100
AcDbEntity
  8
RUNDUNGEN
100
AcDbCircle
 62
7
  6
CONTINUOUS
 10
142.7243675611
 20
322.1346589591
 40
5.0
100
AcDbArc
 50
235.0
 51
270.0
  0
ARC
  5
410
100
AcDbEntity
  8
RUNDUNGEN
100
AcDbCircle
 62
7
  6
CONTINUOUS
 10
36.5789855763
 20
312.1346589591
 40
3.5
100
AcDbArc
 50
89.9999990903
 51
270.0000013347
  0
ARC
  5
411
100
AcDbEntity
  8
RUNDUNGEN
100
AcDbCircle
 62
7
  6
CONTINUOUS
 10
50.5789855763
 20
312.1346589591
 40
3.5
100
AcDbArc
 50
269.9999990903
 51
90.0000013347
  0
ARC
  5
412
100
AcDbEntity
  8
RUNDUNGEN
100
AcDbCircle
 62
7
  6
CONTINUOUS
 10
23.3110363839
 20
316.1346589591
 40
3.0
100
AcDbArc
 50
90.0
 51
150.0
  0
ARC
  5
413
100
AcDbEntity
  8
RUNDUNGEN
100
AcDbCircle
 62
7
  6
CONTINUOUS
 10
93.5789855763
 20
322.1346589591
 40
2.0
100
AcDbArc
 50
90.0
 51
180.0000015115
  0
ARC
  5
414
100
AcDbEntity
  8
RUNDUNGEN
100
AcDbCircle
 62
7
  6
CONTINUOUS
 10
55.5789855763
 20
317.1346589591
 40
2.0
100
AcDbArc
 50
0.0
 51
90.0
  0
ARC
  5
415
100
AcDbEntity
  8
RUNDUNGEN
100
AcDbCircle
 62
7
  6
CONTINUOUS
 10
19.5789855763
 20
311.670557344
 40
2.0
100
AcDbArc
 50
150.0
 51
180.0
  0
ARC
  5
416
100
AcDbEntity
  8
RUNDUNGEN
100
AcDbCircle
 62
7
  6
CONTINUOUS
 10
19.5789855763
 20
309.1318176831
 40
2.0
100
AcDbArc
 50
180.0
 51
217.6584620062
  0
ARC
  5
417
100
AcDbEntity
  8
RUNDUNGEN
100
AcDbCircle
 62
7
  6
CONTINUOUS
 10
21.8909148117
 20
305.1846589591
 40
2.0
100
AcDbArc
 50
203.0582440879
 51
270.0
  0
ARC
  5
418
100
AcDbEntity
  8
RUNDUNGEN
100
AcDbCircle
 62
7
  6
CONTINUOUS
 10
234.8104234085
 20
315.6346589591
 40
2.0
100
AcDbArc
 50
90.0
 51
110.0
  0
ARC
  5
419
100
AcDbEntity
  8
RUNDUNGEN
100
AcDbCircle
 62
7
  6
CONTINUOUS
 10
232.731376776
 20
319.1346589591
 40
2.0
100
AcDbArc
 50
270.0
 51
290.0
  0
ARC
  5
41A
100
AcDbEntity
  8
RUNDUNGEN
100
AcDbCircle
 62
7
  6
CONTINUOUS
 10
135.4185096097
 20
305.2805657414
 40
1.4113760325
100
AcDbArc
 50
180.0052032151
 51
182.2112211723
  0
ARC
  5
41B
100
AcDbEntity
  8
RUNDUNGEN
100
AcDbCircle
 62
7
  6
CONTINUOUS
 10
58.5789855763
 20
309.1346589591
 40
1.0
100
AcDbArc
 50
180.0
 51
270.0
  0
ARC
  5
41C
100
AcDbEntity
  8
RUNDUNGEN
100
AcDbCircle
 62
7
  6
CONTINUOUS
 10
121.0789855763
 20
321.1346589591
 40
1.0
100
AcDbArc
 50
90.0
 51
180.0
  0
ARC
  5
41D
100
AcDbEntity
  8
RUNDUNGEN
100
AcDbCircle
 62
7
  6
CONTINUOUS
 10
98.0789855763
 20
323.6346589591
 40
0.5
100
AcDbArc
 50
0.0
 51
90.0
  0
ARC
  5
41E
100
AcDbEntity
  8
RUNDUNGEN
100
AcDbCircle
 62
7
  6
CONTINUOUS
 10
362.5789855763
 20
293.1346589591
 40
6.0
100
AcDbArc
 50
269.9974648987
 51
0.0017796289
  0
ARC
  5
41F
100
AcDbEntity
  8
RUNDUNGEN
100
AcDbCircle
 62
7
  6
CONTINUOUS
 10
279.5789855763
 20
293.1346589591
 40
6.0
100
AcDbArc
 50
179.9982722685
 51
270.0006466578
  0
ARC
  5
420
100
AcDbEntity
  8
0
100
AcDbCircle
 62
7
  6
CONTINUOUS
 10
372.4336035914
 20
274.1346589591
 40
5.0
100
AcDbArc
 50
64.1580672368
 51
90.0
  0
ARC
  5
421
100
AcDbEntity
  8
RUNDUNGEN
100
AcDbCircle
 62
7
  6
CONTINUOUS
 10
478.5789855763
 20
284.1346589591
 40
3.5
100
AcDbArc
 50
269.9999990903
 51
90.0000013347
  0
ARC
  5
422
100
AcDbEntity
  8
RUNDUNGEN
100
AcDbCircle
 62
7
  6
CONTINUOUS
 10
464.5789855763
 20
284.1346589591
 40
3.5
100
AcDbArc
 50
89.9999990903
 51
270.0000013347
  0
ARC
  5
423
100
AcDbEntity
  8
RUNDUNGEN
100
AcDbCircle
 62
7
  6
CONTINUOUS
 10
491.8469347687
 20
280.1346589591
 40
3.0
100
AcDbArc
 50
270.0
 51
330.0
  0
ARC
  5
424
100
AcDbEntity
  8
RUNDUNGEN
100
AcDbCircle
 62
7
  6
CONTINUOUS
 10
459.5789855763
 20
279.1346589591
 40
2.0
100
AcDbArc
 50
180.0
 51
270.0
  0
ARC
  5
425
100
AcDbEntity
  8
RUNDUNGEN
100
AcDbCircle
 62
7
  6
CONTINUOUS
 10
495.5789855763
 20
284.5987605742
 40
2.0
100
AcDbArc
 50
330.0
 51
360.0
  0
ARC
  5
426
100
AcDbEntity
  8
RUNDUNGEN
100
AcDbCircle
 62
7
  6
CONTINUOUS
 10
495.5789855763
 20
287.1375002351
 40
2.0
100
AcDbArc
 50
0.0
 51
37.6584620062
  0
ARC
  5
427
100
AcDbEntity
  8
RUNDUNGEN
100
AcDbCircle
 62
7
  6
CONTINUOUS
 10
493.2670563408
 20
291.0846589591
 40
2.0
100
AcDbArc
 50
23.0582440879
 51
90.0
  0
ARC
  5
428
100
AcDbEntity
  8
RUNDUNGEN
100
AcDbCircle
 62
7
  6
CONTINUOUS
 10
280.3475477441
 20
280.6346589591
 40
2.0
100
AcDbArc
 50
270.0
 51
290.0
  0
ARC
  5
429
100
AcDbEntity
  8
RUNDUNGEN
100
AcDbCircle
 62
7
  6
CONTINUOUS
 10
282.4265943766
 20
277.1346589591
 40
2.0
100
AcDbArc
 50
90.0
 51
110.0
  0
ARC
  5
42A
100
AcDbEntity
  8
RUNDUNGEN
100
AcDbCircle
 62
7
  6
CONTINUOUS
 10
456.5789855763
 20
287.1346589591
 40
1.0
100
AcDbArc
 50
0.0
 51
90.0
  0
ARC
  5
42B
100
AcDbEntity
  8
RUNDUNGEN
100
AcDbCircle
 62
7
  6
CONTINUOUS
 10
395.0789855763
 20
279.6346589591
 40
1.0
100
AcDbArc
 50
270.0
 51
360.0
  0
ARC
  5
42C
100
AcDbEntity
  8
RUNDUNGEN
100
AcDbCircle
 62
7
  6
CONTINUOUS
 10
362.5789855763
 20
303.1346589591
 40
6.0
100
AcDbArc
 50
359.9982629184
 51
90.0016632488
  0
ARC
  5
42D
100
AcDbEntity
  8
RUNDUNGEN
100
AcDbCircle
 62
7
  6
CONTINUOUS
 10
279.5789855763
 20
303.1346589591
 40
6.0
100
AcDbArc
 50
89.9984222897
 51
180.0018045908
  0
ARC
  5
42E
100
AcDbEntity
  8
0
100
AcDbCircle
 62
7
  6
CONTINUOUS
 10
372.4336035914
 20
322.1346589591
 40
5.0
100
AcDbArc
 50
270.0
 51
295.8419327632
  0
ARC
  5
42F
100
AcDbEntity
  8
RUNDUNGEN
100
AcDbCircle
 62
7
  6
CONTINUOUS
 10
280.3475477441
 20
315.6346589591
 40
2.0
100
AcDbArc
 50
70.0
 51
90.0
  0
ARC
  5
430
100
AcDbEntity
  8
RUNDUNGEN
100
AcDbCircle
 62
7
  6
CONTINUOUS
 10
282.4265943766
 20
319.1346589591
 40
2.0
100
AcDbArc
 50
250.0
 51
270.0
  0
ARC
  5
431
100
AcDbEntity
  8
BEZUGSACHSEN
100
AcDbCircle
 62
7
  6
CONTINUOUS
 10
509.8289855763
 20
298.1346589591
 40
16.0
100
AcDbArc
 50
142.3415379938
 51
156.9417559121
  0
ARC
  5
432
100
AcDbEntity
  8
0
100
AcDbCircle
 62
7
  6
CONTINUOUS
 10
509.8289855763
 20
298.1346589591
 40
16.0
100
AcDbArc
 50
203.0582440879
 51
217.6584620062
  0
ARC
  5
433
100
AcDbEntity
  8
BEZUGSACHSEN
100
AcDbCircle
 62
7
  6
CONTINUOUS
 10
472.6289855763
 20
298.1346589591
 40
5.05
100
AcDbArc
 50
90.0
 51
270.0
  0
ARC
  5
434
100
AcDbEntity
  8
BEZUGSACHSEN
100
AcDbCircle
 62
7
  6
CONTINUOUS
 10
495.5789855763
 20
309.1318176831
 40
2.0
100
AcDbArc
 50
322.3415379938
 51
360.0
  0
ARC
  5
435
100
AcDbEntity
  8
BEZUGSACHSEN
100
AcDbCircle
 62
7
  6
CONTINUOUS
 10
493.2670563408
 20
305.1846589591
 40
2.0
100
AcDbArc
 50
270.0
 51
336.9417559121
  0
ARC
  5
436
100
AcDbEntity
  8
RUNDUNGEN
100
AcDbCircle
 62
7
  6
CONTINUOUS
 10
456.5789855763
 20
309.1346589591
 40
1.0
100
AcDbArc
 50
270.0
 51
360.0
  0
ARC
  5
437
100
AcDbEntity
  8
BEZUGSACHSEN
100
AcDbCircle
 62
7
  6
CONTINUOUS
 10
478.5789855763
 20
312.1346589591
 40
3.5
100
AcDbArc
 50
269.9999986653
 51
90.0000009097
  0
ARC
  5
438
100
AcDbEntity
  8
BEZUGSACHSEN
100
AcDbCircle
 62
7
  6
CONTINUOUS
 10
464.5789855763
 20
312.1346589591
 40
3.5
100
AcDbArc
 50
89.9999986653
 51
270.0000009097
  0
ARC
  5
439
100
AcDbEntity
  8
BEZUGSACHSEN
100
AcDbCircle
 62
7
  6
CONTINUOUS
 10
491.8469347687
 20
316.1346589591
 40
3.0
100
AcDbArc
 50
30.0
 51
90.0
  0
ARC
  5
43A
100
AcDbEntity
  8
BEZUGSACHSEN
100
AcDbCircle
 62
7
  6
CONTINUOUS
 10
495.5789855763
 20
311.670557344
 40
2.0
100
AcDbArc
 50
0.0
 51
30.0
  0
ARC
  5
43B
100
AcDbEntity
  8
BEZUGSACHSEN
100
AcDbCircle
 62
7
  6
CONTINUOUS
 10
459.5789855763
 20
317.1346589591
 40
2.0
100
AcDbArc
 50
90.0
 51
180.0
  0
ARC
  5
43C
100
AcDbEntity
  8
RUNDUNGEN
100
AcDbCircle
 62
7
  6
CONTINUOUS
 10
395.0789855763
 20
316.6346589591
 40
1.0
100
AcDbArc
 50
0.0
 51
90.0
  0
CIRCLE
  5
43D
100
AcDbEntity
  8
RUNDUNGEN
100
AcDbCircle
 62
7
  6
CONTINUOUS
 10
557.4926017365
 20
298.1346589591
 40
26.0
  0
ARC
  5
43E
100
AcDbEntity
  8
RUNDUNGEN
100
AcDbCircle
 62
7
  6
CONTINUOUS
 10
557.4926017365
 20
298.1346589591
 40
19.5
100
AcDbArc
 50
350.3343266444
 51
9.6656733572
  0
CIRCLE
  5
43F
100
AcDbEntity
  8
BEZUGSACHSEN
100
AcDbCircle
 62
7
  6
CONTINUOUS
 10
539.4926017365
 20
298.1346589591
 40
3.5
  0
CIRCLE
  5
440
100
AcDbEntity
  8
BEZUGSACHSEN
100
AcDbCircle
 62
7
  6
CONTINUOUS
 10
575.4926017365
 20
298.1346589591
 40
3.5
  0
ARC
  5
441
100
AcDbEntity
  8
RUNDUNGEN
100
AcDbCircle
 62
7
  6
CONTINUOUS
 10
567.3926414442
 20
305.1846589591
 40
2.0
100
AcDbArc
 50
269.9988908126
 51
0.0000167644
  0
ARC
  5
442
100
AcDbEntity
  8
RUNDUNGEN
100
AcDbCircle
 62
7
  6
CONTINUOUS
 10
567.3926017365
 20
317.1346361503
 40
2.0
100
AcDbArc
 50
0.000653423
 51
90.0
  0
ARC
  5
443
100
AcDbEntity
  8
BEZUGSACHSEN
100
AcDbCircle
 62
7
  6
CONTINUOUS
 10
567.3926414442
 20
291.0846589591
 40
2.0
100
AcDbArc
 50
359.9999832356
 51
90.0011091874
  0
ARC
  5
444
100
AcDbEntity
  8
BEZUGSACHSEN
100
AcDbCircle
 62
7
  6
CONTINUOUS
 10
567.3926017365
 20
279.1346817679
 40
2.0
100
AcDbArc
 50
270.0
 51
359.999346577
  0
ARC
  5
445
100
AcDbEntity
  8
BEZUGSACHSEN
100
AcDbCircle
 62
7
  6
CONTINUOUS
 10
547.5925620287
 20
305.1846589591
 40
2.0
100
AcDbArc
 50
179.9999832356
 51
270.0011091874
  0
ARC
  5
446
100
AcDbEntity
  8
BEZUGSACHSEN
100
AcDbCircle
 62
7
  6
CONTINUOUS
 10
547.5926017365
 20
317.1346361503
 40
2.0
100
AcDbArc
 50
90.0
 51
179.999346577
  0
ARC
  5
447
100
AcDbEntity
  8
BEZUGSACHSEN
100
AcDbCircle
 62
7
  6
CONTINUOUS
 10
547.5926017365
 20
279.1346589591
 40
2.0
100
AcDbArc
 50
180.0
 51
270.0
  0
ARC
  5
448
100
AcDbEntity
  8
BEZUGSACHSEN
100
AcDbCircle
 62
7
  6
CONTINUOUS
 10
547.5925620287
 20
291.0846589591
 40
2.0
100
AcDbArc
 50
89.9988908126
 51
180.0000167644
  0
ARC
  5
449
100
AcDbEntity
  8
RUNDUNGEN
100
AcDbCircle
 62
7
  6
CONTINUOUS
 10
93.5789855763
 20
62.4055281929
 40
2.0
100
AcDbArc
 50
180.0
 51
270.0
  0
ARC
  5
44A
100
AcDbEntity
  8
RUNDUNGEN
100
AcDbCircle
 62
7
  6
CONTINUOUS
 10
121.0789855763
 20
63.4055281929
 40
1.0
100
AcDbArc
 50
180.0
 51
270.0
  0
ARC
  5
44B
100
AcDbEntity
  8
RUNDUNGEN
100
AcDbCircle
 62
7
  6
CONTINUOUS
 10
98.0789855763
 20
60.9055281929
 40
0.5
100
AcDbArc
 50
270.0
 51
360.0
  0
ARC
  5
44C
100
AcDbEntity
  8
RUNDUNGEN
100
AcDbCircle
 62
7
  6
CONTINUOUS
 10
26.3162351085
 20
76.5055281929
 40
2.0
100
AcDbArc
 50
229.5297285238
 51
269.9999999989
  0
ARC
  5
44D
100
AcDbEntity
  8
BEZUGSACHSEN
100
AcDbCircle
 62
7
  6
CONTINUOUS
 10
26.3162351085
 20
76.5055281929
 40
2.0
100
AcDbArc
 50
229.5297316227
 51
269.9999999989
  0
ARC
  5
44E
100
AcDbEntity
  8
RUNDUNGEN
100
AcDbCircle
 62
7
  6
CONTINUOUS
 10
58.3700504904
 20
75.4055286658
 40
0.999999957
100
AcDbArc
 50
90.0000000346
 51
158.4898387528
  0
ARC
  5
44F
100
AcDbEntity
  8
RUNDUNGEN
100
AcDbCircle
 62
7
  6
CONTINUOUS
 10
55.5789855763
 20
76.5055281929
 40
2.0
100
AcDbArc
 50
270.0
 51
360.0
  0
ARC
  5
450
100
AcDbEntity
  8
BEZUGSACHSEN
100
AcDbCircle
 62
7
  6
CONTINUOUS
 10
55.5789855763
 20
76.5055281929
 40
2.0
100
AcDbArc
 50
270.0
 51
341.9128191379
  0
ARC
  5
451
100
AcDbEntity
  8
RUNDUNGEN
100
AcDbCircle
 62
7
  6
CONTINUOUS
 10
144.5997981688
 20
70.3798582122
 40
2.0072935702
100
AcDbArc
 50
343.7141216234
 51
345.0705345368
  0
ARC
  5
452
100
AcDbEntity
  8
RUNDUNGEN
100
AcDbCircle
 62
7
  6
CONTINUOUS
 10
243.5789855763
 20
68.9055281929
 40
2.0
100
AcDbArc
 50
180.0
 51
270.0
  0
ARC
  5
453
100
AcDbEntity
  8
RUNDUNGEN
100
AcDbCircle
 62
7
  6
CONTINUOUS
 10
144.6068444892
 20
70.3776881973
 40
1.9999254977
100
AcDbArc
 50
270.0055657424
 51
343.717185386
  0
ARC
  5
454
100
AcDbEntity
  8
RUNDUNGEN
100
AcDbCircle
 62
7
  6
CONTINUOUS
 10
234.8102886853
 20
74.6896987542
 40
1.9995328354
100
AcDbArc
 50
241.4653270532
 51
270.0038601919
  0
ARC
  5
455
100
AcDbEntity
  8
RUNDUNGEN
100
AcDbCircle
 62
7
  6
CONTINUOUS
 10
28.5789855763
 20
86.4055281929
 40
11.0
100
AcDbArc
 50
136.7472407547
 51
229.5297285241
  0
ARC
  5
456
100
AcDbEntity
  8
BEZUGSACHSEN
100
AcDbCircle
 62
7
  6
CONTINUOUS
 10
28.5789855763
 20
86.4055281929
 40
11.0
100
AcDbArc
 50
216.6438438905
 51
223.9532422346
  0
ARC
  5
457
100
AcDbEntity
  8
BEZUGSACHSEN
100
AcDbCircle
 62
7
  6
CONTINUOUS
 10
28.5789855763
 20
86.4055281929
 40
11.0
100
AcDbArc
 50
130.4702714759
 51
211.159437455
  0
ARC
  5
458
100
AcDbEntity
  8
BEZUGSACHSEN
100
AcDbCircle
 62
7
  6
CONTINUOUS
 10
26.3162351085
 20
96.3055281929
 40
2.0
100
AcDbArc
 50
90.0
 51
130.4702714759
  0
ARC
  5
459
100
AcDbEntity
  8
BEZUGSACHSEN
100
AcDbCircle
 62
7
  6
CONTINUOUS
 10
55.5789855763
 20
96.3055281929
 40
2.0
100
AcDbArc
 50
0.0
 51
90.0
  0
ARC
  5
45A
100
AcDbEntity
  8
RUNDUNGEN
100
AcDbCircle
 62
7
  6
CONTINUOUS
 10
58.3700504904
 20
97.4055277201
 40
0.999999957
100
AcDbArc
 50
201.5101612472
 51
269.9999999654
  0
ARC
  5
45B
100
AcDbEntity
  8
RUNDUNGEN
100
AcDbCircle
 62
7
  6
CONTINUOUS
 10
93.5789855763
 20
110.4055281929
 40
2.0
100
AcDbArc
 50
90.0
 51
180.0
  0
ARC
  5
45C
100
AcDbEntity
  8
RUNDUNGEN
100
AcDbCircle
 62
7
  6
CONTINUOUS
 10
121.0789855763
 20
109.4055281929
 40
1.0
100
AcDbArc
 50
90.0
 51
180.0
  0
ARC
  5
45D
100
AcDbEntity
  8
RUNDUNGEN
100
AcDbCircle
 62
7
  6
CONTINUOUS
 10
98.0789855763
 20
111.9055281929
 40
0.5
100
AcDbArc
 50
0.0
 51
90.0
  0
ARC
  5
45E
100
AcDbEntity
  8
RUNDUNGEN
100
AcDbCircle
 62
7
  6
CONTINUOUS
 10
142.7243675611
 20
110.4055281929
 40
5.0
100
AcDbArc
 50
235.0
 51
270.0
  0
ARC
  5
45F
100
AcDbEntity
  8
RUNDUNGEN
100
AcDbCircle
 62
7
  6
CONTINUOUS
 10
234.8104234085
 20
103.9055281929
 40
2.0
100
AcDbArc
 50
90.0
 51
110.0
  0
ARC
  5
460
100
AcDbEntity
  8
RUNDUNGEN
100
AcDbCircle
 62
7
  6
CONTINUOUS
 10
232.731376776
 20
107.4055281929
 40
2.0
100
AcDbArc
 50
270.0
 51
290.0
  0
ARC
  5
461
100
AcDbEntity
  8
0
100
AcDbCircle
 62
7
  6
CONTINUOUS
 10
372.4336035914
 20
62.4055281929
 40
5.0
100
AcDbArc
 50
64.1580672368
 51
90.0
  0
ARC
  5
462
100
AcDbEntity
  8
RUNDUNGEN
100
AcDbCircle
 62
7
  6
CONTINUOUS
 10
271.5789855763
 20
68.9055281929
 40
2.0
100
AcDbArc
 50
270.0
 51
360.0
  0
ARC
  5
463
100
AcDbEntity
  8
RUNDUNGEN
100
AcDbCircle
 62
7
  6
CONTINUOUS
 10
370.5789855763
 20
69.4055281929
 40
2.0
100
AcDbArc
 50
180.0
 51
270.0
  0
ARC
  5
464
100
AcDbEntity
  8
RUNDUNGEN
100
AcDbCircle
 62
7
  6
CONTINUOUS
 10
280.3476824673
 20
74.6896987542
 40
1.9995328354
100
AcDbArc
 50
269.9961398081
 51
298.5346729466
  0
ARC
  5
465
100
AcDbEntity
  8
RUNDUNGEN
100
AcDbCircle
 62
7
  6
CONTINUOUS
 10
395.0789855763
 20
67.9055281929
 40
1.0
100
AcDbArc
 50
270.0
 51
360.0
  0
ARC
  5
466
100
AcDbEntity
  8
RUNDUNGEN
100
AcDbCircle
 62
7
  6
CONTINUOUS
 10
456.7879206732
 20
75.4055286651
 40
0.9999999571
100
AcDbArc
 50
21.5101612787
 51
89.9999999649
  0
ARC
  5
467
100
AcDbEntity
  8
RUNDUNGEN
100
AcDbCircle
 62
7
  6
CONTINUOUS
 10
459.5789855763
 20
76.5055281929
 40
2.0
100
AcDbArc
 50
180.0
 51
270.0
  0
ARC
  5
468
100
AcDbEntity
  8
BEZUGSACHSEN
100
AcDbCircle
 62
7
  6
CONTINUOUS
 10
459.5789855763
 20
76.5055281929
 40
2.0
100
AcDbArc
 50
180.0
 51
270.0
  0
ARC
  5
469
100
AcDbEntity
  8
RUNDUNGEN
100
AcDbCircle
 62
7
  6
CONTINUOUS
 10
488.841736044
 20
76.5055281929
 40
2.0
100
AcDbArc
 50
302.6450236525
 51
305.5427440096
  0
ARC
  5
46A
100
AcDbEntity
  8
RUNDUNGEN
100
AcDbCircle
 62
7
  6
CONTINUOUS
 10
488.841736044
 20
76.5055281929
 40
2.0
100
AcDbArc
 50
296.1113591355
 51
301.4385707258
  0
ARC
  5
46B
100
AcDbEntity
  8
RUNDUNGEN
100
AcDbCircle
 62
7
  6
CONTINUOUS
 10
488.841736044
 20
76.5055281929
 40
2.0
100
AcDbArc
 50
270.0000000011
 51
295.1508565808
  0
ARC
  5
46C
100
AcDbEntity
  8
BEZUGSACHSEN
100
AcDbCircle
 62
7
  6
CONTINUOUS
 10
488.841736044
 20
76.5055281929
 40
2.0
100
AcDbArc
 50
270.0
 51
310.4702714759
  0
CIRCLE
  5
46D
100
AcDbEntity
  8
0
100
AcDbCircle
 62
7
  6
CONTINUOUS
 10
257.5789855763
 20
86.4055281929
 40
20.0
  0
CIRCLE
  5
46E
100
AcDbEntity
  8
0
100
AcDbCircle
 62
7
  6
CONTINUOUS
 10
257.5789855763
 20
86.4055281929
 40
9.6076951546
  0
ARC
  5
46F
100
AcDbEntity
  8
0
100
AcDbCircle
 62
7
  6
CONTINUOUS
 10
372.4336035914
 20
110.4055281929
 40
5.0
100
AcDbArc
 50
270.0
 51
295.8419327632
  0
ARC
  5
470
100
AcDbEntity
  8
RUNDUNGEN
100
AcDbCircle
 62
7
  6
CONTINUOUS
 10
316.7014924219
 20
103.4055276711
 40
2.0000032256
100
AcDbArc
 50
89.9999296797
 51
141.3148450367
  0
ARC
  5
471
100
AcDbEntity
  8
RUNDUNGEN
100
AcDbCircle
 62
7
  6
CONTINUOUS
 10
280.3475477441
 20
103.9055281929
 40
2.0
100
AcDbArc
 50
70.0
 51
90.0
  0
ARC
  5
472
100
AcDbEntity
  8
RUNDUNGEN
100
AcDbCircle
 62
7
  6
CONTINUOUS
 10
282.4265943766
 20
107.4055281929
 40
2.0
100
AcDbArc
 50
250.0
 51
270.0
  0
ARC
  5
473
100
AcDbEntity
  8
RUNDUNGEN
100
AcDbCircle
 62
7
  6
CONTINUOUS
 10
313.5789855763
 20
105.9055281929
 40
2.0
100
AcDbArc
 50
269.9979623464
 51
321.316292637
  0
ARC
  5
474
100
AcDbEntity
  8
RUNDUNGEN
100
AcDbCircle
 62
7
  6
CONTINUOUS
 10
287.5789855763
 20
105.9055281929
 40
2.0
100
AcDbArc
 50
218.683612922
 51
269.9991338747
  0
ARC
  5
475
100
AcDbEntity
  8
RUNDUNGEN
100
AcDbCircle
 62
7
  6
CONTINUOUS
 10
459.5789855763
 20
96.3055281929
 40
2.0
100
AcDbArc
 50
158.4924030357
 51
179.9993068298
  0
ARC
  5
476
100
AcDbEntity
  8
BEZUGSACHSEN
100
AcDbCircle
 62
7
  6
CONTINUOUS
 10
459.5789855763
 20
96.3055281929
 40
2.0
100
AcDbArc
 50
90.0
 51
180.0
  0
ARC
  5
477
100
AcDbEntity
  8
RUNDUNGEN
100
AcDbCircle
 62
7
  6
CONTINUOUS
 10
456.7879206732
 20
97.4055277208
 40
0.9999999571
100
AcDbArc
 50
270.0000000351
 51
338.4898387213
  0
ARC
  5
478
100
AcDbEntity
  8
RUNDUNGEN
100
AcDbCircle
 62
7
  6
CONTINUOUS
 10
486.5789855763
 20
86.4055281929
 40
11.0
100
AcDbArc
 50
320.0203171932
 51
323.3588695328
  0
ARC
  5
479
100
AcDbEntity
  8
RUNDUNGEN
100
AcDbCircle
 62
7
  6
CONTINUOUS
 10
486.5789855763
 20
86.4055281929
 40
11.0
100
AcDbArc
 50
326.6400378706
 51
329.7132429135
  0
ARC
  5
47A
100
AcDbEntity
  8
RUNDUNGEN
100
AcDbCircle
 62
7
  6
CONTINUOUS
 10
486.5789855763
 20
86.4055281929
 40
11.0
100
AcDbArc
 50
331.3503050374
 51
334.2465018693
  0
ARC
  5
47B
100
AcDbEntity
  8
BEZUGSACHSEN
100
AcDbCircle
 62
7
  6
CONTINUOUS
 10
486.5789855763
 20
86.4055281929
 40
11.0
100
AcDbArc
 50
310.4702714759
 51
49.5297285241
  0
ARC
  5
47C
100
AcDbEntity
  8
BEZUGSACHSEN
100
AcDbCircle
 62
7
  6
CONTINUOUS
 10
488.841736044
 20
96.3055281929
 40
2.0
100
AcDbArc
 50
49.5297285241
 51
90.0
  0
ARC
  5
47D
100
AcDbEntity
  8
RUNDUNGEN
100
AcDbCircle
 62
7
  6
CONTINUOUS
 10
395.0789855763
 20
104.9055281929
 40
1.0
100
AcDbArc
 50
0.0
 51
90.0
  0
SPLINE
  5
47E
100
AcDbEntity
  8
0
100
AcDbSpline
 62
7
  6
CONTINUOUS
 70
0
 71
3
 72
8
 73
4
 74
0
 42
0.0000001
 43
0.0000001
 44
0.0000000001
 40
0.0
 40
0.0
 40
0.0
 40
0.0
 40
1.0
 40
1.0
 40
1.0
 40
1.0
 10
187.5789855763
 20
289.4744049213
 30
0.0
 10
188.2632808946
 20
290.2645610937
 30
0.0
 10
188.9357861438
 20
291.0657062595
 30
0.0
 10
189.5789855763
 20
291.8896609607
 30
0.0
  0
SPLINE
  5
47F
100
AcDbEntity
  8
BEZUGSACHSEN
100
AcDbSpline
 62
7
  6
CONTINUOUS
 70
0
 71
3
 72
15
 73
11
 74
0
 42
0.0000001
 43
0.0000001
 44
0.0000000001
 40
0.0
 40
0.0
 40
0.0
 40
0.0
 40
0.0401243133
 40
0.1507765763
 40
0.3116737125
 40
0.4999999395
 40
0.6883261742
 40
0.8492233524
 40
0.959875647
 40
1.0
 40
1.0
 40
1.0
 40
1.0
 10
250.0789855763
 20
278.6346589591
 30
0.0
 10
250.270910569
 20
278.7084776551
 30
0.0
 10
250.9952355985
 20
278.9780009986
 30
0.0
 10
252.5163500238
 20
279.4695767506
 30
0.0
 10
254.8211812309
 20
279.9880837347
 30
0.0
 10
257.5789846792
 20
280.2136725724
 30
0.0
 10
260.3367883611
 20
279.9880839529
 30
0.0
 10
262.6416200185
 20
279.4695770588
 30
0.0
 10
264.1627350237
 20
278.9780012062
 30
0.0
 10
264.8870603954
 20
278.7084777331
 30
0.0
 10
265.0789855763
 20
278.6346589591
 30
0.0
  0
SPLINE
  5
480
100
AcDbEntity
  8
BEZUGSACHSEN
100
AcDbSpline
 62
7
  6
CONTINUOUS
 70
0
 71
3
 72
15
 73
11
 74
0
 42
0.0000001
 43
0.0000001
 44
0.0000000001
 40
0.0
 40
0.0
 40
0.0
 40
0.0
 40
0.0401243517
 40
0.150776644
 40
0.3116738184
 40
0.5000000487
 40
0.6883262746
 40
0.849223414
 40
0.9598756791
 40
1.0
 40
1.0
 40
1.0
 40
1.0
 10
265.0789855763
 20
317.6346589591
 30
0.0
 10
264.8870604016
 20
317.5608401877
 30
0.0
 10
264.162735047
 20
317.2913167211
 30
0.0
 10
262.641620079
 20
316.7997408769
 30
0.0
 10
260.3367884767
 20
316.2812339843
 30
0.0
 10
257.5789848443
 20
316.0556453453
 30
0.0
 10
254.8211814061
 20
316.2812341609
 30
0.0
 10
252.5163501733
 20
316.799741127
 30
0.0
 10
250.9952356816
 20
317.2913168879
 30
0.0
 10
250.2709106053
 20
317.5608402485
 30
0.0
 10
250.0789855763
 20
317.6346589591
 30
0.0
  0
SPLINE
  5
481
100
AcDbEntity
  8
RUNDUNGEN
100
AcDbSpline
 62
7
  6
CONTINUOUS
 70
0
 71
3
 72
13
 73
9
 74
0
 42
0.0000001
 43
0.0000001
 44
0.0000000001
 40
0.0
 40
0.0
 40
0.0
 40
0.0
 40
0.3203778116
 40
0.6202633572
 40
0.7472365533
 40
0.8534425386
 40
0.9372257173
 40
1.0
 40
1.0
 40
1.0
 40
1.0
 10
134.0081846626
 20
291.0432080075
 30
0.0
 10
134.0191525228
 20
291.3279035199
 30
0.0
 10
134.0004599841
 20
291.8808889674
 30
0.0
 10
133.8945374378
 20
292.5396198668
 30
0.0
 10
133.7582403139
 20
292.9942979962
 30
0.0
 10
133.6467429944
 20
293.2543097123
 30
0.0
 10
133.5262498161
 20
293.4449403705
 30
0.0
 10
133.4266284555
 20
293.5350995797
 30
0.0
 10
133.3765360053
 20
293.5597385805
 30
0.0
  0
SPLINE
  5
482
100
AcDbEntity
  8
RUNDUNGEN
100
AcDbSpline
 62
7
  6
CONTINUOUS
 70
0
 71
3
 72
13
 73
9
 74
0
 42
0.0000001
 43
0.0000001
 44
0.0000000001
 40
0.0
 40
0.0
 40
0.0
 40
0.0
 40
0.0627742238
 40
0.1465574174
 40
0.2527634099
 40
0.3797366138
 40
0.6796221741
 40
1.0
 40
1.0
 40
1.0
 40
1.0
 10
133.3765360053
 20
302.7095793377
 30
0.0
 10
133.4266284035
 20
302.7342183174
 30
0.0
 10
133.5262495508
 20
302.824377703
 30
0.0
 10
133.6467428341
 20
303.0150081861
 30
0.0
 10
133.7582401084
 20
303.2750199606
 30
0.0
 10
133.8945372789
 20
303.7296980556
 30
0.0
 10
134.000459831
 20
304.3884289576
 30
0.0
 10
134.0191523795
 20
304.9414143925
 30
0.0
 10
134.0081845173
 20
305.2261098996
 30
0.0
  0
SPLINE
  5
483
100
AcDbEntity
  8
0
100
AcDbSpline
 62
7
  6
CONTINUOUS
 70
0
 71
3
 72
15
 73
11
 74
0
 42
0.0000001
 43
0.0000001
 44
0.0000000001
 40
0.0
 40
0.0
 40
0.0
 40
0.0
 40
0.1227924709
 40
0.2395669069
 40
0.3526104285
 40
0.466582324
 40
0.5869327756
 40
0.7168912062
 40
0.8558259781
 40
1.0
 40
1.0
 40
1.0
 40
1.0
 10
60.7618203563
 20
91.4055281929
 30
0.0
 10
60.8055446364
 20
91.6778311642
 30
0.0
 10
60.9153770889
 20
92.205955784
 30
0.0
 10
61.1869871845
 20
92.9539024537
 30
0.0
 10
61.5941608203
 20
93.617891831
 30
0.0
 10
62.1582589875
 20
94.1688432252
 30
0.0
 10
62.8707626989
 20
94.5850432435
 30
0.0
 10
63.7026173471
 20
94.8680646021
 30
0.0
 10
64.6186632775
 20
95.0307369287
 30
0.0
 10
65.2551716716
 20
95.0657822308
 30
0.0
 10
65.5789855763
 20
95.0657822308
 30
0.0
  0
SPLINE
  5
484
100
AcDbEntity
  8
RUNDUNGEN
100
AcDbSpline
 62
7
  6
CONTINUOUS
 70
0
 71
3
 72
10
 73
6
 74
0
 42
0.0000001
 43
0.0000001
 44
0.0000000001
 40
0.0
 40
0.0
 40
0.0
 40
0.0
 40
0.1093150213
 40
0.3073484902
 40
1.0
 40
1.0
 40
1.0
 40
1.0
 10
134.0072751559
 20
63.4041122345
 30
0.0
 10
134.0095154919
 20
63.4056761133
 30
0.0
 10
134.0121330134
 20
63.4137868467
 30
0.0
 10
134.0132432303
 20
63.4381587074
 30
0.0
 10
134.0105354682
 20
63.4607513074
 30
0.0
 10
134.0081845173
 20
63.4779028326
 30
0.0
  0
SPLINE
  5
485
100
AcDbEntity
  8
RUNDUNGEN
100
AcDbSpline
 62
7
  6
CONTINUOUS
 70
0
 71
3
 72
8
 73
4
 74
0
 42
0.0000001
 43
0.0000001
 44
0.0000000001
 40
0.0
 40
0.0
 40
0.0
 40
0.0
 40
1.0
 40
1.0
 40
1.0
 40
1.0
 10
134.007133583
 20
63.4940060251
 30
0.0
 10
134.007133583
 20
63.4886268753
 30
0.0
 10
134.0074540302
 20
63.4832321516
 30
0.0
 10
134.0081845173
 20
63.4779028326
 30
0.0
  0
ELLIPSE
  5
486
100
AcDbEntity
  8
0
100
AcDbEllipse
 62
7
  6
CONTINUOUS
 10
178.5789855763
 20
86.4055281929
 30
0.0
 11
19.4340248976
 21
2.5453243959
 31
0.0
 40
1.0
 41
1.4408621425
 42
1.8057722459
  0
ELLIPSE
  5
487
100
AcDbEntity
  8
0
100
AcDbEllipse
 62
7
  6
CONTINUOUS
 10
164.5789855763
 20
86.4055281929
 30
0.0
 11
19.5352416127
 21
-1.5919595269
 31
0.0
 40
1.0
 41
1.2869011017
 42
1.6518115162
  0
ELLIPSE
  5
488
100
AcDbEntity
  8
0
100
AcDbEllipse
 62
7
  6
CONTINUOUS
 10
178.5789855763
 20
86.4055281929
 30
0.0
 11
17.7516969447
 21
-6.7732751003
 31
0.0
 40
1.0
 41
1.9353898496
 42
2.3126127545
  0
ELLIPSE
  5
489
100
AcDbEntity
  8
0
100
AcDbEllipse
 62
7
  6
CONTINUOUS
 10
164.5789855763
 20
86.4055281929
 30
0.0
 11
13.0830233323
 21
13.7780441459
 31
0.0
 40
1.0
 41
0.3822192496
 42
0.7594421545
  0
ENDSEC
  0
SECTION
  2
OBJECTS
  0
DICTIONARY
  5
C
100
AcDbDictionary
280
0
281
1
  3
ACAD_GROUP
350
D
  3
ACAD_MLINESTYLE
350
17
  3
ACAD_LAYOUT
350
1A
  3
ACAD_PLOTSETTINGS
350
19
  3
ACAD_PLOTSTYLENAME
350
E
  0
DICTIONARY
  5
D
102
{ACAD_REACTORS
330
C
102
}
100
AcDbDictionary
280
0
281
1
  0
ACDBDICTIONARYWDFLT
  5
E
102
{ACAD_REACTORS
330
C
102
}
100
AcDbDictionary
281
1
  3
Normal
350
F
100
AcDbDictionaryWithDefault
340
F
  0
DICTIONARY
  5
17
102
{ACAD_REACTORS
330
C
102
}
100
AcDbDictionary
280
0
281
1
  3
Standard
350
18
  0
DICTIONARY
  5
19
102
{ACAD_REACTORS
330
C
102
}
100
AcDbDictionary
281
1
  0
DICTIONARY
  5
1A
102
{ACAD_REACTORS
330
C
102
}
100
AcDbDictionary
281
1
  3
Model
350
48A
  3
Layout1
350
48B
  0
ACDBPLACEHOLDER
  5
F
102
{ACAD_REACTORS
330
E
102
}
  0
MLINESTYLE
  5
18
102
{ACAD_REACTORS
330
17
102
}
100
AcDbMlineStyle
  2
STANDARD
 70
0
  3

 62
256
 51
90.0
 52
90.0
 71
2
 49
0.5
 62
256
  6
BYLAYER
 49
-0.5
 62
256
  6
BYLAYER
  0
LAYOUT
  5
48A
102
{ACAD_REACTORS
330
1A
102
}
100
AcDbPlotSettings
  1

  2
none_device
  4
ISO_A2_(594.00_x_420.00_MM)
  6

 40
0.0
 41
0.0
 42
0.0
 43
0.0
 44
594.0
 45
420.0
 46
0.0
 47
0.0
 48
0.0
 49
0.0
140
0.0
141
0.0
142
1.0
143
1.0
 70
1024
 72
1
 73
0
 74
0
  7

 75
0
147
1.0
148
0.0
149
0.0
100
AcDbLayout
  1
Model
 70
0
 71
0
 10
0.0
 20
0.0
 11
594.0
 21
420.0
 12
0.0
 22
0.0
 32
0.0
 14
0.0
 24
0.0
 34
0.0
 15
0.0
 25
0.0
 35
0.0
146
0.0
 13
0.0
 23
0.0
 33
0.0
 16
1.0
 26
0.0
 36
0.0
 17
0.0
 27
1.0
 37
0.0
 76
0
330
20F
345
0
346
0
  0
LAYOUT
  5
48B
102
{ACAD_REACTORS
330
1A
102
}
100
AcDbPlotSettings
  1

  2
none_device
  4
ISO_A2_(594.00_x_420.00_MM)
  6

 40
0.0
 41
0.0
 42
0.0
 43
0.0
 44
594.0
 45
420.0
 46
0.0
 47
0.0
 48
0.0
 49
0.0
140
0.0
141
0.0
142
1.0
143
1.0
 70
0
 72
1
 73
0
 74
0
  7

 75
0
147
1.0
148
0.0
149
0.0
100
AcDbLayout
  1
Layout1
 70
0
 71
1
 10
0.0
 20
0.0
 11
594.0
 21
420.0
 12
0.0
 22
0.0
 32
0.0
 14
0.0
 24
0.0
 34
0.0
 15
0.0
 25
0.0
 35
0.0
146
0.0
 13
0.0
 23
0.0
 33
0.0
 16
1.0
 26
0.0
 36
0.0
 17
0.0
 27
1.0
 37
0.0
 76
0
330
210
345
0
346
0
  0
ENDSEC
  0
EOF
