999
DXF file: ICE-CURT-K-6-GAKO_7904448_M34851-P-1.dxf
999
Pro/ENGINEER 2010140 by Parametric Technology Corporation
  0
SECTION
  2
HEADER
  9
$ACADVER
  1
AC1015
  9
$DWGCODEPAGE
  3
ANSI_1252
  9
$EXTMAX
 10
594.0
 20
420.0
 30
0.0
  9
$EXTMIN
 10
0.0
 20
0.0
 30
0.0
  9
$LIMMIN
 10
0.0
 20
0.0
  9
$LIMMAX
 10
594.0
 20
420.0
  9
$VIEWCTR
 10
297.0
 20
210.0
  9
$VIEWSIZE
 40
420.0
  9
$CLAYER
  8
0
  9
$LTSCALE
 40
32.67
  9
$CELTYPE
  6
BYLAYER
  9
$DIMSCALE
 40
1.0
  9
$DIMASZ
 40
3.5
  9
$DIMEXO
 40
3.7125
  9
$DIMDLI
 40
22.572
  9
$DIMEXE
 40
10.692
  9
$DIMCEN
 40
5.346
  9
$DIMLFAC
 40
1.0
  9
$DIMBLK
  1
_FILLED
  9
$DIMTXT
 40
3.5
  9
$DIMTOL
 70
1
  9
$DIMLIM
 70
0
  9
$DIMTFAC
 40
1.0
  9
$DIMTP
 40
0.005
  9
$DIMTM
 40
0.005
  9
$PDMODE
 70
3
  9
$PDSIZE
 40
0.3125
  9
$HANDSEED
  5
4CD
  9
$TILEMODE
 70
1
  9
$MEASUREMENT
 70
1
  9
$INSUNITS
 70
4
  0
ENDSEC
  0
SECTION
  2
CLASSES
  0
CLASS
  1
ACDBDICTIONARYWDFLT
  2
AcDbDictionaryWithDefault
  3
AutoCAD 2000
 90
0
280
0
281
0
  0
CLASS
  1
ACDBPLACEHOLDER
  2
AcDbPlaceHolder
  3
AutoCAD 2000
 90
0
280
0
281
0
  0
CLASS
  1
LAYOUT
  2
AcDbLayout
  3
AutoCAD 2000
 90
0
280
0
281
0
  0
ENDSEC
  0
SECTION
  2
TABLES
  0
TABLE
  2
VPORT
  5
8
100
AcDbSymbolTable
 70
2
  0
VPORT
  5
1F4
100
AcDbSymbolTableRecord
100
AcDbViewportTableRecord
  2
*ACTIVE
 70
0
 10
0.0
 20
0.0
 11
1.0
 21
1.0
 12
297.0
 22
210.0
 13
0.0
 23
0.0
 14
1.0
 24
1.0
 15
0.0
 25
0.0
 16
0.0
 26
0.0
 36
1.0
 17
0.0
 27
0.0
 37
0.0
 40
420.0
 41
1.4142857143
 42
50.0
 43
0.0
 44
0.0
 50
0.0
 51
0.0
 71
0
 72
100
 73
1
 74
1
 75
0
 76
0
 77
0
 78
0
  0
ENDTAB
  0
TABLE
  2
LTYPE
  5
5
100
AcDbSymbolTable
 70
6
  0
LTYPE
  5
14
100
AcDbSymbolTableRecord
100
AcDbLinetypeTableRecord
  2
BYBLOCK
 70
0
  3

 72
65
 73
0
 40
0.0
  0
LTYPE
  5
15
100
AcDbSymbolTableRecord
100
AcDbLinetypeTableRecord
  2
BYLAYER
 70
0
  3

 72
65
 73
0
 40
0.0
  0
LTYPE
  5
16
100
AcDbSymbolTableRecord
100
AcDbLinetypeTableRecord
  2
CONTINUOUS
 70
64
  3
Solid line
 72
65
 73
0
 40
0.0
  0
LTYPE
  5
1F5
100
AcDbSymbolTableRecord
100
AcDbLinetypeTableRecord
  2
CENTER
 70
64
  3
____ _ ____ _ ____ _ ____ _ ____ _ ____ _ ____
 72
65
 73
4
 40
0.6
 49
0.375
 74
0
 49
-0.075
 74
0
 49
0.075
 74
0
 49
-0.075
 74
0
  0
LTYPE
  5
1F6
100
AcDbSymbolTableRecord
100
AcDbLinetypeTableRecord
  2
HIDDEN
 70
64
  3
- - - - - - - - - - - - - - - - - - - -
 72
65
 73
2
 40
0.2
 49
0.1
 74
0
 49
-0.1
 74
0
  0
LTYPE
  5
1F7
100
AcDbSymbolTableRecord
100
AcDbLinetypeTableRecord
  2
PHANTOM
 70
64
  3
_____ _ _ _____ _ _ _____ _ _ _____
 72
65
 73
6
 40
0.8
 49
0.45
 74
0
 49
-0.05
 74
0
 49
0.1
 74
0
 49
-0.05
 74
0
 49
0.1
 74
0
 49
-0.05
 74
0
  0
LTYPE
  5
1F8
100
AcDbSymbolTableRecord
100
AcDbLinetypeTableRecord
  2
DOT
 70
64
  3
. . . . . . . . . . . . . . . . . . . .
 72
65
 73
2
 40
0.2
 49
0.1
 74
0
 49
-0.1
 74
0
  0
LTYPE
  5
1F9
100
AcDbSymbolTableRecord
100
AcDbLinetypeTableRecord
  2
DASHED
 70
64
  3
- - - - - - - - - - - - - - - - - - - -
 72
65
 73
2
 40
0.2
 49
0.1
 74
0
 49
-0.1
 74
0
  0
ENDTAB
  0
TABLE
  2
LAYER
  5
2
100
AcDbSymbolTable
 70
36
  0
LAYER
  5
10
100
AcDbSymbolTableRecord
100
AcDbLayerTableRecord
  2
0
 70
0
 62
7
  6
CONTINUOUS
370
-3
390
F
  0
LAYER
  5
1FA
100
AcDbSymbolTableRecord
100
AcDbLayerTableRecord
  2
DEFAULT_1
 70
0
 62
7
  6
CENTER
370
-3
390
F
  0
LAYER
  5
1FB
100
AcDbSymbolTableRecord
100
AcDbLayerTableRecord
  2
DEFAULT_2
 70
0
 62
8
  6
HIDDEN
370
-3
390
F
  0
LAYER
  5
1FC
100
AcDbSymbolTableRecord
100
AcDbLayerTableRecord
  2
DEFAULT_3
 70
0
 62
7
  6
PHANTOM
370
-3
390
F
  0
LAYER
  5
1FD
100
AcDbSymbolTableRecord
100
AcDbLayerTableRecord
  2
AUSFORMSCHRAEGEN
 70
0
 62
7
  6
CONTINUOUS
370
-3
390
F
  0
LAYER
  5
1FE
100
AcDbSymbolTableRecord
100
AcDbLayerTableRecord
  2
BEZUGSACHSEN
 70
0
 62
7
  6
CONTINUOUS
370
-3
390
F
  0
LAYER
  5
1FF
100
AcDbSymbolTableRecord
100
AcDbLayerTableRecord
  2
BEZUGSEBENEN
 70
0
 62
7
  6
CONTINUOUS
370
-3
390
F
  0
LAYER
  5
200
100
AcDbSymbolTableRecord
100
AcDbLayerTableRecord
  2
BG_STARTBEZUEGE
 70
0
 62
7
  6
CONTINUOUS
370
-3
390
F
  0
LAYER
  5
201
100
AcDbSymbolTableRecord
100
AcDbLayerTableRecord
  2
BOHRUNGEN
 70
0
 62
7
  6
CONTINUOUS
370
-3
390
F
  0
LAYER
  5
202
100
AcDbSymbolTableRecord
100
AcDbLayerTableRecord
  2
FASEN
 70
0
 62
7
  6
CONTINUOUS
370
-3
390
F
  0
LAYER
  5
203
100
AcDbSymbolTableRecord
100
AcDbLayerTableRecord
  2
FLAECHEN
 70
0
 62
7
  6
CONTINUOUS
370
-3
390
F
  0
LAYER
  5
204
100
AcDbSymbolTableRecord
100
AcDbLayerTableRecord
  2
FLAECHENVERBUND
 70
0
 62
7
  6
CONTINUOUS
370
-3
390
F
  0
LAYER
  5
205
100
AcDbSymbolTableRecord
100
AcDbLayerTableRecord
  2
HILFEN
 70
0
 62
7
  6
CONTINUOUS
370
-3
390
F
  0
LAYER
  5
206
100
AcDbSymbolTableRecord
100
AcDbLayerTableRecord
  2
KONSTRUKTIONSELEMENTE
 70
0
 62
7
  6
CONTINUOUS
370
-3
390
F
  0
LAYER
  5
207
100
AcDbSymbolTableRecord
100
AcDbLayerTableRecord
  2
KURVEN
 70
0
 62
7
  6
CONTINUOUS
370
-3
390
F
  0
LAYER
  5
208
100
AcDbSymbolTableRecord
100
AcDbLayerTableRecord
  2
NORM
 70
0
 62
7
  6
CONTINUOUS
370
-3
390
F
  0
LAYER
  5
209
100
AcDbSymbolTableRecord
100
AcDbLayerTableRecord
  2
PLATZIERUNG
 70
0
 62
7
  6
CONTINUOUS
370
-3
390
F
  0
LAYER
  5
20A
100
AcDbSymbolTableRecord
100
AcDbLayerTableRecord
  2
RUNDUNGEN
 70
0
 62
7
  6
CONTINUOUS
370
-3
390
F
  0
LAYER
  5
20B
100
AcDbSymbolTableRecord
100
AcDbLayerTableRecord
  2
TEIL_STARTBEZUEGE
 70
0
 62
7
  6
CONTINUOUS
370
-3
390
F
  0
LAYER
  5
20C
100
AcDbSymbolTableRecord
100
AcDbLayerTableRecord
  2
T_STARTBEZUEGE
 70
0
 62
7
  6
CONTINUOUS
370
-3
390
F
  0
LAYER
  5
20D
100
AcDbSymbolTableRecord
100
AcDbLayerTableRecord
  2
XSEC_DATUMS
 70
0
 62
7
  6
CONTINUOUS
370
-3
390
F
  0
ENDTAB
  0
TABLE
  2
STYLE
  5
3
100
AcDbSymbolTable
 70
1
  0
STYLE
  5
11
100
AcDbSymbolTableRecord
100
AcDbTextStyleTableRecord
  2
STANDARD
 70
0
 40
0.0
 41
0.7
 50
0.0
 71
0
 42
0.2
  3
txt
  4

  0
STYLE
  5
20E
100
AcDbSymbolTableRecord
100
AcDbTextStyleTableRecord
  2
TEXTSTYLE_1
 70
0
 40
0.0
 41
0.8
 50
0.0
 71
0
 42
0.2
  3
gdt
  4

  0
ENDTAB
  0
TABLE
  2
VIEW
  5
6
100
AcDbSymbolTable
 70
0
  0
ENDTAB
  0
TABLE
  2
UCS
  5
7
100
AcDbSymbolTable
 70
0
  0
ENDTAB
  0
TABLE
  2
APPID
  5
9
100
AcDbSymbolTable
 70
1
  0
APPID
  5
20F
100
AcDbSymbolTableRecord
100
AcDbRegAppTableRecord
  2
ACAD
 70
0
  0
ENDTAB
  0
TABLE
  2
BLOCK_RECORD
  5
1
100
AcDbSymbolTable
 70
0
  0
BLOCK_RECORD
  5
210
100
AcDbSymbolTableRecord
100
AcDbBlockTableRecord
  2
*Model_Space
  0
BLOCK_RECORD
  5
211
100
AcDbSymbolTableRecord
100
AcDbBlockTableRecord
  2
*Paper_Space
  0
ENDTAB
  0
TABLE
  2
DIMSTYLE
  5
A
100
AcDbSymbolTable
 70
1
100
AcDbDimStyleTable
 71
0
  0
DIMSTYLE
105
212
100
AcDbSymbolTableRecord
100
AcDbDimStyleTableRecord
  2
STANDARD
 70
0
  3

  4

 40
1.0
 41
3.5
 42
0.0625
 43
0.38
 44
0.18
 45
0.0
 46
0.0
 47
0.005
 48
0.005
140
3.5
141
0.09
142
0.0
143
25.4
144
1.0
145
0.0
146
1.0
147
0.09
 71
1.0
 72
0.0
 73
0
 74
0
 75
0
 76
0
 77
1
 78
8
170
0
171
2
172
0
173
0
174
0
175
0
176
0
177
0
178
5
270
2
271
3
272
3
273
2
274
2
275
0
280
0
281
0
282
0
283
1
284
8
285
0
286
0
287
3
288
0
340
11
  0
ENDTAB
  0
ENDSEC
  0
SECTION
  2
BLOCKS
  0
BLOCK
  5
20
100
AcDbEntity
  8
0
100
AcDbBlockBegin
  2
*Model_Space
 70
0
 10
0.0
 20
0.0
 30
0.0
  3
*Model_Space
  1

  0
ENDBLK
  5
21
100
AcDbEntity
  8
0
100
AcDbBlockEnd
  0
BLOCK
  5
1C
100
AcDbEntity
  8
0
100
AcDbBlockBegin
  2
*Paper_Space
 70
0
 10
0.0
 20
0.0
 30
0.0
  3
*Paper_Space
  1

  0
ENDBLK
  5
1D
100
AcDbEntity
  8
0
100
AcDbBlockEnd
  0
ENDSEC
  0
SECTION
  2
ENTITIES
  0
MTEXT
  5
213
100
AcDbEntity
  8
0
100
AcDbMText
 62
5
  6
CONTINUOUS
  7
STANDARD
 71
2
 72
1
 10
213.8938817211
 20
323.1831703003
 30
0.0
 11
1.0
 21
0.0
 31
0.0
 44
0.9
  1
RUD\PICE\PCURT-K\P6
 40
3.5
 41
16.6666666667
  0
MTEXT
  5
214
100
AcDbEntity
  8
0
100
AcDbMText
 62
5
  6
CONTINUOUS
  7
STANDARD
 71
1
 72
1
 10
469.41425849
 20
276.2296912315
 30
0.0
 11
0.0
 21
1.0
 31
0.0
 44
0.9
  1
RUD
 40
3.5
 41
9.3333333333
  0
MTEXT
  5
215
100
AcDbEntity
  8
0
100
AcDbMText
 62
5
  6
CONTINUOUS
  7
STANDARD
 71
1
 72
1
 10
469.6831125344
 20
334.6936136156
 30
0.0
 11
0.0
 21
1.0
 31
0.0
 44
0.9
  1
ICE-CURT-K-6
 40
3.0
 41
28.0714285714
  0
MTEXT
  5
216
100
AcDbEntity
  8
0
100
AcDbMText
 62
5
  6
CONTINUOUS
  7
STANDARD
 71
1
 72
1
 10
251.195882809
 20
122.3302982574
 30
0.0
 11
1.0
 21
0.0
 31
0.0
 44
0.9
  1
RUD ICE-CURT-K-6
 40
3.5
 41
44.1666666667
  0
LINE
  5
217
100
AcDbEntity
  8
0
100
AcDbLine
 62
7
  6
CONTINUOUS
 10
0.0
 20
0.0
 11
0.0
 21
420.0
  0
LINE
  5
218
100
AcDbEntity
  8
0
100
AcDbLine
 62
7
  6
CONTINUOUS
 10
0.0
 20
0.0
 11
594.0
 21
0.0
  0
LINE
  5
219
100
AcDbEntity
  8
0
100
AcDbLine
 62
7
  6
CONTINUOUS
 10
0.0
 20
420.0
 11
594.0
 21
420.0
  0
LINE
  5
21A
100
AcDbEntity
  8
0
100
AcDbLine
 62
7
  6
CONTINUOUS
 10
594.0
 20
0.0
 11
594.0
 21
420.0
  0
LINE
  5
21B
100
AcDbEntity
  8
0
100
AcDbLine
 62
7
  6
CONTINUOUS
 10
40.2573734093
 20
325.5850182755
 11
40.2573734093
 21
324.4532413297
  0
LINE
  5
21C
100
AcDbEntity
  8
BEZUGSACHSEN
100
AcDbLine
 62
7
  6
CONTINUOUS
 10
40.2573734093
 20
304.347196104
 11
40.2573734093
 21
303.2154191582
  0
LINE
  5
21D
100
AcDbEntity
  8
0
100
AcDbLine
 62
7
  6
CONTINUOUS
 10
44.3973734093
 20
318.1002187169
 11
44.3973734093
 21
310.7002187169
  0
LINE
  5
21E
100
AcDbEntity
  8
0
100
AcDbLine
 62
7
  6
CONTINUOUS
 10
55.1173734093
 20
318.1002187169
 11
55.1173734093
 21
310.7002187169
  0
LINE
  5
21F
100
AcDbEntity
  8
0
100
AcDbLine
 62
7
  6
CONTINUOUS
 10
55.2886234093
 20
324.378942064
 11
55.2886234093
 21
323.4214952803
  0
LINE
  5
220
100
AcDbEntity
  8
0
100
AcDbLine
 62
7
  6
CONTINUOUS
 10
55.6636234093
 20
323.4214952803
 11
55.6636234093
 21
324.378942064
  0
LINE
  5
221
100
AcDbEntity
  8
0
100
AcDbLine
 62
7
  6
CONTINUOUS
 10
58.2261234689
 20
325.4002187169
 11
58.2261234689
 21
323.4214952803
  0
LINE
  5
222
100
AcDbEntity
  8
0
100
AcDbLine
 62
7
  6
CONTINUOUS
 10
58.6011232901
 20
323.4214952803
 11
58.6011232901
 21
325.4002187169
  0
LINE
  5
223
100
AcDbEntity
  8
0
100
AcDbLine
 62
7
  6
CONTINUOUS
 10
60.1011232901
 20
325.4002187169
 11
60.1011232901
 21
323.4214952803
  0
LINE
  5
224
100
AcDbEntity
  8
0
100
AcDbLine
 62
7
  6
CONTINUOUS
 10
60.4761232901
 20
323.4214952803
 11
60.4761232901
 21
325.4002187169
  0
LINE
  5
225
100
AcDbEntity
  8
0
100
AcDbLine
 62
7
  6
CONTINUOUS
 10
60.9761235285
 20
325.4002187169
 11
60.9761235285
 21
322.4002187169
  0
LINE
  5
226
100
AcDbEntity
  8
0
100
AcDbLine
 62
7
  6
CONTINUOUS
 10
61.3511231709
 20
322.4002187169
 11
61.3511231709
 21
323.7406442678
  0
LINE
  5
227
100
AcDbEntity
  8
0
100
AcDbLine
 62
7
  6
CONTINUOUS
 10
61.3511231709
 20
324.1236229455
 11
61.3511231709
 21
325.0810698187
  0
LINE
  5
228
100
AcDbEntity
  8
0
100
AcDbLine
 62
7
  6
CONTINUOUS
 10
62.9136236478
 20
324.698091141
 11
62.9136236478
 21
324.5066016233
  0
LINE
  5
229
100
AcDbEntity
  8
0
100
AcDbLine
 62
7
  6
CONTINUOUS
 10
63.2886236478
 20
324.4427718437
 11
63.2886236478
 21
324.698091141
  0
LINE
  5
22A
100
AcDbEntity
  8
0
100
AcDbLine
 62
7
  6
CONTINUOUS
 10
55.3511234112
 20
324.698091141
 11
55.2886234093
 21
324.378942064
  0
LINE
  5
22B
100
AcDbEntity
  8
0
100
AcDbLine
 62
7
  6
CONTINUOUS
 10
57.6636234689
 20
322.8470272189
 11
57.7261234093
 21
323.1661761618
  0
LINE
  5
22C
100
AcDbEntity
  8
0
100
AcDbLine
 62
7
  6
CONTINUOUS
 10
60.4136235285
 20
323.1023463821
 11
60.4761232901
 21
323.4214952803
  0
LINE
  5
22D
100
AcDbEntity
  8
0
100
AcDbLine
 62
7
  6
CONTINUOUS
 10
55.6636234093
 20
324.378942064
 11
55.7261233944
 21
324.6342611825
  0
LINE
  5
22E
100
AcDbEntity
  8
0
100
AcDbLine
 62
7
  6
CONTINUOUS
 10
60.1011232901
 20
323.4214952803
 11
60.0386235285
 21
323.1661761618
  0
LINE
  5
22F
100
AcDbEntity
  8
0
100
AcDbLine
 62
7
  6
CONTINUOUS
 10
57.3511234093
 20
323.1661761618
 11
57.2886234689
 21
322.9746868229
  0
LINE
  5
230
100
AcDbEntity
  8
0
100
AcDbLine
 62
7
  6
CONTINUOUS
 10
55.7261233944
 20
323.1661761618
 11
55.6636234093
 21
323.4214952803
  0
LINE
  5
231
100
AcDbEntity
  8
0
100
AcDbLine
 62
7
  6
CONTINUOUS
 10
55.2886234093
 20
323.4214952803
 11
55.3511234112
 21
323.1023463821
  0
LINE
  5
232
100
AcDbEntity
  8
0
100
AcDbLine
 62
7
  6
CONTINUOUS
 10
57.7261234093
 20
324.6342611825
 11
57.6636234689
 21
324.9534102595
  0
LINE
  5
233
100
AcDbEntity
  8
0
100
AcDbLine
 62
7
  6
CONTINUOUS
 10
58.2261234689
 20
323.4214952803
 11
58.2886234093
 21
323.1023463821
  0
LINE
  5
234
100
AcDbEntity
  8
0
100
AcDbLine
 62
7
  6
CONTINUOUS
 10
63.8511236478
 20
325.4002187169
 11
63.8511236478
 21
325.0810698187
  0
LINE
  5
235
100
AcDbEntity
  8
0
100
AcDbLine
 62
7
  6
CONTINUOUS
 10
64.8511234093
 20
325.0810698187
 11
64.8511234093
 21
322.4002187169
  0
LINE
  5
236
100
AcDbEntity
  8
0
100
AcDbLine
 62
7
  6
CONTINUOUS
 10
65.2261234093
 20
322.4002187169
 11
65.2261234093
 21
325.0810698187
  0
LINE
  5
237
100
AcDbEntity
  8
0
100
AcDbLine
 62
7
  6
CONTINUOUS
 10
66.2261231709
 20
325.0810698187
 11
66.2261231709
 21
325.4002187169
  0
LINE
  5
238
100
AcDbEntity
  8
BEZUGSACHSEN
100
AcDbLine
 62
7
  6
CONTINUOUS
 10
69.7573734093
 20
299.9002187169
 11
69.7573734093
 21
328.9002187169
  0
LINE
  5
239
100
AcDbEntity
  8
RUNDUNGEN
100
AcDbLine
 62
7
  6
CONTINUOUS
 10
69.7573734093
 20
299.9002187169
 11
69.7573734093
 21
328.9002187169
  0
LINE
  5
23A
100
AcDbEntity
  8
0
100
AcDbLine
 62
7
  6
CONTINUOUS
 10
62.9136236478
 20
324.5066016233
 11
62.8511231709
 21
324.3151122844
  0
LINE
  5
23B
100
AcDbEntity
  8
0
100
AcDbLine
 62
7
  6
CONTINUOUS
 10
63.2261231709
 20
324.2512825048
 11
63.2886236478
 21
324.4427718437
  0
LINE
  5
23C
100
AcDbEntity
  8
0
100
AcDbLine
 62
7
  6
CONTINUOUS
 10
55.4761234093
 20
324.9534102595
 11
55.3511234112
 21
324.698091141
  0
LINE
  5
23D
100
AcDbEntity
  8
0
100
AcDbLine
 62
7
  6
CONTINUOUS
 10
60.2886232901
 20
322.8470272189
 11
60.4136235285
 21
323.1023463821
  0
LINE
  5
23E
100
AcDbEntity
  8
0
100
AcDbLine
 62
7
  6
CONTINUOUS
 10
55.3511234112
 20
323.1023463821
 11
55.4761234093
 21
322.8470272189
  0
LINE
  5
23F
100
AcDbEntity
  8
0
100
AcDbLine
 62
7
  6
CONTINUOUS
 10
62.4136234093
 20
323.7406442678
 11
62.9136236478
 21
322.4002187169
  0
LINE
  5
240
100
AcDbEntity
  8
0
100
AcDbLine
 62
7
  6
CONTINUOUS
 10
57.2886234689
 20
324.8257507002
 11
57.3511234093
 21
324.6342611825
  0
LINE
  5
241
100
AcDbEntity
  8
0
100
AcDbLine
 62
7
  6
CONTINUOUS
 10
62.8511231709
 20
324.8895804799
 11
62.9136236478
 21
324.698091141
  0
LINE
  5
242
100
AcDbEntity
  8
0
100
AcDbLine
 62
7
  6
CONTINUOUS
 10
63.2886236478
 20
324.698091141
 11
63.2261231709
 21
324.8895804799
  0
LINE
  5
243
100
AcDbEntity
  8
0
100
AcDbLine
 62
7
  6
CONTINUOUS
 10
58.6636234093
 20
323.1661761618
 11
58.6011232901
 21
323.4214952803
  0
LINE
  5
244
100
AcDbEntity
  8
RUNDUNGEN
100
AcDbLine
 62
7
  6
CONTINUOUS
 10
88.7573734093
 20
296.9006958349
 11
88.7573734093
 21
331.9002187169
  0
LINE
  5
245
100
AcDbEntity
  8
0
100
AcDbLine
 62
7
  6
CONTINUOUS
 10
55.7261233944
 20
324.6342611825
 11
55.8511234093
 21
324.8257507002
  0
LINE
  5
246
100
AcDbEntity
  8
0
100
AcDbLine
 62
7
  6
CONTINUOUS
 10
60.0386235285
 20
323.1661761618
 11
59.9136232901
 21
322.9746868229
  0
LINE
  5
247
100
AcDbEntity
  8
0
100
AcDbLine
 62
7
  6
CONTINUOUS
 10
63.0386231709
 20
323.9959633863
 11
63.2261231709
 21
324.2512825048
  0
LINE
  5
248
100
AcDbEntity
  8
0
100
AcDbLine
 62
7
  6
CONTINUOUS
 10
44.1266215016
 20
329.9957681924
 11
40.538033609
 21
326.279676646
  0
LINE
  5
249
100
AcDbEntity
  8
BEZUGSACHSEN
100
AcDbLine
 62
7
  6
CONTINUOUS
 10
40.538033609
 20
302.5207607878
 11
44.1266215016
 21
298.8046692413
  0
LINE
  5
24A
100
AcDbEntity
  8
0
100
AcDbLine
 62
7
  6
CONTINUOUS
 10
55.8511234093
 20
322.9746868229
 11
55.7261233944
 21
323.1661761618
  0
LINE
  5
24B
100
AcDbEntity
  8
0
100
AcDbLine
 62
7
  6
CONTINUOUS
 10
58.7886232901
 20
322.9746868229
 11
58.6636234093
 21
323.1661761618
  0
LINE
  5
24C
100
AcDbEntity
  8
0
100
AcDbLine
 62
7
  6
CONTINUOUS
 10
58.2886234093
 20
323.1023463821
 11
58.4136232901
 21
322.8470272189
  0
LINE
  5
24D
100
AcDbEntity
  8
0
100
AcDbLine
 62
7
  6
CONTINUOUS
 10
63.3511234093
 20
322.4002187169
 11
62.7886234093
 21
323.868303827
  0
LINE
  5
24E
100
AcDbEntity
  8
RUNDUNGEN
100
AcDbLine
 62
7
  6
CONTINUOUS
 10
93.7573734093
 20
332.899714065
 11
93.7573734093
 21
295.9007233687
  0
LINE
  5
24F
100
AcDbEntity
  8
0
100
AcDbLine
 62
7
  6
CONTINUOUS
 10
55.7261233944
 20
325.208729378
 11
55.4761234093
 21
324.9534102595
  0
LINE
  5
250
100
AcDbEntity
  8
0
100
AcDbLine
 62
7
  6
CONTINUOUS
 10
57.4136233497
 20
322.5917080781
 11
57.6636234689
 21
322.8470272189
  0
LINE
  5
251
100
AcDbEntity
  8
0
100
AcDbLine
 62
7
  6
CONTINUOUS
 10
60.0386235285
 20
322.5917080781
 11
60.2886232901
 21
322.8470272189
  0
LINE
  5
252
100
AcDbEntity
  8
0
100
AcDbLine
 62
7
  6
CONTINUOUS
 10
62.8511231709
 20
324.3151122844
 11
62.7261236478
 21
324.1874527252
  0
LINE
  5
253
100
AcDbEntity
  8
0
100
AcDbLine
 62
7
  6
CONTINUOUS
 10
63.2261231709
 20
324.8895804799
 11
63.0386231709
 21
325.1448995984
  0
LINE
  5
254
100
AcDbEntity
  8
RUNDUNGEN
100
AcDbLine
 62
7
  6
CONTINUOUS
 10
110.7573734093
 20
332.4002187169
 11
110.7573734093
 21
296.4002187169
  0
LINE
  5
255
100
AcDbEntity
  8
0
100
AcDbLine
 62
7
  6
CONTINUOUS
 10
55.4761234093
 20
322.8470272189
 11
55.7261233944
 21
322.5917080781
  0
LINE
  5
256
100
AcDbEntity
  8
0
100
AcDbLine
 62
7
  6
CONTINUOUS
 10
58.4136232901
 20
322.8470272189
 11
58.6636234093
 21
322.5917080781
  0
LINE
  5
257
100
AcDbEntity
  8
0
100
AcDbLine
 62
7
  6
CONTINUOUS
 10
57.6636234689
 20
324.9534102595
 11
57.4136233497
 21
325.208729378
  0
LINE
  5
258
100
AcDbEntity
  8
0
100
AcDbLine
 62
7
  6
CONTINUOUS
 10
62.7261236478
 20
325.0172400391
 11
62.8511231709
 21
324.8895804799
  0
LINE
  5
259
100
AcDbEntity
  8
RUNDUNGEN
100
AcDbLine
 62
7
  6
CONTINUOUS
 10
116.7573734093
 20
306.5330288911
 11
116.7573734093
 21
322.2674085426
  0
LINE
  5
25A
100
AcDbEntity
  8
RUNDUNGEN
100
AcDbLine
 62
7
  6
CONTINUOUS
 10
126.7573734093
 20
317.4003388233
 11
126.7573734093
 21
311.4000935998
  0
LINE
  5
25B
100
AcDbEntity
  8
0
100
AcDbLine
 62
7
  6
CONTINUOUS
 10
55.8511234093
 20
324.8257507002
 11
56.0386234093
 21
324.9534102595
  0
LINE
  5
25C
100
AcDbEntity
  8
0
100
AcDbLine
 62
7
  6
CONTINUOUS
 10
57.2886234689
 20
322.9746868229
 11
57.1011234689
 21
322.8470272189
  0
LINE
  5
25D
100
AcDbEntity
  8
0
100
AcDbLine
 62
7
  6
CONTINUOUS
 10
59.9136232901
 20
322.9746868229
 11
59.7261232901
 21
322.8470272189
  0
LINE
  5
25E
100
AcDbEntity
  8
0
100
AcDbLine
 62
7
  6
CONTINUOUS
 10
204.1496782547
 20
396.4002187169
 11
193.7573734093
 21
390.4002187169
  0
LINE
  5
25F
100
AcDbEntity
  8
0
100
AcDbLine
 62
7
  6
CONTINUOUS
 10
55.9761234242
 20
325.3363889372
 11
55.7261233944
 21
325.208729378
  0
LINE
  5
260
100
AcDbEntity
  8
0
100
AcDbLine
 62
7
  6
CONTINUOUS
 10
57.1636234093
 20
322.4640485021
 11
57.4136233497
 21
322.5917080781
  0
LINE
  5
261
100
AcDbEntity
  8
0
100
AcDbLine
 62
7
  6
CONTINUOUS
 10
59.7886234093
 20
322.4640485021
 11
60.0386235285
 21
322.5917080781
  0
LINE
  5
262
100
AcDbEntity
  8
0
100
AcDbLine
 62
7
  6
CONTINUOUS
 10
62.7886234093
 20
323.868303827
 11
63.0386231709
 21
323.9959633863
  0
LINE
  5
263
100
AcDbEntity
  8
0
100
AcDbLine
 62
7
  6
CONTINUOUS
 10
204.1496782547
 20
232.4002187169
 11
223.3650685639
 21
232.4002187169
  0
LINE
  5
264
100
AcDbEntity
  8
0
100
AcDbLine
 62
7
  6
CONTINUOUS
 10
193.7573734093
 20
238.4002187169
 11
204.1496782547
 21
232.4002187169
  0
LINE
  5
265
100
AcDbEntity
  8
0
100
AcDbLine
 62
7
  6
CONTINUOUS
 10
56.0386234093
 20
322.8470272189
 11
55.8511234093
 21
322.9746868229
  0
LINE
  5
266
100
AcDbEntity
  8
0
100
AcDbLine
 62
7
  6
CONTINUOUS
 10
58.9761232901
 20
322.8470272189
 11
58.7886232901
 21
322.9746868229
  0
LINE
  5
267
100
AcDbEntity
  8
0
100
AcDbLine
 62
7
  6
CONTINUOUS
 10
57.1011234689
 20
324.9534102595
 11
57.2886234689
 21
324.8257507002
  0
LINE
  5
268
100
AcDbEntity
  8
0
100
AcDbLine
 62
7
  6
CONTINUOUS
 10
63.0386231709
 20
325.1448995984
 11
62.7886234093
 21
325.3363889372
  0
LINE
  5
269
100
AcDbEntity
  8
0
100
AcDbLine
 62
7
  6
CONTINUOUS
 10
193.7573734093
 20
238.4002187169
 11
233.7573734093
 21
238.4002187169
  0
LINE
  5
26A
100
AcDbEntity
  8
0
100
AcDbLine
 62
7
  6
CONTINUOUS
 10
193.7573734093
 20
249.4002187169
 11
233.7573734093
 21
249.4002187169
  0
LINE
  5
26B
100
AcDbEntity
  8
0
100
AcDbLine
 62
7
  6
CONTINUOUS
 10
55.7261233944
 20
322.5917080781
 11
55.9761234242
 21
322.4640485021
  0
LINE
  5
26C
100
AcDbEntity
  8
0
100
AcDbLine
 62
7
  6
CONTINUOUS
 10
58.6636234093
 20
322.5917080781
 11
58.9136235285
 21
322.4640485021
  0
LINE
  5
26D
100
AcDbEntity
  8
0
100
AcDbLine
 62
7
  6
CONTINUOUS
 10
57.4136233497
 20
325.208729378
 11
57.1636234093
 21
325.3363889372
  0
LINE
  5
26E
100
AcDbEntity
  8
0
100
AcDbLine
 62
7
  6
CONTINUOUS
 10
165.0073734093
 20
321.4002187168
 11
165.0073734093
 21
311.9002187169
  0
LINE
  5
26F
100
AcDbEntity
  8
0
100
AcDbLine
 62
7
  6
CONTINUOUS
 10
165.0073734093
 20
307.8618703015
 11
165.0073734093
 21
307.4002187169
  0
LINE
  5
270
100
AcDbEntity
  8
0
100
AcDbLine
 62
7
  6
CONTINUOUS
 10
167.7573734093
 20
318.6502187168
 11
167.7573734093
 21
311.9002187169
  0
LINE
  5
271
100
AcDbEntity
  8
0
100
AcDbLine
 62
7
  6
CONTINUOUS
 10
167.7573734093
 20
310.9632869456
 11
167.7573734093
 21
310.1502187169
  0
LINE
  5
272
100
AcDbEntity
  8
0
100
AcDbLine
 62
7
  6
CONTINUOUS
 10
62.7261236478
 20
324.1874527252
 11
62.5386236478
 21
324.1236229455
  0
LINE
  5
273
100
AcDbEntity
  8
0
100
AcDbLine
 62
7
  6
CONTINUOUS
 10
173.7573734093
 20
318.6502187169
 11
173.7573734093
 21
311.9002187169
  0
LINE
  5
274
100
AcDbEntity
  8
0
100
AcDbLine
 62
7
  6
CONTINUOUS
 10
173.7573734093
 20
310.9632869456
 11
173.7573734093
 21
310.1502187169
  0
LINE
  5
275
100
AcDbEntity
  8
0
100
AcDbLine
 62
7
  6
CONTINUOUS
 10
174.7573734093
 20
317.6502187169
 11
174.7573734093
 21
311.1502187169
  0
LINE
  5
276
100
AcDbEntity
  8
0
100
AcDbLine
 62
7
  6
CONTINUOUS
 10
381.4761234093
 20
303.8470271742
 11
381.2261233795
 21
303.7831973946
  0
LINE
  5
277
100
AcDbEntity
  8
0
100
AcDbLine
 62
7
  6
CONTINUOUS
 10
380.4136233497
 20
305.9534102148
 11
380.6636234689
 21
306.0172399944
  0
LINE
  5
278
100
AcDbEntity
  8
0
100
AcDbLine
 62
7
  6
CONTINUOUS
 10
377.7886235285
 20
305.9534102148
 11
378.0386232901
 21
306.0172399944
  0
LINE
  5
279
100
AcDbEntity
  8
0
100
AcDbLine
 62
7
  6
CONTINUOUS
 10
381.2261233795
 20
303.4002187169
 11
381.5386233944
 21
303.4640484965
  0
LINE
  5
27A
100
AcDbEntity
  8
0
100
AcDbLine
 62
7
  6
CONTINUOUS
 10
380.6636234689
 20
306.4002187169
 11
380.3511234093
 21
306.3363889316
  0
LINE
  5
27B
100
AcDbEntity
  8
0
100
AcDbLine
 62
7
  6
CONTINUOUS
 10
378.0386232901
 20
306.4002187169
 11
377.7261234093
 21
306.3363889316
  0
LINE
  5
27C
100
AcDbEntity
  8
0
100
AcDbLine
 62
7
  6
CONTINUOUS
 10
202.4176274472
 20
264.4002187169
 11
225.0971193715
 21
264.4002187169
  0
LINE
  5
27D
100
AcDbEntity
  8
0
100
AcDbLine
 62
7
  6
CONTINUOUS
 10
62.5386236478
 20
325.0810698187
 11
62.7261236478
 21
325.0172400391
  0
LINE
  5
27E
100
AcDbEntity
  8
0
100
AcDbLine
 62
7
  6
CONTINUOUS
 10
193.7573734093
 20
390.4002187169
 11
193.7573734093
 21
379.4002187169
  0
LINE
  5
27F
100
AcDbEntity
  8
0
100
AcDbLine
 62
7
  6
CONTINUOUS
 10
193.7573734093
 20
249.4002187169
 11
193.7573734093
 21
238.4002187169
  0
LINE
  5
280
100
AcDbEntity
  8
0
100
AcDbLine
 62
7
  6
CONTINUOUS
 10
165.0073734093
 20
307.4002187169
 11
167.7573734093
 21
310.1502187169
  0
LINE
  5
281
100
AcDbEntity
  8
0
100
AcDbLine
 62
7
  6
CONTINUOUS
 10
174.7573734093
 20
311.1502187169
 11
173.7573734093
 21
310.1502187169
  0
LINE
  5
282
100
AcDbEntity
  8
0
100
AcDbLine
 62
7
  6
CONTINUOUS
 10
197.0253226018
 20
330.6681679093
 11
197.8291701791
 21
331.1322695244
  0
LINE
  5
283
100
AcDbEntity
  8
0
100
AcDbLine
 62
7
  6
CONTINUOUS
 10
55.9761234242
 20
322.4640485021
 11
56.2886234391
 21
322.4002187169
  0
LINE
  5
284
100
AcDbEntity
  8
0
100
AcDbLine
 62
7
  6
CONTINUOUS
 10
56.2886234391
 20
322.7831974393
 11
56.0386234093
 21
322.8470272189
  0
LINE
  5
285
100
AcDbEntity
  8
0
100
AcDbLine
 62
7
  6
CONTINUOUS
 10
59.2261234093
 20
322.7831974393
 11
58.9761232901
 21
322.8470272189
  0
LINE
  5
286
100
AcDbEntity
  8
0
100
AcDbLine
 62
7
  6
CONTINUOUS
 10
56.8511233497
 20
325.0172400391
 11
57.1011234689
 21
324.9534102595
  0
LINE
  5
287
100
AcDbEntity
  8
0
100
AcDbLine
 62
7
  6
CONTINUOUS
 10
197.0253226018
 20
298.1322695244
 11
197.8291701791
 21
297.6681679093
  0
LINE
  5
288
100
AcDbEntity
  8
0
100
AcDbLine
 62
7
  6
CONTINUOUS
 10
165.0073734093
 20
321.4002187169
 11
167.7573734093
 21
318.6502187169
  0
LINE
  5
289
100
AcDbEntity
  8
0
100
AcDbLine
 62
7
  6
CONTINUOUS
 10
173.7573734093
 20
318.6502187169
 11
174.7573734093
 21
317.6502187169
  0
LINE
  5
28A
100
AcDbEntity
  8
RUNDUNGEN
100
AcDbLine
 62
7
  6
CONTINUOUS
 10
201.7573734093
 20
311.4004722031
 11
201.7573734093
 21
317.3999658895
  0
LINE
  5
28B
100
AcDbEntity
  8
0
100
AcDbLine
 62
7
  6
CONTINUOUS
 10
233.7573734093
 20
379.4002187169
 11
225.0971193715
 21
364.4002187169
  0
LINE
  5
28C
100
AcDbEntity
  8
0
100
AcDbLine
 62
7
  6
CONTINUOUS
 10
121.5858392224
 20
295.7017556129
 11
128.1713398546
 21
298.0986818208
  0
LINE
  5
28D
100
AcDbEntity
  8
BEZUGSACHSEN
100
AcDbLine
 62
7
  6
CONTINUOUS
 10
93.2573734093
 20
295.4002187169
 11
90.2573734093
 21
295.4002187169
  0
LINE
  5
28E
100
AcDbEntity
  8
0
100
AcDbLine
 62
7
  6
CONTINUOUS
 10
111.7573734093
 20
295.4002187169
 11
119.8757385058
 21
295.4002187169
  0
LINE
  5
28F
100
AcDbEntity
  8
0
100
AcDbLine
 62
7
  6
CONTINUOUS
 10
228.6855766396
 20
297.4002187169
 11
220.2573734093
 21
297.4002187169
  0
LINE
  5
290
100
AcDbEntity
  8
0
100
AcDbLine
 62
7
  6
CONTINUOUS
 10
207.2573734093
 20
297.4002187169
 11
198.8291701791
 21
297.4002187169
  0
LINE
  5
291
100
AcDbEntity
  8
BEZUGSACHSEN
100
AcDbLine
 62
7
  6
CONTINUOUS
 10
391.2570938387
 20
297.9002187169
 11
369.7573734093
 21
297.9002187169
  0
LINE
  5
292
100
AcDbEntity
  8
BEZUGSACHSEN
100
AcDbLine
 62
7
  6
CONTINUOUS
 10
46.25765298
 20
297.9002187169
 11
67.7573734093
 21
297.9002187169
  0
LINE
  5
293
100
AcDbEntity
  8
0
100
AcDbLine
 62
7
  6
CONTINUOUS
 10
391.0462975821
 20
297.9002187169
 11
391.2573734093
 21
297.9002187169
  0
LINE
  5
294
100
AcDbEntity
  8
0
100
AcDbLine
 62
7
  6
CONTINUOUS
 10
129.8814405712
 20
298.4002187169
 11
196.0253226018
 21
298.4002187169
  0
LINE
  5
295
100
AcDbEntity
  8
0
100
AcDbLine
 62
7
  6
CONTINUOUS
 10
231.4894242169
 20
298.4002187169
 11
315.2748975565
 21
298.4002187169
  0
LINE
  5
296
100
AcDbEntity
  8
BEZUGSACHSEN
100
AcDbLine
 62
7
  6
CONTINUOUS
 10
65.7573734093
 20
302.4002187169
 11
55.7573734093
 21
302.4002187169
  0
LINE
  5
297
100
AcDbEntity
  8
BEZUGSACHSEN
100
AcDbLine
 62
7
  6
CONTINUOUS
 10
371.7573734093
 20
302.4002187169
 11
381.7573734093
 21
302.4002187169
  0
LINE
  5
298
100
AcDbEntity
  8
0
100
AcDbLine
 62
7
  6
CONTINUOUS
 10
58.9136235285
 20
322.4640485021
 11
59.2261234093
 21
322.4002187169
  0
LINE
  5
299
100
AcDbEntity
  8
0
100
AcDbLine
 62
7
  6
CONTINUOUS
 10
57.1636234093
 20
325.3363889372
 11
56.8511233497
 21
325.4002187169
  0
LINE
  5
29A
100
AcDbEntity
  8
0
100
AcDbLine
 62
7
  6
CONTINUOUS
 10
62.7886234093
 20
325.3363889372
 11
62.4761231709
 21
325.4002187169
  0
LINE
  5
29B
100
AcDbEntity
  8
0
100
AcDbLine
 62
7
  6
CONTINUOUS
 10
121.5858392224
 20
333.0986818208
 11
128.1713398546
 21
330.7017556129
  0
LINE
  5
29C
100
AcDbEntity
  8
0
100
AcDbLine
 62
7
  6
CONTINUOUS
 10
225.0971193715
 20
264.4002187169
 11
233.7573734093
 21
249.4002187169
  0
LINE
  5
29D
100
AcDbEntity
  8
0
100
AcDbLine
 62
7
  6
CONTINUOUS
 10
207.7573734093
 20
364.4002187169
 11
207.7573734093
 21
331.2159425665
  0
LINE
  5
29E
100
AcDbEntity
  8
0
100
AcDbLine
 62
7
  6
CONTINUOUS
 10
207.7573734093
 20
297.5844938044
 11
207.7573734093
 21
264.4002187169
  0
LINE
  5
29F
100
AcDbEntity
  8
0
100
AcDbLine
 62
7
  6
CONTINUOUS
 10
219.7573734093
 20
364.4002187169
 11
219.7573734093
 21
331.2159181751
  0
LINE
  5
2A0
100
AcDbEntity
  8
0
100
AcDbLine
 62
7
  6
CONTINUOUS
 10
219.7573734093
 20
297.5845183512
 11
219.7573734093
 21
264.4002187169
  0
LINE
  5
2A1
100
AcDbEntity
  8
0
100
AcDbLine
 62
7
  6
CONTINUOUS
 10
371.2886236478
 20
303.4002187169
 11
373.6636231709
 21
303.4002187169
  0
LINE
  5
2A2
100
AcDbEntity
  8
0
100
AcDbLine
 62
7
  6
CONTINUOUS
 10
375.0386236478
 20
303.4002187169
 11
376.5386232901
 21
303.4002187169
  0
LINE
  5
2A3
100
AcDbEntity
  8
0
100
AcDbLine
 62
7
  6
CONTINUOUS
 10
377.0386235285
 20
303.4002187169
 11
377.4136235285
 21
303.4002187169
  0
LINE
  5
2A4
100
AcDbEntity
  8
0
100
AcDbLine
 62
7
  6
CONTINUOUS
 10
378.9136235285
 20
303.4002187169
 11
379.2886233497
 21
303.4002187169
  0
LINE
  5
2A5
100
AcDbEntity
  8
0
100
AcDbLine
 62
7
  6
CONTINUOUS
 10
380.6636234689
 20
303.4002187169
 11
381.2261233795
 21
303.4002187169
  0
LINE
  5
2A6
100
AcDbEntity
  8
0
100
AcDbLine
 62
7
  6
CONTINUOUS
 10
376.1636236478
 20
303.719367615
 11
374.9761231709
 21
303.719367615
  0
LINE
  5
2A7
100
AcDbEntity
  8
0
100
AcDbLine
 62
7
  6
CONTINUOUS
 10
373.6636231709
 20
303.719367615
 11
372.6636234093
 21
303.719367615
  0
LINE
  5
2A8
100
AcDbEntity
  8
0
100
AcDbLine
 62
7
  6
CONTINUOUS
 10
372.2886234093
 20
303.719367615
 11
371.2886236478
 21
303.719367615
  0
LINE
  5
2A9
100
AcDbEntity
  8
0
100
AcDbLine
 62
7
  6
CONTINUOUS
 10
381.2261233795
 20
303.7831973946
 11
380.6636234689
 21
303.7831973946
  0
LINE
  5
2AA
100
AcDbEntity
  8
0
100
AcDbLine
 62
7
  6
CONTINUOUS
 10
380.1636234093
 20
304.1661762512
 11
379.7886234093
 21
304.1661762512
  0
LINE
  5
2AB
100
AcDbEntity
  8
0
100
AcDbLine
 62
7
  6
CONTINUOUS
 10
374.9761231709
 20
304.6768144882
 11
376.1636236478
 21
304.6768144882
  0
LINE
  5
2AC
100
AcDbEntity
  8
0
100
AcDbLine
 62
7
  6
CONTINUOUS
 10
376.1636236478
 20
305.0597931659
 11
375.1011234093
 21
305.0597931659
  0
LINE
  5
2AD
100
AcDbEntity
  8
0
100
AcDbLine
 62
7
  6
CONTINUOUS
 10
379.7886234093
 20
305.634261272
 11
380.1636234093
 21
305.634261272
  0
LINE
  5
2AE
100
AcDbEntity
  8
0
100
AcDbLine
 62
7
  6
CONTINUOUS
 10
378.0386232901
 20
306.0172399944
 11
378.2886234093
 21
306.0172399944
  0
LINE
  5
2AF
100
AcDbEntity
  8
0
100
AcDbLine
 62
7
  6
CONTINUOUS
 10
380.6636234689
 20
306.0172399944
 11
381.2261233795
 21
306.0172399944
  0
LINE
  5
2B0
100
AcDbEntity
  8
0
100
AcDbLine
 62
7
  6
CONTINUOUS
 10
381.2261233795
 20
306.4002187169
 11
380.6636234689
 21
306.4002187169
  0
LINE
  5
2B1
100
AcDbEntity
  8
0
100
AcDbLine
 62
7
  6
CONTINUOUS
 10
378.2886234093
 20
306.4002187169
 11
378.0386232901
 21
306.4002187169
  0
LINE
  5
2B2
100
AcDbEntity
  8
0
100
AcDbLine
 62
7
  6
CONTINUOUS
 10
376.5386232901
 20
306.4002187169
 11
376.1636236478
 21
306.4002187169
  0
LINE
  5
2B3
100
AcDbEntity
  8
0
100
AcDbLine
 62
7
  6
CONTINUOUS
 10
374.6011231709
 20
306.4002187169
 11
374.1636234093
 21
306.4002187169
  0
LINE
  5
2B4
100
AcDbEntity
  8
0
100
AcDbLine
 62
7
  6
CONTINUOUS
 10
372.6636234093
 20
306.4002187169
 11
372.2886234093
 21
306.4002187169
  0
LINE
  5
2B5
100
AcDbEntity
  8
RUNDUNGEN
100
AcDbLine
 62
7
  6
CONTINUOUS
 10
295.7571298889
 20
306.4002187169
 11
230.7575623894
 21
306.4002187169
  0
LINE
  5
2B6
100
AcDbEntity
  8
RUNDUNGEN
100
AcDbLine
 62
7
  6
CONTINUOUS
 10
131.7575341832
 20
306.4002187169
 11
196.7573734093
 21
306.4002187169
  0
LINE
  5
2B7
100
AcDbEntity
  8
0
100
AcDbLine
 62
7
  6
CONTINUOUS
 10
230.7573734093
 20
306.4002187169
 11
231.4894242169
 21
306.4002187169
  0
LINE
  5
2B8
100
AcDbEntity
  8
BEZUGSACHSEN
100
AcDbLine
 62
7
  6
CONTINUOUS
 10
381.7573734093
 20
307.4002187169
 11
371.7573734093
 21
307.4002187169
  0
LINE
  5
2B9
100
AcDbEntity
  8
0
100
AcDbLine
 62
7
  6
CONTINUOUS
 10
366.7573734093
 20
307.4002187169
 11
317.7573734093
 21
307.4002187169
  0
LINE
  5
2BA
100
AcDbEntity
  8
0
100
AcDbLine
 62
7
  6
CONTINUOUS
 10
298.7568678318
 20
307.4002187169
 11
277.5073734093
 21
307.4002187169
  0
LINE
  5
2BB
100
AcDbEntity
  8
BEZUGSACHSEN
100
AcDbLine
 62
7
  6
CONTINUOUS
 10
55.7573734093
 20
307.4002187169
 11
65.7573734093
 21
307.4002187169
  0
LINE
  5
2BC
100
AcDbEntity
  8
0
100
AcDbLine
 62
7
  6
CONTINUOUS
 10
70.7573734093
 20
307.4002187169
 11
88.7573734093
 21
307.4002187169
  0
LINE
  5
2BD
100
AcDbEntity
  8
0
100
AcDbLine
 62
7
  6
CONTINUOUS
 10
93.7573734093
 20
307.4002187169
 11
110.7573734093
 21
307.4002187169
  0
LINE
  5
2BE
100
AcDbEntity
  8
0
100
AcDbLine
 62
7
  6
CONTINUOUS
 10
128.7573734093
 20
307.4002187169
 11
165.0073734093
 21
307.4002187169
  0
LINE
  5
2BF
100
AcDbEntity
  8
RUNDUNGEN
100
AcDbLine
 62
7
  6
CONTINUOUS
 10
277.5073734093
 20
307.4002187169
 11
298.7568678318
 21
307.4002187169
  0
LINE
  5
2C0
100
AcDbEntity
  8
RUNDUNGEN
100
AcDbLine
 62
7
  6
CONTINUOUS
 10
317.7573734093
 20
307.4002187169
 11
366.7573734093
 21
307.4002187169
  0
LINE
  5
2C1
100
AcDbEntity
  8
0
100
AcDbLine
 62
7
  6
CONTINUOUS
 10
70.7573734093
 20
307.8618703016
 11
88.7573734093
 21
307.8618703016
  0
LINE
  5
2C2
100
AcDbEntity
  8
0
100
AcDbLine
 62
7
  6
CONTINUOUS
 10
93.7573734093
 20
307.8618703016
 11
110.7573734093
 21
307.8618703016
  0
LINE
  5
2C3
100
AcDbEntity
  8
0
100
AcDbLine
 62
7
  6
CONTINUOUS
 10
128.2252143976
 20
307.8618703015
 11
165.0073734093
 21
307.8618703015
  0
LINE
  5
2C4
100
AcDbEntity
  8
0
100
AcDbLine
 62
7
  6
CONTINUOUS
 10
274.7573734093
 20
310.1502187169
 11
268.7573734093
 21
310.1502187169
  0
LINE
  5
2C5
100
AcDbEntity
  8
0
100
AcDbLine
 62
7
  6
CONTINUOUS
 10
167.7573734093
 20
310.1502187169
 11
173.7573734093
 21
310.1502187169
  0
LINE
  5
2C6
100
AcDbEntity
  8
BEZUGSACHSEN
100
AcDbLine
 62
7
  6
CONTINUOUS
 10
43.0854034719
 20
310.7002187169
 11
57.8573734093
 21
310.7002187169
  0
LINE
  5
2C7
100
AcDbEntity
  8
RUNDUNGEN
100
AcDbLine
 62
7
  6
CONTINUOUS
 10
387.7573734093
 20
310.7002187169
 11
394.4293433468
 21
310.7002187169
  0
LINE
  5
2C8
100
AcDbEntity
  8
BEZUGSACHSEN
100
AcDbLine
 62
7
  6
CONTINUOUS
 10
379.6573734093
 20
310.7002187169
 11
394.4290412713
 21
310.7002187169
  0
LINE
  5
2C9
100
AcDbEntity
  8
0
100
AcDbLine
 62
7
  6
CONTINUOUS
 10
167.7573734093
 20
310.9632869456
 11
173.7573734093
 21
310.9632869456
  0
LINE
  5
2CA
100
AcDbEntity
  8
0
100
AcDbLine
 62
7
  6
CONTINUOUS
 10
75.7573734093
 20
311.9002187169
 11
88.7573734093
 21
311.9002187169
  0
LINE
  5
2CB
100
AcDbEntity
  8
0
100
AcDbLine
 62
7
  6
CONTINUOUS
 10
93.7573734093
 20
311.9002187169
 11
110.7573734093
 21
311.9002187169
  0
LINE
  5
2CC
100
AcDbEntity
  8
0
100
AcDbLine
 62
7
  6
CONTINUOUS
 10
126.7573734093
 20
311.9002187169
 11
174.4718395034
 21
311.9002187169
  0
LINE
  5
2CD
100
AcDbEntity
  8
RUNDUNGEN
100
AcDbLine
 62
7
  6
CONTINUOUS
 10
225.7573734093
 20
317.3999984706
 11
225.7573734093
 21
311.400462307
  0
LINE
  5
2CE
100
AcDbEntity
  8
0
100
AcDbLine
 62
7
  6
CONTINUOUS
 10
202.4176274472
 20
264.4002187169
 11
193.7573734093
 21
249.4002187169
  0
LINE
  5
2CF
100
AcDbEntity
  8
RUNDUNGEN
100
AcDbLine
 62
7
  6
CONTINUOUS
 10
49.7573734093
 20
318.1002187169
 11
43.0854034719
 21
318.1002187169
  0
LINE
  5
2D0
100
AcDbEntity
  8
BEZUGSACHSEN
100
AcDbLine
 62
7
  6
CONTINUOUS
 10
43.0857055474
 20
318.1002187169
 11
57.8573734093
 21
318.1002187169
  0
LINE
  5
2D1
100
AcDbEntity
  8
BEZUGSACHSEN
100
AcDbLine
 62
7
  6
CONTINUOUS
 10
379.6573734093
 20
318.1002187169
 11
394.4290412713
 21
318.1002187169
  0
LINE
  5
2D2
100
AcDbEntity
  8
0
100
AcDbLine
 62
7
  6
CONTINUOUS
 10
274.7573734093
 20
318.6502187169
 11
268.7573734093
 21
318.6502187169
  0
LINE
  5
2D3
100
AcDbEntity
  8
0
100
AcDbLine
 62
7
  6
CONTINUOUS
 10
167.7573734093
 20
318.6502187169
 11
173.7573734093
 21
318.6502187169
  0
LINE
  5
2D4
100
AcDbEntity
  8
BEZUGSACHSEN
100
AcDbLine
 62
7
  6
CONTINUOUS
 10
381.7573734093
 20
321.4002187169
 11
371.7573734093
 21
321.4002187169
  0
LINE
  5
2D5
100
AcDbEntity
  8
0
100
AcDbLine
 62
7
  6
CONTINUOUS
 10
366.7573734093
 20
321.4002187169
 11
317.7573734093
 21
321.4002187169
  0
LINE
  5
2D6
100
AcDbEntity
  8
0
100
AcDbLine
 62
7
  6
CONTINUOUS
 10
298.7525267586
 20
321.4002187169
 11
277.5073734093
 21
321.4002187169
  0
LINE
  5
2D7
100
AcDbEntity
  8
BEZUGSACHSEN
100
AcDbLine
 62
7
  6
CONTINUOUS
 10
55.7573734093
 20
321.4002187169
 11
65.7573734093
 21
321.4002187169
  0
LINE
  5
2D8
100
AcDbEntity
  8
0
100
AcDbLine
 62
7
  6
CONTINUOUS
 10
70.7573734093
 20
321.4002187169
 11
88.7573734093
 21
321.4002187169
  0
LINE
  5
2D9
100
AcDbEntity
  8
0
100
AcDbLine
 62
7
  6
CONTINUOUS
 10
93.7573734093
 20
321.4002187169
 11
110.7573734093
 21
321.4002187169
  0
LINE
  5
2DA
100
AcDbEntity
  8
0
100
AcDbLine
 62
7
  6
CONTINUOUS
 10
128.7588827026
 20
321.4002187169
 11
165.0073734093
 21
321.4002187169
  0
LINE
  5
2DB
100
AcDbEntity
  8
RUNDUNGEN
100
AcDbLine
 62
7
  6
CONTINUOUS
 10
277.5073734093
 20
321.4002187169
 11
298.7525267586
 21
321.4002187169
  0
LINE
  5
2DC
100
AcDbEntity
  8
RUNDUNGEN
100
AcDbLine
 62
7
  6
CONTINUOUS
 10
317.7573734093
 20
321.4002187169
 11
366.7573734093
 21
321.4002187169
  0
LINE
  5
2DD
100
AcDbEntity
  8
0
100
AcDbLine
 62
7
  6
CONTINUOUS
 10
231.4894242169
 20
322.4002187169
 11
230.7573734093
 21
322.4002187169
  0
LINE
  5
2DE
100
AcDbEntity
  8
RUNDUNGEN
100
AcDbLine
 62
7
  6
CONTINUOUS
 10
196.7573734093
 20
322.4002187169
 11
131.7574187806
 21
322.4002187169
  0
LINE
  5
2DF
100
AcDbEntity
  8
0
100
AcDbLine
 62
7
  6
CONTINUOUS
 10
56.2886234391
 20
322.4002187169
 11
56.8511233497
 21
322.4002187169
  0
LINE
  5
2E0
100
AcDbEntity
  8
0
100
AcDbLine
 62
7
  6
CONTINUOUS
 10
59.2261234093
 20
322.4002187169
 11
59.4761235285
 21
322.4002187169
  0
LINE
  5
2E1
100
AcDbEntity
  8
0
100
AcDbLine
 62
7
  6
CONTINUOUS
 10
60.9761235285
 20
322.4002187169
 11
61.3511231709
 21
322.4002187169
  0
LINE
  5
2E2
100
AcDbEntity
  8
0
100
AcDbLine
 62
7
  6
CONTINUOUS
 10
62.9136236478
 20
322.4002187169
 11
63.3511234093
 21
322.4002187169
  0
LINE
  5
2E3
100
AcDbEntity
  8
0
100
AcDbLine
 62
7
  6
CONTINUOUS
 10
64.8511234093
 20
322.4002187169
 11
65.2261234093
 21
322.4002187169
  0
LINE
  5
2E4
100
AcDbEntity
  8
RUNDUNGEN
100
AcDbLine
 62
7
  6
CONTINUOUS
 10
230.7573734093
 20
322.4002187169
 11
295.7573068251
 21
322.4002187169
  0
LINE
  5
2E5
100
AcDbEntity
  8
0
100
AcDbLine
 62
7
  6
CONTINUOUS
 10
59.4761235285
 20
322.7831974393
 11
59.2261234093
 21
322.7831974393
  0
LINE
  5
2E6
100
AcDbEntity
  8
0
100
AcDbLine
 62
7
  6
CONTINUOUS
 10
56.8511233497
 20
322.7831974393
 11
56.2886234391
 21
322.7831974393
  0
LINE
  5
2E7
100
AcDbEntity
  8
0
100
AcDbLine
 62
7
  6
CONTINUOUS
 10
57.7261234093
 20
323.1661761618
 11
57.3511234093
 21
323.1661761618
  0
LINE
  5
2E8
100
AcDbEntity
  8
0
100
AcDbLine
 62
7
  6
CONTINUOUS
 10
61.3511231709
 20
323.7406442678
 11
62.4136234093
 21
323.7406442678
  0
LINE
  5
2E9
100
AcDbEntity
  8
0
100
AcDbLine
 62
7
  6
CONTINUOUS
 10
62.5386236478
 20
324.1236229455
 11
61.3511231709
 21
324.1236229455
  0
LINE
  5
2EA
100
AcDbEntity
  8
0
100
AcDbLine
 62
7
  6
CONTINUOUS
 10
57.3511234093
 20
324.6342611825
 11
57.7261234093
 21
324.6342611825
  0
LINE
  5
2EB
100
AcDbEntity
  8
0
100
AcDbLine
 62
7
  6
CONTINUOUS
 10
56.2886234391
 20
325.0172400391
 11
56.8511233497
 21
325.0172400391
  0
LINE
  5
2EC
100
AcDbEntity
  8
0
100
AcDbLine
 62
7
  6
CONTINUOUS
 10
61.3511231709
 20
325.0810698187
 11
62.5386236478
 21
325.0810698187
  0
LINE
  5
2ED
100
AcDbEntity
  8
0
100
AcDbLine
 62
7
  6
CONTINUOUS
 10
63.8511236478
 20
325.0810698187
 11
64.8511234093
 21
325.0810698187
  0
LINE
  5
2EE
100
AcDbEntity
  8
0
100
AcDbLine
 62
7
  6
CONTINUOUS
 10
65.2261234093
 20
325.0810698187
 11
66.2261231709
 21
325.0810698187
  0
LINE
  5
2EF
100
AcDbEntity
  8
0
100
AcDbLine
 62
7
  6
CONTINUOUS
 10
66.2261231709
 20
325.4002187169
 11
63.8511236478
 21
325.4002187169
  0
LINE
  5
2F0
100
AcDbEntity
  8
0
100
AcDbLine
 62
7
  6
CONTINUOUS
 10
62.4761231709
 20
325.4002187169
 11
60.9761235285
 21
325.4002187169
  0
LINE
  5
2F1
100
AcDbEntity
  8
0
100
AcDbLine
 62
7
  6
CONTINUOUS
 10
60.4761232901
 20
325.4002187169
 11
60.1011232901
 21
325.4002187169
  0
LINE
  5
2F2
100
AcDbEntity
  8
0
100
AcDbLine
 62
7
  6
CONTINUOUS
 10
58.6011232901
 20
325.4002187169
 11
58.2261234689
 21
325.4002187169
  0
LINE
  5
2F3
100
AcDbEntity
  8
0
100
AcDbLine
 62
7
  6
CONTINUOUS
 10
56.8511233497
 20
325.4002187169
 11
56.2886234391
 21
325.4002187169
  0
LINE
  5
2F4
100
AcDbEntity
  8
BEZUGSACHSEN
100
AcDbLine
 62
7
  6
CONTINUOUS
 10
65.7573734093
 20
326.4002187169
 11
55.7573734093
 21
326.4002187169
  0
LINE
  5
2F5
100
AcDbEntity
  8
BEZUGSACHSEN
100
AcDbLine
 62
7
  6
CONTINUOUS
 10
371.7573734093
 20
326.4002187169
 11
381.7573734093
 21
326.4002187169
  0
LINE
  5
2F6
100
AcDbEntity
  8
0
100
AcDbLine
 62
7
  6
CONTINUOUS
 10
193.7573734093
 20
379.4002187169
 11
202.4176274472
 21
364.4002187169
  0
LINE
  5
2F7
100
AcDbEntity
  8
0
100
AcDbLine
 62
7
  6
CONTINUOUS
 10
233.7573734093
 20
390.4002187169
 11
233.7573734093
 21
379.4002187169
  0
LINE
  5
2F8
100
AcDbEntity
  8
0
100
AcDbLine
 62
7
  6
CONTINUOUS
 10
233.7573734093
 20
249.4002187169
 11
233.7573734093
 21
238.4002187169
  0
LINE
  5
2F9
100
AcDbEntity
  8
0
100
AcDbLine
 62
7
  6
CONTINUOUS
 10
229.6855766396
 20
297.6681679093
 11
230.4894242169
 21
298.1322695244
  0
LINE
  5
2FA
100
AcDbEntity
  8
0
100
AcDbLine
 62
7
  6
CONTINUOUS
 10
129.8814405712
 20
330.4002187169
 11
196.0253226018
 21
330.4002187169
  0
LINE
  5
2FB
100
AcDbEntity
  8
0
100
AcDbLine
 62
7
  6
CONTINUOUS
 10
231.4894242169
 20
330.4002187169
 11
315.2748975565
 21
330.4002187169
  0
LINE
  5
2FC
100
AcDbEntity
  8
0
100
AcDbLine
 62
7
  6
CONTINUOUS
 10
46.4684492366
 20
330.9002187169
 11
46.2573734093
 21
330.9002187169
  0
LINE
  5
2FD
100
AcDbEntity
  8
BEZUGSACHSEN
100
AcDbLine
 62
7
  6
CONTINUOUS
 10
46.25765298
 20
330.9002187169
 11
67.7573734093
 21
330.9002187169
  0
LINE
  5
2FE
100
AcDbEntity
  8
BEZUGSACHSEN
100
AcDbLine
 62
7
  6
CONTINUOUS
 10
369.7573734093
 20
330.9002187169
 11
391.2570938387
 21
330.9002187169
  0
LINE
  5
2FF
100
AcDbEntity
  8
0
100
AcDbLine
 62
7
  6
CONTINUOUS
 10
228.6855766396
 20
331.4002187169
 11
220.2573734093
 21
331.4002187169
  0
LINE
  5
300
100
AcDbEntity
  8
0
100
AcDbLine
 62
7
  6
CONTINUOUS
 10
207.2573734093
 20
331.4002187169
 11
198.8291701791
 21
331.4002187169
  0
LINE
  5
301
100
AcDbEntity
  8
RUNDUNGEN
100
AcDbLine
 62
7
  6
CONTINUOUS
 10
119.8757385058
 20
333.4002187169
 11
111.7573734093
 21
333.4002187169
  0
LINE
  5
302
100
AcDbEntity
  8
BEZUGSACHSEN
100
AcDbLine
 62
7
  6
CONTINUOUS
 10
93.2573734093
 20
333.4002187169
 11
90.2573734093
 21
333.4002187169
  0
LINE
  5
303
100
AcDbEntity
  8
0
100
AcDbLine
 62
7
  6
CONTINUOUS
 10
111.7573734093
 20
333.4002187169
 11
119.8757385058
 21
333.4002187169
  0
LINE
  5
304
100
AcDbEntity
  8
0
100
AcDbLine
 62
7
  6
CONTINUOUS
 10
374.7261234093
 20
303.4640484965
 11
375.0386236478
 21
303.4002187169
  0
LINE
  5
305
100
AcDbEntity
  8
0
100
AcDbLine
 62
7
  6
CONTINUOUS
 10
380.3511234093
 20
303.4640484965
 11
380.6636234689
 21
303.4002187169
  0
LINE
  5
306
100
AcDbEntity
  8
0
100
AcDbLine
 62
7
  6
CONTINUOUS
 10
378.6011232901
 20
306.3363889316
 11
378.2886234093
 21
306.4002187169
  0
LINE
  5
307
100
AcDbEntity
  8
0
100
AcDbLine
 62
7
  6
CONTINUOUS
 10
381.5386233944
 20
306.3363889316
 11
381.2261233795
 21
306.4002187169
  0
LINE
  5
308
100
AcDbEntity
  8
0
100
AcDbLine
 62
7
  6
CONTINUOUS
 10
229.6855766396
 20
331.1322695244
 11
230.4894242169
 21
330.6681679093
  0
LINE
  5
309
100
AcDbEntity
  8
0
100
AcDbLine
 62
7
  6
CONTINUOUS
 10
268.7573734093
 20
318.6502187169
 11
267.7573734093
 21
317.6502187169
  0
LINE
  5
30A
100
AcDbEntity
  8
0
100
AcDbLine
 62
7
  6
CONTINUOUS
 10
277.5073734093
 20
321.4002187169
 11
274.7573734093
 21
318.6502187169
  0
LINE
  5
30B
100
AcDbEntity
  8
0
100
AcDbLine
 62
7
  6
CONTINUOUS
 10
59.4761235285
 20
322.4002187169
 11
59.7886234093
 21
322.4640485021
  0
LINE
  5
30C
100
AcDbEntity
  8
0
100
AcDbLine
 62
7
  6
CONTINUOUS
 10
56.8511233497
 20
322.4002187169
 11
57.1636234093
 21
322.4640485021
  0
LINE
  5
30D
100
AcDbEntity
  8
0
100
AcDbLine
 62
7
  6
CONTINUOUS
 10
380.6636234689
 20
303.7831973946
 11
380.4136233497
 21
303.8470271742
  0
LINE
  5
30E
100
AcDbEntity
  8
0
100
AcDbLine
 62
7
  6
CONTINUOUS
 10
378.2886234093
 20
306.0172399944
 11
378.5386235285
 21
305.9534102148
  0
LINE
  5
30F
100
AcDbEntity
  8
0
100
AcDbLine
 62
7
  6
CONTINUOUS
 10
381.2261233795
 20
306.0172399944
 11
381.4761234093
 21
305.9534102148
  0
LINE
  5
310
100
AcDbEntity
  8
0
100
AcDbLine
 62
7
  6
CONTINUOUS
 10
374.9761231709
 20
303.719367615
 11
374.7886231709
 21
303.7831973946
  0
LINE
  5
311
100
AcDbEntity
  8
0
100
AcDbLine
 62
7
  6
CONTINUOUS
 10
267.7573734093
 20
311.1502187169
 11
268.7573734093
 21
310.1502187169
  0
LINE
  5
312
100
AcDbEntity
  8
0
100
AcDbLine
 62
7
  6
CONTINUOUS
 10
274.7573734093
 20
310.1502187169
 11
277.5073734093
 21
307.4002187169
  0
LINE
  5
313
100
AcDbEntity
  8
0
100
AcDbLine
 62
7
  6
CONTINUOUS
 10
267.7573734093
 20
311.1502187169
 11
267.7573734093
 21
317.6502187169
  0
LINE
  5
314
100
AcDbEntity
  8
0
100
AcDbLine
 62
7
  6
CONTINUOUS
 10
268.7573734093
 20
310.1502187169
 11
268.7573734093
 21
318.6502187169
  0
LINE
  5
315
100
AcDbEntity
  8
0
100
AcDbLine
 62
7
  6
CONTINUOUS
 10
59.7261232901
 20
322.8470272189
 11
59.4761235285
 21
322.7831974393
  0
LINE
  5
316
100
AcDbEntity
  8
0
100
AcDbLine
 62
7
  6
CONTINUOUS
 10
57.1011234689
 20
322.8470272189
 11
56.8511233497
 21
322.7831974393
  0
LINE
  5
317
100
AcDbEntity
  8
0
100
AcDbLine
 62
7
  6
CONTINUOUS
 10
56.0386234093
 20
324.9534102595
 11
56.2886234391
 21
325.0172400391
  0
LINE
  5
318
100
AcDbEntity
  8
0
100
AcDbLine
 62
7
  6
CONTINUOUS
 10
56.2886234391
 20
325.4002187169
 11
55.9761234242
 21
325.3363889372
  0
LINE
  5
319
100
AcDbEntity
  8
0
100
AcDbLine
 62
7
  6
CONTINUOUS
 10
202.4176274472
 20
364.4002187169
 11
225.0971193715
 21
364.4002187169
  0
LINE
  5
31A
100
AcDbEntity
  8
0
100
AcDbLine
 62
7
  6
CONTINUOUS
 10
274.7573734093
 20
310.1502187169
 11
274.7573734093
 21
318.6502187169
  0
LINE
  5
31B
100
AcDbEntity
  8
0
100
AcDbLine
 62
7
  6
CONTINUOUS
 10
277.5073734093
 20
307.4002187169
 11
277.5073734093
 21
321.4002187169
  0
LINE
  5
31C
100
AcDbEntity
  8
0
100
AcDbLine
 62
7
  6
CONTINUOUS
 10
374.7886231709
 20
304.6129847085
 11
374.9761231709
 21
304.6768144882
  0
LINE
  5
31D
100
AcDbEntity
  8
0
100
AcDbLine
 62
7
  6
CONTINUOUS
 10
193.7573734093
 20
379.4002187169
 11
233.7573734093
 21
379.4002187169
  0
LINE
  5
31E
100
AcDbEntity
  8
0
100
AcDbLine
 62
7
  6
CONTINUOUS
 10
380.1011234689
 20
303.5917080557
 11
380.3511234093
 21
303.4640484965
  0
LINE
  5
31F
100
AcDbEntity
  8
0
100
AcDbLine
 62
7
  6
CONTINUOUS
 10
378.8511234093
 20
306.2087293556
 11
378.6011232901
 21
306.3363889316
  0
LINE
  5
320
100
AcDbEntity
  8
0
100
AcDbLine
 62
7
  6
CONTINUOUS
 10
381.7886234242
 20
306.2087293556
 11
381.5386233944
 21
306.3363889316
  0
LINE
  5
321
100
AcDbEntity
  8
0
100
AcDbLine
 62
7
  6
CONTINUOUS
 10
233.7573734093
 20
238.4002187169
 11
223.3650685639
 21
232.4002187169
  0
LINE
  5
322
100
AcDbEntity
  8
0
100
AcDbLine
 62
7
  6
CONTINUOUS
 10
374.7261234093
 20
304.9321336067
 11
374.4761236478
 21
304.8044740474
  0
LINE
  5
323
100
AcDbEntity
  8
0
100
AcDbLine
 62
7
  6
CONTINUOUS
 10
377.7261234093
 20
306.3363889316
 11
377.4761232901
 21
306.2087293556
  0
LINE
  5
324
100
AcDbEntity
  8
0
100
AcDbLine
 62
7
  6
CONTINUOUS
 10
193.7573734093
 20
390.4002187169
 11
233.7573734093
 21
390.4002187169
  0
LINE
  5
325
100
AcDbEntity
  8
0
100
AcDbLine
 62
7
  6
CONTINUOUS
 10
223.3650685639
 20
396.4002187169
 11
233.7573734093
 21
390.4002187169
  0
LINE
  5
326
100
AcDbEntity
  8
RUNDUNGEN
100
AcDbLine
 62
7
  6
CONTINUOUS
 10
300.7573734093
 20
311.400469929
 11
300.7573734093
 21
317.3999919999
  0
LINE
  5
327
100
AcDbEntity
  8
0
100
AcDbLine
 62
7
  6
CONTINUOUS
 10
380.3511234093
 20
306.3363889316
 11
380.1011234689
 21
306.2087293556
  0
LINE
  5
328
100
AcDbEntity
  8
0
100
AcDbLine
 62
7
  6
CONTINUOUS
 10
381.5386233944
 20
303.4640484965
 11
381.7886234242
 21
303.5917080557
  0
LINE
  5
329
100
AcDbEntity
  8
0
100
AcDbLine
 62
7
  6
CONTINUOUS
 10
204.1496782547
 20
396.4002187169
 11
223.3650685639
 21
396.4002187169
  0
LINE
  5
32A
100
AcDbEntity
  8
0
100
AcDbLine
 62
7
  6
CONTINUOUS
 10
380.4136233497
 20
303.8470271742
 11
380.2261233497
 21
303.9746867335
  0
LINE
  5
32B
100
AcDbEntity
  8
0
100
AcDbLine
 62
7
  6
CONTINUOUS
 10
378.5386235285
 20
305.9534102148
 11
378.7261235285
 21
305.8257506108
  0
LINE
  5
32C
100
AcDbEntity
  8
0
100
AcDbLine
 62
7
  6
CONTINUOUS
 10
381.4761234093
 20
305.9534102148
 11
381.6636234093
 21
305.8257506108
  0
LINE
  5
32D
100
AcDbEntity
  8
0
100
AcDbLine
 62
7
  6
CONTINUOUS
 10
374.4761236478
 20
303.6555378354
 11
374.7261234093
 21
303.4640484965
  0
LINE
  5
32E
100
AcDbEntity
  8
0
100
AcDbLine
 62
7
  6
CONTINUOUS
 10
317.2639413472
 20
328.6092756434
 11
317.7573734093
 21
323.9145831711
  0
LINE
  5
32F
100
AcDbEntity
  8
0
100
AcDbLine
 62
7
  6
CONTINUOUS
 10
317.7573734093
 20
323.9145831711
 11
317.7573734093
 21
304.8858542626
  0
LINE
  5
330
100
AcDbEntity
  8
0
100
AcDbLine
 62
7
  6
CONTINUOUS
 10
317.2639413472
 20
300.1911617903
 11
317.7573734093
 21
304.8858542626
  0
LINE
  5
331
100
AcDbEntity
  8
0
100
AcDbLine
 62
7
  6
CONTINUOUS
 10
377.6011235285
 20
305.8257506108
 11
377.7886235285
 21
305.9534102148
  0
LINE
  5
332
100
AcDbEntity
  8
0
100
AcDbLine
 62
7
  6
CONTINUOUS
 10
380.2261233497
 20
305.8257506108
 11
380.4136233497
 21
305.9534102148
  0
LINE
  5
333
100
AcDbEntity
  8
0
100
AcDbLine
 62
7
  6
CONTINUOUS
 10
381.6636234093
 20
303.9746867335
 11
381.4761234093
 21
303.8470271742
  0
LINE
  5
334
100
AcDbEntity
  8
0
100
AcDbLine
 62
7
  6
CONTINUOUS
 10
374.7886231709
 20
303.7831973946
 11
374.6636236478
 21
303.9108569539
  0
LINE
  5
335
100
AcDbEntity
  8
0
100
AcDbLine
 62
7
  6
CONTINUOUS
 10
374.6636236478
 20
304.4853251493
 11
374.7886231709
 21
304.6129847085
  0
LINE
  5
336
100
AcDbEntity
  8
0
100
AcDbLine
 62
7
  6
CONTINUOUS
 10
377.4761232901
 20
306.2087293556
 11
377.2261235285
 21
305.9534102148
  0
LINE
  5
337
100
AcDbEntity
  8
0
100
AcDbLine
 62
7
  6
CONTINUOUS
 10
379.8511233497
 20
303.8470271742
 11
380.1011234689
 21
303.5917080557
  0
LINE
  5
338
100
AcDbEntity
  8
0
100
AcDbLine
 62
7
  6
CONTINUOUS
 10
379.1011235285
 20
305.9534102148
 11
378.8511234093
 21
306.2087293556
  0
LINE
  5
339
100
AcDbEntity
  8
0
100
AcDbLine
 62
7
  6
CONTINUOUS
 10
382.0386234093
 20
305.9534102148
 11
381.7886234242
 21
306.2087293556
  0
LINE
  5
33A
100
AcDbEntity
  8
0
100
AcDbLine
 62
7
  6
CONTINUOUS
 10
374.2886236478
 20
303.9108569539
 11
374.4761236478
 21
303.6555378354
  0
LINE
  5
33B
100
AcDbEntity
  8
0
100
AcDbLine
 62
7
  6
CONTINUOUS
 10
374.4761236478
 20
304.8044740474
 11
374.2886236478
 21
304.5491549289
  0
LINE
  5
33C
100
AcDbEntity
  8
0
100
AcDbLine
 62
7
  6
CONTINUOUS
 10
380.1011234689
 20
306.2087293556
 11
379.8511233497
 21
305.9534102148
  0
LINE
  5
33D
100
AcDbEntity
  8
0
100
AcDbLine
 62
7
  6
CONTINUOUS
 10
381.7886234242
 20
303.5917080557
 11
382.0386234093
 21
303.8470271742
  0
LINE
  5
33E
100
AcDbEntity
  8
0
100
AcDbLine
 62
7
  6
CONTINUOUS
 10
378.7261235285
 20
305.8257506108
 11
378.8511234093
 21
305.634261272
  0
LINE
  5
33F
100
AcDbEntity
  8
0
100
AcDbLine
 62
7
  6
CONTINUOUS
 10
381.6636234093
 20
305.8257506108
 11
381.7886234242
 21
305.634261272
  0
LINE
  5
340
100
AcDbEntity
  8
0
100
AcDbLine
 62
7
  6
CONTINUOUS
 10
377.4761232901
 20
305.634261272
 11
377.6011235285
 21
305.8257506108
  0
LINE
  5
341
100
AcDbEntity
  8
0
100
AcDbLine
 62
7
  6
CONTINUOUS
 10
381.7886234242
 20
304.1661762512
 11
381.6636234093
 21
303.9746867335
  0
LINE
  5
342
100
AcDbEntity
  8
0
100
AcDbLine
 62
7
  6
CONTINUOUS
 10
393.3881253171
 20
298.8046692413
 11
396.9767132097
 21
302.5207607878
  0
LINE
  5
343
100
AcDbEntity
  8
BEZUGSACHSEN
100
AcDbLine
 62
7
  6
CONTINUOUS
 10
396.9767132097
 20
326.279676646
 11
393.3881253171
 21
329.9957681924
  0
LINE
  5
344
100
AcDbEntity
  8
0
100
AcDbLine
 62
7
  6
CONTINUOUS
 10
379.2261234093
 20
305.6980910516
 11
379.1011235285
 21
305.9534102148
  0
LINE
  5
345
100
AcDbEntity
  8
0
100
AcDbLine
 62
7
  6
CONTINUOUS
 10
382.1636234075
 20
305.6980910516
 11
382.0386234093
 21
305.9534102148
  0
LINE
  5
346
100
AcDbEntity
  8
0
100
AcDbLine
 62
7
  6
CONTINUOUS
 10
374.1636234093
 20
306.4002187169
 11
374.7261234093
 21
304.9321336067
  0
LINE
  5
347
100
AcDbEntity
  8
0
100
AcDbLine
 62
7
  6
CONTINUOUS
 10
375.1011234093
 20
305.0597931659
 11
374.6011231709
 21
306.4002187169
  0
LINE
  5
348
100
AcDbEntity
  8
0
100
AcDbLine
 62
7
  6
CONTINUOUS
 10
374.2261231709
 20
304.1023462927
 11
374.2886236478
 21
303.9108569539
  0
LINE
  5
349
100
AcDbEntity
  8
0
100
AcDbLine
 62
7
  6
CONTINUOUS
 10
374.6636236478
 20
303.9108569539
 11
374.6011231709
 21
304.1023462927
  0
LINE
  5
34A
100
AcDbEntity
  8
BEZUGSACHSEN
100
AcDbLine
 62
7
  6
CONTINUOUS
 10
367.7573734093
 20
328.9002187169
 11
367.7573734093
 21
299.9002187169
  0
LINE
  5
34B
100
AcDbEntity
  8
RUNDUNGEN
100
AcDbLine
 62
7
  6
CONTINUOUS
 10
367.7573734093
 20
328.9002187169
 11
367.7573734093
 21
299.9002187169
  0
LINE
  5
34C
100
AcDbEntity
  8
0
100
AcDbLine
 62
7
  6
CONTINUOUS
 10
371.2886236478
 20
303.719367615
 11
371.2886236478
 21
303.4002187169
  0
LINE
  5
34D
100
AcDbEntity
  8
0
100
AcDbLine
 62
7
  6
CONTINUOUS
 10
372.2886234093
 20
306.4002187169
 11
372.2886234093
 21
303.719367615
  0
LINE
  5
34E
100
AcDbEntity
  8
0
100
AcDbLine
 62
7
  6
CONTINUOUS
 10
372.6636234093
 20
303.719367615
 11
372.6636234093
 21
306.4002187169
  0
LINE
  5
34F
100
AcDbEntity
  8
0
100
AcDbLine
 62
7
  6
CONTINUOUS
 10
373.6636231709
 20
303.4002187169
 11
373.6636231709
 21
303.719367615
  0
LINE
  5
350
100
AcDbEntity
  8
0
100
AcDbLine
 62
7
  6
CONTINUOUS
 10
374.2261231709
 20
304.35766559
 11
374.2261231709
 21
304.1023462927
  0
LINE
  5
351
100
AcDbEntity
  8
0
100
AcDbLine
 62
7
  6
CONTINUOUS
 10
374.6011231709
 20
304.1023462927
 11
374.6011231709
 21
304.2938358104
  0
LINE
  5
352
100
AcDbEntity
  8
0
100
AcDbLine
 62
7
  6
CONTINUOUS
 10
376.1636236478
 20
306.4002187169
 11
376.1636236478
 21
305.0597931659
  0
LINE
  5
353
100
AcDbEntity
  8
0
100
AcDbLine
 62
7
  6
CONTINUOUS
 10
376.1636236478
 20
304.6768144882
 11
376.1636236478
 21
303.719367615
  0
LINE
  5
354
100
AcDbEntity
  8
0
100
AcDbLine
 62
7
  6
CONTINUOUS
 10
376.5386232901
 20
303.4002187169
 11
376.5386232901
 21
306.4002187169
  0
LINE
  5
355
100
AcDbEntity
  8
0
100
AcDbLine
 62
7
  6
CONTINUOUS
 10
377.0386235285
 20
305.3789421535
 11
377.0386235285
 21
303.4002187169
  0
LINE
  5
356
100
AcDbEntity
  8
0
100
AcDbLine
 62
7
  6
CONTINUOUS
 10
377.4136235285
 20
303.4002187169
 11
377.4136235285
 21
305.3789421535
  0
LINE
  5
357
100
AcDbEntity
  8
0
100
AcDbLine
 62
7
  6
CONTINUOUS
 10
377.1011232901
 20
305.6980910516
 11
377.0386235285
 21
305.3789421535
  0
LINE
  5
358
100
AcDbEntity
  8
0
100
AcDbLine
 62
7
  6
CONTINUOUS
 10
377.4136235285
 20
305.3789421535
 11
377.4761232901
 21
305.634261272
  0
LINE
  5
359
100
AcDbEntity
  8
0
100
AcDbLine
 62
7
  6
CONTINUOUS
 10
374.2886236478
 20
304.5491549289
 11
374.2261231709
 21
304.35766559
  0
LINE
  5
35A
100
AcDbEntity
  8
0
100
AcDbLine
 62
7
  6
CONTINUOUS
 10
374.6011231709
 20
304.2938358104
 11
374.6636236478
 21
304.4853251493
  0
LINE
  5
35B
100
AcDbEntity
  8
0
100
AcDbLine
 62
7
  6
CONTINUOUS
 10
380.1636234093
 20
305.634261272
 11
380.2261233497
 21
305.8257506108
  0
LINE
  5
35C
100
AcDbEntity
  8
0
100
AcDbLine
 62
7
  6
CONTINUOUS
 10
377.2261235285
 20
305.9534102148
 11
377.1011232901
 21
305.6980910516
  0
LINE
  5
35D
100
AcDbEntity
  8
0
100
AcDbLine
 62
7
  6
CONTINUOUS
 10
382.0386234093
 20
303.8470271742
 11
382.1636234075
 21
304.1023462927
  0
LINE
  5
35E
100
AcDbEntity
  8
0
100
AcDbLine
 62
7
  6
CONTINUOUS
 10
380.2261233497
 20
303.9746867335
 11
380.1636234093
 21
304.1661762512
  0
LINE
  5
35F
100
AcDbEntity
  8
0
100
AcDbLine
 62
7
  6
CONTINUOUS
 10
378.8511234093
 20
305.634261272
 11
378.9136235285
 21
305.3789421535
  0
LINE
  5
360
100
AcDbEntity
  8
0
100
AcDbLine
 62
7
  6
CONTINUOUS
 10
381.7886234242
 20
305.634261272
 11
381.8511234093
 21
305.3789421535
  0
LINE
  5
361
100
AcDbEntity
  8
0
100
AcDbLine
 62
7
  6
CONTINUOUS
 10
379.2886233497
 20
305.3789421535
 11
379.2261234093
 21
305.6980910516
  0
LINE
  5
362
100
AcDbEntity
  8
0
100
AcDbLine
 62
7
  6
CONTINUOUS
 10
379.7886234093
 20
304.1661762512
 11
379.8511233497
 21
303.8470271742
  0
LINE
  5
363
100
AcDbEntity
  8
0
100
AcDbLine
 62
7
  6
CONTINUOUS
 10
382.2261234093
 20
305.3789421535
 11
382.1636234075
 21
305.6980910516
  0
LINE
  5
364
100
AcDbEntity
  8
0
100
AcDbLine
 62
7
  6
CONTINUOUS
 10
378.9136235285
 20
305.3789421535
 11
378.9136235285
 21
303.4002187169
  0
LINE
  5
365
100
AcDbEntity
  8
0
100
AcDbLine
 62
7
  6
CONTINUOUS
 10
379.2886233497
 20
303.4002187169
 11
379.2886233497
 21
305.3789421535
  0
LINE
  5
366
100
AcDbEntity
  8
0
100
AcDbLine
 62
7
  6
CONTINUOUS
 10
381.8511234093
 20
305.3789421535
 11
381.8511234093
 21
304.4214953697
  0
LINE
  5
367
100
AcDbEntity
  8
0
100
AcDbLine
 62
7
  6
CONTINUOUS
 10
382.2261234093
 20
304.4214953697
 11
382.2261234093
 21
305.3789421535
  0
LINE
  5
368
100
AcDbEntity
  8
0
100
AcDbLine
 62
7
  6
CONTINUOUS
 10
382.3973734093
 20
310.7002187169
 11
382.3973734093
 21
318.1002187169
  0
LINE
  5
369
100
AcDbEntity
  8
0
100
AcDbLine
 62
7
  6
CONTINUOUS
 10
379.8511233497
 20
305.9534102148
 11
379.7886234093
 21
305.634261272
  0
LINE
  5
36A
100
AcDbEntity
  8
0
100
AcDbLine
 62
7
  6
CONTINUOUS
 10
382.1636234075
 20
304.1023462927
 11
382.2261234093
 21
304.4214953697
  0
LINE
  5
36B
100
AcDbEntity
  8
0
100
AcDbLine
 62
7
  6
CONTINUOUS
 10
381.8511234093
 20
304.4214953697
 11
381.7886234242
 21
304.1661762512
  0
LINE
  5
36C
100
AcDbEntity
  8
0
100
AcDbLine
 62
7
  6
CONTINUOUS
 10
393.1173734093
 20
310.7002187169
 11
393.1173734093
 21
318.1002187169
  0
LINE
  5
36D
100
AcDbEntity
  8
0
100
AcDbLine
 62
7
  6
CONTINUOUS
 10
397.2573734093
 20
303.2154191582
 11
397.2573734093
 21
304.347196104
  0
LINE
  5
36E
100
AcDbEntity
  8
BEZUGSACHSEN
100
AcDbLine
 62
7
  6
CONTINUOUS
 10
397.2573734093
 20
324.4532413297
 11
397.2573734093
 21
325.5850182755
  0
LINE
  5
36F
100
AcDbEntity
  8
0
100
AcDbLine
 62
7
  6
CONTINUOUS
 10
461.7068119845
 20
232.4002187169
 11
480.9218664354
 21
232.4002187169
  0
LINE
  5
370
100
AcDbEntity
  8
0
100
AcDbLine
 62
7
  6
CONTINUOUS
 10
461.7066440554
 20
396.4002187169
 11
451.31433921
 21
390.4002187169
  0
LINE
  5
371
100
AcDbEntity
  8
0
100
AcDbLine
 62
7
  6
CONTINUOUS
 10
451.31433921
 20
238.4002187169
 11
491.31433921
 21
238.4002187169
  0
LINE
  5
372
100
AcDbEntity
  8
0
100
AcDbLine
 62
7
  6
CONTINUOUS
 10
451.31433921
 20
238.4002187169
 11
461.7066440554
 21
232.4002187169
  0
LINE
  5
373
100
AcDbEntity
  8
0
100
AcDbLine
 62
7
  6
CONTINUOUS
 10
451.31433921
 20
249.4002187169
 11
491.31433921
 21
249.4002187169
  0
LINE
  5
374
100
AcDbEntity
  8
0
100
AcDbLine
 62
7
  6
CONTINUOUS
 10
459.9747914508
 20
264.4002187169
 11
482.6538869691
 21
264.4002187169
  0
LINE
  5
375
100
AcDbEntity
  8
0
100
AcDbLine
 62
7
  6
CONTINUOUS
 10
451.31433921
 20
390.4002187169
 11
451.31433921
 21
379.4002187169
  0
LINE
  5
376
100
AcDbEntity
  8
0
100
AcDbLine
 62
7
  6
CONTINUOUS
 10
451.31433921
 20
249.4002187169
 11
451.31433921
 21
238.4002187169
  0
LINE
  5
377
100
AcDbEntity
  8
0
100
AcDbLine
 62
7
  6
CONTINUOUS
 10
491.31433921
 20
379.4002187169
 11
482.6540851721
 21
364.4002187169
  0
LINE
  5
378
100
AcDbEntity
  8
0
100
AcDbLine
 62
7
  6
CONTINUOUS
 10
482.6540851721
 20
264.4002187169
 11
491.31433921
 21
249.4002187169
  0
LINE
  5
379
100
AcDbEntity
  8
BEZUGSACHSEN
100
AcDbLine
 62
7
  6
CONTINUOUS
 10
462.31433921
 20
298.9002187169
 11
462.31433921
 21
319.1002187169
  0
LINE
  5
37A
100
AcDbEntity
  8
RUNDUNGEN
100
AcDbLine
 62
7
  6
CONTINUOUS
 10
462.31433921
 20
319.1002187169
 11
462.31433921
 21
329.9002187169
  0
LINE
  5
37B
100
AcDbEntity
  8
0
100
AcDbLine
 62
7
  6
CONTINUOUS
 10
465.31433921
 20
364.4002187169
 11
465.31433921
 21
332.4182962086
  0
LINE
  5
37C
100
AcDbEntity
  8
0
100
AcDbLine
 62
7
  6
CONTINUOUS
 10
465.31433921
 20
296.3747542905
 11
465.31433921
 21
264.4002187169
  0
LINE
  5
37D
100
AcDbEntity
  8
0
100
AcDbLine
 62
7
  6
CONTINUOUS
 10
466.56433921
 20
318.1002187169
 11
466.56433921
 21
310.7002187169
  0
LINE
  5
37E
100
AcDbEntity
  8
BEZUGSACHSEN
100
AcDbLine
 62
7
  6
CONTINUOUS
 10
463.320547912
 20
297.9002187169
 11
479.3081305079
 21
297.9002187169
  0
LINE
  5
37F
100
AcDbEntity
  8
0
100
AcDbLine
 62
7
  6
CONTINUOUS
 10
476.06433921
 20
310.7002187169
 11
476.06433921
 21
318.1002187169
  0
LINE
  5
380
100
AcDbEntity
  8
0
100
AcDbLine
 62
7
  6
CONTINUOUS
 10
477.31433921
 20
364.4002187169
 11
477.31433921
 21
332.4182962086
  0
LINE
  5
381
100
AcDbEntity
  8
0
100
AcDbLine
 62
7
  6
CONTINUOUS
 10
477.31433921
 20
296.3821412251
 11
477.31433921
 21
264.4002187169
  0
LINE
  5
382
100
AcDbEntity
  8
0
100
AcDbLine
 62
7
  6
CONTINUOUS
 10
480.31433921
 20
329.9002187169
 11
480.31433921
 21
323.3884234932
  0
LINE
  5
383
100
AcDbEntity
  8
BEZUGSACHSEN
100
AcDbLine
 62
7
  6
CONTINUOUS
 10
480.31433921
 20
298.9002187169
 11
480.31433921
 21
329.9002187169
  0
LINE
  5
384
100
AcDbEntity
  8
BEZUGSACHSEN
100
AcDbLine
 62
7
  6
CONTINUOUS
 10
463.31433921
 20
310.7002187169
 11
479.31433921
 21
310.7002187169
  0
LINE
  5
385
100
AcDbEntity
  8
RUNDUNGEN
100
AcDbLine
 62
7
  6
CONTINUOUS
 10
477.9863091474
 20
318.1002187169
 11
463.31433921
 21
318.1002187169
  0
LINE
  5
386
100
AcDbEntity
  8
BEZUGSACHSEN
100
AcDbLine
 62
7
  6
CONTINUOUS
 10
464.6423692725
 20
318.1002187169
 11
479.31433921
 21
318.1002187169
  0
LINE
  5
387
100
AcDbEntity
  8
0
100
AcDbLine
 62
7
  6
CONTINUOUS
 10
491.31433921
 20
390.4002187169
 11
491.31433921
 21
379.4002187169
  0
LINE
  5
388
100
AcDbEntity
  8
0
100
AcDbLine
 62
7
  6
CONTINUOUS
 10
491.31433921
 20
249.4002187169
 11
491.31433921
 21
238.4002187169
  0
LINE
  5
389
100
AcDbEntity
  8
0
100
AcDbLine
 62
7
  6
CONTINUOUS
 10
459.9745932478
 20
264.4002187169
 11
451.31433921
 21
249.4002187169
  0
LINE
  5
38A
100
AcDbEntity
  8
0
100
AcDbLine
 62
7
  6
CONTINUOUS
 10
451.31433921
 20
379.4002187169
 11
459.9745932478
 21
364.4002187169
  0
LINE
  5
38B
100
AcDbEntity
  8
0
100
AcDbLine
 62
7
  6
CONTINUOUS
 10
472.5114097116
 20
330.9002187169
 11
470.1172687083
 21
330.9002187169
  0
LINE
  5
38C
100
AcDbEntity
  8
RUNDUNGEN
100
AcDbLine
 62
7
  6
CONTINUOUS
 10
470.1172687083
 20
330.9002187169
 11
463.320547912
 21
330.9002187169
  0
LINE
  5
38D
100
AcDbEntity
  8
BEZUGSACHSEN
100
AcDbLine
 62
7
  6
CONTINUOUS
 10
470.1172687083
 20
330.9002187169
 11
479.3081305079
 21
330.9002187169
  0
LINE
  5
38E
100
AcDbEntity
  8
0
100
AcDbLine
 62
7
  6
CONTINUOUS
 10
459.9747914508
 20
364.4002187169
 11
482.6538869691
 21
364.4002187169
  0
LINE
  5
38F
100
AcDbEntity
  8
0
100
AcDbLine
 62
7
  6
CONTINUOUS
 10
451.31433921
 20
379.4002187169
 11
491.31433921
 21
379.4002187169
  0
LINE
  5
390
100
AcDbEntity
  8
0
100
AcDbLine
 62
7
  6
CONTINUOUS
 10
491.31433921
 20
238.4002187169
 11
480.9220343646
 21
232.4002187169
  0
LINE
  5
391
100
AcDbEntity
  8
0
100
AcDbLine
 62
7
  6
CONTINUOUS
 10
451.31433921
 20
390.4002187169
 11
491.31433921
 21
390.4002187169
  0
LINE
  5
392
100
AcDbEntity
  8
0
100
AcDbLine
 62
7
  6
CONTINUOUS
 10
480.9220343646
 20
396.4002187169
 11
491.31433921
 21
390.4002187169
  0
LINE
  5
393
100
AcDbEntity
  8
0
100
AcDbLine
 62
7
  6
CONTINUOUS
 10
461.7068119845
 20
396.4002187169
 11
480.9218664354
 21
396.4002187169
  0
LINE
  5
394
100
AcDbEntity
  8
BEZUGSACHSEN
100
AcDbLine
 62
7
  6
CONTINUOUS
 10
69.7573734093
 20
128.4807462884
 11
69.7573734093
 21
112.4807462884
  0
LINE
  5
395
100
AcDbEntity
  8
RUNDUNGEN
100
AcDbLine
 62
7
  6
CONTINUOUS
 10
88.7573734093
 20
102.9807462884
 11
88.7573734093
 21
137.9807462884
  0
LINE
  5
396
100
AcDbEntity
  8
RUNDUNGEN
100
AcDbLine
 62
7
  6
CONTINUOUS
 10
93.7573734093
 20
138.9807462884
 11
93.7573734093
 21
101.9807462884
  0
LINE
  5
397
100
AcDbEntity
  8
RUNDUNGEN
100
AcDbLine
 62
7
  6
CONTINUOUS
 10
110.7573734093
 20
138.4807462884
 11
110.7573734093
 21
102.4807462884
  0
LINE
  5
398
100
AcDbEntity
  8
RUNDUNGEN
100
AcDbLine
 62
7
  6
CONTINUOUS
 10
116.7573734093
 20
101.480844768
 11
116.7573734093
 21
103.1860267404
  0
LINE
  5
399
100
AcDbEntity
  8
RUNDUNGEN
100
AcDbLine
 62
7
  6
CONTINUOUS
 10
136.2573734093
 20
134.4807462884
 11
136.2573734093
 21
135.9807462884
  0
LINE
  5
39A
100
AcDbEntity
  8
0
100
AcDbLine
 62
7
  6
CONTINUOUS
 10
148.4573734093
 20
133.4807462884
 11
148.4573734093
 21
134.4807462884
  0
LINE
  5
39B
100
AcDbEntity
  8
0
100
AcDbLine
 62
7
  6
CONTINUOUS
 10
151.2573734093
 20
133.4807462884
 11
151.2573734093
 21
134.4807462884
  0
LINE
  5
39C
100
AcDbEntity
  8
0
100
AcDbLine
 62
7
  6
CONTINUOUS
 10
154.0573734093
 20
133.4807462884
 11
154.0573734093
 21
134.4807462884
  0
LINE
  5
39D
100
AcDbEntity
  8
RUNDUNGEN
100
AcDbLine
 62
7
  6
CONTINUOUS
 10
127.3645396349
 20
105.7610779309
 11
127.3646435209
 21
105.7612030546
  0
LWPOLYLINE
  5
39E
100
AcDbEntity
  8
RUNDUNGEN
100
AcDbPolyline
 62
7
  6
CONTINUOUS
 90
3
 70
0
 10
127.3646855176
 20
105.7612543121
 10
127.5005272466
 20
105.9230209944
 10
127.7418775834
 20
106.2026505661
  0
LINE
  5
39F
100
AcDbEntity
  8
RUNDUNGEN
100
AcDbLine
 62
7
  6
CONTINUOUS
 10
127.7340463274
 20
106.1936986798
 11
128.0152272391
 21
106.5095074205
  0
LINE
  5
3A0
100
AcDbEntity
  8
RUNDUNGEN
100
AcDbLine
 62
7
  6
CONTINUOUS
 10
128.0068096782
 20
106.5001875324
 11
128.3212519046
 21
106.8428149566
  0
LINE
  5
3A1
100
AcDbEntity
  8
RUNDUNGEN
100
AcDbLine
 62
7
  6
CONTINUOUS
 10
128.3167761784
 20
106.8379402082
 11
128.6605743381
 21
107.2013688125
  0
LINE
  5
3A2
100
AcDbEntity
  8
RUNDUNGEN
100
AcDbLine
 62
7
  6
CONTINUOUS
 10
128.6511307918
 20
107.1915267973
 11
128.9142177054
 21
107.4624797336
  0
LWPOLYLINE
  5
3A3
100
AcDbEntity
  8
RUNDUNGEN
100
AcDbPolyline
 62
7
  6
CONTINUOUS
 90
11
 70
0
 10
128.9142148469
 20
107.4624808915
 10
128.9487177875
 20
107.4974006925
 10
129.1140133826
 20
107.6584426395
 10
129.2813131007
 20
107.8107554586
 10
129.4507463435
 20
107.9536111381
 10
129.6212641442
 20
108.0852123131
 10
129.7935174343
 20
108.2048622719
 10
129.9634788047
 20
108.3086956978
 10
130.1383456393
 20
108.3989322924
 10
130.3212845825
 20
108.4725557761
 10
130.3470629282
 20
108.4803605624
  0
LWPOLYLINE
  5
3A4
100
AcDbEntity
  8
RUNDUNGEN
100
AcDbPolyline
 62
7
  6
CONTINUOUS
 90
6
 70
0
 10
128.9319561542
 20
107.4804967009
 10
129.0689948641
 20
107.6156076807
 10
129.2073376121
 20
107.7447562754
 10
129.3472757727
 20
107.8677649896
 10
129.4890556081
 20
107.9842641912
 10
129.6317784285
 20
108.0929101
  0
LWPOLYLINE
  5
3A5
100
AcDbEntity
  8
RUNDUNGEN
100
AcDbPolyline
 62
7
  6
CONTINUOUS
 90
6
 70
0
 10
129.7732597963
 20
108.1915220671
 10
129.9160739609
 20
108.2812333755
 10
130.0592784213
 20
108.3603690148
 10
130.2061856144
 20
108.4289204767
 10
130.3578972192
 20
108.4843166064
 10
130.4029056444
 20
108.4972742337
  0
LINE
  5
3A6
100
AcDbEntity
  8
RUNDUNGEN
100
AcDbLine
 62
7
  6
CONTINUOUS
 10
186.2573734093
 20
135.9807462884
 11
186.2573734093
 21
134.4807581641
  0
LINE
  5
3A7
100
AcDbEntity
  8
0
100
AcDbLine
 62
7
  6
CONTINUOUS
 10
197.0253226018
 20
136.7486954809
 11
197.8291701791
 21
137.212797096
  0
LINE
  5
3A8
100
AcDbEntity
  8
RUNDUNGEN
100
AcDbLine
 62
7
  6
CONTINUOUS
 10
121.6012432617
 20
103.3182963747
 11
126.531449862
 21
105.1673904389
  0
LINE
  5
3A9
100
AcDbEntity
  8
RUNDUNGEN
100
AcDbLine
 62
7
  6
CONTINUOUS
 10
121.441561067
 20
103.2617874888
 11
121.6012409931
 21
103.3182992595
  0
LINE
  5
3AA
100
AcDbEntity
  8
RUNDUNGEN
100
AcDbLine
 62
7
  6
CONTINUOUS
 10
121.0950158668
 20
103.1597072249
 11
121.4580501358
 21
103.2673397012
  0
LINE
  5
3AB
100
AcDbEntity
  8
BEZUGSACHSEN
100
AcDbLine
 62
7
  6
CONTINUOUS
 10
93.2573734093
 20
101.4807462884
 11
90.2573734093
 21
101.4807462884
  0
LINE
  5
3AC
100
AcDbEntity
  8
RUNDUNGEN
100
AcDbLine
 62
7
  6
CONTINUOUS
 10
93.2573734093
 20
101.4807462884
 11
90.2573734093
 21
101.4807462884
  0
LINE
  5
3AD
100
AcDbEntity
  8
0
100
AcDbLine
 62
7
  6
CONTINUOUS
 10
111.7573734093
 20
101.4807462884
 11
116.7573734093
 21
101.4807462884
  0
LINE
  5
3AE
100
AcDbEntity
  8
RUNDUNGEN
100
AcDbLine
 62
7
  6
CONTINUOUS
 10
198.5547783501
 20
107.0275331033
 11
198.9220583858
 21
106.9072797358
  0
LINE
  5
3AF
100
AcDbEntity
  8
RUNDUNGEN
100
AcDbLine
 62
7
  6
CONTINUOUS
 10
198.9110844295
 20
106.9111820577
 11
199.1759842578
 21
106.8104022513
  0
LWPOLYLINE
  5
3B0
100
AcDbEntity
  8
RUNDUNGEN
100
AcDbPolyline
 62
7
  6
CONTINUOUS
 90
27
 70
0
 10
196.4221538319
 20
108.5604431369
 10
196.4298945076
 20
108.5550768067
 10
196.4378670093
 20
108.5494611495
 10
196.4459689236
 20
108.5436636456
 10
196.4541378989
 20
108.5377269384
 10
196.462349615
 20
108.5316681021
 10
196.4705528266
 20
108.5255255583
 10
196.4787607102
 20
108.5192907972
 10
196.4869708215
 20
108.5129668129
 10
196.4951818451
 20
108.5065557155
 10
196.5033924854
 20
108.5000595627
 10
196.5116020254
 20
108.4934799153
 10
196.5198098553
 20
108.4868181995
 10
196.5280159527
 20
108.480075311
 10
196.5362203513
 20
108.4732520358
 10
196.5444236889
 20
108.4663485898
 10
196.5526266106
 20
108.4593651053
 10
196.5608303784
 20
108.4523011072
 10
196.5690362683
 20
108.445156017
 10
196.5772459907
 20
108.437928785
 10
196.5854614495
 20
108.4306181152
 10
196.5936853731
 20
108.4232218826
 10
196.6019203237
 20
108.4157379793
 10
196.6101696285
 20
108.4081634652
 10
196.6184364856
 20
108.4004953691
 10
196.6267244485
 20
108.3927302407
 10
196.6350399127
 20
108.3848617718
  0
LINE
  5
3B1
100
AcDbEntity
  8
RUNDUNGEN
100
AcDbLine
 62
7
  6
CONTINUOUS
 10
196.6350399127
 20
108.3848617718
 11
196.6798169958
 21
108.3419159765
  0
LINE
  5
3B2
100
AcDbEntity
  8
RUNDUNGEN
100
AcDbLine
 62
7
  6
CONTINUOUS
 10
196.6696756506
 20
108.3516503469
 11
196.850209717
 21
108.1768566757
  0
LINE
  5
3B3
100
AcDbEntity
  8
RUNDUNGEN
100
AcDbLine
 62
7
  6
CONTINUOUS
 10
196.8443640097
 20
108.1825194079
 11
197.0214512083
 21
108.0085768837
  0
LINE
  5
3B4
100
AcDbEntity
  8
RUNDUNGEN
100
AcDbLine
 62
7
  6
CONTINUOUS
 10
197.0156391221
 20
108.0142884473
 11
197.1935057279
 21
107.8371762325
  0
LINE
  5
3B5
100
AcDbEntity
  8
RUNDUNGEN
100
AcDbLine
 62
7
  6
CONTINUOUS
 10
197.1877385879
 20
107.8429214554
 11
197.4022597568
 21
107.6262196044
  0
LINE
  5
3B6
100
AcDbEntity
  8
RUNDUNGEN
100
AcDbLine
 62
7
  6
CONTINUOUS
 10
228.985218563
 20
107.0351615589
 11
229.1928516555
 21
107.0930129021
  0
LINE
  5
3B7
100
AcDbEntity
  8
RUNDUNGEN
100
AcDbLine
 62
7
  6
CONTINUOUS
 10
229.1925904097
 20
107.0929542018
 11
229.1928869325
 21
107.0930321615
  0
LWPOLYLINE
  5
3B8
100
AcDbEntity
  8
RUNDUNGEN
100
AcDbPolyline
 62
7
  6
CONTINUOUS
 90
3
 70
0
 10
231.269092526
 20
108.6530651315
 10
231.2950570843
 20
108.6595552437
 10
231.3312589142
 20
108.6660830873
  0
LWPOLYLINE
  5
3B9
100
AcDbEntity
  8
RUNDUNGEN
100
AcDbPolyline
 62
7
  6
CONTINUOUS
 90
4
 70
0
 10
231.2871246331
 20
108.6576543679
 10
231.379183754
 20
108.6752357237
 10
231.4662413059
 20
108.682452394
 10
231.4894242184
 20
108.6827868184
  0
LINE
  5
3BA
100
AcDbEntity
  8
RUNDUNGEN
100
AcDbLine
 62
7
  6
CONTINUOUS
 10
231.4227966191
 20
108.6788510295
 11
231.4780658124
 21
108.6826229681
  0
LINE
  5
3BB
100
AcDbEntity
  8
RUNDUNGEN
100
AcDbLine
 62
7
  6
CONTINUOUS
 10
120.0256587433
 20
103.008808816
 11
120.4026127969
 21
103.0347718162
  0
LINE
  5
3BC
100
AcDbEntity
  8
RUNDUNGEN
100
AcDbLine
 62
7
  6
CONTINUOUS
 10
131.4015257383
 20
108.6697732038
 11
131.4106251394
 21
108.6701760357
  0
LINE
  5
3BD
100
AcDbEntity
  8
BEZUGSACHSEN
100
AcDbLine
 62
7
  6
CONTINUOUS
 10
388.6118835351
 20
111.4877310782
 11
388.2573734093
 21
111.4807462884
  0
LINE
  5
3BE
100
AcDbEntity
  8
RUNDUNGEN
100
AcDbLine
 62
7
  6
CONTINUOUS
 10
119.8757385057
 20
103.006527125
 11
120.0430880949
 21
103.0093699805
  0
LINE
  5
3BF
100
AcDbEntity
  8
RUNDUNGEN
100
AcDbLine
 62
7
  6
CONTINUOUS
 10
116.7573734093
 20
103.0065235349
 11
119.8757385046
 21
103.0065235349
  0
LINE
  5
3C0
100
AcDbEntity
  8
RUNDUNGEN
100
AcDbLine
 62
7
  6
CONTINUOUS
 10
315.2748975565
 20
104.4807462884
 11
302.7573734093
 21
104.4807462884
  0
LINE
  5
3C1
100
AcDbEntity
  8
RUNDUNGEN
100
AcDbLine
 62
7
  6
CONTINUOUS
 10
196.0253226018
 20
108.6827873173
 11
131.757373836
 21
108.6827873173
  0
LINE
  5
3C2
100
AcDbEntity
  8
RUNDUNGEN
100
AcDbLine
 62
7
  6
CONTINUOUS
 10
231.4894242169
 20
108.6827873173
 11
295.757368603
 21
108.6827873173
  0
LINE
  5
3C3
100
AcDbEntity
  8
BEZUGSACHSEN
100
AcDbLine
 62
7
  6
CONTINUOUS
 10
388.2573734093
 20
111.4807462884
 11
368.7573734093
 21
111.4807462884
  0
LINE
  5
3C4
100
AcDbEntity
  8
BEZUGSACHSEN
100
AcDbLine
 62
7
  6
CONTINUOUS
 10
49.2573734093
 20
111.4807462884
 11
68.7573734093
 21
111.4807462884
  0
LINE
  5
3C5
100
AcDbEntity
  8
0
100
AcDbLine
 62
7
  6
CONTINUOUS
 10
366.7573734093
 20
113.4807462884
 11
317.7573734093
 21
113.4807462884
  0
LINE
  5
3C6
100
AcDbEntity
  8
0
100
AcDbLine
 62
7
  6
CONTINUOUS
 10
70.7573734093
 20
113.4807462884
 11
88.7573734093
 21
113.4807462884
  0
LINE
  5
3C7
100
AcDbEntity
  8
0
100
AcDbLine
 62
7
  6
CONTINUOUS
 10
93.7573734093
 20
113.4807462884
 11
110.7573734093
 21
113.4807462884
  0
LWPOLYLINE
  5
3C8
100
AcDbEntity
  8
RUNDUNGEN
100
AcDbPolyline
 62
7
  6
CONTINUOUS
 90
8
 70
0
 10
295.7573734088
 20
108.6827972721
 10
295.8547013782
 20
108.6818279488
 10
296.1487959671
 20
108.6670452171
 10
296.4510802281
 20
108.6335232344
 10
296.7576923913
 20
108.5808350495
 10
297.0647677319
 20
108.5097484002
 10
297.3714000657
 20
108.4211101448
 10
297.6619499207
 20
108.3209789069
  0
LWPOLYLINE
  5
3C9
100
AcDbEntity
  8
RUNDUNGEN
100
AcDbPolyline
 62
7
  6
CONTINUOUS
 90
5
 70
0
 10
196.0253226044
 20
108.6827926677
 10
196.0461261707
 20
108.6825273734
 10
196.133169761
 20
108.6755577835
 10
196.2257305602
 20
108.6581123426
 10
196.2456615752
 20
108.6530617017
  0
LWPOLYLINE
  5
3CA
100
AcDbEntity
  8
RUNDUNGEN
100
AcDbPolyline
 62
7
  6
CONTINUOUS
 90
26
 70
0
 10
295.7573685968
 20
108.6828014066
 10
295.9074622769
 20
108.6804799335
 10
296.2351128038
 20
108.6593652563
 10
296.5852957088
 20
108.6127451747
 10
296.9446756482
 20
108.5396913675
 10
297.3011120802
 20
108.4429623276
 10
297.6497870741
 20
108.3257941278
 10
297.983879612
 20
108.1935282673
 10
298.2999527381
 20
108.050886107
 10
298.5939168158
 20
107.9033906036
 10
298.8668162359
 20
107.7538162909
 10
299.118621957
 20
107.6049714027
 10
299.3511040685
 20
107.4581977222
 10
299.565739908
 20
107.3144452533
 10
299.76337734
 20
107.1747004158
 10
299.9450571448
 20
107.0395414924
 10
300.1112704655
 20
106.9097142712
 10
300.2626658146
 20
106.7856759154
 10
300.3992463174
 20
106.6682844671
 10
300.5214254506
 20
106.5579758466
 10
300.628083682
 20
106.4565879566
 10
300.7189610075
 20
106.36531806
 10
300.792821241
 20
106.2865533488
 10
300.8492850677
 20
106.2222139035
 10
300.8880997565
 20
106.1745919643
 10
300.9020432914
 20
106.1563187133
  0
LINE
  5
3CB
100
AcDbEntity
  8
BEZUGSACHSEN
100
AcDbLine
 62
7
  6
CONTINUOUS
 10
48.9028632836
 20
111.4877310782
 11
49.2573734094
 21
111.4807462884
  0
LINE
  5
3CC
100
AcDbEntity
  8
RUNDUNGEN
100
AcDbLine
 62
7
  6
CONTINUOUS
 10
196.0253290762
 20
108.6827928494
 11
196.1189326642
 21
108.6773370929
  0
LINE
  5
3CD
100
AcDbEntity
  8
RUNDUNGEN
100
AcDbLine
 62
7
  6
CONTINUOUS
 10
196.1189326642
 20
108.6773370929
 11
196.1714993195
 21
108.6683336016
  0
LINE
  5
3CE
100
AcDbEntity
  8
RUNDUNGEN
100
AcDbLine
 62
7
  6
CONTINUOUS
 10
198.3217874854
 20
107.0930512885
 11
198.3221620051
 21
107.0929527364
  0
LINE
  5
3CF
100
AcDbEntity
  8
RUNDUNGEN
100
AcDbLine
 62
7
  6
CONTINUOUS
 10
198.321820728
 20
107.0930277392
 11
198.56200774
 21
107.0255006038
  0
LWPOLYLINE
  5
3D0
100
AcDbEntity
  8
RUNDUNGEN
100
AcDbPolyline
 62
7
  6
CONTINUOUS
 90
23
 70
0
 10
196.2456497263
 20
108.6530726245
 10
196.253227889
 20
108.650874448
 10
196.2610746649
 20
108.6482821372
 10
196.2686646875
 20
108.6455304658
 10
196.276526319
 20
108.6424632242
 10
196.2844358308
 20
108.6391787308
 10
196.2927569627
 20
108.6355278569
 10
196.3012492768
 20
108.6316121815
 10
196.3098492083
 20
108.6274680692
 10
196.3184718742
 20
108.6231454552
 10
196.3270520515
 20
108.6186876683
 10
196.3355475705
 20
108.6141278932
 10
196.3439228151
 20
108.6094966281
 10
196.3521620024
 20
108.6048136713
 10
196.3602540973
 20
108.600095697
 10
196.3682050972
 20
108.5953486773
 10
196.3760239227
 20
108.5905756168
 10
196.383735245
 20
108.5857688945
 10
196.3913645419
 20
108.580919079
 10
196.3989545313
 20
108.5760037189
 10
196.4065472333
 20
108.570998429
 10
196.4141986113
 20
108.5658672108
 10
196.421985016
 20
108.5605573566
  0
LINE
  5
3D1
100
AcDbEntity
  8
0
100
AcDbLine
 62
7
  6
CONTINUOUS
 10
121.5858392224
 20
139.1792093924
 11
128.1713398546
 21
136.7822831845
  0
LINE
  5
3D2
100
AcDbEntity
  8
RUNDUNGEN
100
AcDbLine
 62
7
  6
CONTINUOUS
 10
230.1124869713
 20
107.626219516
 11
230.3259941633
 21
107.8419049865
  0
LINE
  5
3D3
100
AcDbEntity
  8
RUNDUNGEN
100
AcDbLine
 62
7
  6
CONTINUOUS
 10
230.3202456913
 20
107.8361780852
 11
230.4988453042
 21
108.0140286976
  0
LINE
  5
3D4
100
AcDbEntity
  8
RUNDUNGEN
100
AcDbLine
 62
7
  6
CONTINUOUS
 10
230.4930298579
 20
108.008313893
 11
230.6709387424
 21
108.1830614983
  0
LINE
  5
3D5
100
AcDbEntity
  8
RUNDUNGEN
100
AcDbLine
 62
7
  6
CONTINUOUS
 10
230.6650695841
 20
108.177376311
 11
230.845643303
 21
108.3522001658
  0
LWPOLYLINE
  5
3D6
100
AcDbEntity
  8
RUNDUNGEN
100
AcDbPolyline
 62
7
  6
CONTINUOUS
 90
21
 70
0
 10
230.8354584936
 20
108.3424243138
 10
230.8792235537
 20
108.3844014587
 10
230.887688535
 20
108.3924149507
 10
230.8961265906
 20
108.400322883
 10
230.9045400628
 20
108.4081278083
 10
230.9129272799
 20
108.4158285023
 10
230.921293747
 20
108.4234302682
 10
230.9296432344
 20
108.4309366222
 10
230.9379785902
 20
108.4383500923
 10
230.9463029099
 20
108.4456732818
 10
230.9546184088
 20
108.4529078786
 10
230.9629274972
 20
108.4600556129
 10
230.9712317423
 20
108.4671173657
 10
230.9795328556
 20
108.4740940299
 10
230.9878317381
 20
108.4809857099
 10
230.9961293854
 20
108.4877924946
 10
231.0044260099
 20
108.4945137398
 10
231.0127219037
 20
108.5011487871
 10
231.0210164656
 20
108.5076961908
 10
231.0293092589
 20
108.514154575
 10
231.0375984454
 20
108.5205214738
  0
LWPOLYLINE
  5
3D7
100
AcDbEntity
  8
RUNDUNGEN
100
AcDbPolyline
 62
7
  6
CONTINUOUS
 90
3
 70
0
 10
231.0379276229
 20
108.5207724697
 10
231.0461592849
 20
108.5270042946
 10
231.0543805209
 20
108.5331391925
  0
LINE
  5
3D8
100
AcDbEntity
  8
RUNDUNGEN
100
AcDbLine
 62
7
  6
CONTINUOUS
 10
231.0541554269
 20
108.5329694863
 11
231.0624197154
 21
108.5390463977
  0
LINE
  5
3D9
100
AcDbEntity
  8
RUNDUNGEN
100
AcDbLine
 62
7
  6
CONTINUOUS
 10
231.0625980723
 20
108.5391811351
 11
231.0707797424
 21
108.5451056987
  0
LINE
  5
3DA
100
AcDbEntity
  8
RUNDUNGEN
100
AcDbLine
 62
7
  6
CONTINUOUS
 10
231.0706642769
 20
108.5450167174
 11
231.0788931787
 21
108.5508826626
  0
LWPOLYLINE
  5
3DB
100
AcDbEntity
  8
RUNDUNGEN
100
AcDbPolyline
 62
7
  6
CONTINUOUS
 90
25
 70
0
 10
231.0788996729
 20
108.5508942679
 10
231.0869486463
 20
108.5565408719
 10
231.0948901785
 20
108.5620213344
 10
231.1027805713
 20
108.5673757632
 10
231.110650994
 20
108.5726249763
 10
231.1185256015
 20
108.5777836286
 10
231.1264284829
 20
108.5828649723
 10
231.1343738409
 20
108.5878746261
 10
231.1423758897
 20
108.5928171282
 10
231.150438209
 20
108.5976894384
 10
231.1585642169
 20
108.6024876221
 10
231.1667442057
 20
108.6071993291
 10
231.1749675076
 20
108.6118117523
 10
231.1832121149
 20
108.6163067366
 10
231.1914534248
 20
108.6206654555
 10
231.1996558743
 20
108.6248641937
 10
231.2077752271
 20
108.6288763167
 10
231.2157755125
 20
108.6326808755
 10
231.223521077
 20
108.6362135311
 10
231.2312117406
 20
108.639561814
 10
231.2388977605
 20
108.6427353385
 10
231.2465369676
 20
108.6457016253
 10
231.253636937
 20
108.6482704418
 10
231.2610930547
 20
108.65074207
 10
231.2690907876
 20
108.6530717587
  0
LINE
  5
3DC
100
AcDbEntity
  8
RUNDUNGEN
100
AcDbLine
 62
7
  6
CONTINUOUS
 10
228.3406059807
 20
106.812382224
 11
228.3484563772
 21
106.8156497694
  0
LINE
  5
3DD
100
AcDbEntity
  8
RUNDUNGEN
100
AcDbLine
 62
7
  6
CONTINUOUS
 10
228.3407916064
 20
106.8125816
 11
228.6626024174
 21
106.931819939
  0
LINE
  5
3DE
100
AcDbEntity
  8
RUNDUNGEN
100
AcDbLine
 62
7
  6
CONTINUOUS
 10
228.6520048232
 20
106.928149323
 11
228.9924695044
 21
107.0371818375
  0
LINE
  5
3DF
100
AcDbEntity
  8
RUNDUNGEN
100
AcDbLine
 62
7
  6
CONTINUOUS
 10
120.7423060371
 20
103.083308355
 11
121.1119135153
 21
103.1640513419
  0
LINE
  5
3E0
100
AcDbEntity
  8
RUNDUNGEN
100
AcDbLine
 62
7
  6
CONTINUOUS
 10
130.808369263
 20
108.5909339349
 11
130.8170502111
 21
108.5923429685
  0
LINE
  5
3E1
100
AcDbEntity
  8
RUNDUNGEN
100
AcDbLine
 62
7
  6
CONTINUOUS
 10
120.3852428014
 20
103.032934988
 11
120.7594975771
 21
103.0864099685
  0
LINE
  5
3E2
100
AcDbEntity
  8
0
100
AcDbLine
 62
7
  6
CONTINUOUS
 10
69.9568898614
 20
122.9807462884
 11
88.7573734093
 21
122.9807462884
  0
LINE
  5
3E3
100
AcDbEntity
  8
0
100
AcDbLine
 62
7
  6
CONTINUOUS
 10
93.7573734093
 20
122.9807462884
 11
110.7573734093
 21
122.9807462884
  0
LINE
  5
3E4
100
AcDbEntity
  8
RUNDUNGEN
100
AcDbLine
 62
7
  6
CONTINUOUS
 10
130.4029056444
 20
108.4972742337
 11
130.4018535577
 21
108.4969875498
  0
LINE
  5
3E5
100
AcDbEntity
  8
RUNDUNGEN
100
AcDbLine
 62
7
  6
CONTINUOUS
 10
130.4019080875
 20
108.4970191638
 11
130.5211526464
 21
108.5278422285
  0
LWPOLYLINE
  5
3E6
100
AcDbEntity
  8
RUNDUNGEN
100
AcDbPolyline
 62
7
  6
CONTINUOUS
 90
6
 70
0
 10
130.5037874503
 20
108.5235112679
 10
130.8259640299
 20
108.5942860325
 10
131.126704576
 20
108.6420223194
 10
131.4194521014
 20
108.671051322
 10
131.7006829649
 20
108.6824602121
 10
131.7573738366
 20
108.6827906894
  0
LINE
  5
3E7
100
AcDbEntity
  8
0
100
AcDbLine
 62
7
  6
CONTINUOUS
 10
75.7573734093
 20
127.0190947038
 11
88.7573734093
 21
127.0190947038
  0
LINE
  5
3E8
100
AcDbEntity
  8
0
100
AcDbLine
 62
7
  6
CONTINUOUS
 10
93.7573734093
 20
127.0190947038
 11
110.7573734093
 21
127.0190947038
  0
LINE
  5
3E9
100
AcDbEntity
  8
0
100
AcDbLine
 62
7
  6
CONTINUOUS
 10
366.7573734093
 20
127.4807462884
 11
317.7573734093
 21
127.4807462884
  0
LINE
  5
3EA
100
AcDbEntity
  8
0
100
AcDbLine
 62
7
  6
CONTINUOUS
 10
70.7573734093
 20
127.4807462884
 11
88.7573734093
 21
127.4807462884
  0
LINE
  5
3EB
100
AcDbEntity
  8
0
100
AcDbLine
 62
7
  6
CONTINUOUS
 10
93.7573734093
 20
127.4807462884
 11
110.7573734093
 21
127.4807462884
  0
LINE
  5
3EC
100
AcDbEntity
  8
BEZUGSACHSEN
100
AcDbLine
 62
7
  6
CONTINUOUS
 10
388.2573734093
 20
129.4807462884
 11
368.7573734093
 21
129.4807462884
  0
LINE
  5
3ED
100
AcDbEntity
  8
RUNDUNGEN
100
AcDbLine
 62
7
  6
CONTINUOUS
 10
49.2573734093
 20
129.4807462884
 11
68.7573734093
 21
129.4807462884
  0
LINE
  5
3EE
100
AcDbEntity
  8
RUNDUNGEN
100
AcDbLine
 62
7
  6
CONTINUOUS
 10
290.2573734093
 20
133.4807462884
 11
250.2573734093
 21
133.4807462884
  0
LINE
  5
3EF
100
AcDbEntity
  8
RUNDUNGEN
100
AcDbLine
 62
7
  6
CONTINUOUS
 10
185.2573734093
 20
133.4807462884
 11
137.2573734093
 21
133.4807462884
  0
LINE
  5
3F0
100
AcDbEntity
  8
0
100
AcDbLine
 62
7
  6
CONTINUOUS
 10
148.4573734093
 20
134.4807462884
 11
154.0573734093
 21
134.4807462884
  0
LINE
  5
3F1
100
AcDbEntity
  8
0
100
AcDbLine
 62
7
  6
CONTINUOUS
 10
251.7573734093
 20
134.4807462884
 11
256.6323734093
 21
134.4807462884
  0
LINE
  5
3F2
100
AcDbEntity
  8
0
100
AcDbLine
 62
7
  6
CONTINUOUS
 10
257.6323735285
 20
134.4807462884
 11
262.1323731709
 21
134.4807462884
  0
LINE
  5
3F3
100
AcDbEntity
  8
0
100
AcDbLine
 62
7
  6
CONTINUOUS
 10
263.1323736478
 20
134.4807462884
 11
267.8823734093
 21
134.4807462884
  0
LINE
  5
3F4
100
AcDbEntity
  8
0
100
AcDbLine
 62
7
  6
CONTINUOUS
 10
268.8823738862
 20
134.4807462884
 11
273.6323729325
 21
134.4807462884
  0
LINE
  5
3F5
100
AcDbEntity
  8
0
100
AcDbLine
 62
7
  6
CONTINUOUS
 10
274.6323734093
 20
134.4807462884
 11
279.1323734093
 21
134.4807462884
  0
LINE
  5
3F6
100
AcDbEntity
  8
RUNDUNGEN
100
AcDbLine
 62
7
  6
CONTINUOUS
 10
315.2748975565
 20
136.4807462884
 11
298.514941151
 21
136.4807462884
  0
LINE
  5
3F7
100
AcDbEntity
  8
0
100
AcDbLine
 62
7
  6
CONTINUOUS
 10
129.8814405712
 20
136.4807462884
 11
135.7573734093
 21
136.4807462884
  0
LINE
  5
3F8
100
AcDbEntity
  8
0
100
AcDbLine
 62
7
  6
CONTINUOUS
 10
186.7573734093
 20
136.4807462884
 11
196.0253226018
 21
136.4807462884
  0
LINE
  5
3F9
100
AcDbEntity
  8
0
100
AcDbLine
 62
7
  6
CONTINUOUS
 10
231.4894242169
 20
136.4807462884
 11
248.7573734093
 21
136.4807462884
  0
LINE
  5
3FA
100
AcDbEntity
  8
0
100
AcDbLine
 62
7
  6
CONTINUOUS
 10
291.7573734093
 20
136.4807462884
 11
315.2748975565
 21
136.4807462884
  0
LINE
  5
3FB
100
AcDbEntity
  8
0
100
AcDbLine
 62
7
  6
CONTINUOUS
 10
228.6855766396
 20
137.4807462884
 11
224.2753620857
 21
137.4807462884
  0
LINE
  5
3FC
100
AcDbEntity
  8
0
100
AcDbLine
 62
7
  6
CONTINUOUS
 10
203.239384733
 20
137.4807462884
 11
198.8291701791
 21
137.4807462884
  0
LINE
  5
3FD
100
AcDbEntity
  8
BEZUGSACHSEN
100
AcDbLine
 62
7
  6
CONTINUOUS
 10
388.6118835351
 20
129.4737614986
 11
388.2573734093
 21
129.4807462884
  0
LINE
  5
3FE
100
AcDbEntity
  8
RUNDUNGEN
100
AcDbLine
 62
7
  6
CONTINUOUS
 10
249.2573734093
 20
134.4807462884
 11
249.2573734093
 21
135.9807462883
  0
LINE
  5
3FF
100
AcDbEntity
  8
0
100
AcDbLine
 62
7
  6
CONTINUOUS
 10
251.7573734093
 20
133.4807462884
 11
251.7573734093
 21
134.4807462884
  0
LINE
  5
400
100
AcDbEntity
  8
0
100
AcDbLine
 62
7
  6
CONTINUOUS
 10
251.8823734131
 20
133.4807462884
 11
251.8823734131
 21
134.4807462884
  0
LINE
  5
401
100
AcDbEntity
  8
0
100
AcDbLine
 62
7
  6
CONTINUOUS
 10
252.1323734093
 20
133.4807462884
 11
252.1323734093
 21
134.4807462884
  0
LINE
  5
402
100
AcDbEntity
  8
0
100
AcDbLine
 62
7
  6
CONTINUOUS
 10
252.6323733795
 20
133.4807462884
 11
252.6323733795
 21
134.4807462884
  0
LINE
  5
403
100
AcDbEntity
  8
0
100
AcDbLine
 62
7
  6
CONTINUOUS
 10
253.1323734391
 20
133.4807462884
 11
253.1323734391
 21
134.4807462884
  0
LINE
  5
404
100
AcDbEntity
  8
0
100
AcDbLine
 62
7
  6
CONTINUOUS
 10
253.7573734689
 20
133.4807462884
 11
253.7573734689
 21
134.4807462884
  0
LINE
  5
405
100
AcDbEntity
  8
0
100
AcDbLine
 62
7
  6
CONTINUOUS
 10
254.8823732901
 20
133.4807462884
 11
254.8823732901
 21
134.4807462884
  0
LINE
  5
406
100
AcDbEntity
  8
0
100
AcDbLine
 62
7
  6
CONTINUOUS
 10
255.5073734093
 20
133.4807462884
 11
255.5073734093
 21
134.4807462884
  0
LINE
  5
407
100
AcDbEntity
  8
0
100
AcDbLine
 62
7
  6
CONTINUOUS
 10
256.0073732901
 20
133.4807462884
 11
256.0073732901
 21
134.4807462884
  0
LINE
  5
408
100
AcDbEntity
  8
0
100
AcDbLine
 62
7
  6
CONTINUOUS
 10
256.5073735285
 20
133.4807462884
 11
256.5073735285
 21
134.4807462884
  0
LINE
  5
409
100
AcDbEntity
  8
BEZUGSACHSEN
100
AcDbLine
 62
7
  6
CONTINUOUS
 10
93.2573734093
 20
139.4807462884
 11
90.2573734093
 21
139.4807462884
  0
LINE
  5
40A
100
AcDbEntity
  8
RUNDUNGEN
100
AcDbLine
 62
7
  6
CONTINUOUS
 10
93.2573734093
 20
139.4807462884
 11
90.2573734093
 21
139.4807462884
  0
LINE
  5
40B
100
AcDbEntity
  8
0
100
AcDbLine
 62
7
  6
CONTINUOUS
 10
111.7573734093
 20
139.4807462884
 11
119.8757385058
 21
139.4807462884
  0
LINE
  5
40C
100
AcDbEntity
  8
RUNDUNGEN
100
AcDbLine
 62
7
  6
CONTINUOUS
 10
297.7865782569
 20
108.2739715002
 11
297.9506881716
 21
108.2066686219
  0
LINE
  5
40D
100
AcDbEntity
  8
0
100
AcDbLine
 62
7
  6
CONTINUOUS
 10
229.6855766396
 20
137.212797096
 11
230.4894242169
 21
136.7486954809
  0
LINE
  5
40E
100
AcDbEntity
  8
0
100
AcDbLine
 62
7
  6
CONTINUOUS
 10
256.6323734093
 20
133.4807462884
 11
256.6323734093
 21
134.4807462884
  0
LINE
  5
40F
100
AcDbEntity
  8
0
100
AcDbLine
 62
7
  6
CONTINUOUS
 10
257.6323735285
 20
133.4807462884
 11
257.6323735285
 21
134.4807462884
  0
LINE
  5
410
100
AcDbEntity
  8
0
100
AcDbLine
 62
7
  6
CONTINUOUS
 10
257.7573734093
 20
133.4807462884
 11
257.7573734093
 21
134.4807462884
  0
LINE
  5
411
100
AcDbEntity
  8
0
100
AcDbLine
 62
7
  6
CONTINUOUS
 10
258.0073731709
 20
133.4807462884
 11
258.0073731709
 21
134.4807462884
  0
LINE
  5
412
100
AcDbEntity
  8
0
100
AcDbLine
 62
7
  6
CONTINUOUS
 10
258.5073734093
 20
133.4807462884
 11
258.5073734093
 21
134.4807462884
  0
LINE
  5
413
100
AcDbEntity
  8
0
100
AcDbLine
 62
7
  6
CONTINUOUS
 10
259.0073736478
 20
133.4807462884
 11
259.0073736478
 21
134.4807462884
  0
LINE
  5
414
100
AcDbEntity
  8
0
100
AcDbLine
 62
7
  6
CONTINUOUS
 10
259.6323734093
 20
133.4807462884
 11
259.6323734093
 21
134.4807462884
  0
LINE
  5
415
100
AcDbEntity
  8
0
100
AcDbLine
 62
7
  6
CONTINUOUS
 10
260.1323736478
 20
133.4807462884
 11
260.1323736478
 21
134.4807462884
  0
LINE
  5
416
100
AcDbEntity
  8
0
100
AcDbLine
 62
7
  6
CONTINUOUS
 10
260.7573734093
 20
133.4807462884
 11
260.7573734093
 21
134.4807462884
  0
LINE
  5
417
100
AcDbEntity
  8
0
100
AcDbLine
 62
7
  6
CONTINUOUS
 10
261.2573736478
 20
133.4807462884
 11
261.2573736478
 21
134.4807462884
  0
LINE
  5
418
100
AcDbEntity
  8
0
100
AcDbLine
 62
7
  6
CONTINUOUS
 10
261.7573731709
 20
133.4807462884
 11
261.7573731709
 21
134.4807462884
  0
LINE
  5
419
100
AcDbEntity
  8
0
100
AcDbLine
 62
7
  6
CONTINUOUS
 10
262.0073736478
 20
133.4807462884
 11
262.0073736478
 21
134.4807462884
  0
LINE
  5
41A
100
AcDbEntity
  8
0
100
AcDbLine
 62
7
  6
CONTINUOUS
 10
262.1323731709
 20
133.4807462884
 11
262.1323731709
 21
134.4807462884
  0
LINE
  5
41B
100
AcDbEntity
  8
0
100
AcDbLine
 62
7
  6
CONTINUOUS
 10
263.1323736478
 20
133.4807462884
 11
263.1323736478
 21
134.4807462884
  0
LINE
  5
41C
100
AcDbEntity
  8
0
100
AcDbLine
 62
7
  6
CONTINUOUS
 10
263.8823729325
 20
133.4807462884
 11
263.8823729325
 21
134.4807462884
  0
LINE
  5
41D
100
AcDbEntity
  8
0
100
AcDbLine
 62
7
  6
CONTINUOUS
 10
266.0073734093
 20
133.4807462884
 11
266.0073734093
 21
134.4807462884
  0
LINE
  5
41E
100
AcDbEntity
  8
0
100
AcDbLine
 62
7
  6
CONTINUOUS
 10
267.0073738862
 20
133.4807462884
 11
267.0073738862
 21
134.4807462884
  0
LINE
  5
41F
100
AcDbEntity
  8
0
100
AcDbLine
 62
7
  6
CONTINUOUS
 10
267.8823734093
 20
133.4807462884
 11
267.8823734093
 21
134.4807462884
  0
LINE
  5
420
100
AcDbEntity
  8
0
100
AcDbLine
 62
7
  6
CONTINUOUS
 10
268.8823738862
 20
133.4807462884
 11
268.8823738862
 21
134.4807462884
  0
LINE
  5
421
100
AcDbEntity
  8
0
100
AcDbLine
 62
7
  6
CONTINUOUS
 10
270.8823734093
 20
133.4807462884
 11
270.8823734093
 21
134.4807462884
  0
LINE
  5
422
100
AcDbEntity
  8
0
100
AcDbLine
 62
7
  6
CONTINUOUS
 10
271.6323734093
 20
133.4807462884
 11
271.6323734093
 21
134.4807462884
  0
LINE
  5
423
100
AcDbEntity
  8
0
100
AcDbLine
 62
7
  6
CONTINUOUS
 10
273.6323729325
 20
133.4807462884
 11
273.6323729325
 21
134.4807462884
  0
LINE
  5
424
100
AcDbEntity
  8
0
100
AcDbLine
 62
7
  6
CONTINUOUS
 10
274.6323734093
 20
133.4807462884
 11
274.6323734093
 21
134.4807462884
  0
LINE
  5
425
100
AcDbEntity
  8
0
100
AcDbLine
 62
7
  6
CONTINUOUS
 10
274.7573729325
 20
133.4807462884
 11
274.7573729325
 21
134.4807462884
  0
LINE
  5
426
100
AcDbEntity
  8
0
100
AcDbLine
 62
7
  6
CONTINUOUS
 10
275.0073734093
 20
133.4807462884
 11
275.0073734093
 21
134.4807462884
  0
LINE
  5
427
100
AcDbEntity
  8
0
100
AcDbLine
 62
7
  6
CONTINUOUS
 10
275.3823734093
 20
133.4807462884
 11
275.3823734093
 21
134.4807462884
  0
LINE
  5
428
100
AcDbEntity
  8
0
100
AcDbLine
 62
7
  6
CONTINUOUS
 10
276.0073724557
 20
133.4807462884
 11
276.0073724557
 21
134.4807462884
  0
LINE
  5
429
100
AcDbEntity
  8
0
100
AcDbLine
 62
7
  6
CONTINUOUS
 10
276.632374363
 20
133.4807462884
 11
276.632374363
 21
134.4807462884
  0
LINE
  5
42A
100
AcDbEntity
  8
0
100
AcDbLine
 62
7
  6
CONTINUOUS
 10
277.2573734093
 20
133.4807462884
 11
277.2573734093
 21
134.4807462884
  0
LINE
  5
42B
100
AcDbEntity
  8
0
100
AcDbLine
 62
7
  6
CONTINUOUS
 10
277.8823724557
 20
133.4807462884
 11
277.8823724557
 21
134.4807462884
  0
LINE
  5
42C
100
AcDbEntity
  8
0
100
AcDbLine
 62
7
  6
CONTINUOUS
 10
278.507374363
 20
133.4807462884
 11
278.507374363
 21
134.4807462884
  0
LINE
  5
42D
100
AcDbEntity
  8
0
100
AcDbLine
 62
7
  6
CONTINUOUS
 10
278.882374363
 20
133.4807462884
 11
278.882374363
 21
134.4807462884
  0
LINE
  5
42E
100
AcDbEntity
  8
0
100
AcDbLine
 62
7
  6
CONTINUOUS
 10
279.1323734093
 20
133.4807462884
 11
279.1323734093
 21
134.4807462884
  0
LINE
  5
42F
100
AcDbEntity
  8
RUNDUNGEN
100
AcDbLine
 62
7
  6
CONTINUOUS
 10
291.2573734093
 20
135.9807462883
 11
291.2573734093
 21
134.4807570656
  0
LINE
  5
430
100
AcDbEntity
  8
0
100
AcDbLine
 62
7
  6
CONTINUOUS
 10
317.2639413472
 20
134.689803215
 11
317.7573734093
 21
129.9951107427
  0
LINE
  5
431
100
AcDbEntity
  8
0
100
AcDbLine
 62
7
  6
CONTINUOUS
 10
317.7573734093
 20
129.9949444448
 11
317.7573734093
 21
110.9665481321
  0
LINE
  5
432
100
AcDbEntity
  8
0
100
AcDbLine
 62
7
  6
CONTINUOUS
 10
317.2639413472
 20
106.2716893619
 11
317.7573734093
 21
110.9663818342
  0
LINE
  5
433
100
AcDbEntity
  8
BEZUGSACHSEN
100
AcDbLine
 62
7
  6
CONTINUOUS
 10
367.7573734093
 20
112.4807462884
 11
367.7573734093
 21
128.4807462884
  0
ARC
  5
434
100
AcDbEntity
  8
0
100
AcDbCircle
 62
7
  6
CONTINUOUS
 10
75.7573734093
 20
305.9002187169
 40
6.0
100
AcDbArc
 50
90.0
 51
165.1829337335
  0
ARC
  5
435
100
AcDbEntity
  8
0
100
AcDbCircle
 62
7
  6
CONTINUOUS
 10
131.7573734093
 20
311.4002187169
 40
5.0
100
AcDbArc
 50
247.4915170683
 51
252.847331705
  0
ARC
  5
436
100
AcDbEntity
  8
0
100
AcDbCircle
 62
7
  6
CONTINUOUS
 10
131.7573734093
 20
311.4002187169
 40
5.0
100
AcDbArc
 50
233.2236924833
 51
247.104124408
  0
ARC
  5
437
100
AcDbEntity
  8
RUNDUNGEN
100
AcDbCircle
 62
7
  6
CONTINUOUS
 10
131.7573734093
 20
311.4002187169
 40
5.0
100
AcDbArc
 50
180.0014337711
 51
270.001842331
  0
ARC
  5
438
100
AcDbEntity
  8
RUNDUNGEN
100
AcDbCircle
 62
7
  6
CONTINUOUS
 10
119.8757385058
 20
300.4002187169
 40
5.0
100
AcDbArc
 50
270.0
 51
290.0
  0
ARC
  5
439
100
AcDbEntity
  8
RUNDUNGEN
100
AcDbCircle
 62
7
  6
CONTINUOUS
 10
196.7573734093
 20
311.4002187169
 40
5.0
100
AcDbArc
 50
270.0
 51
0.0029047464
  0
ARC
  5
43A
100
AcDbEntity
  8
RUNDUNGEN
100
AcDbCircle
 62
7
  6
CONTINUOUS
 10
129.8814405712
 20
293.4002187169
 40
5.0
100
AcDbArc
 50
90.0
 51
110.0
  0
ARC
  5
43B
100
AcDbEntity
  8
BEZUGSACHSEN
100
AcDbCircle
 62
7
  6
CONTINUOUS
 10
46.2573734093
 20
300.8623124405
 40
2.9620937237
100
AcDbArc
 50
224.0
 51
270.0
  0
ARC
  5
43C
100
AcDbEntity
  8
BEZUGSACHSEN
100
AcDbCircle
 62
7
  6
CONTINUOUS
 10
55.7573734093
 20
304.9002187169
 40
2.5
100
AcDbArc
 50
89.9999996386
 51
270.0000005691
  0
ARC
  5
43D
100
AcDbEntity
  8
BEZUGSACHSEN
100
AcDbCircle
 62
7
  6
CONTINUOUS
 10
65.7573734093
 20
304.9002187169
 40
2.5
100
AcDbArc
 50
269.9999996386
 51
90.0000005691
  0
ARC
  5
43E
100
AcDbEntity
  8
BEZUGSACHSEN
100
AcDbCircle
 62
7
  6
CONTINUOUS
 10
67.7573734093
 20
299.9002187169
 40
2.0
100
AcDbArc
 50
270.0
 51
360.0
  0
ARC
  5
43F
100
AcDbEntity
  8
RUNDUNGEN
100
AcDbCircle
 62
7
  6
CONTINUOUS
 10
198.8291701791
 20
299.4002187169
 40
2.0
100
AcDbArc
 50
240.0
 51
270.0
  0
ARC
  5
440
100
AcDbEntity
  8
RUNDUNGEN
100
AcDbCircle
 62
7
  6
CONTINUOUS
 10
196.0253226018
 20
296.4002187169
 40
2.0
100
AcDbArc
 50
60.0
 51
90.0
  0
ARC
  5
441
100
AcDbEntity
  8
RUNDUNGEN
100
AcDbCircle
 62
7
  6
CONTINUOUS
 10
90.2573734093
 20
296.9002187169
 40
1.5
100
AcDbArc
 50
180.0
 51
270.0
  0
ARC
  5
442
100
AcDbEntity
  8
RUNDUNGEN
100
AcDbCircle
 62
7
  6
CONTINUOUS
 10
70.7573734093
 20
306.4002187169
 40
1.0
100
AcDbArc
 50
90.0
 51
180.0
  0
ARC
  5
443
100
AcDbEntity
  8
BEZUGSACHSEN
100
AcDbCircle
 62
7
  6
CONTINUOUS
 10
43.0854034719
 20
309.7002187169
 40
1.0
100
AcDbArc
 50
90.0
 51
168.2086759207
  0
ARC
  5
444
100
AcDbEntity
  8
RUNDUNGEN
100
AcDbCircle
 62
7
  6
CONTINUOUS
 10
111.7573734093
 20
296.4002187169
 40
1.0
100
AcDbArc
 50
180.0
 51
270.0
  0
ARC
  5
445
100
AcDbEntity
  8
BEZUGSACHSEN
100
AcDbCircle
 62
7
  6
CONTINUOUS
 10
41.257377495
 20
303.2154189334
 40
0.9999998097
100
AcDbArc
 50
179.9999871189
 51
223.9998281204
  0
ARC
  5
446
100
AcDbEntity
  8
BEZUGSACHSEN
100
AcDbCircle
 62
7
  6
CONTINUOUS
 10
41.2573932242
 20
304.3471972856
 40
0.9999990336
100
AcDbArc
 50
154.0823297892
 51
180.0000676961
  0
ARC
  5
447
100
AcDbEntity
  8
RUNDUNGEN
100
AcDbCircle
 62
7
  6
CONTINUOUS
 10
93.2573734093
 20
295.9002187169
 40
0.5
100
AcDbArc
 50
270.0
 51
360.0
  0
ARC
  5
448
100
AcDbEntity
  8
BEZUGSACHSEN
100
AcDbCircle
 62
7
  6
CONTINUOUS
 10
20.5707415823
 20
314.4002187169
 40
22.0
100
AcDbArc
 50
334.0817726776
 51
348.2086759207
  0
ARC
  5
449
100
AcDbEntity
  8
0
100
AcDbCircle
 62
7
  6
CONTINUOUS
 10
20.5707415823
 20
314.4002187169
 40
22.0
100
AcDbArc
 50
11.7913240793
 51
25.9182273224
  0
ARC
  5
44A
100
AcDbEntity
  8
BEZUGSACHSEN
100
AcDbCircle
 62
7
  6
CONTINUOUS
 10
57.8573734093
 20
314.4002187169
 40
3.7
100
AcDbArc
 50
270.0
 51
90.0
  0
ARC
  5
44B
100
AcDbEntity
  8
BEZUGSACHSEN
100
AcDbCircle
 62
7
  6
CONTINUOUS
 10
55.7573734093
 20
323.9002187169
 40
2.5
100
AcDbArc
 50
89.9999994309
 51
270.0000003614
  0
ARC
  5
44C
100
AcDbEntity
  8
BEZUGSACHSEN
100
AcDbCircle
 62
7
  6
CONTINUOUS
 10
65.7573734093
 20
323.9002187169
 40
2.5
100
AcDbArc
 50
269.9999994309
 51
90.0000003614
  0
ARC
  5
44D
100
AcDbEntity
  8
RUNDUNGEN
100
AcDbCircle
 62
7
  6
CONTINUOUS
 10
70.7573734093
 20
322.4002187169
 40
1.0
100
AcDbArc
 50
180.0000000001
 51
270.0
  0
ARC
  5
44E
100
AcDbEntity
  8
RUNDUNGEN
100
AcDbCircle
 62
7
  6
CONTINUOUS
 10
43.0854034719
 20
319.1002187169
 40
1.0
100
AcDbArc
 50
191.7913240793
 51
270.0
  0
ARC
  5
44F
100
AcDbEntity
  8
BEZUGSACHSEN
100
AcDbCircle
 62
7
  6
CONTINUOUS
 10
41.2573932242
 20
324.4532401481
 40
0.9999990336
100
AcDbArc
 50
179.9999323039
 51
205.9176702108
  0
ARC
  5
450
100
AcDbEntity
  8
0
100
AcDbCircle
 62
7
  6
CONTINUOUS
 10
46.2573734093
 20
327.9381249932
 40
2.9620937237
100
AcDbArc
 50
90.0
 51
136.0
  0
ARC
  5
451
100
AcDbEntity
  8
BEZUGSACHSEN
100
AcDbCircle
 62
7
  6
CONTINUOUS
 10
67.7573734093
 20
328.9002187169
 40
2.0
100
AcDbArc
 50
0.0
 51
90.0
  0
ARC
  5
452
100
AcDbEntity
  8
RUNDUNGEN
100
AcDbCircle
 62
7
  6
CONTINUOUS
 10
90.2573734093
 20
331.9002187169
 40
1.5
100
AcDbArc
 50
90.0
 51
180.0
  0
ARC
  5
453
100
AcDbEntity
  8
BEZUGSACHSEN
100
AcDbCircle
 62
7
  6
CONTINUOUS
 10
41.257377495
 20
325.5850185003
 40
0.9999998097
100
AcDbArc
 50
136.0001718796
 51
180.0000128811
  0
ARC
  5
454
100
AcDbEntity
  8
RUNDUNGEN
100
AcDbCircle
 62
7
  6
CONTINUOUS
 10
93.2573734093
 20
332.9002187169
 40
0.5
100
AcDbArc
 50
0.0
 51
90.0
  0
ARC
  5
455
100
AcDbEntity
  8
RUNDUNGEN
100
AcDbCircle
 62
7
  6
CONTINUOUS
 10
131.7573734093
 20
317.4002187169
 40
5.0
100
AcDbArc
 50
89.9994800841
 51
179.9986236487
  0
ARC
  5
456
100
AcDbEntity
  8
RUNDUNGEN
100
AcDbCircle
 62
7
  6
CONTINUOUS
 10
196.7573734093
 20
317.4002187169
 40
5.0
100
AcDbArc
 50
359.9971028033
 51
90.0
  0
ARC
  5
457
100
AcDbEntity
  8
RUNDUNGEN
100
AcDbCircle
 62
7
  6
CONTINUOUS
 10
119.8757385058
 20
328.4002187169
 40
5.0
100
AcDbArc
 50
70.0
 51
90.0
  0
ARC
  5
458
100
AcDbEntity
  8
RUNDUNGEN
100
AcDbCircle
 62
7
  6
CONTINUOUS
 10
129.8814405712
 20
335.4002187169
 40
5.0
100
AcDbArc
 50
250.0
 51
270.0
  0
ARC
  5
459
100
AcDbEntity
  8
RUNDUNGEN
100
AcDbCircle
 62
7
  6
CONTINUOUS
 10
198.8291701791
 20
329.4002187169
 40
2.0
100
AcDbArc
 50
90.0
 51
120.0
  0
ARC
  5
45A
100
AcDbEntity
  8
RUNDUNGEN
100
AcDbCircle
 62
7
  6
CONTINUOUS
 10
196.0253226018
 20
332.4002187169
 40
2.0
100
AcDbArc
 50
270.0
 51
300.0
  0
ARC
  5
45B
100
AcDbEntity
  8
RUNDUNGEN
100
AcDbCircle
 62
7
  6
CONTINUOUS
 10
111.7573734093
 20
332.4002187169
 40
1.0
100
AcDbArc
 50
90.0
 51
180.0
  0
ARC
  5
45C
100
AcDbEntity
  8
RUNDUNGEN
100
AcDbCircle
 62
7
  6
CONTINUOUS
 10
295.7573734093
 20
311.4002187169
 40
5.0
100
AcDbArc
 50
269.9972094646
 51
0.0028787004
  0
ARC
  5
45D
100
AcDbEntity
  8
0
100
AcDbCircle
 62
7
  6
CONTINUOUS
 10
295.7573734093
 20
311.4002187169
 40
5.0
100
AcDbArc
 50
287.2434290739
 51
293.19945822
  0
ARC
  5
45E
100
AcDbEntity
  8
0
100
AcDbCircle
 62
7
  6
CONTINUOUS
 10
295.7573734093
 20
311.4002187169
 40
5.0
100
AcDbArc
 50
299.4409559351
 51
306.7763075167
  0
ARC
  5
45F
100
AcDbEntity
  8
RUNDUNGEN
100
AcDbCircle
 62
7
  6
CONTINUOUS
 10
230.7573734093
 20
311.4002187169
 40
5.0
100
AcDbArc
 50
179.997208655
 51
270.0021655439
  0
ARC
  5
460
100
AcDbEntity
  8
0
100
AcDbCircle
 62
7
  6
CONTINUOUS
 10
391.2573734093
 20
300.8623124405
 40
2.9620937237
100
AcDbArc
 50
270.0
 51
316.0
  0
ARC
  5
461
100
AcDbEntity
  8
BEZUGSACHSEN
100
AcDbCircle
 62
7
  6
CONTINUOUS
 10
381.7573734093
 20
304.9002187169
 40
2.5
100
AcDbArc
 50
269.9999994309
 51
90.0000003614
  0
ARC
  5
462
100
AcDbEntity
  8
BEZUGSACHSEN
100
AcDbCircle
 62
7
  6
CONTINUOUS
 10
371.7573734093
 20
304.9002187169
 40
2.5
100
AcDbArc
 50
89.9999994309
 51
270.0000003614
  0
ARC
  5
463
100
AcDbEntity
  8
RUNDUNGEN
100
AcDbCircle
 62
7
  6
CONTINUOUS
 10
369.7573734093
 20
299.9002187169
 40
2.0
100
AcDbArc
 50
179.9999995568
 51
270.0000003073
  0
ARC
  5
464
100
AcDbEntity
  8
BEZUGSACHSEN
100
AcDbCircle
 62
7
  6
CONTINUOUS
 10
369.7573734093
 20
299.9002187169
 40
2.0
100
AcDbArc
 50
180.0
 51
270.0
  0
ARC
  5
465
100
AcDbEntity
  8
RUNDUNGEN
100
AcDbCircle
 62
7
  6
CONTINUOUS
 10
228.6855766396
 20
299.4002187169
 40
2.0
100
AcDbArc
 50
270.0
 51
300.0
  0
ARC
  5
466
100
AcDbEntity
  8
RUNDUNGEN
100
AcDbCircle
 62
7
  6
CONTINUOUS
 10
231.4894242169
 20
296.4002187169
 40
2.0
100
AcDbArc
 50
90.0
 51
120.0
  0
ARC
  5
467
100
AcDbEntity
  8
RUNDUNGEN
100
AcDbCircle
 62
7
  6
CONTINUOUS
 10
315.2748975565
 20
300.4002187169
 40
2.0
100
AcDbArc
 50
270.0
 51
354.0000000003
  0
ARC
  5
468
100
AcDbEntity
  8
RUNDUNGEN
100
AcDbCircle
 62
7
  6
CONTINUOUS
 10
366.7573734093
 20
306.4002187169
 40
1.0
100
AcDbArc
 50
0.0000000001
 51
90.0
  0
ARC
  5
469
100
AcDbEntity
  8
RUNDUNGEN
100
AcDbCircle
 62
7
  6
CONTINUOUS
 10
394.4293433468
 20
309.7002187169
 40
1.0
100
AcDbArc
 50
11.7913240793
 51
90.0
  0
ARC
  5
46A
100
AcDbEntity
  8
BEZUGSACHSEN
100
AcDbCircle
 62
7
  6
CONTINUOUS
 10
396.2573693237
 20
303.2154189334
 40
0.9999998097
100
AcDbArc
 50
316.0001718796
 51
0.0000128811
  0
ARC
  5
46B
100
AcDbEntity
  8
BEZUGSACHSEN
100
AcDbCircle
 62
7
  6
CONTINUOUS
 10
396.2573535944
 20
304.3471972856
 40
0.9999990336
100
AcDbArc
 50
359.9999323039
 51
25.9176702108
  0
ARC
  5
46C
100
AcDbEntity
  8
BEZUGSACHSEN
100
AcDbCircle
 62
7
  6
CONTINUOUS
 10
416.9440052363
 20
314.4002187169
 40
22.0
100
AcDbArc
 50
154.0817726776
 51
168.2086759207
  0
ARC
  5
46D
100
AcDbEntity
  8
0
100
AcDbCircle
 62
7
  6
CONTINUOUS
 10
416.9440052363
 20
314.4002187169
 40
22.0
100
AcDbArc
 50
191.7913240793
 51
205.9182273224
  0
ARC
  5
46E
100
AcDbEntity
  8
RUNDUNGEN
100
AcDbCircle
 62
7
  6
CONTINUOUS
 10
295.7573734093
 20
317.4002187169
 40
5.0
100
AcDbArc
 50
359.9974019971
 51
90.000762999
  0
ARC
  5
46F
100
AcDbEntity
  8
RUNDUNGEN
100
AcDbCircle
 62
7
  6
CONTINUOUS
 10
230.7573734093
 20
317.4002187169
 40
5.0
100
AcDbArc
 50
90.0
 51
180.0025238426
  0
ARC
  5
470
100
AcDbEntity
  8
BEZUGSACHSEN
100
AcDbCircle
 62
7
  6
CONTINUOUS
 10
379.6573734093
 20
314.4002187169
 40
3.7
100
AcDbArc
 50
90.0
 51
270.0
  0
ARC
  5
471
100
AcDbEntity
  8
BEZUGSACHSEN
100
AcDbCircle
 62
7
  6
CONTINUOUS
 10
391.2573734093
 20
327.9381249932
 40
2.9620937237
100
AcDbArc
 50
44.0
 51
90.0
  0
ARC
  5
472
100
AcDbEntity
  8
BEZUGSACHSEN
100
AcDbCircle
 62
7
  6
CONTINUOUS
 10
381.7573734093
 20
323.9002187169
 40
2.5
100
AcDbArc
 50
269.9999996386
 51
90.0000005691
  0
ARC
  5
473
100
AcDbEntity
  8
BEZUGSACHSEN
100
AcDbCircle
 62
7
  6
CONTINUOUS
 10
371.7573734093
 20
323.9002187169
 40
2.5
100
AcDbArc
 50
89.9999996386
 51
270.0000005691
  0
ARC
  5
474
100
AcDbEntity
  8
BEZUGSACHSEN
100
AcDbCircle
 62
7
  6
CONTINUOUS
 10
369.7573734093
 20
328.9002187169
 40
2.0
100
AcDbArc
 50
90.0
 51
180.0
  0
ARC
  5
475
100
AcDbEntity
  8
RUNDUNGEN
100
AcDbCircle
 62
7
  6
CONTINUOUS
 10
228.6855766396
 20
329.4002187169
 40
2.0
100
AcDbArc
 50
60.0
 51
90.0
  0
ARC
  5
476
100
AcDbEntity
  8
RUNDUNGEN
100
AcDbCircle
 62
7
  6
CONTINUOUS
 10
231.4894242169
 20
332.4002187169
 40
2.0
100
AcDbArc
 50
240.0
 51
270.0
  0
ARC
  5
477
100
AcDbEntity
  8
RUNDUNGEN
100
AcDbCircle
 62
7
  6
CONTINUOUS
 10
315.2748975565
 20
328.4002187169
 40
2.0
100
AcDbArc
 50
5.9999999997
 51
90.0
  0
ARC
  5
478
100
AcDbEntity
  8
RUNDUNGEN
100
AcDbCircle
 62
7
  6
CONTINUOUS
 10
366.7573734093
 20
322.4002187169
 40
1.0
100
AcDbArc
 50
270.0
 51
360.0
  0
ARC
  5
479
100
AcDbEntity
  8
BEZUGSACHSEN
100
AcDbCircle
 62
7
  6
CONTINUOUS
 10
394.4293433468
 20
319.1002187169
 40
1.0
100
AcDbArc
 50
270.0
 51
348.2086759207
  0
ARC
  5
47A
100
AcDbEntity
  8
BEZUGSACHSEN
100
AcDbCircle
 62
7
  6
CONTINUOUS
 10
396.2573693237
 20
325.5850185003
 40
0.9999998097
100
AcDbArc
 50
359.9999871189
 51
43.9998281204
  0
ARC
  5
47B
100
AcDbEntity
  8
BEZUGSACHSEN
100
AcDbCircle
 62
7
  6
CONTINUOUS
 10
396.2573535944
 20
324.4532401481
 40
0.9999990336
100
AcDbArc
 50
334.0823297892
 51
0.0000676961
  0
ARC
  5
47C
100
AcDbEntity
  8
BEZUGSACHSEN
100
AcDbCircle
 62
7
  6
CONTINUOUS
 10
464.6423692725
 20
309.7002187169
 40
1.0
100
AcDbArc
 50
90.0
 51
168.2086759207
  0
ARC
  5
47D
100
AcDbEntity
  8
BEZUGSACHSEN
100
AcDbCircle
 62
7
  6
CONTINUOUS
 10
463.31433921
 20
298.9002187169
 40
1.0
100
AcDbArc
 50
180.0
 51
270.0
  0
ARC
  5
47E
100
AcDbEntity
  8
BEZUGSACHSEN
100
AcDbCircle
 62
7
  6
CONTINUOUS
 10
463.31433921
 20
305.4488706716
 40
1.0
100
AcDbArc
 50
157.0959511496
 51
180.0
  0
ARC
  5
47F
100
AcDbEntity
  8
BEZUGSACHSEN
100
AcDbCircle
 62
7
  6
CONTINUOUS
 10
463.31433921
 20
309.7002187169
 40
1.0
100
AcDbArc
 50
90.0
 51
180.0
  0
ARC
  5
480
100
AcDbEntity
  8
RUNDUNGEN
100
AcDbCircle
 62
7
  6
CONTINUOUS
 10
442.127707383
 20
314.4002187169
 40
22.0
100
AcDbArc
 50
11.7913240793
 51
22.9040488504
  0
ARC
  5
481
100
AcDbEntity
  8
BEZUGSACHSEN
100
AcDbCircle
 62
7
  6
CONTINUOUS
 10
442.127707383
 20
314.4002187169
 40
22.0
100
AcDbArc
 50
337.0959511496
 51
348.2086759207
  0
ARC
  5
482
100
AcDbEntity
  8
RUNDUNGEN
100
AcDbCircle
 62
7
  6
CONTINUOUS
 10
463.31433921
 20
319.1002187169
 40
1.0
100
AcDbArc
 50
180.0
 51
270.0
  0
ARC
  5
483
100
AcDbEntity
  8
RUNDUNGEN
100
AcDbCircle
 62
7
  6
CONTINUOUS
 10
463.31433921
 20
323.3515667621
 40
1.0
100
AcDbArc
 50
180.0001103635
 51
202.9040488504
  0
ARC
  5
484
100
AcDbEntity
  8
RUNDUNGEN
100
AcDbCircle
 62
7
  6
CONTINUOUS
 10
463.31433921
 20
329.9002187169
 40
1.0
100
AcDbArc
 50
90.0
 51
180.0
  0
ARC
  5
485
100
AcDbEntity
  8
RUNDUNGEN
100
AcDbCircle
 62
7
  6
CONTINUOUS
 10
464.6423692725
 20
319.1002187169
 40
1.0
100
AcDbArc
 50
191.7913240793
 51
270.0
  0
ARC
  5
486
100
AcDbEntity
  8
BEZUGSACHSEN
100
AcDbCircle
 62
7
  6
CONTINUOUS
 10
471.31433921
 20
300.4002187169
 40
3.0
100
AcDbArc
 50
236.6493933442
 51
303.3506066558
  0
ARC
  5
487
100
AcDbEntity
  8
BEZUGSACHSEN
100
AcDbCircle
 62
7
  6
CONTINUOUS
 10
477.9863091474
 20
309.7002187169
 40
1.0
100
AcDbArc
 50
11.7913240793
 51
90.0
  0
ARC
  5
488
100
AcDbEntity
  8
BEZUGSACHSEN
100
AcDbCircle
 62
7
  6
CONTINUOUS
 10
479.31433921
 20
309.7002187169
 40
1.0
100
AcDbArc
 50
0.0
 51
90.0
  0
ARC
  5
489
100
AcDbEntity
  8
BEZUGSACHSEN
100
AcDbCircle
 62
7
  6
CONTINUOUS
 10
479.31433921
 20
305.4488687454
 40
1.0
100
AcDbArc
 50
0.0001103635
 51
22.9041505124
  0
ARC
  5
48A
100
AcDbEntity
  8
BEZUGSACHSEN
100
AcDbCircle
 62
7
  6
CONTINUOUS
 10
479.31433921
 20
298.9002187169
 40
1.0
100
AcDbArc
 50
270.0
 51
360.0
  0
CIRCLE
  5
48B
100
AcDbEntity
  8
RUNDUNGEN
100
AcDbCircle
 62
7
  6
CONTINUOUS
 10
471.31433921
 20
314.4002187169
 40
19.0
  0
ARC
  5
48C
100
AcDbEntity
  8
RUNDUNGEN
100
AcDbCircle
 62
7
  6
CONTINUOUS
 10
477.9863091474
 20
319.1002187169
 40
1.0
100
AcDbArc
 50
270.0
 51
348.2086759173
  0
ARC
  5
48D
100
AcDbEntity
  8
BEZUGSACHSEN
100
AcDbCircle
 62
7
  6
CONTINUOUS
 10
477.9863091474
 20
319.1002187169
 40
1.0
100
AcDbArc
 50
270.0
 51
348.2086759207
  0
ARC
  5
48E
100
AcDbEntity
  8
BEZUGSACHSEN
100
AcDbCircle
 62
7
  6
CONTINUOUS
 10
479.31433921
 20
319.1002187169
 40
1.0
100
AcDbArc
 50
270.0
 51
360.0
  0
ARC
  5
48F
100
AcDbEntity
  8
BEZUGSACHSEN
100
AcDbCircle
 62
7
  6
CONTINUOUS
 10
471.31433921
 20
328.4002187169
 40
3.0
100
AcDbArc
 50
56.6493933442
 51
123.3506066558
  0
ARC
  5
490
100
AcDbEntity
  8
BEZUGSACHSEN
100
AcDbCircle
 62
7
  6
CONTINUOUS
 10
479.31433921
 20
323.3515686883
 40
1.0
100
AcDbArc
 50
337.0958494876
 51
359.9998896365
  0
ARC
  5
491
100
AcDbEntity
  8
BEZUGSACHSEN
100
AcDbCircle
 62
7
  6
CONTINUOUS
 10
479.31433921
 20
329.9002187169
 40
1.0
100
AcDbArc
 50
0.0
 51
90.0
  0
ARC
  5
492
100
AcDbEntity
  8
0
100
AcDbCircle
 62
7
  6
CONTINUOUS
 10
500.500971037
 20
314.4002187169
 40
22.0
100
AcDbArc
 50
157.0959511496
 51
168.2086759207
  0
ARC
  5
493
100
AcDbEntity
  8
BEZUGSACHSEN
100
AcDbCircle
 62
7
  6
CONTINUOUS
 10
500.500971037
 20
314.4002187169
 40
22.0
100
AcDbArc
 50
157.0959511496
 51
168.2086759207
  0
ARC
  5
494
100
AcDbEntity
  8
BEZUGSACHSEN
100
AcDbCircle
 62
7
  6
CONTINUOUS
 10
500.500971037
 20
314.4002187169
 40
22.0
100
AcDbArc
 50
191.7913240793
 51
202.9040488504
  0
ARC
  5
495
100
AcDbEntity
  8
RUNDUNGEN
100
AcDbCircle
 62
7
  6
CONTINUOUS
 10
125.8249242418
 20
107.0419284064
 40
2.003260631
100
AcDbArc
 50
290.6552616225
 51
292.1855816554
  0
ARC
  5
496
100
AcDbEntity
  8
RUNDUNGEN
100
AcDbCircle
 62
7
  6
CONTINUOUS
 10
125.826103828
 20
107.0385254404
 40
1.9996641898
100
AcDbArc
 50
292.1911038964
 51
320.2953801507
  0
ARC
  5
497
100
AcDbEntity
  8
RUNDUNGEN
100
AcDbCircle
 62
7
  6
CONTINUOUS
 10
90.2573734093
 20
102.9807462884
 40
1.5
100
AcDbArc
 50
180.0
 51
270.0
  0
ARC
  5
498
100
AcDbEntity
  8
RUNDUNGEN
100
AcDbCircle
 62
7
  6
CONTINUOUS
 10
111.7573734093
 20
102.4807462884
 40
1.0
100
AcDbArc
 50
180.0
 51
270.0
  0
ARC
  5
499
100
AcDbEntity
  8
RUNDUNGEN
100
AcDbCircle
 62
7
  6
CONTINUOUS
 10
93.2573734093
 20
101.9807462884
 40
0.5
100
AcDbArc
 50
270.0
 51
360.0
  0
ARC
  5
49A
100
AcDbEntity
  8
RUNDUNGEN
100
AcDbCircle
 62
7
  6
CONTINUOUS
 10
49.2573734093
 20
120.4807462884
 40
9.0
100
AcDbArc
 50
90.0
 51
158.7751372855
  0
ARC
  5
49B
100
AcDbEntity
  8
BEZUGSACHSEN
100
AcDbCircle
 62
7
  6
CONTINUOUS
 10
49.2573734093
 20
120.4807462884
 40
9.0
100
AcDbArc
 50
158.0797110648
 51
270.0
  0
ARC
  5
49C
100
AcDbEntity
  8
BEZUGSACHSEN
100
AcDbCircle
 62
7
  6
CONTINUOUS
 10
49.2573734093
 20
120.4807462884
 40
9.0
100
AcDbArc
 50
92.2574655865
 51
103.6892072758
  0
ARC
  5
49D
100
AcDbEntity
  8
RUNDUNGEN
100
AcDbCircle
 62
7
  6
CONTINUOUS
 10
70.7573734093
 20
112.4807462884
 40
1.0
100
AcDbArc
 50
90.0
 51
180.0
  0
ARC
  5
49E
100
AcDbEntity
  8
BEZUGSACHSEN
100
AcDbCircle
 62
7
  6
CONTINUOUS
 10
68.7573734093
 20
112.4807462884
 40
1.0
100
AcDbArc
 50
270.0
 51
360.0
  0
ARC
  5
49F
100
AcDbEntity
  8
RUNDUNGEN
100
AcDbCircle
 62
7
  6
CONTINUOUS
 10
203.7573734093
 20
105.4807462884
 40
2.0
100
AcDbArc
 50
224.3213366653
 51
245.9494075974
  0
ARC
  5
4A0
100
AcDbEntity
  8
RUNDUNGEN
100
AcDbCircle
 62
7
  6
CONTINUOUS
 10
198.8290600497
 20
109.0272864013
 40
1.999646436
100
AcDbArc
 50
224.4926911467
 51
255.3156573568
  0
CIRCLE
  5
4A1
100
AcDbEntity
  8
0
100
AcDbCircle
 62
7
  6
CONTINUOUS
 10
213.7573734093
 20
120.4807462884
 40
20.0
  0
CIRCLE
  5
4A2
100
AcDbEntity
  8
0
100
AcDbCircle
 62
7
  6
CONTINUOUS
 10
213.7573734093
 20
120.4807462884
 40
9.6076951546
  0
ARC
  5
4A3
100
AcDbEntity
  8
RUNDUNGEN
100
AcDbCircle
 62
7
  6
CONTINUOUS
 10
119.8757385058
 20
134.4807462884
 40
5.0
100
AcDbArc
 50
70.0
 51
90.0
  0
ARC
  5
4A4
100
AcDbEntity
  8
RUNDUNGEN
100
AcDbCircle
 62
7
  6
CONTINUOUS
 10
129.8814405712
 20
141.4807462884
 40
5.0
100
AcDbArc
 50
250.0
 51
270.0
  0
ARC
  5
4A5
100
AcDbEntity
  8
RUNDUNGEN
100
AcDbCircle
 62
7
  6
CONTINUOUS
 10
198.8291701791
 20
135.4807462884
 40
2.0
100
AcDbArc
 50
90.0
 51
120.0
  0
ARC
  5
4A6
100
AcDbEntity
  8
RUNDUNGEN
100
AcDbCircle
 62
7
  6
CONTINUOUS
 10
196.0253226018
 20
138.4807462884
 40
2.0
100
AcDbArc
 50
270.0
 51
300.0
  0
ARC
  5
4A7
100
AcDbEntity
  8
RUNDUNGEN
100
AcDbCircle
 62
7
  6
CONTINUOUS
 10
90.2573734093
 20
137.9807462884
 40
1.5
100
AcDbArc
 50
90.0
 51
180.0
  0
ARC
  5
4A8
100
AcDbEntity
  8
RUNDUNGEN
100
AcDbCircle
 62
7
  6
CONTINUOUS
 10
70.7573734093
 20
128.4807462884
 40
1.0
100
AcDbArc
 50
180.0
 51
270.0
  0
ARC
  5
4A9
100
AcDbEntity
  8
RUNDUNGEN
100
AcDbCircle
 62
7
  6
CONTINUOUS
 10
68.7573734093
 20
128.4807462884
 40
1.0
100
AcDbArc
 50
0.0
 51
90.0
  0
ARC
  5
4AA
100
AcDbEntity
  8
RUNDUNGEN
100
AcDbCircle
 62
7
  6
CONTINUOUS
 10
111.7573734093
 20
138.4807462884
 40
1.0
100
AcDbArc
 50
90.0
 51
180.0
  0
ARC
  5
4AB
100
AcDbEntity
  8
RUNDUNGEN
100
AcDbCircle
 62
7
  6
CONTINUOUS
 10
137.2573734093
 20
134.4807462884
 40
1.0
100
AcDbArc
 50
179.9992886369
 51
270.0
  0
ARC
  5
4AC
100
AcDbEntity
  8
RUNDUNGEN
100
AcDbCircle
 62
7
  6
CONTINUOUS
 10
185.2573734093
 20
134.4807462884
 40
1.0
100
AcDbArc
 50
270.0
 51
0.0006804272
  0
ARC
  5
4AD
100
AcDbEntity
  8
RUNDUNGEN
100
AcDbCircle
 62
7
  6
CONTINUOUS
 10
93.2573734093
 20
138.9807462884
 40
0.5
100
AcDbArc
 50
0.0
 51
90.0
  0
ARC
  5
4AE
100
AcDbEntity
  8
RUNDUNGEN
100
AcDbCircle
 62
7
  6
CONTINUOUS
 10
186.7573734093
 20
135.9807462884
 40
0.5
100
AcDbArc
 50
90.0
 51
180.0
  0
ARC
  5
4AF
100
AcDbEntity
  8
RUNDUNGEN
100
AcDbCircle
 62
7
  6
CONTINUOUS
 10
135.7573734093
 20
135.9807462884
 40
0.5
100
AcDbArc
 50
0.0
 51
90.0
  0
ARC
  5
4B0
100
AcDbEntity
  8
RUNDUNGEN
100
AcDbCircle
 62
7
  6
CONTINUOUS
 10
223.7573734093
 20
105.4807462884
 40
2.0
100
AcDbArc
 50
294.0505924026
 51
315.6786633347
  0
ARC
  5
4B1
100
AcDbEntity
  8
RUNDUNGEN
100
AcDbCircle
 62
7
  6
CONTINUOUS
 10
302.7573734093
 20
106.4807462884
 40
2.0
100
AcDbArc
 50
184.7757011658
 51
270.0
  0
ARC
  5
4B2
100
AcDbEntity
  8
RUNDUNGEN
100
AcDbCircle
 62
7
  6
CONTINUOUS
 10
228.6857155773
 20
109.0272337876
 40
1.999586792
100
AcDbArc
 50
284.6840918184
 51
315.5074083953
  0
ARC
  5
4B3
100
AcDbEntity
  8
RUNDUNGEN
100
AcDbCircle
 62
7
  6
CONTINUOUS
 10
315.2748975565
 20
106.4807462884
 40
2.0
100
AcDbArc
 50
270.0
 51
354.0000000001
  0
ARC
  5
4B4
100
AcDbEntity
  8
RUNDUNGEN
100
AcDbCircle
 62
7
  6
CONTINUOUS
 10
366.7573734093
 20
112.4807462884
 40
1.0
100
AcDbArc
 50
0.0
 51
90.0
  0
ARC
  5
4B5
100
AcDbEntity
  8
BEZUGSACHSEN
100
AcDbCircle
 62
7
  6
CONTINUOUS
 10
368.7573734093
 20
112.4807462884
 40
1.0
100
AcDbArc
 50
180.0
 51
270.0
  0
ARC
  5
4B6
100
AcDbEntity
  8
RUNDUNGEN
100
AcDbCircle
 62
7
  6
CONTINUOUS
 10
388.2573734093
 20
120.4807462884
 40
9.0
100
AcDbArc
 50
82.068055143
 51
87.7425344134
  0
ARC
  5
4B7
100
AcDbEntity
  8
RUNDUNGEN
100
AcDbCircle
 62
7
  6
CONTINUOUS
 10
388.2573734093
 20
120.4807462884
 40
9.0
100
AcDbArc
 50
21.2248627145
 51
21.629134056
  0
ARC
  5
4B8
100
AcDbEntity
  8
BEZUGSACHSEN
100
AcDbCircle
 62
7
  6
CONTINUOUS
 10
388.2573734093
 20
120.4807462884
 40
9.0
100
AcDbArc
 50
270.0
 51
90.0
  0
ARC
  5
4B9
100
AcDbEntity
  8
RUNDUNGEN
100
AcDbCircle
 62
7
  6
CONTINUOUS
 10
228.6855766396
 20
135.4807462884
 40
2.0
100
AcDbArc
 50
60.0
 51
90.0
  0
ARC
  5
4BA
100
AcDbEntity
  8
RUNDUNGEN
100
AcDbCircle
 62
7
  6
CONTINUOUS
 10
231.4894242169
 20
138.4807462884
 40
2.0
100
AcDbArc
 50
240.0
 51
270.0
  0
ARC
  5
4BB
100
AcDbEntity
  8
RUNDUNGEN
100
AcDbCircle
 62
7
  6
CONTINUOUS
 10
315.2748975565
 20
134.4807462884
 40
2.0
100
AcDbArc
 50
6.0
 51
90.0
  0
ARC
  5
4BC
100
AcDbEntity
  8
RUNDUNGEN
100
AcDbCircle
 62
7
  6
CONTINUOUS
 10
366.7573734093
 20
128.4807462884
 40
1.0
100
AcDbArc
 50
270.0
 51
360.0
  0
ARC
  5
4BD
100
AcDbEntity
  8
BEZUGSACHSEN
100
AcDbCircle
 62
7
  6
CONTINUOUS
 10
368.7573734093
 20
128.4807462884
 40
1.0
100
AcDbArc
 50
90.0
 51
180.0
  0
ARC
  5
4BE
100
AcDbEntity
  8
RUNDUNGEN
100
AcDbCircle
 62
7
  6
CONTINUOUS
 10
250.2573734093
 20
134.4807462884
 40
1.0
100
AcDbArc
 50
179.9993901798
 51
270.0
  0
ARC
  5
4BF
100
AcDbEntity
  8
RUNDUNGEN
100
AcDbCircle
 62
7
  6
CONTINUOUS
 10
290.2573734093
 20
134.4807462884
 40
1.0
100
AcDbArc
 50
270.0
 51
0.000617483
  0
ARC
  5
4C0
100
AcDbEntity
  8
RUNDUNGEN
100
AcDbCircle
 62
7
  6
CONTINUOUS
 10
291.7573734093
 20
135.9807462884
 40
0.5
100
AcDbArc
 50
90.0
 51
180.0
  0
ARC
  5
4C1
100
AcDbEntity
  8
RUNDUNGEN
100
AcDbCircle
 62
7
  6
CONTINUOUS
 10
248.7573734093
 20
135.9807462884
 40
0.5
100
AcDbArc
 50
0.0
 51
90.0
  0
SPLINE
  5
4C2
100
AcDbEntity
  8
0
100
AcDbSpline
 62
7
  6
CONTINUOUS
 70
0
 71
3
 72
9
 73
5
 74
0
 42
0.0000001
 43
0.0000001
 44
0.0000000001
 40
0.0
 40
0.0
 40
0.0
 40
0.0
 40
0.4996763909
 40
1.0
 40
1.0
 40
1.0
 40
1.0
 10
70.7573734093
 20
307.8618703016
 30
0.0
 10
70.6017898569
 20
307.8618703016
 30
0.0
 10
70.2857593888
 20
307.7804321935
 30
0.0
 10
70.0466301933
 20
307.5619618139
 30
0.0
 10
69.9568898614
 20
307.4346210793
 30
0.0
  0
SPLINE
  5
4C3
100
AcDbEntity
  8
0
100
AcDbSpline
 62
7
  6
CONTINUOUS
 70
0
 71
3
 72
9
 73
5
 74
0
 42
0.0000001
 43
0.0000001
 44
0.0000000001
 40
0.0
 40
0.0
 40
0.0
 40
0.0
 40
0.4999830974
 40
1.0
 40
1.0
 40
1.0
 40
1.0
 10
167.7573734093
 20
310.9632869456
 30
0.0
 10
167.3229252338
 20
310.4260622148
 30
0.0
 10
166.4149885544
 20
309.3833694529
 30
0.0
 10
165.4790185995
 20
308.3668168295
 30
0.0
 10
165.0073734093
 20
307.8618703016
 30
0.0
  0
SPLINE
  5
4C4
100
AcDbEntity
  8
0
100
AcDbSpline
 62
7
  6
CONTINUOUS
 70
0
 71
3
 72
8
 73
4
 74
0
 42
0.0000001
 43
0.0000001
 44
0.0000000001
 40
0.0
 40
0.0
 40
0.0
 40
0.0
 40
1.0
 40
1.0
 40
1.0
 40
1.0
 10
174.4718395034
 20
311.9002187169
 30
0.0
 10
174.2450827449
 20
311.5795362336
 30
0.0
 10
174.004339781
 20
311.2686776689
 30
0.0
 10
173.7573734093
 20
310.9632869456
 30
0.0
  0
SPLINE
  5
4C5
100
AcDbEntity
  8
BEZUGSACHSEN
100
AcDbSpline
 62
7
  6
CONTINUOUS
 70
0
 71
3
 72
15
 73
11
 74
0
 42
0.0000001
 43
0.0000001
 44
0.0000000001
 40
0.0
 40
0.0
 40
0.0
 40
0.0
 40
0.0401088815
 40
0.1507605779
 40
0.3116649221
 40
0.500000516
 40
0.688336338
 40
0.8492409164
 40
0.9598921922
 40
1.0
 40
1.0
 40
1.0
 40
1.0
 10
220.2573734093
 20
331.4002187169
 30
0.0
 10
220.0910263294
 20
331.336614062
 30
0.0
 10
219.4630794048
 20
331.1043440658
 30
0.0
 10
218.1444380129
 20
330.6808685
 30
0.0
 10
216.1468312726
 20
330.2345797961
 30
0.0
 10
213.7573654862
 20
330.0405030715
 30
0.0
 10
211.3678987323
 20
330.2345819828
 30
0.0
 10
209.3702924705
 20
330.6808733291
 30
0.0
 10
208.0516563237
 20
331.1043469601
 30
0.0
 10
207.4237159283
 20
331.3366154661
 30
0.0
 10
207.2573734093
 20
331.4002187169
 30
0.0
  0
SPLINE
  5
4C6
100
AcDbEntity
  8
BEZUGSACHSEN
100
AcDbSpline
 62
7
  6
CONTINUOUS
 70
0
 71
3
 72
15
 73
11
 74
0
 42
0.0000001
 43
0.0000001
 44
0.0000000001
 40
0.0
 40
0.0
 40
0.0
 40
0.0
 40
0.0401078376
 40
0.1507591913
 40
0.3116636068
 40
0.4999994841
 40
0.6883351367
 40
0.8492393139
 40
0.9598910845
 40
1.0
 40
1.0
 40
1.0
 40
1.0
 10
207.2573734093
 20
297.4002187169
 30
0.0
 10
207.4237160524
 20
297.4638220136
 30
0.0
 10
208.0516569005
 20
297.6960906743
 30
0.0
 10
209.3702928372
 20
298.1195641632
 30
0.0
 10
211.3678989609
 20
298.5658554705
 30
0.0
 10
213.7573655032
 20
298.7599343948
 30
0.0
 10
216.1468310582
 20
298.5658576516
 30
0.0
 10
218.1444376416
 20
298.1195689951
 30
0.0
 10
219.4630788058
 20
297.6960935704
 30
0.0
 10
220.0910261869
 20
297.4638234227
 30
0.0
 10
220.2573734093
 20
297.4002187169
 30
0.0
  0
SPLINE
  5
4C7
100
AcDbEntity
  8
RUNDUNGEN
100
AcDbSpline
 62
7
  6
CONTINUOUS
 70
0
 71
3
 72
18
 73
14
 74
0
 42
0.0000001
 43
0.0000001
 44
0.0000000001
 40
0.0
 40
0.0
 40
0.0
 40
0.0
 40
0.0218475504
 40
0.049156136
 40
0.0846142943
 40
0.128993019
 40
0.1821207524
 40
0.2433000163
 40
0.3854335054
 40
0.5448424874
 40
0.7089696738
 40
0.8647367864
 40
1.0
 40
1.0
 40
1.0
 40
1.0
 10
196.7573734125
 20
306.4002077953
 30
0.0
 10
196.7314784761
 20
306.4002071969
 30
0.0
 10
196.6731209437
 20
306.3809232113
 30
0.0
 10
196.5997441921
 20
306.3101064528
 30
0.0
 10
196.5313634312
 20
306.2023501347
 30
0.0
 10
196.4678558258
 20
306.0576605624
 30
0.0
 10
196.4100329065
 20
305.8784574898
 30
0.0
 10
196.3388076658
 20
305.5827487827
 30
0.0
 10
196.2762508671
 20
305.1565785926
 30
0.0
 10
196.2413033768
 20
304.6052955416
 30
0.0
 10
196.2470690678
 20
304.0366605298
 30
0.0
 10
196.2929046515
 20
303.4986956653
 30
0.0
 10
196.3524655797
 20
303.1580528653
 30
0.0
 10
196.3913474698
 20
303.0025177057
 30
0.0
  0
SPLINE
  5
4C8
100
AcDbEntity
  8
RUNDUNGEN
100
AcDbSpline
 62
7
  6
CONTINUOUS
 70
0
 71
3
 72
18
 73
14
 74
0
 42
0.0000001
 43
0.0000001
 44
0.0000000001
 40
0.0
 40
0.0
 40
0.0
 40
0.0
 40
0.135263765
 40
0.2910310467
 40
0.4551586866
 40
0.6145685663
 40
0.7567029396
 40
0.8178824072
 40
0.8710100742
 40
0.9153884159
 40
0.9508458696
 40
0.9781534841
 40
1.0
 40
1.0
 40
1.0
 40
1.0
 10
231.1233985683
 20
303.0025206876
 30
0.0
 10
231.1622796814
 20
303.1580572731
 30
0.0
 10
231.2218393217
 20
303.498702313
 30
0.0
 10
231.2676732746
 20
304.0366705375
 30
0.0
 10
231.2734376051
 20
304.605309268
 30
0.0
 10
231.2384891236
 20
305.1565967675
 30
0.0
 10
231.175931873
 20
305.5827707135
 30
0.0
 10
231.1047066432
 20
305.8784817218
 30
0.0
 10
231.0468841285
 20
306.0576852743
 30
0.0
 10
230.9833774036
 20
306.2023743316
 30
0.0
 10
230.9149980905
 20
306.3101291394
 30
0.0
 10
230.8416233342
 20
306.3809439826
 30
0.0
 10
230.7832672074
 20
306.4002259246
 30
0.0
 10
230.7573734098
 20
306.4002254662
 30
0.0
  0
SPLINE
  5
4C9
100
AcDbEntity
  8
0
100
AcDbSpline
 62
7
  6
CONTINUOUS
 70
0
 71
3
 72
10
 73
6
 74
0
 42
0.0000001
 43
0.0000001
 44
0.0000000001
 40
0.0
 40
0.0
 40
0.0
 40
0.0
 40
0.5135001353
 40
0.7559965676
 40
1.0
 40
1.0
 40
1.0
 40
1.0
 10
69.9568898614
 20
122.9807462884
 30
0.0
 10
70.0175963416
 20
123.3801426521
 30
0.0
 10
70.1538409956
 20
123.9650083003
 30
0.0
 10
70.4698670687
 20
124.6871514042
 30
0.0
 10
70.65836153
 20
125.020819473
 30
0.0
 10
70.7573734093
 20
125.1852782988
 30
0.0
  0
SPLINE
  5
4CA
100
AcDbEntity
  8
0
100
AcDbSpline
 62
7
  6
CONTINUOUS
 70
0
 71
3
 72
13
 73
9
 74
0
 42
0.0000001
 43
0.0000001
 44
0.0000000001
 40
0.0
 40
0.0
 40
0.0
 40
0.0
 40
0.1107524316
 40
0.2212782085
 40
0.455735196
 40
0.5839810444
 40
0.7187367245
 40
1.0
 40
1.0
 40
1.0
 40
1.0
 10
70.7573734093
 20
125.1852782988
 30
0.0
 10
70.8633228311
 20
125.3612603892
 30
0.0
 10
71.1084773284
 20
125.6944327746
 30
0.0
 10
71.7454668188
 20
126.2592194003
 30
0.0
 10
72.5657517207
 20
126.6223507495
 30
0.0
 10
73.4627890583
 20
126.8370539506
 30
0.0
 10
74.4629433016
 20
126.9835610968
 30
0.0
 10
75.2357102914
 20
127.0190947038
 30
0.0
 10
75.7573734093
 20
127.0190947038
 30
0.0
  0
ENDSEC
  0
SECTION
  2
OBJECTS
  0
DICTIONARY
  5
C
100
AcDbDictionary
280
0
281
1
  3
ACAD_GROUP
350
D
  3
ACAD_MLINESTYLE
350
17
  3
ACAD_LAYOUT
350
1A
  3
ACAD_PLOTSETTINGS
350
19
  3
ACAD_PLOTSTYLENAME
350
E
  0
DICTIONARY
  5
D
102
{ACAD_REACTORS
330
C
102
}
100
AcDbDictionary
280
0
281
1
  0
ACDBDICTIONARYWDFLT
  5
E
102
{ACAD_REACTORS
330
C
102
}
100
AcDbDictionary
281
1
  3
Normal
350
F
100
AcDbDictionaryWithDefault
340
F
  0
DICTIONARY
  5
17
102
{ACAD_REACTORS
330
C
102
}
100
AcDbDictionary
280
0
281
1
  3
Standard
350
18
  0
DICTIONARY
  5
19
102
{ACAD_REACTORS
330
C
102
}
100
AcDbDictionary
281
1
  0
DICTIONARY
  5
1A
102
{ACAD_REACTORS
330
C
102
}
100
AcDbDictionary
281
1
  3
Model
350
4CB
  3
Layout1
350
4CC
  0
ACDBPLACEHOLDER
  5
F
102
{ACAD_REACTORS
330
E
102
}
  0
MLINESTYLE
  5
18
102
{ACAD_REACTORS
330
17
102
}
100
AcDbMlineStyle
  2
STANDARD
 70
0
  3

 62
256
 51
90.0
 52
90.0
 71
2
 49
0.5
 62
256
  6
BYLAYER
 49
-0.5
 62
256
  6
BYLAYER
  0
LAYOUT
  5
4CB
102
{ACAD_REACTORS
330
1A
102
}
100
AcDbPlotSettings
  1

  2
none_device
  4
ISO_A2_(594.00_x_420.00_MM)
  6

 40
0.0
 41
0.0
 42
0.0
 43
0.0
 44
594.0
 45
420.0
 46
0.0
 47
0.0
 48
0.0
 49
0.0
140
0.0
141
0.0
142
1.0
143
1.0
 70
1024
 72
1
 73
0
 74
0
  7

 75
0
147
1.0
148
0.0
149
0.0
100
AcDbLayout
  1
Model
 70
0
 71
0
 10
0.0
 20
0.0
 11
594.0
 21
420.0
 12
0.0
 22
0.0
 32
0.0
 14
0.0
 24
0.0
 34
0.0
 15
0.0
 25
0.0
 35
0.0
146
0.0
 13
0.0
 23
0.0
 33
0.0
 16
1.0
 26
0.0
 36
0.0
 17
0.0
 27
1.0
 37
0.0
 76
0
330
210
345
0
346
0
  0
LAYOUT
  5
4CC
102
{ACAD_REACTORS
330
1A
102
}
100
AcDbPlotSettings
  1

  2
none_device
  4
ISO_A2_(594.00_x_420.00_MM)
  6

 40
0.0
 41
0.0
 42
0.0
 43
0.0
 44
594.0
 45
420.0
 46
0.0
 47
0.0
 48
0.0
 49
0.0
140
0.0
141
0.0
142
1.0
143
1.0
 70
0
 72
1
 73
0
 74
0
  7

 75
0
147
1.0
148
0.0
149
0.0
100
AcDbLayout
  1
Layout1
 70
0
 71
1
 10
0.0
 20
0.0
 11
594.0
 21
420.0
 12
0.0
 22
0.0
 32
0.0
 14
0.0
 24
0.0
 34
0.0
 15
0.0
 25
0.0
 35
0.0
146
0.0
 13
0.0
 23
0.0
 33
0.0
 16
1.0
 26
0.0
 36
0.0
 17
0.0
 27
1.0
 37
0.0
 76
0
330
211
345
0
346
0
  0
ENDSEC
  0
EOF
