999
DXF file: ICE-CURT-K-16-GAKO_7904452_M34855-P-1.dxf
999
Pro/ENGINEER 2010140 by Parametric Technology Corporation
  0
SECTION
  2
HEADER
  9
$ACADVER
  1
AC1015
  9
$DWGCODEPAGE
  3
ANSI_1252
  9
$EXTMAX
 10
1189.0
 20
841.0
 30
0.0
  9
$EXTMIN
 10
0.0
 20
0.0
 30
0.0
  9
$LIMMIN
 10
0.0
 20
0.0
  9
$LIMMAX
 10
1189.0
 20
841.0
  9
$VIEWCTR
 10
594.5
 20
420.5
  9
$VIEWSIZE
 40
841.0
  9
$CLAYER
  8
0
  9
$LTSCALE
 40
65.395
  9
$CELTYPE
  6
BYLAYER
  9
$DIMSCALE
 40
1.0
  9
$DIMASZ
 40
3.5
  9
$DIMEXO
 40
7.43125
  9
$DIMDLI
 40
45.182
  9
$DIMEXE
 40
21.402
  9
$DIMCEN
 40
10.701
  9
$DIMLFAC
 40
1.0
  9
$DIMBLK
  1
_FILLED
  9
$DIMTXT
 40
3.5
  9
$DIMTOL
 70
1
  9
$DIMLIM
 70
0
  9
$DIMTFAC
 40
1.0
  9
$DIMTP
 40
0.005
  9
$DIMTM
 40
0.005
  9
$PDMODE
 70
3
  9
$PDSIZE
 40
0.3125
  9
$HANDSEED
  5
5C6
  9
$TILEMODE
 70
1
  9
$MEASUREMENT
 70
1
  9
$INSUNITS
 70
4
  0
ENDSEC
  0
SECTION
  2
CLASSES
  0
CLASS
  1
ACDBDICTIONARYWDFLT
  2
AcDbDictionaryWithDefault
  3
AutoCAD 2000
 90
0
280
0
281
0
  0
CLASS
  1
ACDBPLACEHOLDER
  2
AcDbPlaceHolder
  3
AutoCAD 2000
 90
0
280
0
281
0
  0
CLASS
  1
LAYOUT
  2
AcDbLayout
  3
AutoCAD 2000
 90
0
280
0
281
0
  0
ENDSEC
  0
SECTION
  2
TABLES
  0
TABLE
  2
VPORT
  5
8
100
AcDbSymbolTable
 70
2
  0
VPORT
  5
1F4
100
AcDbSymbolTableRecord
100
AcDbViewportTableRecord
  2
*ACTIVE
 70
0
 10
0.0
 20
0.0
 11
1.0
 21
1.0
 12
594.5
 22
420.5
 13
0.0
 23
0.0
 14
1.0
 24
1.0
 15
0.0
 25
0.0
 16
0.0
 26
0.0
 36
1.0
 17
0.0
 27
0.0
 37
0.0
 40
841.0
 41
1.4137931034
 42
50.0
 43
0.0
 44
0.0
 50
0.0
 51
0.0
 71
0
 72
100
 73
1
 74
1
 75
0
 76
0
 77
0
 78
0
  0
ENDTAB
  0
TABLE
  2
LTYPE
  5
5
100
AcDbSymbolTable
 70
6
  0
LTYPE
  5
14
100
AcDbSymbolTableRecord
100
AcDbLinetypeTableRecord
  2
BYBLOCK
 70
0
  3

 72
65
 73
0
 40
0.0
  0
LTYPE
  5
15
100
AcDbSymbolTableRecord
100
AcDbLinetypeTableRecord
  2
BYLAYER
 70
0
  3

 72
65
 73
0
 40
0.0
  0
LTYPE
  5
16
100
AcDbSymbolTableRecord
100
AcDbLinetypeTableRecord
  2
CONTINUOUS
 70
64
  3
Solid line
 72
65
 73
0
 40
0.0
  0
LTYPE
  5
1F5
100
AcDbSymbolTableRecord
100
AcDbLinetypeTableRecord
  2
CENTER
 70
64
  3
____ _ ____ _ ____ _ ____ _ ____ _ ____ _ ____
 72
65
 73
4
 40
0.6
 49
0.375
 74
0
 49
-0.075
 74
0
 49
0.075
 74
0
 49
-0.075
 74
0
  0
LTYPE
  5
1F6
100
AcDbSymbolTableRecord
100
AcDbLinetypeTableRecord
  2
HIDDEN
 70
64
  3
- - - - - - - - - - - - - - - - - - - -
 72
65
 73
2
 40
0.2
 49
0.1
 74
0
 49
-0.1
 74
0
  0
LTYPE
  5
1F7
100
AcDbSymbolTableRecord
100
AcDbLinetypeTableRecord
  2
PHANTOM
 70
64
  3
_____ _ _ _____ _ _ _____ _ _ _____
 72
65
 73
6
 40
0.8
 49
0.45
 74
0
 49
-0.05
 74
0
 49
0.1
 74
0
 49
-0.05
 74
0
 49
0.1
 74
0
 49
-0.05
 74
0
  0
LTYPE
  5
1F8
100
AcDbSymbolTableRecord
100
AcDbLinetypeTableRecord
  2
DOT
 70
64
  3
. . . . . . . . . . . . . . . . . . . .
 72
65
 73
2
 40
0.2
 49
0.1
 74
0
 49
-0.1
 74
0
  0
LTYPE
  5
1F9
100
AcDbSymbolTableRecord
100
AcDbLinetypeTableRecord
  2
DASHED
 70
64
  3
- - - - - - - - - - - - - - - - - - - -
 72
65
 73
2
 40
0.2
 49
0.1
 74
0
 49
-0.1
 74
0
  0
ENDTAB
  0
TABLE
  2
LAYER
  5
2
100
AcDbSymbolTable
 70
36
  0
LAYER
  5
10
100
AcDbSymbolTableRecord
100
AcDbLayerTableRecord
  2
0
 70
0
 62
7
  6
CONTINUOUS
370
-3
390
F
  0
LAYER
  5
1FA
100
AcDbSymbolTableRecord
100
AcDbLayerTableRecord
  2
DEFAULT_1
 70
0
 62
7
  6
CENTER
370
-3
390
F
  0
LAYER
  5
1FB
100
AcDbSymbolTableRecord
100
AcDbLayerTableRecord
  2
DEFAULT_2
 70
0
 62
8
  6
HIDDEN
370
-3
390
F
  0
LAYER
  5
1FC
100
AcDbSymbolTableRecord
100
AcDbLayerTableRecord
  2
DEFAULT_3
 70
0
 62
7
  6
PHANTOM
370
-3
390
F
  0
LAYER
  5
1FD
100
AcDbSymbolTableRecord
100
AcDbLayerTableRecord
  2
AUSFORMSCHRAEGEN
 70
0
 62
7
  6
CONTINUOUS
370
-3
390
F
  0
LAYER
  5
1FE
100
AcDbSymbolTableRecord
100
AcDbLayerTableRecord
  2
BEZUGSACHSEN
 70
0
 62
7
  6
CONTINUOUS
370
-3
390
F
  0
LAYER
  5
1FF
100
AcDbSymbolTableRecord
100
AcDbLayerTableRecord
  2
BEZUGSEBENEN
 70
0
 62
7
  6
CONTINUOUS
370
-3
390
F
  0
LAYER
  5
200
100
AcDbSymbolTableRecord
100
AcDbLayerTableRecord
  2
BG_STARTBEZUEGE
 70
0
 62
7
  6
CONTINUOUS
370
-3
390
F
  0
LAYER
  5
201
100
AcDbSymbolTableRecord
100
AcDbLayerTableRecord
  2
BOHRUNGEN
 70
0
 62
7
  6
CONTINUOUS
370
-3
390
F
  0
LAYER
  5
202
100
AcDbSymbolTableRecord
100
AcDbLayerTableRecord
  2
FASEN
 70
0
 62
7
  6
CONTINUOUS
370
-3
390
F
  0
LAYER
  5
203
100
AcDbSymbolTableRecord
100
AcDbLayerTableRecord
  2
FLAECHEN
 70
0
 62
7
  6
CONTINUOUS
370
-3
390
F
  0
LAYER
  5
204
100
AcDbSymbolTableRecord
100
AcDbLayerTableRecord
  2
FLAECHENVERBUND
 70
0
 62
7
  6
CONTINUOUS
370
-3
390
F
  0
LAYER
  5
205
100
AcDbSymbolTableRecord
100
AcDbLayerTableRecord
  2
HILFEN
 70
0
 62
7
  6
CONTINUOUS
370
-3
390
F
  0
LAYER
  5
206
100
AcDbSymbolTableRecord
100
AcDbLayerTableRecord
  2
KONSTRUKTIONSELEMENTE
 70
0
 62
7
  6
CONTINUOUS
370
-3
390
F
  0
LAYER
  5
207
100
AcDbSymbolTableRecord
100
AcDbLayerTableRecord
  2
KURVEN
 70
0
 62
7
  6
CONTINUOUS
370
-3
390
F
  0
LAYER
  5
208
100
AcDbSymbolTableRecord
100
AcDbLayerTableRecord
  2
NORM
 70
0
 62
7
  6
CONTINUOUS
370
-3
390
F
  0
LAYER
  5
209
100
AcDbSymbolTableRecord
100
AcDbLayerTableRecord
  2
PLATZIERUNG
 70
0
 62
7
  6
CONTINUOUS
370
-3
390
F
  0
LAYER
  5
20A
100
AcDbSymbolTableRecord
100
AcDbLayerTableRecord
  2
RUNDUNGEN
 70
0
 62
7
  6
CONTINUOUS
370
-3
390
F
  0
LAYER
  5
20B
100
AcDbSymbolTableRecord
100
AcDbLayerTableRecord
  2
TEIL_STARTBEZUEGE
 70
0
 62
7
  6
CONTINUOUS
370
-3
390
F
  0
LAYER
  5
20C
100
AcDbSymbolTableRecord
100
AcDbLayerTableRecord
  2
T_STARTBEZUEGE
 70
0
 62
7
  6
CONTINUOUS
370
-3
390
F
  0
LAYER
  5
20D
100
AcDbSymbolTableRecord
100
AcDbLayerTableRecord
  2
XSEC_DATUMS
 70
0
 62
7
  6
CONTINUOUS
370
-3
390
F
  0
ENDTAB
  0
TABLE
  2
STYLE
  5
3
100
AcDbSymbolTable
 70
1
  0
STYLE
  5
11
100
AcDbSymbolTableRecord
100
AcDbTextStyleTableRecord
  2
STANDARD
 70
0
 40
0.0
 41
0.7
 50
0.0
 71
0
 42
0.2
  3
txt
  4

  0
STYLE
  5
20E
100
AcDbSymbolTableRecord
100
AcDbTextStyleTableRecord
  2
TEXTSTYLE_1
 70
0
 40
0.0
 41
0.8
 50
0.0
 71
0
 42
0.2
  3
gdt
  4

  0
ENDTAB
  0
TABLE
  2
VIEW
  5
6
100
AcDbSymbolTable
 70
0
  0
ENDTAB
  0
TABLE
  2
UCS
  5
7
100
AcDbSymbolTable
 70
0
  0
ENDTAB
  0
TABLE
  2
APPID
  5
9
100
AcDbSymbolTable
 70
1
  0
APPID
  5
20F
100
AcDbSymbolTableRecord
100
AcDbRegAppTableRecord
  2
ACAD
 70
0
  0
ENDTAB
  0
TABLE
  2
BLOCK_RECORD
  5
1
100
AcDbSymbolTable
 70
0
  0
BLOCK_RECORD
  5
210
100
AcDbSymbolTableRecord
100
AcDbBlockTableRecord
  2
*Model_Space
  0
BLOCK_RECORD
  5
211
100
AcDbSymbolTableRecord
100
AcDbBlockTableRecord
  2
*Paper_Space
  0
ENDTAB
  0
TABLE
  2
DIMSTYLE
  5
A
100
AcDbSymbolTable
 70
1
100
AcDbDimStyleTable
 71
0
  0
DIMSTYLE
105
212
100
AcDbSymbolTableRecord
100
AcDbDimStyleTableRecord
  2
STANDARD
 70
0
  3

  4

 40
1.0
 41
3.5
 42
0.0625
 43
0.38
 44
0.18
 45
0.0
 46
0.0
 47
0.005
 48
0.005
140
3.5
141
0.09
142
0.0
143
25.4
144
1.0
145
0.0
146
1.0
147
0.09
 71
1.0
 72
0.0
 73
0
 74
0
 75
0
 76
0
 77
1
 78
8
170
0
171
2
172
0
173
0
174
0
175
0
176
0
177
0
178
5
270
2
271
3
272
3
273
2
274
2
275
0
280
0
281
0
282
0
283
1
284
8
285
0
286
0
287
3
288
0
340
11
  0
ENDTAB
  0
ENDSEC
  0
SECTION
  2
BLOCKS
  0
BLOCK
  5
20
100
AcDbEntity
  8
0
100
AcDbBlockBegin
  2
*Model_Space
 70
0
 10
0.0
 20
0.0
 30
0.0
  3
*Model_Space
  1

  0
ENDBLK
  5
21
100
AcDbEntity
  8
0
100
AcDbBlockEnd
  0
BLOCK
  5
1C
100
AcDbEntity
  8
0
100
AcDbBlockBegin
  2
*Paper_Space
 70
0
 10
0.0
 20
0.0
 30
0.0
  3
*Paper_Space
  1

  0
ENDBLK
  5
1D
100
AcDbEntity
  8
0
100
AcDbBlockEnd
  0
ENDSEC
  0
SECTION
  2
ENTITIES
  0
MTEXT
  5
213
100
AcDbEntity
  8
0
100
AcDbMText
 62
5
  6
CONTINUOUS
  7
STANDARD
 71
2
 72
1
 10
472.5437301461
 20
656.5921781743
 30
0.0
 11
1.0
 21
0.0
 31
0.0
 44
0.9
  1
RUD\PICE\PCURT-K\P16
 40
7.0
 41
33.3333333333
  0
MTEXT
  5
214
100
AcDbEntity
  8
0
100
AcDbMText
 62
5
  6
CONTINUOUS
  7
STANDARD
 71
1
 72
1
 10
1012.8052826393
 20
564.2933604619
 30
0.0
 11
0.0
 21
1.0
 31
0.0
 44
0.9
  1
RUD
 40
7.0
 41
18.6666666667
  0
MTEXT
  5
215
100
AcDbEntity
  8
0
100
AcDbMText
 62
5
  6
CONTINUOUS
  7
STANDARD
 71
1
 72
1
 10
1013.2889250081
 20
680.5793683253
 30
0.0
 11
0.0
 21
1.0
 31
0.0
 44
0.9
  1
ICE-CURT-K-16
 40
5.5
 41
54.6071428571
  0
MTEXT
  5
216
100
AcDbEntity
  8
0
100
AcDbMText
 62
5
  6
CONTINUOUS
  7
STANDARD
 71
1
 72
1
 10
542.3399565764
 20
349.8947869438
 30
0.0
 11
1.0
 21
0.0
 31
0.0
 44
0.9
  1
RUD ICE-CURT-K-16
 40
7.0
 41
92.3333333333
  0
LINE
  5
217
100
AcDbEntity
  8
0
100
AcDbLine
 62
7
  6
CONTINUOUS
 10
0.0
 20
0.0
 11
0.0
 21
841.0
  0
LINE
  5
218
100
AcDbEntity
  8
0
100
AcDbLine
 62
7
  6
CONTINUOUS
 10
0.0
 20
0.0
 11
1189.0
 21
0.0
  0
LINE
  5
219
100
AcDbEntity
  8
0
100
AcDbLine
 62
7
  6
CONTINUOUS
 10
0.0
 20
841.0
 11
1189.0
 21
841.0
  0
LINE
  5
21A
100
AcDbEntity
  8
0
100
AcDbLine
 62
7
  6
CONTINUOUS
 10
1189.0
 20
0.0
 11
1189.0
 21
841.0
  0
LINE
  5
21B
100
AcDbEntity
  8
BEZUGSACHSEN
100
AcDbLine
 62
7
  6
CONTINUOUS
 10
51.239859491
 20
627.2193233033
 11
51.239859491
 21
646.1193233033
  0
LINE
  5
21C
100
AcDbEntity
  8
BEZUGSACHSEN
100
AcDbLine
 62
7
  6
CONTINUOUS
 10
71.239859491
 20
627.2193233033
 11
71.239859491
 21
646.1193233033
  0
LINE
  5
21D
100
AcDbEntity
  8
0
100
AcDbLine
 62
7
  6
CONTINUOUS
 10
74.2919434601
 20
660.4671955486
 11
74.2919434601
 21
658.871450909
  0
LINE
  5
21E
100
AcDbEntity
  8
0
100
AcDbLine
 62
7
  6
CONTINUOUS
 10
74.9169434601
 20
658.871450909
 11
74.9169434601
 21
660.4671955486
  0
LINE
  5
21F
100
AcDbEntity
  8
0
100
AcDbLine
 62
7
  6
CONTINUOUS
 10
79.1877768928
 20
662.1693233033
 11
79.1877768928
 21
658.871450909
  0
LINE
  5
220
100
AcDbEntity
  8
0
100
AcDbLine
 62
7
  6
CONTINUOUS
 10
79.8127765948
 20
658.871450909
 11
79.8127765948
 21
662.1693233033
  0
LINE
  5
221
100
AcDbEntity
  8
0
100
AcDbLine
 62
7
  6
CONTINUOUS
 10
74.3961101299
 20
660.9991106768
 11
74.2919434601
 21
660.4671955486
  0
LINE
  5
222
100
AcDbEntity
  8
0
100
AcDbLine
 62
7
  6
CONTINUOUS
 10
74.9169434601
 20
660.4671955486
 11
75.0211101019
 21
660.8927274128
  0
LINE
  5
223
100
AcDbEntity
  8
0
100
AcDbLine
 62
7
  6
CONTINUOUS
 10
82.3127765948
 20
662.1693233033
 11
82.3127765948
 21
658.871450909
  0
LINE
  5
224
100
AcDbEntity
  8
0
100
AcDbLine
 62
7
  6
CONTINUOUS
 10
82.9377765948
 20
658.871450909
 11
82.9377765948
 21
662.1693233033
  0
LINE
  5
225
100
AcDbEntity
  8
0
100
AcDbLine
 62
7
  6
CONTINUOUS
 10
83.7711103255
 20
662.1693233033
 11
83.7711103255
 21
657.1693233033
  0
LINE
  5
226
100
AcDbEntity
  8
0
100
AcDbLine
 62
7
  6
CONTINUOUS
 10
84.3961097294
 20
657.1693233033
 11
84.3961097294
 21
659.4033658882
  0
LINE
  5
227
100
AcDbEntity
  8
0
100
AcDbLine
 62
7
  6
CONTINUOUS
 10
84.3961097294
 20
660.0416636844
 11
84.3961097294
 21
661.6374084731
  0
LINE
  5
228
100
AcDbEntity
  8
0
100
AcDbLine
 62
7
  6
CONTINUOUS
 10
87.0002771908
 20
660.9991106768
 11
87.0002771908
 21
660.6799614807
  0
LINE
  5
229
100
AcDbEntity
  8
0
100
AcDbLine
 62
7
  6
CONTINUOUS
 10
87.6252771908
 20
660.5735785146
 11
87.6252771908
 21
660.9991106768
  0
LINE
  5
22A
100
AcDbEntity
  8
0
100
AcDbLine
 62
7
  6
CONTINUOUS
 10
88.5627771908
 20
662.1693233033
 11
88.5627771908
 21
661.6374084731
  0
LINE
  5
22B
100
AcDbEntity
  8
0
100
AcDbLine
 62
7
  6
CONTINUOUS
 10
90.2294434601
 20
661.6374084731
 11
90.2294434601
 21
657.1693233033
  0
LINE
  5
22C
100
AcDbEntity
  8
0
100
AcDbLine
 62
7
  6
CONTINUOUS
 10
90.8544434601
 20
657.1693233033
 11
90.8544434601
 21
661.6374084731
  0
LINE
  5
22D
100
AcDbEntity
  8
0
100
AcDbLine
 62
7
  6
CONTINUOUS
 10
92.5211097294
 20
661.6374084731
 11
92.5211097294
 21
662.1693233033
  0
LINE
  5
22E
100
AcDbEntity
  8
0
100
AcDbLine
 62
7
  6
CONTINUOUS
 10
93.3544434601
 20
661.424642541
 11
93.3544434601
 21
660.5735785146
  0
LINE
  5
22F
100
AcDbEntity
  8
0
100
AcDbLine
 62
7
  6
CONTINUOUS
 10
93.9794434601
 20
661.318259575
 11
93.9794434601
 21
657.1693233033
  0
LINE
  5
230
100
AcDbEntity
  8
0
100
AcDbLine
 62
7
  6
CONTINUOUS
 10
94.6044434601
 20
657.1693233033
 11
94.6044434601
 21
662.1693233033
  0
LINE
  5
231
100
AcDbEntity
  8
0
100
AcDbLine
 62
7
  6
CONTINUOUS
 10
95.4377759987
 20
660.0416636844
 11
95.4377759987
 21
659.2969829221
  0
LINE
  5
232
100
AcDbEntity
  8
0
100
AcDbLine
 62
7
  6
CONTINUOUS
 10
95.9586109215
 20
659.8288977523
 11
95.9586109215
 21
660.0416636844
  0
LINE
  5
233
100
AcDbEntity
  8
0
100
AcDbLine
 62
7
  6
CONTINUOUS
 10
96.0627759987
 20
658.6586849769
 11
96.0627759987
 21
658.977833875
  0
LINE
  5
234
100
AcDbEntity
  8
0
100
AcDbLine
 62
7
  6
CONTINUOUS
 10
98.6669434601
 20
658.977833875
 11
98.6669434601
 21
658.6586849769
  0
LINE
  5
235
100
AcDbEntity
  8
0
100
AcDbLine
 62
7
  6
CONTINUOUS
 10
99.1877759987
 20
658.5523020108
 11
99.1877759987
 21
659.0842169901
  0
LINE
  5
236
100
AcDbEntity
  8
BEZUGSACHSEN
100
AcDbLine
 62
7
  6
CONTINUOUS
 10
110.239859491
 20
673.6693233033
 11
110.239859491
 21
599.6693233033
  0
LINE
  5
237
100
AcDbEntity
  8
0
100
AcDbLine
 62
7
  6
CONTINUOUS
 10
95.5419434601
 20
660.7863444467
 11
95.4377759987
 21
660.0416636844
  0
LINE
  5
238
100
AcDbEntity
  8
0
100
AcDbLine
 62
7
  6
CONTINUOUS
 10
95.9586109215
 20
660.0416636844
 11
96.0627759987
 21
660.6799614807
  0
LINE
  5
239
100
AcDbEntity
  8
0
100
AcDbLine
 62
7
  6
CONTINUOUS
 10
78.2502768928
 20
657.9140041401
 11
78.3544434601
 21
658.4459190448
  0
LINE
  5
23A
100
AcDbEntity
  8
0
100
AcDbLine
 62
7
  6
CONTINUOUS
 10
82.8336103255
 20
658.3395360788
 11
82.9377765948
 21
658.871450909
  0
LINE
  5
23B
100
AcDbEntity
  8
0
100
AcDbLine
 62
7
  6
CONTINUOUS
 10
82.3127765948
 20
658.871450909
 11
82.2086103255
 21
658.4459190448
  0
LINE
  5
23C
100
AcDbEntity
  8
0
100
AcDbLine
 62
7
  6
CONTINUOUS
 10
77.7294434601
 20
658.4459190448
 11
77.6252768928
 21
658.1267701467
  0
LINE
  5
23D
100
AcDbEntity
  8
0
100
AcDbLine
 62
7
  6
CONTINUOUS
 10
87.0002771908
 20
660.6799614807
 11
86.8961097294
 21
660.3608125826
  0
LINE
  5
23E
100
AcDbEntity
  8
0
100
AcDbLine
 62
7
  6
CONTINUOUS
 10
87.5211097294
 20
660.2544296165
 11
87.6252771908
 21
660.5735785146
  0
LINE
  5
23F
100
AcDbEntity
  8
0
100
AcDbLine
 62
7
  6
CONTINUOUS
 10
96.0627759987
 20
660.6799614807
 11
96.1669434601
 21
660.9991106768
  0
LINE
  5
240
100
AcDbEntity
  8
0
100
AcDbLine
 62
7
  6
CONTINUOUS
 10
96.0627759987
 20
658.977833875
 11
96.1669434601
 21
659.2969829221
  0
LINE
  5
241
100
AcDbEntity
  8
0
100
AcDbLine
 62
7
  6
CONTINUOUS
 10
98.6669434601
 20
658.6586849769
 11
98.5627759987
 21
658.3395360788
  0
LINE
  5
242
100
AcDbEntity
  8
0
100
AcDbLine
 62
7
  6
CONTINUOUS
 10
74.6044434601
 20
661.424642541
 11
74.3961101299
 21
660.9991106768
  0
LINE
  5
243
100
AcDbEntity
  8
0
100
AcDbLine
 62
7
  6
CONTINUOUS
 10
77.6252768928
 20
661.2118766089
 11
77.7294434601
 21
660.8927274128
  0
LINE
  5
244
100
AcDbEntity
  8
0
100
AcDbLine
 62
7
  6
CONTINUOUS
 10
75.0211101019
 20
658.4459190448
 11
74.9169434601
 21
658.871450909
  0
LINE
  5
245
100
AcDbEntity
  8
0
100
AcDbLine
 62
7
  6
CONTINUOUS
 10
79.9169434601
 20
658.4459190448
 11
79.8127765948
 21
658.871450909
  0
LINE
  5
246
100
AcDbEntity
  8
0
100
AcDbLine
 62
7
  6
CONTINUOUS
 10
74.2919434601
 20
658.871450909
 11
74.3961101299
 21
658.3395360788
  0
LINE
  5
247
100
AcDbEntity
  8
0
100
AcDbLine
 62
7
  6
CONTINUOUS
 10
78.3544434601
 20
660.8927274128
 11
78.2502768928
 21
661.424642541
  0
LINE
  5
248
100
AcDbEntity
  8
0
100
AcDbLine
 62
7
  6
CONTINUOUS
 10
79.1877768928
 20
658.871450909
 11
79.2919434601
 21
658.3395360788
  0
LINE
  5
249
100
AcDbEntity
  8
0
100
AcDbLine
 62
7
  6
CONTINUOUS
 10
95.4377759987
 20
659.2969829221
 11
95.5419434601
 21
658.5523020108
  0
LINE
  5
24A
100
AcDbEntity
  8
0
100
AcDbLine
 62
7
  6
CONTINUOUS
 10
95.7502759987
 20
661.318259575
 11
95.5419434601
 21
660.7863444467
  0
LINE
  5
24B
100
AcDbEntity
  8
0
100
AcDbLine
 62
7
  6
CONTINUOUS
 10
98.9794434601
 20
658.0203871061
 11
99.1877759987
 21
658.5523020108
  0
LINE
  5
24C
100
AcDbEntity
  8
0
100
AcDbLine
 62
7
  6
CONTINUOUS
 10
82.6252765948
 20
657.9140041401
 11
82.8336103255
 21
658.3395360788
  0
LINE
  5
24D
100
AcDbEntity
  8
0
100
AcDbLine
 62
7
  6
CONTINUOUS
 10
75.0211101019
 20
660.8927274128
 11
75.2294434601
 21
661.2118766089
  0
LINE
  5
24E
100
AcDbEntity
  8
0
100
AcDbLine
 62
7
  6
CONTINUOUS
 10
82.2086103255
 20
658.4459190448
 11
82.0002765948
 21
658.1267701467
  0
LINE
  5
24F
100
AcDbEntity
  8
BEZUGSACHSEN
100
AcDbLine
 62
7
  6
CONTINUOUS
 10
37.8927837068
 20
669.6296886317
 11
43.4146015196
 21
675.3476983641
  0
LINE
  5
250
100
AcDbEntity
  8
0
100
AcDbLine
 62
7
  6
CONTINUOUS
 10
43.4146015196
 20
597.9909482425
 11
37.8927837068
 21
603.7089579748
  0
LINE
  5
251
100
AcDbEntity
  8
0
100
AcDbLine
 62
7
  6
CONTINUOUS
 10
74.3961101299
 20
658.3395360788
 11
74.6044434601
 21
657.9140041401
  0
LINE
  5
252
100
AcDbEntity
  8
0
100
AcDbLine
 62
7
  6
CONTINUOUS
 10
79.2919434601
 20
658.3395360788
 11
79.5002765948
 21
657.9140041401
  0
LINE
  5
253
100
AcDbEntity
  8
0
100
AcDbLine
 62
7
  6
CONTINUOUS
 10
95.5419434601
 20
658.5523020108
 11
95.7502759987
 21
658.0203871061
  0
LINE
  5
254
100
AcDbEntity
  8
0
100
AcDbLine
 62
7
  6
CONTINUOUS
 10
99.1877759987
 20
659.0842169901
 11
98.9794434601
 21
659.6161318203
  0
LINE
  5
255
100
AcDbEntity
  8
0
100
AcDbLine
 62
7
  6
CONTINUOUS
 10
87.7294434601
 20
657.1693233033
 11
86.7919434601
 21
659.6161318203
  0
LINE
  5
256
100
AcDbEntity
  8
0
100
AcDbLine
 62
7
  6
CONTINUOUS
 10
86.1669434601
 20
659.4033658882
 11
87.0002771908
 21
657.1693233033
  0
LINE
  5
257
100
AcDbEntity
  8
0
100
AcDbLine
 62
7
  6
CONTINUOUS
 10
86.8961097294
 20
661.318259575
 11
87.0002771908
 21
660.9991106768
  0
LINE
  5
258
100
AcDbEntity
  8
0
100
AcDbLine
 62
7
  6
CONTINUOUS
 10
87.6252771908
 20
660.9991106768
 11
87.5211097294
 21
661.318259575
  0
LINE
  5
259
100
AcDbEntity
  8
0
100
AcDbLine
 62
7
  6
CONTINUOUS
 10
96.1669434601
 20
658.3395360788
 11
96.0627759987
 21
658.6586849769
  0
LINE
  5
25A
100
AcDbEntity
  8
0
100
AcDbLine
 62
7
  6
CONTINUOUS
 10
98.5627759987
 20
659.2969829221
 11
98.6669434601
 21
658.977833875
  0
LINE
  5
25B
100
AcDbEntity
  8
0
100
AcDbLine
 62
7
  6
CONTINUOUS
 10
98.9794434601
 20
660.9991106768
 11
98.8752759987
 21
661.318259575
  0
LINE
  5
25C
100
AcDbEntity
  8
RUNDUNGEN
100
AcDbLine
 62
7
  6
CONTINUOUS
 10
169.239859491
 20
604.1695881371
 11
169.239859491
 21
669.1693233033
  0
LINE
  5
25D
100
AcDbEntity
  8
0
100
AcDbLine
 62
7
  6
CONTINUOUS
 10
96.1669434601
 20
660.9991106768
 11
96.3752759987
 21
661.318259575
  0
LINE
  5
25E
100
AcDbEntity
  8
0
100
AcDbLine
 62
7
  6
CONTINUOUS
 10
98.5627759987
 20
658.3395360788
 11
98.3544434601
 21
658.0203871061
  0
LINE
  5
25F
100
AcDbEntity
  8
0
100
AcDbLine
 62
7
  6
CONTINUOUS
 10
87.2086097294
 20
659.8288977523
 11
87.5211097294
 21
660.2544296165
  0
LINE
  5
260
100
AcDbEntity
  8
0
100
AcDbLine
 62
7
  6
CONTINUOUS
 10
96.0627759987
 20
661.7437914391
 11
95.7502759987
 21
661.318259575
  0
LINE
  5
261
100
AcDbEntity
  8
0
100
AcDbLine
 62
7
  6
CONTINUOUS
 10
98.6669434601
 20
657.5948552047
 11
98.9794434601
 21
658.0203871061
  0
LINE
  5
262
100
AcDbEntity
  8
0
100
AcDbLine
 62
7
  6
CONTINUOUS
 10
93.9794434601
 20
662.1693233033
 11
93.3544434601
 21
661.424642541
  0
LINE
  5
263
100
AcDbEntity
  8
0
100
AcDbLine
 62
7
  6
CONTINUOUS
 10
93.3544434601
 20
660.5735785146
 11
93.9794434601
 21
661.318259575
  0
LINE
  5
264
100
AcDbEntity
  8
0
100
AcDbLine
 62
7
  6
CONTINUOUS
 10
75.0211101019
 20
661.8501744052
 11
74.6044434601
 21
661.424642541
  0
LINE
  5
265
100
AcDbEntity
  8
0
100
AcDbLine
 62
7
  6
CONTINUOUS
 10
75.2294434601
 20
658.1267701467
 11
75.0211101019
 21
658.4459190448
  0
LINE
  5
266
100
AcDbEntity
  8
0
100
AcDbLine
 62
7
  6
CONTINUOUS
 10
80.1252765948
 20
658.1267701467
 11
79.9169434601
 21
658.4459190448
  0
LINE
  5
267
100
AcDbEntity
  8
0
100
AcDbLine
 62
7
  6
CONTINUOUS
 10
96.3752759987
 20
658.0203871061
 11
96.1669434601
 21
658.3395360788
  0
LINE
  5
268
100
AcDbEntity
  8
RUNDUNGEN
100
AcDbLine
 62
7
  6
CONTINUOUS
 10
175.239859491
 20
670.6690462901
 11
175.239859491
 21
602.6696003165
  0
LINE
  5
269
100
AcDbEntity
  8
0
100
AcDbLine
 62
7
  6
CONTINUOUS
 10
77.8336100274
 20
657.4884722387
 11
78.2502768928
 21
657.9140041401
  0
LINE
  5
26A
100
AcDbEntity
  8
0
100
AcDbLine
 62
7
  6
CONTINUOUS
 10
82.2086103255
 20
657.4884722387
 11
82.6252765948
 21
657.9140041401
  0
LINE
  5
26B
100
AcDbEntity
  8
0
100
AcDbLine
 62
7
  6
CONTINUOUS
 10
86.8961097294
 20
660.3608125826
 11
86.6877771908
 21
660.1480466505
  0
LINE
  5
26C
100
AcDbEntity
  8
0
100
AcDbLine
 62
7
  6
CONTINUOUS
 10
96.1669434601
 20
659.2969829221
 11
96.3752759987
 21
659.5097488542
  0
LINE
  5
26D
100
AcDbEntity
  8
0
100
AcDbLine
 62
7
  6
CONTINUOUS
 10
87.5211097294
 20
661.318259575
 11
87.2086097294
 21
661.7437914391
  0
LINE
  5
26E
100
AcDbEntity
  8
0
100
AcDbLine
 62
7
  6
CONTINUOUS
 10
95.7502759987
 20
658.0203871061
 11
96.0627759987
 21
657.5948552047
  0
LINE
  5
26F
100
AcDbEntity
  8
0
100
AcDbLine
 62
7
  6
CONTINUOUS
 10
98.8752759987
 20
661.318259575
 11
98.5627759987
 21
661.7437914391
  0
LINE
  5
270
100
AcDbEntity
  8
0
100
AcDbLine
 62
7
  6
CONTINUOUS
 10
98.2502759987
 20
661.318259575
 11
98.4586109215
 21
660.9991106768
  0
LINE
  5
271
100
AcDbEntity
  8
RUNDUNGEN
100
AcDbLine
 62
7
  6
CONTINUOUS
 10
220.739859491
 20
605.6693233033
 11
220.739859491
 21
667.6693233033
  0
LINE
  5
272
100
AcDbEntity
  8
RUNDUNGEN
100
AcDbLine
 62
7
  6
CONTINUOUS
 10
232.239859491
 20
631.0577022269
 11
232.239859491
 21
642.2809453632
  0
LINE
  5
273
100
AcDbEntity
  8
0
100
AcDbLine
 62
7
  6
CONTINUOUS
 10
75.2294434601
 20
661.2118766089
 11
75.5419434601
 21
661.424642541
  0
LINE
  5
274
100
AcDbEntity
  8
0
100
AcDbLine
 62
7
  6
CONTINUOUS
 10
77.6252768928
 20
658.1267701467
 11
77.3127768928
 21
657.9140041401
  0
LINE
  5
275
100
AcDbEntity
  8
0
100
AcDbLine
 62
7
  6
CONTINUOUS
 10
74.6044434601
 20
657.9140041401
 11
75.0211101019
 21
657.4884722387
  0
LINE
  5
276
100
AcDbEntity
  8
0
100
AcDbLine
 62
7
  6
CONTINUOUS
 10
79.5002765948
 20
657.9140041401
 11
79.9169434601
 21
657.4884722387
  0
LINE
  5
277
100
AcDbEntity
  8
0
100
AcDbLine
 62
7
  6
CONTINUOUS
 10
78.2502768928
 20
661.424642541
 11
77.8336100274
 21
661.8501744052
  0
LINE
  5
278
100
AcDbEntity
  8
0
100
AcDbLine
 62
7
  6
CONTINUOUS
 10
86.6877771908
 20
661.531025507
 11
86.8961097294
 21
661.318259575
  0
LINE
  5
279
100
AcDbEntity
  8
0
100
AcDbLine
 62
7
  6
CONTINUOUS
 10
98.3544434601
 20
659.5097488542
 11
98.5627759987
 21
659.2969829221
  0
LINE
  5
27A
100
AcDbEntity
  8
0
100
AcDbLine
 62
7
  6
CONTINUOUS
 10
98.9794434601
 20
659.6161318203
 11
98.6669434601
 21
659.9352807184
  0
LINE
  5
27B
100
AcDbEntity
  8
RUNDUNGEN
100
AcDbLine
 62
7
  6
CONTINUOUS
 10
259.239859491
 20
644.1693233033
 11
259.239859491
 21
629.1693233033
  0
LINE
  5
27C
100
AcDbEntity
  8
0
100
AcDbLine
 62
7
  6
CONTINUOUS
 10
82.0002765948
 20
658.1267701467
 11
81.6877765948
 21
657.9140041401
  0
LINE
  5
27D
100
AcDbEntity
  8
0
100
AcDbLine
 62
7
  6
CONTINUOUS
 10
96.3752759987
 20
661.318259575
 11
96.6877759987
 21
661.531025507
  0
LINE
  5
27E
100
AcDbEntity
  8
0
100
AcDbLine
 62
7
  6
CONTINUOUS
 10
96.5836109215
 20
660.2544296165
 11
95.9586109215
 21
659.8288977523
  0
LINE
  5
27F
100
AcDbEntity
  8
0
100
AcDbLine
 62
7
  6
CONTINUOUS
 10
96.3752759987
 20
659.5097488542
 11
96.6877759987
 21
659.7225147863
  0
LINE
  5
280
100
AcDbEntity
  8
0
100
AcDbLine
 62
7
  6
CONTINUOUS
 10
98.3544434601
 20
658.0203871061
 11
98.0419434601
 21
657.807621174
  0
LINE
  5
281
100
AcDbEntity
  8
0
100
AcDbLine
 62
7
  6
CONTINUOUS
 10
96.5836109215
 20
662.0629403372
 11
96.0627759987
 21
661.7437914391
  0
LINE
  5
282
100
AcDbEntity
  8
0
100
AcDbLine
 62
7
  6
CONTINUOUS
 10
98.1461109215
 20
657.2757062786
 11
98.6669434601
 21
657.5948552047
  0
LINE
  5
283
100
AcDbEntity
  8
0
100
AcDbLine
 62
7
  6
CONTINUOUS
 10
87.2086097294
 20
661.7437914391
 11
86.7919434601
 21
662.0629403372
  0
LINE
  5
284
100
AcDbEntity
  8
0
100
AcDbLine
 62
7
  6
CONTINUOUS
 10
75.4377768183
 20
662.0629403372
 11
75.0211101019
 21
661.8501744052
  0
LINE
  5
285
100
AcDbEntity
  8
0
100
AcDbLine
 62
7
  6
CONTINUOUS
 10
77.4169434601
 20
657.2757062786
 11
77.8336100274
 21
657.4884722387
  0
LINE
  5
286
100
AcDbEntity
  8
0
100
AcDbLine
 62
7
  6
CONTINUOUS
 10
81.7919434601
 20
657.2757062786
 11
82.2086103255
 21
657.4884722387
  0
LINE
  5
287
100
AcDbEntity
  8
0
100
AcDbLine
 62
7
  6
CONTINUOUS
 10
86.7919434601
 20
659.6161318203
 11
87.2086097294
 21
659.8288977523
  0
LINE
  5
288
100
AcDbEntity
  8
0
100
AcDbLine
 62
7
  6
CONTINUOUS
 10
96.0627759987
 20
657.5948552047
 11
96.5836109215
 21
657.2757062786
  0
LINE
  5
289
100
AcDbEntity
  8
0
100
AcDbLine
 62
7
  6
CONTINUOUS
 10
75.5419434601
 20
657.9140041401
 11
75.2294434601
 21
658.1267701467
  0
LINE
  5
28A
100
AcDbEntity
  8
0
100
AcDbLine
 62
7
  6
CONTINUOUS
 10
80.4377765948
 20
657.9140041401
 11
80.1252765948
 21
658.1267701467
  0
LINE
  5
28B
100
AcDbEntity
  8
0
100
AcDbLine
 62
7
  6
CONTINUOUS
 10
77.3127768928
 20
661.424642541
 11
77.6252768928
 21
661.2118766089
  0
LINE
  5
28C
100
AcDbEntity
  8
0
100
AcDbLine
 62
7
  6
CONTINUOUS
 10
96.6877759987
 20
657.807621174
 11
96.3752759987
 21
658.0203871061
  0
LINE
  5
28D
100
AcDbEntity
  8
0
100
AcDbLine
 62
7
  6
CONTINUOUS
 10
98.0419434601
 20
659.7225147863
 11
98.3544434601
 21
659.5097488542
  0
LINE
  5
28E
100
AcDbEntity
  8
0
100
AcDbLine
 62
7
  6
CONTINUOUS
 10
97.9377759987
 20
661.531025507
 11
98.2502759987
 21
661.318259575
  0
LINE
  5
28F
100
AcDbEntity
  8
0
100
AcDbLine
 62
7
  6
CONTINUOUS
 10
75.0211101019
 20
657.4884722387
 11
75.4377768183
 21
657.2757062786
  0
LINE
  5
290
100
AcDbEntity
  8
0
100
AcDbLine
 62
7
  6
CONTINUOUS
 10
79.9169434601
 20
657.4884722387
 11
80.3336103255
 21
657.2757062786
  0
LINE
  5
291
100
AcDbEntity
  8
0
100
AcDbLine
 62
7
  6
CONTINUOUS
 10
77.8336100274
 20
661.8501744052
 11
77.4169434601
 21
662.0629403372
  0
LINE
  5
292
100
AcDbEntity
  8
0
100
AcDbLine
 62
7
  6
CONTINUOUS
 10
98.6669434601
 20
659.9352807184
 11
98.1461109215
 21
660.2544296165
  0
LINE
  5
293
100
AcDbEntity
  8
0
100
AcDbLine
 62
7
  6
CONTINUOUS
 10
98.5627759987
 20
661.7437914391
 11
98.0419434601
 21
662.0629403372
  0
LINE
  5
294
100
AcDbEntity
  8
0
100
AcDbLine
 62
7
  6
CONTINUOUS
 10
335.239859491
 20
620.6693233033
 11
335.239859491
 21
622.8129168427
  0
LINE
  5
295
100
AcDbEntity
  8
0
100
AcDbLine
 62
7
  6
CONTINUOUS
 10
335.239859491
 20
628.6693233033
 11
335.239859491
 21
652.6693233033
  0
LINE
  5
296
100
AcDbEntity
  8
0
100
AcDbLine
 62
7
  6
CONTINUOUS
 10
340.239859491
 20
625.6693233033
 11
340.239859491
 21
647.6693233033
  0
LINE
  5
297
100
AcDbEntity
  8
0
100
AcDbLine
 62
7
  6
CONTINUOUS
 10
462.6321643364
 20
768.6693233033
 11
452.239859491
 21
762.6693233033
  0
LINE
  5
298
100
AcDbEntity
  8
0
100
AcDbLine
 62
7
  6
CONTINUOUS
 10
86.6877771908
 20
660.1480466505
 11
86.3752771908
 21
660.0416636844
  0
LINE
  5
299
100
AcDbEntity
  8
0
100
AcDbLine
 62
7
  6
CONTINUOUS
 10
96.6877759987
 20
661.531025507
 11
97.0002759987
 21
661.6374084731
  0
LINE
  5
29A
100
AcDbEntity
  8
0
100
AcDbLine
 62
7
  6
CONTINUOUS
 10
96.6877759987
 20
659.7225147863
 11
97.0002759987
 21
659.8288977523
  0
LINE
  5
29B
100
AcDbEntity
  8
0
100
AcDbLine
 62
7
  6
CONTINUOUS
 10
98.0419434601
 20
657.807621174
 11
97.7294434601
 21
657.701238208
  0
LINE
  5
29C
100
AcDbEntity
  8
0
100
AcDbLine
 62
7
  6
CONTINUOUS
 10
868.9377755219
 20
611.9140040656
 11
868.5211088055
 21
611.8076210995
  0
LINE
  5
29D
100
AcDbEntity
  8
0
100
AcDbLine
 62
7
  6
CONTINUOUS
 10
867.1669420892
 20
615.4246424665
 11
867.5836089545
 21
615.5310254325
  0
LINE
  5
29E
100
AcDbEntity
  8
0
100
AcDbLine
 62
7
  6
CONTINUOUS
 10
462.6321643364
 20
504.6693233033
 11
481.8475546456
 21
504.6693233033
  0
LINE
  5
29F
100
AcDbEntity
  8
0
100
AcDbLine
 62
7
  6
CONTINUOUS
 10
452.239859491
 20
510.6693233033
 11
492.239859491
 21
510.6693233033
  0
LINE
  5
2A0
100
AcDbEntity
  8
0
100
AcDbLine
 62
7
  6
CONTINUOUS
 10
452.239859491
 20
510.6693233033
 11
462.6321643364
 21
504.6693233033
  0
LINE
  5
2A1
100
AcDbEntity
  8
0
100
AcDbLine
 62
7
  6
CONTINUOUS
 10
358.239859491
 20
625.6693233033
 11
358.239859491
 21
647.6693233033
  0
LINE
  5
2A2
100
AcDbEntity
  8
0
100
AcDbLine
 62
7
  6
CONTINUOUS
 10
360.239859491
 20
627.6693233033
 11
360.239859491
 21
645.6693233033
  0
LINE
  5
2A3
100
AcDbEntity
  8
0
100
AcDbLine
 62
7
  6
CONTINUOUS
 10
240.5312477283
 20
603.5735630818
 11
243.6610632806
 21
605.7650835247
  0
LINE
  5
2A4
100
AcDbEntity
  8
0
100
AcDbLine
 62
7
  6
CONTINUOUS
 10
862.7919423872
 20
615.4246424665
 11
863.2086086565
 21
615.5310254325
  0
LINE
  5
2A5
100
AcDbEntity
  8
0
100
AcDbLine
 62
7
  6
CONTINUOUS
 10
868.5211088055
 20
611.1693233033
 11
869.0419421637
 21
611.2757062693
  0
LINE
  5
2A6
100
AcDbEntity
  8
0
100
AcDbLine
 62
7
  6
CONTINUOUS
 10
847.3752755219
 20
611.1693233033
 11
847.8961080605
 21
611.2757062693
  0
LINE
  5
2A7
100
AcDbEntity
  8
0
100
AcDbLine
 62
7
  6
CONTINUOUS
 10
867.5836089545
 20
616.1693233033
 11
867.0627755219
 21
616.0629403279
  0
LINE
  5
2A8
100
AcDbEntity
  8
0
100
AcDbLine
 62
7
  6
CONTINUOUS
 10
863.2086086565
 20
616.1693233033
 11
862.6877755219
 21
616.0629403279
  0
LINE
  5
2A9
100
AcDbEntity
  8
0
100
AcDbLine
 62
7
  6
CONTINUOUS
 10
847.3752755219
 20
612.977834024
 11
847.8961080605
 21
613.0842169901
  0
LINE
  5
2AA
100
AcDbEntity
  8
0
100
AcDbLine
 62
7
  6
CONTINUOUS
 10
846.8544429833
 20
616.1693233033
 11
846.3336080605
 21
616.0629403279
  0
LINE
  5
2AB
100
AcDbEntity
  8
0
100
AcDbLine
 62
7
  6
CONTINUOUS
 10
452.239859491
 20
521.6693233033
 11
492.239859491
 21
521.6693233033
  0
LINE
  5
2AC
100
AcDbEntity
  8
0
100
AcDbLine
 62
7
  6
CONTINUOUS
 10
460.9001135288
 20
536.6693233033
 11
483.5796054531
 21
536.6693233033
  0
LINE
  5
2AD
100
AcDbEntity
  8
0
100
AcDbLine
 62
7
  6
CONTINUOUS
 10
97.0002759987
 20
657.701238208
 11
96.6877759987
 21
657.807621174
  0
LINE
  5
2AE
100
AcDbEntity
  8
0
100
AcDbLine
 62
7
  6
CONTINUOUS
 10
86.3752771908
 20
661.6374084731
 11
86.6877771908
 21
661.531025507
  0
LINE
  5
2AF
100
AcDbEntity
  8
0
100
AcDbLine
 62
7
  6
CONTINUOUS
 10
97.7294434601
 20
659.8288977523
 11
98.0419434601
 21
659.7225147863
  0
LINE
  5
2B0
100
AcDbEntity
  8
0
100
AcDbLine
 62
7
  6
CONTINUOUS
 10
97.6252759987
 20
661.6374084731
 11
97.9377759987
 21
661.531025507
  0
LINE
  5
2B1
100
AcDbEntity
  8
0
100
AcDbLine
 62
7
  6
CONTINUOUS
 10
240.5312477283
 20
669.7650835247
 11
243.6610632806
 21
667.5735630818
  0
LINE
  5
2B2
100
AcDbEntity
  8
0
100
AcDbLine
 62
7
  6
CONTINUOUS
 10
340.239859491
 20
625.6693233033
 11
335.239859491
 21
620.6693233033
  0
LINE
  5
2B3
100
AcDbEntity
  8
0
100
AcDbLine
 62
7
  6
CONTINUOUS
 10
360.239859491
 20
627.6693233033
 11
358.239859491
 21
625.6693233033
  0
LINE
  5
2B4
100
AcDbEntity
  8
0
100
AcDbLine
 62
7
  6
CONTINUOUS
 10
75.4377768183
 20
657.2757062786
 11
75.9586101764
 21
657.1693233033
  0
LINE
  5
2B5
100
AcDbEntity
  8
0
100
AcDbLine
 62
7
  6
CONTINUOUS
 10
80.3336103255
 20
657.2757062786
 11
80.8544434601
 21
657.1693233033
  0
LINE
  5
2B6
100
AcDbEntity
  8
0
100
AcDbLine
 62
7
  6
CONTINUOUS
 10
75.9586101764
 20
657.807621174
 11
75.5419434601
 21
657.9140041401
  0
LINE
  5
2B7
100
AcDbEntity
  8
0
100
AcDbLine
 62
7
  6
CONTINUOUS
 10
80.8544434601
 20
657.807621174
 11
80.4377765948
 21
657.9140041401
  0
LINE
  5
2B8
100
AcDbEntity
  8
0
100
AcDbLine
 62
7
  6
CONTINUOUS
 10
76.8961100274
 20
661.531025507
 11
77.3127768928
 21
661.424642541
  0
LINE
  5
2B9
100
AcDbEntity
  8
0
100
AcDbLine
 62
7
  6
CONTINUOUS
 10
340.239859491
 20
647.6693233033
 11
335.239859491
 21
652.6693233033
  0
LINE
  5
2BA
100
AcDbEntity
  8
0
100
AcDbLine
 62
7
  6
CONTINUOUS
 10
360.239859491
 20
645.6693233033
 11
358.239859491
 21
647.6693233033
  0
LINE
  5
2BB
100
AcDbEntity
  8
0
100
AcDbLine
 62
7
  6
CONTINUOUS
 10
492.239859491
 20
751.6693233033
 11
483.5796054531
 21
736.6693233033
  0
LINE
  5
2BC
100
AcDbEntity
  8
0
100
AcDbLine
 62
7
  6
CONTINUOUS
 10
445.536859105
 20
666.7296306825
 11
446.5792114895
 21
667.1090159241
  0
LINE
  5
2BD
100
AcDbEntity
  8
BEZUGSACHSEN
100
AcDbLine
 62
7
  6
CONTINUOUS
 10
51.8429332831
 20
594.6693233033
 11
51.2406582643
 21
594.6693233033
  0
LINE
  5
2BE
100
AcDbEntity
  8
0
100
AcDbLine
 62
7
  6
CONTINUOUS
 10
51.2642189884
 20
594.6693233033
 11
51.8429332831
 21
594.6693233033
  0
LINE
  5
2BF
100
AcDbEntity
  8
RUNDUNGEN
100
AcDbLine
 62
7
  6
CONTINUOUS
 10
51.8429332831
 20
594.6693233033
 11
105.239859491
 21
594.6693233033
  0
LINE
  5
2C0
100
AcDbEntity
  8
BEZUGSACHSEN
100
AcDbLine
 62
7
  6
CONTINUOUS
 10
839.239859491
 20
594.6693233033
 11
893.2390607177
 21
594.6693233033
  0
LINE
  5
2C1
100
AcDbEntity
  8
0
100
AcDbLine
 62
7
  6
CONTINUOUS
 10
174.239859491
 20
601.6693233033
 11
171.739859491
 21
601.6693233033
  0
LINE
  5
2C2
100
AcDbEntity
  8
0
100
AcDbLine
 62
7
  6
CONTINUOUS
 10
223.739859491
 20
602.6693233033
 11
237.6633655466
 21
602.6693233033
  0
LINE
  5
2C3
100
AcDbEntity
  8
RUNDUNGEN
100
AcDbLine
 62
7
  6
CONTINUOUS
 10
721.3329681825
 20
606.1693233033
 11
700.5566402563
 21
606.1693233033
  0
LINE
  5
2C4
100
AcDbEntity
  8
BEZUGSACHSEN
100
AcDbLine
 62
7
  6
CONTINUOUS
 10
497.5584873492
 20
606.1693233033
 11
482.739859491
 21
606.1693233033
  0
LINE
  5
2C5
100
AcDbEntity
  8
BEZUGSACHSEN
100
AcDbLine
 62
7
  6
CONTINUOUS
 10
461.739859491
 20
606.1693233033
 11
446.9212316328
 21
606.1693233033
  0
LINE
  5
2C6
100
AcDbEntity
  8
0
100
AcDbLine
 62
7
  6
CONTINUOUS
 10
446.9212316328
 20
606.1693233033
 11
461.739859491
 21
606.1693233033
  0
LINE
  5
2C7
100
AcDbEntity
  8
0
100
AcDbLine
 62
7
  6
CONTINUOUS
 10
482.739859491
 20
606.1693233033
 11
497.5584873492
 21
606.1693233033
  0
LINE
  5
2C8
100
AcDbEntity
  8
0
100
AcDbLine
 62
7
  6
CONTINUOUS
 10
700.5566402563
 20
606.1693233033
 11
721.3329681825
 21
606.1693233033
  0
LINE
  5
2C9
100
AcDbEntity
  8
0
100
AcDbLine
 62
7
  6
CONTINUOUS
 10
246.5289454623
 20
606.6693233033
 11
445.1948389616
 21
606.6693233033
  0
LINE
  5
2CA
100
AcDbEntity
  8
0
100
AcDbLine
 62
7
  6
CONTINUOUS
 10
499.2848800203
 20
606.6693233033
 11
699.2119686751
 21
606.6693233033
  0
LINE
  5
2CB
100
AcDbEntity
  8
RUNDUNGEN
100
AcDbLine
 62
7
  6
CONTINUOUS
 10
96.239859491
 20
608.6693233033
 11
77.239859491
 21
608.6693233033
  0
LINE
  5
2CC
100
AcDbEntity
  8
BEZUGSACHSEN
100
AcDbLine
 62
7
  6
CONTINUOUS
 10
848.239859491
 20
608.6693233033
 11
867.239859491
 21
608.6693233033
  0
LINE
  5
2CD
100
AcDbEntity
  8
0
100
AcDbLine
 62
7
  6
CONTINUOUS
 10
96.5836109215
 20
657.2757062786
 11
97.1044434601
 21
657.1693233033
  0
LINE
  5
2CE
100
AcDbEntity
  8
0
100
AcDbLine
 62
7
  6
CONTINUOUS
 10
77.4169434601
 20
662.0629403372
 11
76.8961100274
 21
662.1693233033
  0
LINE
  5
2CF
100
AcDbEntity
  8
0
100
AcDbLine
 62
7
  6
CONTINUOUS
 10
86.7919434601
 20
662.0629403372
 11
86.2711097294
 21
662.1693233033
  0
LINE
  5
2D0
100
AcDbEntity
  8
0
100
AcDbLine
 62
7
  6
CONTINUOUS
 10
98.1461109215
 20
660.2544296165
 11
97.6252759987
 21
660.3608125826
  0
LINE
  5
2D1
100
AcDbEntity
  8
0
100
AcDbLine
 62
7
  6
CONTINUOUS
 10
98.0419434601
 20
662.0629403372
 11
97.5211109215
 21
662.1693233033
  0
LINE
  5
2D2
100
AcDbEntity
  8
0
100
AcDbLine
 62
7
  6
CONTINUOUS
 10
445.536859105
 20
606.6090159241
 11
446.5792114895
 21
606.2296306825
  0
LINE
  5
2D3
100
AcDbEntity
  8
0
100
AcDbLine
 62
7
  6
CONTINUOUS
 10
483.5796054531
 20
536.6693233033
 11
492.239859491
 21
521.6693233033
  0
LINE
  5
2D4
100
AcDbEntity
  8
RUNDUNGEN
100
AcDbLine
 62
7
  6
CONTINUOUS
 10
449.239859491
 20
644.1693233033
 11
449.239859491
 21
629.1693233033
  0
LINE
  5
2D5
100
AcDbEntity
  8
0
100
AcDbLine
 62
7
  6
CONTINUOUS
 10
452.239859491
 20
762.6693233033
 11
452.239859491
 21
751.6693233033
  0
LINE
  5
2D6
100
AcDbEntity
  8
0
100
AcDbLine
 62
7
  6
CONTINUOUS
 10
452.239859491
 20
521.6693233033
 11
452.239859491
 21
510.6693233033
  0
LINE
  5
2D7
100
AcDbEntity
  8
0
100
AcDbLine
 62
7
  6
CONTINUOUS
 10
462.239859491
 20
736.6693233033
 11
462.239859491
 21
667.0010081877
  0
LINE
  5
2D8
100
AcDbEntity
  8
0
100
AcDbLine
 62
7
  6
CONTINUOUS
 10
462.239859491
 20
606.3376384261
 11
462.239859491
 21
536.6693233033
  0
LINE
  5
2D9
100
AcDbEntity
  8
0
100
AcDbLine
 62
7
  6
CONTINUOUS
 10
846.9586080605
 20
611.1693233033
 11
847.3752755219
 21
611.1693233033
  0
LINE
  5
2DA
100
AcDbEntity
  8
0
100
AcDbLine
 62
7
  6
CONTINUOUS
 10
849.8752755219
 20
611.1693233033
 11
850.5002755219
 21
611.1693233033
  0
LINE
  5
2DB
100
AcDbEntity
  8
0
100
AcDbLine
 62
7
  6
CONTINUOUS
 10
851.9586092526
 20
611.1693233033
 11
855.9169417912
 21
611.1693233033
  0
LINE
  5
2DC
100
AcDbEntity
  8
0
100
AcDbLine
 62
7
  6
CONTINUOUS
 10
858.2086092526
 20
611.1693233033
 11
860.7086086565
 21
611.1693233033
  0
LINE
  5
2DD
100
AcDbEntity
  8
0
100
AcDbLine
 62
7
  6
CONTINUOUS
 10
861.5419423872
 20
611.1693233033
 11
862.1669423872
 21
611.1693233033
  0
LINE
  5
2DE
100
AcDbEntity
  8
0
100
AcDbLine
 62
7
  6
CONTINUOUS
 10
864.6669423872
 20
611.1693233033
 11
865.2919420892
 21
611.1693233033
  0
LINE
  5
2DF
100
AcDbEntity
  8
0
100
AcDbLine
 62
7
  6
CONTINUOUS
 10
867.5836089545
 20
611.1693233033
 11
868.5211088055
 21
611.1693233033
  0
LINE
  5
2E0
100
AcDbEntity
  8
0
100
AcDbLine
 62
7
  6
CONTINUOUS
 10
860.0836092526
 20
611.7012381335
 11
858.1044417912
 21
611.7012381335
  0
LINE
  5
2E1
100
AcDbEntity
  8
0
100
AcDbLine
 62
7
  6
CONTINUOUS
 10
855.9169417912
 20
611.7012381335
 11
854.2502755219
 21
611.7012381335
  0
LINE
  5
2E2
100
AcDbEntity
  8
0
100
AcDbLine
 62
7
  6
CONTINUOUS
 10
853.6252755219
 20
611.7012381335
 11
851.9586092526
 21
611.7012381335
  0
LINE
  5
2E3
100
AcDbEntity
  8
0
100
AcDbLine
 62
7
  6
CONTINUOUS
 10
847.4794429833
 20
611.7012381335
 11
846.8544429833
 21
611.7012381335
  0
LINE
  5
2E4
100
AcDbEntity
  8
0
100
AcDbLine
 62
7
  6
CONTINUOUS
 10
868.5211088055
 20
611.8076210995
 11
867.5836089545
 21
611.8076210995
  0
LINE
  5
2E5
100
AcDbEntity
  8
0
100
AcDbLine
 62
7
  6
CONTINUOUS
 10
846.0211080605
 20
612.3395359297
 11
845.5002755219
 21
612.3395359297
  0
LINE
  5
2E6
100
AcDbEntity
  8
0
100
AcDbLine
 62
7
  6
CONTINUOUS
 10
866.7502755219
 20
612.4459191938
 11
866.1252755219
 21
612.4459191938
  0
LINE
  5
2E7
100
AcDbEntity
  8
0
100
AcDbLine
 62
7
  6
CONTINUOUS
 10
846.8544429833
 20
612.977834024
 11
847.3752755219
 21
612.977834024
  0
LINE
  5
2E8
100
AcDbEntity
  8
0
100
AcDbLine
 62
7
  6
CONTINUOUS
 10
858.1044417912
 20
613.2969829221
 11
860.0836092526
 21
613.2969829221
  0
LINE
  5
2E9
100
AcDbEntity
  8
0
100
AcDbLine
 62
7
  6
CONTINUOUS
 10
847.4794429833
 20
613.5097488542
 11
846.7502755219
 21
613.5097488542
  0
LINE
  5
2EA
100
AcDbEntity
  8
0
100
AcDbLine
 62
7
  6
CONTINUOUS
 10
860.0836092526
 20
613.9352807184
 11
858.3127755219
 21
613.9352807184
  0
LINE
  5
2EB
100
AcDbEntity
  8
0
100
AcDbLine
 62
7
  6
CONTINUOUS
 10
866.1252755219
 20
614.8927275618
 11
866.7502755219
 21
614.8927275618
  0
LINE
  5
2EC
100
AcDbEntity
  8
0
100
AcDbLine
 62
7
  6
CONTINUOUS
 10
863.2086086565
 20
615.5310254325
 11
863.6252755219
 21
615.5310254325
  0
LINE
  5
2ED
100
AcDbEntity
  8
0
100
AcDbLine
 62
7
  6
CONTINUOUS
 10
867.5836089545
 20
615.5310254325
 11
868.5211088055
 21
615.5310254325
  0
LINE
  5
2EE
100
AcDbEntity
  8
0
100
AcDbLine
 62
7
  6
CONTINUOUS
 10
846.7502755219
 20
615.6374083986
 11
847.4794429833
 21
615.6374083986
  0
LINE
  5
2EF
100
AcDbEntity
  8
0
100
AcDbLine
 62
7
  6
CONTINUOUS
 10
868.5211088055
 20
616.1693233033
 11
867.5836089545
 21
616.1693233033
  0
LINE
  5
2F0
100
AcDbEntity
  8
0
100
AcDbLine
 62
7
  6
CONTINUOUS
 10
863.6252755219
 20
616.1693233033
 11
863.2086086565
 21
616.1693233033
  0
LINE
  5
2F1
100
AcDbEntity
  8
0
100
AcDbLine
 62
7
  6
CONTINUOUS
 10
860.7086086565
 20
616.1693233033
 11
860.0836092526
 21
616.1693233033
  0
LINE
  5
2F2
100
AcDbEntity
  8
0
100
AcDbLine
 62
7
  6
CONTINUOUS
 10
857.4794417912
 20
616.1693233033
 11
856.7502755219
 21
616.1693233033
  0
LINE
  5
2F3
100
AcDbEntity
  8
0
100
AcDbLine
 62
7
  6
CONTINUOUS
 10
854.2502755219
 20
616.1693233033
 11
853.6252755219
 21
616.1693233033
  0
LINE
  5
2F4
100
AcDbEntity
  8
0
100
AcDbLine
 62
7
  6
CONTINUOUS
 10
850.5002755219
 20
616.1693233033
 11
849.8752755219
 21
616.1693233033
  0
LINE
  5
2F5
100
AcDbEntity
  8
0
100
AcDbLine
 62
7
  6
CONTINUOUS
 10
847.3752755219
 20
616.1693233033
 11
846.8544429833
 21
616.1693233033
  0
LINE
  5
2F6
100
AcDbEntity
  8
BEZUGSACHSEN
100
AcDbLine
 62
7
  6
CONTINUOUS
 10
867.239859491
 20
618.6693233033
 11
848.239859491
 21
618.6693233033
  0
LINE
  5
2F7
100
AcDbEntity
  8
RUNDUNGEN
100
AcDbLine
 62
7
  6
CONTINUOUS
 10
77.239859491
 20
618.6693233033
 11
96.239859491
 21
618.6693233033
  0
LINE
  5
2F8
100
AcDbEntity
  8
RUNDUNGEN
100
AcDbLine
 62
7
  6
CONTINUOUS
 10
675.2395432643
 20
619.1693233033
 11
505.2401176551
 21
619.1693233033
  0
LINE
  5
2F9
100
AcDbEntity
  8
RUNDUNGEN
100
AcDbLine
 62
7
  6
CONTINUOUS
 10
269.2402226202
 20
619.1693233033
 11
439.2395097954
 21
619.1693233033
  0
LINE
  5
2FA
100
AcDbEntity
  8
0
100
AcDbLine
 62
7
  6
CONTINUOUS
 10
335.239859491
 20
620.6693233033
 11
263.9786917038
 21
620.6693233033
  0
LINE
  5
2FB
100
AcDbEntity
  8
0
100
AcDbLine
 62
7
  6
CONTINUOUS
 10
220.739859491
 20
620.6693233033
 11
175.239859491
 21
620.6693233033
  0
LINE
  5
2FC
100
AcDbEntity
  8
0
100
AcDbLine
 62
7
  6
CONTINUOUS
 10
169.239859491
 20
620.6693233033
 11
114.239859491
 21
620.6693233033
  0
LINE
  5
2FD
100
AcDbEntity
  8
0
100
AcDbLine
 62
7
  6
CONTINUOUS
 10
619.239859491
 20
620.6693233033
 11
680.5050297398
 21
620.6693233033
  0
LINE
  5
2FE
100
AcDbEntity
  8
RUNDUNGEN
100
AcDbLine
 62
7
  6
CONTINUOUS
 10
619.239859491
 20
620.6693233033
 11
680.5050297398
 21
620.6693233033
  0
LINE
  5
2FF
100
AcDbEntity
  8
0
100
AcDbLine
 62
7
  6
CONTINUOUS
 10
725.3779720118
 20
620.6693233033
 11
830.239859491
 21
620.6693233033
  0
LINE
  5
300
100
AcDbEntity
  8
RUNDUNGEN
100
AcDbLine
 62
7
  6
CONTINUOUS
 10
725.3779720118
 20
620.6693233033
 11
830.239859491
 21
620.6693233033
  0
LINE
  5
301
100
AcDbEntity
  8
0
100
AcDbLine
 62
7
  6
CONTINUOUS
 10
335.239859491
 20
622.8129168427
 11
261.5266877706
 21
622.8129168427
  0
LINE
  5
302
100
AcDbEntity
  8
0
100
AcDbLine
 62
7
  6
CONTINUOUS
 10
220.739859491
 20
622.8129168427
 11
175.239859491
 21
622.8129168427
  0
LINE
  5
303
100
AcDbEntity
  8
0
100
AcDbLine
 62
7
  6
CONTINUOUS
 10
169.239859491
 20
622.8129168427
 11
114.239859491
 21
622.8129168427
  0
LINE
  5
304
100
AcDbEntity
  8
0
100
AcDbLine
 62
7
  6
CONTINUOUS
 10
358.239859491
 20
625.6693233033
 11
340.239859491
 21
625.6693233033
  0
LINE
  5
305
100
AcDbEntity
  8
0
100
AcDbLine
 62
7
  6
CONTINUOUS
 10
596.239859491
 20
625.6693233033
 11
614.239859491
 21
625.6693233033
  0
LINE
  5
306
100
AcDbEntity
  8
BEZUGSACHSEN
100
AcDbLine
 62
7
  6
CONTINUOUS
 10
44.0316453265
 20
627.2193233033
 11
61.539859491
 21
627.2193233033
  0
LINE
  5
307
100
AcDbEntity
  8
RUNDUNGEN
100
AcDbLine
 62
7
  6
CONTINUOUS
 10
44.0308603704
 20
627.2193233033
 11
81.989859491
 21
627.2193233033
  0
LINE
  5
308
100
AcDbEntity
  8
BEZUGSACHSEN
100
AcDbLine
 62
7
  6
CONTINUOUS
 10
862.489859491
 20
627.2193233033
 11
900.4488586116
 21
627.2193233033
  0
LINE
  5
309
100
AcDbEntity
  8
0
100
AcDbLine
 62
7
  6
CONTINUOUS
 10
339.926150992
 20
628.6693233033
 11
259.2524432995
 21
628.6693233033
  0
LINE
  5
30A
100
AcDbEntity
  8
0
100
AcDbLine
 62
7
  6
CONTINUOUS
 10
220.739859491
 20
628.6693233033
 11
175.239859491
 21
628.6693233033
  0
LINE
  5
30B
100
AcDbEntity
  8
0
100
AcDbLine
 62
7
  6
CONTINUOUS
 10
169.239859491
 20
628.6693233033
 11
125.239859491
 21
628.6693233033
  0
LINE
  5
30C
100
AcDbEntity
  8
0
100
AcDbLine
 62
7
  6
CONTINUOUS
 10
482.239859491
 20
736.6693233033
 11
482.239859491
 21
667.0010092717
  0
LINE
  5
30D
100
AcDbEntity
  8
0
100
AcDbLine
 62
7
  6
CONTINUOUS
 10
482.239859491
 20
606.3376371935
 11
482.239859491
 21
536.6693233033
  0
LINE
  5
30E
100
AcDbEntity
  8
0
100
AcDbLine
 62
7
  6
CONTINUOUS
 10
492.239859491
 20
762.6693233033
 11
492.239859491
 21
751.6693233033
  0
LINE
  5
30F
100
AcDbEntity
  8
0
100
AcDbLine
 62
7
  6
CONTINUOUS
 10
492.239859491
 20
521.6693233033
 11
492.239859491
 21
510.6693233033
  0
LINE
  5
310
100
AcDbEntity
  8
RUNDUNGEN
100
AcDbLine
 62
7
  6
CONTINUOUS
 10
495.239859491
 20
644.1690591162
 11
495.239859491
 21
629.1695741131
  0
LINE
  5
311
100
AcDbEntity
  8
BEZUGSACHSEN
100
AcDbLine
 62
7
  6
CONTINUOUS
 10
900.4480736554
 20
646.1193233033
 11
882.939859491
 21
646.1193233033
  0
LINE
  5
312
100
AcDbEntity
  8
BEZUGSACHSEN
100
AcDbLine
 62
7
  6
CONTINUOUS
 10
44.0316453265
 20
646.1193233033
 11
81.989859491
 21
646.1193233033
  0
LINE
  5
313
100
AcDbEntity
  8
RUNDUNGEN
100
AcDbLine
 62
7
  6
CONTINUOUS
 10
862.489859491
 20
646.1193233033
 11
900.4488586116
 21
646.1193233033
  0
LINE
  5
314
100
AcDbEntity
  8
0
100
AcDbLine
 62
7
  6
CONTINUOUS
 10
358.239859491
 20
647.6693233033
 11
340.239859491
 21
647.6693233033
  0
LINE
  5
315
100
AcDbEntity
  8
0
100
AcDbLine
 62
7
  6
CONTINUOUS
 10
596.239859491
 20
647.6693233033
 11
614.239859491
 21
647.6693233033
  0
LINE
  5
316
100
AcDbEntity
  8
0
100
AcDbLine
 62
7
  6
CONTINUOUS
 10
335.239859491
 20
652.6693233033
 11
263.98142532
 21
652.6693233033
  0
LINE
  5
317
100
AcDbEntity
  8
0
100
AcDbLine
 62
7
  6
CONTINUOUS
 10
220.739859491
 20
652.6693233033
 11
175.239859491
 21
652.6693233033
  0
LINE
  5
318
100
AcDbEntity
  8
0
100
AcDbLine
 62
7
  6
CONTINUOUS
 10
169.239859491
 20
652.6693233033
 11
114.239859491
 21
652.6693233033
  0
LINE
  5
319
100
AcDbEntity
  8
0
100
AcDbLine
 62
7
  6
CONTINUOUS
 10
619.239859491
 20
652.6693233033
 11
680.5051010764
 21
652.6693233033
  0
LINE
  5
31A
100
AcDbEntity
  8
RUNDUNGEN
100
AcDbLine
 62
7
  6
CONTINUOUS
 10
619.239859491
 20
652.6693233033
 11
680.5051010764
 21
652.6693233033
  0
LINE
  5
31B
100
AcDbEntity
  8
0
100
AcDbLine
 62
7
  6
CONTINUOUS
 10
725.3779720118
 20
652.6693233033
 11
830.239859491
 21
652.6693233033
  0
LINE
  5
31C
100
AcDbEntity
  8
RUNDUNGEN
100
AcDbLine
 62
7
  6
CONTINUOUS
 10
725.3779720118
 20
652.6693233033
 11
830.239859491
 21
652.6693233033
  0
LINE
  5
31D
100
AcDbEntity
  8
RUNDUNGEN
100
AcDbLine
 62
7
  6
CONTINUOUS
 10
439.2395161492
 20
654.1693233033
 11
269.240203105
 21
654.1693233033
  0
LINE
  5
31E
100
AcDbEntity
  8
RUNDUNGEN
100
AcDbLine
 62
7
  6
CONTINUOUS
 10
505.2401903854
 20
654.1693233033
 11
675.2396425162
 21
654.1693233033
  0
LINE
  5
31F
100
AcDbEntity
  8
RUNDUNGEN
100
AcDbLine
 62
7
  6
CONTINUOUS
 10
867.239859491
 20
654.6693233033
 11
848.239859491
 21
654.6693233033
  0
LINE
  5
320
100
AcDbEntity
  8
BEZUGSACHSEN
100
AcDbLine
 62
7
  6
CONTINUOUS
 10
77.239859491
 20
654.6693233033
 11
96.239859491
 21
654.6693233033
  0
LINE
  5
321
100
AcDbEntity
  8
0
100
AcDbLine
 62
7
  6
CONTINUOUS
 10
75.9586101764
 20
657.1693233033
 11
76.8961100274
 21
657.1693233033
  0
LINE
  5
322
100
AcDbEntity
  8
0
100
AcDbLine
 62
7
  6
CONTINUOUS
 10
80.8544434601
 20
657.1693233033
 11
81.2711103255
 21
657.1693233033
  0
LINE
  5
323
100
AcDbEntity
  8
0
100
AcDbLine
 62
7
  6
CONTINUOUS
 10
83.7711103255
 20
657.1693233033
 11
84.3961097294
 21
657.1693233033
  0
LINE
  5
324
100
AcDbEntity
  8
0
100
AcDbLine
 62
7
  6
CONTINUOUS
 10
87.0002771908
 20
657.1693233033
 11
87.7294434601
 21
657.1693233033
  0
LINE
  5
325
100
AcDbEntity
  8
0
100
AcDbLine
 62
7
  6
CONTINUOUS
 10
90.2294434601
 20
657.1693233033
 11
90.8544434601
 21
657.1693233033
  0
LINE
  5
326
100
AcDbEntity
  8
0
100
AcDbLine
 62
7
  6
CONTINUOUS
 10
93.9794434601
 20
657.1693233033
 11
94.6044434601
 21
657.1693233033
  0
LINE
  5
327
100
AcDbEntity
  8
0
100
AcDbLine
 62
7
  6
CONTINUOUS
 10
97.1044434601
 20
657.1693233033
 11
97.6252759987
 21
657.1693233033
  0
LINE
  5
328
100
AcDbEntity
  8
0
100
AcDbLine
 62
7
  6
CONTINUOUS
 10
97.7294434601
 20
657.701238208
 11
97.0002759987
 21
657.701238208
  0
LINE
  5
329
100
AcDbEntity
  8
0
100
AcDbLine
 62
7
  6
CONTINUOUS
 10
81.2711103255
 20
657.807621174
 11
80.8544434601
 21
657.807621174
  0
LINE
  5
32A
100
AcDbEntity
  8
0
100
AcDbLine
 62
7
  6
CONTINUOUS
 10
76.8961100274
 20
657.807621174
 11
75.9586101764
 21
657.807621174
  0
LINE
  5
32B
100
AcDbEntity
  8
0
100
AcDbLine
 62
7
  6
CONTINUOUS
 10
78.3544434601
 20
658.4459190448
 11
77.7294434601
 21
658.4459190448
  0
LINE
  5
32C
100
AcDbEntity
  8
0
100
AcDbLine
 62
7
  6
CONTINUOUS
 10
84.3961097294
 20
659.4033658882
 11
86.1669434601
 21
659.4033658882
  0
LINE
  5
32D
100
AcDbEntity
  8
0
100
AcDbLine
 62
7
  6
CONTINUOUS
 10
97.0002759987
 20
659.8288977523
 11
97.7294434601
 21
659.8288977523
  0
LINE
  5
32E
100
AcDbEntity
  8
0
100
AcDbLine
 62
7
  6
CONTINUOUS
 10
86.3752771908
 20
660.0416636844
 11
84.3961097294
 21
660.0416636844
  0
LINE
  5
32F
100
AcDbEntity
  8
0
100
AcDbLine
 62
7
  6
CONTINUOUS
 10
97.6252759987
 20
660.3608125826
 11
97.1044434601
 21
660.3608125826
  0
LINE
  5
330
100
AcDbEntity
  8
0
100
AcDbLine
 62
7
  6
CONTINUOUS
 10
77.7294434601
 20
660.8927274128
 11
78.3544434601
 21
660.8927274128
  0
LINE
  5
331
100
AcDbEntity
  8
0
100
AcDbLine
 62
7
  6
CONTINUOUS
 10
98.4586109215
 20
660.9991106768
 11
98.9794434601
 21
660.9991106768
  0
LINE
  5
332
100
AcDbEntity
  8
0
100
AcDbLine
 62
7
  6
CONTINUOUS
 10
75.9586101764
 20
661.531025507
 11
76.8961100274
 21
661.531025507
  0
LINE
  5
333
100
AcDbEntity
  8
0
100
AcDbLine
 62
7
  6
CONTINUOUS
 10
84.3961097294
 20
661.6374084731
 11
86.3752771908
 21
661.6374084731
  0
LINE
  5
334
100
AcDbEntity
  8
0
100
AcDbLine
 62
7
  6
CONTINUOUS
 10
88.5627771908
 20
661.6374084731
 11
90.2294434601
 21
661.6374084731
  0
LINE
  5
335
100
AcDbEntity
  8
0
100
AcDbLine
 62
7
  6
CONTINUOUS
 10
90.8544434601
 20
661.6374084731
 11
92.5211097294
 21
661.6374084731
  0
LINE
  5
336
100
AcDbEntity
  8
0
100
AcDbLine
 62
7
  6
CONTINUOUS
 10
97.0002759987
 20
661.6374084731
 11
97.6252759987
 21
661.6374084731
  0
LINE
  5
337
100
AcDbEntity
  8
0
100
AcDbLine
 62
7
  6
CONTINUOUS
 10
97.5211109215
 20
662.1693233033
 11
97.1044434601
 21
662.1693233033
  0
LINE
  5
338
100
AcDbEntity
  8
0
100
AcDbLine
 62
7
  6
CONTINUOUS
 10
94.6044434601
 20
662.1693233033
 11
93.9794434601
 21
662.1693233033
  0
LINE
  5
339
100
AcDbEntity
  8
0
100
AcDbLine
 62
7
  6
CONTINUOUS
 10
92.5211097294
 20
662.1693233033
 11
88.5627771908
 21
662.1693233033
  0
LINE
  5
33A
100
AcDbEntity
  8
0
100
AcDbLine
 62
7
  6
CONTINUOUS
 10
86.2711097294
 20
662.1693233033
 11
83.7711103255
 21
662.1693233033
  0
LINE
  5
33B
100
AcDbEntity
  8
0
100
AcDbLine
 62
7
  6
CONTINUOUS
 10
82.9377765948
 20
662.1693233033
 11
82.3127765948
 21
662.1693233033
  0
LINE
  5
33C
100
AcDbEntity
  8
0
100
AcDbLine
 62
7
  6
CONTINUOUS
 10
79.8127765948
 20
662.1693233033
 11
79.1877768928
 21
662.1693233033
  0
LINE
  5
33D
100
AcDbEntity
  8
0
100
AcDbLine
 62
7
  6
CONTINUOUS
 10
76.8961100274
 20
662.1693233033
 11
75.9586101764
 21
662.1693233033
  0
LINE
  5
33E
100
AcDbEntity
  8
BEZUGSACHSEN
100
AcDbLine
 62
7
  6
CONTINUOUS
 10
96.239859491
 20
664.6693233033
 11
77.239859491
 21
664.6693233033
  0
LINE
  5
33F
100
AcDbEntity
  8
RUNDUNGEN
100
AcDbLine
 62
7
  6
CONTINUOUS
 10
848.239859491
 20
664.6693233033
 11
867.239859491
 21
664.6693233033
  0
LINE
  5
340
100
AcDbEntity
  8
0
100
AcDbLine
 62
7
  6
CONTINUOUS
 10
246.5289454623
 20
666.6693233033
 11
445.1948389616
 21
666.6693233033
  0
LINE
  5
341
100
AcDbEntity
  8
RUNDUNGEN
100
AcDbLine
 62
7
  6
CONTINUOUS
 10
499.2848800203
 20
666.6693233033
 11
699.2119686751
 21
666.6693233033
  0
LINE
  5
342
100
AcDbEntity
  8
0
100
AcDbLine
 62
7
  6
CONTINUOUS
 10
499.2848800203
 20
666.6693233033
 11
699.2119686751
 21
666.6693233033
  0
LINE
  5
343
100
AcDbEntity
  8
RUNDUNGEN
100
AcDbLine
 62
7
  6
CONTINUOUS
 10
721.3329681825
 20
667.1693233033
 11
700.5566402563
 21
667.1693233033
  0
LINE
  5
344
100
AcDbEntity
  8
BEZUGSACHSEN
100
AcDbLine
 62
7
  6
CONTINUOUS
 10
497.5584873492
 20
667.1693233033
 11
482.739859491
 21
667.1693233033
  0
LINE
  5
345
100
AcDbEntity
  8
BEZUGSACHSEN
100
AcDbLine
 62
7
  6
CONTINUOUS
 10
461.739859491
 20
667.1693233033
 11
446.9212316328
 21
667.1693233033
  0
LINE
  5
346
100
AcDbEntity
  8
0
100
AcDbLine
 62
7
  6
CONTINUOUS
 10
446.9212316328
 20
667.1693233033
 11
461.739859491
 21
667.1693233033
  0
LINE
  5
347
100
AcDbEntity
  8
0
100
AcDbLine
 62
7
  6
CONTINUOUS
 10
482.739859491
 20
667.1693233033
 11
497.5584873492
 21
667.1693233033
  0
LINE
  5
348
100
AcDbEntity
  8
0
100
AcDbLine
 62
7
  6
CONTINUOUS
 10
700.5566402563
 20
667.1693233033
 11
721.3329681825
 21
667.1693233033
  0
LINE
  5
349
100
AcDbEntity
  8
RUNDUNGEN
100
AcDbLine
 62
7
  6
CONTINUOUS
 10
237.6633655466
 20
670.6693233033
 11
223.739859491
 21
670.6693233033
  0
LINE
  5
34A
100
AcDbEntity
  8
0
100
AcDbLine
 62
7
  6
CONTINUOUS
 10
223.739859491
 20
670.6693233033
 11
237.6633655466
 21
670.6693233033
  0
LINE
  5
34B
100
AcDbEntity
  8
0
100
AcDbLine
 62
7
  6
CONTINUOUS
 10
460.9001135288
 20
536.6693233033
 11
452.239859491
 21
521.6693233033
  0
LINE
  5
34C
100
AcDbEntity
  8
0
100
AcDbLine
 62
7
  6
CONTINUOUS
 10
497.9005074925
 20
606.2296306825
 11
498.942859877
 21
606.6090159241
  0
LINE
  5
34D
100
AcDbEntity
  8
0
100
AcDbLine
 62
7
  6
CONTINUOUS
 10
174.239859491
 20
671.6693233033
 11
171.739859491
 21
671.6693233033
  0
LINE
  5
34E
100
AcDbEntity
  8
0
100
AcDbLine
 62
7
  6
CONTINUOUS
 10
893.2154999936
 20
678.6693233033
 11
892.6367856988
 21
678.6693233033
  0
LINE
  5
34F
100
AcDbEntity
  8
BEZUGSACHSEN
100
AcDbLine
 62
7
  6
CONTINUOUS
 10
51.2406582643
 20
678.6693233033
 11
105.239859491
 21
678.6693233033
  0
LINE
  5
350
100
AcDbEntity
  8
RUNDUNGEN
100
AcDbLine
 62
7
  6
CONTINUOUS
 10
839.239859491
 20
678.6693233033
 11
892.6367856988
 21
678.6693233033
  0
LINE
  5
351
100
AcDbEntity
  8
BEZUGSACHSEN
100
AcDbLine
 62
7
  6
CONTINUOUS
 10
892.6367856988
 20
678.6693233033
 11
893.2390607177
 21
678.6693233033
  0
LINE
  5
352
100
AcDbEntity
  8
0
100
AcDbLine
 62
7
  6
CONTINUOUS
 10
846.4377755219
 20
611.2757062693
 11
846.9586080605
 21
611.1693233033
  0
LINE
  5
353
100
AcDbEntity
  8
0
100
AcDbLine
 62
7
  6
CONTINUOUS
 10
846.3336080605
 20
613.0842169901
 11
846.8544429833
 21
612.977834024
  0
LINE
  5
354
100
AcDbEntity
  8
0
100
AcDbLine
 62
7
  6
CONTINUOUS
 10
857.6877755219
 20
611.2757062693
 11
858.2086092526
 21
611.1693233033
  0
LINE
  5
355
100
AcDbEntity
  8
0
100
AcDbLine
 62
7
  6
CONTINUOUS
 10
867.0627755219
 20
611.2757062693
 11
867.5836089545
 21
611.1693233033
  0
LINE
  5
356
100
AcDbEntity
  8
0
100
AcDbLine
 62
7
  6
CONTINUOUS
 10
847.8961080605
 20
616.0629403279
 11
847.3752755219
 21
616.1693233033
  0
LINE
  5
357
100
AcDbEntity
  8
0
100
AcDbLine
 62
7
  6
CONTINUOUS
 10
864.1461086565
 20
616.0629403279
 11
863.6252755219
 21
616.1693233033
  0
LINE
  5
358
100
AcDbEntity
  8
0
100
AcDbLine
 62
7
  6
CONTINUOUS
 10
869.0419421637
 20
616.0629403279
 11
868.5211088055
 21
616.1693233033
  0
LINE
  5
359
100
AcDbEntity
  8
0
100
AcDbLine
 62
7
  6
CONTINUOUS
 10
497.9005074925
 20
667.1090159241
 11
498.942859877
 21
666.7296306825
  0
LINE
  5
35A
100
AcDbEntity
  8
0
100
AcDbLine
 62
7
  6
CONTINUOUS
 10
452.239859491
 20
751.6693233033
 11
460.9001135288
 21
736.6693233033
  0
LINE
  5
35B
100
AcDbEntity
  8
0
100
AcDbLine
 62
7
  6
CONTINUOUS
 10
594.239859491
 20
645.6693233033
 11
596.239859491
 21
647.6693233033
  0
LINE
  5
35C
100
AcDbEntity
  8
0
100
AcDbLine
 62
7
  6
CONTINUOUS
 10
614.239859491
 20
647.6693233033
 11
619.239859491
 21
652.6693233033
  0
LINE
  5
35D
100
AcDbEntity
  8
0
100
AcDbLine
 62
7
  6
CONTINUOUS
 10
97.6252759987
 20
657.1693233033
 11
98.1461109215
 21
657.2757062786
  0
LINE
  5
35E
100
AcDbEntity
  8
0
100
AcDbLine
 62
7
  6
CONTINUOUS
 10
867.5836089545
 20
611.8076210995
 11
867.1669420892
 21
611.9140040656
  0
LINE
  5
35F
100
AcDbEntity
  8
0
100
AcDbLine
 62
7
  6
CONTINUOUS
 10
863.6252755219
 20
615.5310254325
 11
864.0419423872
 21
615.4246424665
  0
LINE
  5
360
100
AcDbEntity
  8
0
100
AcDbLine
 62
7
  6
CONTINUOUS
 10
868.5211088055
 20
615.5310254325
 11
868.9377755219
 21
615.4246424665
  0
LINE
  5
361
100
AcDbEntity
  8
0
100
AcDbLine
 62
7
  6
CONTINUOUS
 10
594.239859491
 20
627.6693233033
 11
596.239859491
 21
625.6693233033
  0
LINE
  5
362
100
AcDbEntity
  8
0
100
AcDbLine
 62
7
  6
CONTINUOUS
 10
614.239859491
 20
625.6693233033
 11
619.239859491
 21
620.6693233033
  0
LINE
  5
363
100
AcDbEntity
  8
0
100
AcDbLine
 62
7
  6
CONTINUOUS
 10
594.239859491
 20
645.6693233033
 11
594.239859491
 21
627.6693233033
  0
LINE
  5
364
100
AcDbEntity
  8
0
100
AcDbLine
 62
7
  6
CONTINUOUS
 10
596.239859491
 20
647.6693233033
 11
596.239859491
 21
625.6693233033
  0
LINE
  5
365
100
AcDbEntity
  8
RUNDUNGEN
100
AcDbLine
 62
7
  6
CONTINUOUS
 10
699.7855451115
 20
666.850171259
 11
699.9830638199
 21
666.9884753476
  0
LINE
  5
366
100
AcDbEntity
  8
0
100
AcDbLine
 62
7
  6
CONTINUOUS
 10
699.7855451115
 20
666.850171259
 11
699.9830638199
 21
666.9884753476
  0
LINE
  5
367
100
AcDbEntity
  8
0
100
AcDbLine
 62
7
  6
CONTINUOUS
 10
492.239859491
 20
510.6693233033
 11
481.8475546456
 21
504.6693233033
  0
LINE
  5
368
100
AcDbEntity
  8
0
100
AcDbLine
 62
7
  6
CONTINUOUS
 10
81.6877765948
 20
657.9140041401
 11
81.2711103255
 21
657.807621174
  0
LINE
  5
369
100
AcDbEntity
  8
0
100
AcDbLine
 62
7
  6
CONTINUOUS
 10
77.3127768928
 20
657.9140041401
 11
76.8961100274
 21
657.807621174
  0
LINE
  5
36A
100
AcDbEntity
  8
0
100
AcDbLine
 62
7
  6
CONTINUOUS
 10
75.5419434601
 20
661.424642541
 11
75.9586101764
 21
661.531025507
  0
LINE
  5
36B
100
AcDbEntity
  8
0
100
AcDbLine
 62
7
  6
CONTINUOUS
 10
97.1044434601
 20
660.3608125826
 11
96.5836109215
 21
660.2544296165
  0
LINE
  5
36C
100
AcDbEntity
  8
0
100
AcDbLine
 62
7
  6
CONTINUOUS
 10
81.2711103255
 20
657.1693233033
 11
81.7919434601
 21
657.2757062786
  0
LINE
  5
36D
100
AcDbEntity
  8
0
100
AcDbLine
 62
7
  6
CONTINUOUS
 10
76.8961100274
 20
657.1693233033
 11
77.4169434601
 21
657.2757062786
  0
LINE
  5
36E
100
AcDbEntity
  8
0
100
AcDbLine
 62
7
  6
CONTINUOUS
 10
97.1044434601
 20
662.1693233033
 11
96.5836109215
 21
662.0629403372
  0
LINE
  5
36F
100
AcDbEntity
  8
0
100
AcDbLine
 62
7
  6
CONTINUOUS
 10
75.9586101764
 20
662.1693233033
 11
75.4377768183
 21
662.0629403372
  0
LINE
  5
370
100
AcDbEntity
  8
0
100
AcDbLine
 62
7
  6
CONTINUOUS
 10
460.9001135288
 20
736.6693233033
 11
483.5796054531
 21
736.6693233033
  0
LINE
  5
371
100
AcDbEntity
  8
0
100
AcDbLine
 62
7
  6
CONTINUOUS
 10
452.239859491
 20
751.6693233033
 11
492.239859491
 21
751.6693233033
  0
LINE
  5
372
100
AcDbEntity
  8
0
100
AcDbLine
 62
7
  6
CONTINUOUS
 10
846.8544429833
 20
611.7012381335
 11
846.5419429833
 21
611.8076210995
  0
LINE
  5
373
100
AcDbEntity
  8
0
100
AcDbLine
 62
7
  6
CONTINUOUS
 10
846.7502755219
 20
613.5097488542
 11
846.4377755219
 21
613.6161318203
  0
LINE
  5
374
100
AcDbEntity
  8
0
100
AcDbLine
 62
7
  6
CONTINUOUS
 10
858.1044417912
 20
611.7012381335
 11
857.7919417912
 21
611.8076210995
  0
LINE
  5
375
100
AcDbEntity
  8
0
100
AcDbLine
 62
7
  6
CONTINUOUS
 10
847.4794429833
 20
615.6374083986
 11
847.7919429833
 21
615.5310254325
  0
LINE
  5
376
100
AcDbEntity
  8
0
100
AcDbLine
 62
7
  6
CONTINUOUS
 10
481.8475546456
 20
768.6693233033
 11
492.239859491
 21
762.6693233033
  0
LINE
  5
377
100
AcDbEntity
  8
0
100
AcDbLine
 62
7
  6
CONTINUOUS
 10
699.7855451115
 20
606.4884753476
 11
699.9830638199
 21
606.350171259
  0
LINE
  5
378
100
AcDbEntity
  8
0
100
AcDbLine
 62
7
  6
CONTINUOUS
 10
614.239859491
 20
647.6693233033
 11
614.239859491
 21
625.6693233033
  0
LINE
  5
379
100
AcDbEntity
  8
0
100
AcDbLine
 62
7
  6
CONTINUOUS
 10
619.239859491
 20
652.6693233033
 11
619.239859491
 21
620.6693233033
  0
LINE
  5
37A
100
AcDbEntity
  8
0
100
AcDbLine
 62
7
  6
CONTINUOUS
 10
846.4377755219
 20
615.5310254325
 11
846.7502755219
 21
615.6374083986
  0
LINE
  5
37B
100
AcDbEntity
  8
0
100
AcDbLine
 62
7
  6
CONTINUOUS
 10
847.7919429833
 20
613.6161318203
 11
847.4794429833
 21
613.5097488542
  0
LINE
  5
37C
100
AcDbEntity
  8
0
100
AcDbLine
 62
7
  6
CONTINUOUS
 10
847.7919429833
 20
611.8076210995
 11
847.4794429833
 21
611.7012381335
  0
LINE
  5
37D
100
AcDbEntity
  8
0
100
AcDbLine
 62
7
  6
CONTINUOUS
 10
857.7919417912
 20
613.1905999561
 11
858.1044417912
 21
613.2969829221
  0
LINE
  5
37E
100
AcDbEntity
  8
0
100
AcDbLine
 62
7
  6
CONTINUOUS
 10
452.239859491
 20
762.6693233033
 11
492.239859491
 21
762.6693233033
  0
LINE
  5
37F
100
AcDbEntity
  8
0
100
AcDbLine
 62
7
  6
CONTINUOUS
 10
462.6321643364
 20
768.6693233033
 11
481.8475546456
 21
768.6693233033
  0
LINE
  5
380
100
AcDbEntity
  8
0
100
AcDbLine
 62
7
  6
CONTINUOUS
 10
866.6461089545
 20
611.4884722014
 11
867.0627755219
 21
611.2757062693
  0
LINE
  5
381
100
AcDbEntity
  8
0
100
AcDbLine
 62
7
  6
CONTINUOUS
 10
864.5627755219
 20
615.8501743679
 11
864.1461086565
 21
616.0629403279
  0
LINE
  5
382
100
AcDbEntity
  8
0
100
AcDbLine
 62
7
  6
CONTINUOUS
 10
869.45860888
 20
615.8501743679
 11
869.0419421637
 21
616.0629403279
  0
LINE
  5
383
100
AcDbEntity
  8
0
100
AcDbLine
 62
7
  6
CONTINUOUS
 10
845.9169429833
 20
611.5948551675
 11
846.4377755219
 21
611.2757062693
  0
LINE
  5
384
100
AcDbEntity
  8
0
100
AcDbLine
 62
7
  6
CONTINUOUS
 10
845.8127755219
 20
613.4033658882
 11
846.3336080605
 21
613.0842169901
  0
LINE
  5
385
100
AcDbEntity
  8
0
100
AcDbLine
 62
7
  6
CONTINUOUS
 10
848.4169429833
 20
615.7437914019
 11
847.8961080605
 21
616.0629403279
  0
LINE
  5
386
100
AcDbEntity
  8
RUNDUNGEN
100
AcDbLine
 62
7
  6
CONTINUOUS
 10
685.239859491
 20
644.1690819905
 11
685.239859491
 21
629.1695665682
  0
LINE
  5
387
100
AcDbEntity
  8
0
100
AcDbLine
 62
7
  6
CONTINUOUS
 10
846.3336080605
 20
616.0629403279
 11
845.8127755219
 21
615.7437914019
  0
LINE
  5
388
100
AcDbEntity
  8
0
100
AcDbLine
 62
7
  6
CONTINUOUS
 10
857.6877755219
 20
613.7225147863
 11
857.2711092526
 21
613.5097488542
  0
LINE
  5
389
100
AcDbEntity
  8
0
100
AcDbLine
 62
7
  6
CONTINUOUS
 10
862.6877755219
 20
616.0629403279
 11
862.2711086565
 21
615.8501743679
  0
LINE
  5
38A
100
AcDbEntity
  8
0
100
AcDbLine
 62
7
  6
CONTINUOUS
 10
867.0627755219
 20
616.0629403279
 11
866.6461089545
 21
615.8501743679
  0
LINE
  5
38B
100
AcDbEntity
  8
0
100
AcDbLine
 62
7
  6
CONTINUOUS
 10
869.0419421637
 20
611.2757062693
 11
869.45860888
 21
611.4884722014
  0
LINE
  5
38C
100
AcDbEntity
  8
0
100
AcDbLine
 62
7
  6
CONTINUOUS
 10
846.5419429833
 20
611.8076210995
 11
846.2294429833
 21
612.0203870316
  0
LINE
  5
38D
100
AcDbEntity
  8
0
100
AcDbLine
 62
7
  6
CONTINUOUS
 10
846.4377755219
 20
613.6161318203
 11
846.1252755219
 21
613.8288977523
  0
LINE
  5
38E
100
AcDbEntity
  8
0
100
AcDbLine
 62
7
  6
CONTINUOUS
 10
847.7919429833
 20
615.5310254325
 11
848.1044429833
 21
615.3182595004
  0
LINE
  5
38F
100
AcDbEntity
  8
0
100
AcDbLine
 62
7
  6
CONTINUOUS
 10
867.1669420892
 20
611.9140040656
 11
866.8544420892
 21
612.1267699977
  0
LINE
  5
390
100
AcDbEntity
  8
0
100
AcDbLine
 62
7
  6
CONTINUOUS
 10
864.0419423872
 20
615.4246424665
 11
864.3544423872
 21
615.2118764599
  0
LINE
  5
391
100
AcDbEntity
  8
0
100
AcDbLine
 62
7
  6
CONTINUOUS
 10
868.9377755219
 20
615.4246424665
 11
869.2502755219
 21
615.2118764599
  0
LINE
  5
392
100
AcDbEntity
  8
0
100
AcDbLine
 62
7
  6
CONTINUOUS
 10
857.2711092526
 20
611.5948551675
 11
857.6877755219
 21
611.2757062693
  0
LINE
  5
393
100
AcDbEntity
  8
0
100
AcDbLine
 62
7
  6
CONTINUOUS
 10
846.1252755219
 20
615.3182595004
 11
846.4377755219
 21
615.5310254325
  0
LINE
  5
394
100
AcDbEntity
  8
0
100
AcDbLine
 62
7
  6
CONTINUOUS
 10
848.1044429833
 20
613.8288977523
 11
847.7919429833
 21
613.6161318203
  0
LINE
  5
395
100
AcDbEntity
  8
0
100
AcDbLine
 62
7
  6
CONTINUOUS
 10
847.8961080605
 20
613.0842169901
 11
848.5211080605
 21
613.5097488542
  0
LINE
  5
396
100
AcDbEntity
  8
0
100
AcDbLine
 62
7
  6
CONTINUOUS
 10
848.1044429833
 20
612.0203870316
 11
847.7919429833
 21
611.8076210995
  0
LINE
  5
397
100
AcDbEntity
  8
0
100
AcDbLine
 62
7
  6
CONTINUOUS
 10
862.4794423872
 20
615.2118764599
 11
862.7919423872
 21
615.4246424665
  0
LINE
  5
398
100
AcDbEntity
  8
0
100
AcDbLine
 62
7
  6
CONTINUOUS
 10
866.8544420892
 20
615.2118764599
 11
867.1669420892
 21
615.4246424665
  0
LINE
  5
399
100
AcDbEntity
  8
0
100
AcDbLine
 62
7
  6
CONTINUOUS
 10
869.2502755219
 20
612.1267699977
 11
868.9377755219
 21
611.9140040656
  0
LINE
  5
39A
100
AcDbEntity
  8
0
100
AcDbLine
 62
7
  6
CONTINUOUS
 10
847.8961080605
 20
611.2757062693
 11
848.4169429833
 21
611.5948551675
  0
LINE
  5
39B
100
AcDbEntity
  8
RUNDUNGEN
100
AcDbLine
 62
7
  6
CONTINUOUS
 10
725.3779720118
 20
654.3839993531
 11
724.3165338686
 21
664.4829086931
  0
LINE
  5
39C
100
AcDbEntity
  8
0
100
AcDbLine
 62
7
  6
CONTINUOUS
 10
725.3779720118
 20
654.3839993531
 11
725.3779720118
 21
618.9546472535
  0
LINE
  5
39D
100
AcDbEntity
  8
0
100
AcDbLine
 62
7
  6
CONTINUOUS
 10
724.3165338686
 20
608.8557379135
 11
725.3779720118
 21
618.9546472535
  0
LINE
  5
39E
100
AcDbEntity
  8
0
100
AcDbLine
 62
7
  6
CONTINUOUS
 10
845.5002755219
 20
613.7225147863
 11
845.8127755219
 21
613.4033658882
  0
LINE
  5
39F
100
AcDbEntity
  8
0
100
AcDbLine
 62
7
  6
CONTINUOUS
 10
846.1252755219
 20
613.8288977523
 11
845.9169429833
 21
614.0416636844
  0
LINE
  5
3A0
100
AcDbEntity
  8
0
100
AcDbLine
 62
7
  6
CONTINUOUS
 10
857.7919417912
 20
611.8076210995
 11
857.5836092526
 21
612.0203870316
  0
LINE
  5
3A1
100
AcDbEntity
  8
0
100
AcDbLine
 62
7
  6
CONTINUOUS
 10
866.2294420892
 20
611.9140040656
 11
866.6461089545
 21
611.4884722014
  0
LINE
  5
3A2
100
AcDbEntity
  8
0
100
AcDbLine
 62
7
  6
CONTINUOUS
 10
864.9794423872
 20
615.4246424665
 11
864.5627755219
 21
615.8501743679
  0
LINE
  5
3A3
100
AcDbEntity
  8
0
100
AcDbLine
 62
7
  6
CONTINUOUS
 10
869.8752755219
 20
615.4246424665
 11
869.45860888
 21
615.8501743679
  0
LINE
  5
3A4
100
AcDbEntity
  8
0
100
AcDbLine
 62
7
  6
CONTINUOUS
 10
851.1252755219
 20
612.7650680919
 11
850.5002755219
 21
612.0203870316
  0
LINE
  5
3A5
100
AcDbEntity
  8
0
100
AcDbLine
 62
7
  6
CONTINUOUS
 10
850.5002755219
 20
611.1693233033
 11
851.1252755219
 21
611.9140040656
  0
LINE
  5
3A6
100
AcDbEntity
  8
0
100
AcDbLine
 62
7
  6
CONTINUOUS
 10
848.3127755219
 20
614.0416636844
 11
848.1044429833
 21
613.8288977523
  0
LINE
  5
3A7
100
AcDbEntity
  8
0
100
AcDbLine
 62
7
  6
CONTINUOUS
 10
857.5836092526
 20
612.977834024
 11
857.7919417912
 21
613.1905999561
  0
LINE
  5
3A8
100
AcDbEntity
  8
0
100
AcDbLine
 62
7
  6
CONTINUOUS
 10
862.2711086565
 20
615.8501743679
 11
861.8544423872
 21
615.4246424665
  0
LINE
  5
3A9
100
AcDbEntity
  8
0
100
AcDbLine
 62
7
  6
CONTINUOUS
 10
866.6461089545
 20
615.8501743679
 11
866.2294420892
 21
615.4246424665
  0
LINE
  5
3AA
100
AcDbEntity
  8
0
100
AcDbLine
 62
7
  6
CONTINUOUS
 10
869.45860888
 20
611.4884722014
 11
869.8752755219
 21
611.9140040656
  0
LINE
  5
3AB
100
AcDbEntity
  8
0
100
AcDbLine
 62
7
  6
CONTINUOUS
 10
845.6044429833
 20
612.0203870316
 11
845.9169429833
 21
611.5948551675
  0
LINE
  5
3AC
100
AcDbEntity
  8
0
100
AcDbLine
 62
7
  6
CONTINUOUS
 10
848.7294429833
 20
615.3182595004
 11
848.4169429833
 21
615.7437914019
  0
LINE
  5
3AD
100
AcDbEntity
  8
0
100
AcDbLine
 62
7
  6
CONTINUOUS
 10
856.9586092526
 20
612.0203870316
 11
857.2711092526
 21
611.5948551675
  0
LINE
  5
3AE
100
AcDbEntity
  8
0
100
AcDbLine
 62
7
  6
CONTINUOUS
 10
846.2294429833
 20
612.0203870316
 11
846.0211080605
 21
612.3395359297
  0
LINE
  5
3AF
100
AcDbEntity
  8
0
100
AcDbLine
 62
7
  6
CONTINUOUS
 10
848.1044429833
 20
615.3182595004
 11
848.3127755219
 21
614.9991105278
  0
LINE
  5
3B0
100
AcDbEntity
  8
0
100
AcDbLine
 62
7
  6
CONTINUOUS
 10
845.9169429833
 20
614.9991105278
 11
846.1252755219
 21
615.3182595004
  0
LINE
  5
3B1
100
AcDbEntity
  8
0
100
AcDbLine
 62
7
  6
CONTINUOUS
 10
848.3127755219
 20
612.3395359297
 11
848.1044429833
 21
612.0203870316
  0
LINE
  5
3B2
100
AcDbEntity
  8
0
100
AcDbLine
 62
7
  6
CONTINUOUS
 10
845.8127755219
 20
615.7437914019
 11
845.5002755219
 21
615.3182595004
  0
LINE
  5
3B3
100
AcDbEntity
  8
0
100
AcDbLine
 62
7
  6
CONTINUOUS
 10
848.4169429833
 20
611.5948551675
 11
848.7294429833
 21
612.0203870316
  0
LINE
  5
3B4
100
AcDbEntity
  8
0
100
AcDbLine
 62
7
  6
CONTINUOUS
 10
857.2711092526
 20
613.5097488542
 11
856.9586092526
 21
613.0842169901
  0
LINE
  5
3B5
100
AcDbEntity
  8
BEZUGSACHSEN
100
AcDbLine
 62
7
  6
CONTINUOUS
 10
906.5869352751
 20
603.7089579748
 11
901.0651174624
 21
597.9909482425
  0
LINE
  5
3B6
100
AcDbEntity
  8
0
100
AcDbLine
 62
7
  6
CONTINUOUS
 10
901.0651174624
 20
675.3476983641
 11
906.5869352751
 21
669.6296886317
  0
LINE
  5
3B7
100
AcDbEntity
  8
0
100
AcDbLine
 62
7
  6
CONTINUOUS
 10
864.3544423872
 20
615.2118764599
 11
864.5627755219
 21
614.8927275618
  0
LINE
  5
3B8
100
AcDbEntity
  8
0
100
AcDbLine
 62
7
  6
CONTINUOUS
 10
869.2502755219
 20
615.2118764599
 11
869.45860888
 21
614.8927275618
  0
LINE
  5
3B9
100
AcDbEntity
  8
BEZUGSACHSEN
100
AcDbLine
 62
7
  6
CONTINUOUS
 10
834.239859491
 20
599.6693233033
 11
834.239859491
 21
673.6693233033
  0
LINE
  5
3BA
100
AcDbEntity
  8
0
100
AcDbLine
 62
7
  6
CONTINUOUS
 10
845.8127755219
 20
614.6799616297
 11
845.9169429833
 21
614.9991105278
  0
LINE
  5
3BB
100
AcDbEntity
  8
0
100
AcDbLine
 62
7
  6
CONTINUOUS
 10
848.4169429833
 20
614.3608127316
 11
848.3127755219
 21
614.0416636844
  0
LINE
  5
3BC
100
AcDbEntity
  8
0
100
AcDbLine
 62
7
  6
CONTINUOUS
 10
848.4169429833
 20
612.6586851259
 11
848.3127755219
 21
612.3395359297
  0
LINE
  5
3BD
100
AcDbEntity
  8
0
100
AcDbLine
 62
7
  6
CONTINUOUS
 10
845.5002755219
 20
615.3182595004
 11
845.2919429833
 21
614.7863445957
  0
LINE
  5
3BE
100
AcDbEntity
  8
0
100
AcDbLine
 62
7
  6
CONTINUOUS
 10
848.7294429833
 20
612.0203870316
 11
848.9377755219
 21
612.5523021599
  0
LINE
  5
3BF
100
AcDbEntity
  8
0
100
AcDbLine
 62
7
  6
CONTINUOUS
 10
861.8544423872
 20
615.4246424665
 11
861.6461086565
 21
614.9991105278
  0
LINE
  5
3C0
100
AcDbEntity
  8
0
100
AcDbLine
 62
7
  6
CONTINUOUS
 10
869.8752755219
 20
611.9140040656
 11
870.0836088521
 21
612.3395359297
  0
LINE
  5
3C1
100
AcDbEntity
  8
0
100
AcDbLine
 62
7
  6
CONTINUOUS
 10
862.2711086565
 20
614.8927275618
 11
862.4794423872
 21
615.2118764599
  0
LINE
  5
3C2
100
AcDbEntity
  8
0
100
AcDbLine
 62
7
  6
CONTINUOUS
 10
869.45860888
 20
612.4459191938
 11
869.2502755219
 21
612.1267699977
  0
LINE
  5
3C3
100
AcDbEntity
  8
0
100
AcDbLine
 62
7
  6
CONTINUOUS
 10
865.1877755219
 20
614.9991105278
 11
864.9794423872
 21
615.4246424665
  0
LINE
  5
3C4
100
AcDbEntity
  8
0
100
AcDbLine
 62
7
  6
CONTINUOUS
 10
870.0836088521
 20
614.9991105278
 11
869.8752755219
 21
615.4246424665
  0
LINE
  5
3C5
100
AcDbEntity
  8
0
100
AcDbLine
 62
7
  6
CONTINUOUS
 10
845.2919429833
 20
614.2544296165
 11
845.5002755219
 21
613.7225147863
  0
LINE
  5
3C6
100
AcDbEntity
  8
0
100
AcDbLine
 62
7
  6
CONTINUOUS
 10
848.9377755219
 20
614.7863445957
 11
848.7294429833
 21
615.3182595004
  0
LINE
  5
3C7
100
AcDbEntity
  8
0
100
AcDbLine
 62
7
  6
CONTINUOUS
 10
856.7502755219
 20
616.1693233033
 11
857.6877755219
 21
613.7225147863
  0
LINE
  5
3C8
100
AcDbEntity
  8
0
100
AcDbLine
 62
7
  6
CONTINUOUS
 10
858.3127755219
 20
613.9352807184
 11
857.4794417912
 21
616.1693233033
  0
LINE
  5
3C9
100
AcDbEntity
  8
0
100
AcDbLine
 62
7
  6
CONTINUOUS
 10
845.5002755219
 20
612.3395359297
 11
845.6044429833
 21
612.0203870316
  0
LINE
  5
3CA
100
AcDbEntity
  8
0
100
AcDbLine
 62
7
  6
CONTINUOUS
 10
845.9169429833
 20
614.0416636844
 11
845.8127755219
 21
614.3608127316
  0
LINE
  5
3CB
100
AcDbEntity
  8
0
100
AcDbLine
 62
7
  6
CONTINUOUS
 10
848.3127755219
 20
614.9991105278
 11
848.4169429833
 21
614.6799616297
  0
LINE
  5
3CC
100
AcDbEntity
  8
0
100
AcDbLine
 62
7
  6
CONTINUOUS
 10
856.8544417912
 20
612.3395359297
 11
856.9586092526
 21
612.0203870316
  0
LINE
  5
3CD
100
AcDbEntity
  8
0
100
AcDbLine
 62
7
  6
CONTINUOUS
 10
857.5836092526
 20
612.0203870316
 11
857.4794417912
 21
612.3395359297
  0
LINE
  5
3CE
100
AcDbEntity
  8
0
100
AcDbLine
 62
7
  6
CONTINUOUS
 10
866.8544420892
 20
612.1267699977
 11
866.7502755219
 21
612.4459191938
  0
LINE
  5
3CF
100
AcDbEntity
  8
0
100
AcDbLine
 62
7
  6
CONTINUOUS
 10
845.2919429833
 20
614.7863445957
 11
845.2919429833
 21
614.2544296165
  0
LINE
  5
3D0
100
AcDbEntity
  8
0
100
AcDbLine
 62
7
  6
CONTINUOUS
 10
845.8127755219
 20
614.3608127316
 11
845.8127755219
 21
614.6799616297
  0
LINE
  5
3D1
100
AcDbEntity
  8
0
100
AcDbLine
 62
7
  6
CONTINUOUS
 10
848.4169429833
 20
614.6799616297
 11
848.4169429833
 21
614.3608127316
  0
LINE
  5
3D2
100
AcDbEntity
  8
0
100
AcDbLine
 62
7
  6
CONTINUOUS
 10
848.5211080605
 20
613.5097488542
 11
848.5211080605
 21
613.2969829221
  0
LINE
  5
3D3
100
AcDbEntity
  8
0
100
AcDbLine
 62
7
  6
CONTINUOUS
 10
849.0419429833
 20
613.2969829221
 11
849.0419429833
 21
614.0416636844
  0
LINE
  5
3D4
100
AcDbEntity
  8
0
100
AcDbLine
 62
7
  6
CONTINUOUS
 10
849.8752755219
 20
616.1693233033
 11
849.8752755219
 21
611.1693233033
  0
LINE
  5
3D5
100
AcDbEntity
  8
0
100
AcDbLine
 62
7
  6
CONTINUOUS
 10
850.5002755219
 20
612.0203870316
 11
850.5002755219
 21
616.1693233033
  0
LINE
  5
3D6
100
AcDbEntity
  8
0
100
AcDbLine
 62
7
  6
CONTINUOUS
 10
851.1252755219
 20
611.9140040656
 11
851.1252755219
 21
612.7650680919
  0
LINE
  5
3D7
100
AcDbEntity
  8
0
100
AcDbLine
 62
7
  6
CONTINUOUS
 10
851.9586092526
 20
611.7012381335
 11
851.9586092526
 21
611.1693233033
  0
LINE
  5
3D8
100
AcDbEntity
  8
0
100
AcDbLine
 62
7
  6
CONTINUOUS
 10
853.6252755219
 20
616.1693233033
 11
853.6252755219
 21
611.7012381335
  0
LINE
  5
3D9
100
AcDbEntity
  8
0
100
AcDbLine
 62
7
  6
CONTINUOUS
 10
854.2502755219
 20
611.7012381335
 11
854.2502755219
 21
616.1693233033
  0
LINE
  5
3DA
100
AcDbEntity
  8
0
100
AcDbLine
 62
7
  6
CONTINUOUS
 10
855.9169417912
 20
611.1693233033
 11
855.9169417912
 21
611.7012381335
  0
LINE
  5
3DB
100
AcDbEntity
  8
0
100
AcDbLine
 62
7
  6
CONTINUOUS
 10
856.8544417912
 20
612.7650680919
 11
856.8544417912
 21
612.3395359297
  0
LINE
  5
3DC
100
AcDbEntity
  8
0
100
AcDbLine
 62
7
  6
CONTINUOUS
 10
857.4794417912
 20
612.3395359297
 11
857.4794417912
 21
612.6586851259
  0
LINE
  5
3DD
100
AcDbEntity
  8
0
100
AcDbLine
 62
7
  6
CONTINUOUS
 10
860.0836092526
 20
616.1693233033
 11
860.0836092526
 21
613.9352807184
  0
LINE
  5
3DE
100
AcDbEntity
  8
0
100
AcDbLine
 62
7
  6
CONTINUOUS
 10
860.0836092526
 20
613.2969829221
 11
860.0836092526
 21
611.7012381335
  0
LINE
  5
3DF
100
AcDbEntity
  8
0
100
AcDbLine
 62
7
  6
CONTINUOUS
 10
860.7086086565
 20
611.1693233033
 11
860.7086086565
 21
616.1693233033
  0
LINE
  5
3E0
100
AcDbEntity
  8
0
100
AcDbLine
 62
7
  6
CONTINUOUS
 10
861.5419423872
 20
614.4671956976
 11
861.5419423872
 21
611.1693233033
  0
LINE
  5
3E1
100
AcDbEntity
  8
0
100
AcDbLine
 62
7
  6
CONTINUOUS
 10
862.1669423872
 20
611.1693233033
 11
862.1669423872
 21
614.4671956976
  0
LINE
  5
3E2
100
AcDbEntity
  8
0
100
AcDbLine
 62
7
  6
CONTINUOUS
 10
864.6669423872
 20
614.4671956976
 11
864.6669423872
 21
611.1693233033
  0
LINE
  5
3E3
100
AcDbEntity
  8
0
100
AcDbLine
 62
7
  6
CONTINUOUS
 10
865.2919420892
 20
611.1693233033
 11
865.2919420892
 21
614.4671956976
  0
LINE
  5
3E4
100
AcDbEntity
  8
0
100
AcDbLine
 62
7
  6
CONTINUOUS
 10
869.5627755219
 20
614.4671956976
 11
869.5627755219
 21
612.871451058
  0
LINE
  5
3E5
100
AcDbEntity
  8
0
100
AcDbLine
 62
7
  6
CONTINUOUS
 10
870.1877755219
 20
612.871451058
 11
870.1877755219
 21
614.4671956976
  0
LINE
  5
3E6
100
AcDbEntity
  8
0
100
AcDbLine
 62
7
  6
CONTINUOUS
 10
848.9377755219
 20
612.5523021599
 11
849.0419429833
 21
613.2969829221
  0
LINE
  5
3E7
100
AcDbEntity
  8
0
100
AcDbLine
 62
7
  6
CONTINUOUS
 10
848.5211080605
 20
613.2969829221
 11
848.4169429833
 21
612.6586851259
  0
LINE
  5
3E8
100
AcDbEntity
  8
0
100
AcDbLine
 62
7
  6
CONTINUOUS
 10
861.6461086565
 20
614.9991105278
 11
861.5419423872
 21
614.4671956976
  0
LINE
  5
3E9
100
AcDbEntity
  8
0
100
AcDbLine
 62
7
  6
CONTINUOUS
 10
866.2294420892
 20
615.4246424665
 11
866.1252755219
 21
614.8927275618
  0
LINE
  5
3EA
100
AcDbEntity
  8
0
100
AcDbLine
 62
7
  6
CONTINUOUS
 10
870.0836088521
 20
612.3395359297
 11
870.1877755219
 21
612.871451058
  0
LINE
  5
3EB
100
AcDbEntity
  8
0
100
AcDbLine
 62
7
  6
CONTINUOUS
 10
862.1669423872
 20
614.4671956976
 11
862.2711086565
 21
614.8927275618
  0
LINE
  5
3EC
100
AcDbEntity
  8
0
100
AcDbLine
 62
7
  6
CONTINUOUS
 10
869.5627755219
 20
612.871451058
 11
869.45860888
 21
612.4459191938
  0
LINE
  5
3ED
100
AcDbEntity
  8
0
100
AcDbLine
 62
7
  6
CONTINUOUS
 10
856.9586092526
 20
613.0842169901
 11
856.8544417912
 21
612.7650680919
  0
LINE
  5
3EE
100
AcDbEntity
  8
0
100
AcDbLine
 62
7
  6
CONTINUOUS
 10
857.4794417912
 20
612.6586851259
 11
857.5836092526
 21
612.977834024
  0
LINE
  5
3EF
100
AcDbEntity
  8
0
100
AcDbLine
 62
7
  6
CONTINUOUS
 10
866.7502755219
 20
614.8927275618
 11
866.8544420892
 21
615.2118764599
  0
LINE
  5
3F0
100
AcDbEntity
  8
0
100
AcDbLine
 62
7
  6
CONTINUOUS
 10
864.5627755219
 20
614.8927275618
 11
864.6669423872
 21
614.4671956976
  0
LINE
  5
3F1
100
AcDbEntity
  8
0
100
AcDbLine
 62
7
  6
CONTINUOUS
 10
869.45860888
 20
614.8927275618
 11
869.5627755219
 21
614.4671956976
  0
LINE
  5
3F2
100
AcDbEntity
  8
0
100
AcDbLine
 62
7
  6
CONTINUOUS
 10
865.2919420892
 20
614.4671956976
 11
865.1877755219
 21
614.9991105278
  0
LINE
  5
3F3
100
AcDbEntity
  8
0
100
AcDbLine
 62
7
  6
CONTINUOUS
 10
866.1252755219
 20
612.4459191938
 11
866.2294420892
 21
611.9140040656
  0
LINE
  5
3F4
100
AcDbEntity
  8
0
100
AcDbLine
 62
7
  6
CONTINUOUS
 10
870.1877755219
 20
614.4671956976
 11
870.0836088521
 21
614.9991105278
  0
LINE
  5
3F5
100
AcDbEntity
  8
0
100
AcDbLine
 62
7
  6
CONTINUOUS
 10
849.0419429833
 20
614.0416636844
 11
848.9377755219
 21
614.7863445957
  0
LINE
  5
3F6
100
AcDbEntity
  8
BEZUGSACHSEN
100
AcDbLine
 62
7
  6
CONTINUOUS
 10
873.239859491
 20
646.1193233033
 11
873.239859491
 21
627.2193233033
  0
LINE
  5
3F7
100
AcDbEntity
  8
BEZUGSACHSEN
100
AcDbLine
 62
7
  6
CONTINUOUS
 10
893.239859491
 20
646.1193233033
 11
893.239859491
 21
627.2193233033
  0
LINE
  5
3F8
100
AcDbEntity
  8
0
100
AcDbLine
 62
7
  6
CONTINUOUS
 10
1006.6597543772
 20
504.6693233033
 11
1025.8749195359
 21
504.6693233033
  0
LINE
  5
3F9
100
AcDbEntity
  8
0
100
AcDbLine
 62
7
  6
CONTINUOUS
 10
1006.6596418019
 20
768.6693233033
 11
996.2673369565
 21
762.6693233033
  0
LINE
  5
3FA
100
AcDbEntity
  8
0
100
AcDbLine
 62
7
  6
CONTINUOUS
 10
996.2673369565
 20
510.6693233033
 11
1036.2673369565
 21
510.6693233033
  0
LINE
  5
3FB
100
AcDbEntity
  8
0
100
AcDbLine
 62
7
  6
CONTINUOUS
 10
996.2673369565
 20
510.6693233033
 11
1006.6596418019
 21
504.6693233033
  0
LINE
  5
3FC
100
AcDbEntity
  8
0
100
AcDbLine
 62
7
  6
CONTINUOUS
 10
996.2673369565
 20
521.6693233033
 11
1036.2673369565
 21
521.6693233033
  0
LINE
  5
3FD
100
AcDbEntity
  8
0
100
AcDbLine
 62
7
  6
CONTINUOUS
 10
1004.9275909944
 20
536.6693233033
 11
1027.6070829187
 21
536.6693233033
  0
LINE
  5
3FE
100
AcDbEntity
  8
0
100
AcDbLine
 62
7
  6
CONTINUOUS
 10
1036.2673369565
 20
751.6693233033
 11
1027.6070829187
 21
736.6693233033
  0
LINE
  5
3FF
100
AcDbEntity
  8
RUNDUNGEN
100
AcDbLine
 62
7
  6
CONTINUOUS
 10
1036.7673369565
 20
594.6693233033
 11
1019.6875383898
 21
594.6693233033
  0
LINE
  5
400
100
AcDbEntity
  8
BEZUGSACHSEN
100
AcDbLine
 62
7
  6
CONTINUOUS
 10
995.7673369565
 20
594.6693233033
 11
1019.6875383898
 21
594.6693233033
  0
LINE
  5
401
100
AcDbEntity
  8
0
100
AcDbLine
 62
7
  6
CONTINUOUS
 10
1012.8471355233
 20
594.6693233033
 11
1019.6875383898
 21
594.6693233033
  0
LINE
  5
402
100
AcDbEntity
  8
0
100
AcDbLine
 62
7
  6
CONTINUOUS
 10
1027.6070829187
 20
536.6693233033
 11
1036.2673369565
 21
521.6693233033
  0
LINE
  5
403
100
AcDbEntity
  8
BEZUGSACHSEN
100
AcDbLine
 62
7
  6
CONTINUOUS
 10
992.7673369565
 20
659.1031698904
 11
992.7674644241
 21
659.0755150667
  0
LINE
  5
404
100
AcDbEntity
  8
BEZUGSACHSEN
100
AcDbLine
 62
7
  6
CONTINUOUS
 10
992.7673369565
 20
597.6693233033
 11
992.7673369565
 21
675.6693233033
  0
LINE
  5
405
100
AcDbEntity
  8
0
100
AcDbLine
 62
7
  6
CONTINUOUS
 10
996.2673369565
 20
762.6693233033
 11
996.2673369565
 21
751.6693233033
  0
LINE
  5
406
100
AcDbEntity
  8
0
100
AcDbLine
 62
7
  6
CONTINUOUS
 10
996.2673369565
 20
521.6693233033
 11
996.2673369565
 21
510.6693233033
  0
LINE
  5
407
100
AcDbEntity
  8
0
100
AcDbLine
 62
7
  6
CONTINUOUS
 10
1006.2673369565
 20
736.6693233033
 11
1006.2673369565
 21
678.6693233033
  0
LINE
  5
408
100
AcDbEntity
  8
0
100
AcDbLine
 62
7
  6
CONTINUOUS
 10
1006.2673369565
 20
594.6693233033
 11
1006.2673369565
 21
536.6693233033
  0
LINE
  5
409
100
AcDbEntity
  8
BEZUGSACHSEN
100
AcDbLine
 62
7
  6
CONTINUOUS
 10
1006.2673369565
 20
627.2193233033
 11
1006.2673369565
 21
646.1193233033
  0
LINE
  5
40A
100
AcDbEntity
  8
BEZUGSACHSEN
100
AcDbLine
 62
7
  6
CONTINUOUS
 10
995.7673369565
 20
627.2193233033
 11
1033.7763360771
 21
627.2193233033
  0
LINE
  5
40B
100
AcDbEntity
  8
RUNDUNGEN
100
AcDbLine
 62
7
  6
CONTINUOUS
 10
998.7583378359
 20
627.2193233033
 11
1036.7673369565
 21
627.2193233033
  0
LINE
  5
40C
100
AcDbEntity
  8
0
100
AcDbLine
 62
7
  6
CONTINUOUS
 10
1026.2673369565
 20
736.6693233033
 11
1026.2673369565
 21
678.6693233033
  0
LINE
  5
40D
100
AcDbEntity
  8
0
100
AcDbLine
 62
7
  6
CONTINUOUS
 10
1026.2673369565
 20
594.6693233033
 11
1026.2673369565
 21
536.6693233033
  0
LINE
  5
40E
100
AcDbEntity
  8
BEZUGSACHSEN
100
AcDbLine
 62
7
  6
CONTINUOUS
 10
1026.2673369565
 20
627.2193233033
 11
1026.2673369565
 21
646.1193233033
  0
LINE
  5
40F
100
AcDbEntity
  8
BEZUGSACHSEN
100
AcDbLine
 62
7
  6
CONTINUOUS
 10
995.7673369565
 20
646.1193233033
 11
1036.7673369565
 21
646.1193233033
  0
LINE
  5
410
100
AcDbEntity
  8
RUNDUNGEN
100
AcDbLine
 62
7
  6
CONTINUOUS
 10
1039.7673369565
 20
614.2354767161
 11
1039.767209488
 21
614.2631316406
  0
LINE
  5
411
100
AcDbEntity
  8
0
100
AcDbLine
 62
7
  6
CONTINUOUS
 10
1036.2673369565
 20
762.6693233033
 11
1036.2673369565
 21
751.6693233033
  0
LINE
  5
412
100
AcDbEntity
  8
0
100
AcDbLine
 62
7
  6
CONTINUOUS
 10
1036.2673369565
 20
521.6693233033
 11
1036.2673369565
 21
510.6693233033
  0
LINE
  5
413
100
AcDbEntity
  8
RUNDUNGEN
100
AcDbLine
 62
7
  6
CONTINUOUS
 10
1039.7673369565
 20
624.2193233033
 11
1039.7673369565
 21
597.6693233033
  0
LINE
  5
414
100
AcDbEntity
  8
BEZUGSACHSEN
100
AcDbLine
 62
7
  6
CONTINUOUS
 10
1039.7673369565
 20
624.2193233033
 11
1039.7673369565
 21
675.6693233033
  0
LINE
  5
415
100
AcDbEntity
  8
0
100
AcDbLine
 62
7
  6
CONTINUOUS
 10
1004.9275909944
 20
536.6693233033
 11
996.2673369565
 21
521.6693233033
  0
LINE
  5
416
100
AcDbEntity
  8
0
100
AcDbLine
 62
7
  6
CONTINUOUS
 10
996.2673369565
 20
751.6693233033
 11
1004.9275909944
 21
736.6693233033
  0
LINE
  5
417
100
AcDbEntity
  8
BEZUGSACHSEN
100
AcDbLine
 62
7
  6
CONTINUOUS
 10
995.7673369565
 20
678.6693233033
 11
1036.7673369565
 21
678.6693233033
  0
LINE
  5
418
100
AcDbEntity
  8
0
100
AcDbLine
 62
7
  6
CONTINUOUS
 10
1004.9275909944
 20
736.6693233033
 11
1027.6070829187
 21
736.6693233033
  0
LINE
  5
419
100
AcDbEntity
  8
0
100
AcDbLine
 62
7
  6
CONTINUOUS
 10
1036.2673369565
 20
510.6693233033
 11
1025.8750321111
 21
504.6693233033
  0
LINE
  5
41A
100
AcDbEntity
  8
0
100
AcDbLine
 62
7
  6
CONTINUOUS
 10
996.2673369565
 20
751.6693233033
 11
1036.2673369565
 21
751.6693233033
  0
LINE
  5
41B
100
AcDbEntity
  8
0
100
AcDbLine
 62
7
  6
CONTINUOUS
 10
1025.8750321111
 20
768.6693233033
 11
1036.2673369565
 21
762.6693233033
  0
LINE
  5
41C
100
AcDbEntity
  8
0
100
AcDbLine
 62
7
  6
CONTINUOUS
 10
996.2673369565
 20
762.6693233033
 11
1036.2673369565
 21
762.6693233033
  0
LINE
  5
41D
100
AcDbEntity
  8
0
100
AcDbLine
 62
7
  6
CONTINUOUS
 10
1006.6597543772
 20
768.6693233033
 11
1025.8749195359
 21
768.6693233033
  0
LWPOLYLINE
  5
41E
100
AcDbEntity
  8
BEZUGSACHSEN
100
AcDbPolyline
 62
7
  6
CONTINUOUS
 90
7
 70
0
 10
35.9281627619
 20
347.1463858695
 10
35.9587148644
 20
345.8982635224
 10
36.0839281143
 20
344.331610186
 10
36.3053491771
 20
342.7757263668
 10
36.6221368371
 20
341.2365062529
 10
37.0331616432
 20
339.7195620472
 10
37.4346865121
 20
338.5094693657
  0
LWPOLYLINE
  5
41F
100
AcDbEntity
  8
RUNDUNGEN
100
AcDbPolyline
 62
7
  6
CONTINUOUS
 90
7
 70
0
 10
35.9281627619
 20
347.1463858696
 10
35.9587148644
 20
345.8982635227
 10
36.0839281143
 20
344.3316101863
 10
36.3053491771
 20
342.775726367
 10
36.622136837
 20
341.236506253
 10
37.0331616432
 20
339.7195620472
 10
37.4346865121
 20
338.5094693657
  0
LWPOLYLINE
  5
420
100
AcDbEntity
  8
BEZUGSACHSEN
100
AcDbPolyline
 62
7
  6
CONTINUOUS
 90
7
 70
0
 10
37.4346865121
 20
355.7833023734
 10
37.0331616432
 20
354.573209692
 10
36.6221368371
 20
353.0562654863
 10
36.3053491771
 20
351.5170453724
 10
36.0839281143
 20
349.9611615532
 10
35.9587148644
 20
348.3945082169
 10
35.9281627619
 20
347.1463858695
  0
LWPOLYLINE
  5
421
100
AcDbEntity
  8
BEZUGSACHSEN
100
AcDbPolyline
 62
7
  6
CONTINUOUS
 90
10
 70
0
 10
37.4346854834
 20
338.5094682684
 10
37.992397453
 20
337.0614962332
 10
38.7810450905
 20
335.284656674
 10
39.691602793
 20
333.5089839191
 10
40.7258701373
 20
331.7465199741
 10
41.8829638645
 20
330.0101338986
 10
43.159559255
 20
328.3120825701
 10
44.5509673201
 20
326.662391645
 10
46.0500340601
 20
325.0702194559
 10
46.6357978406
 20
324.4918179277
  0
LWPOLYLINE
  5
422
100
AcDbEntity
  8
RUNDUNGEN
100
AcDbPolyline
 62
7
  6
CONTINUOUS
 90
10
 70
0
 10
37.4346854834
 20
338.5094682684
 10
37.992397453
 20
337.0614962332
 10
38.7810450905
 20
335.284656674
 10
39.691602793
 20
333.5089839191
 10
40.7258701373
 20
331.7465199741
 10
41.8829638645
 20
330.0101338986
 10
43.159559255
 20
328.3120825701
 10
44.5509673201
 20
326.662391645
 10
46.0500340601
 20
325.0702194559
 10
46.6357978406
 20
324.4918179277
  0
LINE
  5
423
100
AcDbEntity
  8
BEZUGSACHSEN
100
AcDbLine
 62
7
  6
CONTINUOUS
 10
110.239859491
 20
367.6463858696
 11
110.239859491
 21
326.6463858696
  0
LWPOLYLINE
  5
424
100
AcDbEntity
  8
BEZUGSACHSEN
100
AcDbPolyline
 62
7
  6
CONTINUOUS
 90
10
 70
0
 10
46.6357978406
 20
369.8009538115
 10
46.0500340601
 20
369.2225522832
 10
44.5509673201
 20
367.6303800942
 10
43.159559255
 20
365.980689169
 10
41.8829638645
 20
364.2826378405
 10
40.7258701373
 20
362.546251765
 10
39.691602793
 20
360.78378782
 10
38.7810450905
 20
359.0081150652
 10
37.992397453
 20
357.231275506
 10
37.4346854834
 20
355.7833034707
  0
LINE
  5
425
100
AcDbEntity
  8
RUNDUNGEN
100
AcDbLine
 62
7
  6
CONTINUOUS
 10
169.239859491
 20
314.6463858696
 11
169.239859491
 21
379.6463858696
  0
LINE
  5
426
100
AcDbEntity
  8
RUNDUNGEN
100
AcDbLine
 62
7
  6
CONTINUOUS
 10
175.239859491
 20
381.1463858696
 11
175.239859491
 21
313.1463858696
  0
LINE
  5
427
100
AcDbEntity
  8
BEZUGSACHSEN
100
AcDbLine
 62
7
  6
CONTINUOUS
 10
46.6372699367
 20
369.8023780785
 11
46.6367374034
 21
369.8018637152
  0
LINE
  5
428
100
AcDbEntity
  8
BEZUGSACHSEN
100
AcDbLine
 62
7
  6
CONTINUOUS
 10
46.7670136519
 20
369.9207068267
 11
46.6367491887
 21
369.8018241509
  0
LINE
  5
429
100
AcDbEntity
  8
RUNDUNGEN
100
AcDbLine
 62
7
  6
CONTINUOUS
 10
46.6367491887
 20
324.4909475882
 11
46.7670136519
 21
324.3720649124
  0
LWPOLYLINE
  5
42A
100
AcDbEntity
  8
BEZUGSACHSEN
100
AcDbPolyline
 62
7
  6
CONTINUOUS
 90
8
 70
0
 10
46.6367491878
 20
324.4909475891
 10
46.7569267397
 20
324.3807801299
 10
47.0401672998
 20
324.1631138906
 10
47.3472748384
 20
323.9806514556
 10
47.6738962063
 20
323.83598012
 10
48.0154018888
 20
323.7311515438
 10
48.3669514709
 20
323.6676528931
 10
48.7235607267
 20
323.6463858696
  0
LINE
  5
42B
100
AcDbEntity
  8
BEZUGSACHSEN
100
AcDbLine
 62
7
  6
CONTINUOUS
 10
46.6372699366
 20
324.4903936607
 11
46.6367374034
 21
324.4909080239
  0
LINE
  5
42C
100
AcDbEntity
  8
RUNDUNGEN
100
AcDbLine
 62
7
  6
CONTINUOUS
 10
46.6372699367
 20
324.4903936606
 11
46.6367374034
 21
324.4909080239
  0
LINE
  5
42D
100
AcDbEntity
  8
BEZUGSACHSEN
100
AcDbLine
 62
7
  6
CONTINUOUS
 10
47.0493744893
 20
370.135873497
 11
46.7569267397
 21
369.9119916092
  0
LINE
  5
42E
100
AcDbEntity
  8
RUNDUNGEN
100
AcDbLine
 62
7
  6
CONTINUOUS
 10
46.7670136519
 20
324.3720649124
 11
47.0493744893
 21
324.1568982421
  0
LINE
  5
42F
100
AcDbEntity
  8
RUNDUNGEN
100
AcDbLine
 62
7
  6
CONTINUOUS
 10
220.739859491
 20
316.1463858696
 11
220.739859491
 21
378.1463858696
  0
LINE
  5
430
100
AcDbEntity
  8
BEZUGSACHSEN
100
AcDbLine
 62
7
  6
CONTINUOUS
 10
47.3551779749
 20
370.3161851105
 11
47.0401672998
 21
370.1296578486
  0
LINE
  5
431
100
AcDbEntity
  8
RUNDUNGEN
100
AcDbLine
 62
7
  6
CONTINUOUS
 10
47.0493744893
 20
324.1568982421
 11
47.3551779749
 21
323.9765866286
  0
LINE
  5
432
100
AcDbEntity
  8
RUNDUNGEN
100
AcDbLine
 62
7
  6
CONTINUOUS
 10
259.1973101426
 20
320.8269563334
 11
259.1967151844
 21
320.8245159841
  0
LINE
  5
433
100
AcDbEntity
  8
0
100
AcDbLine
 62
7
  6
CONTINUOUS
 10
255.0566411577
 20
377.1463051418
 11
256.1653194539
 21
370.1463858696
  0
LINE
  5
434
100
AcDbEntity
  8
0
100
AcDbLine
 62
7
  6
CONTINUOUS
 10
297.377359491
 20
370.1463858696
 11
297.377359491
 21
371.1463858696
  0
LWPOLYLINE
  5
435
100
AcDbEntity
  8
RUNDUNGEN
100
AcDbPolyline
 62
7
  6
CONTINUOUS
 90
4
 70
0
 10
259.1711207142
 20
320.7354365116
 10
259.1742745412
 20
320.7419761459
 10
259.2004608065
 20
320.7919091365
 10
259.2471613567
 20
320.8717971555
  0
LINE
  5
436
100
AcDbEntity
  8
RUNDUNGEN
100
AcDbLine
 62
7
  6
CONTINUOUS
 10
47.3551779749
 20
323.9765866286
 11
47.680143102
 21
323.8336552297
  0
LINE
  5
437
100
AcDbEntity
  8
0
100
AcDbLine
 62
7
  6
CONTINUOUS
 10
303.027359491
 20
370.1463858696
 11
303.027359491
 21
371.1463858696
  0
LINE
  5
438
100
AcDbEntity
  8
0
100
AcDbLine
 62
7
  6
CONTINUOUS
 10
308.677359491
 20
370.1463858696
 11
308.677359491
 21
371.1463858696
  0
LINE
  5
439
100
AcDbEntity
  8
RUNDUNGEN
100
AcDbLine
 62
7
  6
CONTINUOUS
 10
259.2471613567
 20
320.8717971555
 11
259.3157966871
 21
320.9786952768
  0
LINE
  5
43A
100
AcDbEntity
  8
RUNDUNGEN
100
AcDbLine
 62
7
  6
CONTINUOUS
 10
259.3116133577
 20
320.9724234083
 11
259.4079325967
 21
321.1108821139
  0
LINE
  5
43B
100
AcDbEntity
  8
RUNDUNGEN
100
AcDbLine
 62
7
  6
CONTINUOUS
 10
259.4024532441
 20
321.1032894146
 11
259.5244457243
 21
321.2662803921
  0
LWPOLYLINE
  5
43C
100
AcDbEntity
  8
RUNDUNGEN
100
AcDbPolyline
 62
7
  6
CONTINUOUS
 90
26
 70
0
 10
259.5175195288
 20
321.2573368511
 10
259.6665938247
 20
321.4438000128
 10
259.8351834277
 20
321.6419917124
 10
260.0317291243
 20
321.8603708941
 10
260.2578417677
 20
322.0985033013
 10
260.5140841966
 20
322.354752408
 10
260.8017507419
 20
322.6281607437
 10
261.1193693923
 20
322.9151516452
 10
261.4655511775
 20
323.2123895168
 10
261.8386041278
 20
323.516394454
 10
262.2362641368
 20
323.8233796635
 10
262.6560693622
 20
324.1295008054
 10
263.0950841687
 20
324.4307255134
 10
263.5500606671
 20
324.7230526038
 10
264.0164924813
 20
325.0020043188
 10
264.4924534093
 20
325.2649594146
 10
264.9739134739
 20
325.5083866402
 10
265.4611727101
 20
325.7312287929
 10
265.9532874539
 20
325.9315667236
 10
266.4499564586
 20
326.1078603434
 10
266.9512967381
 20
326.2585377061
 10
267.4545312353
 20
326.3813039185
 10
267.9581572686
 20
326.4747675885
 10
268.4584862371
 20
326.5376877772
 10
268.9519835474
 20
326.5700211146
 10
269.2398578733
 20
326.5751038973
  0
LWPOLYLINE
  5
43D
100
AcDbEntity
  8
BEZUGSACHSEN
100
AcDbPolyline
 62
7
  6
CONTINUOUS
 90
3
 70
0
 10
48.0197208484
 20
370.5626657884
 10
47.680143102
 20
370.4591165094
 10
47.3472748384
 20
370.3121202836
  0
LINE
  5
43E
100
AcDbEntity
  8
RUNDUNGEN
100
AcDbLine
 62
7
  6
CONTINUOUS
 10
47.680143102
 20
323.8336552297
 11
48.0175852193
 21
323.7307571797
  0
LINE
  5
43F
100
AcDbEntity
  8
RUNDUNGEN
100
AcDbLine
 62
7
  6
CONTINUOUS
 10
240.4951825144
 20
315.8254610196
 11
243.6256317844
 21
317.950550863
  0
LINE
  5
440
100
AcDbEntity
  8
RUNDUNGEN
100
AcDbLine
 62
7
  6
CONTINUOUS
 10
243.6256146196
 20
317.9505293392
 11
243.8305050502
 21
318.0825139104
  0
LINE
  5
441
100
AcDbEntity
  8
RUNDUNGEN
100
AcDbLine
 62
7
  6
CONTINUOUS
 10
239.9791574569
 20
315.5187302501
 11
240.3629549152
 21
315.7387699942
  0
LINE
  5
442
100
AcDbEntity
  8
RUNDUNGEN
100
AcDbLine
 62
7
  6
CONTINUOUS
 10
243.8158311772
 20
318.073521412
 11
244.2106417071
 21
318.2927439971
  0
LWPOLYLINE
  5
443
100
AcDbEntity
  8
RUNDUNGEN
100
AcDbPolyline
 62
7
  6
CONTINUOUS
 90
11
 70
0
 10
231.122923164
 20
314.4667552787
 10
231.1149839297
 20
314.4624068295
 10
231.1228123706
 20
314.4662548129
 10
231.148995304
 20
314.478219691
 10
231.1941683778
 20
314.4972562938
 10
231.2582572256
 20
314.5221577898
 10
231.3408005091
 20
314.5516915073
 10
231.4419292167
 20
314.5849477637
 10
231.561237301
 20
314.6209338834
 10
231.6985294218
 20
314.6587768688
 10
231.8531981218
 20
314.6975222839
  0
LINE
  5
444
100
AcDbEntity
  8
BEZUGSACHSEN
100
AcDbLine
 62
7
  6
CONTINUOUS
 10
896.1127675111
 20
323.6676528931
 11
896.4621337627
 21
323.7307571797
  0
LINE
  5
445
100
AcDbEntity
  8
RUNDUNGEN
100
AcDbLine
 62
7
  6
CONTINUOUS
 10
48.0197208484
 20
323.7301059507
 11
48.3680588913
 21
323.6675868502
  0
LINE
  5
446
100
AcDbEntity
  8
0
100
AcDbLine
 62
7
  6
CONTINUOUS
 10
240.5312477283
 20
380.242146091
 11
243.6610632806
 21
378.0506256481
  0
LINE
  5
447
100
AcDbEntity
  8
RUNDUNGEN
100
AcDbLine
 62
7
  6
CONTINUOUS
 10
244.1951220394
 20
318.2849755312
 11
244.6082166535
 21
318.4702087818
  0
LINE
  5
448
100
AcDbEntity
  8
0
100
AcDbLine
 62
7
  6
CONTINUOUS
 10
434.4230778243
 20
377.1463051418
 11
433.3143995281
 21
370.1463858696
  0
LINE
  5
449
100
AcDbEntity
  8
0
100
AcDbLine
 62
7
  6
CONTINUOUS
 10
445.536859105
 20
377.2066932488
 11
446.5792114895
 21
377.5860784904
  0
LINE
  5
44A
100
AcDbEntity
  8
RUNDUNGEN
100
AcDbLine
 62
7
  6
CONTINUOUS
 10
244.5919767984
 20
318.4637396364
 11
245.0200744386
 21
318.6136260772
  0
LINE
  5
44B
100
AcDbEntity
  8
BEZUGSACHSEN
100
AcDbLine
 62
7
  6
CONTINUOUS
 10
895.7561582552
 20
323.6463858696
 11
896.1116600906
 21
323.6675868502
  0
LWPOLYLINE
  5
44C
100
AcDbEntity
  8
RUNDUNGEN
100
AcDbPolyline
 62
7
  6
CONTINUOUS
 90
8
 70
0
 10
895.7561582548
 20
323.6463858696
 10
896.1105612763
 20
323.6673896369
 10
896.4599981336
 20
323.7301059507
 10
896.7995758799
 20
323.8336552297
 10
897.1245410071
 20
323.9765866286
 10
897.4303444927
 20
324.1568982421
 10
897.7127053301
 20
324.3720649124
 10
897.8429697933
 20
324.4909475882
  0
LINE
  5
44D
100
AcDbEntity
  8
0
100
AcDbLine
 62
7
  6
CONTINUOUS
 10
174.239859491
 20
312.1463858696
 11
171.739859491
 21
312.1463858696
  0
LINE
  5
44E
100
AcDbEntity
  8
RUNDUNGEN
100
AcDbLine
 62
7
  6
CONTINUOUS
 10
174.239859491
 20
312.1463858696
 11
171.739859491
 21
312.1463858696
  0
LINE
  5
44F
100
AcDbEntity
  8
0
100
AcDbLine
 62
7
  6
CONTINUOUS
 10
223.739859491
 20
313.1463858696
 11
229.239859491
 21
313.1463858696
  0
LINE
  5
450
100
AcDbEntity
  8
RUNDUNGEN
100
AcDbLine
 62
7
  6
CONTINUOUS
 10
234.239859491
 20
314.9572256555
 11
237.6633655336
 21
314.9572256555
  0
LINE
  5
451
100
AcDbEntity
  8
0
100
AcDbLine
 62
7
  6
CONTINUOUS
 10
452.239859491
 20
316.6463858696
 11
492.239859491
 21
316.6463858696
  0
LINE
  5
452
100
AcDbEntity
  8
0
100
AcDbLine
 62
7
  6
CONTINUOUS
 10
700.5566402563
 20
316.6463858696
 11
721.3329681825
 21
316.6463858696
  0
LINE
  5
453
100
AcDbEntity
  8
RUNDUNGEN
100
AcDbLine
 62
7
  6
CONTINUOUS
 10
48.3691577056
 20
323.6673896369
 11
48.7235607272
 21
323.6463858696
  0
LINE
  5
454
100
AcDbEntity
  8
RUNDUNGEN
100
AcDbLine
 62
7
  6
CONTINUOUS
 10
442.0267959955
 20
326.108835266
 11
442.5533869544
 21
325.9212474348
  0
LINE
  5
455
100
AcDbEntity
  8
RUNDUNGEN
100
AcDbLine
 62
7
  6
CONTINUOUS
 10
442.5343565191
 20
325.9285401878
 11
443.0553686489
 21
325.7152300152
  0
LINE
  5
456
100
AcDbEntity
  8
RUNDUNGEN
100
AcDbLine
 62
7
  6
CONTINUOUS
 10
443.0367809855
 20
325.7233240165
 11
443.55170758
 21
325.4861664985
  0
LINE
  5
457
100
AcDbEntity
  8
RUNDUNGEN
100
AcDbLine
 62
7
  6
CONTINUOUS
 10
443.5335799098
 20
325.4949676357
 11
443.8249205903
 21
325.3495927059
  0
LINE
  5
458
100
AcDbEntity
  8
RUNDUNGEN
100
AcDbLine
 62
7
  6
CONTINUOUS
 10
443.8244922713
 20
325.3498120801
 11
443.8249334931
 21
325.3495855762
  0
LWPOLYLINE
  5
459
100
AcDbEntity
  8
RUNDUNGEN
100
AcDbPolyline
 62
7
  6
CONTINUOUS
 90
13
 70
0
 10
443.8244971195
 20
325.3498215773
 10
443.8435832645
 20
325.3393123378
 10
443.870887436
 20
325.3226535908
 10
443.90498467
 20
325.2998814905
 10
443.9445917245
 20
325.2712909551
 10
443.9883500971
 20
325.2374487865
 10
444.03532711
 20
325.198755985
 10
444.0847711405
 20
325.1556583749
 10
444.1360998309
 20
325.1085357131
 10
444.1887666126
 20
325.0577889754
 10
444.2424445267
 20
325.0036932304
 10
444.2968224419
 20
324.946544047
 10
444.338790538
 20
324.9008608904
  0
LWPOLYLINE
  5
45A
100
AcDbEntity
  8
RUNDUNGEN
100
AcDbPolyline
 62
7
  6
CONTINUOUS
 90
15
 70
0
 10
445.4666681743
 20
323.7143972437
 10
445.5883781877
 20
323.6348329136
 10
445.9846261468
 20
323.3657856854
 10
446.3601849093
 20
323.0962662159
 10
446.7145703278
 20
322.8283970018
 10
447.0475340357
 20
322.563966573
 10
447.358668507
 20
322.30478458
 10
447.6477985362
 20
322.0524092709
 10
447.9144313631
 20
321.8085885521
 10
448.1583251598
 20
321.5748206192
 10
448.3790181142
 20
321.3528581238
 10
448.5763524065
 20
321.1442142246
 10
448.7499280423
 20
320.9507375159
 10
448.8997943148
 20
320.7739825827
 10
449.0258026441
 20
320.6160056203
  0
LWPOLYLINE
  5
45B
100
AcDbEntity
  8
RUNDUNGEN
100
AcDbPolyline
 62
7
  6
CONTINUOUS
 90
3
 70
0
 10
445.2969745866
 20
323.8420926084
 10
445.4256187274
 20
323.741958143
 10
445.4667835337
 20
323.7143171682
  0
LINE
  5
45C
100
AcDbEntity
  8
RUNDUNGEN
100
AcDbLine
 62
7
  6
CONTINUOUS
 10
445.1925525006
 20
323.9431750079
 11
445.2969745866
 21
323.8420926084
  0
LWPOLYLINE
  5
45D
100
AcDbEntity
  8
RUNDUNGEN
100
AcDbPolyline
 62
7
  6
CONTINUOUS
 90
4
 70
0
 10
445.148578504
 20
323.9901892175
 10
445.2205373434
 20
323.9132553882
 10
445.3551334796
 20
323.7940550355
 10
445.4665958964
 20
323.7144440751
  0
LINE
  5
45E
100
AcDbEntity
  8
RUNDUNGEN
100
AcDbLine
 62
7
  6
CONTINUOUS
 10
444.3387882026
 20
324.9008634742
 11
444.583093212
 21
324.629525031
  0
LINE
  5
45F
100
AcDbEntity
  8
RUNDUNGEN
100
AcDbLine
 62
7
  6
CONTINUOUS
 10
444.583093212
 20
324.629525031
 11
444.9489497688
 21
324.2177079255
  0
LINE
  5
460
100
AcDbEntity
  8
RUNDUNGEN
100
AcDbLine
 62
7
  6
CONTINUOUS
 10
444.9430638328
 20
324.2243602473
 11
445.1490785584
 21
323.9895952813
  0
LINE
  5
461
100
AcDbEntity
  8
RUNDUNGEN
100
AcDbLine
 62
7
  6
CONTINUOUS
 10
449.0203620201
 20
320.6230439475
 11
449.1282307831
 21
320.4786827673
  0
LINE
  5
462
100
AcDbEntity
  8
RUNDUNGEN
100
AcDbLine
 62
7
  6
CONTINUOUS
 10
449.1237931775
 20
320.4848437814
 11
449.2076448072
 21
320.3639605235
  0
LWPOLYLINE
  5
463
100
AcDbEntity
  8
RUNDUNGEN
100
AcDbPolyline
 62
7
  6
CONTINUOUS
 90
4
 70
0
 10
449.2042348887
 20
320.3690876253
 10
449.2651287877
 20
320.2736340384
 10
449.3018931572
 20
320.2100651526
 10
449.3141747664
 20
320.1868550915
  0
LINE
  5
464
100
AcDbEntity
  8
RUNDUNGEN
100
AcDbLine
 62
7
  6
CONTINUOUS
 10
449.239859491
 20
320.3151080513
 11
449.239859491
 21
319.6463858696
  0
LINE
  5
465
100
AcDbEntity
  8
RUNDUNGEN
100
AcDbLine
 62
7
  6
CONTINUOUS
 10
232.8755822416
 20
314.8767456128
 11
233.1453390979
 21
314.905811462
  0
LINE
  5
466
100
AcDbEntity
  8
RUNDUNGEN
100
AcDbLine
 62
7
  6
CONTINUOUS
 10
245.8554495386
 20
318.7923520126
 11
246.307082841
 21
318.8310800611
  0
LINE
  5
467
100
AcDbEntity
  8
RUNDUNGEN
100
AcDbLine
 62
7
  6
CONTINUOUS
 10
233.1254432584
 20
314.9038986775
 11
233.409380494
 21
314.9277928679
  0
LWPOLYLINE
  5
468
100
AcDbEntity
  8
RUNDUNGEN
100
AcDbPolyline
 62
7
  6
CONTINUOUS
 90
8
 70
0
 10
237.8266064791
 20
314.95988093
 10
238.2697111739
 20
314.9936651736
 10
238.7077209707
 20
315.0661316583
 10
239.1372239908
 20
315.176598952
 10
239.5549946677
 20
315.3242115078
 10
239.9579519974
 20
315.50784901
 10
240.3429036586
 20
315.726135017
 10
240.4951591735
 20
315.8254630511
  0
LINE
  5
469
100
AcDbEntity
  8
RUNDUNGEN
100
AcDbLine
 62
7
  6
CONTINUOUS
 10
504.9894217162
 20
326.5710513306
 11
504.9963189602
 21
326.5714673101
  0
LINE
  5
46A
100
AcDbEntity
  8
RUNDUNGEN
100
AcDbLine
 62
7
  6
CONTINUOUS
 10
233.3880066472
 20
314.9262464918
 11
233.6845564545
 21
314.944115247
  0
LWPOLYLINE
  5
46B
100
AcDbEntity
  8
RUNDUNGEN
100
AcDbPolyline
 62
7
  6
CONTINUOUS
 90
14
 70
0
 10
256.6812371003
 20
318.8357902882
 10
256.9733945623
 20
318.8518727229
 10
257.236060934
 20
318.8946139244
 10
257.4905194731
 20
318.9632458844
 10
257.7348581913
 20
319.0568032261
 10
257.9671003612
 20
319.1741571266
 10
258.1857564918
 20
319.3143426608
 10
258.3886809516
 20
319.4758294405
 10
258.5744249833
 20
319.657407493
 10
258.7412036778
 20
319.8573063879
 10
258.8878495334
 20
320.0743112385
 10
259.0126462991
 20
320.3062646426
 10
259.1147252942
 20
320.5517254767
 10
259.170039169
 20
320.7357615807
  0
LINE
  5
46C
100
AcDbEntity
  8
RUNDUNGEN
100
AcDbLine
 62
7
  6
CONTINUOUS
 10
233.6617734689
 20
314.9430136424
 11
233.9690610349
 21
314.9541187705
  0
LINE
  5
46D
100
AcDbEntity
  8
RUNDUNGEN
100
AcDbLine
 62
7
  6
CONTINUOUS
 10
246.289465969
 20
318.8303050217
 11
246.5289454628
 21
318.8357749992
  0
LWPOLYLINE
  5
46E
100
AcDbEntity
  8
RUNDUNGEN
100
AcDbPolyline
 62
7
  6
CONTINUOUS
 90
7
 70
0
 10
237.6633655455
 20
314.9572397464
 10
237.8501379894
 20
314.9606952212
 10
238.2932664352
 20
314.9965616441
 10
238.7310510359
 20
315.0711098114
 10
239.1600874734
 20
315.1836227324
 10
239.577141988
 20
315.3332109054
 10
239.9791574569
 20
315.5187302501
  0
LINE
  5
46F
100
AcDbEntity
  8
RUNDUNGEN
100
AcDbLine
 62
7
  6
CONTINUOUS
 10
233.9449737167
 20
314.9535404511
 11
234.2398594912
 21
314.9572250997
  0
LWPOLYLINE
  5
470
100
AcDbEntity
  8
RUNDUNGEN
100
AcDbPolyline
 62
7
  6
CONTINUOUS
 90
14
 70
0
 10
256.6812309229
 20
318.8357906564
 10
256.7252302229
 20
318.8361478362
 10
256.9942321975
 20
318.8542678857
 10
257.2568239961
 20
318.899181868
 10
257.5110334077
 20
318.9700179604
 10
257.7549182479
 20
319.0657888978
 10
257.9864779429
 20
319.1853399137
 10
258.2041949984
 20
319.3276640963
 10
258.4059644674
 20
319.4912238707
 10
258.5903643865
 20
319.6748162208
 10
258.7556567755
 20
319.8767126864
 10
258.9007074527
 20
320.0958046112
 10
259.023769963
 20
320.329965795
 10
259.1185837343
 20
320.5645629842
  0
LINE
  5
471
100
AcDbEntity
  8
0
100
AcDbLine
 62
7
  6
CONTINUOUS
 10
688.239859491
 20
317.1463858696
 11
699.2119686751
 21
317.1463858696
  0
LINE
  5
472
100
AcDbEntity
  8
RUNDUNGEN
100
AcDbLine
 62
7
  6
CONTINUOUS
 10
246.5289454626
 20
318.8357828683
 11
256.6811992081
 21
318.8357828683
  0
LINE
  5
473
100
AcDbEntity
  8
RUNDUNGEN
100
AcDbLine
 62
7
  6
CONTINUOUS
 10
895.7555170425
 20
323.6463858696
 11
837.239859491
 21
323.6463858696
  0
LINE
  5
474
100
AcDbEntity
  8
BEZUGSACHSEN
100
AcDbLine
 62
7
  6
CONTINUOUS
 10
48.7242019852
 20
323.6463858696
 11
107.239859491
 21
323.6463858696
  0
LINE
  5
475
100
AcDbEntity
  8
RUNDUNGEN
100
AcDbLine
 62
7
  6
CONTINUOUS
 10
439.239859491
 20
326.5751024788
 11
269.2398578834
 21
326.5751024788
  0
LINE
  5
476
100
AcDbEntity
  8
RUNDUNGEN
100
AcDbLine
 62
7
  6
CONTINUOUS
 10
505.239859491
 20
326.5751024788
 11
675.2398586894
 21
326.5751024788
  0
LINE
  5
477
100
AcDbEntity
  8
0
100
AcDbLine
 62
7
  6
CONTINUOUS
 10
220.739859491
 20
331.1463858696
 11
175.239859491
 21
331.1463858696
  0
LINE
  5
478
100
AcDbEntity
  8
0
100
AcDbLine
 62
7
  6
CONTINUOUS
 10
169.239859491
 20
331.1463858696
 11
114.239859491
 21
331.1463858696
  0
LINE
  5
479
100
AcDbEntity
  8
0
100
AcDbLine
 62
7
  6
CONTINUOUS
 10
725.3779720118
 20
331.1463858696
 11
830.239859491
 21
331.1463858696
  0
LINE
  5
47A
100
AcDbEntity
  8
RUNDUNGEN
100
AcDbLine
 62
7
  6
CONTINUOUS
 10
439.2398613982
 20
326.5751040465
 11
439.5037351644
 21
326.5708343262
  0
LINE
  5
47B
100
AcDbEntity
  8
RUNDUNGEN
100
AcDbLine
 62
7
  6
CONTINUOUS
 10
675.2398586844
 20
326.5751063354
 11
675.5367703861
 21
326.5696963435
  0
LINE
  5
47C
100
AcDbEntity
  8
RUNDUNGEN
100
AcDbLine
 62
7
  6
CONTINUOUS
 10
439.4834529833
 20
326.5714659751
 11
440.0008099714
 21
326.5396141887
  0
LINE
  5
47D
100
AcDbEntity
  8
RUNDUNGEN
100
AcDbLine
 62
7
  6
CONTINUOUS
 10
675.5199825618
 20
326.5702898101
 11
676.0281450986
 21
326.5370250484
  0
LINE
  5
47E
100
AcDbEntity
  8
RUNDUNGEN
100
AcDbLine
 62
7
  6
CONTINUOUS
 10
439.9804480695
 20
326.5414841295
 11
440.5083299833
 21
326.4768190906
  0
LINE
  5
47F
100
AcDbEntity
  8
RUNDUNGEN
100
AcDbLine
 62
7
  6
CONTINUOUS
 10
440.4880475521
 20
326.4799219821
 11
441.0212257807
 21
326.382155179
  0
LINE
  5
480
100
AcDbEntity
  8
RUNDUNGEN
100
AcDbLine
 62
7
  6
CONTINUOUS
 10
441.0011271727
 20
326.3864460521
 11
441.534439943
 21
326.2568947098
  0
LINE
  5
481
100
AcDbEntity
  8
RUNDUNGEN
100
AcDbLine
 62
7
  6
CONTINUOUS
 10
441.5146340562
 20
326.262283746
 11
442.0462320814
 21
326.1024405665
  0
LINE
  5
482
100
AcDbEntity
  8
RUNDUNGEN
100
AcDbLine
 62
7
  6
CONTINUOUS
 10
495.239859491
 20
320.3147704065
 11
495.239859491
 21
319.6464834765
  0
LWPOLYLINE
  5
483
100
AcDbEntity
  8
RUNDUNGEN
100
AcDbPolyline
 62
7
  6
CONTINUOUS
 90
7
 70
0
 10
495.1617572685
 20
320.1810658481
 10
495.157956027
 20
320.1715240584
 10
495.160456806
 20
320.1766556634
 10
495.1792534886
 20
320.2126767046
 10
495.2169971465
 20
320.2775958402
 10
495.2754985921
 20
320.3691068108
 10
495.3559479447
 20
320.4848738327
  0
LWPOLYLINE
  5
484
100
AcDbEntity
  8
RUNDUNGEN
100
AcDbPolyline
 62
7
  6
CONTINUOUS
 90
16
 70
0
 10
495.3514932232
 20
320.4786854581
 10
495.4593880322
 20
320.6230849198
 10
495.5863389566
 20
320.7817702434
 10
495.7371024579
 20
320.9591031542
 10
495.911540081
 20
321.1530679369
 10
496.1096482677
 20
321.3620755474
 10
496.3310353953
 20
321.5842743925
 10
496.5755474675
 20
321.8181764413
 10
496.8427068225
 20
322.0620366545
 10
497.1323063428
 20
322.3143758811
 10
497.4438877245
 20
322.5734717652
 10
497.77723443
 20
322.8377515682
 10
498.1319238384
 20
323.1053892506
 10
498.5077501187
 20
323.3746157043
 10
498.9042585471
 20
323.6433401967
 10
499.012685295
 20
323.7141525201
  0
LINE
  5
485
100
AcDbEntity
  8
RUNDUNGEN
100
AcDbLine
 62
7
  6
CONTINUOUS
 10
499.3306179195
 20
323.9895903725
 11
499.5366473977
 21
324.2243514502
  0
LINE
  5
486
100
AcDbEntity
  8
RUNDUNGEN
100
AcDbLine
 62
7
  6
CONTINUOUS
 10
499.5307554126
 20
324.2176922886
 11
499.8966127452
 21
324.6295104567
  0
LINE
  5
487
100
AcDbEntity
  8
RUNDUNGEN
100
AcDbLine
 62
7
  6
CONTINUOUS
 10
499.8966127452
 20
324.6295104567
 11
500.1409309338
 21
324.9008636567
  0
LINE
  5
488
100
AcDbEntity
  8
RUNDUNGEN
100
AcDbLine
 62
7
  6
CONTINUOUS
 10
500.1409313965
 20
324.9008642862
 11
500.1738295369
 21
324.9367885022
  0
LINE
  5
489
100
AcDbEntity
  8
RUNDUNGEN
100
AcDbLine
 62
7
  6
CONTINUOUS
 10
499.2872382532
 20
323.9432520653
 11
499.3311433695
 21
323.9901925486
  0
LINE
  5
48A
100
AcDbEntity
  8
RUNDUNGEN
100
AcDbLine
 62
7
  6
CONTINUOUS
 10
500.1642071812
 20
324.9263700161
 11
500.2219749912
 21
324.9878563701
  0
LINE
  5
48B
100
AcDbEntity
  8
RUNDUNGEN
100
AcDbLine
 62
7
  6
CONTINUOUS
 10
500.2125849842
 20
324.9780359612
 11
500.2696305416
 21
325.0365897118
  0
LINE
  5
48C
100
AcDbEntity
  8
RUNDUNGEN
100
AcDbLine
 62
7
  6
CONTINUOUS
 10
500.2605343406
 20
325.0274215381
 11
500.3166441888
 21
325.0828323221
  0
LINE
  5
48D
100
AcDbEntity
  8
RUNDUNGEN
100
AcDbLine
 62
7
  6
CONTINUOUS
 10
500.3078334569
 20
325.0743112342
 11
500.362836222
 21
325.126430563
  0
LWPOLYLINE
  5
48E
100
AcDbEntity
  8
RUNDUNGEN
100
AcDbPolyline
 62
7
  6
CONTINUOUS
 90
10
 70
0
 10
500.3542700847
 20
325.1185113792
 10
500.3995833574
 20
325.1597963105
 10
500.4434738637
 20
325.1979595366
 10
500.4853670559
 20
325.2326153083
 10
500.5245719388
 20
325.2633406198
 10
500.5607964268
 20
325.2900663878
 10
500.5938744884
 20
325.3128636619
 10
500.6216661626
 20
325.3306581361
 10
500.6419287215
 20
325.3426445187
 10
500.6539884888
 20
325.3491742774
  0
LINE
  5
48F
100
AcDbEntity
  8
RUNDUNGEN
100
AcDbLine
 62
7
  6
CONTINUOUS
 10
499.0131294878
 20
323.7144435726
 11
499.0815236584
 21
323.7632942974
  0
LWPOLYLINE
  5
490
100
AcDbEntity
  8
RUNDUNGEN
100
AcDbPolyline
 62
7
  6
CONTINUOUS
 90
5
 70
0
 10
499.0129933778
 20
323.7143558281
 10
499.0542552379
 20
323.7420648436
 10
499.1828864553
 20
323.8422089095
 10
499.300273703
 20
323.9558742052
 10
499.3305437852
 20
323.989505776
  0
LINE
  5
491
100
AcDbEntity
  8
RUNDUNGEN
100
AcDbLine
 62
7
  6
CONTINUOUS
 10
500.6400875077
 20
325.3415553427
 11
500.6438443753
 21
325.3436817491
  0
LINE
  5
492
100
AcDbEntity
  8
RUNDUNGEN
100
AcDbLine
 62
7
  6
CONTINUOUS
 10
500.6482930672
 20
325.3460904925
 11
500.6539487708
 21
325.3490793153
  0
LINE
  5
493
100
AcDbEntity
  8
RUNDUNGEN
100
AcDbLine
 62
7
  6
CONTINUOUS
 10
500.653984412
 20
325.3491822188
 11
500.6547932637
 21
325.3495960869
  0
LWPOLYLINE
  5
494
100
AcDbEntity
  8
RUNDUNGEN
100
AcDbPolyline
 62
7
  6
CONTINUOUS
 90
11
 70
0
 10
500.6547932637
 20
325.3495960869
 10
500.9280582582
 20
325.4861941616
 10
501.4244029013
 20
325.7152518129
 10
501.9263726324
 20
325.9212662397
 10
502.4335127698
 20
326.1024496703
 10
502.9452998931
 20
326.2569001835
 10
503.4585146269
 20
326.3821588724
 10
503.9714123886
 20
326.476822825
 10
504.4789196539
 20
326.5396154274
 10
504.9759822972
 20
326.5708338364
 10
505.2398594903
 20
326.5751042402
  0
LINE
  5
495
100
AcDbEntity
  8
RUNDUNGEN
100
AcDbLine
 62
7
  6
CONTINUOUS
 10
231.8531981218
 20
314.6975222839
 11
232.0375504389
 21
314.7390650935
  0
LINE
  5
496
100
AcDbEntity
  8
RUNDUNGEN
100
AcDbLine
 62
7
  6
CONTINUOUS
 10
232.0251154994
 20
314.7364089806
 11
232.2276353632
 21
314.7772183287
  0
LINE
  5
497
100
AcDbEntity
  8
RUNDUNGEN
100
AcDbLine
 62
7
  6
CONTINUOUS
 10
232.2137594257
 20
314.7745837397
 11
232.4341603447
 21
314.8137999563
  0
LINE
  5
498
100
AcDbEntity
  8
RUNDUNGEN
100
AcDbLine
 62
7
  6
CONTINUOUS
 10
245.4255736955
 20
318.7183055199
 11
245.872951607
 21
318.7945897829
  0
LWPOLYLINE
  5
499
100
AcDbEntity
  8
RUNDUNGEN
100
AcDbPolyline
 62
7
  6
CONTINUOUS
 90
3
 70
0
 10
232.4188046426
 20
314.8112445464
 10
232.6565546404
 20
314.8479984597
 10
232.8939633446
 20
314.8789440887
  0
LINE
  5
49A
100
AcDbEntity
  8
RUNDUNGEN
100
AcDbLine
 62
7
  6
CONTINUOUS
 10
232.6396922014
 20
314.845585986
 11
232.8755822416
 21
314.8767456128
  0
LINE
  5
49B
100
AcDbEntity
  8
0
100
AcDbLine
 62
7
  6
CONTINUOUS
 10
220.739859491
 20
355.1463858696
 11
175.239859491
 21
355.1463858696
  0
LINE
  5
49C
100
AcDbEntity
  8
0
100
AcDbLine
 62
7
  6
CONTINUOUS
 10
169.239859491
 20
355.1463858696
 11
113.2370788398
 21
355.1463858696
  0
LINE
  5
49D
100
AcDbEntity
  8
0
100
AcDbLine
 62
7
  6
CONTINUOUS
 10
220.739859491
 20
361.0027923301
 11
175.239859491
 21
361.0027923301
  0
LINE
  5
49E
100
AcDbEntity
  8
0
100
AcDbLine
 62
7
  6
CONTINUOUS
 10
169.239859491
 20
361.0027923301
 11
125.239859491
 21
361.0027923301
  0
LINE
  5
49F
100
AcDbEntity
  8
0
100
AcDbLine
 62
7
  6
CONTINUOUS
 10
220.739859491
 20
363.1463858696
 11
175.239859491
 21
363.1463858696
  0
LINE
  5
4A0
100
AcDbEntity
  8
0
100
AcDbLine
 62
7
  6
CONTINUOUS
 10
169.239859491
 20
363.1463858696
 11
114.239859491
 21
363.1463858696
  0
LINE
  5
4A1
100
AcDbEntity
  8
0
100
AcDbLine
 62
7
  6
CONTINUOUS
 10
725.3779720118
 20
363.1463858696
 11
830.239859491
 21
363.1463858696
  0
LINE
  5
4A2
100
AcDbEntity
  8
0
100
AcDbLine
 62
7
  6
CONTINUOUS
 10
688.3143995281
 20
370.1463858696
 11
511.1653194539
 21
370.1463858696
  0
LINE
  5
4A3
100
AcDbEntity
  8
0
100
AcDbLine
 62
7
  6
CONTINUOUS
 10
433.3143995281
 20
370.1463858696
 11
256.1653194539
 21
370.1463858696
  0
LINE
  5
4A4
100
AcDbEntity
  8
BEZUGSACHSEN
100
AcDbLine
 62
7
  6
CONTINUOUS
 10
895.7555169967
 20
370.6463858696
 11
837.239859491
 21
370.6463858696
  0
LINE
  5
4A5
100
AcDbEntity
  8
BEZUGSACHSEN
100
AcDbLine
 62
7
  6
CONTINUOUS
 10
48.7242019394
 20
370.6463858696
 11
107.239859491
 21
370.6463858696
  0
LINE
  5
4A6
100
AcDbEntity
  8
0
100
AcDbLine
 62
7
  6
CONTINUOUS
 10
297.377359491
 20
371.1463858696
 11
308.677359491
 21
371.1463858696
  0
LINE
  5
4A7
100
AcDbEntity
  8
0
100
AcDbLine
 62
7
  6
CONTINUOUS
 10
520.239859491
 20
371.1463858696
 11
531.939859491
 21
371.1463858696
  0
LINE
  5
4A8
100
AcDbEntity
  8
0
100
AcDbLine
 62
7
  6
CONTINUOUS
 10
533.739859491
 20
371.1463858696
 11
544.539859491
 21
371.1463858696
  0
LINE
  5
4A9
100
AcDbEntity
  8
0
100
AcDbLine
 62
7
  6
CONTINUOUS
 10
547.239859491
 20
371.1463858696
 11
558.264859491
 21
371.1463858696
  0
LINE
  5
4AA
100
AcDbEntity
  8
0
100
AcDbLine
 62
7
  6
CONTINUOUS
 10
578.489859491
 20
371.1463858696
 11
580.052359491
 21
371.1463858696
  0
LINE
  5
4AB
100
AcDbEntity
  8
0
100
AcDbLine
 62
7
  6
CONTINUOUS
 10
582.1356927001
 20
371.1463858696
 11
592.2919423276
 21
371.1463858696
  0
LINE
  5
4AC
100
AcDbEntity
  8
0
100
AcDbLine
 62
7
  6
CONTINUOUS
 10
594.3752766544
 20
371.1463858696
 11
603.7502751642
 21
371.1463858696
  0
LINE
  5
4AD
100
AcDbEntity
  8
0
100
AcDbLine
 62
7
  6
CONTINUOUS
 10
605.833609491
 20
371.1463858696
 11
609.4794438177
 21
371.1463858696
  0
LINE
  5
4AE
100
AcDbEntity
  8
0
100
AcDbLine
 62
7
  6
CONTINUOUS
 10
611.5627751642
 20
371.1463858696
 11
621.7190251642
 21
371.1463858696
  0
LINE
  5
4AF
100
AcDbEntity
  8
0
100
AcDbLine
 62
7
  6
CONTINUOUS
 10
623.802359491
 20
371.1463858696
 11
633.177359491
 21
371.1463858696
  0
LINE
  5
4B0
100
AcDbEntity
  8
0
100
AcDbLine
 62
7
  6
CONTINUOUS
 10
635.2606908375
 20
371.1463858696
 11
645.1565281445
 21
371.1463858696
  0
LINE
  5
4B1
100
AcDbEntity
  8
0
100
AcDbLine
 62
7
  6
CONTINUOUS
 10
647.239859491
 20
371.1463858696
 11
657.1356908375
 21
371.1463858696
  0
LINE
  5
4B2
100
AcDbEntity
  8
0
100
AcDbLine
 62
7
  6
CONTINUOUS
 10
659.2190281445
 20
371.1463858696
 11
662.3440281445
 21
371.1463858696
  0
LINE
  5
4B3
100
AcDbEntity
  8
0
100
AcDbLine
 62
7
  6
CONTINUOUS
 10
664.427359491
 20
371.1463858696
 11
673.802359491
 21
371.1463858696
  0
LINE
  5
4B4
100
AcDbEntity
  8
RUNDUNGEN
100
AcDbLine
 62
7
  6
CONTINUOUS
 10
676.0108420901
 20
326.538678464
 11
676.5339494715
 21
326.4728282773
  0
LINE
  5
4B5
100
AcDbEntity
  8
RUNDUNGEN
100
AcDbLine
 62
7
  6
CONTINUOUS
 10
676.5161421945
 20
326.4756082791
 11
677.0475038716
 21
326.3764747963
  0
LINE
  5
4B6
100
AcDbEntity
  8
0
100
AcDbLine
 62
7
  6
CONTINUOUS
 10
520.239859491
 20
370.1463858696
 11
520.239859491
 21
371.1463858696
  0
LINE
  5
4B7
100
AcDbEntity
  8
0
100
AcDbLine
 62
7
  6
CONTINUOUS
 10
522.489859491
 20
370.1463858696
 11
522.489859491
 21
371.1463858696
  0
LINE
  5
4B8
100
AcDbEntity
  8
0
100
AcDbLine
 62
7
  6
CONTINUOUS
 10
529.3417832796
 20
370.1463858696
 11
529.3417832796
 21
371.1463858696
  0
LINE
  5
4B9
100
AcDbEntity
  8
0
100
AcDbLine
 62
7
  6
CONTINUOUS
 10
531.939859491
 20
370.1463858696
 11
531.939859491
 21
371.1463858696
  0
LINE
  5
4BA
100
AcDbEntity
  8
0
100
AcDbLine
 62
7
  6
CONTINUOUS
 10
533.739859491
 20
370.1463858696
 11
533.739859491
 21
371.1463858696
  0
LINE
  5
4BB
100
AcDbEntity
  8
RUNDUNGEN
100
AcDbLine
 62
7
  6
CONTINUOUS
 10
245.0032550503
 20
318.6085219587
 11
245.442811213
 21
318.7219916998
  0
LINE
  5
4BC
100
AcDbEntity
  8
BEZUGSACHSEN
100
AcDbLine
 62
7
  6
CONTINUOUS
 10
48.7235607267
 20
370.6463858696
 11
48.3680588913
 21
370.625184889
  0
LINE
  5
4BD
100
AcDbEntity
  8
0
100
AcDbLine
 62
7
  6
CONTINUOUS
 10
246.5289454623
 20
377.1463858696
 11
255.0634288842
 21
377.1463858696
  0
LINE
  5
4BE
100
AcDbEntity
  8
0
100
AcDbLine
 62
7
  6
CONTINUOUS
 10
434.4162900978
 20
377.1463858696
 11
445.1948389616
 21
377.1463858696
  0
LINE
  5
4BF
100
AcDbEntity
  8
0
100
AcDbLine
 62
7
  6
CONTINUOUS
 10
499.2848800203
 20
377.1463858696
 11
510.0634288865
 21
377.1463858696
  0
LINE
  5
4C0
100
AcDbEntity
  8
0
100
AcDbLine
 62
7
  6
CONTINUOUS
 10
689.4162900955
 20
377.1463858696
 11
699.2119686751
 21
377.1463858696
  0
LINE
  5
4C1
100
AcDbEntity
  8
0
100
AcDbLine
 62
7
  6
CONTINUOUS
 10
446.9212316328
 20
377.6463858696
 11
497.5584873492
 21
377.6463858696
  0
LINE
  5
4C2
100
AcDbEntity
  8
0
100
AcDbLine
 62
7
  6
CONTINUOUS
 10
700.5566402563
 20
377.6463858696
 11
721.3329681825
 21
377.6463858696
  0
LINE
  5
4C3
100
AcDbEntity
  8
0
100
AcDbLine
 62
7
  6
CONTINUOUS
 10
223.739859491
 20
381.1463858696
 11
237.6633655466
 21
381.1463858696
  0
LINE
  5
4C4
100
AcDbEntity
  8
0
100
AcDbLine
 62
7
  6
CONTINUOUS
 10
174.239859491
 20
382.1463858696
 11
171.739859491
 21
382.1463858696
  0
LINE
  5
4C5
100
AcDbEntity
  8
RUNDUNGEN
100
AcDbLine
 62
7
  6
CONTINUOUS
 10
174.239859491
 20
382.1463858696
 11
171.739859491
 21
382.1463858696
  0
LINE
  5
4C6
100
AcDbEntity
  8
BEZUGSACHSEN
100
AcDbLine
 62
7
  6
CONTINUOUS
 10
896.1105612763
 20
370.6253821022
 11
895.7561582548
 21
370.6463858696
  0
LINE
  5
4C7
100
AcDbEntity
  8
RUNDUNGEN
100
AcDbLine
 62
7
  6
CONTINUOUS
 10
677.0292754059
 20
326.3804223551
 11
677.5628163674
 21
326.2490978001
  0
LINE
  5
4C8
100
AcDbEntity
  8
RUNDUNGEN
100
AcDbLine
 62
7
  6
CONTINUOUS
 10
677.5442051122
 20
326.2542268155
 11
678.0762402284
 21
326.0924871918
  0
LINE
  5
4C9
100
AcDbEntity
  8
RUNDUNGEN
100
AcDbLine
 62
7
  6
CONTINUOUS
 10
678.0573266336
 20
326.0987667019
 11
678.5825932276
 21
325.9099877649
  0
LINE
  5
4CA
100
AcDbEntity
  8
0
100
AcDbLine
 62
7
  6
CONTINUOUS
 10
497.9005074925
 20
377.5860784904
 11
498.942859877
 21
377.2066932488
  0
LINE
  5
4CB
100
AcDbEntity
  8
0
100
AcDbLine
 62
7
  6
CONTINUOUS
 10
510.0566411577
 20
377.1463051414
 11
511.1653194539
 21
370.1463858696
  0
LINE
  5
4CC
100
AcDbEntity
  8
0
100
AcDbLine
 62
7
  6
CONTINUOUS
 10
544.539859491
 20
370.1463858696
 11
544.539859491
 21
371.1463858696
  0
LINE
  5
4CD
100
AcDbEntity
  8
0
100
AcDbLine
 62
7
  6
CONTINUOUS
 10
547.239859491
 20
370.1463858696
 11
547.239859491
 21
371.1463858696
  0
LINE
  5
4CE
100
AcDbEntity
  8
0
100
AcDbLine
 62
7
  6
CONTINUOUS
 10
558.264859491
 20
370.1463858696
 11
558.264859491
 21
371.1463858696
  0
LINE
  5
4CF
100
AcDbEntity
  8
RUNDUNGEN
100
AcDbLine
 62
7
  6
CONTINUOUS
 10
678.5634272582
 20
325.9173980386
 11
679.0807929675
 21
325.704097912
  0
LINE
  5
4D0
100
AcDbEntity
  8
RUNDUNGEN
100
AcDbLine
 62
7
  6
CONTINUOUS
 10
679.0614558361
 20
325.7125608611
 11
679.5692140146
 21
325.477641373
  0
LINE
  5
4D1
100
AcDbEntity
  8
RUNDUNGEN
100
AcDbLine
 62
7
  6
CONTINUOUS
 10
679.5498253385
 20
325.4870896823
 11
680.0460995783
 21
325.2336537849
  0
LINE
  5
4D2
100
AcDbEntity
  8
RUNDUNGEN
100
AcDbLine
 62
7
  6
CONTINUOUS
 10
680.0267515812
 20
325.2439875338
 11
680.5102935215
 21
324.9748030572
  0
LINE
  5
4D3
100
AcDbEntity
  8
0
100
AcDbLine
 62
7
  6
CONTINUOUS
 10
578.489859491
 20
370.1463858696
 11
578.489859491
 21
371.1463858696
  0
LINE
  5
4D4
100
AcDbEntity
  8
0
100
AcDbLine
 62
7
  6
CONTINUOUS
 10
580.052359491
 20
370.1463858696
 11
580.052359491
 21
371.1463858696
  0
LINE
  5
4D5
100
AcDbEntity
  8
0
100
AcDbLine
 62
7
  6
CONTINUOUS
 10
582.1356927001
 20
370.1463858696
 11
582.1356927001
 21
371.1463858696
  0
LINE
  5
4D6
100
AcDbEntity
  8
0
100
AcDbLine
 62
7
  6
CONTINUOUS
 10
582.396109491
 20
370.1463858696
 11
582.396109491
 21
371.1463858696
  0
LINE
  5
4D7
100
AcDbEntity
  8
0
100
AcDbLine
 62
7
  6
CONTINUOUS
 10
582.9169427001
 20
370.1463858696
 11
582.9169427001
 21
371.1463858696
  0
LINE
  5
4D8
100
AcDbEntity
  8
0
100
AcDbLine
 62
7
  6
CONTINUOUS
 10
583.958609491
 20
370.1463858696
 11
583.958609491
 21
371.1463858696
  0
LINE
  5
4D9
100
AcDbEntity
  8
0
100
AcDbLine
 62
7
  6
CONTINUOUS
 10
585.0002759093
 20
370.1463858696
 11
585.0002759093
 21
371.1463858696
  0
LINE
  5
4DA
100
AcDbEntity
  8
0
100
AcDbLine
 62
7
  6
CONTINUOUS
 10
586.302359491
 20
370.1463858696
 11
586.302359491
 21
371.1463858696
  0
LINE
  5
4DB
100
AcDbEntity
  8
0
100
AcDbLine
 62
7
  6
CONTINUOUS
 10
588.646109491
 20
370.1463858696
 11
588.646109491
 21
371.1463858696
  0
LINE
  5
4DC
100
AcDbEntity
  8
0
100
AcDbLine
 62
7
  6
CONTINUOUS
 10
589.9481930727
 20
370.1463858696
 11
589.9481930727
 21
371.1463858696
  0
LINE
  5
4DD
100
AcDbEntity
  8
0
100
AcDbLine
 62
7
  6
CONTINUOUS
 10
590.989859491
 20
370.1463858696
 11
590.989859491
 21
371.1463858696
  0
LINE
  5
4DE
100
AcDbEntity
  8
0
100
AcDbLine
 62
7
  6
CONTINUOUS
 10
592.0315266544
 20
370.1463858696
 11
592.0315266544
 21
371.1463858696
  0
LINE
  5
4DF
100
AcDbEntity
  8
0
100
AcDbLine
 62
7
  6
CONTINUOUS
 10
592.2919423276
 20
370.1463858696
 11
592.2919423276
 21
371.1463858696
  0
LINE
  5
4E0
100
AcDbEntity
  8
0
100
AcDbLine
 62
7
  6
CONTINUOUS
 10
699.7855451115
 20
377.3272338253
 11
699.9830638199
 21
377.4655379139
  0
LINE
  5
4E1
100
AcDbEntity
  8
BEZUGSACHSEN
100
AcDbLine
 62
7
  6
CONTINUOUS
 10
48.3669514709
 20
370.625118846
 11
48.0175852193
 21
370.5620145595
  0
LINE
  5
4E2
100
AcDbEntity
  8
RUNDUNGEN
100
AcDbLine
 62
7
  6
CONTINUOUS
 10
680.4911248871
 20
324.9859021997
 11
680.9599418924
 21
324.7042171188
  0
LINE
  5
4E3
100
AcDbEntity
  8
RUNDUNGEN
100
AcDbLine
 62
7
  6
CONTINUOUS
 10
680.9410867607
 20
324.7159565419
 11
681.393966712
 21
324.4245230563
  0
LINE
  5
4E4
100
AcDbEntity
  8
RUNDUNGEN
100
AcDbLine
 62
7
  6
CONTINUOUS
 10
681.3755475628
 20
324.4367660092
 11
681.8101535242
 21
324.1390437171
  0
LINE
  5
4E5
100
AcDbEntity
  8
0
100
AcDbLine
 62
7
  6
CONTINUOUS
 10
699.7855451115
 20
316.9655379139
 11
699.9830638199
 21
316.8272338253
  0
LINE
  5
4E6
100
AcDbEntity
  8
RUNDUNGEN
100
AcDbLine
 62
7
  6
CONTINUOUS
 10
681.7922981516
 20
324.1516418291
 11
682.2070217105
 21
323.8506591164
  0
LINE
  5
4E7
100
AcDbEntity
  8
RUNDUNGEN
100
AcDbLine
 62
7
  6
CONTINUOUS
 10
682.1898469499
 20
323.8634714818
 11
682.5829962865
 21
323.5623342724
  0
LINE
  5
4E8
100
AcDbEntity
  8
RUNDUNGEN
100
AcDbLine
 62
7
  6
CONTINUOUS
 10
682.5665925652
 20
323.5752352063
 11
682.9368196334
 21
323.2767638774
  0
LINE
  5
4E9
100
AcDbEntity
  8
0
100
AcDbLine
 62
7
  6
CONTINUOUS
 10
594.3752766544
 20
370.1463858696
 11
594.3752766544
 21
371.1463858696
  0
LINE
  5
4EA
100
AcDbEntity
  8
0
100
AcDbLine
 62
7
  6
CONTINUOUS
 10
603.7502751642
 20
370.1463858696
 11
603.7502751642
 21
371.1463858696
  0
LINE
  5
4EB
100
AcDbEntity
  8
0
100
AcDbLine
 62
7
  6
CONTINUOUS
 10
605.833609491
 20
370.1463858696
 11
605.833609491
 21
371.1463858696
  0
LINE
  5
4EC
100
AcDbEntity
  8
0
100
AcDbLine
 62
7
  6
CONTINUOUS
 10
609.4794438177
 20
370.1463858696
 11
609.4794438177
 21
371.1463858696
  0
LINE
  5
4ED
100
AcDbEntity
  8
0
100
AcDbLine
 62
7
  6
CONTINUOUS
 10
611.5627751642
 20
370.1463858696
 11
611.5627751642
 21
371.1463858696
  0
LINE
  5
4EE
100
AcDbEntity
  8
0
100
AcDbLine
 62
7
  6
CONTINUOUS
 10
611.8231938177
 20
370.1463858696
 11
611.8231938177
 21
371.1463858696
  0
LINE
  5
4EF
100
AcDbEntity
  8
0
100
AcDbLine
 62
7
  6
CONTINUOUS
 10
612.3440251642
 20
370.1463858696
 11
612.3440251642
 21
371.1463858696
  0
LINE
  5
4F0
100
AcDbEntity
  8
0
100
AcDbLine
 62
7
  6
CONTINUOUS
 10
613.3856938177
 20
370.1463858696
 11
613.3856938177
 21
371.1463858696
  0
LINE
  5
4F1
100
AcDbEntity
  8
0
100
AcDbLine
 62
7
  6
CONTINUOUS
 10
614.427359491
 20
370.1463858696
 11
614.427359491
 21
371.1463858696
  0
LINE
  5
4F2
100
AcDbEntity
  8
0
100
AcDbLine
 62
7
  6
CONTINUOUS
 10
615.7294438177
 20
370.1463858696
 11
615.7294438177
 21
371.1463858696
  0
LINE
  5
4F3
100
AcDbEntity
  8
0
100
AcDbLine
 62
7
  6
CONTINUOUS
 10
618.0731938177
 20
370.1463858696
 11
618.0731938177
 21
371.1463858696
  0
LINE
  5
4F4
100
AcDbEntity
  8
0
100
AcDbLine
 62
7
  6
CONTINUOUS
 10
619.3752751642
 20
370.1463858696
 11
619.3752751642
 21
371.1463858696
  0
LINE
  5
4F5
100
AcDbEntity
  8
0
100
AcDbLine
 62
7
  6
CONTINUOUS
 10
620.4169438177
 20
370.1463858696
 11
620.4169438177
 21
371.1463858696
  0
LINE
  5
4F6
100
AcDbEntity
  8
0
100
AcDbLine
 62
7
  6
CONTINUOUS
 10
621.458609491
 20
370.1463858696
 11
621.458609491
 21
371.1463858696
  0
LINE
  5
4F7
100
AcDbEntity
  8
0
100
AcDbLine
 62
7
  6
CONTINUOUS
 10
621.7190251642
 20
370.1463858696
 11
621.7190251642
 21
371.1463858696
  0
LINE
  5
4F8
100
AcDbEntity
  8
BEZUGSACHSEN
100
AcDbLine
 62
7
  6
CONTINUOUS
 10
896.4643170932
 20
323.7311515438
 11
896.8026414666
 21
323.8350035854
  0
LINE
  5
4F9
100
AcDbEntity
  8
RUNDUNGEN
100
AcDbLine
 62
7
  6
CONTINUOUS
 10
682.9212584643
 20
323.2896276927
 11
683.267264116
 21
322.9965937097
  0
LINE
  5
4FA
100
AcDbEntity
  8
RUNDUNGEN
100
AcDbLine
 62
7
  6
CONTINUOUS
 10
683.2526155345
 20
323.0093023689
 11
683.5734895144
 21
322.7241816517
  0
LINE
  5
4FB
100
AcDbEntity
  8
RUNDUNGEN
100
AcDbLine
 62
7
  6
CONTINUOUS
 10
683.5598154917
 20
322.7366300648
 11
683.8544909402
 21
322.4620429849
  0
LINE
  5
4FC
100
AcDbEntity
  8
RUNDUNGEN
100
AcDbLine
 62
7
  6
CONTINUOUS
 10
683.8418343834
 20
322.4741261588
 11
684.1095797402
 21
322.2124244044
  0
LINE
  5
4FD
100
AcDbEntity
  8
RUNDUNGEN
100
AcDbLine
 62
7
  6
CONTINUOUS
 10
684.0979947152
 20
322.2240260526
 11
684.3383212503
 21
321.977430898
  0
LINE
  5
4FE
100
AcDbEntity
  8
RUNDUNGEN
100
AcDbLine
 62
7
  6
CONTINUOUS
 10
684.3278460358
 20
321.9884527888
 11
684.5403972925
 21
321.759187202
  0
LWPOLYLINE
  5
4FF
100
AcDbEntity
  8
RUNDUNGEN
100
AcDbPolyline
 62
7
  6
CONTINUOUS
 90
3
 70
0
 10
684.5310260182
 20
321.7695657488
 10
684.7165812383
 20
321.5587012469
 10
684.8674539519
 20
321.3772551785
  0
LINE
  5
500
100
AcDbEntity
  8
RUNDUNGEN
100
AcDbLine
 62
7
  6
CONTINUOUS
 10
684.7083173052
 20
321.568354595
 11
684.8603238455
 21
321.3860712097
  0
LINE
  5
501
100
AcDbEntity
  8
0
100
AcDbLine
 62
7
  6
CONTINUOUS
 10
623.802359491
 20
370.1463858696
 11
623.802359491
 21
371.1463858696
  0
LINE
  5
502
100
AcDbEntity
  8
0
100
AcDbLine
 62
7
  6
CONTINUOUS
 10
624.0627751642
 20
370.1463858696
 11
624.0627751642
 21
371.1463858696
  0
LINE
  5
503
100
AcDbEntity
  8
0
100
AcDbLine
 62
7
  6
CONTINUOUS
 10
624.583609491
 20
370.1463858696
 11
624.583609491
 21
371.1463858696
  0
LINE
  5
504
100
AcDbEntity
  8
0
100
AcDbLine
 62
7
  6
CONTINUOUS
 10
625.6252751642
 20
370.1463858696
 11
625.6252751642
 21
371.1463858696
  0
LINE
  5
505
100
AcDbEntity
  8
0
100
AcDbLine
 62
7
  6
CONTINUOUS
 10
626.6669438177
 20
370.1463858696
 11
626.6669438177
 21
371.1463858696
  0
LINE
  5
506
100
AcDbEntity
  8
0
100
AcDbLine
 62
7
  6
CONTINUOUS
 10
627.9690251642
 20
370.1463858696
 11
627.9690251642
 21
371.1463858696
  0
LINE
  5
507
100
AcDbEntity
  8
0
100
AcDbLine
 62
7
  6
CONTINUOUS
 10
629.0106908375
 20
370.1463858696
 11
629.0106908375
 21
371.1463858696
  0
LINE
  5
508
100
AcDbEntity
  8
0
100
AcDbLine
 62
7
  6
CONTINUOUS
 10
630.3127781445
 20
370.1463858696
 11
630.3127781445
 21
371.1463858696
  0
LINE
  5
509
100
AcDbEntity
  8
0
100
AcDbLine
 62
7
  6
CONTINUOUS
 10
631.3544408375
 20
370.1463858696
 11
631.3544408375
 21
371.1463858696
  0
LINE
  5
50A
100
AcDbEntity
  8
0
100
AcDbLine
 62
7
  6
CONTINUOUS
 10
632.396109491
 20
370.1463858696
 11
632.396109491
 21
371.1463858696
  0
LINE
  5
50B
100
AcDbEntity
  8
0
100
AcDbLine
 62
7
  6
CONTINUOUS
 10
632.9169408375
 20
370.1463858696
 11
632.9169408375
 21
371.1463858696
  0
LINE
  5
50C
100
AcDbEntity
  8
0
100
AcDbLine
 62
7
  6
CONTINUOUS
 10
633.177359491
 20
370.1463858696
 11
633.177359491
 21
371.1463858696
  0
LINE
  5
50D
100
AcDbEntity
  8
0
100
AcDbLine
 62
7
  6
CONTINUOUS
 10
635.2606908375
 20
370.1463858696
 11
635.2606908375
 21
371.1463858696
  0
LINE
  5
50E
100
AcDbEntity
  8
0
100
AcDbLine
 62
7
  6
CONTINUOUS
 10
636.8231908375
 20
370.1463858696
 11
636.8231908375
 21
371.1463858696
  0
LINE
  5
50F
100
AcDbEntity
  8
0
100
AcDbLine
 62
7
  6
CONTINUOUS
 10
641.2502781445
 20
370.1463858696
 11
641.2502781445
 21
371.1463858696
  0
LINE
  5
510
100
AcDbEntity
  8
0
100
AcDbLine
 62
7
  6
CONTINUOUS
 10
643.333609491
 20
370.1463858696
 11
643.333609491
 21
371.1463858696
  0
LINE
  5
511
100
AcDbEntity
  8
0
100
AcDbLine
 62
7
  6
CONTINUOUS
 10
645.1565281445
 20
370.1463858696
 11
645.1565281445
 21
371.1463858696
  0
LINE
  5
512
100
AcDbEntity
  8
0
100
AcDbLine
 62
7
  6
CONTINUOUS
 10
647.239859491
 20
370.1463858696
 11
647.239859491
 21
371.1463858696
  0
LINE
  5
513
100
AcDbEntity
  8
0
100
AcDbLine
 62
7
  6
CONTINUOUS
 10
651.4065281445
 20
370.1463858696
 11
651.4065281445
 21
371.1463858696
  0
LWPOLYLINE
  5
514
100
AcDbEntity
  8
BEZUGSACHSEN
100
AcDbPolyline
 62
7
  6
CONTINUOUS
 90
3
 70
0
 10
896.8058227757
 20
370.4567916192
 10
896.4643170932
 20
370.5616201953
 10
896.1127675111
 20
370.625118846
  0
LINE
  5
515
100
AcDbEntity
  8
RUNDUNGEN
100
AcDbLine
 62
7
  6
CONTINUOUS
 10
684.8603238455
 20
321.3860712097
 11
684.9942020054
 21
321.2155274314
  0
LINE
  5
516
100
AcDbEntity
  8
RUNDUNGEN
100
AcDbLine
 62
7
  6
CONTINUOUS
 10
684.9882074627
 20
321.2234144942
 11
685.0979988914
 21
321.0742848055
  0
LINE
  5
517
100
AcDbEntity
  8
RUNDUNGEN
100
AcDbLine
 62
7
  6
CONTINUOUS
 10
685.093098873
 20
321.081182553
 11
685.17982411
 21
320.9547286334
  0
LWPOLYLINE
  5
518
100
AcDbEntity
  8
RUNDUNGEN
100
AcDbPolyline
 62
7
  6
CONTINUOUS
 90
4
 70
0
 10
685.1759938689
 20
320.960539115
 10
685.2382769268
 20
320.8624140534
 10
685.2808694705
 20
320.7889878915
 10
685.2926449199
 20
320.7671241894
  0
LINE
  5
519
100
AcDbEntity
  8
0
100
AcDbLine
 62
7
  6
CONTINUOUS
 10
652.9690281445
 20
370.1463858696
 11
652.9690281445
 21
371.1463858696
  0
LINE
  5
51A
100
AcDbEntity
  8
0
100
AcDbLine
 62
7
  6
CONTINUOUS
 10
657.1356908375
 20
370.1463858696
 11
657.1356908375
 21
371.1463858696
  0
LINE
  5
51B
100
AcDbEntity
  8
0
100
AcDbLine
 62
7
  6
CONTINUOUS
 10
659.2190281445
 20
370.1463858696
 11
659.2190281445
 21
371.1463858696
  0
LINE
  5
51C
100
AcDbEntity
  8
0
100
AcDbLine
 62
7
  6
CONTINUOUS
 10
660.7815281445
 20
370.1463858696
 11
660.7815281445
 21
371.1463858696
  0
LINE
  5
51D
100
AcDbEntity
  8
0
100
AcDbLine
 62
7
  6
CONTINUOUS
 10
662.3440281445
 20
370.1463858696
 11
662.3440281445
 21
371.1463858696
  0
LINE
  5
51E
100
AcDbEntity
  8
0
100
AcDbLine
 62
7
  6
CONTINUOUS
 10
664.427359491
 20
370.1463858696
 11
664.427359491
 21
371.1463858696
  0
LINE
  5
51F
100
AcDbEntity
  8
0
100
AcDbLine
 62
7
  6
CONTINUOUS
 10
664.6877781445
 20
370.1463858696
 11
664.6877781445
 21
371.1463858696
  0
LINE
  5
520
100
AcDbEntity
  8
0
100
AcDbLine
 62
7
  6
CONTINUOUS
 10
665.208609491
 20
370.1463858696
 11
665.208609491
 21
371.1463858696
  0
LINE
  5
521
100
AcDbEntity
  8
0
100
AcDbLine
 62
7
  6
CONTINUOUS
 10
665.989859491
 20
370.1463858696
 11
665.989859491
 21
371.1463858696
  0
LINE
  5
522
100
AcDbEntity
  8
0
100
AcDbLine
 62
7
  6
CONTINUOUS
 10
667.2919408375
 20
370.1463858696
 11
667.2919408375
 21
371.1463858696
  0
LINE
  5
523
100
AcDbEntity
  8
0
100
AcDbLine
 62
7
  6
CONTINUOUS
 10
668.5940281445
 20
370.1463858696
 11
668.5940281445
 21
371.1463858696
  0
LINE
  5
524
100
AcDbEntity
  8
0
100
AcDbLine
 62
7
  6
CONTINUOUS
 10
669.896109491
 20
370.1463858696
 11
669.896109491
 21
371.1463858696
  0
LINE
  5
525
100
AcDbEntity
  8
0
100
AcDbLine
 62
7
  6
CONTINUOUS
 10
671.1981908375
 20
370.1463858696
 11
671.1981908375
 21
371.1463858696
  0
LINE
  5
526
100
AcDbEntity
  8
0
100
AcDbLine
 62
7
  6
CONTINUOUS
 10
672.5002781445
 20
370.1463858696
 11
672.5002781445
 21
371.1463858696
  0
LINE
  5
527
100
AcDbEntity
  8
0
100
AcDbLine
 62
7
  6
CONTINUOUS
 10
673.2815281445
 20
370.1463858696
 11
673.2815281445
 21
371.1463858696
  0
LINE
  5
528
100
AcDbEntity
  8
0
100
AcDbLine
 62
7
  6
CONTINUOUS
 10
673.802359491
 20
370.1463858696
 11
673.802359491
 21
371.1463858696
  0
LINE
  5
529
100
AcDbEntity
  8
BEZUGSACHSEN
100
AcDbLine
 62
7
  6
CONTINUOUS
 10
896.8058227757
 20
323.83598012
 11
897.1324441436
 21
323.9806514556
  0
LINE
  5
52A
100
AcDbEntity
  8
BEZUGSACHSEN
100
AcDbLine
 62
7
  6
CONTINUOUS
 10
897.1324441436
 20
370.3121202836
 11
896.7995758799
 21
370.4591165094
  0
LINE
  5
52B
100
AcDbEntity
  8
RUNDUNGEN
100
AcDbLine
 62
7
  6
CONTINUOUS
 10
685.239859491
 20
320.8596858385
 11
685.239859491
 21
320.1463858696
  0
LINE
  5
52C
100
AcDbEntity
  8
0
100
AcDbLine
 62
7
  6
CONTINUOUS
 10
689.4230778242
 20
377.1463051414
 11
688.3143995281
 21
370.1463858696
  0
LINE
  5
52D
100
AcDbEntity
  8
BEZUGSACHSEN
100
AcDbLine
 62
7
  6
CONTINUOUS
 10
897.1324441436
 20
323.9806514556
 11
897.4395516822
 21
324.1631138906
  0
LINE
  5
52E
100
AcDbEntity
  8
0
100
AcDbLine
 62
7
  6
CONTINUOUS
 10
724.3165338686
 20
374.9599712594
 11
725.3779720118
 21
364.8610619194
  0
LINE
  5
52F
100
AcDbEntity
  8
0
100
AcDbLine
 62
7
  6
CONTINUOUS
 10
725.3779720118
 20
364.8610619194
 11
725.3779720118
 21
329.4317098198
  0
LINE
  5
530
100
AcDbEntity
  8
0
100
AcDbLine
 62
7
  6
CONTINUOUS
 10
724.3165338686
 20
319.3328004798
 11
725.3779720118
 21
329.4317098198
  0
LINE
  5
531
100
AcDbEntity
  8
BEZUGSACHSEN
100
AcDbLine
 62
7
  6
CONTINUOUS
 10
897.4395516822
 20
370.1296578486
 11
897.1245410071
 21
370.3161851105
  0
LWPOLYLINE
  5
532
100
AcDbEntity
  8
BEZUGSACHSEN
100
AcDbPolyline
 62
7
  6
CONTINUOUS
 90
3
 70
0
 10
897.4395516822
 20
324.1631138906
 10
897.7227922422
 20
324.3807801299
 10
897.8429697942
 20
324.4909475891
  0
LINE
  5
533
100
AcDbEntity
  8
BEZUGSACHSEN
100
AcDbLine
 62
7
  6
CONTINUOUS
 10
897.7227922422
 20
369.9119916092
 11
897.4303444927
 21
370.135873497
  0
LWPOLYLINE
  5
534
100
AcDbEntity
  8
BEZUGSACHSEN
100
AcDbPolyline
 62
7
  6
CONTINUOUS
 90
10
 70
0
 10
897.8439211414
 20
324.4918179277
 10
898.4296849219
 20
325.0702194559
 10
899.9287516619
 20
326.662391645
 10
901.320159727
 20
328.3120825701
 10
902.5967551175
 20
330.0101338986
 10
903.7538488447
 20
331.7465199741
 10
904.788116189
 20
333.5089839191
 10
905.6986738915
 20
335.284656674
 10
906.487321529
 20
337.0614962332
 10
907.0450334985
 20
338.5094682684
  0
LWPOLYLINE
  5
535
100
AcDbEntity
  8
RUNDUNGEN
100
AcDbPolyline
 62
7
  6
CONTINUOUS
 90
10
 70
0
 10
897.8439211414
 20
324.4918179277
 10
898.4296849219
 20
325.0702194559
 10
899.9287516619
 20
326.662391645
 10
901.320159727
 20
328.3120825701
 10
902.5967551175
 20
330.0101338986
 10
903.7538488447
 20
331.7465199741
 10
904.788116189
 20
333.5089839191
 10
905.6986738915
 20
335.284656674
 10
906.487321529
 20
337.0614962332
 10
907.0450334985
 20
338.5094682684
  0
LINE
  5
536
100
AcDbEntity
  8
BEZUGSACHSEN
100
AcDbLine
 62
7
  6
CONTINUOUS
 10
897.8424490454
 20
324.4903936607
 11
897.8429815786
 21
324.4909080239
  0
LINE
  5
537
100
AcDbEntity
  8
RUNDUNGEN
100
AcDbLine
 62
7
  6
CONTINUOUS
 10
897.8424490453
 20
324.4903936606
 11
897.8429815786
 21
324.4909080239
  0
LINE
  5
538
100
AcDbEntity
  8
BEZUGSACHSEN
100
AcDbLine
 62
7
  6
CONTINUOUS
 10
897.8429697933
 20
369.8018241509
 11
897.7127053301
 21
369.9207068267
  0
LINE
  5
539
100
AcDbEntity
  8
BEZUGSACHSEN
100
AcDbLine
 62
7
  6
CONTINUOUS
 10
897.8424490453
 20
369.8023780785
 11
897.8429815786
 21
369.8018637152
  0
LINE
  5
53A
100
AcDbEntity
  8
BEZUGSACHSEN
100
AcDbLine
 62
7
  6
CONTINUOUS
 10
834.239859491
 20
367.6463858696
 11
834.239859491
 21
326.6463858696
  0
LWPOLYLINE
  5
53B
100
AcDbEntity
  8
BEZUGSACHSEN
100
AcDbPolyline
 62
7
  6
CONTINUOUS
 90
7
 70
0
 10
908.5515562201
 20
347.1463858695
 10
908.5210041176
 20
348.3945082169
 10
908.3957908677
 20
349.9611615532
 10
908.1743698049
 20
351.5170453724
 10
907.8575821449
 20
353.0562654863
 10
907.4465573388
 20
354.573209692
 10
907.0450324699
 20
355.7833023734
  0
LWPOLYLINE
  5
53C
100
AcDbEntity
  8
BEZUGSACHSEN
100
AcDbPolyline
 62
7
  6
CONTINUOUS
 90
7
 70
0
 10
907.0450324699
 20
338.5094693657
 10
907.4465573388
 20
339.7195620472
 10
907.8575821449
 20
341.2365062529
 10
908.1743698049
 20
342.7757263668
 10
908.3957908677
 20
344.331610186
 10
908.5210041176
 20
345.8982635224
 10
908.5515562201
 20
347.1463858695
  0
LWPOLYLINE
  5
53D
100
AcDbEntity
  8
RUNDUNGEN
100
AcDbPolyline
 62
7
  6
CONTINUOUS
 90
7
 70
0
 10
907.0450324699
 20
338.5094693657
 10
907.4465573388
 20
339.7195620472
 10
907.8575821449
 20
341.236506253
 10
908.1743698049
 20
342.775726367
 10
908.3957908677
 20
344.3316101863
 10
908.5210041176
 20
345.8982635227
 10
908.5515562201
 20
347.1463858696
  0
LWPOLYLINE
  5
53E
100
AcDbEntity
  8
BEZUGSACHSEN
100
AcDbPolyline
 62
7
  6
CONTINUOUS
 90
10
 70
0
 10
907.0450334985
 20
355.7833034707
 10
906.487321529
 20
357.231275506
 10
905.6986738915
 20
359.0081150652
 10
904.788116189
 20
360.78378782
 10
903.7538488447
 20
362.546251765
 10
902.5967551175
 20
364.2826378405
 10
901.320159727
 20
365.980689169
 10
899.9287516619
 20
367.6303800942
 10
898.4296849219
 20
369.2225522832
 10
897.8439211414
 20
369.8009538115
  0
ARC
  5
53F
100
AcDbEntity
  8
0
100
AcDbCircle
 62
7
  6
CONTINUOUS
 10
125.239859491
 20
613.6693233033
 40
15.0
100
AcDbArc
 50
90.0
 51
143.1478081776
  0
ARC
  5
540
100
AcDbEntity
  8
0
100
AcDbCircle
 62
7
  6
CONTINUOUS
 10
51.239859491
 20
605.5477120254
 40
10.8783887221
100
AcDbArc
 50
224.0
 51
270.0
  0
ARC
  5
541
100
AcDbEntity
  8
RUNDUNGEN
100
AcDbCircle
 62
7
  6
CONTINUOUS
 10
269.239859491
 20
629.1693233033
 40
10.0
100
AcDbArc
 50
180.0
 51
270.0020805752
  0
ARC
  5
542
100
AcDbEntity
  8
RUNDUNGEN
100
AcDbCircle
 62
7
  6
CONTINUOUS
 10
439.239859491
 20
629.1693233033
 40
10.0
100
AcDbArc
 50
269.9979963934
 51
0.0014529978
  0
ARC
  5
543
100
AcDbEntity
  8
BEZUGSACHSEN
100
AcDbCircle
 62
7
  6
CONTINUOUS
 10
42.92816263
 20
608.5715665717
 40
6.9999999287
100
AcDbArc
 50
154.3880925402
 51
223.9999981977
  0
ARC
  5
544
100
AcDbEntity
  8
BEZUGSACHSEN
100
AcDbCircle
 62
7
  6
CONTINUOUS
 10
105.239859491
 20
599.6693233033
 40
5.0
100
AcDbArc
 50
351.966314451
 51
360.0
  0
ARC
  5
545
100
AcDbEntity
  8
RUNDUNGEN
100
AcDbCircle
 62
7
  6
CONTINUOUS
 10
96.239859491
 20
613.6693233033
 40
5.0
100
AcDbArc
 50
269.9999994283
 51
90.0000007416
  0
ARC
  5
546
100
AcDbEntity
  8
RUNDUNGEN
100
AcDbCircle
 62
7
  6
CONTINUOUS
 10
77.239859491
 20
613.6693233033
 40
5.0
100
AcDbArc
 50
89.9999994283
 51
270.0000007416
  0
ARC
  5
547
100
AcDbEntity
  8
RUNDUNGEN
100
AcDbCircle
 62
7
  6
CONTINUOUS
 10
105.239859491
 20
599.6693233033
 40
5.0
100
AcDbArc
 50
269.9999996772
 51
0.0000004487
  0
ARC
  5
548
100
AcDbEntity
  8
RUNDUNGEN
100
AcDbCircle
 62
7
  6
CONTINUOUS
 10
237.6633655466
 20
607.6693233033
 40
5.0
100
AcDbArc
 50
270.0
 51
305.0
  0
ARC
  5
549
100
AcDbEntity
  8
RUNDUNGEN
100
AcDbCircle
 62
7
  6
CONTINUOUS
 10
246.5289454623
 20
601.6693233033
 40
5.0
100
AcDbArc
 50
90.0
 51
125.0
  0
ARC
  5
54A
100
AcDbEntity
  8
RUNDUNGEN
100
AcDbCircle
 62
7
  6
CONTINUOUS
 10
114.239859491
 20
616.6693233033
 40
4.0
100
AcDbArc
 50
90.0
 51
179.9999999999
  0
ARC
  5
54B
100
AcDbEntity
  8
RUNDUNGEN
100
AcDbCircle
 62
7
  6
CONTINUOUS
 10
44.0308603704
 20
624.2193233033
 40
3.0
100
AcDbArc
 50
90.0
 51
168.2232769632
  0
ARC
  5
54C
100
AcDbEntity
  8
RUNDUNGEN
100
AcDbCircle
 62
7
  6
CONTINUOUS
 10
223.739859491
 20
605.6693233033
 40
3.0
100
AcDbArc
 50
180.0
 51
270.0
  0
ARC
  5
54D
100
AcDbEntity
  8
RUNDUNGEN
100
AcDbCircle
 62
7
  6
CONTINUOUS
 10
171.739859491
 20
604.1693233033
 40
2.5
100
AcDbArc
 50
180.0
 51
270.0
  0
ARC
  5
54E
100
AcDbEntity
  8
RUNDUNGEN
100
AcDbCircle
 62
7
  6
CONTINUOUS
 10
174.239859491
 20
602.6693233033
 40
1.0
100
AcDbArc
 50
270.0
 51
360.0
  0
ARC
  5
54F
100
AcDbEntity
  8
RUNDUNGEN
100
AcDbCircle
 62
7
  6
CONTINUOUS
 10
446.9212316328
 20
607.1693233033
 40
1.0
100
AcDbArc
 50
250.0
 51
270.0
  0
ARC
  5
550
100
AcDbEntity
  8
RUNDUNGEN
100
AcDbCircle
 62
7
  6
CONTINUOUS
 10
445.1948389616
 20
605.6693233033
 40
1.0
100
AcDbArc
 50
70.0
 51
90.0
  0
ARC
  5
551
100
AcDbEntity
  8
BEZUGSACHSEN
100
AcDbCircle
 62
7
  6
CONTINUOUS
 10
-15.6851132045
 20
636.6693233033
 40
58.0
100
AcDbArc
 50
11.7767230368
 51
25.6119086218
  0
ARC
  5
552
100
AcDbEntity
  8
0
100
AcDbCircle
 62
7
  6
CONTINUOUS
 10
-15.6851132045
 20
636.6693233033
 40
58.0
100
AcDbArc
 50
334.3880913782
 51
348.2232769632
  0
ARC
  5
553
100
AcDbEntity
  8
BEZUGSACHSEN
100
AcDbCircle
 62
7
  6
CONTINUOUS
 10
51.239859491
 20
667.7909345812
 40
10.8783887221
100
AcDbArc
 50
90.0
 51
136.0
  0
ARC
  5
554
100
AcDbEntity
  8
RUNDUNGEN
100
AcDbCircle
 62
7
  6
CONTINUOUS
 10
269.239859491
 20
644.1693233033
 40
10.0
100
AcDbArc
 50
89.9980312385
 51
180.0
  0
ARC
  5
555
100
AcDbEntity
  8
RUNDUNGEN
100
AcDbCircle
 62
7
  6
CONTINUOUS
 10
439.239859491
 20
644.1693233033
 40
10.0
100
AcDbArc
 50
359.9986052441
 51
90.001967202
  0
ARC
  5
556
100
AcDbEntity
  8
BEZUGSACHSEN
100
AcDbCircle
 62
7
  6
CONTINUOUS
 10
81.989859491
 20
636.6693233033
 40
9.45
100
AcDbArc
 50
270.0
 51
90.0
  0
ARC
  5
557
100
AcDbEntity
  8
BEZUGSACHSEN
100
AcDbCircle
 62
7
  6
CONTINUOUS
 10
42.92816263
 20
664.7670800349
 40
6.9999999287
100
AcDbArc
 50
136.0000018023
 51
205.6119074598
  0
ARC
  5
558
100
AcDbEntity
  8
BEZUGSACHSEN
100
AcDbCircle
 62
7
  6
CONTINUOUS
 10
105.239859491
 20
673.6693233033
 40
5.0
100
AcDbArc
 50
0.0
 51
90.0
  0
ARC
  5
559
100
AcDbEntity
  8
BEZUGSACHSEN
100
AcDbCircle
 62
7
  6
CONTINUOUS
 10
96.239859491
 20
659.6693233033
 40
5.0
100
AcDbArc
 50
269.9999992584
 51
90.0000005717
  0
ARC
  5
55A
100
AcDbEntity
  8
BEZUGSACHSEN
100
AcDbCircle
 62
7
  6
CONTINUOUS
 10
77.239859491
 20
659.6693233033
 40
5.0
100
AcDbArc
 50
89.9999992584
 51
270.0000005717
  0
ARC
  5
55B
100
AcDbEntity
  8
RUNDUNGEN
100
AcDbCircle
 62
7
  6
CONTINUOUS
 10
237.6633655466
 20
665.6693233033
 40
5.0
100
AcDbArc
 50
55.0
 51
90.0
  0
ARC
  5
55C
100
AcDbEntity
  8
RUNDUNGEN
100
AcDbCircle
 62
7
  6
CONTINUOUS
 10
246.5289454623
 20
671.6693233033
 40
5.0
100
AcDbArc
 50
235.0
 51
270.0
  0
ARC
  5
55D
100
AcDbEntity
  8
RUNDUNGEN
100
AcDbCircle
 62
7
  6
CONTINUOUS
 10
114.239859491
 20
656.6693233033
 40
4.0
100
AcDbArc
 50
180.0000000001
 51
270.0
  0
ARC
  5
55E
100
AcDbEntity
  8
BEZUGSACHSEN
100
AcDbCircle
 62
7
  6
CONTINUOUS
 10
44.0308603704
 20
649.1193233033
 40
3.0
100
AcDbArc
 50
191.7767230368
 51
270.0
  0
ARC
  5
55F
100
AcDbEntity
  8
RUNDUNGEN
100
AcDbCircle
 62
7
  6
CONTINUOUS
 10
223.739859491
 20
667.6693233033
 40
3.0
100
AcDbArc
 50
90.0
 51
180.0
  0
ARC
  5
560
100
AcDbEntity
  8
RUNDUNGEN
100
AcDbCircle
 62
7
  6
CONTINUOUS
 10
171.739859491
 20
669.1693233033
 40
2.5
100
AcDbArc
 50
90.0
 51
180.0
  0
ARC
  5
561
100
AcDbEntity
  8
RUNDUNGEN
100
AcDbCircle
 62
7
  6
CONTINUOUS
 10
174.239859491
 20
670.6693233033
 40
1.0
100
AcDbArc
 50
0.0
 51
90.0
  0
ARC
  5
562
100
AcDbEntity
  8
RUNDUNGEN
100
AcDbCircle
 62
7
  6
CONTINUOUS
 10
446.9212316328
 20
666.1693233033
 40
1.0
100
AcDbArc
 50
90.0
 51
110.0
  0
ARC
  5
563
100
AcDbEntity
  8
RUNDUNGEN
100
AcDbCircle
 62
7
  6
CONTINUOUS
 10
445.1948389616
 20
667.6693233033
 40
1.0
100
AcDbArc
 50
270.0
 51
290.0
  0
ARC
  5
564
100
AcDbEntity
  8
RUNDUNGEN
100
AcDbCircle
 62
7
  6
CONTINUOUS
 10
497.5584873492
 20
607.1693233033
 40
1.0
100
AcDbArc
 50
270.0
 51
290.0
  0
ARC
  5
565
100
AcDbEntity
  8
RUNDUNGEN
100
AcDbCircle
 62
7
  6
CONTINUOUS
 10
699.2119686751
 20
605.6693233033
 40
1.0
100
AcDbArc
 50
55.0
 51
90.0
  0
ARC
  5
566
100
AcDbEntity
  8
RUNDUNGEN
100
AcDbCircle
 62
7
  6
CONTINUOUS
 10
499.2848800203
 20
605.6693233033
 40
1.0
100
AcDbArc
 50
90.0
 51
110.0
  0
ARC
  5
567
100
AcDbEntity
  8
RUNDUNGEN
100
AcDbCircle
 62
7
  6
CONTINUOUS
 10
675.239859491
 20
629.1693233033
 40
10.0
100
AcDbArc
 50
269.9981881562
 51
0.0013938101
  0
ARC
  5
568
100
AcDbEntity
  8
RUNDUNGEN
100
AcDbCircle
 62
7
  6
CONTINUOUS
 10
505.239859491
 20
629.1693233033
 40
10.0
100
AcDbArc
 50
179.9985629636
 51
270.0014791705
  0
ARC
  5
569
100
AcDbEntity
  8
BEZUGSACHSEN
100
AcDbCircle
 62
7
  6
CONTINUOUS
 10
893.239859491
 20
605.5477120254
 40
10.8783887221
100
AcDbArc
 50
270.0
 51
316.0
  0
ARC
  5
56A
100
AcDbEntity
  8
BEZUGSACHSEN
100
AcDbCircle
 62
7
  6
CONTINUOUS
 10
901.551556352
 20
608.5715665717
 40
6.9999999287
100
AcDbArc
 50
316.0000018023
 51
25.6119074598
  0
ARC
  5
56B
100
AcDbEntity
  8
BEZUGSACHSEN
100
AcDbCircle
 62
7
  6
CONTINUOUS
 10
839.239859491
 20
599.6693233033
 40
5.0
100
AcDbArc
 50
180.0
 51
270.0
  0
ARC
  5
56C
100
AcDbEntity
  8
BEZUGSACHSEN
100
AcDbCircle
 62
7
  6
CONTINUOUS
 10
848.239859491
 20
613.6693233033
 40
5.0
100
AcDbArc
 50
89.9999992584
 51
270.0000005717
  0
ARC
  5
56D
100
AcDbEntity
  8
BEZUGSACHSEN
100
AcDbCircle
 62
7
  6
CONTINUOUS
 10
867.239859491
 20
613.6693233033
 40
5.0
100
AcDbArc
 50
269.9999992584
 51
90.0000005717
  0
ARC
  5
56E
100
AcDbEntity
  8
RUNDUNGEN
100
AcDbCircle
 62
7
  6
CONTINUOUS
 10
721.3329681825
 20
609.1693233033
 40
3.0
100
AcDbArc
 50
270.0
 51
354.0
  0
ARC
  5
56F
100
AcDbEntity
  8
RUNDUNGEN
100
AcDbCircle
 62
7
  6
CONTINUOUS
 10
700.5566402563
 20
607.1693233033
 40
1.0
100
AcDbArc
 50
235.0
 51
270.0
  0
ARC
  5
570
100
AcDbEntity
  8
RUNDUNGEN
100
AcDbCircle
 62
7
  6
CONTINUOUS
 10
830.239859491
 20
616.6693233033
 40
4.0
100
AcDbArc
 50
0.0000000001
 51
90.0
  0
ARC
  5
571
100
AcDbEntity
  8
BEZUGSACHSEN
100
AcDbCircle
 62
7
  6
CONTINUOUS
 10
900.4488586116
 20
624.2193233033
 40
3.0
100
AcDbArc
 50
11.7767230368
 51
90.0
  0
ARC
  5
572
100
AcDbEntity
  8
RUNDUNGEN
100
AcDbCircle
 62
7
  6
CONTINUOUS
 10
675.239859491
 20
644.1693233033
 40
10.0
100
AcDbArc
 50
359.9986173747
 51
90.0012431731
  0
ARC
  5
573
100
AcDbEntity
  8
RUNDUNGEN
100
AcDbCircle
 62
7
  6
CONTINUOUS
 10
505.239859491
 20
644.1693233033
 40
10.0
100
AcDbArc
 50
89.9981041164
 51
180.0015136827
  0
ARC
  5
574
100
AcDbEntity
  8
RUNDUNGEN
100
AcDbCircle
 62
7
  6
CONTINUOUS
 10
721.3329681825
 20
664.1693233033
 40
3.0
100
AcDbArc
 50
6.0
 51
90.0
  0
ARC
  5
575
100
AcDbEntity
  8
RUNDUNGEN
100
AcDbCircle
 62
7
  6
CONTINUOUS
 10
497.5584873492
 20
666.1693233033
 40
1.0
100
AcDbArc
 50
70.0
 51
90.0
  0
ARC
  5
576
100
AcDbEntity
  8
RUNDUNGEN
100
AcDbCircle
 62
7
  6
CONTINUOUS
 10
699.2119686751
 20
667.6693233033
 40
1.0
100
AcDbArc
 50
270.0
 51
305.0
  0
ARC
  5
577
100
AcDbEntity
  8
RUNDUNGEN
100
AcDbCircle
 62
7
  6
CONTINUOUS
 10
499.2848800203
 20
667.6693233033
 40
1.0
100
AcDbArc
 50
250.0
 51
270.0
  0
ARC
  5
578
100
AcDbEntity
  8
RUNDUNGEN
100
AcDbCircle
 62
7
  6
CONTINUOUS
 10
700.5566402563
 20
666.1693233033
 40
1.0
100
AcDbArc
 50
90.0
 51
125.0
  0
ARC
  5
579
100
AcDbEntity
  8
BEZUGSACHSEN
100
AcDbCircle
 62
7
  6
CONTINUOUS
 10
960.1648321865
 20
636.6693233033
 40
58.0
100
AcDbArc
 50
191.7767230368
 51
205.6119086218
  0
ARC
  5
57A
100
AcDbEntity
  8
0
100
AcDbCircle
 62
7
  6
CONTINUOUS
 10
960.1648321865
 20
636.6693233033
 40
58.0
100
AcDbArc
 50
154.3880913782
 51
168.2232769632
  0
ARC
  5
57B
100
AcDbEntity
  8
BEZUGSACHSEN
100
AcDbCircle
 62
7
  6
CONTINUOUS
 10
862.489859491
 20
636.6693233033
 40
9.45
100
AcDbArc
 50
90.0
 51
270.0
  0
ARC
  5
57C
100
AcDbEntity
  8
RUNDUNGEN
100
AcDbCircle
 62
7
  6
CONTINUOUS
 10
900.4488586116
 20
649.1193233033
 40
3.0
100
AcDbArc
 50
270.0
 51
348.2232769632
  0
ARC
  5
57D
100
AcDbEntity
  8
0
100
AcDbCircle
 62
7
  6
CONTINUOUS
 10
893.239859491
 20
667.7909345812
 40
10.8783887221
100
AcDbArc
 50
44.0
 51
90.0
  0
ARC
  5
57E
100
AcDbEntity
  8
BEZUGSACHSEN
100
AcDbCircle
 62
7
  6
CONTINUOUS
 10
901.551556352
 20
664.7670800349
 40
6.9999999287
100
AcDbArc
 50
334.3880925402
 51
43.9999981977
  0
ARC
  5
57F
100
AcDbEntity
  8
BEZUGSACHSEN
100
AcDbCircle
 62
7
  6
CONTINUOUS
 10
839.239859491
 20
673.6693233033
 40
5.0
100
AcDbArc
 50
90.0
 51
180.0
  0
ARC
  5
580
100
AcDbEntity
  8
RUNDUNGEN
100
AcDbCircle
 62
7
  6
CONTINUOUS
 10
848.239859491
 20
659.6693233033
 40
5.0
100
AcDbArc
 50
89.9999994283
 51
270.0000007416
  0
ARC
  5
581
100
AcDbEntity
  8
RUNDUNGEN
100
AcDbCircle
 62
7
  6
CONTINUOUS
 10
867.239859491
 20
659.6693233033
 40
5.0
100
AcDbArc
 50
269.9999994283
 51
90.0000007416
  0
ARC
  5
582
100
AcDbEntity
  8
RUNDUNGEN
100
AcDbCircle
 62
7
  6
CONTINUOUS
 10
839.239859491
 20
673.6693233033
 40
5.0
100
AcDbArc
 50
89.9999996772
 51
180.0000004487
  0
ARC
  5
583
100
AcDbEntity
  8
RUNDUNGEN
100
AcDbCircle
 62
7
  6
CONTINUOUS
 10
830.239859491
 20
656.6693233033
 40
4.0
100
AcDbArc
 50
270.0
 51
359.9999999999
  0
ARC
  5
584
100
AcDbEntity
  8
RUNDUNGEN
100
AcDbCircle
 62
7
  6
CONTINUOUS
 10
998.7583378359
 20
624.2193233033
 40
3.0
100
AcDbArc
 50
90.0
 51
168.2232769605
  0
ARC
  5
585
100
AcDbEntity
  8
BEZUGSACHSEN
100
AcDbCircle
 62
7
  6
CONTINUOUS
 10
998.7583378359
 20
624.2193233033
 40
3.0
100
AcDbArc
 50
90.0
 51
168.2232769632
  0
ARC
  5
586
100
AcDbEntity
  8
BEZUGSACHSEN
100
AcDbCircle
 62
7
  6
CONTINUOUS
 10
995.7673369565
 20
597.6693233033
 40
3.0
100
AcDbArc
 50
180.0
 51
270.0
  0
ARC
  5
587
100
AcDbEntity
  8
BEZUGSACHSEN
100
AcDbCircle
 62
7
  6
CONTINUOUS
 10
995.7673369565
 20
614.2354767161
 40
3.0
100
AcDbArc
 50
158.4219716685
 51
180.0
  0
ARC
  5
588
100
AcDbEntity
  8
BEZUGSACHSEN
100
AcDbCircle
 62
7
  6
CONTINUOUS
 10
995.7673369565
 20
624.2193233033
 40
3.0
100
AcDbArc
 50
90.0
 51
180.0
  0
ARC
  5
589
100
AcDbEntity
  8
0
100
AcDbCircle
 62
7
  6
CONTINUOUS
 10
939.042364261
 20
636.6693233033
 40
58.0
100
AcDbArc
 50
338.4219716685
 51
348.2232769632
  0
ARC
  5
58A
100
AcDbEntity
  8
BEZUGSACHSEN
100
AcDbCircle
 62
7
  6
CONTINUOUS
 10
939.042364261
 20
636.6693233033
 40
58.0
100
AcDbArc
 50
338.4219716685
 51
348.2232769632
  0
ARC
  5
58B
100
AcDbEntity
  8
BEZUGSACHSEN
100
AcDbCircle
 62
7
  6
CONTINUOUS
 10
939.042364261
 20
636.6693233033
 40
58.0
100
AcDbArc
 50
11.7767230368
 51
21.5780283315
  0
ARC
  5
58C
100
AcDbEntity
  8
0
100
AcDbCircle
 62
7
  6
CONTINUOUS
 10
991.2673369565
 20
636.6693233033
 40
4.0
100
AcDbArc
 50
67.9291946185
 51
292.0708053815
  0
ARC
  5
58D
100
AcDbEntity
  8
BEZUGSACHSEN
100
AcDbCircle
 62
7
  6
CONTINUOUS
 10
998.7583378359
 20
649.1193233033
 40
3.0
100
AcDbArc
 50
191.7767230368
 51
270.0
  0
ARC
  5
58E
100
AcDbEntity
  8
BEZUGSACHSEN
100
AcDbCircle
 62
7
  6
CONTINUOUS
 10
995.7673369565
 20
649.1193233033
 40
3.0
100
AcDbArc
 50
180.0
 51
270.0
  0
ARC
  5
58F
100
AcDbEntity
  8
BEZUGSACHSEN
100
AcDbCircle
 62
7
  6
CONTINUOUS
 10
995.7673369565
 20
659.103439629
 40
3.0
100
AcDbArc
 50
180.0051516275
 51
201.5828184404
  0
ARC
  5
590
100
AcDbEntity
  8
BEZUGSACHSEN
100
AcDbCircle
 62
7
  6
CONTINUOUS
 10
995.7673369565
 20
675.6693233033
 40
3.0
100
AcDbArc
 50
90.0
 51
180.0
  0
ARC
  5
591
100
AcDbEntity
  8
RUNDUNGEN
100
AcDbCircle
 62
7
  6
CONTINUOUS
 10
1036.7673369565
 20
624.2193233033
 40
3.0
100
AcDbArc
 50
0.0
 51
90.0
  0
ARC
  5
592
100
AcDbEntity
  8
RUNDUNGEN
100
AcDbCircle
 62
7
  6
CONTINUOUS
 10
1036.7673369565
 20
614.2354767161
 40
3.0
100
AcDbArc
 50
0.0051516275
 51
21.5780283315
  0
ARC
  5
593
100
AcDbEntity
  8
RUNDUNGEN
100
AcDbCircle
 62
7
  6
CONTINUOUS
 10
1036.7673369565
 20
597.6693233033
 40
3.0
100
AcDbArc
 50
270.0
 51
360.0
  0
ARC
  5
594
100
AcDbEntity
  8
RUNDUNGEN
100
AcDbCircle
 62
7
  6
CONTINUOUS
 10
1033.7763360771
 20
624.2193233033
 40
3.0
100
AcDbArc
 50
11.7767230368
 51
90.0
  0
ARC
  5
595
100
AcDbEntity
  8
RUNDUNGEN
100
AcDbCircle
 62
7
  6
CONTINUOUS
 10
1016.2673369565
 20
636.6693233033
 40
35.0
100
AcDbArc
 50
312.1976458532
 51
47.8023541512
  0
ARC
  5
596
100
AcDbEntity
  8
RUNDUNGEN
100
AcDbCircle
 62
7
  6
CONTINUOUS
 10
1016.2673369565
 20
636.6693233033
 40
35.0
100
AcDbArc
 50
132.1976458532
 51
227.8023541512
  0
ARC
  5
597
100
AcDbEntity
  8
0
100
AcDbCircle
 62
7
  6
CONTINUOUS
 10
1041.2673369565
 20
636.6693233033
 40
4.0
100
AcDbArc
 50
247.9291946185
 51
112.0708053815
  0
ARC
  5
598
100
AcDbEntity
  8
BEZUGSACHSEN
100
AcDbCircle
 62
7
  6
CONTINUOUS
 10
1033.7763360771
 20
649.1193233033
 40
3.0
100
AcDbArc
 50
270.0
 51
348.2232769632
  0
ARC
  5
599
100
AcDbEntity
  8
BEZUGSACHSEN
100
AcDbCircle
 62
7
  6
CONTINUOUS
 10
1036.7673369565
 20
649.1193233033
 40
3.0
100
AcDbArc
 50
270.0
 51
360.0
  0
ARC
  5
59A
100
AcDbEntity
  8
BEZUGSACHSEN
100
AcDbCircle
 62
7
  6
CONTINUOUS
 10
1036.7673369565
 20
675.6693233033
 40
3.0
100
AcDbArc
 50
0.0
 51
90.0
  0
ARC
  5
59B
100
AcDbEntity
  8
BEZUGSACHSEN
100
AcDbCircle
 62
7
  6
CONTINUOUS
 10
1036.7673369565
 20
659.1031698904
 40
3.0
100
AcDbArc
 50
338.4219716685
 51
360.0
  0
ARC
  5
59C
100
AcDbEntity
  8
RUNDUNGEN
100
AcDbCircle
 62
7
  6
CONTINUOUS
 10
1093.492309652
 20
636.6693233033
 40
58.0
100
AcDbArc
 50
191.7767230368
 51
201.5780283315
  0
ARC
  5
59D
100
AcDbEntity
  8
BEZUGSACHSEN
100
AcDbCircle
 62
7
  6
CONTINUOUS
 10
1093.492309652
 20
636.6693233033
 40
58.0
100
AcDbArc
 50
158.4219716685
 51
168.2232769632
  0
ARC
  5
59E
100
AcDbEntity
  8
RUNDUNGEN
100
AcDbCircle
 62
7
  6
CONTINUOUS
 10
223.739859491
 20
316.1463858696
 40
3.0
100
AcDbArc
 50
180.0
 51
270.0
  0
ARC
  5
59F
100
AcDbEntity
  8
RUNDUNGEN
100
AcDbCircle
 62
7
  6
CONTINUOUS
 10
229.239859491
 20
316.1463858696
 40
3.0
100
AcDbArc
 50
270.0
 51
331.1704993571
  0
ARC
  5
5A0
100
AcDbEntity
  8
RUNDUNGEN
100
AcDbCircle
 62
7
  6
CONTINUOUS
 10
171.739859491
 20
314.6463858696
 40
2.5
100
AcDbArc
 50
180.0
 51
270.0
  0
ARC
  5
5A1
100
AcDbEntity
  8
RUNDUNGEN
100
AcDbCircle
 62
7
  6
CONTINUOUS
 10
174.239859491
 20
313.1463858696
 40
1.0
100
AcDbArc
 50
270.0
 51
360.0
  0
ARC
  5
5A2
100
AcDbEntity
  8
RUNDUNGEN
100
AcDbCircle
 62
7
  6
CONTINUOUS
 10
114.239859491
 20
327.1463858696
 40
4.0
100
AcDbArc
 50
90.0
 51
180.0
  0
ARC
  5
5A3
100
AcDbEntity
  8
BEZUGSACHSEN
100
AcDbCircle
 62
7
  6
CONTINUOUS
 10
107.239859491
 20
326.6463858696
 40
3.0
100
AcDbArc
 50
270.0
 51
360.0
  0
ARC
  5
5A4
100
AcDbEntity
  8
RUNDUNGEN
100
AcDbCircle
 62
7
  6
CONTINUOUS
 10
452.239859491
 20
319.6463858696
 40
3.0
100
AcDbArc
 50
180.0
 51
270.0
  0
ARC
  5
5A5
100
AcDbEntity
  8
RUNDUNGEN
100
AcDbCircle
 62
7
  6
CONTINUOUS
 10
237.6633655466
 20
376.1463858696
 40
5.0
100
AcDbArc
 50
55.0
 51
90.0
  0
ARC
  5
5A6
100
AcDbEntity
  8
RUNDUNGEN
100
AcDbCircle
 62
7
  6
CONTINUOUS
 10
246.5289454623
 20
382.1463858696
 40
5.0
100
AcDbArc
 50
235.0
 51
270.0
  0
ARC
  5
5A7
100
AcDbEntity
  8
RUNDUNGEN
100
AcDbCircle
 62
7
  6
CONTINUOUS
 10
114.239859491
 20
367.1463858696
 40
4.0
100
AcDbArc
 50
180.0
 51
270.0
  0
ARC
  5
5A8
100
AcDbEntity
  8
BEZUGSACHSEN
100
AcDbCircle
 62
7
  6
CONTINUOUS
 10
107.239859491
 20
367.6463858696
 40
3.0
100
AcDbArc
 50
0.0
 51
90.0
  0
ARC
  5
5A9
100
AcDbEntity
  8
RUNDUNGEN
100
AcDbCircle
 62
7
  6
CONTINUOUS
 10
223.739859491
 20
378.1463858696
 40
3.0
100
AcDbArc
 50
90.0
 51
180.0
  0
ARC
  5
5AA
100
AcDbEntity
  8
RUNDUNGEN
100
AcDbCircle
 62
7
  6
CONTINUOUS
 10
171.739859491
 20
379.6463858696
 40
2.5
100
AcDbArc
 50
90.0
 51
180.0
  0
ARC
  5
5AB
100
AcDbEntity
  8
RUNDUNGEN
100
AcDbCircle
 62
7
  6
CONTINUOUS
 10
174.239859491
 20
381.1463858696
 40
1.0
100
AcDbArc
 50
0.0
 51
90.0
  0
ARC
  5
5AC
100
AcDbEntity
  8
RUNDUNGEN
100
AcDbCircle
 62
7
  6
CONTINUOUS
 10
446.9212316328
 20
376.6463858696
 40
1.0
100
AcDbArc
 50
90.0
 51
110.0
  0
ARC
  5
5AD
100
AcDbEntity
  8
RUNDUNGEN
100
AcDbCircle
 62
7
  6
CONTINUOUS
 10
445.1948389616
 20
378.1463858696
 40
1.0
100
AcDbArc
 50
270.0
 51
290.0
  0
CIRCLE
  5
5AE
100
AcDbEntity
  8
0
100
AcDbCircle
 62
7
  6
CONTINUOUS
 10
472.239859491
 20
347.1463858696
 40
20.0
  0
CIRCLE
  5
5AF
100
AcDbEntity
  8
0
100
AcDbCircle
 62
7
  6
CONTINUOUS
 10
472.239859491
 20
347.1463858696
 40
9.6076951546
  0
ARC
  5
5B0
100
AcDbEntity
  8
RUNDUNGEN
100
AcDbCircle
 62
7
  6
CONTINUOUS
 10
830.239859491
 20
327.1463858696
 40
4.0
100
AcDbArc
 50
0.0
 51
90.0
  0
ARC
  5
5B1
100
AcDbEntity
  8
RUNDUNGEN
100
AcDbCircle
 62
7
  6
CONTINUOUS
 10
837.239859491
 20
326.6463858696
 40
3.0
100
AcDbArc
 50
180.0
 51
270.0
  0
ARC
  5
5B2
100
AcDbEntity
  8
RUNDUNGEN
100
AcDbCircle
 62
7
  6
CONTINUOUS
 10
721.3329681825
 20
319.6463858696
 40
3.0
100
AcDbArc
 50
270.0
 51
354.0
  0
ARC
  5
5B3
100
AcDbEntity
  8
RUNDUNGEN
100
AcDbCircle
 62
7
  6
CONTINUOUS
 10
688.239859491
 20
320.1463858696
 40
3.0
100
AcDbArc
 50
180.0
 51
270.0
  0
ARC
  5
5B4
100
AcDbEntity
  8
RUNDUNGEN
100
AcDbCircle
 62
7
  6
CONTINUOUS
 10
492.239859491
 20
319.6463858696
 40
3.0
100
AcDbArc
 50
270.0
 51
360.0
  0
ARC
  5
5B5
100
AcDbEntity
  8
RUNDUNGEN
100
AcDbCircle
 62
7
  6
CONTINUOUS
 10
700.5566402563
 20
317.6463858696
 40
1.0
100
AcDbArc
 50
235.0
 51
270.0
  0
ARC
  5
5B6
100
AcDbEntity
  8
RUNDUNGEN
100
AcDbCircle
 62
7
  6
CONTINUOUS
 10
699.2119686751
 20
316.1463858696
 40
1.0
100
AcDbArc
 50
55.0
 51
90.0
  0
ARC
  5
5B7
100
AcDbEntity
  8
RUNDUNGEN
100
AcDbCircle
 62
7
  6
CONTINUOUS
 10
830.239859491
 20
367.1463858696
 40
4.0
100
AcDbArc
 50
270.0
 51
360.0
  0
ARC
  5
5B8
100
AcDbEntity
  8
BEZUGSACHSEN
100
AcDbCircle
 62
7
  6
CONTINUOUS
 10
837.239859491
 20
367.6463858696
 40
3.0
100
AcDbArc
 50
90.0
 51
180.0
  0
ARC
  5
5B9
100
AcDbEntity
  8
RUNDUNGEN
100
AcDbCircle
 62
7
  6
CONTINUOUS
 10
721.3329681825
 20
374.6463858696
 40
3.0
100
AcDbArc
 50
6.0
 51
90.0
  0
ARC
  5
5BA
100
AcDbEntity
  8
RUNDUNGEN
100
AcDbCircle
 62
7
  6
CONTINUOUS
 10
700.5566402563
 20
376.6463858696
 40
1.0
100
AcDbArc
 50
90.0
 51
125.0
  0
ARC
  5
5BB
100
AcDbEntity
  8
RUNDUNGEN
100
AcDbCircle
 62
7
  6
CONTINUOUS
 10
497.5584873492
 20
376.6463858696
 40
1.0
100
AcDbArc
 50
70.0
 51
90.0
  0
ARC
  5
5BC
100
AcDbEntity
  8
RUNDUNGEN
100
AcDbCircle
 62
7
  6
CONTINUOUS
 10
699.2119686751
 20
378.1463858696
 40
1.0
100
AcDbArc
 50
270.0
 51
305.0
  0
ARC
  5
5BD
100
AcDbEntity
  8
RUNDUNGEN
100
AcDbCircle
 62
7
  6
CONTINUOUS
 10
499.2848800203
 20
378.1463858696
 40
1.0
100
AcDbArc
 50
250.0
 51
270.0
  0
SPLINE
  5
5BE
100
AcDbEntity
  8
0
100
AcDbSpline
 62
7
  6
CONTINUOUS
 70
0
 71
3
 72
8
 73
4
 74
0
 42
0.0000001
 43
0.0000001
 44
0.0000000001
 40
0.0
 40
0.0
 40
0.0
 40
0.0
 40
1.0
 40
1.0
 40
1.0
 40
1.0
 10
114.239859491
 20
622.8129168427
 30
0.0
 10
113.9020122223
 20
622.8129168427
 30
0.0
 10
113.560833912
 20
622.7621724854
 30
0.0
 10
113.2370788398
 20
622.6656145746
 30
0.0
  0
SPLINE
  5
5BF
100
AcDbEntity
  8
0
100
AcDbSpline
 62
7
  6
CONTINUOUS
 70
0
 71
3
 72
9
 73
5
 74
0
 42
0.0000001
 43
0.0000001
 44
0.0000000001
 40
0.0
 40
0.0
 40
0.0
 40
0.0
 40
0.5000202674
 40
1.0
 40
1.0
 40
1.0
 40
1.0
 10
335.239859491
 20
622.8129168427
 30
0.0
 10
336.0585005203
 20
623.75820208
 30
0.0
 10
337.6725211762
 20
625.6687477107
 30
0.0
 10
339.2042359942
 20
627.6483813226
 30
0.0
 10
339.926150992
 20
628.6693233033
 30
0.0
  0
SPLINE
  5
5C0
100
AcDbEntity
  8
BEZUGSACHSEN
100
AcDbSpline
 62
7
  6
CONTINUOUS
 70
0
 71
3
 72
13
 73
9
 74
0
 42
0.0000001
 43
0.0000001
 44
0.0000000001
 40
0.0
 40
0.0
 40
0.0
 40
0.0
 40
0.1499103943
 40
0.3110625382
 40
0.5000000739
 40
0.6889375525
 40
0.8500896704
 40
1.0
 40
1.0
 40
1.0
 40
1.0
 10
461.739859491
 20
606.1693233033
 30
0.0
 10
462.7511612516
 20
606.5180914562
 30
0.0
 10
464.8814426683
 20
607.1583464354
 30
0.0
 10
468.3886043538
 20
607.8546480606
 30
0.0
 10
472.2398606749
 20
608.1303024347
 30
0.0
 10
476.0911167753
 20
607.8546477358
 30
0.0
 10
479.5982773843
 20
607.1583461311
 30
0.0
 10
481.7285581654
 20
606.5180913024
 30
0.0
 10
482.739859491
 20
606.1693233033
 30
0.0
  0
SPLINE
  5
5C1
100
AcDbEntity
  8
BEZUGSACHSEN
100
AcDbSpline
 62
7
  6
CONTINUOUS
 70
0
 71
3
 72
13
 73
9
 74
0
 42
0.0000001
 43
0.0000001
 44
0.0000000001
 40
0.0
 40
0.0
 40
0.0
 40
0.0
 40
0.1499103385
 40
0.3110624574
 40
0.4999999398
 40
0.6889374679
 40
0.8500896088
 40
1.0
 40
1.0
 40
1.0
 40
1.0
 10
482.739859491
 20
667.1693233033
 30
0.0
 10
481.7285581056
 20
666.8205552832
 30
0.0
 10
479.5982772546
 20
666.180300439
 30
0.0
 10
476.0911165447
 20
665.4839988375
 30
0.0
 10
472.2398604616
 20
665.2083441741
 30
0.0
 10
468.3886041922
 20
665.4839985711
 30
0.0
 10
464.8814426057
 20
666.1803001896
 30
0.0
 10
462.7511612309
 20
666.8205551583
 30
0.0
 10
461.739859491
 20
667.1693233033
 30
0.0
  0
SPLINE
  5
5C2
100
AcDbEntity
  8
0
100
AcDbSpline
 62
7
  6
CONTINUOUS
 70
0
 71
3
 72
9
 73
5
 74
0
 42
0.0000001
 43
0.0000001
 44
0.0000000001
 40
0.0
 40
0.0
 40
0.0
 40
0.0
 40
0.7484258599
 40
1.0
 40
1.0
 40
1.0
 40
1.0
 10
113.2370788398
 20
355.1463858696
 30
0.0
 10
113.4643454021
 20
355.5585087668
 30
0.0
 10
113.7953339352
 20
356.0943529172
 30
0.0
 10
114.1495734476
 20
356.6138673697
 30
0.0
 10
114.239859491
 20
356.7437706827
 30
0.0
  0
SPLINE
  5
5C3
100
AcDbEntity
  8
0
100
AcDbSpline
 62
7
  6
CONTINUOUS
 70
0
 71
3
 72
12
 73
8
 74
0
 42
0.0000001
 43
0.0000001
 44
0.0000000001
 40
0.0
 40
0.0
 40
0.0
 40
0.0
 40
0.1154249853
 40
0.2309285153
 40
0.4707160201
 40
0.7290718341
 40
1.0
 40
1.0
 40
1.0
 40
1.0
 10
114.239859491
 20
356.7437706827
 30
0.0
 10
114.5088854082
 20
357.1308444386
 30
0.0
 10
115.1125737066
 20
357.8625518474
 30
0.0
 10
116.5846673035
 20
359.1133692775
 30
0.0
 10
118.8820289988
 20
360.211858691
 30
0.0
 10
121.9686923118
 20
360.8689533411
 30
0.0
 10
124.1334207608
 20
361.0027923301
 30
0.0
 10
125.239859491
 20
361.0027923301
 30
0.0
  0
ENDSEC
  0
SECTION
  2
OBJECTS
  0
DICTIONARY
  5
C
100
AcDbDictionary
280
0
281
1
  3
ACAD_GROUP
350
D
  3
ACAD_MLINESTYLE
350
17
  3
ACAD_LAYOUT
350
1A
  3
ACAD_PLOTSETTINGS
350
19
  3
ACAD_PLOTSTYLENAME
350
E
  0
DICTIONARY
  5
D
102
{ACAD_REACTORS
330
C
102
}
100
AcDbDictionary
280
0
281
1
  0
ACDBDICTIONARYWDFLT
  5
E
102
{ACAD_REACTORS
330
C
102
}
100
AcDbDictionary
281
1
  3
Normal
350
F
100
AcDbDictionaryWithDefault
340
F
  0
DICTIONARY
  5
17
102
{ACAD_REACTORS
330
C
102
}
100
AcDbDictionary
280
0
281
1
  3
Standard
350
18
  0
DICTIONARY
  5
19
102
{ACAD_REACTORS
330
C
102
}
100
AcDbDictionary
281
1
  0
DICTIONARY
  5
1A
102
{ACAD_REACTORS
330
C
102
}
100
AcDbDictionary
281
1
  3
Model
350
5C4
  3
Layout1
350
5C5
  0
ACDBPLACEHOLDER
  5
F
102
{ACAD_REACTORS
330
E
102
}
  0
MLINESTYLE
  5
18
102
{ACAD_REACTORS
330
17
102
}
100
AcDbMlineStyle
  2
STANDARD
 70
0
  3

 62
256
 51
90.0
 52
90.0
 71
2
 49
0.5
 62
256
  6
BYLAYER
 49
-0.5
 62
256
  6
BYLAYER
  0
LAYOUT
  5
5C4
102
{ACAD_REACTORS
330
1A
102
}
100
AcDbPlotSettings
  1

  2
none_device
  4
ISO_A0_(1189.00_x_841.00_MM)
  6

 40
0.0
 41
0.0
 42
0.0
 43
0.0
 44
1189.0
 45
841.0
 46
0.0
 47
0.0
 48
0.0
 49
0.0
140
0.0
141
0.0
142
1.0
143
1.0
 70
1024
 72
1
 73
0
 74
0
  7

 75
0
147
1.0
148
0.0
149
0.0
100
AcDbLayout
  1
Model
 70
0
 71
0
 10
0.0
 20
0.0
 11
1189.0
 21
841.0
 12
0.0
 22
0.0
 32
0.0
 14
0.0
 24
0.0
 34
0.0
 15
0.0
 25
0.0
 35
0.0
146
0.0
 13
0.0
 23
0.0
 33
0.0
 16
1.0
 26
0.0
 36
0.0
 17
0.0
 27
1.0
 37
0.0
 76
0
330
210
345
0
346
0
  0
LAYOUT
  5
5C5
102
{ACAD_REACTORS
330
1A
102
}
100
AcDbPlotSettings
  1

  2
none_device
  4
ISO_A0_(1189.00_x_841.00_MM)
  6

 40
0.0
 41
0.0
 42
0.0
 43
0.0
 44
1189.0
 45
841.0
 46
0.0
 47
0.0
 48
0.0
 49
0.0
140
0.0
141
0.0
142
1.0
143
1.0
 70
0
 72
1
 73
0
 74
0
  7

 75
0
147
1.0
148
0.0
149
0.0
100
AcDbLayout
  1
Layout1
 70
0
 71
1
 10
0.0
 20
0.0
 11
1189.0
 21
841.0
 12
0.0
 22
0.0
 32
0.0
 14
0.0
 24
0.0
 34
0.0
 15
0.0
 25
0.0
 35
0.0
146
0.0
 13
0.0
 23
0.0
 33
0.0
 16
1.0
 26
0.0
 36
0.0
 17
0.0
 27
1.0
 37
0.0
 76
0
330
211
345
0
346
0
  0
ENDSEC
  0
EOF
