999
DXF file: ICE-CURT-K-13-GAKO_7904451_M34854-P-1.dxf
999
Pro/ENGINEER 2010140 by Parametric Technology Corporation
  0
SECTION
  2
HEADER
  9
$ACADVER
  1
AC1015
  9
$DWGCODEPAGE
  3
ANSI_1252
  9
$EXTMAX
 10
841.0
 20
594.0
 30
0.0
  9
$EXTMIN
 10
0.0
 20
0.0
 30
0.0
  9
$LIMMIN
 10
0.0
 20
0.0
  9
$LIMMAX
 10
841.0
 20
594.0
  9
$VIEWCTR
 10
420.5
 20
297.0
  9
$VIEWSIZE
 40
594.0
  9
$CLAYER
  8
0
  9
$LTSCALE
 40
46.255
  9
$CELTYPE
  6
BYLAYER
  9
$DIMSCALE
 40
1.0
  9
$DIMASZ
 40
3.5
  9
$DIMEXO
 40
5.25625
  9
$DIMDLI
 40
31.958
  9
$DIMEXE
 40
15.138
  9
$DIMCEN
 40
7.569
  9
$DIMLFAC
 40
1.0
  9
$DIMBLK
  1
_FILLED
  9
$DIMTXT
 40
3.5
  9
$DIMTOL
 70
1
  9
$DIMLIM
 70
0
  9
$DIMTFAC
 40
1.0
  9
$DIMTP
 40
0.005
  9
$DIMTM
 40
0.005
  9
$PDMODE
 70
3
  9
$PDSIZE
 40
0.3125
  9
$HANDSEED
  5
508
  9
$TILEMODE
 70
1
  9
$MEASUREMENT
 70
1
  9
$INSUNITS
 70
4
  0
ENDSEC
  0
SECTION
  2
CLASSES
  0
CLASS
  1
ACDBDICTIONARYWDFLT
  2
AcDbDictionaryWithDefault
  3
AutoCAD 2000
 90
0
280
0
281
0
  0
CLASS
  1
ACDBPLACEHOLDER
  2
AcDbPlaceHolder
  3
AutoCAD 2000
 90
0
280
0
281
0
  0
CLASS
  1
LAYOUT
  2
AcDbLayout
  3
AutoCAD 2000
 90
0
280
0
281
0
  0
ENDSEC
  0
SECTION
  2
TABLES
  0
TABLE
  2
VPORT
  5
8
100
AcDbSymbolTable
 70
2
  0
VPORT
  5
1F4
100
AcDbSymbolTableRecord
100
AcDbViewportTableRecord
  2
*ACTIVE
 70
0
 10
0.0
 20
0.0
 11
1.0
 21
1.0
 12
420.5
 22
297.0
 13
0.0
 23
0.0
 14
1.0
 24
1.0
 15
0.0
 25
0.0
 16
0.0
 26
0.0
 36
1.0
 17
0.0
 27
0.0
 37
0.0
 40
594.0
 41
1.4158249158
 42
50.0
 43
0.0
 44
0.0
 50
0.0
 51
0.0
 71
0
 72
100
 73
1
 74
1
 75
0
 76
0
 77
0
 78
0
  0
ENDTAB
  0
TABLE
  2
LTYPE
  5
5
100
AcDbSymbolTable
 70
6
  0
LTYPE
  5
14
100
AcDbSymbolTableRecord
100
AcDbLinetypeTableRecord
  2
BYBLOCK
 70
0
  3

 72
65
 73
0
 40
0.0
  0
LTYPE
  5
15
100
AcDbSymbolTableRecord
100
AcDbLinetypeTableRecord
  2
BYLAYER
 70
0
  3

 72
65
 73
0
 40
0.0
  0
LTYPE
  5
16
100
AcDbSymbolTableRecord
100
AcDbLinetypeTableRecord
  2
CONTINUOUS
 70
64
  3
Solid line
 72
65
 73
0
 40
0.0
  0
LTYPE
  5
1F5
100
AcDbSymbolTableRecord
100
AcDbLinetypeTableRecord
  2
CENTER
 70
64
  3
____ _ ____ _ ____ _ ____ _ ____ _ ____ _ ____
 72
65
 73
4
 40
0.6
 49
0.375
 74
0
 49
-0.075
 74
0
 49
0.075
 74
0
 49
-0.075
 74
0
  0
LTYPE
  5
1F6
100
AcDbSymbolTableRecord
100
AcDbLinetypeTableRecord
  2
HIDDEN
 70
64
  3
- - - - - - - - - - - - - - - - - - - -
 72
65
 73
2
 40
0.2
 49
0.1
 74
0
 49
-0.1
 74
0
  0
LTYPE
  5
1F7
100
AcDbSymbolTableRecord
100
AcDbLinetypeTableRecord
  2
PHANTOM
 70
64
  3
_____ _ _ _____ _ _ _____ _ _ _____
 72
65
 73
6
 40
0.8
 49
0.45
 74
0
 49
-0.05
 74
0
 49
0.1
 74
0
 49
-0.05
 74
0
 49
0.1
 74
0
 49
-0.05
 74
0
  0
LTYPE
  5
1F8
100
AcDbSymbolTableRecord
100
AcDbLinetypeTableRecord
  2
DOT
 70
64
  3
. . . . . . . . . . . . . . . . . . . .
 72
65
 73
2
 40
0.2
 49
0.1
 74
0
 49
-0.1
 74
0
  0
LTYPE
  5
1F9
100
AcDbSymbolTableRecord
100
AcDbLinetypeTableRecord
  2
DASHED
 70
64
  3
- - - - - - - - - - - - - - - - - - - -
 72
65
 73
2
 40
0.2
 49
0.1
 74
0
 49
-0.1
 74
0
  0
ENDTAB
  0
TABLE
  2
LAYER
  5
2
100
AcDbSymbolTable
 70
36
  0
LAYER
  5
10
100
AcDbSymbolTableRecord
100
AcDbLayerTableRecord
  2
0
 70
0
 62
7
  6
CONTINUOUS
370
-3
390
F
  0
LAYER
  5
1FA
100
AcDbSymbolTableRecord
100
AcDbLayerTableRecord
  2
DEFAULT_1
 70
0
 62
7
  6
CENTER
370
-3
390
F
  0
LAYER
  5
1FB
100
AcDbSymbolTableRecord
100
AcDbLayerTableRecord
  2
DEFAULT_2
 70
0
 62
8
  6
HIDDEN
370
-3
390
F
  0
LAYER
  5
1FC
100
AcDbSymbolTableRecord
100
AcDbLayerTableRecord
  2
DEFAULT_3
 70
0
 62
7
  6
PHANTOM
370
-3
390
F
  0
LAYER
  5
1FD
100
AcDbSymbolTableRecord
100
AcDbLayerTableRecord
  2
AUSFORMSCHRAEGEN
 70
0
 62
7
  6
CONTINUOUS
370
-3
390
F
  0
LAYER
  5
1FE
100
AcDbSymbolTableRecord
100
AcDbLayerTableRecord
  2
BEZUGSACHSEN
 70
0
 62
7
  6
CONTINUOUS
370
-3
390
F
  0
LAYER
  5
1FF
100
AcDbSymbolTableRecord
100
AcDbLayerTableRecord
  2
BEZUGSEBENEN
 70
0
 62
7
  6
CONTINUOUS
370
-3
390
F
  0
LAYER
  5
200
100
AcDbSymbolTableRecord
100
AcDbLayerTableRecord
  2
BG_STARTBEZUEGE
 70
0
 62
7
  6
CONTINUOUS
370
-3
390
F
  0
LAYER
  5
201
100
AcDbSymbolTableRecord
100
AcDbLayerTableRecord
  2
BOHRUNGEN
 70
0
 62
7
  6
CONTINUOUS
370
-3
390
F
  0
LAYER
  5
202
100
AcDbSymbolTableRecord
100
AcDbLayerTableRecord
  2
FASEN
 70
0
 62
7
  6
CONTINUOUS
370
-3
390
F
  0
LAYER
  5
203
100
AcDbSymbolTableRecord
100
AcDbLayerTableRecord
  2
FLAECHEN
 70
0
 62
7
  6
CONTINUOUS
370
-3
390
F
  0
LAYER
  5
204
100
AcDbSymbolTableRecord
100
AcDbLayerTableRecord
  2
FLAECHENVERBUND
 70
0
 62
7
  6
CONTINUOUS
370
-3
390
F
  0
LAYER
  5
205
100
AcDbSymbolTableRecord
100
AcDbLayerTableRecord
  2
HILFEN
 70
0
 62
7
  6
CONTINUOUS
370
-3
390
F
  0
LAYER
  5
206
100
AcDbSymbolTableRecord
100
AcDbLayerTableRecord
  2
KONSTRUKTIONSELEMENTE
 70
0
 62
7
  6
CONTINUOUS
370
-3
390
F
  0
LAYER
  5
207
100
AcDbSymbolTableRecord
100
AcDbLayerTableRecord
  2
KURVEN
 70
0
 62
7
  6
CONTINUOUS
370
-3
390
F
  0
LAYER
  5
208
100
AcDbSymbolTableRecord
100
AcDbLayerTableRecord
  2
NORM
 70
0
 62
7
  6
CONTINUOUS
370
-3
390
F
  0
LAYER
  5
209
100
AcDbSymbolTableRecord
100
AcDbLayerTableRecord
  2
PLATZIERUNG
 70
0
 62
7
  6
CONTINUOUS
370
-3
390
F
  0
LAYER
  5
20A
100
AcDbSymbolTableRecord
100
AcDbLayerTableRecord
  2
RUNDUNGEN
 70
0
 62
7
  6
CONTINUOUS
370
-3
390
F
  0
LAYER
  5
20B
100
AcDbSymbolTableRecord
100
AcDbLayerTableRecord
  2
TEIL_STARTBEZUEGE
 70
0
 62
7
  6
CONTINUOUS
370
-3
390
F
  0
LAYER
  5
20C
100
AcDbSymbolTableRecord
100
AcDbLayerTableRecord
  2
T_STARTBEZUEGE
 70
0
 62
7
  6
CONTINUOUS
370
-3
390
F
  0
ENDTAB
  0
TABLE
  2
STYLE
  5
3
100
AcDbSymbolTable
 70
1
  0
STYLE
  5
11
100
AcDbSymbolTableRecord
100
AcDbTextStyleTableRecord
  2
STANDARD
 70
0
 40
0.0
 41
0.7
 50
0.0
 71
0
 42
0.2
  3
txt
  4

  0
STYLE
  5
20D
100
AcDbSymbolTableRecord
100
AcDbTextStyleTableRecord
  2
TEXTSTYLE_1
 70
0
 40
0.0
 41
0.8
 50
0.0
 71
0
 42
0.2
  3
gdt
  4

  0
ENDTAB
  0
TABLE
  2
VIEW
  5
6
100
AcDbSymbolTable
 70
0
  0
ENDTAB
  0
TABLE
  2
UCS
  5
7
100
AcDbSymbolTable
 70
0
  0
ENDTAB
  0
TABLE
  2
APPID
  5
9
100
AcDbSymbolTable
 70
1
  0
APPID
  5
20E
100
AcDbSymbolTableRecord
100
AcDbRegAppTableRecord
  2
ACAD
 70
0
  0
ENDTAB
  0
TABLE
  2
BLOCK_RECORD
  5
1
100
AcDbSymbolTable
 70
0
  0
BLOCK_RECORD
  5
20F
100
AcDbSymbolTableRecord
100
AcDbBlockTableRecord
  2
*Model_Space
  0
BLOCK_RECORD
  5
210
100
AcDbSymbolTableRecord
100
AcDbBlockTableRecord
  2
*Paper_Space
  0
ENDTAB
  0
TABLE
  2
DIMSTYLE
  5
A
100
AcDbSymbolTable
 70
1
100
AcDbDimStyleTable
 71
0
  0
DIMSTYLE
105
211
100
AcDbSymbolTableRecord
100
AcDbDimStyleTableRecord
  2
STANDARD
 70
0
  3

  4

 40
1.0
 41
3.5
 42
0.0625
 43
0.38
 44
0.18
 45
0.0
 46
0.0
 47
0.005
 48
0.005
140
3.5
141
0.09
142
0.0
143
25.4
144
1.0
145
0.0
146
1.0
147
0.09
 71
1.0
 72
0.0
 73
0
 74
0
 75
0
 76
0
 77
1
 78
8
170
0
171
2
172
0
173
0
174
0
175
0
176
0
177
0
178
5
270
2
271
3
272
3
273
2
274
2
275
0
280
0
281
0
282
0
283
1
284
8
285
0
286
0
287
3
288
0
340
11
  0
ENDTAB
  0
ENDSEC
  0
SECTION
  2
BLOCKS
  0
BLOCK
  5
20
100
AcDbEntity
  8
0
100
AcDbBlockBegin
  2
*Model_Space
 70
0
 10
0.0
 20
0.0
 30
0.0
  3
*Model_Space
  1

  0
ENDBLK
  5
21
100
AcDbEntity
  8
0
100
AcDbBlockEnd
  0
BLOCK
  5
1C
100
AcDbEntity
  8
0
100
AcDbBlockBegin
  2
*Paper_Space
 70
0
 10
0.0
 20
0.0
 30
0.0
  3
*Paper_Space
  1

  0
ENDBLK
  5
1D
100
AcDbEntity
  8
0
100
AcDbBlockEnd
  0
ENDSEC
  0
SECTION
  2
ENTITIES
  0
MTEXT
  5
212
100
AcDbEntity
  8
0
100
AcDbMText
 62
5
  6
CONTINUOUS
  7
STANDARD
 71
2
 72
1
 10
379.3932854994
 20
461.076103795
 30
0.0
 11
1.0
 21
0.0
 31
0.0
 44
0.9
  1
RUD\PICE\PCURT-K\P13
 40
5.5
 41
26.1904761905
  0
MTEXT
  5
213
100
AcDbEntity
  8
0
100
AcDbMText
 62
5
  6
CONTINUOUS
  7
STANDARD
 71
1
 72
1
 10
796.4810872789
 20
375.3775992094
 30
0.0
 11
0.0
 21
1.0
 31
0.0
 44
0.9
  1
RUD
 40
6.0
 41
16.0
  0
MTEXT
  5
214
100
AcDbEntity
  8
0
100
AcDbMText
 62
5
  6
CONTINUOUS
  7
STANDARD
 71
1
 72
1
 10
795.7985890239
 20
481.8460098447
 30
0.0
 11
0.0
 21
1.0
 31
0.0
 44
0.9
  1
ICE-CURT-K-13
 40
6.0
 41
59.1428571429
  0
MTEXT
  5
215
100
AcDbEntity
  8
0
100
AcDbMText
 62
5
  6
CONTINUOUS
  7
STANDARD
 71
1
 72
1
 10
436.2704483178
 20
184.6877443451
 30
0.0
 11
1.0
 21
0.0
 31
0.0
 44
0.9
  1
RUD ICE-CURT-K-13
 40
6.0
 41
78.7142857143
  0
LINE
  5
216
100
AcDbEntity
  8
0
100
AcDbLine
 62
7
  6
CONTINUOUS
 10
0.0
 20
0.0
 11
0.0
 21
594.0
  0
LINE
  5
217
100
AcDbEntity
  8
0
100
AcDbLine
 62
7
  6
CONTINUOUS
 10
0.0
 20
0.0
 11
841.0
 21
0.0
  0
LINE
  5
218
100
AcDbEntity
  8
0
100
AcDbLine
 62
7
  6
CONTINUOUS
 10
0.0
 20
594.0
 11
841.0
 21
594.0
  0
LINE
  5
219
100
AcDbEntity
  8
0
100
AcDbLine
 62
7
  6
CONTINUOUS
 10
841.0
 20
0.0
 11
841.0
 21
594.0
  0
LINE
  5
21A
100
AcDbEntity
  8
BEZUGSACHSEN
100
AcDbLine
 62
7
  6
CONTINUOUS
 10
14.1133019618
 20
424.0440734583
 11
14.1133019618
 21
427.9824502534
  0
LINE
  5
21B
100
AcDbEntity
  8
0
100
AcDbLine
 62
7
  6
CONTINUOUS
 10
14.1133019618
 20
463.2492902026
 11
14.1133019618
 21
467.1876669977
  0
LINE
  5
21C
100
AcDbEntity
  8
BEZUGSACHSEN
100
AcDbLine
 62
7
  6
CONTINUOUS
 10
25.3633019618
 20
453.365870228
 11
25.3633019618
 21
437.865870228
  0
LINE
  5
21D
100
AcDbEntity
  8
BEZUGSACHSEN
100
AcDbLine
 62
7
  6
CONTINUOUS
 10
42.3633019618
 20
453.365870228
 11
42.3633019618
 21
437.865870228
  0
LINE
  5
21E
100
AcDbEntity
  8
0
100
AcDbLine
 62
7
  6
CONTINUOUS
 10
50.8633024387
 20
425.0733171012
 11
50.8633024387
 21
423.1584235336
  0
LINE
  5
21F
100
AcDbEntity
  8
0
100
AcDbLine
 62
7
  6
CONTINUOUS
 10
51.6133024387
 20
423.1584235336
 11
51.6133024387
 21
425.0733171012
  0
LINE
  5
220
100
AcDbEntity
  8
0
100
AcDbLine
 62
7
  6
CONTINUOUS
 10
55.1133019618
 20
426.3499127831
 11
55.1133019618
 21
421.8818275835
  0
LINE
  5
221
100
AcDbEntity
  8
0
100
AcDbLine
 62
7
  6
CONTINUOUS
 10
55.8633019618
 20
421.115870228
 11
55.8633019618
 21
427.115870228
  0
LINE
  5
222
100
AcDbEntity
  8
0
100
AcDbLine
 62
7
  6
CONTINUOUS
 10
56.8633017234
 20
425.0733171012
 11
56.8633017234
 21
421.115870228
  0
LINE
  5
223
100
AcDbEntity
  8
0
100
AcDbLine
 62
7
  6
CONTINUOUS
 10
57.6133017234
 20
421.115870228
 11
57.6133017234
 21
425.0733171012
  0
LINE
  5
224
100
AcDbEntity
  8
0
100
AcDbLine
 62
7
  6
CONTINUOUS
 10
60.6133017234
 20
425.0733171012
 11
60.6133017234
 21
421.115870228
  0
LINE
  5
225
100
AcDbEntity
  8
0
100
AcDbLine
 62
7
  6
CONTINUOUS
 10
61.363302081
 20
421.115870228
 11
61.363302081
 21
425.0733171012
  0
LINE
  5
226
100
AcDbEntity
  8
0
100
AcDbLine
 62
7
  6
CONTINUOUS
 10
62.488302081
 20
423.0307639744
 11
62.488302081
 21
422.5201253797
  0
LINE
  5
227
100
AcDbEntity
  8
0
100
AcDbLine
 62
7
  6
CONTINUOUS
 10
63.238302081
 20
422.5201253797
 11
63.238302081
 21
422.9031044151
  0
LINE
  5
228
100
AcDbEntity
  8
0
100
AcDbLine
 62
7
  6
CONTINUOUS
 10
66.3633019618
 20
427.115870228
 11
66.3633019618
 21
424.4350191261
  0
LINE
  5
229
100
AcDbEntity
  8
0
100
AcDbLine
 62
7
  6
CONTINUOUS
 10
66.3633019618
 20
423.6690617706
 11
66.3633019618
 21
421.7541680242
  0
LINE
  5
22A
100
AcDbEntity
  8
0
100
AcDbLine
 62
7
  6
CONTINUOUS
 10
67.1133019618
 20
421.115870228
 11
67.1133019618
 21
427.115870228
  0
LINE
  5
22B
100
AcDbEntity
  8
0
100
AcDbLine
 62
7
  6
CONTINUOUS
 10
50.9883019618
 20
425.7116148974
 11
50.8633024387
 21
425.0733171012
  0
LINE
  5
22C
100
AcDbEntity
  8
0
100
AcDbLine
 62
7
  6
CONTINUOUS
 10
56.9883019618
 20
425.7116148974
 11
56.8633017234
 21
425.0733171012
  0
LINE
  5
22D
100
AcDbEntity
  8
0
100
AcDbLine
 62
7
  6
CONTINUOUS
 10
51.6133024387
 20
425.0733171012
 11
51.7383019618
 21
425.5839553382
  0
LINE
  5
22E
100
AcDbEntity
  8
0
100
AcDbLine
 62
7
  6
CONTINUOUS
 10
57.6133017234
 20
425.0733171012
 11
57.7383019618
 21
425.5839553382
  0
LINE
  5
22F
100
AcDbEntity
  8
0
100
AcDbLine
 62
7
  6
CONTINUOUS
 10
14.3812511543
 20
468.1876669977
 11
19.5359516926
 21
477.115870228
  0
LINE
  5
230
100
AcDbEntity
  8
BEZUGSACHSEN
100
AcDbLine
 62
7
  6
CONTINUOUS
 10
19.5359516926
 20
414.115870228
 11
14.3812511543
 21
423.0440734583
  0
LINE
  5
231
100
AcDbEntity
  8
0
100
AcDbLine
 62
7
  6
CONTINUOUS
 10
62.488302081
 20
422.5201253797
 11
62.6133019618
 21
422.137146702
  0
LINE
  5
232
100
AcDbEntity
  8
0
100
AcDbLine
 62
7
  6
CONTINUOUS
 10
63.3633019618
 20
422.137146702
 11
63.238302081
 21
422.5201253797
  0
LINE
  5
233
100
AcDbEntity
  8
0
100
AcDbLine
 62
7
  6
CONTINUOUS
 10
51.7383019618
 20
422.6477852966
 11
51.6133024387
 21
423.1584235336
  0
LINE
  5
234
100
AcDbEntity
  8
0
100
AcDbLine
 62
7
  6
CONTINUOUS
 10
60.4883022002
 20
425.5839553382
 11
60.6133017234
 21
425.0733171012
  0
LINE
  5
235
100
AcDbEntity
  8
0
100
AcDbLine
 62
7
  6
CONTINUOUS
 10
50.8633024387
 20
423.1584235336
 11
50.9883019618
 21
422.5201253797
  0
LINE
  5
236
100
AcDbEntity
  8
0
100
AcDbLine
 62
7
  6
CONTINUOUS
 10
61.363302081
 20
425.0733171012
 11
61.2383018426
 21
425.7116148974
  0
LINE
  5
237
100
AcDbEntity
  8
RUNDUNGEN
100
AcDbLine
 62
7
  6
CONTINUOUS
 10
78.1133019618
 20
418.115870228
 11
78.1133019618
 21
473.115870228
  0
LINE
  5
238
100
AcDbEntity
  8
0
100
AcDbLine
 62
7
  6
CONTINUOUS
 10
62.6133019618
 20
423.4137426521
 11
62.488302081
 21
423.0307639744
  0
LINE
  5
239
100
AcDbEntity
  8
0
100
AcDbLine
 62
7
  6
CONTINUOUS
 10
63.238302081
 20
422.9031044151
 11
63.3633019618
 21
423.2860830929
  0
LINE
  5
23A
100
AcDbEntity
  8
0
100
AcDbLine
 62
7
  6
CONTINUOUS
 10
51.2383024387
 20
426.2222532238
 11
50.9883019618
 21
425.7116148974
  0
LINE
  5
23B
100
AcDbEntity
  8
0
100
AcDbLine
 62
7
  6
CONTINUOUS
 10
51.9883024387
 20
422.2648062612
 11
51.7383019618
 21
422.6477852966
  0
LINE
  5
23C
100
AcDbEntity
  8
0
100
AcDbLine
 62
7
  6
CONTINUOUS
 10
50.9883019618
 20
422.5201253797
 11
51.2383024387
 21
422.0094871427
  0
LINE
  5
23D
100
AcDbEntity
  8
0
100
AcDbLine
 62
7
  6
CONTINUOUS
 10
61.2383018426
 20
425.7116148974
 11
60.9883017234
 21
426.2222532238
  0
LINE
  5
23E
100
AcDbEntity
  8
0
100
AcDbLine
 62
7
  6
CONTINUOUS
 10
62.3633018426
 20
427.115870228
 11
63.4883018426
 21
424.1797000076
  0
LINE
  5
23F
100
AcDbEntity
  8
0
100
AcDbLine
 62
7
  6
CONTINUOUS
 10
64.2383020214
 20
424.4350191261
 11
63.238302081
 21
427.115870228
  0
LINE
  5
240
100
AcDbEntity
  8
RUNDUNGEN
100
AcDbLine
 62
7
  6
CONTINUOUS
 10
123.1133019618
 20
417.615870228
 11
123.1133019618
 21
473.615870228
  0
LINE
  5
241
100
AcDbEntity
  8
0
100
AcDbLine
 62
7
  6
CONTINUOUS
 10
57.2383017234
 20
426.2222532238
 11
56.9883019618
 21
425.7116148974
  0
LINE
  5
242
100
AcDbEntity
  8
0
100
AcDbLine
 62
7
  6
CONTINUOUS
 10
51.7383019618
 20
425.5839553382
 11
51.9883024387
 21
425.9669340159
  0
LINE
  5
243
100
AcDbEntity
  8
0
100
AcDbLine
 62
7
  6
CONTINUOUS
 10
57.7383019618
 20
425.5839553382
 11
57.9883017234
 21
425.9669340159
  0
LINE
  5
244
100
AcDbEntity
  8
0
100
AcDbLine
 62
7
  6
CONTINUOUS
 10
62.6133019618
 20
422.137146702
 11
62.9883019618
 21
421.626508465
  0
LINE
  5
245
100
AcDbEntity
  8
0
100
AcDbLine
 62
7
  6
CONTINUOUS
 10
60.2383017234
 20
425.9669340159
 11
60.4883022002
 21
425.5839553382
  0
LINE
  5
246
100
AcDbEntity
  8
RUNDUNGEN
100
AcDbLine
 62
7
  6
CONTINUOUS
 10
129.1133019618
 20
416.115870228
 11
129.1133019618
 21
475.115870228
  0
LINE
  5
247
100
AcDbEntity
  8
0
100
AcDbLine
 62
7
  6
CONTINUOUS
 10
62.9883019618
 20
423.9243808891
 11
62.6133019618
 21
423.4137426521
  0
LINE
  5
248
100
AcDbEntity
  8
0
100
AcDbLine
 62
7
  6
CONTINUOUS
 10
51.2383024387
 20
422.0094871427
 11
51.7383019618
 21
421.4988489057
  0
LINE
  5
249
100
AcDbEntity
  8
0
100
AcDbLine
 62
7
  6
CONTINUOUS
 10
63.613302081
 20
421.8818275835
 11
63.3633019618
 21
422.137146702
  0
LINE
  5
24A
100
AcDbEntity
  8
0
100
AcDbLine
 62
7
  6
CONTINUOUS
 10
60.9883017234
 20
426.2222532238
 11
60.4883022002
 21
426.7328915055
  0
LINE
  5
24B
100
AcDbEntity
  8
RUNDUNGEN
100
AcDbLine
 62
7
  6
CONTINUOUS
 10
167.1133019618
 20
473.615870228
 11
167.1133019618
 21
417.615870228
  0
LINE
  5
24C
100
AcDbEntity
  8
RUNDUNGEN
100
AcDbLine
 62
7
  6
CONTINUOUS
 10
172.5133019618
 20
442.8158615545
 11
172.5133019618
 21
448.4158790268
  0
LINE
  5
24D
100
AcDbEntity
  8
0
100
AcDbLine
 62
7
  6
CONTINUOUS
 10
51.7383019618
 20
426.7328915055
 11
51.2383024387
 21
426.2222532238
  0
LINE
  5
24E
100
AcDbEntity
  8
0
100
AcDbLine
 62
7
  6
CONTINUOUS
 10
57.7383019618
 20
426.7328915055
 11
57.2383017234
 21
426.2222532238
  0
LINE
  5
24F
100
AcDbEntity
  8
0
100
AcDbLine
 62
7
  6
CONTINUOUS
 10
63.3633019618
 20
423.2860830929
 11
63.613302081
 21
423.5414022114
  0
LINE
  5
250
100
AcDbEntity
  8
0
100
AcDbLine
 62
7
  6
CONTINUOUS
 10
62.9883019618
 20
421.626508465
 11
63.4883018426
 21
421.2435297872
  0
LINE
  5
251
100
AcDbEntity
  8
0
100
AcDbLine
 62
7
  6
CONTINUOUS
 10
52.3633024387
 20
422.0094871427
 11
51.9883024387
 21
422.2648062612
  0
LINE
  5
252
100
AcDbEntity
  8
0
100
AcDbLine
 62
7
  6
CONTINUOUS
 10
59.8633017234
 20
426.2222532238
 11
60.2383017234
 21
425.9669340159
  0
LINE
  5
253
100
AcDbEntity
  8
RUNDUNGEN
100
AcDbLine
 62
7
  6
CONTINUOUS
 10
204.1133019618
 20
438.4159812298
 11
204.1133019618
 21
452.8157451904
  0
LINE
  5
254
100
AcDbEntity
  8
0
100
AcDbLine
 62
7
  6
CONTINUOUS
 10
51.9883024387
 20
425.9669340159
 11
52.3633024387
 21
426.2222532238
  0
LINE
  5
255
100
AcDbEntity
  8
0
100
AcDbLine
 62
7
  6
CONTINUOUS
 10
57.9883017234
 20
425.9669340159
 11
58.3633017234
 21
426.2222532238
  0
LINE
  5
256
100
AcDbEntity
  8
0
100
AcDbLine
 62
7
  6
CONTINUOUS
 10
51.7383019618
 20
421.4988489057
 11
52.238301485
 21
421.2435297872
  0
LINE
  5
257
100
AcDbEntity
  8
0
100
AcDbLine
 62
7
  6
CONTINUOUS
 10
60.4883022002
 20
426.7328915055
 11
59.9883019618
 21
426.9882106576
  0
LINE
  5
258
100
AcDbEntity
  8
0
100
AcDbLine
 62
7
  6
CONTINUOUS
 10
52.238301485
 20
426.9882106576
 11
51.7383019618
 21
426.7328915055
  0
LINE
  5
259
100
AcDbEntity
  8
0
100
AcDbLine
 62
7
  6
CONTINUOUS
 10
58.2383022002
 20
426.9882106576
 11
57.7383019618
 21
426.7328915055
  0
LINE
  5
25A
100
AcDbEntity
  8
0
100
AcDbLine
 62
7
  6
CONTINUOUS
 10
369.5056068072
 20
313.615870228
 11
388.7209971164
 21
313.615870228
  0
LINE
  5
25B
100
AcDbEntity
  8
0
100
AcDbLine
 62
7
  6
CONTINUOUS
 10
359.1133019618
 20
319.615870228
 11
399.1133019618
 21
319.615870228
  0
LINE
  5
25C
100
AcDbEntity
  8
0
100
AcDbLine
 62
7
  6
CONTINUOUS
 10
369.5056068072
 20
577.615870228
 11
359.1133019618
 21
571.615870228
  0
LINE
  5
25D
100
AcDbEntity
  8
0
100
AcDbLine
 62
7
  6
CONTINUOUS
 10
63.4883018426
 20
424.1797000076
 11
62.9883019618
 21
423.9243808891
  0
LINE
  5
25E
100
AcDbEntity
  8
0
100
AcDbLine
 62
7
  6
CONTINUOUS
 10
359.1133019618
 20
330.615870228
 11
399.1133019618
 21
330.615870228
  0
LINE
  5
25F
100
AcDbEntity
  8
0
100
AcDbLine
 62
7
  6
CONTINUOUS
 10
52.8633019618
 20
421.8818275835
 11
52.3633024387
 21
422.0094871427
  0
LINE
  5
260
100
AcDbEntity
  8
0
100
AcDbLine
 62
7
  6
CONTINUOUS
 10
63.988302081
 20
421.7541680242
 11
63.613302081
 21
421.8818275835
  0
LINE
  5
261
100
AcDbEntity
  8
0
100
AcDbLine
 62
7
  6
CONTINUOUS
 10
359.1133019618
 20
319.615870228
 11
369.5056068072
 21
313.615870228
  0
LINE
  5
262
100
AcDbEntity
  8
0
100
AcDbLine
 62
7
  6
CONTINUOUS
 10
280.1133019618
 20
433.615870228
 11
280.1133019618
 21
434.9505057241
  0
LINE
  5
263
100
AcDbEntity
  8
0
100
AcDbLine
 62
7
  6
CONTINUOUS
 10
280.1133019618
 20
440.115870228
 11
280.1133019618
 21
457.615870228
  0
LINE
  5
264
100
AcDbEntity
  8
0
100
AcDbLine
 62
7
  6
CONTINUOUS
 10
284.1133019618
 20
437.615870228
 11
284.1133019618
 21
439.8063952087
  0
LINE
  5
265
100
AcDbEntity
  8
0
100
AcDbLine
 62
7
  6
CONTINUOUS
 10
284.1133019618
 20
440.115870228
 11
284.1133019618
 21
453.615870228
  0
LINE
  5
266
100
AcDbEntity
  8
0
100
AcDbLine
 62
7
  6
CONTINUOUS
 10
296.1133019618
 20
453.615870228
 11
296.1133019618
 21
440.115870228
  0
LINE
  5
267
100
AcDbEntity
  8
0
100
AcDbLine
 62
7
  6
CONTINUOUS
 10
296.1133019618
 20
439.8063952087
 11
296.1133019618
 21
437.615870228
  0
LINE
  5
268
100
AcDbEntity
  8
0
100
AcDbLine
 62
7
  6
CONTINUOUS
 10
298.1133019618
 20
451.615870228
 11
298.1133019618
 21
439.615870228
  0
LINE
  5
269
100
AcDbEntity
  8
0
100
AcDbLine
 62
7
  6
CONTINUOUS
 10
184.6960784365
 20
417.4243497851
 11
190.2416355377
 21
421.3073906709
  0
LINE
  5
26A
100
AcDbEntity
  8
0
100
AcDbLine
 62
7
  6
CONTINUOUS
 10
63.613302081
 20
423.5414022114
 11
63.988302081
 21
423.6690617706
  0
LINE
  5
26B
100
AcDbEntity
  8
0
100
AcDbLine
 62
7
  6
CONTINUOUS
 10
367.7735559997
 20
345.615870228
 11
390.453047924
 21
345.615870228
  0
LINE
  5
26C
100
AcDbEntity
  8
0
100
AcDbLine
 62
7
  6
CONTINUOUS
 10
52.238301485
 20
421.2435297872
 11
52.8633019618
 21
421.115870228
  0
LINE
  5
26D
100
AcDbEntity
  8
0
100
AcDbLine
 62
7
  6
CONTINUOUS
 10
63.4883018426
 20
421.2435297872
 11
64.1133019618
 21
421.115870228
  0
LINE
  5
26E
100
AcDbEntity
  8
0
100
AcDbLine
 62
7
  6
CONTINUOUS
 10
59.9883019618
 20
426.9882106576
 11
59.3633022002
 21
427.115870228
  0
LINE
  5
26F
100
AcDbEntity
  8
0
100
AcDbLine
 62
7
  6
CONTINUOUS
 10
59.3633022002
 20
426.3499127831
 11
59.8633017234
 21
426.2222532238
  0
LINE
  5
270
100
AcDbEntity
  8
0
100
AcDbLine
 62
7
  6
CONTINUOUS
 10
184.6960784365
 20
473.8073906709
 11
190.2416355377
 21
469.9243497851
  0
LINE
  5
271
100
AcDbEntity
  8
0
100
AcDbLine
 62
7
  6
CONTINUOUS
 10
284.1133019618
 20
437.615870228
 11
280.1133019618
 21
433.615870228
  0
LINE
  5
272
100
AcDbEntity
  8
0
100
AcDbLine
 62
7
  6
CONTINUOUS
 10
298.1133019618
 20
439.615870228
 11
296.1133019618
 21
437.615870228
  0
LINE
  5
273
100
AcDbEntity
  8
0
100
AcDbLine
 62
7
  6
CONTINUOUS
 10
705.863301485
 20
465.0094872322
 11
705.3633019618
 21
464.8818276729
  0
LINE
  5
274
100
AcDbEntity
  8
0
100
AcDbLine
 62
7
  6
CONTINUOUS
 10
699.8633022002
 20
465.0094872322
 11
699.3633019618
 21
464.8818276729
  0
LINE
  5
275
100
AcDbEntity
  8
0
100
AcDbLine
 62
7
  6
CONTINUOUS
 10
284.1133019618
 20
453.615870228
 11
280.1133019618
 21
457.615870228
  0
LINE
  5
276
100
AcDbEntity
  8
0
100
AcDbLine
 62
7
  6
CONTINUOUS
 10
296.1133019618
 20
453.615870228
 11
298.1133019618
 21
451.615870228
  0
LINE
  5
277
100
AcDbEntity
  8
0
100
AcDbLine
 62
7
  6
CONTINUOUS
 10
399.1133019618
 20
560.615870228
 11
390.453047924
 21
545.615870228
  0
LINE
  5
278
100
AcDbEntity
  8
0
100
AcDbLine
 62
7
  6
CONTINUOUS
 10
351.4245877746
 20
468.4174071241
 11
353.8888722776
 21
469.3143333319
  0
LINE
  5
279
100
AcDbEntity
  8
0
100
AcDbLine
 62
7
  6
CONTINUOUS
 10
705.3633019618
 20
464.115870228
 11
705.9883024387
 21
464.2435297984
  0
LINE
  5
27A
100
AcDbEntity
  8
0
100
AcDbLine
 62
7
  6
CONTINUOUS
 10
699.3633019618
 20
464.115870228
 11
699.9883017234
 21
464.2435297984
  0
LINE
  5
27B
100
AcDbEntity
  8
BEZUGSACHSEN
100
AcDbLine
 62
7
  6
CONTINUOUS
 10
71.1133019618
 20
413.115870228
 11
21.2681731608
 21
413.115870228
  0
LINE
  5
27C
100
AcDbEntity
  8
RUNDUNGEN
100
AcDbLine
 62
7
  6
CONTINUOUS
 10
687.1133019618
 20
413.115870228
 11
736.9584307628
 21
413.115870228
  0
LINE
  5
27D
100
AcDbEntity
  8
0
100
AcDbLine
 62
7
  6
CONTINUOUS
 10
125.1133019618
 20
415.615870228
 11
128.6133019618
 21
415.615870228
  0
LINE
  5
27E
100
AcDbEntity
  8
0
100
AcDbLine
 62
7
  6
CONTINUOUS
 10
169.1133019618
 20
415.615870228
 11
178.960314073
 21
415.615870228
  0
LINE
  5
27F
100
AcDbEntity
  8
RUNDUNGEN
100
AcDbLine
 62
7
  6
CONTINUOUS
 10
706.1133019618
 20
418.115870228
 11
692.1133019618
 21
418.115870228
  0
LINE
  5
280
100
AcDbEntity
  8
BEZUGSACHSEN
100
AcDbLine
 62
7
  6
CONTINUOUS
 10
52.1133019618
 20
418.115870228
 11
66.1133019618
 21
418.115870228
  0
LINE
  5
281
100
AcDbEntity
  8
0
100
AcDbLine
 62
7
  6
CONTINUOUS
 10
52.8633019618
 20
421.115870228
 11
55.8633019618
 21
421.115870228
  0
LINE
  5
282
100
AcDbEntity
  8
0
100
AcDbLine
 62
7
  6
CONTINUOUS
 10
56.8633017234
 20
421.115870228
 11
57.6133017234
 21
421.115870228
  0
LINE
  5
283
100
AcDbEntity
  8
0
100
AcDbLine
 62
7
  6
CONTINUOUS
 10
60.6133017234
 20
421.115870228
 11
61.363302081
 21
421.115870228
  0
LINE
  5
284
100
AcDbEntity
  8
0
100
AcDbLine
 62
7
  6
CONTINUOUS
 10
64.1133019618
 20
421.115870228
 11
67.1133019618
 21
421.115870228
  0
LINE
  5
285
100
AcDbEntity
  8
0
100
AcDbLine
 62
7
  6
CONTINUOUS
 10
591.1133019618
 20
421.615870228
 11
568.0586790418
 21
421.615870228
  0
LINE
  5
286
100
AcDbEntity
  8
0
100
AcDbLine
 62
7
  6
CONTINUOUS
 10
402.6276309294
 20
421.615870228
 11
389.6133019618
 21
421.615870228
  0
LINE
  5
287
100
AcDbEntity
  8
0
100
AcDbLine
 62
7
  6
CONTINUOUS
 10
368.6133019618
 20
421.615870228
 11
355.5989729942
 21
421.615870228
  0
LINE
  5
288
100
AcDbEntity
  8
BEZUGSACHSEN
100
AcDbLine
 62
7
  6
CONTINUOUS
 10
355.5989729942
 20
421.615870228
 11
368.6133019618
 21
421.615870228
  0
LINE
  5
289
100
AcDbEntity
  8
BEZUGSACHSEN
100
AcDbLine
 62
7
  6
CONTINUOUS
 10
389.6133019618
 20
421.615870228
 11
402.6276309294
 21
421.615870228
  0
LINE
  5
28A
100
AcDbEntity
  8
RUNDUNGEN
100
AcDbLine
 62
7
  6
CONTINUOUS
 10
568.0586790418
 20
421.615870228
 11
591.1133019618
 21
421.615870228
  0
LINE
  5
28B
100
AcDbEntity
  8
0
100
AcDbLine
 62
7
  6
CONTINUOUS
 10
66.3633019618
 20
421.7541680242
 11
63.988302081
 21
421.7541680242
  0
LINE
  5
28C
100
AcDbEntity
  8
0
100
AcDbLine
 62
7
  6
CONTINUOUS
 10
55.1133019618
 20
421.8818275835
 11
52.8633019618
 21
421.8818275835
  0
LINE
  5
28D
100
AcDbEntity
  8
0
100
AcDbLine
 62
7
  6
CONTINUOUS
 10
195.9773999012
 20
423.115870228
 11
349.714487058
 21
423.115870228
  0
LINE
  5
28E
100
AcDbEntity
  8
0
100
AcDbLine
 62
7
  6
CONTINUOUS
 10
408.5121168657
 20
423.115870228
 11
562.2492040225
 21
423.115870228
  0
LINE
  5
28F
100
AcDbEntity
  8
0
100
AcDbLine
 62
7
  6
CONTINUOUS
 10
351.4245877746
 20
422.8143333319
 11
353.8888722776
 21
421.9174071241
  0
LINE
  5
290
100
AcDbEntity
  8
0
100
AcDbLine
 62
7
  6
CONTINUOUS
 10
390.453047924
 20
345.615870228
 11
399.1133019618
 21
330.615870228
  0
LINE
  5
291
100
AcDbEntity
  8
0
100
AcDbLine
 62
7
  6
CONTINUOUS
 10
359.1133019618
 20
571.615870228
 11
359.1133019618
 21
560.615870228
  0
LINE
  5
292
100
AcDbEntity
  8
0
100
AcDbLine
 62
7
  6
CONTINUOUS
 10
359.1133019618
 20
330.615870228
 11
359.1133019618
 21
319.615870228
  0
LINE
  5
293
100
AcDbEntity
  8
RUNDUNGEN
100
AcDbLine
 62
7
  6
CONTINUOUS
 10
364.1133019618
 20
452.8157517136
 11
364.1133019618
 21
438.4160028684
  0
LINE
  5
294
100
AcDbEntity
  8
0
100
AcDbLine
 62
7
  6
CONTINUOUS
 10
369.1133019618
 20
545.615870228
 11
369.1133019618
 21
469.4014651506
  0
LINE
  5
295
100
AcDbEntity
  8
0
100
AcDbLine
 62
7
  6
CONTINUOUS
 10
369.1133019618
 20
421.8302742391
 11
369.1133019618
 21
345.615870228
  0
LINE
  5
296
100
AcDbEntity
  8
0
100
AcDbLine
 62
7
  6
CONTINUOUS
 10
63.988302081
 20
423.6690617706
 11
66.3633019618
 21
423.6690617706
  0
LINE
  5
297
100
AcDbEntity
  8
0
100
AcDbLine
 62
7
  6
CONTINUOUS
 10
66.3633019618
 20
424.4350191261
 11
64.2383020214
 21
424.4350191261
  0
LINE
  5
298
100
AcDbEntity
  8
0
100
AcDbLine
 62
7
  6
CONTINUOUS
 10
52.8633019618
 20
426.3499127831
 11
55.1133019618
 21
426.3499127831
  0
LINE
  5
299
100
AcDbEntity
  8
0
100
AcDbLine
 62
7
  6
CONTINUOUS
 10
58.8633019618
 20
426.3499127831
 11
59.3633022002
 21
426.3499127831
  0
LINE
  5
29A
100
AcDbEntity
  8
0
100
AcDbLine
 62
7
  6
CONTINUOUS
 10
67.1133019618
 20
427.115870228
 11
66.3633019618
 21
427.115870228
  0
LINE
  5
29B
100
AcDbEntity
  8
0
100
AcDbLine
 62
7
  6
CONTINUOUS
 10
63.238302081
 20
427.115870228
 11
62.3633018426
 21
427.115870228
  0
LINE
  5
29C
100
AcDbEntity
  8
0
100
AcDbLine
 62
7
  6
CONTINUOUS
 10
59.3633022002
 20
427.115870228
 11
58.8633019618
 21
427.115870228
  0
LINE
  5
29D
100
AcDbEntity
  8
0
100
AcDbLine
 62
7
  6
CONTINUOUS
 10
55.8633019618
 20
427.115870228
 11
52.8633019618
 21
427.115870228
  0
LINE
  5
29E
100
AcDbEntity
  8
BEZUGSACHSEN
100
AcDbLine
 62
7
  6
CONTINUOUS
 10
66.1133019618
 20
430.115870228
 11
52.1133019618
 21
430.115870228
  0
LINE
  5
29F
100
AcDbEntity
  8
RUNDUNGEN
100
AcDbLine
 62
7
  6
CONTINUOUS
 10
692.1133019618
 20
430.115870228
 11
706.1133019618
 21
430.115870228
  0
LINE
  5
2A0
100
AcDbEntity
  8
RUNDUNGEN
100
AcDbLine
 62
7
  6
CONTINUOUS
 10
548.11320625
 20
432.415870228
 11
400.1133019619
 21
432.415870228
  0
LINE
  5
2A1
100
AcDbEntity
  8
RUNDUNGEN
100
AcDbLine
 62
7
  6
CONTINUOUS
 10
358.1132861405
 20
432.415870228
 11
210.1133975413
 21
432.415870228
  0
LINE
  5
2A2
100
AcDbEntity
  8
0
100
AcDbLine
 62
7
  6
CONTINUOUS
 10
677.1133019618
 20
433.615870228
 11
593.1133019618
 21
433.615870228
  0
LINE
  5
2A3
100
AcDbEntity
  8
0
100
AcDbLine
 62
7
  6
CONTINUOUS
 10
551.7120826292
 20
433.615870228
 11
488.1133019618
 21
433.615870228
  0
LINE
  5
2A4
100
AcDbEntity
  8
0
100
AcDbLine
 62
7
  6
CONTINUOUS
 10
280.1133019618
 20
433.615870228
 11
206.5150965278
 21
433.615870228
  0
LINE
  5
2A5
100
AcDbEntity
  8
0
100
AcDbLine
 62
7
  6
CONTINUOUS
 10
167.1133019618
 20
433.615870228
 11
129.1133019618
 21
433.615870228
  0
LINE
  5
2A6
100
AcDbEntity
  8
0
100
AcDbLine
 62
7
  6
CONTINUOUS
 10
123.1133019618
 20
433.615870228
 11
81.1133019618
 21
433.615870228
  0
LINE
  5
2A7
100
AcDbEntity
  8
0
100
AcDbLine
 62
7
  6
CONTINUOUS
 10
280.1133019618
 20
434.9505057241
 11
205.2162761521
 21
434.9505057241
  0
LINE
  5
2A8
100
AcDbEntity
  8
0
100
AcDbLine
 62
7
  6
CONTINUOUS
 10
167.1133019618
 20
434.9505057241
 11
129.1133019618
 21
434.9505057241
  0
LINE
  5
2A9
100
AcDbEntity
  8
0
100
AcDbLine
 62
7
  6
CONTINUOUS
 10
123.1133019618
 20
434.9505057241
 11
81.1133019618
 21
434.9505057241
  0
LINE
  5
2AA
100
AcDbEntity
  8
0
100
AcDbLine
 62
7
  6
CONTINUOUS
 10
484.1133019618
 20
437.615870228
 11
472.1133019618
 21
437.615870228
  0
LINE
  5
2AB
100
AcDbEntity
  8
0
100
AcDbLine
 62
7
  6
CONTINUOUS
 10
296.1133019618
 20
437.615870228
 11
284.1133019618
 21
437.615870228
  0
LINE
  5
2AC
100
AcDbEntity
  8
RUNDUNGEN
100
AcDbLine
 62
7
  6
CONTINUOUS
 10
736.9293549804
 20
437.865870228
 11
703.8633019618
 21
437.865870228
  0
LINE
  5
2AD
100
AcDbEntity
  8
BEZUGSACHSEN
100
AcDbLine
 62
7
  6
CONTINUOUS
 10
21.2972489433
 20
437.865870228
 11
54.3633019618
 21
437.865870228
  0
LINE
  5
2AE
100
AcDbEntity
  8
0
100
AcDbLine
 62
7
  6
CONTINUOUS
 10
296.1133019618
 20
439.8063952087
 11
284.1133019618
 21
439.8063952087
  0
LINE
  5
2AF
100
AcDbEntity
  8
0
100
AcDbLine
 62
7
  6
CONTINUOUS
 10
296.3351273688
 20
440.115870228
 11
204.1133019618
 21
440.115870228
  0
LINE
  5
2B0
100
AcDbEntity
  8
0
100
AcDbLine
 62
7
  6
CONTINUOUS
 10
167.1133019618
 20
440.115870228
 11
129.1133019618
 21
440.115870228
  0
LINE
  5
2B1
100
AcDbEntity
  8
0
100
AcDbLine
 62
7
  6
CONTINUOUS
 10
123.1133019618
 20
440.115870228
 11
88.1133019618
 21
440.115870228
  0
LINE
  5
2B2
100
AcDbEntity
  8
RUNDUNGEN
100
AcDbLine
 62
7
  6
CONTINUOUS
 10
192.1569841703
 20
440.815870228
 11
174.5133019617
 21
440.815870228
  0
LINE
  5
2B3
100
AcDbEntity
  8
0
100
AcDbLine
 62
7
  6
CONTINUOUS
 10
389.1133019618
 20
545.615870228
 11
389.1133019618
 21
469.4014790304
  0
LINE
  5
2B4
100
AcDbEntity
  8
0
100
AcDbLine
 62
7
  6
CONTINUOUS
 10
389.1133019618
 20
421.8302621315
 11
389.1133019618
 21
345.615870228
  0
LINE
  5
2B5
100
AcDbEntity
  8
RUNDUNGEN
100
AcDbLine
 62
7
  6
CONTINUOUS
 10
394.1133019618
 20
438.4160025997
 11
394.1133019618
 21
452.8157510841
  0
LINE
  5
2B6
100
AcDbEntity
  8
0
100
AcDbLine
 62
7
  6
CONTINUOUS
 10
399.1133019618
 20
571.615870228
 11
399.1133019618
 21
560.615870228
  0
LINE
  5
2B7
100
AcDbEntity
  8
0
100
AcDbLine
 62
7
  6
CONTINUOUS
 10
399.1133019618
 20
330.615870228
 11
399.1133019618
 21
319.615870228
  0
LINE
  5
2B8
100
AcDbEntity
  8
RUNDUNGEN
100
AcDbLine
 62
7
  6
CONTINUOUS
 10
174.5132340836
 20
450.415870228
 11
192.1569841703
 21
450.415870228
  0
LINE
  5
2B9
100
AcDbEntity
  8
BEZUGSACHSEN
100
AcDbLine
 62
7
  6
CONTINUOUS
 10
736.9293549804
 20
453.365870228
 11
703.8633019618
 21
453.365870228
  0
LINE
  5
2BA
100
AcDbEntity
  8
RUNDUNGEN
100
AcDbLine
 62
7
  6
CONTINUOUS
 10
21.2972489433
 20
453.365870228
 11
54.3633019618
 21
453.365870228
  0
LINE
  5
2BB
100
AcDbEntity
  8
0
100
AcDbLine
 62
7
  6
CONTINUOUS
 10
484.1133019618
 20
453.615870228
 11
472.1133019618
 21
453.615870228
  0
LINE
  5
2BC
100
AcDbEntity
  8
0
100
AcDbLine
 62
7
  6
CONTINUOUS
 10
296.1133019618
 20
453.615870228
 11
284.1133019618
 21
453.615870228
  0
LINE
  5
2BD
100
AcDbEntity
  8
0
100
AcDbLine
 62
7
  6
CONTINUOUS
 10
677.1133019618
 20
457.615870228
 11
593.1133019618
 21
457.615870228
  0
LINE
  5
2BE
100
AcDbEntity
  8
0
100
AcDbLine
 62
7
  6
CONTINUOUS
 10
551.7121899853
 20
457.615870228
 11
488.1133019618
 21
457.615870228
  0
LINE
  5
2BF
100
AcDbEntity
  8
0
100
AcDbLine
 62
7
  6
CONTINUOUS
 10
280.1133019618
 20
457.615870228
 11
206.514997905
 21
457.615870228
  0
LINE
  5
2C0
100
AcDbEntity
  8
0
100
AcDbLine
 62
7
  6
CONTINUOUS
 10
167.1133019618
 20
457.615870228
 11
129.1133019618
 21
457.615870228
  0
LINE
  5
2C1
100
AcDbEntity
  8
0
100
AcDbLine
 62
7
  6
CONTINUOUS
 10
123.1133019618
 20
457.615870228
 11
81.1133019618
 21
457.615870228
  0
LINE
  5
2C2
100
AcDbEntity
  8
RUNDUNGEN
100
AcDbLine
 62
7
  6
CONTINUOUS
 10
210.1132354542
 20
458.815870228
 11
358.1131422977
 21
458.815870228
  0
LINE
  5
2C3
100
AcDbEntity
  8
RUNDUNGEN
100
AcDbLine
 62
7
  6
CONTINUOUS
 10
400.1133019618
 20
458.815870228
 11
548.1133675333
 21
458.815870228
  0
LINE
  5
2C4
100
AcDbEntity
  8
RUNDUNGEN
100
AcDbLine
 62
7
  6
CONTINUOUS
 10
66.1133019618
 20
461.115870228
 11
52.1133019618
 21
461.115870228
  0
LINE
  5
2C5
100
AcDbEntity
  8
BEZUGSACHSEN
100
AcDbLine
 62
7
  6
CONTINUOUS
 10
692.1133019618
 20
461.115870228
 11
706.1133019618
 21
461.115870228
  0
LINE
  5
2C6
100
AcDbEntity
  8
0
100
AcDbLine
 62
7
  6
CONTINUOUS
 10
691.1133019618
 20
464.115870228
 11
691.8633019618
 21
464.115870228
  0
LINE
  5
2C7
100
AcDbEntity
  8
0
100
AcDbLine
 62
7
  6
CONTINUOUS
 10
694.9883018426
 20
464.115870228
 11
695.863302081
 21
464.115870228
  0
LINE
  5
2C8
100
AcDbEntity
  8
0
100
AcDbLine
 62
7
  6
CONTINUOUS
 10
698.8633017234
 20
464.115870228
 11
699.3633019618
 21
464.115870228
  0
LINE
  5
2C9
100
AcDbEntity
  8
0
100
AcDbLine
 62
7
  6
CONTINUOUS
 10
702.3633019618
 20
464.115870228
 11
705.3633019618
 21
464.115870228
  0
LINE
  5
2CA
100
AcDbEntity
  8
0
100
AcDbLine
 62
7
  6
CONTINUOUS
 10
705.3633019618
 20
464.8818276729
 11
703.1133019618
 21
464.8818276729
  0
LINE
  5
2CB
100
AcDbEntity
  8
0
100
AcDbLine
 62
7
  6
CONTINUOUS
 10
699.3633019618
 20
464.8818276729
 11
698.8633017234
 21
464.8818276729
  0
LINE
  5
2CC
100
AcDbEntity
  8
0
100
AcDbLine
 62
7
  6
CONTINUOUS
 10
691.8633019618
 20
466.7967213299
 11
693.9883019022
 21
466.7967213299
  0
LINE
  5
2CD
100
AcDbEntity
  8
0
100
AcDbLine
 62
7
  6
CONTINUOUS
 10
694.2383018426
 20
467.5626786854
 11
691.8633019618
 21
467.5626786854
  0
LINE
  5
2CE
100
AcDbEntity
  8
0
100
AcDbLine
 62
7
  6
CONTINUOUS
 10
195.9773999012
 20
468.115870228
 11
349.714487058
 21
468.115870228
  0
LINE
  5
2CF
100
AcDbEntity
  8
RUNDUNGEN
100
AcDbLine
 62
7
  6
CONTINUOUS
 10
408.5121168657
 20
468.115870228
 11
562.2492040225
 21
468.115870228
  0
LINE
  5
2D0
100
AcDbEntity
  8
0
100
AcDbLine
 62
7
  6
CONTINUOUS
 10
408.5121168657
 20
468.115870228
 11
562.2492040225
 21
468.115870228
  0
LINE
  5
2D1
100
AcDbEntity
  8
0
100
AcDbLine
 62
7
  6
CONTINUOUS
 10
703.1133019618
 20
469.3499128725
 11
705.3633019618
 21
469.3499128725
  0
LINE
  5
2D2
100
AcDbEntity
  8
0
100
AcDbLine
 62
7
  6
CONTINUOUS
 10
691.8633019618
 20
469.4775724317
 11
694.2383018426
 21
469.4775724317
  0
LINE
  5
2D3
100
AcDbEntity
  8
0
100
AcDbLine
 62
7
  6
CONTINUOUS
 10
591.1133019618
 20
469.615870228
 11
568.0586790418
 21
469.615870228
  0
LINE
  5
2D4
100
AcDbEntity
  8
0
100
AcDbLine
 62
7
  6
CONTINUOUS
 10
402.6276309294
 20
469.615870228
 11
389.6133019618
 21
469.615870228
  0
LINE
  5
2D5
100
AcDbEntity
  8
0
100
AcDbLine
 62
7
  6
CONTINUOUS
 10
368.6133019618
 20
469.615870228
 11
355.5989729942
 21
469.615870228
  0
LINE
  5
2D6
100
AcDbEntity
  8
BEZUGSACHSEN
100
AcDbLine
 62
7
  6
CONTINUOUS
 10
355.5989729942
 20
469.615870228
 11
368.6133019618
 21
469.615870228
  0
LINE
  5
2D7
100
AcDbEntity
  8
BEZUGSACHSEN
100
AcDbLine
 62
7
  6
CONTINUOUS
 10
389.6133019618
 20
469.615870228
 11
402.6276309294
 21
469.615870228
  0
LINE
  5
2D8
100
AcDbEntity
  8
RUNDUNGEN
100
AcDbLine
 62
7
  6
CONTINUOUS
 10
568.0586790418
 20
469.615870228
 11
591.1133019618
 21
469.615870228
  0
LINE
  5
2D9
100
AcDbEntity
  8
0
100
AcDbLine
 62
7
  6
CONTINUOUS
 10
705.3633019618
 20
470.115870228
 11
702.3633019618
 21
470.115870228
  0
LINE
  5
2DA
100
AcDbEntity
  8
0
100
AcDbLine
 62
7
  6
CONTINUOUS
 10
701.3633022002
 20
470.115870228
 11
700.6133022002
 21
470.115870228
  0
LINE
  5
2DB
100
AcDbEntity
  8
0
100
AcDbLine
 62
7
  6
CONTINUOUS
 10
697.6133022002
 20
470.115870228
 11
696.8633018426
 21
470.115870228
  0
LINE
  5
2DC
100
AcDbEntity
  8
0
100
AcDbLine
 62
7
  6
CONTINUOUS
 10
694.1133019618
 20
470.115870228
 11
691.1133019618
 21
470.115870228
  0
LINE
  5
2DD
100
AcDbEntity
  8
BEZUGSACHSEN
100
AcDbLine
 62
7
  6
CONTINUOUS
 10
706.1133019618
 20
473.115870228
 11
692.1133019618
 21
473.115870228
  0
LINE
  5
2DE
100
AcDbEntity
  8
RUNDUNGEN
100
AcDbLine
 62
7
  6
CONTINUOUS
 10
52.1133019618
 20
473.115870228
 11
66.1133019618
 21
473.115870228
  0
LINE
  5
2DF
100
AcDbEntity
  8
0
100
AcDbLine
 62
7
  6
CONTINUOUS
 10
367.7735559997
 20
345.615870228
 11
359.1133019618
 21
330.615870228
  0
LINE
  5
2E0
100
AcDbEntity
  8
0
100
AcDbLine
 62
7
  6
CONTINUOUS
 10
404.337731646
 20
421.9174071241
 11
406.802016149
 21
422.8143333319
  0
LINE
  5
2E1
100
AcDbEntity
  8
0
100
AcDbLine
 62
7
  6
CONTINUOUS
 10
58.8633019618
 20
427.115870228
 11
58.2383022002
 21
426.9882106576
  0
LINE
  5
2E2
100
AcDbEntity
  8
0
100
AcDbLine
 62
7
  6
CONTINUOUS
 10
52.8633019618
 20
427.115870228
 11
52.238301485
 21
426.9882106576
  0
LINE
  5
2E3
100
AcDbEntity
  8
RUNDUNGEN
100
AcDbLine
 62
7
  6
CONTINUOUS
 10
178.960314073
 20
475.615870228
 11
169.1133019618
 21
475.615870228
  0
LINE
  5
2E4
100
AcDbEntity
  8
RUNDUNGEN
100
AcDbLine
 62
7
  6
CONTINUOUS
 10
128.6133019618
 20
475.615870228
 11
125.1133019618
 21
475.615870228
  0
LINE
  5
2E5
100
AcDbEntity
  8
0
100
AcDbLine
 62
7
  6
CONTINUOUS
 10
125.1133019618
 20
475.615870228
 11
128.6133019618
 21
475.615870228
  0
LINE
  5
2E6
100
AcDbEntity
  8
0
100
AcDbLine
 62
7
  6
CONTINUOUS
 10
169.1133019618
 20
475.615870228
 11
178.960314073
 21
475.615870228
  0
LINE
  5
2E7
100
AcDbEntity
  8
RUNDUNGEN
100
AcDbLine
 62
7
  6
CONTINUOUS
 10
71.1133019618
 20
478.115870228
 11
21.2681731608
 21
478.115870228
  0
LINE
  5
2E8
100
AcDbEntity
  8
BEZUGSACHSEN
100
AcDbLine
 62
7
  6
CONTINUOUS
 10
687.1133019618
 20
478.115870228
 11
736.9584307628
 21
478.115870228
  0
LINE
  5
2E9
100
AcDbEntity
  8
0
100
AcDbLine
 62
7
  6
CONTINUOUS
 10
404.337731646
 20
469.3143333319
 11
406.802016149
 21
468.4174071241
  0
LINE
  5
2EA
100
AcDbEntity
  8
0
100
AcDbLine
 62
7
  6
CONTINUOUS
 10
359.1133019618
 20
560.615870228
 11
367.7735559997
 21
545.615870228
  0
LINE
  5
2EB
100
AcDbEntity
  8
0
100
AcDbLine
 62
7
  6
CONTINUOUS
 10
472.1133019618
 20
453.615870228
 11
470.1133019618
 21
451.615870228
  0
LINE
  5
2EC
100
AcDbEntity
  8
0
100
AcDbLine
 62
7
  6
CONTINUOUS
 10
488.1133019618
 20
457.615870228
 11
484.1133019618
 21
453.615870228
  0
LINE
  5
2ED
100
AcDbEntity
  8
0
100
AcDbLine
 62
7
  6
CONTINUOUS
 10
694.6133018426
 20
467.6903382446
 11
694.2383018426
 21
467.5626786854
  0
LINE
  5
2EE
100
AcDbEntity
  8
0
100
AcDbLine
 62
7
  6
CONTINUOUS
 10
58.3633017234
 20
426.2222532238
 11
58.8633019618
 21
426.3499127831
  0
LINE
  5
2EF
100
AcDbEntity
  8
0
100
AcDbLine
 62
7
  6
CONTINUOUS
 10
52.3633024387
 20
426.2222532238
 11
52.8633019618
 21
426.3499127831
  0
LINE
  5
2F0
100
AcDbEntity
  8
0
100
AcDbLine
 62
7
  6
CONTINUOUS
 10
470.1133019618
 20
439.615870228
 11
472.1133019618
 21
437.615870228
  0
LINE
  5
2F1
100
AcDbEntity
  8
0
100
AcDbLine
 62
7
  6
CONTINUOUS
 10
484.1133019618
 20
437.615870228
 11
488.1133019618
 21
433.615870228
  0
LINE
  5
2F2
100
AcDbEntity
  8
0
100
AcDbLine
 62
7
  6
CONTINUOUS
 10
470.1133019618
 20
439.615870228
 11
470.1133019618
 21
451.615870228
  0
LINE
  5
2F3
100
AcDbEntity
  8
0
100
AcDbLine
 62
7
  6
CONTINUOUS
 10
472.1133019618
 20
437.615870228
 11
472.1133019618
 21
453.615870228
  0
LINE
  5
2F4
100
AcDbEntity
  8
0
100
AcDbLine
 62
7
  6
CONTINUOUS
 10
484.1133019618
 20
437.615870228
 11
484.1133019618
 21
453.615870228
  0
LINE
  5
2F5
100
AcDbEntity
  8
0
100
AcDbLine
 62
7
  6
CONTINUOUS
 10
367.7735559997
 20
545.615870228
 11
390.453047924
 21
545.615870228
  0
LINE
  5
2F6
100
AcDbEntity
  8
0
100
AcDbLine
 62
7
  6
CONTINUOUS
 10
698.2383019618
 20
464.2435297984
 11
698.8633017234
 21
464.115870228
  0
LINE
  5
2F7
100
AcDbEntity
  8
0
100
AcDbLine
 62
7
  6
CONTINUOUS
 10
694.738302081
 20
469.9882106687
 11
694.1133019618
 21
470.115870228
  0
LINE
  5
2F8
100
AcDbEntity
  8
0
100
AcDbLine
 62
7
  6
CONTINUOUS
 10
705.9883024387
 20
469.9882106687
 11
705.3633019618
 21
470.115870228
  0
LINE
  5
2F9
100
AcDbEntity
  8
0
100
AcDbLine
 62
7
  6
CONTINUOUS
 10
698.8633017234
 20
464.8818276729
 11
698.3633022002
 21
465.0094872322
  0
LINE
  5
2FA
100
AcDbEntity
  8
0
100
AcDbLine
 62
7
  6
CONTINUOUS
 10
705.3633019618
 20
469.3499128725
 11
705.863301485
 21
469.2222533132
  0
LINE
  5
2FB
100
AcDbEntity
  8
0
100
AcDbLine
 62
7
  6
CONTINUOUS
 10
488.1133019618
 20
433.615870228
 11
488.1133019618
 21
457.615870228
  0
LINE
  5
2FC
100
AcDbEntity
  8
0
100
AcDbLine
 62
7
  6
CONTINUOUS
 10
399.1133019618
 20
319.615870228
 11
388.7209971164
 21
313.615870228
  0
LINE
  5
2FD
100
AcDbEntity
  8
0
100
AcDbLine
 62
7
  6
CONTINUOUS
 10
694.738302081
 20
467.0520404484
 11
695.2383019618
 21
467.3073595669
  0
LINE
  5
2FE
100
AcDbEntity
  8
0
100
AcDbLine
 62
7
  6
CONTINUOUS
 10
699.9883017234
 20
464.2435297984
 11
700.4883019618
 21
464.4988489504
  0
LINE
  5
2FF
100
AcDbEntity
  8
0
100
AcDbLine
 62
7
  6
CONTINUOUS
 10
705.9883024387
 20
464.2435297984
 11
706.4883019618
 21
464.4988489504
  0
LINE
  5
300
100
AcDbEntity
  8
0
100
AcDbLine
 62
7
  6
CONTINUOUS
 10
359.1133019618
 20
560.615870228
 11
399.1133019618
 21
560.615870228
  0
LINE
  5
301
100
AcDbEntity
  8
0
100
AcDbLine
 62
7
  6
CONTINUOUS
 10
359.1133019618
 20
571.615870228
 11
399.1133019618
 21
571.615870228
  0
LINE
  5
302
100
AcDbEntity
  8
0
100
AcDbLine
 62
7
  6
CONTINUOUS
 10
369.5056068072
 20
577.615870228
 11
388.7209971164
 21
577.615870228
  0
LINE
  5
303
100
AcDbEntity
  8
0
100
AcDbLine
 62
7
  6
CONTINUOUS
 10
694.2383018426
 20
469.4775724317
 11
694.6133018426
 21
469.3499128725
  0
LINE
  5
304
100
AcDbEntity
  8
0
100
AcDbLine
 62
7
  6
CONTINUOUS
 10
388.7209971164
 20
577.615870228
 11
399.1133019618
 21
571.615870228
  0
LINE
  5
305
100
AcDbEntity
  8
RUNDUNGEN
100
AcDbLine
 62
7
  6
CONTINUOUS
 10
554.1133019618
 20
452.8157472724
 11
554.1133019618
 21
438.4159794986
  0
LINE
  5
306
100
AcDbEntity
  8
0
100
AcDbLine
 62
7
  6
CONTINUOUS
 10
700.2383022002
 20
465.2648064401
 11
699.8633022002
 21
465.0094872322
  0
LINE
  5
307
100
AcDbEntity
  8
0
100
AcDbLine
 62
7
  6
CONTINUOUS
 10
706.238301485
 20
465.2648064401
 11
705.863301485
 21
465.0094872322
  0
LINE
  5
308
100
AcDbEntity
  8
0
100
AcDbLine
 62
7
  6
CONTINUOUS
 10
697.7383017234
 20
464.4988489504
 11
698.2383019618
 21
464.2435297984
  0
LINE
  5
309
100
AcDbEntity
  8
0
100
AcDbLine
 62
7
  6
CONTINUOUS
 10
706.4883019618
 20
469.7328915502
 11
705.9883024387
 21
469.9882106687
  0
LINE
  5
30A
100
AcDbEntity
  8
0
100
AcDbLine
 62
7
  6
CONTINUOUS
 10
694.8633019618
 20
467.9456573631
 11
694.6133018426
 21
467.6903382446
  0
LINE
  5
30B
100
AcDbEntity
  8
0
100
AcDbLine
 62
7
  6
CONTINUOUS
 10
698.3633022002
 20
465.0094872322
 11
697.9883022002
 21
465.2648064401
  0
LINE
  5
30C
100
AcDbEntity
  8
0
100
AcDbLine
 62
7
  6
CONTINUOUS
 10
705.863301485
 20
469.2222533132
 11
706.238301485
 21
468.9669341947
  0
LINE
  5
30D
100
AcDbEntity
  8
RUNDUNGEN
100
AcDbLine
 62
7
  6
CONTINUOUS
 10
593.1133019618
 20
467.615870228
 11
593.1133019618
 21
423.615870228
  0
LINE
  5
30E
100
AcDbEntity
  8
0
100
AcDbLine
 62
7
  6
CONTINUOUS
 10
700.4883019618
 20
464.4988489504
 11
700.9883022002
 21
465.0094872322
  0
LINE
  5
30F
100
AcDbEntity
  8
0
100
AcDbLine
 62
7
  6
CONTINUOUS
 10
706.4883019618
 20
464.4988489504
 11
706.988301485
 21
465.0094872322
  0
LINE
  5
310
100
AcDbEntity
  8
0
100
AcDbLine
 62
7
  6
CONTINUOUS
 10
695.2383019618
 20
469.605231991
 11
694.738302081
 21
469.9882106687
  0
LINE
  5
311
100
AcDbEntity
  8
0
100
AcDbLine
 62
7
  6
CONTINUOUS
 10
700.4883019618
 20
465.6477851178
 11
700.2383022002
 21
465.2648064401
  0
LINE
  5
312
100
AcDbEntity
  8
0
100
AcDbLine
 62
7
  6
CONTINUOUS
 10
695.2383019618
 20
467.3073595669
 11
695.6133019618
 21
467.8179978039
  0
LINE
  5
313
100
AcDbEntity
  8
0
100
AcDbLine
 62
7
  6
CONTINUOUS
 10
697.2383022002
 20
465.0094872322
 11
697.7383017234
 21
464.4988489504
  0
LINE
  5
314
100
AcDbEntity
  8
0
100
AcDbLine
 62
7
  6
CONTINUOUS
 10
694.6133018426
 20
469.3499128725
 11
694.8633019618
 21
469.094593754
  0
LINE
  5
315
100
AcDbEntity
  8
0
100
AcDbLine
 62
7
  6
CONTINUOUS
 10
706.988301485
 20
469.2222533132
 11
706.4883019618
 21
469.7328915502
  0
LINE
  5
316
100
AcDbEntity
  8
0
100
AcDbLine
 62
7
  6
CONTINUOUS
 10
700.9883022002
 20
465.0094872322
 11
701.2383019618
 21
465.5201255586
  0
LINE
  5
317
100
AcDbEntity
  8
0
100
AcDbLine
 62
7
  6
CONTINUOUS
 10
706.988301485
 20
465.0094872322
 11
707.2383019618
 21
465.5201255586
  0
LINE
  5
318
100
AcDbEntity
  8
0
100
AcDbLine
 62
7
  6
CONTINUOUS
 10
706.4883019618
 20
465.6477851178
 11
706.238301485
 21
465.2648064401
  0
LINE
  5
319
100
AcDbEntity
  8
0
100
AcDbLine
 62
7
  6
CONTINUOUS
 10
695.6133019618
 20
469.094593754
 11
695.2383019618
 21
469.605231991
  0
LINE
  5
31A
100
AcDbEntity
  8
0
100
AcDbLine
 62
7
  6
CONTINUOUS
 10
697.9883022002
 20
465.2648064401
 11
697.7383017234
 21
465.6477851178
  0
LINE
  5
31B
100
AcDbEntity
  8
0
100
AcDbLine
 62
7
  6
CONTINUOUS
 10
706.238301485
 20
468.9669341947
 11
706.4883019618
 21
468.5839551594
  0
LINE
  5
31C
100
AcDbEntity
  8
RUNDUNGEN
100
AcDbLine
 62
7
  6
CONTINUOUS
 10
680.1133019618
 20
473.115870228
 11
680.1133019618
 21
418.115870228
  0
LINE
  5
31D
100
AcDbEntity
  8
0
100
AcDbLine
 62
7
  6
CONTINUOUS
 10
691.1133019618
 20
470.115870228
 11
691.1133019618
 21
464.115870228
  0
LINE
  5
31E
100
AcDbEntity
  8
0
100
AcDbLine
 62
7
  6
CONTINUOUS
 10
691.8633019618
 20
464.115870228
 11
691.8633019618
 21
466.7967213299
  0
LINE
  5
31F
100
AcDbEntity
  8
0
100
AcDbLine
 62
7
  6
CONTINUOUS
 10
691.8633019618
 20
467.5626786854
 11
691.8633019618
 21
469.4775724317
  0
LINE
  5
320
100
AcDbEntity
  8
0
100
AcDbLine
 62
7
  6
CONTINUOUS
 10
701.2383019618
 20
465.5201255586
 11
701.3633022002
 21
466.1584233548
  0
LINE
  5
321
100
AcDbEntity
  8
0
100
AcDbLine
 62
7
  6
CONTINUOUS
 10
700.6133022002
 20
466.1584233548
 11
700.4883019618
 21
465.6477851178
  0
LINE
  5
322
100
AcDbEntity
  8
0
100
AcDbLine
 62
7
  6
CONTINUOUS
 10
706.613301485
 20
466.1584233548
 11
706.4883019618
 21
465.6477851178
  0
LINE
  5
323
100
AcDbEntity
  8
0
100
AcDbLine
 62
7
  6
CONTINUOUS
 10
694.9883018426
 20
468.3286360409
 11
694.8633019618
 21
467.9456573631
  0
LINE
  5
324
100
AcDbEntity
  8
0
100
AcDbLine
 62
7
  6
CONTINUOUS
 10
695.6133019618
 20
467.8179978039
 11
695.7383018426
 21
468.2009764816
  0
LINE
  5
325
100
AcDbEntity
  8
0
100
AcDbLine
 62
7
  6
CONTINUOUS
 10
696.988302081
 20
465.5201255586
 11
697.2383022002
 21
465.0094872322
  0
LINE
  5
326
100
AcDbEntity
  8
0
100
AcDbLine
 62
7
  6
CONTINUOUS
 10
707.2383019618
 20
468.7116150762
 11
706.988301485
 21
469.2222533132
  0
LINE
  5
327
100
AcDbEntity
  8
0
100
AcDbLine
 62
7
  6
CONTINUOUS
 10
695.863302081
 20
464.115870228
 11
694.738302081
 21
467.0520404484
  0
LINE
  5
328
100
AcDbEntity
  8
0
100
AcDbLine
 62
7
  6
CONTINUOUS
 10
693.9883019022
 20
466.7967213299
 11
694.9883018426
 21
464.115870228
  0
LINE
  5
329
100
AcDbEntity
  8
0
100
AcDbLine
 62
7
  6
CONTINUOUS
 10
694.8633019618
 20
469.094593754
 11
694.9883018426
 21
468.7116150762
  0
LINE
  5
32A
100
AcDbEntity
  8
0
100
AcDbLine
 62
7
  6
CONTINUOUS
 10
695.7383018426
 20
468.7116150762
 11
695.6133019618
 21
469.094593754
  0
LINE
  5
32B
100
AcDbEntity
  8
0
100
AcDbLine
 62
7
  6
CONTINUOUS
 10
694.9883018426
 20
468.7116150762
 11
694.9883018426
 21
468.3286360409
  0
LINE
  5
32C
100
AcDbEntity
  8
0
100
AcDbLine
 62
7
  6
CONTINUOUS
 10
695.7383018426
 20
468.2009764816
 11
695.7383018426
 21
468.7116150762
  0
LINE
  5
32D
100
AcDbEntity
  8
0
100
AcDbLine
 62
7
  6
CONTINUOUS
 10
696.8633018426
 20
470.115870228
 11
696.8633018426
 21
466.1584233548
  0
LINE
  5
32E
100
AcDbEntity
  8
0
100
AcDbLine
 62
7
  6
CONTINUOUS
 10
697.6133022002
 20
466.1584233548
 11
697.6133022002
 21
470.115870228
  0
LINE
  5
32F
100
AcDbEntity
  8
0
100
AcDbLine
 62
7
  6
CONTINUOUS
 10
700.6133022002
 20
470.115870228
 11
700.6133022002
 21
466.1584233548
  0
LINE
  5
330
100
AcDbEntity
  8
0
100
AcDbLine
 62
7
  6
CONTINUOUS
 10
701.3633022002
 20
466.1584233548
 11
701.3633022002
 21
470.115870228
  0
LINE
  5
331
100
AcDbEntity
  8
0
100
AcDbLine
 62
7
  6
CONTINUOUS
 10
702.3633019618
 20
470.115870228
 11
702.3633019618
 21
464.115870228
  0
LINE
  5
332
100
AcDbEntity
  8
0
100
AcDbLine
 62
7
  6
CONTINUOUS
 10
703.1133019618
 20
464.8818276729
 11
703.1133019618
 21
469.3499128725
  0
LINE
  5
333
100
AcDbEntity
  8
0
100
AcDbLine
 62
7
  6
CONTINUOUS
 10
706.613301485
 20
468.0733169224
 11
706.613301485
 21
466.1584233548
  0
LINE
  5
334
100
AcDbEntity
  8
0
100
AcDbLine
 62
7
  6
CONTINUOUS
 10
707.363301485
 20
466.1584233548
 11
707.363301485
 21
468.0733169224
  0
LINE
  5
335
100
AcDbEntity
  8
BEZUGSACHSEN
100
AcDbLine
 62
7
  6
CONTINUOUS
 10
715.8633019618
 20
437.865870228
 11
715.8633019618
 21
453.365870228
  0
LINE
  5
336
100
AcDbEntity
  8
0
100
AcDbLine
 62
7
  6
CONTINUOUS
 10
707.2383019618
 20
465.5201255586
 11
707.363301485
 21
466.1584233548
  0
LINE
  5
337
100
AcDbEntity
  8
0
100
AcDbLine
 62
7
  6
CONTINUOUS
 10
743.8453527694
 20
423.0440734583
 11
738.690652231
 21
414.115870228
  0
LINE
  5
338
100
AcDbEntity
  8
BEZUGSACHSEN
100
AcDbLine
 62
7
  6
CONTINUOUS
 10
738.690652231
 20
477.115870228
 11
743.8453527694
 21
468.1876669977
  0
LINE
  5
339
100
AcDbEntity
  8
0
100
AcDbLine
 62
7
  6
CONTINUOUS
 10
697.7383017234
 20
465.6477851178
 11
697.6133022002
 21
466.1584233548
  0
LINE
  5
33A
100
AcDbEntity
  8
0
100
AcDbLine
 62
7
  6
CONTINUOUS
 10
706.4883019618
 20
468.5839551594
 11
706.613301485
 21
468.0733169224
  0
LINE
  5
33B
100
AcDbEntity
  8
0
100
AcDbLine
 62
7
  6
CONTINUOUS
 10
696.8633018426
 20
466.1584233548
 11
696.988302081
 21
465.5201255586
  0
LINE
  5
33C
100
AcDbEntity
  8
0
100
AcDbLine
 62
7
  6
CONTINUOUS
 10
707.363301485
 20
468.0733169224
 11
707.2383019618
 21
468.7116150762
  0
LINE
  5
33D
100
AcDbEntity
  8
BEZUGSACHSEN
100
AcDbLine
 62
7
  6
CONTINUOUS
 10
732.8633019618
 20
437.865870228
 11
732.8633019618
 21
453.365870228
  0
LINE
  5
33E
100
AcDbEntity
  8
BEZUGSACHSEN
100
AcDbLine
 62
7
  6
CONTINUOUS
 10
744.1133019618
 20
467.1876669977
 11
744.1133019618
 21
463.2492902026
  0
LINE
  5
33F
100
AcDbEntity
  8
0
100
AcDbLine
 62
7
  6
CONTINUOUS
 10
744.1133019618
 20
427.9824502534
 11
744.1133019618
 21
424.0440734583
  0
LINE
  5
340
100
AcDbEntity
  8
0
100
AcDbLine
 62
7
  6
CONTINUOUS
 10
789.3789448077
 20
313.615870228
 11
808.5941099664
 21
313.615870228
  0
LINE
  5
341
100
AcDbEntity
  8
0
100
AcDbLine
 62
7
  6
CONTINUOUS
 10
778.9865273871
 20
319.615870228
 11
818.9865273871
 21
319.615870228
  0
LINE
  5
342
100
AcDbEntity
  8
0
100
AcDbLine
 62
7
  6
CONTINUOUS
 10
789.3788322325
 20
577.615870228
 11
778.9865273871
 21
571.615870228
  0
LINE
  5
343
100
AcDbEntity
  8
0
100
AcDbLine
 62
7
  6
CONTINUOUS
 10
778.9865273871
 20
319.615870228
 11
789.3788322325
 21
313.615870228
  0
LINE
  5
344
100
AcDbEntity
  8
0
100
AcDbLine
 62
7
  6
CONTINUOUS
 10
778.9865273871
 20
330.615870228
 11
818.9865273871
 21
330.615870228
  0
LINE
  5
345
100
AcDbEntity
  8
0
100
AcDbLine
 62
7
  6
CONTINUOUS
 10
787.6467814249
 20
345.615870228
 11
810.3262733492
 21
345.615870228
  0
LINE
  5
346
100
AcDbEntity
  8
0
100
AcDbLine
 62
7
  6
CONTINUOUS
 10
818.9865273871
 20
560.615870228
 11
810.3262733492
 21
545.615870228
  0
LINE
  5
347
100
AcDbEntity
  8
0
100
AcDbLine
 62
7
  6
CONTINUOUS
 10
810.3262733492
 20
345.615870228
 11
818.9865273871
 21
330.615870228
  0
LINE
  5
348
100
AcDbEntity
  8
BEZUGSACHSEN
100
AcDbLine
 62
7
  6
CONTINUOUS
 10
814.9865273871
 20
413.115870228
 11
782.9865273871
 21
413.115870228
  0
LINE
  5
349
100
AcDbEntity
  8
BEZUGSACHSEN
100
AcDbLine
 62
7
  6
CONTINUOUS
 10
779.9864659857
 20
430.9250235861
 11
779.9880312289
 21
430.7260729585
  0
LINE
  5
34A
100
AcDbEntity
  8
RUNDUNGEN
100
AcDbLine
 62
7
  6
CONTINUOUS
 10
779.9863825405
 20
461.141679884
 11
779.9883695076
 21
460.6616937825
  0
LINE
  5
34B
100
AcDbEntity
  8
0
100
AcDbLine
 62
7
  6
CONTINUOUS
 10
778.9865273871
 20
571.615870228
 11
778.9865273871
 21
560.615870228
  0
LINE
  5
34C
100
AcDbEntity
  8
0
100
AcDbLine
 62
7
  6
CONTINUOUS
 10
778.9865273871
 20
330.615870228
 11
778.9865273871
 21
319.615870228
  0
LINE
  5
34D
100
AcDbEntity
  8
RUNDUNGEN
100
AcDbLine
 62
7
  6
CONTINUOUS
 10
779.9865273871
 20
434.865870228
 11
779.9865273871
 21
431.115870228
  0
LINE
  5
34E
100
AcDbEntity
  8
BEZUGSACHSEN
100
AcDbLine
 62
7
  6
CONTINUOUS
 10
779.9865691124
 20
430.9248319505
 11
779.9865273871
 21
456.365870228
  0
LINE
  5
34F
100
AcDbEntity
  8
RUNDUNGEN
100
AcDbLine
 62
7
  6
CONTINUOUS
 10
779.9865273871
 20
460.3145450693
 11
779.9865273871
 21
461.0786219775
  0
LINE
  5
350
100
AcDbEntity
  8
RUNDUNGEN
100
AcDbLine
 62
7
  6
CONTINUOUS
 10
779.9865273871
 20
461.1414146501
 11
779.9865273871
 21
475.115870228
  0
LINE
  5
351
100
AcDbEntity
  8
BEZUGSACHSEN
100
AcDbLine
 62
7
  6
CONTINUOUS
 10
779.9865273871
 20
430.9171953866
 11
779.9865273871
 21
416.115870228
  0
LINE
  5
352
100
AcDbEntity
  8
RUNDUNGEN
100
AcDbLine
 62
7
  6
CONTINUOUS
 10
779.9865691124
 20
460.3069085055
 11
779.9865273871
 21
456.3658695026
  0
LINE
  5
353
100
AcDbEntity
  8
BEZUGSACHSEN
100
AcDbLine
 62
7
  6
CONTINUOUS
 10
779.9877959554
 20
430.3955122259
 11
779.9866399642
 21
430.2021281255
  0
LINE
  5
354
100
AcDbEntity
  8
RUNDUNGEN
100
AcDbLine
 62
7
  6
CONTINUOUS
 10
779.9880312289
 20
460.5056674975
 11
779.9864659857
 21
460.3067168699
  0
LINE
  5
355
100
AcDbEntity
  8
0
100
AcDbLine
 62
7
  6
CONTINUOUS
 10
788.9865273871
 20
545.615870228
 11
788.9865273871
 21
478.115870228
  0
LINE
  5
356
100
AcDbEntity
  8
0
100
AcDbLine
 62
7
  6
CONTINUOUS
 10
788.9865273871
 20
413.115870228
 11
788.9865273871
 21
345.615870228
  0
LINE
  5
357
100
AcDbEntity
  8
BEZUGSACHSEN
100
AcDbLine
 62
7
  6
CONTINUOUS
 10
790.4865273871
 20
453.365870228
 11
790.4865273871
 21
437.865870228
  0
LINE
  5
358
100
AcDbEntity
  8
BEZUGSACHSEN
100
AcDbLine
 62
7
  6
CONTINUOUS
 10
782.9865252145
 20
437.865870228
 11
814.9865282372
 21
437.865870228
  0
LINE
  5
359
100
AcDbEntity
  8
BEZUGSACHSEN
100
AcDbLine
 62
7
  6
CONTINUOUS
 10
807.4865273871
 20
453.365870228
 11
807.4865273871
 21
437.865870228
  0
LINE
  5
35A
100
AcDbEntity
  8
0
100
AcDbLine
 62
7
  6
CONTINUOUS
 10
808.9865273871
 20
545.615870228
 11
808.9865273871
 21
478.115870228
  0
LINE
  5
35B
100
AcDbEntity
  8
0
100
AcDbLine
 62
7
  6
CONTINUOUS
 10
808.9865273871
 20
413.115870228
 11
808.9865273871
 21
345.615870228
  0
LINE
  5
35C
100
AcDbEntity
  8
RUNDUNGEN
100
AcDbLine
 62
7
  6
CONTINUOUS
 10
782.9865270463
 20
453.365870228
 11
814.9865275317
 21
453.365870228
  0
LINE
  5
35D
100
AcDbEntity
  8
RUNDUNGEN
100
AcDbLine
 62
7
  6
CONTINUOUS
 10
817.9865273871
 20
430.615870228
 11
817.9865273871
 21
434.8658689782
  0
LINE
  5
35E
100
AcDbEntity
  8
BEZUGSACHSEN
100
AcDbLine
 62
7
  6
CONTINUOUS
 10
817.9865273871
 20
416.115870228
 11
817.9865273871
 21
456.365870228
  0
LINE
  5
35F
100
AcDbEntity
  8
RUNDUNGEN
100
AcDbLine
 62
7
  6
CONTINUOUS
 10
817.9865273871
 20
456.3658714778
 11
817.9865273871
 21
475.115870228
  0
LINE
  5
360
100
AcDbEntity
  8
0
100
AcDbLine
 62
7
  6
CONTINUOUS
 10
818.9865273871
 20
571.615870228
 11
818.9865273871
 21
560.615870228
  0
LINE
  5
361
100
AcDbEntity
  8
0
100
AcDbLine
 62
7
  6
CONTINUOUS
 10
818.9865273871
 20
330.615870228
 11
818.9865273871
 21
319.615870228
  0
LINE
  5
362
100
AcDbEntity
  8
RUNDUNGEN
100
AcDbLine
 62
7
  6
CONTINUOUS
 10
814.9865273871
 20
478.115870228
 11
782.9865273871
 21
478.115870228
  0
LINE
  5
363
100
AcDbEntity
  8
0
100
AcDbLine
 62
7
  6
CONTINUOUS
 10
787.6467814249
 20
345.615870228
 11
778.9865273871
 21
330.615870228
  0
LINE
  5
364
100
AcDbEntity
  8
0
100
AcDbLine
 62
7
  6
CONTINUOUS
 10
778.9865273871
 20
560.615870228
 11
787.6467814249
 21
545.615870228
  0
LINE
  5
365
100
AcDbEntity
  8
0
100
AcDbLine
 62
7
  6
CONTINUOUS
 10
787.6467814249
 20
545.615870228
 11
810.3262733492
 21
545.615870228
  0
LINE
  5
366
100
AcDbEntity
  8
0
100
AcDbLine
 62
7
  6
CONTINUOUS
 10
778.9865273871
 20
560.615870228
 11
818.9865273871
 21
560.615870228
  0
LINE
  5
367
100
AcDbEntity
  8
0
100
AcDbLine
 62
7
  6
CONTINUOUS
 10
818.9865273871
 20
319.615870228
 11
808.5942225416
 21
313.615870228
  0
LINE
  5
368
100
AcDbEntity
  8
0
100
AcDbLine
 62
7
  6
CONTINUOUS
 10
778.9865273871
 20
571.615870228
 11
818.9865273871
 21
571.615870228
  0
LINE
  5
369
100
AcDbEntity
  8
0
100
AcDbLine
 62
7
  6
CONTINUOUS
 10
789.3789448077
 20
577.615870228
 11
808.5941099664
 21
577.615870228
  0
LINE
  5
36A
100
AcDbEntity
  8
0
100
AcDbLine
 62
7
  6
CONTINUOUS
 10
808.5942225416
 20
577.615870228
 11
818.9865273871
 21
571.615870228
  0
LINE
  5
36B
100
AcDbEntity
  8
RUNDUNGEN
100
AcDbLine
 62
7
  6
CONTINUOUS
 10
78.1133019618
 20
163.2496702535
 11
78.1133019618
 21
195.2496702535
  0
LINE
  5
36C
100
AcDbEntity
  8
RUNDUNGEN
100
AcDbLine
 62
7
  6
CONTINUOUS
 10
123.1133019618
 20
207.2496702535
 11
123.1133019618
 21
151.2496702535
  0
LINE
  5
36D
100
AcDbEntity
  8
RUNDUNGEN
100
AcDbLine
 62
7
  6
CONTINUOUS
 10
129.1133019618
 20
208.7496702535
 11
129.1133019618
 21
149.7496702535
  0
LINE
  5
36E
100
AcDbEntity
  8
RUNDUNGEN
100
AcDbLine
 62
7
  6
CONTINUOUS
 10
25.5375697614
 20
197.7143351277
 11
19.8562508764
 21
192.4316541212
  0
LINE
  5
36F
100
AcDbEntity
  8
RUNDUNGEN
100
AcDbLine
 62
7
  6
CONTINUOUS
 10
19.8562508764
 20
166.0676863857
 11
25.5375697614
 21
160.7850053793
  0
LINE
  5
370
100
AcDbEntity
  8
RUNDUNGEN
100
AcDbLine
 62
7
  6
CONTINUOUS
 10
167.1133019618
 20
207.2495799052
 11
167.1133019618
 21
151.2497606017
  0
LINE
  5
371
100
AcDbEntity
  8
RUNDUNGEN
100
AcDbLine
 62
7
  6
CONTINUOUS
 10
204.1133019618
 20
160.8994201762
 11
204.1133019618
 21
160.9138876409
  0
LWPOLYLINE
  5
372
100
AcDbEntity
  8
RUNDUNGEN
100
AcDbPolyline
 62
7
  6
CONTINUOUS
 90
3
 70
0
 10
204.0928867133
 20
160.5526121206
 10
204.1126009851
 20
160.8362250744
 10
204.1132828332
 20
160.8993804644
  0
LINE
  5
373
100
AcDbEntity
  8
0
100
AcDbLine
 62
7
  6
CONTINUOUS
 10
213.1133019618
 20
201.7496039319
 11
213.1133019618
 21
199.2496702535
  0
LWPOLYLINE
  5
374
100
AcDbEntity
  8
RUNDUNGEN
100
AcDbPolyline
 62
7
  6
CONTINUOUS
 90
13
 70
0
 10
204.0804077186
 20
160.8350084792
 10
204.0816136354
 20
160.8384654364
 10
204.0936359543
 20
160.8694017324
 10
204.1187630183
 20
160.9262409391
 10
204.1588624192
 20
161.0074218056
 10
204.2153957509
 20
161.1113738877
 10
204.289775502
 20
161.2370478077
 10
204.3816752754
 20
161.3811064038
 10
204.4909910472
 20
161.5413300832
 10
204.6146294725
 20
161.711906887
 10
204.7481451181
 20
161.8864098187
 10
204.8894705568
 20
162.0623531182
 10
205.0344919349
 20
162.2350963066
  0
LINE
  5
375
100
AcDbEntity
  8
0
100
AcDbLine
 62
7
  6
CONTINUOUS
 10
243.8233019618
 20
199.2496702535
 11
243.8233019618
 21
200.2496702535
  0
LINE
  5
376
100
AcDbEntity
  8
0
100
AcDbLine
 62
7
  6
CONTINUOUS
 10
248.3433019618
 20
199.2496702535
 11
248.3433019618
 21
200.2496702535
  0
LINE
  5
377
100
AcDbEntity
  8
0
100
AcDbLine
 62
7
  6
CONTINUOUS
 10
252.8633019618
 20
199.2496702535
 11
252.8633019618
 21
200.2496702535
  0
LWPOLYLINE
  5
378
100
AcDbEntity
  8
RUNDUNGEN
100
AcDbPolyline
 62
7
  6
CONTINUOUS
 90
3
 70
0
 10
204.1835012099
 20
161.0538892432
 10
204.2515281399
 20
161.1736745615
 10
204.3396300808
 20
161.3164581711
  0
LWPOLYLINE
  5
379
100
AcDbEntity
  8
RUNDUNGEN
100
AcDbPolyline
 62
7
  6
CONTINUOUS
 90
6
 70
0
 10
204.3396300808
 20
161.3164581711
 10
204.446495725
 20
161.4773392825
 10
204.5707079688
 20
161.6524150089
 10
204.7084069263
 20
161.8353914129
 10
204.8535160162
 20
162.0183569099
 10
205.0051986713
 20
162.2007804402
  0
LINE
  5
37A
100
AcDbEntity
  8
RUNDUNGEN
100
AcDbLine
 62
7
  6
CONTINUOUS
 10
205.0051986713
 20
162.2007804402
 11
205.1835952789
 21
162.4056304674
  0
LINE
  5
37B
100
AcDbEntity
  8
RUNDUNGEN
100
AcDbLine
 62
7
  6
CONTINUOUS
 10
205.1606197243
 20
162.3797796738
 11
205.3363242116
 21
162.573770871
  0
LINE
  5
37C
100
AcDbEntity
  8
RUNDUNGEN
100
AcDbLine
 62
7
  6
CONTINUOUS
 10
205.3201523063
 20
162.5562590249
 11
205.4928715357
 21
162.7399426861
  0
LINE
  5
37D
100
AcDbEntity
  8
RUNDUNGEN
100
AcDbLine
 62
7
  6
CONTINUOUS
 10
205.4838796484
 20
162.7305601102
 11
205.6520173883
 21
162.9029997169
  0
LINE
  5
37E
100
AcDbEntity
  8
RUNDUNGEN
100
AcDbLine
 62
7
  6
CONTINUOUS
 10
205.6538647056
 20
162.9048588995
 11
205.8254632323
 21
163.0744339126
  0
LINE
  5
37F
100
AcDbEntity
  8
RUNDUNGEN
100
AcDbLine
 62
7
  6
CONTINUOUS
 10
205.8191313568
 20
163.0682877056
 11
206.0036660102
 21
163.2441638126
  0
LINE
  5
380
100
AcDbEntity
  8
RUNDUNGEN
100
AcDbLine
 62
7
  6
CONTINUOUS
 10
205.9890655053
 20
163.2304951802
 11
206.1865873191
 21
163.4119624236
  0
LINE
  5
381
100
AcDbEntity
  8
RUNDUNGEN
100
AcDbLine
 62
7
  6
CONTINUOUS
 10
206.1632602308
 20
163.3909163729
 11
206.373964294
 21
163.5773418356
  0
LWPOLYLINE
  5
382
100
AcDbEntity
  8
RUNDUNGEN
100
AcDbPolyline
 62
7
  6
CONTINUOUS
 90
18
 70
0
 10
206.3415479675
 20
163.5491922485
 10
206.565632755
 20
163.7398700027
 10
206.7614230177
 20
163.8990677982
 10
206.9611734929
 20
164.0544299253
 10
207.1645445425
 20
164.205284597
 10
207.3712072781
 20
164.3509197417
 10
207.5808636912
 20
164.4906102915
 10
207.7927503373
 20
164.6233816817
 10
208.0070022908
 20
164.7487456554
 10
208.2231655977
 20
164.8657468717
 10
208.4415975598
 20
164.9739459157
 10
208.661901664
 20
165.0722689233
 10
208.8847049628
 20
165.1599669257
 10
209.1106291609
 20
165.2361604866
 10
209.3374305209
 20
165.2987563249
 10
209.5653224609
 20
165.3467429086
 10
209.7899073239
 20
165.3784802395
 10
210.0085362269
 20
165.3938447852
  0
LWPOLYLINE
  5
383
100
AcDbEntity
  8
RUNDUNGEN
100
AcDbPolyline
 62
7
  6
CONTINUOUS
 90
17
 70
0
 10
206.523749923
 20
163.7049209868
 10
206.7097195295
 20
163.8576966807
 10
206.8993037789
 20
164.00707128
 10
207.0923213503
 20
164.1525572935
 10
207.2884364879
 20
164.2935245681
 10
207.4873003472
 20
164.4292906167
 10
207.6886710628
 20
164.5592329459
 10
207.8917864387
 20
164.6824543637
 10
208.0969883184
 20
164.798639853
 10
208.304120132
 20
164.9070495086
 10
208.5133146664
 20
165.0071656275
 10
208.7240559337
 20
165.0979585474
 10
208.9370651058
 20
165.1787973521
 10
209.1532875383
 20
165.2490193166
 10
209.3700444854
 20
165.30657018
 10
209.5870812483
 20
165.3504966748
 10
209.8008951036
 20
165.3796336509
  0
LINE
  5
384
100
AcDbEntity
  8
RUNDUNGEN
100
AcDbLine
 62
7
  6
CONTINUOUS
 10
187.6902681678
 20
154.1186148236
 11
190.2779148634
 21
156.0110772363
  0
LINE
  5
385
100
AcDbEntity
  8
RUNDUNGEN
100
AcDbLine
 62
7
  6
CONTINUOUS
 10
184.7221841405
 20
151.9622108043
 11
187.6902681678
 21
154.1186148236
  0
LWPOLYLINE
  5
386
100
AcDbEntity
  8
RUNDUNGEN
100
AcDbPolyline
 62
7
  6
CONTINUOUS
 90
3
 70
0
 10
190.2779170367
 20
156.0110742752
 10
190.5763554283
 20
156.2219657118
 10
191.0374815789
 20
156.5175465239
  0
LINE
  5
387
100
AcDbEntity
  8
RUNDUNGEN
100
AcDbLine
 62
7
  6
CONTINUOUS
 10
184.3312857346
 20
151.6930616636
 11
184.7221811147
 21
151.9622149816
  0
LINE
  5
388
100
AcDbEntity
  8
RUNDUNGEN
100
AcDbLine
 62
7
  6
CONTINUOUS
 10
183.7685686311
 20
151.3511690361
 11
184.3452820336
 21
151.7022314091
  0
LINE
  5
389
100
AcDbEntity
  8
RUNDUNGEN
100
AcDbLine
 62
7
  6
CONTINUOUS
 10
191.0374815789
 20
156.5175465239
 11
191.5244656141
 21
156.7929649388
  0
LINE
  5
38A
100
AcDbEntity
  8
0
100
AcDbLine
 62
7
  6
CONTINUOUS
 10
184.6960784365
 20
207.4411906963
 11
190.2416355377
 21
203.5581498106
  0
LINE
  5
38B
100
AcDbEntity
  8
RUNDUNGEN
100
AcDbLine
 62
7
  6
CONTINUOUS
 10
183.1855218506
 20
151.0480532261
 11
183.7831883415
 21
151.3594151996
  0
LINE
  5
38C
100
AcDbEntity
  8
RUNDUNGEN
100
AcDbLine
 62
7
  6
CONTINUOUS
 10
191.5105410984
 20
156.785585749
 11
192.0081950964
 21
157.0321436273
  0
LINE
  5
38D
100
AcDbEntity
  8
RUNDUNGEN
100
AcDbLine
 62
7
  6
CONTINUOUS
 10
171.5304481642
 20
149.7185493969
 11
171.5208258758
 21
149.7142860262
  0
LINE
  5
38E
100
AcDbEntity
  8
RUNDUNGEN
100
AcDbLine
 62
7
  6
CONTINUOUS
 10
182.5846567429
 20
150.7848740932
 11
183.2006942125
 21
151.0553259826
  0
LINE
  5
38F
100
AcDbEntity
  8
RUNDUNGEN
100
AcDbLine
 62
7
  6
CONTINUOUS
 10
191.9939463273
 20
157.0255663543
 11
192.4950305709
 21
157.2404387708
  0
LWPOLYLINE
  5
390
100
AcDbEntity
  8
RUNDUNGEN
100
AcDbPolyline
 62
7
  6
CONTINUOUS
 90
9
 70
0
 10
171.5197074246
 20
149.7137930741
 10
171.5305257453
 20
149.7178831258
 10
171.5530251823
 20
149.7258348179
 10
171.586554426
 20
149.736910853
 10
171.6300104377
 20
149.7503552919
 10
171.6831789063
 20
149.7657926615
 10
171.7454289071
 20
149.7827809689
 10
171.816493917
 20
149.8010222555
 10
171.895860029
 20
149.8201801968
  0
LINE
  5
391
100
AcDbEntity
  8
0
100
AcDbLine
 62
7
  6
CONTINUOUS
 10
345.1133019618
 20
201.7496039319
 11
345.1133019618
 21
199.2496702535
  0
LINE
  5
392
100
AcDbEntity
  8
RUNDUNGEN
100
AcDbLine
 62
7
  6
CONTINUOUS
 10
192.4862233916
 20
157.2371275492
 11
192.8256182778
 21
157.3647293187
  0
LINE
  5
393
100
AcDbEntity
  8
0
100
AcDbLine
 62
7
  6
CONTINUOUS
 10
351.4245877746
 20
202.0512071495
 11
353.8888722776
 21
202.9481333574
  0
LINE
  5
394
100
AcDbEntity
  8
RUNDUNGEN
100
AcDbLine
 62
7
  6
CONTINUOUS
 10
181.9684969752
 20
150.5626608681
 11
182.6003081314
 21
150.791131483
  0
LWPOLYLINE
  5
395
100
AcDbEntity
  8
RUNDUNGEN
100
AcDbPolyline
 62
7
  6
CONTINUOUS
 90
4
 70
0
 10
192.8256146864
 20
157.3647394444
 10
193.1943814267
 20
157.4866723397
 10
193.7557526628
 20
157.6396752745
 10
194.3339055891
 20
157.7586640616
  0
LINE
  5
396
100
AcDbEntity
  8
RUNDUNGEN
100
AcDbLine
 62
7
  6
CONTINUOUS
 10
181.3399176381
 20
150.3822940461
 11
181.9845446536
 21
150.5678658064
  0
LINE
  5
397
100
AcDbEntity
  8
RUNDUNGEN
100
AcDbLine
 62
7
  6
CONTINUOUS
 10
403.3933929899
 20
162.9561215484
 11
403.7330856867
 21
163.0321799666
  0
LINE
  5
398
100
AcDbEntity
  8
RUNDUNGEN
100
AcDbLine
 62
7
  6
CONTINUOUS
 10
173.981582433
 20
150.0777946239
 11
174.1875976679
 21
150.0841391532
  0
LINE
  5
399
100
AcDbEntity
  8
RUNDUNGEN
100
AcDbLine
 62
7
  6
CONTINUOUS
 10
178.9603140728
 20
150.0879373932
 11
179.4246349089
 21
150.0990017771
  0
LINE
  5
39A
100
AcDbEntity
  8
RUNDUNGEN
100
AcDbLine
 62
7
  6
CONTINUOUS
 10
174.1686532846
 20
150.0836840337
 11
174.3787377231
 21
150.0872850041
  0
LINE
  5
39B
100
AcDbEntity
  8
RUNDUNGEN
100
AcDbLine
 62
7
  6
CONTINUOUS
 10
174.3590469525
 20
150.0870820209
 11
174.5133019618
 21
150.0879348303
  0
LINE
  5
39C
100
AcDbEntity
  8
0
100
AcDbLine
 62
7
  6
CONTINUOUS
 10
125.1133019618
 20
149.2496702535
 11
128.6133019618
 21
149.2496702535
  0
LINE
  5
39D
100
AcDbEntity
  8
0
100
AcDbLine
 62
7
  6
CONTINUOUS
 10
169.1133019618
 20
149.2496702535
 11
170.5133019618
 21
149.2496702535
  0
LINE
  5
39E
100
AcDbEntity
  8
RUNDUNGEN
100
AcDbLine
 62
7
  6
CONTINUOUS
 10
174.5133019618
 20
150.0879324593
 11
178.9603140742
 21
150.0879324593
  0
LINE
  5
39F
100
AcDbEntity
  8
0
100
AcDbLine
 62
7
  6
CONTINUOUS
 10
591.1133019618
 20
155.2496702535
 11
568.0586790418
 21
155.2496702535
  0
LINE
  5
3A0
100
AcDbEntity
  8
0
100
AcDbLine
 62
7
  6
CONTINUOUS
 10
391.1133019618
 20
155.2496702535
 11
367.1133019618
 21
155.2496702535
  0
LINE
  5
3A1
100
AcDbEntity
  8
0
100
AcDbLine
 62
7
  6
CONTINUOUS
 10
557.1133019618
 20
156.7496702535
 11
562.2492040225
 21
156.7496702535
  0
LINE
  5
3A2
100
AcDbEntity
  8
RUNDUNGEN
100
AcDbLine
 62
7
  6
CONTINUOUS
 10
195.9773999012
 20
157.8994202535
 11
201.1133019388
 21
157.8994202535
  0
LWPOLYLINE
  5
3A3
100
AcDbEntity
  8
RUNDUNGEN
100
AcDbPolyline
 62
7
  6
CONTINUOUS
 90
9
 70
0
 10
353.4157841444
 20
163.4788575179
 10
353.55277128
 20
163.4029311381
 10
353.8596465488
 20
163.2542148732
 10
354.1735470567
 20
163.1306587641
 10
354.4931531917
 20
163.032279548
 10
354.8163216331
 20
162.9592270507
 10
355.1413807724
 20
162.9116990245
 10
355.4671385784
 20
162.8892082851
 10
355.598973035
 20
162.8871224306
  0
LINE
  5
3A4
100
AcDbEntity
  8
RUNDUNGEN
100
AcDbLine
 62
7
  6
CONTINUOUS
 10
353.0383615115
 20
163.6976458822
 11
353.4157727488
 21
163.4788377711
  0
LINE
  5
3A5
100
AcDbEntity
  8
RUNDUNGEN
100
AcDbLine
 62
7
  6
CONTINUOUS
 10
352.5287337453
 20
163.9966323342
 11
353.0464412758
 21
163.6929615544
  0
LINE
  5
3A6
100
AcDbEntity
  8
RUNDUNGEN
100
AcDbLine
 62
7
  6
CONTINUOUS
 10
352.0403409853
 20
164.2871914625
 11
352.5356156205
 21
163.9925949022
  0
LINE
  5
3A7
100
AcDbEntity
  8
RUNDUNGEN
100
AcDbLine
 62
7
  6
CONTINUOUS
 10
351.5730677372
 20
164.5691314695
 11
352.0471980017
 21
164.2831120229
  0
LINE
  5
3A8
100
AcDbEntity
  8
RUNDUNGEN
100
AcDbLine
 62
7
  6
CONTINUOUS
 10
351.1267935435
 20
164.8422409486
 11
351.5799069222
 21
164.5650048907
  0
LINE
  5
3A9
100
AcDbEntity
  8
RUNDUNGEN
100
AcDbLine
 62
7
  6
CONTINUOUS
 10
350.8667074576
 20
165.0032389444
 11
351.1320423151
 21
164.8390288218
  0
LINE
  5
3AA
100
AcDbEntity
  8
RUNDUNGEN
100
AcDbLine
 62
7
  6
CONTINUOUS
 10
364.1133019618
 20
159.2071298376
 11
364.1133019618
 21
158.2496702535
  0
LINE
  5
3AB
100
AcDbEntity
  8
RUNDUNGEN
100
AcDbLine
 62
7
  6
CONTINUOUS
 10
398.8917898704
 20
162.7215695016
 11
399.1790798571
 21
162.7895193379
  0
LINE
  5
3AC
100
AcDbEntity
  8
RUNDUNGEN
100
AcDbLine
 62
7
  6
CONTINUOUS
 10
399.16841109
 20
162.7873011048
 11
399.4559780516
 21
162.8384994079
  0
LINE
  5
3AD
100
AcDbEntity
  8
RUNDUNGEN
100
AcDbLine
 62
7
  6
CONTINUOUS
 10
180.0568906007
 20
150.1497213188
 11
180.7183973373
 21
150.2475305023
  0
LINE
  5
3AE
100
AcDbEntity
  8
RUNDUNGEN
100
AcDbLine
 62
7
  6
CONTINUOUS
 10
172.5389126723
 20
149.9427087643
 11
172.684098462
 21
149.9641330242
  0
LINE
  5
3AF
100
AcDbEntity
  8
RUNDUNGEN
100
AcDbLine
 62
7
  6
CONTINUOUS
 10
403.0680451067
 20
162.9098971056
 11
403.4099347718
 21
162.9591613897
  0
LINE
  5
3B0
100
AcDbEntity
  8
RUNDUNGEN
100
AcDbLine
 62
7
  6
CONTINUOUS
 10
172.6727693228
 20
149.9625322377
 11
172.8261923759
 21
149.9832286266
  0
LINE
  5
3B1
100
AcDbEntity
  8
RUNDUNGEN
100
AcDbLine
 62
7
  6
CONTINUOUS
 10
172.8140204996
 20
149.9816628434
 11
172.9753918069
 21
150.0013913682
  0
LINE
  5
3B2
100
AcDbEntity
  8
RUNDUNGEN
100
AcDbLine
 62
7
  6
CONTINUOUS
 10
399.4450412755
 20
162.836885906
 11
399.7282836033
 21
162.8703287622
  0
LINE
  5
3B3
100
AcDbEntity
  8
RUNDUNGEN
100
AcDbLine
 62
7
  6
CONTINUOUS
 10
172.9623643086
 20
149.9998804345
 11
173.1313564824
 21
150.0183897653
  0
LINE
  5
3B4
100
AcDbEntity
  8
RUNDUNGEN
100
AcDbLine
 62
7
  6
CONTINUOUS
 10
173.1174626025
 20
150.0169562728
 11
173.2937902989
 21
150.0340031111
  0
LINE
  5
3B5
100
AcDbEntity
  8
RUNDUNGEN
100
AcDbLine
 62
7
  6
CONTINUOUS
 10
173.279025975
 20
150.0326700657
 11
173.4623236982
 21
150.048028505
  0
LINE
  5
3B6
100
AcDbEntity
  8
RUNDUNGEN
100
AcDbLine
 62
7
  6
CONTINUOUS
 10
179.4078683368
 20
150.0982176507
 11
180.0736064688
 21
150.1516250312
  0
LWPOLYLINE
  5
3B7
100
AcDbEntity
  8
RUNDUNGEN
100
AcDbPolyline
 62
7
  6
CONTINUOUS
 90
3
 70
0
 10
194.9268946803
 20
157.8423105984
 10
195.5325376262
 20
157.8892193344
 10
195.9773999012
 20
157.8994200013
  0
LINE
  5
3B8
100
AcDbEntity
  8
RUNDUNGEN
100
AcDbLine
 62
7
  6
CONTINUOUS
 10
195.5416346605
 20
157.8894279289
 11
195.5482144372
 21
157.8899267532
  0
LINE
  5
3B9
100
AcDbEntity
  8
RUNDUNGEN
100
AcDbLine
 62
7
  6
CONTINUOUS
 10
173.4466915318
 20
150.046818913
 11
173.6365086305
 21
150.0602533837
  0
LINE
  5
3BA
100
AcDbEntity
  8
RUNDUNGEN
100
AcDbLine
 62
7
  6
CONTINUOUS
 10
402.7422153108
 20
162.8887026557
 11
403.0849361461
 21
162.9116725276
  0
LWPOLYLINE
  5
3BB
100
AcDbEntity
  8
RUNDUNGEN
100
AcDbPolyline
 62
7
  6
CONTINUOUS
 90
16
 70
0
 10
201.1617142102
 20
157.8998369685
 10
201.4461771074
 20
157.9181012827
 10
201.7280660606
 20
157.9636026151
 10
202.0048918062
 20
158.0360363324
 10
202.2743156818
 20
158.1349760152
 10
202.533532851
 20
158.2594967255
 10
202.7800663475
 20
158.4085324868
 10
203.0114919841
 20
158.580651769
 10
203.2257392601
 20
158.7743946822
 10
203.4206062652
 20
158.9878000933
 10
203.5942597566
 20
159.2189107731
 10
203.7449405635
 20
159.4653556983
 10
203.8711691615
 20
159.7246629441
 10
203.9717909739
 20
159.9941791014
 10
204.045845931
 20
160.2709796488
 10
204.0928867133
 20
160.5526121206
  0
LINE
  5
3BC
100
AcDbEntity
  8
RUNDUNGEN
100
AcDbLine
 62
7
  6
CONTINUOUS
 10
399.7171998504
 20
162.869345441
 11
399.9882141196
 21
162.8851769583
  0
LINE
  5
3BD
100
AcDbEntity
  8
RUNDUNGEN
100
AcDbLine
 62
7
  6
CONTINUOUS
 10
173.6200171789
 20
150.0591941691
 11
173.8158381903
 21
150.0704606484
  0
LINE
  5
3BE
100
AcDbEntity
  8
RUNDUNGEN
100
AcDbLine
 62
7
  6
CONTINUOUS
 10
173.798501799
 20
150.0695778685
 11
173.999739411
 21
150.0784772247
  0
LINE
  5
3BF
100
AcDbEntity
  8
RUNDUNGEN
100
AcDbLine
 62
7
  6
CONTINUOUS
 10
210.009346389
 20
165.3938610052
 11
210.1133019602
 21
165.3956600011
  0
LINE
  5
3C0
100
AcDbEntity
  8
RUNDUNGEN
100
AcDbLine
 62
7
  6
CONTINUOUS
 10
402.6276308903
 20
162.8871180154
 11
402.7592965755
 21
162.8892003867
  0
LINE
  5
3C1
100
AcDbEntity
  8
RUNDUNGEN
100
AcDbLine
 62
7
  6
CONTINUOUS
 10
399.9805622283
 20
162.8850623526
 11
400.1133019632
 21
162.8870504538
  0
LWPOLYLINE
  5
3C2
100
AcDbEntity
  8
RUNDUNGEN
100
AcDbPolyline
 62
7
  6
CONTINUOUS
 90
18
 70
0
 10
201.1133019598
 20
157.8994386438
 10
201.1814862547
 20
157.9002256397
 10
201.4660793426
 20
157.9204068864
 10
201.7478757493
 20
157.9678537627
 10
202.0243935853
 20
158.0422248576
 10
202.2932868563
 20
158.1430718126
 10
202.551759731
 20
158.2694351838
 10
202.797345106
 20
158.4202297876
 10
203.0276366697
 20
158.593997773
 10
203.2405746883
 20
158.7892617744
 10
203.4339747825
 20
159.0040395134
 10
203.6060174497
 20
159.2363536488
 10
203.7549636497
 20
159.4838170223
 10
203.8793555815
 20
159.7439340904
 10
203.9780611683
 20
160.014037355
 10
204.0501526622
 20
160.2911832317
 10
204.0952106677
 20
160.5729276905
 10
204.1115033062
 20
160.8330609034
  0
LINE
  5
3C3
100
AcDbEntity
  8
BEZUGSACHSEN
100
AcDbLine
 62
7
  6
CONTINUOUS
 10
731.3271395972
 20
160.2496702535
 11
687.1133019618
 21
160.2496702535
  0
LINE
  5
3C4
100
AcDbEntity
  8
RUNDUNGEN
100
AcDbLine
 62
7
  6
CONTINUOUS
 10
26.8994643264
 20
160.2496702535
 11
75.1133019618
 21
160.2496702535
  0
LINE
  5
3C5
100
AcDbEntity
  8
RUNDUNGEN
100
AcDbLine
 62
7
  6
CONTINUOUS
 10
683.1133019618
 20
160.2496702535
 11
687.1133019618
 21
160.2496702535
  0
LINE
  5
3C6
100
AcDbEntity
  8
RUNDUNGEN
100
AcDbLine
 62
7
  6
CONTINUOUS
 10
355.5989729942
 20
162.8870357827
 11
358.1133016967
 21
162.8870357827
  0
LINE
  5
3C7
100
AcDbEntity
  8
RUNDUNGEN
100
AcDbLine
 62
7
  6
CONTINUOUS
 10
400.1133019618
 20
162.8870357827
 11
402.6276268829
 21
162.8870357827
  0
LINE
  5
3C8
100
AcDbEntity
  8
RUNDUNGEN
100
AcDbLine
 62
7
  6
CONTINUOUS
 10
210.1133019618
 20
165.3956387444
 11
349.714483667
 21
165.3956387444
  0
LINE
  5
3C9
100
AcDbEntity
  8
RUNDUNGEN
100
AcDbLine
 62
7
  6
CONTINUOUS
 10
408.5121168657
 20
165.3956387444
 11
548.113290991
 21
165.3956387444
  0
LINE
  5
3CA
100
AcDbEntity
  8
0
100
AcDbLine
 62
7
  6
CONTINUOUS
 10
167.1133019618
 20
167.2496702535
 11
129.1133019618
 21
167.2496702535
  0
LINE
  5
3CB
100
AcDbEntity
  8
0
100
AcDbLine
 62
7
  6
CONTINUOUS
 10
123.1133019618
 20
167.2496702535
 11
81.1133019618
 21
167.2496702535
  0
LINE
  5
3CC
100
AcDbEntity
  8
0
100
AcDbLine
 62
7
  6
CONTINUOUS
 10
593.1133019618
 20
167.2496702535
 11
677.1133019618
 21
167.2496702535
  0
LWPOLYLINE
  5
3CD
100
AcDbEntity
  8
RUNDUNGEN
100
AcDbPolyline
 62
7
  6
CONTINUOUS
 90
32
 70
0
 10
358.1133016943
 20
162.8870505533
 10
358.2349424883
 20
162.8853820473
 10
358.4984100685
 20
162.8703109461
 10
358.7707644793
 20
162.8384857441
 10
359.0476377908
 20
162.7894926659
 10
359.3245438534
 20
162.7242927658
 10
359.6007839526
 20
162.6436061841
 10
359.8739442758
 20
162.5490591074
 10
360.1435766458
 20
162.4418691798
 10
360.4087583753
 20
162.3233925576
 10
360.669323931
 20
162.1948191615
 10
360.9249897972
 20
162.0571584616
 10
361.1758375625
 20
161.9111879423
 10
361.4221196979
 20
161.7575078966
 10
361.6636423576
 20
161.5967785713
 10
361.9003932885
 20
161.4294872326
 10
362.1322095112
 20
161.2561607245
 10
362.3589321621
 20
161.0771934492
 10
362.5798329705
 20
160.8933586871
 10
362.7949297726
 20
160.7047489541
 10
363.0011370123
 20
160.5142031576
 10
363.1965886348
 20
160.3237430511
 10
363.3784387155
 20
160.1366081911
 10
363.5445938139
 20
159.9556680352
 10
363.6929430482
 20
159.7842273955
 10
363.82203366
 20
159.6252976486
 10
363.9304594124
 20
159.4823841035
 10
364.0174567691
 20
159.3589097956
 10
364.0839598307
 20
159.2565506228
 10
364.1308943364
 20
159.1774991009
 10
364.1603334623
 20
159.1226499845
 10
364.1676323162
 20
159.1078701816
  0
LWPOLYLINE
  5
3CE
100
AcDbEntity
  8
RUNDUNGEN
100
AcDbPolyline
 62
7
  6
CONTINUOUS
 90
38
 70
0
 10
548.1132909897
 20
165.3956601308
 10
548.207894246
 20
165.3941692686
 10
548.41624475
 20
165.3805852734
 10
548.6300666806
 20
165.3520883952
 10
548.8471721714
 20
165.3087584881
 10
549.0640096996
 20
165.2517615299
 10
549.2803326184
 20
165.1820360543
 10
549.4934283548
 20
165.1016485798
 10
549.7042533522
 20
165.0112706316
 10
549.9135272837
 20
164.9115322805
 10
550.1207367566
 20
164.8034723731
 10
550.3260137809
 20
164.6876122387
 10
550.5292015089
 20
164.564692846
 10
550.7306532161
 20
164.435029313
 10
550.9295985275
 20
164.299524664
 10
551.1257895484
 20
164.1588048956
 10
551.3188817764
 20
164.0135542211
 10
551.5085422347
 20
163.8644045642
 10
551.6945842118
 20
163.7118473883
 10
551.8768568907
 20
163.5563306112
 10
552.0552204443
 20
163.3982567624
 10
552.2295023566
 20
163.2380236696
 10
552.3995336583
 20
163.0759943665
 10
552.5649146094
 20
162.9127275203
 10
552.7260275773
 20
162.7479701926
 10
552.8826962899
 20
162.5819596869
 10
553.0355469678
 20
162.4139916307
 10
553.1847691035
 20
162.243653228
 10
553.3299353954
 20
162.0711020717
 10
553.4714227653
 20
161.8953679514
 10
553.6052386042
 20
161.7209322103
 10
553.7294047583
 20
161.5501389164
 10
553.8394188298
 20
161.3894401548
 10
553.9321609911
 20
161.2446246536
 10
554.0074570438
 20
161.1179690809
 10
554.064915219
 20
161.0128604202
 10
554.1059120545
 20
160.9303592259
 10
554.1165012576
 20
160.907389029
  0
LWPOLYLINE
  5
3CF
100
AcDbEntity
  8
RUNDUNGEN
100
AcDbPolyline
 62
7
  6
CONTINUOUS
 90
9
 70
0
 10
349.7144836667
 20
165.3956476768
 10
349.8551959761
 20
165.3888565983
 10
350.0012542864
 20
165.3678418029
 10
350.1522541929
 20
165.3321271107
 10
350.3017259954
 20
165.283974656
 10
350.4518244244
 20
165.2238870617
 10
350.6017109195
 20
165.1530330323
 10
350.7510200842
 20
165.0723530685
 10
350.8667077408
 20
165.0032391407
  0
LINE
  5
3D0
100
AcDbEntity
  8
RUNDUNGEN
100
AcDbLine
 62
7
  6
CONTINUOUS
 10
394.1133019618
 20
158.2496702535
 11
394.1133019618
 21
159.2071225402
  0
LWPOLYLINE
  5
3D1
100
AcDbEntity
  8
RUNDUNGEN
100
AcDbPolyline
 62
7
  6
CONTINUOUS
 90
7
 70
0
 10
394.0525676051
 20
159.0950772529
 10
394.0508364137
 20
159.0903934427
 10
394.0520384341
 20
159.0929553829
 10
394.0658938159
 20
159.1219035203
 10
394.0949926901
 20
159.1762260238
 10
394.141492836
 20
159.2546940559
 10
394.207435813
 20
159.3563777161
  0
LINE
  5
3D2
100
AcDbEntity
  8
RUNDUNGEN
100
AcDbLine
 62
7
  6
CONTINUOUS
 10
394.207435813
 20
159.3563777161
 11
394.2963351134
 21
159.4826425912
  0
LINE
  5
3D3
100
AcDbEntity
  8
RUNDUNGEN
100
AcDbLine
 62
7
  6
CONTINUOUS
 10
394.293777145
 20
159.4791428619
 11
394.4048174638
 21
159.6256118346
  0
LINE
  5
3D4
100
AcDbEntity
  8
RUNDUNGEN
100
AcDbLine
 62
7
  6
CONTINUOUS
 10
394.4014736427
 20
159.6213498355
 11
394.533961718
 21
159.7845881477
  0
LINE
  5
3D5
100
AcDbEntity
  8
RUNDUNGEN
100
AcDbLine
 62
7
  6
CONTINUOUS
 10
394.5298400539
 20
159.7796667608
 11
394.6823597747
 21
159.9560594661
  0
LINE
  5
3D6
100
AcDbEntity
  8
RUNDUNGEN
100
AcDbLine
 62
7
  6
CONTINUOUS
 10
394.6776068225
 20
159.9507248072
 11
394.8485446752
 21
160.137008634
  0
LINE
  5
3D7
100
AcDbEntity
  8
RUNDUNGEN
100
AcDbLine
 62
7
  6
CONTINUOUS
 10
394.8432950931
 20
160.13144923
 11
395.0303949669
 21
160.3241241404
  0
LINE
  5
3D8
100
AcDbEntity
  8
RUNDUNGEN
100
AcDbLine
 62
7
  6
CONTINUOUS
 10
395.0247970888
 20
160.3185140828
 11
395.225836588
 21
160.5145548317
  0
LINE
  5
3D9
100
AcDbEntity
  8
RUNDUNGEN
100
AcDbLine
 62
7
  6
CONTINUOUS
 10
395.2199879266
 20
160.5090005945
 11
395.4320321759
 21
160.7050706352
  0
LINE
  5
3DA
100
AcDbEntity
  8
RUNDUNGEN
100
AcDbLine
 62
7
  6
CONTINUOUS
 10
395.425967783
 20
160.6996086821
 11
395.6471088472
 21
160.8936461946
  0
LINE
  5
3DB
100
AcDbEntity
  8
RUNDUNGEN
100
AcDbLine
 62
7
  6
CONTINUOUS
 10
395.6408514914
 20
160.8882984131
 11
395.8679881759
 21
161.0774499015
  0
LINE
  5
3DC
100
AcDbEntity
  8
RUNDUNGEN
100
AcDbLine
 62
7
  6
CONTINUOUS
 10
395.8615033637
 20
161.0721893952
 11
396.0946878119
 21
161.2563893634
  0
LINE
  5
3DD
100
AcDbEntity
  8
RUNDUNGEN
100
AcDbLine
 62
7
  6
CONTINUOUS
 10
396.0879516435
 20
161.2512060226
 11
396.3265007553
 21
161.4296964773
  0
LINE
  5
3DE
100
AcDbEntity
  8
RUNDUNGEN
100
AcDbLine
 62
7
  6
CONTINUOUS
 10
396.3194682112
 20
161.4245802997
 11
396.5632467682
 21
161.5969696454
  0
LINE
  5
3DF
100
AcDbEntity
  8
RUNDUNGEN
100
AcDbLine
 62
7
  6
CONTINUOUS
 10
396.5558925827
 20
161.5919237104
 11
396.8047268886
 21
161.7576712483
  0
LINE
  5
3E0
100
AcDbEntity
  8
RUNDUNGEN
100
AcDbLine
 62
7
  6
CONTINUOUS
 10
396.7970613308
 20
161.7527164962
 11
397.0509937558
 21
161.9113258258
  0
LINE
  5
3E1
100
AcDbEntity
  8
RUNDUNGEN
100
AcDbLine
 62
7
  6
CONTINUOUS
 10
407.0861453875
 20
164.8338201414
 11
407.3598964741
 21
165.0032389272
  0
LINE
  5
3E2
100
AcDbEntity
  8
RUNDUNGEN
100
AcDbLine
 62
7
  6
CONTINUOUS
 10
406.6398590567
 20
164.5608219173
 11
407.0945817389
 21
164.8390412217
  0
LINE
  5
3E3
100
AcDbEntity
  8
RUNDUNGEN
100
AcDbLine
 62
7
  6
CONTINUOUS
 10
406.1725642329
 20
164.2789854841
 11
406.6467295568
 21
164.5650246772
  0
LWPOLYLINE
  5
3E4
100
AcDbEntity
  8
RUNDUNGEN
100
AcDbPolyline
 62
7
  6
CONTINUOUS
 90
9
 70
0
 10
407.3598962908
 20
165.003239222
 10
407.4597459995
 20
165.0632260034
 10
407.609418288
 20
165.1451296275
 10
407.7597028385
 20
165.2172376522
 10
407.9101847141
 20
165.2785955837
 10
408.0601711536
 20
165.3280882363
 10
408.2117648596
 20
165.3651923955
 10
408.3584669016
 20
165.3875591044
 10
408.5121168663
 20
165.3956477354
  0
LWPOLYLINE
  5
3E5
100
AcDbEntity
  8
RUNDUNGEN
100
AcDbPolyline
 62
7
  6
CONTINUOUS
 90
9
 70
0
 10
407.466412624
 20
165.0668741116
 10
407.4755803183
 20
165.0723510666
 10
407.6248890104
 20
165.153030903
 10
407.7747751612
 20
165.2238851556
 10
407.924874359
 20
165.2839734798
 10
408.0743461111
 20
165.3321258833
 10
408.2253427854
 20
165.3678408508
 10
408.3714043685
 20
165.3888560084
 10
408.5121194231
 20
165.3956474386
  0
LINE
  5
3E6
100
AcDbEntity
  8
RUNDUNGEN
100
AcDbLine
 62
7
  6
CONTINUOUS
 10
405.6841403005
 20
163.9885223085
 11
406.1794421569
 21
164.2831337208
  0
LINE
  5
3E7
100
AcDbEntity
  8
RUNDUNGEN
100
AcDbLine
 62
7
  6
CONTINUOUS
 10
405.1744719161
 20
163.6896241048
 11
405.6910208315
 21
163.9926141246
  0
LINE
  5
3E8
100
AcDbEntity
  8
RUNDUNGEN
100
AcDbLine
 62
7
  6
CONTINUOUS
 10
397.0429735249
 20
161.90648234
 11
397.3018789528
 21
162.0572971446
  0
LINE
  5
3E9
100
AcDbEntity
  8
RUNDUNGEN
100
AcDbLine
 62
7
  6
CONTINUOUS
 10
404.8108515923
 20
163.478849565
 11
405.1801826767
 21
163.692973216
  0
LINE
  5
3EA
100
AcDbEntity
  8
RUNDUNGEN
100
AcDbLine
 62
7
  6
CONTINUOUS
 10
404.6598584447
 20
163.3955259329
 11
404.8108400678
 21
163.4788695431
  0
LINE
  5
3EB
100
AcDbEntity
  8
RUNDUNGEN
100
AcDbLine
 62
7
  6
CONTINUOUS
 10
397.2934449524
 20
162.0525735955
 11
397.5575525741
 21
162.1949695523
  0
LINE
  5
3EC
100
AcDbEntity
  8
RUNDUNGEN
100
AcDbLine
 62
7
  6
CONTINUOUS
 10
397.5487302454
 20
162.1903992837
 11
397.8181052693
 21
162.3235144212
  0
LINE
  5
3ED
100
AcDbEntity
  8
RUNDUNGEN
100
AcDbLine
 62
7
  6
CONTINUOUS
 10
404.352024527
 20
163.2476989086
 11
404.6691486474
 21
163.4006542327
  0
LINE
  5
3EE
100
AcDbEntity
  8
RUNDUNGEN
100
AcDbLine
 62
7
  6
CONTINUOUS
 10
397.8089308805
 20
162.3191908377
 11
398.0832661909
 21
162.441959292
  0
LINE
  5
3EF
100
AcDbEntity
  8
RUNDUNGEN
100
AcDbLine
 62
7
  6
CONTINUOUS
 10
398.0737564894
 20
162.4379426429
 11
398.3528387867
 21
162.5491364282
  0
LINE
  5
3F0
100
AcDbEntity
  8
RUNDUNGEN
100
AcDbLine
 62
7
  6
CONTINUOUS
 10
404.0372823018
 20
163.1251742811
 11
404.3667096996
 21
163.2541053738
  0
LINE
  5
3F1
100
AcDbEntity
  8
RUNDUNGEN
100
AcDbLine
 62
7
  6
CONTINUOUS
 10
398.3430382937
 20
162.5454689803
 11
398.6259489164
 21
162.6436404629
  0
LINE
  5
3F2
100
AcDbEntity
  8
RUNDUNGEN
100
AcDbLine
 62
7
  6
CONTINUOUS
 10
403.7170266378
 20
163.0279333383
 11
404.0527238967
 21
163.130544637
  0
LINE
  5
3F3
100
AcDbEntity
  8
RUNDUNGEN
100
AcDbLine
 62
7
  6
CONTINUOUS
 10
398.615866104
 20
162.6404144034
 11
398.9021976676
 21
162.7243312148
  0
LINE
  5
3F4
100
AcDbEntity
  8
RUNDUNGEN
100
AcDbLine
 62
7
  6
CONTINUOUS
 10
193.4823767734
 20
157.5651660893
 11
193.7711313029
 21
157.6433339879
  0
LINE
  5
3F5
100
AcDbEntity
  8
RUNDUNGEN
100
AcDbLine
 62
7
  6
CONTINUOUS
 10
171.895860029
 20
149.8201801968
 11
171.9900446819
 21
149.8414983507
  0
LINE
  5
3F6
100
AcDbEntity
  8
RUNDUNGEN
100
AcDbLine
 62
7
  6
CONTINUOUS
 10
180.7018188719
 20
150.2445111267
 11
181.3562748454
 21
150.3864168121
  0
LINE
  5
3F7
100
AcDbEntity
  8
RUNDUNGEN
100
AcDbLine
 62
7
  6
CONTINUOUS
 10
171.9834544254
 20
149.8400522637
 11
172.0863733694
 21
149.8619184251
  0
LINE
  5
3F8
100
AcDbEntity
  8
RUNDUNGEN
100
AcDbLine
 62
7
  6
CONTINUOUS
 10
172.0790371678
 20
149.8604087503
 11
172.1906141695
 21
149.8826134969
  0
LINE
  5
3F9
100
AcDbEntity
  8
RUNDUNGEN
100
AcDbLine
 62
7
  6
CONTINUOUS
 10
172.1825141656
 20
149.8810543923
 11
172.3025759288
 21
149.9033690675
  0
LINE
  5
3FA
100
AcDbEntity
  8
RUNDUNGEN
100
AcDbLine
 62
7
  6
CONTINUOUS
 10
172.2936901492
 20
149.9017743963
 11
172.4222159651
 21
149.9240049159
  0
LINE
  5
3FB
100
AcDbEntity
  8
RUNDUNGEN
100
AcDbLine
 62
7
  6
CONTINUOUS
 10
172.4125274303
 20
149.9223901441
 11
172.5494146393
 21
149.9443258391
  0
LINE
  5
3FC
100
AcDbEntity
  8
RUNDUNGEN
100
AcDbLine
 62
7
  6
CONTINUOUS
 10
194.3339055891
 20
157.7586640616
 11
194.9426531856
 21
157.8440181092
  0
LINE
  5
3FD
100
AcDbEntity
  8
0
100
AcDbLine
 62
7
  6
CONTINUOUS
 10
167.1133019618
 20
184.7496702535
 11
129.1133019618
 21
184.7496702535
  0
LINE
  5
3FE
100
AcDbEntity
  8
0
100
AcDbLine
 62
7
  6
CONTINUOUS
 10
123.1133019618
 20
184.7496702535
 11
78.7836556253
 21
184.7496702535
  0
LINE
  5
3FF
100
AcDbEntity
  8
0
100
AcDbLine
 62
7
  6
CONTINUOUS
 10
167.1133019618
 20
189.9150347573
 11
129.1133019618
 21
189.9150347573
  0
LINE
  5
400
100
AcDbEntity
  8
0
100
AcDbLine
 62
7
  6
CONTINUOUS
 10
123.1133019618
 20
189.9150347573
 11
88.1133019618
 21
189.9150347573
  0
LINE
  5
401
100
AcDbEntity
  8
0
100
AcDbLine
 62
7
  6
CONTINUOUS
 10
167.1133019618
 20
191.2496702535
 11
129.1133019618
 21
191.2496702535
  0
LINE
  5
402
100
AcDbEntity
  8
0
100
AcDbLine
 62
7
  6
CONTINUOUS
 10
123.1133019618
 20
191.2496702535
 11
81.1133019618
 21
191.2496702535
  0
LINE
  5
403
100
AcDbEntity
  8
0
100
AcDbLine
 62
7
  6
CONTINUOUS
 10
593.1133019618
 20
191.2496702535
 11
677.1133019618
 21
191.2496702535
  0
LINE
  5
404
100
AcDbEntity
  8
RUNDUNGEN
100
AcDbLine
 62
7
  6
CONTINUOUS
 10
687.1133019618
 20
198.2496702535
 11
683.1133019618
 21
198.2496702535
  0
LINE
  5
405
100
AcDbEntity
  8
RUNDUNGEN
100
AcDbLine
 62
7
  6
CONTINUOUS
 10
26.8994643264
 20
198.2496702535
 11
75.1133019618
 21
198.2496702535
  0
LINE
  5
406
100
AcDbEntity
  8
BEZUGSACHSEN
100
AcDbLine
 62
7
  6
CONTINUOUS
 10
683.1133019618
 20
198.2496702535
 11
731.3271395972
 21
198.2496702535
  0
LINE
  5
407
100
AcDbEntity
  8
0
100
AcDbLine
 62
7
  6
CONTINUOUS
 10
545.1133019618
 20
199.2496702535
 11
413.1133019618
 21
199.2496702535
  0
LINE
  5
408
100
AcDbEntity
  8
0
100
AcDbLine
 62
7
  6
CONTINUOUS
 10
345.1133019618
 20
199.2496702535
 11
213.1133019618
 21
199.2496702535
  0
LINE
  5
409
100
AcDbEntity
  8
0
100
AcDbLine
 62
7
  6
CONTINUOUS
 10
243.8233019618
 20
200.2496702535
 11
252.8633019618
 21
200.2496702535
  0
LINE
  5
40A
100
AcDbEntity
  8
0
100
AcDbLine
 62
7
  6
CONTINUOUS
 10
419.1133019618
 20
200.2496702535
 11
428.4733019618
 21
200.2496702535
  0
LINE
  5
40B
100
AcDbEntity
  8
0
100
AcDbLine
 62
7
  6
CONTINUOUS
 10
429.9133019618
 20
200.2496702535
 11
438.5533019618
 21
200.2496702535
  0
LINE
  5
40C
100
AcDbEntity
  8
0
100
AcDbLine
 62
7
  6
CONTINUOUS
 10
440.7133019618
 20
200.2496702535
 11
449.5333019618
 21
200.2496702535
  0
LINE
  5
40D
100
AcDbEntity
  8
0
100
AcDbLine
 62
7
  6
CONTINUOUS
 10
464.1133019618
 20
200.2496702535
 11
465.3633019618
 21
200.2496702535
  0
LINE
  5
40E
100
AcDbEntity
  8
0
100
AcDbLine
 62
7
  6
CONTINUOUS
 10
467.0299685291
 20
200.2496702535
 11
475.1549682311
 21
200.2496702535
  0
LINE
  5
40F
100
AcDbEntity
  8
0
100
AcDbLine
 62
7
  6
CONTINUOUS
 10
476.8216356925
 20
200.2496702535
 11
484.3216345004
 21
200.2496702535
  0
LINE
  5
410
100
AcDbEntity
  8
0
100
AcDbLine
 62
7
  6
CONTINUOUS
 10
485.9883019618
 20
200.2496702535
 11
488.9049694232
 21
200.2496702535
  0
LINE
  5
411
100
AcDbEntity
  8
0
100
AcDbLine
 62
7
  6
CONTINUOUS
 10
490.5716345004
 20
200.2496702535
 11
498.6966345004
 21
200.2496702535
  0
LINE
  5
412
100
AcDbEntity
  8
0
100
AcDbLine
 62
7
  6
CONTINUOUS
 10
500.3633019618
 20
200.2496702535
 11
507.8633019618
 21
200.2496702535
  0
LINE
  5
413
100
AcDbEntity
  8
0
100
AcDbLine
 62
7
  6
CONTINUOUS
 10
509.529967039
 20
200.2496702535
 11
517.4466368846
 21
200.2496702535
  0
LINE
  5
414
100
AcDbEntity
  8
0
100
AcDbLine
 62
7
  6
CONTINUOUS
 10
519.1133019618
 20
200.2496702535
 11
527.029967039
 21
200.2496702535
  0
LINE
  5
415
100
AcDbEntity
  8
0
100
AcDbLine
 62
7
  6
CONTINUOUS
 10
528.6966368846
 20
200.2496702535
 11
531.1966368846
 21
200.2496702535
  0
LINE
  5
416
100
AcDbEntity
  8
0
100
AcDbLine
 62
7
  6
CONTINUOUS
 10
532.8633019618
 20
200.2496702535
 11
540.3633019618
 21
200.2496702535
  0
LINE
  5
417
100
AcDbEntity
  8
0
100
AcDbLine
 62
7
  6
CONTINUOUS
 10
195.9773999012
 20
201.7496702535
 11
213.1133019618
 21
201.7496702535
  0
LINE
  5
418
100
AcDbEntity
  8
0
100
AcDbLine
 62
7
  6
CONTINUOUS
 10
345.1133019618
 20
201.7496702535
 11
349.714487058
 21
201.7496702535
  0
LINE
  5
419
100
AcDbEntity
  8
0
100
AcDbLine
 62
7
  6
CONTINUOUS
 10
408.5121168657
 20
201.7496702535
 11
413.1133019618
 21
201.7496702535
  0
LINE
  5
41A
100
AcDbEntity
  8
0
100
AcDbLine
 62
7
  6
CONTINUOUS
 10
545.1133019618
 20
201.7496702535
 11
562.2492040225
 21
201.7496702535
  0
LINE
  5
41B
100
AcDbEntity
  8
0
100
AcDbLine
 62
7
  6
CONTINUOUS
 10
591.1133019618
 20
203.2496702535
 11
568.0586790418
 21
203.2496702535
  0
LINE
  5
41C
100
AcDbEntity
  8
0
100
AcDbLine
 62
7
  6
CONTINUOUS
 10
402.6276309294
 20
203.2496702535
 11
355.5989729942
 21
203.2496702535
  0
LINE
  5
41D
100
AcDbEntity
  8
0
100
AcDbLine
 62
7
  6
CONTINUOUS
 10
413.1133019618
 20
201.7496039319
 11
413.1133019618
 21
199.2496702535
  0
LINE
  5
41E
100
AcDbEntity
  8
0
100
AcDbLine
 62
7
  6
CONTINUOUS
 10
419.1133019618
 20
199.2496702535
 11
419.1133019618
 21
200.2496702535
  0
LINE
  5
41F
100
AcDbEntity
  8
0
100
AcDbLine
 62
7
  6
CONTINUOUS
 10
420.9133019618
 20
199.2496702535
 11
420.9133019618
 21
200.2496702535
  0
LINE
  5
420
100
AcDbEntity
  8
0
100
AcDbLine
 62
7
  6
CONTINUOUS
 10
426.3948409927
 20
199.2496702535
 11
426.3948409927
 21
200.2496702535
  0
LINE
  5
421
100
AcDbEntity
  8
0
100
AcDbLine
 62
7
  6
CONTINUOUS
 10
428.4733019618
 20
199.2496702535
 11
428.4733019618
 21
200.2496702535
  0
LINE
  5
422
100
AcDbEntity
  8
0
100
AcDbLine
 62
7
  6
CONTINUOUS
 10
429.9133019618
 20
199.2496702535
 11
429.9133019618
 21
200.2496702535
  0
LINE
  5
423
100
AcDbEntity
  8
0
100
AcDbLine
 62
7
  6
CONTINUOUS
 10
125.1133019618
 20
209.2496702535
 11
128.6133019618
 21
209.2496702535
  0
LINE
  5
424
100
AcDbEntity
  8
0
100
AcDbLine
 62
7
  6
CONTINUOUS
 10
169.1133019618
 20
209.2496702535
 11
178.9603140725
 21
209.2496702535
  0
LINE
  5
425
100
AcDbEntity
  8
0
100
AcDbLine
 62
7
  6
CONTINUOUS
 10
404.337731646
 20
202.9481333574
 11
406.802016149
 21
202.0512071495
  0
LINE
  5
426
100
AcDbEntity
  8
0
100
AcDbLine
 62
7
  6
CONTINUOUS
 10
438.5533019618
 20
199.2496702535
 11
438.5533019618
 21
200.2496702535
  0
LINE
  5
427
100
AcDbEntity
  8
0
100
AcDbLine
 62
7
  6
CONTINUOUS
 10
440.7133019618
 20
199.2496702535
 11
440.7133019618
 21
200.2496702535
  0
LINE
  5
428
100
AcDbEntity
  8
0
100
AcDbLine
 62
7
  6
CONTINUOUS
 10
449.5333019618
 20
199.2496702535
 11
449.5333019618
 21
200.2496702535
  0
LINE
  5
429
100
AcDbEntity
  8
0
100
AcDbLine
 62
7
  6
CONTINUOUS
 10
464.1133019618
 20
199.2496702535
 11
464.1133019618
 21
200.2496702535
  0
LINE
  5
42A
100
AcDbEntity
  8
0
100
AcDbLine
 62
7
  6
CONTINUOUS
 10
465.3633019618
 20
199.2496702535
 11
465.3633019618
 21
200.2496702535
  0
LINE
  5
42B
100
AcDbEntity
  8
0
100
AcDbLine
 62
7
  6
CONTINUOUS
 10
467.0299685291
 20
199.2496702535
 11
467.0299685291
 21
200.2496702535
  0
LINE
  5
42C
100
AcDbEntity
  8
0
100
AcDbLine
 62
7
  6
CONTINUOUS
 10
467.2383019618
 20
199.2496702535
 11
467.2383019618
 21
200.2496702535
  0
LINE
  5
42D
100
AcDbEntity
  8
0
100
AcDbLine
 62
7
  6
CONTINUOUS
 10
467.6549685291
 20
199.2496702535
 11
467.6549685291
 21
200.2496702535
  0
LINE
  5
42E
100
AcDbEntity
  8
0
100
AcDbLine
 62
7
  6
CONTINUOUS
 10
468.4883019618
 20
199.2496702535
 11
468.4883019618
 21
200.2496702535
  0
LINE
  5
42F
100
AcDbEntity
  8
0
100
AcDbLine
 62
7
  6
CONTINUOUS
 10
469.3216350965
 20
199.2496702535
 11
469.3216350965
 21
200.2496702535
  0
LINE
  5
430
100
AcDbEntity
  8
0
100
AcDbLine
 62
7
  6
CONTINUOUS
 10
470.3633019618
 20
199.2496702535
 11
470.3633019618
 21
200.2496702535
  0
LINE
  5
431
100
AcDbEntity
  8
0
100
AcDbLine
 62
7
  6
CONTINUOUS
 10
472.2383019618
 20
199.2496702535
 11
472.2383019618
 21
200.2496702535
  0
LINE
  5
432
100
AcDbEntity
  8
0
100
AcDbLine
 62
7
  6
CONTINUOUS
 10
473.2799688272
 20
199.2496702535
 11
473.2799688272
 21
200.2496702535
  0
LINE
  5
433
100
AcDbEntity
  8
0
100
AcDbLine
 62
7
  6
CONTINUOUS
 10
474.1133019618
 20
199.2496702535
 11
474.1133019618
 21
200.2496702535
  0
LINE
  5
434
100
AcDbEntity
  8
0
100
AcDbLine
 62
7
  6
CONTINUOUS
 10
474.9466356925
 20
199.2496702535
 11
474.9466356925
 21
200.2496702535
  0
LINE
  5
435
100
AcDbEntity
  8
0
100
AcDbLine
 62
7
  6
CONTINUOUS
 10
475.1549682311
 20
199.2496702535
 11
475.1549682311
 21
200.2496702535
  0
LINE
  5
436
100
AcDbEntity
  8
0
100
AcDbLine
 62
7
  6
CONTINUOUS
 10
476.8216356925
 20
199.2496702535
 11
476.8216356925
 21
200.2496702535
  0
LINE
  5
437
100
AcDbEntity
  8
0
100
AcDbLine
 62
7
  6
CONTINUOUS
 10
484.3216345004
 20
199.2496702535
 11
484.3216345004
 21
200.2496702535
  0
LINE
  5
438
100
AcDbEntity
  8
0
100
AcDbLine
 62
7
  6
CONTINUOUS
 10
485.9883019618
 20
199.2496702535
 11
485.9883019618
 21
200.2496702535
  0
LINE
  5
439
100
AcDbEntity
  8
0
100
AcDbLine
 62
7
  6
CONTINUOUS
 10
488.9049694232
 20
199.2496702535
 11
488.9049694232
 21
200.2496702535
  0
LINE
  5
43A
100
AcDbEntity
  8
0
100
AcDbLine
 62
7
  6
CONTINUOUS
 10
490.5716345004
 20
199.2496702535
 11
490.5716345004
 21
200.2496702535
  0
LINE
  5
43B
100
AcDbEntity
  8
0
100
AcDbLine
 62
7
  6
CONTINUOUS
 10
490.7799694232
 20
199.2496702535
 11
490.7799694232
 21
200.2496702535
  0
LINE
  5
43C
100
AcDbEntity
  8
0
100
AcDbLine
 62
7
  6
CONTINUOUS
 10
491.1966345004
 20
199.2496702535
 11
491.1966345004
 21
200.2496702535
  0
LINE
  5
43D
100
AcDbEntity
  8
0
100
AcDbLine
 62
7
  6
CONTINUOUS
 10
492.0299694232
 20
199.2496702535
 11
492.0299694232
 21
200.2496702535
  0
LINE
  5
43E
100
AcDbEntity
  8
0
100
AcDbLine
 62
7
  6
CONTINUOUS
 10
492.8633019618
 20
199.2496702535
 11
492.8633019618
 21
200.2496702535
  0
LINE
  5
43F
100
AcDbEntity
  8
0
100
AcDbLine
 62
7
  6
CONTINUOUS
 10
493.9049694232
 20
199.2496702535
 11
493.9049694232
 21
200.2496702535
  0
LINE
  5
440
100
AcDbEntity
  8
0
100
AcDbLine
 62
7
  6
CONTINUOUS
 10
495.7799694232
 20
199.2496702535
 11
495.7799694232
 21
200.2496702535
  0
LINE
  5
441
100
AcDbEntity
  8
0
100
AcDbLine
 62
7
  6
CONTINUOUS
 10
496.8216345004
 20
199.2496702535
 11
496.8216345004
 21
200.2496702535
  0
LINE
  5
442
100
AcDbEntity
  8
0
100
AcDbLine
 62
7
  6
CONTINUOUS
 10
497.6549694232
 20
199.2496702535
 11
497.6549694232
 21
200.2496702535
  0
LINE
  5
443
100
AcDbEntity
  8
0
100
AcDbLine
 62
7
  6
CONTINUOUS
 10
498.4883019618
 20
199.2496702535
 11
498.4883019618
 21
200.2496702535
  0
LINE
  5
444
100
AcDbEntity
  8
0
100
AcDbLine
 62
7
  6
CONTINUOUS
 10
498.6966345004
 20
199.2496702535
 11
498.6966345004
 21
200.2496702535
  0
LINE
  5
445
100
AcDbEntity
  8
0
100
AcDbLine
 62
7
  6
CONTINUOUS
 10
500.3633019618
 20
199.2496702535
 11
500.3633019618
 21
200.2496702535
  0
LINE
  5
446
100
AcDbEntity
  8
0
100
AcDbLine
 62
7
  6
CONTINUOUS
 10
500.5716345004
 20
199.2496702535
 11
500.5716345004
 21
200.2496702535
  0
LINE
  5
447
100
AcDbEntity
  8
0
100
AcDbLine
 62
7
  6
CONTINUOUS
 10
500.9883019618
 20
199.2496702535
 11
500.9883019618
 21
200.2496702535
  0
LINE
  5
448
100
AcDbEntity
  8
0
100
AcDbLine
 62
7
  6
CONTINUOUS
 10
501.8216345004
 20
199.2496702535
 11
501.8216345004
 21
200.2496702535
  0
LINE
  5
449
100
AcDbEntity
  8
0
100
AcDbLine
 62
7
  6
CONTINUOUS
 10
502.6549694232
 20
199.2496702535
 11
502.6549694232
 21
200.2496702535
  0
LINE
  5
44A
100
AcDbEntity
  8
0
100
AcDbLine
 62
7
  6
CONTINUOUS
 10
503.6966345004
 20
199.2496702535
 11
503.6966345004
 21
200.2496702535
  0
LINE
  5
44B
100
AcDbEntity
  8
0
100
AcDbLine
 62
7
  6
CONTINUOUS
 10
504.529967039
 20
199.2496702535
 11
504.529967039
 21
200.2496702535
  0
LINE
  5
44C
100
AcDbEntity
  8
0
100
AcDbLine
 62
7
  6
CONTINUOUS
 10
505.5716368846
 20
199.2496702535
 11
505.5716368846
 21
200.2496702535
  0
LINE
  5
44D
100
AcDbEntity
  8
0
100
AcDbLine
 62
7
  6
CONTINUOUS
 10
506.404967039
 20
199.2496702535
 11
506.404967039
 21
200.2496702535
  0
LINE
  5
44E
100
AcDbEntity
  8
0
100
AcDbLine
 62
7
  6
CONTINUOUS
 10
507.2383019618
 20
199.2496702535
 11
507.2383019618
 21
200.2496702535
  0
LINE
  5
44F
100
AcDbEntity
  8
0
100
AcDbLine
 62
7
  6
CONTINUOUS
 10
507.654967039
 20
199.2496702535
 11
507.654967039
 21
200.2496702535
  0
LINE
  5
450
100
AcDbEntity
  8
0
100
AcDbLine
 62
7
  6
CONTINUOUS
 10
507.8633019618
 20
199.2496702535
 11
507.8633019618
 21
200.2496702535
  0
LINE
  5
451
100
AcDbEntity
  8
0
100
AcDbLine
 62
7
  6
CONTINUOUS
 10
509.529967039
 20
199.2496702535
 11
509.529967039
 21
200.2496702535
  0
LINE
  5
452
100
AcDbEntity
  8
0
100
AcDbLine
 62
7
  6
CONTINUOUS
 10
510.779967039
 20
199.2496702535
 11
510.779967039
 21
200.2496702535
  0
LINE
  5
453
100
AcDbEntity
  8
0
100
AcDbLine
 62
7
  6
CONTINUOUS
 10
514.3216368846
 20
199.2496702535
 11
514.3216368846
 21
200.2496702535
  0
LINE
  5
454
100
AcDbEntity
  8
0
100
AcDbLine
 62
7
  6
CONTINUOUS
 10
515.9883019618
 20
199.2496702535
 11
515.9883019618
 21
200.2496702535
  0
LINE
  5
455
100
AcDbEntity
  8
0
100
AcDbLine
 62
7
  6
CONTINUOUS
 10
517.4466368846
 20
199.2496702535
 11
517.4466368846
 21
200.2496702535
  0
LINE
  5
456
100
AcDbEntity
  8
0
100
AcDbLine
 62
7
  6
CONTINUOUS
 10
519.1133019618
 20
199.2496702535
 11
519.1133019618
 21
200.2496702535
  0
LINE
  5
457
100
AcDbEntity
  8
0
100
AcDbLine
 62
7
  6
CONTINUOUS
 10
522.4466368846
 20
199.2496702535
 11
522.4466368846
 21
200.2496702535
  0
LINE
  5
458
100
AcDbEntity
  8
0
100
AcDbLine
 62
7
  6
CONTINUOUS
 10
523.6966368846
 20
199.2496702535
 11
523.6966368846
 21
200.2496702535
  0
LINE
  5
459
100
AcDbEntity
  8
0
100
AcDbLine
 62
7
  6
CONTINUOUS
 10
527.029967039
 20
199.2496702535
 11
527.029967039
 21
200.2496702535
  0
LINE
  5
45A
100
AcDbEntity
  8
0
100
AcDbLine
 62
7
  6
CONTINUOUS
 10
528.6966368846
 20
199.2496702535
 11
528.6966368846
 21
200.2496702535
  0
LWPOLYLINE
  5
45B
100
AcDbEntity
  8
RUNDUNGEN
100
AcDbPolyline
 62
7
  6
CONTINUOUS
 90
3
 70
0
 10
553.8917819229
 20
161.3089380128
 10
553.9790215681
 20
161.16699551
 10
554.0461481177
 20
161.0482539921
  0
LINE
  5
45C
100
AcDbEntity
  8
0
100
AcDbLine
 62
7
  6
CONTINUOUS
 10
529.9466368846
 20
199.2496702535
 11
529.9466368846
 21
200.2496702535
  0
LINE
  5
45D
100
AcDbEntity
  8
0
100
AcDbLine
 62
7
  6
CONTINUOUS
 10
531.1966368846
 20
199.2496702535
 11
531.1966368846
 21
200.2496702535
  0
LINE
  5
45E
100
AcDbEntity
  8
0
100
AcDbLine
 62
7
  6
CONTINUOUS
 10
532.8633019618
 20
199.2496702535
 11
532.8633019618
 21
200.2496702535
  0
LINE
  5
45F
100
AcDbEntity
  8
0
100
AcDbLine
 62
7
  6
CONTINUOUS
 10
533.0716368846
 20
199.2496702535
 11
533.0716368846
 21
200.2496702535
  0
LINE
  5
460
100
AcDbEntity
  8
0
100
AcDbLine
 62
7
  6
CONTINUOUS
 10
533.4883019618
 20
199.2496702535
 11
533.4883019618
 21
200.2496702535
  0
LINE
  5
461
100
AcDbEntity
  8
0
100
AcDbLine
 62
7
  6
CONTINUOUS
 10
534.1133019618
 20
199.2496702535
 11
534.1133019618
 21
200.2496702535
  0
LINE
  5
462
100
AcDbEntity
  8
0
100
AcDbLine
 62
7
  6
CONTINUOUS
 10
534.9466368846
 20
199.2496702535
 11
534.9466368846
 21
200.2496702535
  0
LINE
  5
463
100
AcDbEntity
  8
0
100
AcDbLine
 62
7
  6
CONTINUOUS
 10
535.779967039
 20
199.2496702535
 11
535.779967039
 21
200.2496702535
  0
LINE
  5
464
100
AcDbEntity
  8
0
100
AcDbLine
 62
7
  6
CONTINUOUS
 10
537.4466368846
 20
199.2496702535
 11
537.4466368846
 21
200.2496702535
  0
LINE
  5
465
100
AcDbEntity
  8
0
100
AcDbLine
 62
7
  6
CONTINUOUS
 10
538.279967039
 20
199.2496702535
 11
538.279967039
 21
200.2496702535
  0
LINE
  5
466
100
AcDbEntity
  8
0
100
AcDbLine
 62
7
  6
CONTINUOUS
 10
539.1133019618
 20
199.2496702535
 11
539.1133019618
 21
200.2496702535
  0
LINE
  5
467
100
AcDbEntity
  8
0
100
AcDbLine
 62
7
  6
CONTINUOUS
 10
539.7383019618
 20
199.2496702535
 11
539.7383019618
 21
200.2496702535
  0
LINE
  5
468
100
AcDbEntity
  8
0
100
AcDbLine
 62
7
  6
CONTINUOUS
 10
540.154967039
 20
199.2496702535
 11
540.154967039
 21
200.2496702535
  0
LINE
  5
469
100
AcDbEntity
  8
0
100
AcDbLine
 62
7
  6
CONTINUOUS
 10
540.3633019618
 20
199.2496702535
 11
540.3633019618
 21
200.2496702535
  0
LINE
  5
46A
100
AcDbEntity
  8
0
100
AcDbLine
 62
7
  6
CONTINUOUS
 10
545.1133019618
 20
201.7496039319
 11
545.1133019618
 21
199.2496702535
  0
LINE
  5
46B
100
AcDbEntity
  8
RUNDUNGEN
100
AcDbLine
 62
7
  6
CONTINUOUS
 10
554.1133019618
 20
160.9143289709
 11
554.1133019618
 21
159.7496702535
  0
LINE
  5
46C
100
AcDbEntity
  8
RUNDUNGEN
100
AcDbLine
 62
7
  6
CONTINUOUS
 10
593.1133019618
 20
201.2495757837
 11
593.1133019618
 21
157.2497647232
  0
LINE
  5
46D
100
AcDbEntity
  8
BEZUGSACHSEN
100
AcDbLine
 62
7
  6
CONTINUOUS
 10
738.3703530472
 20
166.0676863857
 11
732.6890341623
 21
160.7850053793
  0
LINE
  5
46E
100
AcDbEntity
  8
BEZUGSACHSEN
100
AcDbLine
 62
7
  6
CONTINUOUS
 10
732.6890341623
 20
197.7143351277
 11
738.3703530472
 21
192.4316541212
  0
LINE
  5
46F
100
AcDbEntity
  8
RUNDUNGEN
100
AcDbLine
 62
7
  6
CONTINUOUS
 10
680.1133019618
 20
195.2496702535
 11
680.1133019618
 21
163.2496702535
  0
ARC
  5
470
100
AcDbEntity
  8
RUNDUNGEN
100
AcDbCircle
 62
7
  6
CONTINUOUS
 10
178.960314073
 20
425.615870228
 40
10.0
100
AcDbArc
 50
270.0
 51
305.0
  0
ARC
  5
471
100
AcDbEntity
  8
RUNDUNGEN
100
AcDbCircle
 62
7
  6
CONTINUOUS
 10
71.1133019618
 20
421.115870228
 40
8.0
100
AcDbArc
 50
270.0
 51
323.1301023542
  0
ARC
  5
472
100
AcDbEntity
  8
BEZUGSACHSEN
100
AcDbCircle
 62
7
  6
CONTINUOUS
 10
52.1133019618
 20
424.115870228
 40
6.0
100
AcDbArc
 50
89.9999999574
 51
270.0000000245
  0
ARC
  5
473
100
AcDbEntity
  8
BEZUGSACHSEN
100
AcDbCircle
 62
7
  6
CONTINUOUS
 10
66.1133019618
 20
424.115870228
 40
6.0
100
AcDbArc
 50
269.9999999574
 51
90.0000000245
  0
ARC
  5
474
100
AcDbEntity
  8
RUNDUNGEN
100
AcDbCircle
 62
7
  6
CONTINUOUS
 10
75.1133019618
 20
418.115870228
 40
3.0
100
AcDbArc
 50
323.1301023542
 51
360.0
  0
ARC
  5
475
100
AcDbEntity
  8
RUNDUNGEN
100
AcDbCircle
 62
7
  6
CONTINUOUS
 10
125.1133019618
 20
417.615870228
 40
2.0
100
AcDbArc
 50
180.0
 51
270.0
  0
ARC
  5
476
100
AcDbEntity
  8
BEZUGSACHSEN
100
AcDbCircle
 62
7
  6
CONTINUOUS
 10
16.1133019618
 20
424.0440734583
 40
2.0
100
AcDbArc
 50
180.0
 51
210.0
  0
ARC
  5
477
100
AcDbEntity
  8
BEZUGSACHSEN
100
AcDbCircle
 62
7
  6
CONTINUOUS
 10
21.2680025002
 20
415.115870228
 40
2.0
100
AcDbArc
 50
210.0
 51
270.0
  0
ARC
  5
478
100
AcDbEntity
  8
RUNDUNGEN
100
AcDbCircle
 62
7
  6
CONTINUOUS
 10
169.1133019618
 20
417.615870228
 40
2.0
100
AcDbArc
 50
180.0
 51
270.0
  0
ARC
  5
479
100
AcDbEntity
  8
RUNDUNGEN
100
AcDbCircle
 62
7
  6
CONTINUOUS
 10
128.6133019618
 20
416.115870228
 40
0.5
100
AcDbArc
 50
270.0
 51
360.0
  0
ARC
  5
47A
100
AcDbEntity
  8
0
100
AcDbCircle
 62
7
  6
CONTINUOUS
 10
88.1133019618
 20
430.115870228
 40
10.0
100
AcDbArc
 50
90.0
 51
158.9017665198
  0
ARC
  5
47B
100
AcDbEntity
  8
0
100
AcDbCircle
 62
7
  6
CONTINUOUS
 10
81.1133019618
 20
430.615870228
 40
3.0
100
AcDbArc
 50
90.0
 51
174.6670371752
  0
ARC
  5
47C
100
AcDbEntity
  8
BEZUGSACHSEN
100
AcDbCircle
 62
7
  6
CONTINUOUS
 10
21.2972489433
 20
434.865870228
 40
3.0
100
AcDbArc
 50
90.0
 51
158.241843614
  0
ARC
  5
47D
100
AcDbEntity
  8
BEZUGSACHSEN
100
AcDbCircle
 62
7
  6
CONTINUOUS
 10
16.1133019618
 20
427.9824502534
 40
2.0
100
AcDbArc
 50
140.967213277
 51
180.0
  0
ARC
  5
47E
100
AcDbEntity
  8
RUNDUNGEN
100
AcDbCircle
 62
7
  6
CONTINUOUS
 10
174.5133019618
 20
442.815870228
 40
2.0
100
AcDbArc
 50
180.0002484777
 51
269.9980634912
  0
ARC
  5
47F
100
AcDbEntity
  8
RUNDUNGEN
100
AcDbCircle
 62
7
  6
CONTINUOUS
 10
195.9773999012
 20
413.115870228
 40
10.0
100
AcDbArc
 50
90.0
 51
125.0
  0
ARC
  5
480
100
AcDbEntity
  8
RUNDUNGEN
100
AcDbCircle
 62
7
  6
CONTINUOUS
 10
355.5989729942
 20
426.615870228
 40
5.0
100
AcDbArc
 50
250.0
 51
270.0
  0
ARC
  5
481
100
AcDbEntity
  8
RUNDUNGEN
100
AcDbCircle
 62
7
  6
CONTINUOUS
 10
349.714487058
 20
418.115870228
 40
5.0
100
AcDbArc
 50
70.0
 51
90.0
  0
ARC
  5
482
100
AcDbEntity
  8
RUNDUNGEN
100
AcDbCircle
 62
7
  6
CONTINUOUS
 10
210.1133019618
 20
438.415870228
 40
6.0
100
AcDbArc
 50
179.9989400076
 51
270.0009127168
  0
ARC
  5
483
100
AcDbEntity
  8
RUNDUNGEN
100
AcDbCircle
 62
7
  6
CONTINUOUS
 10
358.1133019618
 20
438.415870228
 40
6.0
100
AcDbArc
 50
269.9998489178
 51
0.0012666239
  0
ARC
  5
484
100
AcDbEntity
  8
0
100
AcDbCircle
 62
7
  6
CONTINUOUS
 10
271.6713009505
 20
457.5601624839
 40
30.2093969801
100
AcDbArc
 50
324.0067297639
 51
324.728899765
  0
ARC
  5
485
100
AcDbEntity
  8
BEZUGSACHSEN
100
AcDbCircle
 62
7
  6
CONTINUOUS
 10
-5.6366980382
 20
445.615870228
 40
26.0
100
AcDbArc
 50
320.967213277
 51
338.241843614
  0
ARC
  5
486
100
AcDbEntity
  8
0
100
AcDbCircle
 62
7
  6
CONTINUOUS
 10
-5.6366980382
 20
445.615870228
 40
26.0
100
AcDbArc
 50
21.758156386
 51
39.032786723
  0
ARC
  5
487
100
AcDbEntity
  8
RUNDUNGEN
100
AcDbCircle
 62
7
  6
CONTINUOUS
 10
178.960314073
 20
465.615870228
 40
10.0
100
AcDbArc
 50
55.0
 51
90.0
  0
ARC
  5
488
100
AcDbEntity
  8
RUNDUNGEN
100
AcDbCircle
 62
7
  6
CONTINUOUS
 10
195.9773999012
 20
478.115870228
 40
10.0
100
AcDbArc
 50
235.0
 51
270.0
  0
ARC
  5
489
100
AcDbEntity
  8
RUNDUNGEN
100
AcDbCircle
 62
7
  6
CONTINUOUS
 10
71.1133019618
 20
470.115870228
 40
8.0
100
AcDbArc
 50
36.8698976458
 51
90.0
  0
ARC
  5
48A
100
AcDbEntity
  8
BEZUGSACHSEN
100
AcDbCircle
 62
7
  6
CONTINUOUS
 10
54.3633019618
 20
445.615870228
 40
7.75
100
AcDbArc
 50
270.0
 51
90.0
  0
ARC
  5
48B
100
AcDbEntity
  8
RUNDUNGEN
100
AcDbCircle
 62
7
  6
CONTINUOUS
 10
66.1133019618
 20
467.115870228
 40
6.0
100
AcDbArc
 50
269.9999999755
 51
90.0000000426
  0
ARC
  5
48C
100
AcDbEntity
  8
RUNDUNGEN
100
AcDbCircle
 62
7
  6
CONTINUOUS
 10
52.1133019618
 20
467.115870228
 40
6.0
100
AcDbArc
 50
89.9999999755
 51
270.0000000426
  0
ARC
  5
48D
100
AcDbEntity
  8
RUNDUNGEN
100
AcDbCircle
 62
7
  6
CONTINUOUS
 10
210.1133019618
 20
452.815870228
 40
6.0
100
AcDbArc
 50
90.0006351013
 51
180.0011940247
  0
ARC
  5
48E
100
AcDbEntity
  8
RUNDUNGEN
100
AcDbCircle
 62
7
  6
CONTINUOUS
 10
358.1133019618
 20
452.815870228
 40
6.0
100
AcDbArc
 50
359.9988682699
 51
90.0015246793
  0
ARC
  5
48F
100
AcDbEntity
  8
RUNDUNGEN
100
AcDbCircle
 62
7
  6
CONTINUOUS
 10
355.5989729942
 20
464.615870228
 40
5.0
100
AcDbArc
 50
90.0
 51
110.0
  0
ARC
  5
490
100
AcDbEntity
  8
RUNDUNGEN
100
AcDbCircle
 62
7
  6
CONTINUOUS
 10
349.714487058
 20
473.115870228
 40
5.0
100
AcDbArc
 50
270.0
 51
290.0
  0
ARC
  5
491
100
AcDbEntity
  8
0
100
AcDbCircle
 62
7
  6
CONTINUOUS
 10
81.1133019618
 20
460.615870228
 40
3.0
100
AcDbArc
 50
180.0
 51
270.0
  0
ARC
  5
492
100
AcDbEntity
  8
RUNDUNGEN
100
AcDbCircle
 62
7
  6
CONTINUOUS
 10
21.2972489433
 20
456.365870228
 40
3.0
100
AcDbArc
 50
201.758156386
 51
270.0
  0
ARC
  5
493
100
AcDbEntity
  8
RUNDUNGEN
100
AcDbCircle
 62
7
  6
CONTINUOUS
 10
75.1133019618
 20
473.115870228
 40
3.0
100
AcDbArc
 50
0.0
 51
36.8698976458
  0
ARC
  5
494
100
AcDbEntity
  8
RUNDUNGEN
100
AcDbCircle
 62
7
  6
CONTINUOUS
 10
125.1133019618
 20
473.615870228
 40
2.0
100
AcDbArc
 50
90.0
 51
180.0
  0
ARC
  5
495
100
AcDbEntity
  8
RUNDUNGEN
100
AcDbCircle
 62
7
  6
CONTINUOUS
 10
16.1133019618
 20
467.1876669977
 40
2.0
100
AcDbArc
 50
150.0
 51
180.0
  0
ARC
  5
496
100
AcDbEntity
  8
RUNDUNGEN
100
AcDbCircle
 62
7
  6
CONTINUOUS
 10
16.1133019618
 20
463.2492902026
 40
2.0
100
AcDbArc
 50
180.0
 51
219.032786723
  0
ARC
  5
497
100
AcDbEntity
  8
RUNDUNGEN
100
AcDbCircle
 62
7
  6
CONTINUOUS
 10
21.2680025002
 20
476.115870228
 40
2.0
100
AcDbArc
 50
90.0
 51
150.0
  0
ARC
  5
498
100
AcDbEntity
  8
RUNDUNGEN
100
AcDbCircle
 62
7
  6
CONTINUOUS
 10
169.1133019618
 20
473.615870228
 40
2.0
100
AcDbArc
 50
90.0
 51
180.0
  0
ARC
  5
499
100
AcDbEntity
  8
RUNDUNGEN
100
AcDbCircle
 62
7
  6
CONTINUOUS
 10
174.5133019618
 20
448.415870228
 40
2.0
100
AcDbArc
 50
90.0019445695
 51
179.999747933
  0
ARC
  5
49A
100
AcDbEntity
  8
RUNDUNGEN
100
AcDbCircle
 62
7
  6
CONTINUOUS
 10
128.6133019618
 20
475.115870228
 40
0.5
100
AcDbArc
 50
0.0
 51
90.0
  0
ARC
  5
49B
100
AcDbEntity
  8
RUNDUNGEN
100
AcDbCircle
 62
7
  6
CONTINUOUS
 10
562.2492040225
 20
413.115870228
 40
10.0
100
AcDbArc
 50
61.0449756281
 51
90.0
  0
ARC
  5
49C
100
AcDbEntity
  8
0
100
AcDbCircle
 62
7
  6
CONTINUOUS
 10
562.2492040225
 20
413.115870228
 40
10.0
100
AcDbArc
 50
61.0449756281
 51
90.0
  0
ARC
  5
49D
100
AcDbEntity
  8
RUNDUNGEN
100
AcDbCircle
 62
7
  6
CONTINUOUS
 10
687.1133019618
 20
421.115870228
 40
8.0
100
AcDbArc
 50
216.8698976458
 51
270.0
  0
ARC
  5
49E
100
AcDbEntity
  8
RUNDUNGEN
100
AcDbCircle
 62
7
  6
CONTINUOUS
 10
692.1133019618
 20
424.115870228
 40
6.0
100
AcDbArc
 50
89.9999999755
 51
270.0000000426
  0
ARC
  5
49F
100
AcDbEntity
  8
RUNDUNGEN
100
AcDbCircle
 62
7
  6
CONTINUOUS
 10
706.1133019618
 20
424.115870228
 40
6.0
100
AcDbArc
 50
269.9999999755
 51
90.0000000426
  0
ARC
  5
4A0
100
AcDbEntity
  8
RUNDUNGEN
100
AcDbCircle
 62
7
  6
CONTINUOUS
 10
548.1133019618
 20
438.415870228
 40
6.0
100
AcDbArc
 50
269.99908602
 51
0.0010434606
  0
ARC
  5
4A1
100
AcDbEntity
  8
RUNDUNGEN
100
AcDbCircle
 62
7
  6
CONTINUOUS
 10
400.1133019618
 20
438.415870228
 40
6.0
100
AcDbArc
 50
179.9987359421
 51
270.000156154
  0
ARC
  5
4A2
100
AcDbEntity
  8
RUNDUNGEN
100
AcDbCircle
 62
7
  6
CONTINUOUS
 10
402.6276309294
 20
426.615870228
 40
5.0
100
AcDbArc
 50
270.0
 51
290.0
  0
ARC
  5
4A3
100
AcDbEntity
  8
RUNDUNGEN
100
AcDbCircle
 62
7
  6
CONTINUOUS
 10
408.5121168657
 20
418.115870228
 40
5.0
100
AcDbArc
 50
90.0
 51
110.0
  0
ARC
  5
4A4
100
AcDbEntity
  8
0
100
AcDbCircle
 62
7
  6
CONTINUOUS
 10
677.1133019618
 20
430.615870228
 40
3.0
100
AcDbArc
 50
0.0
 51
90.0
  0
ARC
  5
4A5
100
AcDbEntity
  8
RUNDUNGEN
100
AcDbCircle
 62
7
  6
CONTINUOUS
 10
736.9293549804
 20
434.865870228
 40
3.0
100
AcDbArc
 50
21.758156386
 51
90.0
  0
ARC
  5
4A6
100
AcDbEntity
  8
RUNDUNGEN
100
AcDbCircle
 62
7
  6
CONTINUOUS
 10
683.1133019618
 20
418.115870228
 40
3.0
100
AcDbArc
 50
180.0
 51
216.8698976458
  0
ARC
  5
4A7
100
AcDbEntity
  8
RUNDUNGEN
100
AcDbCircle
 62
7
  6
CONTINUOUS
 10
742.1133019618
 20
424.0440734583
 40
2.0
100
AcDbArc
 50
330.0
 51
360.0
  0
ARC
  5
4A8
100
AcDbEntity
  8
RUNDUNGEN
100
AcDbCircle
 62
7
  6
CONTINUOUS
 10
742.1133019618
 20
427.9824502534
 40
2.0
100
AcDbArc
 50
0.0
 51
39.032786723
  0
ARC
  5
4A9
100
AcDbEntity
  8
RUNDUNGEN
100
AcDbCircle
 62
7
  6
CONTINUOUS
 10
736.9586014234
 20
415.115870228
 40
2.0
100
AcDbArc
 50
270.0
 51
330.0
  0
ARC
  5
4AA
100
AcDbEntity
  8
RUNDUNGEN
100
AcDbCircle
 62
7
  6
CONTINUOUS
 10
591.1133019618
 20
423.615870228
 40
2.0
100
AcDbArc
 50
270.0
 51
360.0
  0
ARC
  5
4AB
100
AcDbEntity
  8
RUNDUNGEN
100
AcDbCircle
 62
7
  6
CONTINUOUS
 10
568.0586790418
 20
423.615870228
 40
2.0
100
AcDbArc
 50
241.0449756281
 51
270.0
  0
ARC
  5
4AC
100
AcDbEntity
  8
RUNDUNGEN
100
AcDbCircle
 62
7
  6
CONTINUOUS
 10
548.1133019618
 20
452.815870228
 40
6.0
100
AcDbArc
 50
359.9988258568
 51
89.9993738383
  0
ARC
  5
4AD
100
AcDbEntity
  8
RUNDUNGEN
100
AcDbCircle
 62
7
  6
CONTINUOUS
 10
400.1133019618
 20
452.815870228
 40
6.0
100
AcDbArc
 50
89.9984805542
 51
180.0011377416
  0
ARC
  5
4AE
100
AcDbEntity
  8
RUNDUNGEN
100
AcDbCircle
 62
7
  6
CONTINUOUS
 10
562.2492040225
 20
478.115870228
 40
10.0
100
AcDbArc
 50
270.0
 51
298.9550243719
  0
ARC
  5
4AF
100
AcDbEntity
  8
0
100
AcDbCircle
 62
7
  6
CONTINUOUS
 10
562.2492040225
 20
478.115870228
 40
10.0
100
AcDbArc
 50
270.0
 51
298.9550243719
  0
ARC
  5
4B0
100
AcDbEntity
  8
RUNDUNGEN
100
AcDbCircle
 62
7
  6
CONTINUOUS
 10
402.6276309294
 20
464.615870228
 40
5.0
100
AcDbArc
 50
70.0
 51
90.0
  0
ARC
  5
4B1
100
AcDbEntity
  8
RUNDUNGEN
100
AcDbCircle
 62
7
  6
CONTINUOUS
 10
408.5121168657
 20
473.115870228
 40
5.0
100
AcDbArc
 50
250.0
 51
270.0
  0
ARC
  5
4B2
100
AcDbEntity
  8
RUNDUNGEN
100
AcDbCircle
 62
7
  6
CONTINUOUS
 10
568.0586790418
 20
467.615870228
 40
2.0
100
AcDbArc
 50
90.0
 51
118.9550243719
  0
ARC
  5
4B3
100
AcDbEntity
  8
BEZUGSACHSEN
100
AcDbCircle
 62
7
  6
CONTINUOUS
 10
763.8633019618
 20
445.615870228
 40
26.0
100
AcDbArc
 50
140.967213277
 51
158.241843614
  0
ARC
  5
4B4
100
AcDbEntity
  8
0
100
AcDbCircle
 62
7
  6
CONTINUOUS
 10
763.8633019618
 20
445.615870228
 40
26.0
100
AcDbArc
 50
201.758156386
 51
219.032786723
  0
ARC
  5
4B5
100
AcDbEntity
  8
BEZUGSACHSEN
100
AcDbCircle
 62
7
  6
CONTINUOUS
 10
703.8633019618
 20
445.615870228
 40
7.75
100
AcDbArc
 50
90.0
 51
270.0
  0
ARC
  5
4B6
100
AcDbEntity
  8
0
100
AcDbCircle
 62
7
  6
CONTINUOUS
 10
677.1133019618
 20
460.615870228
 40
3.0
100
AcDbArc
 50
270.0
 51
360.0
  0
ARC
  5
4B7
100
AcDbEntity
  8
BEZUGSACHSEN
100
AcDbCircle
 62
7
  6
CONTINUOUS
 10
736.9293549804
 20
456.365870228
 40
3.0
100
AcDbArc
 50
270.0
 51
338.241843614
  0
ARC
  5
4B8
100
AcDbEntity
  8
RUNDUNGEN
100
AcDbCircle
 62
7
  6
CONTINUOUS
 10
687.1133019618
 20
470.115870228
 40
8.0
100
AcDbArc
 50
90.0
 51
143.1301023542
  0
ARC
  5
4B9
100
AcDbEntity
  8
BEZUGSACHSEN
100
AcDbCircle
 62
7
  6
CONTINUOUS
 10
706.1133019618
 20
467.115870228
 40
6.0
100
AcDbArc
 50
269.9999999574
 51
90.0000000245
  0
ARC
  5
4BA
100
AcDbEntity
  8
BEZUGSACHSEN
100
AcDbCircle
 62
7
  6
CONTINUOUS
 10
692.1133019618
 20
467.115870228
 40
6.0
100
AcDbArc
 50
89.9999999574
 51
270.0000000245
  0
ARC
  5
4BB
100
AcDbEntity
  8
RUNDUNGEN
100
AcDbCircle
 62
7
  6
CONTINUOUS
 10
683.1133019618
 20
473.115870228
 40
3.0
100
AcDbArc
 50
143.1301023542
 51
180.0
  0
ARC
  5
4BC
100
AcDbEntity
  8
BEZUGSACHSEN
100
AcDbCircle
 62
7
  6
CONTINUOUS
 10
742.1133019618
 20
467.1876669977
 40
2.0
100
AcDbArc
 50
0.0
 51
30.0
  0
ARC
  5
4BD
100
AcDbEntity
  8
BEZUGSACHSEN
100
AcDbCircle
 62
7
  6
CONTINUOUS
 10
742.1133019618
 20
463.2492902026
 40
2.0
100
AcDbArc
 50
320.967213277
 51
360.0
  0
ARC
  5
4BE
100
AcDbEntity
  8
BEZUGSACHSEN
100
AcDbCircle
 62
7
  6
CONTINUOUS
 10
736.9586014234
 20
476.115870228
 40
2.0
100
AcDbArc
 50
30.0
 51
90.0
  0
ARC
  5
4BF
100
AcDbEntity
  8
RUNDUNGEN
100
AcDbCircle
 62
7
  6
CONTINUOUS
 10
591.1133019618
 20
467.615870228
 40
2.0
100
AcDbArc
 50
0.0
 51
90.0
  0
ARC
  5
4C0
100
AcDbEntity
  8
BEZUGSACHSEN
100
AcDbCircle
 62
7
  6
CONTINUOUS
 10
782.9865273871
 20
434.865870228
 40
3.0
100
AcDbArc
 50
90.0000065082
 51
179.9999861468
  0
ARC
  5
4C1
100
AcDbEntity
  8
BEZUGSACHSEN
100
AcDbCircle
 62
7
  6
CONTINUOUS
 10
782.9865273871
 20
416.115870228
 40
3.0
100
AcDbArc
 50
180.0
 51
270.0
  0
CIRCLE
  5
4C2
100
AcDbEntity
  8
BEZUGSACHSEN
100
AcDbCircle
 62
7
  6
CONTINUOUS
 10
775.9865273871
 20
445.615870228
 40
3.5
  0
ARC
  5
4C3
100
AcDbEntity
  8
RUNDUNGEN
100
AcDbCircle
 62
7
  6
CONTINUOUS
 10
782.9865273871
 20
456.365870228
 40
3.0
100
AcDbArc
 50
180.0000138532
 51
269.9999934918
  0
ARC
  5
4C4
100
AcDbEntity
  8
RUNDUNGEN
100
AcDbCircle
 62
7
  6
CONTINUOUS
 10
782.9865273871
 20
475.115870228
 40
3.0
100
AcDbArc
 50
90.0
 51
180.0
  0
ARC
  5
4C5
100
AcDbEntity
  8
BEZUGSACHSEN
100
AcDbCircle
 62
7
  6
CONTINUOUS
 10
814.9865273871
 20
434.865870228
 40
3.0
100
AcDbArc
 50
359.9999761312
 51
89.9999972367
  0
ARC
  5
4C6
100
AcDbEntity
  8
BEZUGSACHSEN
100
AcDbCircle
 62
7
  6
CONTINUOUS
 10
814.9865273871
 20
416.115870228
 40
3.0
100
AcDbArc
 50
270.0
 51
360.0
  0
ARC
  5
4C7
100
AcDbEntity
  8
RUNDUNGEN
100
AcDbCircle
 62
7
  6
CONTINUOUS
 10
798.9865273871
 20
445.615870228
 40
30.0
100
AcDbArc
 50
129.3156838258
 51
230.6843161726
  0
ARC
  5
4C8
100
AcDbEntity
  8
RUNDUNGEN
100
AcDbCircle
 62
7
  6
CONTINUOUS
 10
798.9865273871
 20
445.615870228
 40
30.0
100
AcDbArc
 50
309.3156838258
 51
50.6987038405
  0
ARC
  5
4C9
100
AcDbEntity
  8
RUNDUNGEN
100
AcDbCircle
 62
7
  6
CONTINUOUS
 10
798.9865273871
 20
445.615870228
 40
24.0
100
AcDbArc
 50
351.8168398134
 51
8.1831601733
  0
CIRCLE
  5
4CA
100
AcDbEntity
  8
BEZUGSACHSEN
100
AcDbCircle
 62
7
  6
CONTINUOUS
 10
821.9865273871
 20
445.615870228
 40
3.5
  0
ARC
  5
4CB
100
AcDbEntity
  8
RUNDUNGEN
100
AcDbCircle
 62
7
  6
CONTINUOUS
 10
814.9865273871
 20
456.365870228
 40
3.0
100
AcDbArc
 50
270.0000027633
 51
0.0000238688
  0
ARC
  5
4CC
100
AcDbEntity
  8
RUNDUNGEN
100
AcDbCircle
 62
7
  6
CONTINUOUS
 10
814.9865273871
 20
475.115870228
 40
3.0
100
AcDbArc
 50
0.0
 51
90.0
  0
ARC
  5
4CD
100
AcDbEntity
  8
0
100
AcDbCircle
 62
7
  6
CONTINUOUS
 10
81.1133019618
 20
164.2496702535
 40
3.0
100
AcDbArc
 50
90.0
 51
180.0
  0
ARC
  5
4CE
100
AcDbEntity
  8
RUNDUNGEN
100
AcDbCircle
 62
7
  6
CONTINUOUS
 10
75.1133019618
 20
163.2496702535
 40
3.0
100
AcDbArc
 50
270.0
 51
360.0
  0
ARC
  5
4CF
100
AcDbEntity
  8
RUNDUNGEN
100
AcDbCircle
 62
7
  6
CONTINUOUS
 10
367.1133019618
 20
158.2496702535
 40
3.0
100
AcDbArc
 50
180.0
 51
270.0
  0
ARC
  5
4D0
100
AcDbEntity
  8
RUNDUNGEN
100
AcDbCircle
 62
7
  6
CONTINUOUS
 10
125.1133019618
 20
151.2496702535
 40
2.0
100
AcDbArc
 50
180.0
 51
270.0
  0
ARC
  5
4D1
100
AcDbEntity
  8
RUNDUNGEN
100
AcDbCircle
 62
7
  6
CONTINUOUS
 10
26.8994643264
 20
162.2496702535
 40
2.0
100
AcDbArc
 50
227.0822885386
 51
270.0
  0
ARC
  5
4D2
100
AcDbEntity
  8
BEZUGSACHSEN
100
AcDbCircle
 62
7
  6
CONTINUOUS
 10
26.8994443353
 20
162.2496888419
 40
2.0
100
AcDbArc
 50
227.0830705669
 51
270.0005726993
  0
ARC
  5
4D3
100
AcDbEntity
  8
RUNDUNGEN
100
AcDbCircle
 62
7
  6
CONTINUOUS
 10
169.1133019618
 20
151.2496702535
 40
2.0
100
AcDbArc
 50
180.0
 51
270.0
  0
ARC
  5
4D4
100
AcDbEntity
  8
RUNDUNGEN
100
AcDbCircle
 62
7
  6
CONTINUOUS
 10
170.5133019618
 20
151.2496702535
 40
2.0
100
AcDbArc
 50
270.0
 51
314.5391971747
  0
ARC
  5
4D5
100
AcDbEntity
  8
RUNDUNGEN
100
AcDbCircle
 62
7
  6
CONTINUOUS
 10
128.6133019618
 20
149.7496702535
 40
0.5
100
AcDbArc
 50
270.0
 51
360.0
  0
ARC
  5
4D6
100
AcDbEntity
  8
RUNDUNGEN
100
AcDbCircle
 62
7
  6
CONTINUOUS
 10
32.1133019618
 20
179.2496702535
 40
18.0
100
AcDbArc
 50
132.9177114614
 51
227.0822885386
  0
ARC
  5
4D7
100
AcDbEntity
  8
BEZUGSACHSEN
100
AcDbCircle
 62
7
  6
CONTINUOUS
 10
32.1133019618
 20
179.2496702535
 40
18.0
100
AcDbArc
 50
213.2752693952
 51
217.427603789
  0
ARC
  5
4D8
100
AcDbEntity
  8
BEZUGSACHSEN
100
AcDbCircle
 62
7
  6
CONTINUOUS
 10
32.1133019618
 20
179.2496702535
 40
18.0
100
AcDbArc
 50
160.826768647
 51
203.7938675316
  0
ARC
  5
4D9
100
AcDbEntity
  8
BEZUGSACHSEN
100
AcDbCircle
 62
7
  6
CONTINUOUS
 10
32.1133019618
 20
179.2496702535
 40
18.0
100
AcDbArc
 50
208.0269647078
 51
208.5423562705
  0
ARC
  5
4DA
100
AcDbEntity
  8
BEZUGSACHSEN
100
AcDbCircle
 62
7
  6
CONTINUOUS
 10
32.1133019618
 20
179.2496702535
 40
18.0
100
AcDbArc
 50
138.2201467797
 51
142.4077974495
  0
ARC
  5
4DB
100
AcDbEntity
  8
BEZUGSACHSEN
100
AcDbCircle
 62
7
  6
CONTINUOUS
 10
32.1133019618
 20
179.2496702535
 40
18.0
100
AcDbArc
 50
146.5822959602
 51
159.3149198247
  0
ARC
  5
4DC
100
AcDbEntity
  8
0
100
AcDbCircle
 62
7
  6
CONTINUOUS
 10
81.1133019618
 20
194.2496702535
 40
3.0
100
AcDbArc
 50
180.0
 51
270.0
  0
ARC
  5
4DD
100
AcDbEntity
  8
RUNDUNGEN
100
AcDbCircle
 62
7
  6
CONTINUOUS
 10
75.1133019618
 20
195.2496702535
 40
3.0
100
AcDbArc
 50
0.0
 51
90.0
  0
ARC
  5
4DE
100
AcDbEntity
  8
RUNDUNGEN
100
AcDbCircle
 62
7
  6
CONTINUOUS
 10
178.960314073
 20
199.2496702535
 40
10.0
100
AcDbArc
 50
55.0
 51
90.0
  0
ARC
  5
4DF
100
AcDbEntity
  8
RUNDUNGEN
100
AcDbCircle
 62
7
  6
CONTINUOUS
 10
125.1133019618
 20
207.2496702535
 40
2.0
100
AcDbArc
 50
90.0
 51
180.0
  0
ARC
  5
4E0
100
AcDbEntity
  8
RUNDUNGEN
100
AcDbCircle
 62
7
  6
CONTINUOUS
 10
26.8994643264
 20
196.2496702535
 40
2.0
100
AcDbArc
 50
90.0
 51
132.9177114614
  0
ARC
  5
4E1
100
AcDbEntity
  8
BEZUGSACHSEN
100
AcDbCircle
 62
7
  6
CONTINUOUS
 10
26.8994643264
 20
196.2496702535
 40
2.0
100
AcDbArc
 50
90.0
 51
132.9177114614
  0
ARC
  5
4E2
100
AcDbEntity
  8
RUNDUNGEN
100
AcDbCircle
 62
7
  6
CONTINUOUS
 10
169.1133019618
 20
207.2496702535
 40
2.0
100
AcDbArc
 50
90.0
 51
180.0
  0
ARC
  5
4E3
100
AcDbEntity
  8
RUNDUNGEN
100
AcDbCircle
 62
7
  6
CONTINUOUS
 10
128.6133019618
 20
208.7496702535
 40
0.5
100
AcDbArc
 50
0.0
 51
90.0
  0
ARC
  5
4E4
100
AcDbEntity
  8
RUNDUNGEN
100
AcDbCircle
 62
7
  6
CONTINUOUS
 10
195.9773999012
 20
211.7496702535
 40
10.0
100
AcDbArc
 50
235.0
 51
270.0
  0
ARC
  5
4E5
100
AcDbEntity
  8
RUNDUNGEN
100
AcDbCircle
 62
7
  6
CONTINUOUS
 10
355.5989729942
 20
198.2496702535
 40
5.0
100
AcDbArc
 50
90.0
 51
110.0
  0
ARC
  5
4E6
100
AcDbEntity
  8
RUNDUNGEN
100
AcDbCircle
 62
7
  6
CONTINUOUS
 10
349.714487058
 20
206.7496702535
 40
5.0
100
AcDbArc
 50
270.0
 51
290.0
  0
ARC
  5
4E7
100
AcDbEntity
  8
0
100
AcDbCircle
 62
7
  6
CONTINUOUS
 10
562.2492040225
 20
146.7496702535
 40
10.0
100
AcDbArc
 50
61.0449756281
 51
90.0
  0
ARC
  5
4E8
100
AcDbEntity
  8
0
100
AcDbCircle
 62
7
  6
CONTINUOUS
 10
677.1133019618
 20
164.2496702535
 40
3.0
100
AcDbArc
 50
0.0
 51
90.0
  0
ARC
  5
4E9
100
AcDbEntity
  8
RUNDUNGEN
100
AcDbCircle
 62
7
  6
CONTINUOUS
 10
683.1133019618
 20
163.2496702535
 40
3.0
100
AcDbArc
 50
180.0
 51
270.0
  0
ARC
  5
4EA
100
AcDbEntity
  8
RUNDUNGEN
100
AcDbCircle
 62
7
  6
CONTINUOUS
 10
557.1133019618
 20
159.7496702535
 40
3.0
100
AcDbArc
 50
180.0
 51
270.0
  0
ARC
  5
4EB
100
AcDbEntity
  8
RUNDUNGEN
100
AcDbCircle
 62
7
  6
CONTINUOUS
 10
391.1133019618
 20
158.2496702535
 40
3.0
100
AcDbArc
 50
270.0
 51
360.0
  0
ARC
  5
4EC
100
AcDbEntity
  8
RUNDUNGEN
100
AcDbCircle
 62
7
  6
CONTINUOUS
 10
731.3271395972
 20
162.2496702535
 40
2.0
100
AcDbArc
 50
269.9994273007
 51
312.9177114614
  0
ARC
  5
4ED
100
AcDbEntity
  8
BEZUGSACHSEN
100
AcDbCircle
 62
7
  6
CONTINUOUS
 10
731.3271595884
 20
162.2496888419
 40
2.0
100
AcDbArc
 50
269.9994273007
 51
312.9169294331
  0
ARC
  5
4EE
100
AcDbEntity
  8
RUNDUNGEN
100
AcDbCircle
 62
7
  6
CONTINUOUS
 10
591.1133019618
 20
157.2496702535
 40
2.0
100
AcDbArc
 50
270.0
 51
360.0
  0
ARC
  5
4EF
100
AcDbEntity
  8
RUNDUNGEN
100
AcDbCircle
 62
7
  6
CONTINUOUS
 10
568.0586790418
 20
157.2496702535
 40
2.0
100
AcDbArc
 50
241.0449756281
 51
270.0
  0
CIRCLE
  5
4F0
100
AcDbEntity
  8
0
100
AcDbCircle
 62
7
  6
CONTINUOUS
 10
379.1133019618
 20
179.2496702535
 40
20.0
  0
CIRCLE
  5
4F1
100
AcDbEntity
  8
0
100
AcDbCircle
 62
7
  6
CONTINUOUS
 10
379.1133019618
 20
179.2496702535
 40
9.6076951546
  0
ARC
  5
4F2
100
AcDbEntity
  8
RUNDUNGEN
100
AcDbCircle
 62
7
  6
CONTINUOUS
 10
402.6276309294
 20
198.2496702535
 40
5.0
100
AcDbArc
 50
70.0
 51
90.0
  0
ARC
  5
4F3
100
AcDbEntity
  8
RUNDUNGEN
100
AcDbCircle
 62
7
  6
CONTINUOUS
 10
408.5121168657
 20
206.7496702535
 40
5.0
100
AcDbArc
 50
250.0
 51
270.0
  0
ARC
  5
4F4
100
AcDbEntity
  8
0
100
AcDbCircle
 62
7
  6
CONTINUOUS
 10
677.1133019618
 20
194.2496702535
 40
3.0
100
AcDbArc
 50
270.0
 51
360.0
  0
ARC
  5
4F5
100
AcDbEntity
  8
RUNDUNGEN
100
AcDbCircle
 62
7
  6
CONTINUOUS
 10
683.1133019618
 20
195.2496702535
 40
3.0
100
AcDbArc
 50
90.0
 51
180.0
  0
ARC
  5
4F6
100
AcDbEntity
  8
RUNDUNGEN
100
AcDbCircle
 62
7
  6
CONTINUOUS
 10
726.1133019618
 20
179.2496702535
 40
18.0
100
AcDbArc
 50
37.5922025505
 51
41.7798532203
  0
ARC
  5
4F7
100
AcDbEntity
  8
RUNDUNGEN
100
AcDbCircle
 62
7
  6
CONTINUOUS
 10
726.1133019618
 20
179.2496702535
 40
18.0
100
AcDbArc
 50
322.5767935667
 51
33.4177040398
  0
ARC
  5
4F8
100
AcDbEntity
  8
BEZUGSACHSEN
100
AcDbCircle
 62
7
  6
CONTINUOUS
 10
726.1133019618
 20
179.2496702535
 40
18.0
100
AcDbArc
 50
312.9177114614
 51
47.0822885386
  0
ARC
  5
4F9
100
AcDbEntity
  8
0
100
AcDbCircle
 62
7
  6
CONTINUOUS
 10
562.2492040225
 20
211.7496702535
 40
10.0
100
AcDbArc
 50
270.0
 51
298.9550243719
  0
ARC
  5
4FA
100
AcDbEntity
  8
RUNDUNGEN
100
AcDbCircle
 62
7
  6
CONTINUOUS
 10
731.3271395972
 20
196.2496702535
 40
2.0
100
AcDbArc
 50
47.0822885386
 51
90.0
  0
ARC
  5
4FB
100
AcDbEntity
  8
BEZUGSACHSEN
100
AcDbCircle
 62
7
  6
CONTINUOUS
 10
731.3271395972
 20
196.2496702535
 40
2.0
100
AcDbArc
 50
47.0822885386
 51
90.0
  0
ARC
  5
4FC
100
AcDbEntity
  8
RUNDUNGEN
100
AcDbCircle
 62
7
  6
CONTINUOUS
 10
591.1133019618
 20
201.2496702535
 40
2.0
100
AcDbArc
 50
0.0
 51
90.0
  0
ARC
  5
4FD
100
AcDbEntity
  8
RUNDUNGEN
100
AcDbCircle
 62
7
  6
CONTINUOUS
 10
568.0586790418
 20
201.2496702535
 40
2.0
100
AcDbArc
 50
90.0
 51
118.9550243719
  0
SPLINE
  5
4FE
100
AcDbEntity
  8
0
100
AcDbSpline
 62
7
  6
CONTINUOUS
 70
0
 71
3
 72
10
 73
6
 74
0
 42
0.0000001
 43
0.0000001
 44
0.0000000001
 40
0.0
 40
0.0
 40
0.0
 40
0.0
 40
0.2507435589
 40
0.5014666699
 40
1.0
 40
1.0
 40
1.0
 40
1.0
 10
81.1133019618
 20
434.9505057241
 30
0.0
 10
80.885824184
 20
434.9505057241
 30
0.0
 10
80.4285906497
 20
434.891082871
 30
0.0
 10
79.579491607
 20
434.5529374401
 30
0.0
 10
79.0518644896
 20
434.0797174409
 30
0.0
 10
78.7836556253
 20
433.7155506631
 30
0.0
  0
SPLINE
  5
4FF
100
AcDbEntity
  8
0
100
AcDbSpline
 62
7
  6
CONTINUOUS
 70
0
 71
3
 72
9
 73
5
 74
0
 42
0.0000001
 43
0.0000001
 44
0.0000000001
 40
0.0
 40
0.0
 40
0.0
 40
0.0
 40
0.5000292515
 40
1.0
 40
1.0
 40
1.0
 40
1.0
 10
280.1133019618
 20
434.9505057241
 30
0.0
 10
280.8100953946
 20
435.7344940435
 30
0.0
 10
282.1860692406
 20
437.3178047971
 30
0.0
 10
283.4970541735
 20
438.9577845699
 30
0.0
 10
284.1133019618
 20
439.8063952087
 30
0.0
  0
SPLINE
  5
500
100
AcDbEntity
  8
BEZUGSACHSEN
100
AcDbSpline
 62
7
  6
CONTINUOUS
 70
0
 71
3
 72
15
 73
11
 74
0
 42
0.0000001
 43
0.0000001
 44
0.0000000001
 40
0.0
 40
0.0
 40
0.0
 40
0.0
 40
0.0407068377
 40
0.1520161955
 40
0.3125627599
 40
0.5000027032
 40
0.6874422958
 40
0.8479871145
 40
0.9592941703
 40
1.0
 40
1.0
 40
1.0
 40
1.0
 10
389.6133019618
 20
469.615870228
 30
0.0
 10
389.3436891692
 20
469.4979257873
 30
0.0
 10
388.3316812398
 20
469.0688683968
 30
0.0
 10
386.2110872458
 20
468.282610046
 30
0.0
 10
382.989315333
 20
467.4399160651
 30
0.0
 10
379.1132453814
 20
467.0663224622
 30
0.0
 10
375.2371905248
 20
467.4399363537
 30
0.0
 10
372.0154523376
 20
468.2826317112
 30
0.0
 10
369.8948937383
 20
469.0688801253
 30
0.0
 10
368.8829080494
 20
469.4979286411
 30
0.0
 10
368.6133019618
 20
469.615870228
 30
0.0
  0
SPLINE
  5
501
100
AcDbEntity
  8
BEZUGSACHSEN
100
AcDbSpline
 62
7
  6
CONTINUOUS
 70
0
 71
3
 72
15
 73
11
 74
0
 42
0.0000001
 43
0.0000001
 44
0.0000000001
 40
0.0
 40
0.0
 40
0.0
 40
0.0
 40
0.0407059439
 40
0.1520133162
 40
0.3125583925
 40
0.4999978307
 40
0.6874375552
 40
0.8479839918
 40
0.9592932148
 40
1.0
 40
1.0
 40
1.0
 40
1.0
 10
368.6133019618
 20
421.615870228
 30
0.0
 10
368.88290881
 20
421.7338121395
 30
0.0
 10
369.8948973931
 20
422.1628618154
 30
0.0
 10
372.0154608145
 20
422.9491115866
 30
0.0
 10
375.2372023173
 20
423.7918065548
 30
0.0
 10
379.1132565918
 20
424.1654178156
 30
0.0
 10
382.9893226727
 20
423.7918227977
 30
0.0
 10
386.2110910406
 20
422.9491291161
 30
0.0
 10
388.3316828432
 20
422.1628714058
 30
0.0
 10
389.343689518
 20
421.7338145199
 30
0.0
 10
389.6133019618
 20
421.615870228
 30
0.0
  0
SPLINE
  5
502
100
AcDbEntity
  8
RUNDUNGEN
100
AcDbSpline
 62
7
  6
CONTINUOUS
 70
0
 71
3
 72
9
 73
5
 74
0
 42
0.0000001
 43
0.0000001
 44
0.0000000001
 40
0.0
 40
0.0
 40
0.0
 40
0.0
 40
0.6143062949
 40
1.0
 40
1.0
 40
1.0
 40
1.0
 10
779.9865272785
 20
461.1414043348
 30
0.0
 10
779.9865143304
 20
460.9705348346
 30
0.0
 10
779.9910856111
 20
460.6923857919
 30
0.0
 10
779.9870362856
 20
460.4142468229
 30
0.0
 10
779.9865667795
 20
460.3069670177
 30
0.0
  0
SPLINE
  5
503
100
AcDbEntity
  8
BEZUGSACHSEN
100
AcDbSpline
 62
7
  6
CONTINUOUS
 70
0
 71
3
 72
9
 73
5
 74
0
 42
0.0000001
 43
0.0000001
 44
0.0000000001
 40
0.0
 40
0.0
 40
0.0
 40
0.0
 40
0.6143062949
 40
1.0
 40
1.0
 40
1.0
 40
1.0
 10
779.9865272785
 20
430.0903361212
 30
0.0
 10
779.9865143304
 20
430.2612056214
 30
0.0
 10
779.9910856111
 20
430.5393546641
 30
0.0
 10
779.9870362856
 20
430.8174936331
 30
0.0
 10
779.9865667795
 20
430.9247734383
 30
0.0
  0
SPLINE
  5
504
100
AcDbEntity
  8
0
100
AcDbSpline
 62
7
  6
CONTINUOUS
 70
0
 71
3
 72
12
 73
8
 74
0
 42
0.0000001
 43
0.0000001
 44
0.0000000001
 40
0.0
 40
0.0
 40
0.0
 40
0.0
 40
0.1119201901
 40
0.2266731211
 40
0.4689589949
 40
0.7291302556
 40
1.0
 40
1.0
 40
1.0
 40
1.0
 10
81.1133019618
 20
187.8597969241
 30
0.0
 10
81.3148792101
 20
188.0516094609
 30
0.0
 10
81.7539275743
 20
188.4089752154
 30
0.0
 10
82.758789349
 20
189.0070257124
 30
0.0
 10
84.2177864141
 20
189.5251911652
 30
0.0
 10
86.1182262865
 20
189.8481157235
 30
0.0
 10
87.4398697447
 20
189.9150347573
 30
0.0
 10
88.1133019618
 20
189.9150347573
 30
0.0
  0
SPLINE
  5
505
100
AcDbEntity
  8
0
100
AcDbSpline
 62
7
  6
CONTINUOUS
 70
0
 71
3
 72
11
 73
7
 74
0
 42
0.0000001
 43
0.0000001
 44
0.0000000001
 40
0.0
 40
0.0
 40
0.0
 40
0.0
 40
0.2438009988
 40
0.4848311829
 40
0.7343999251
 40
1.0
 40
1.0
 40
1.0
 40
1.0
 10
78.7836556253
 20
184.7496702535
 30
0.0
 10
78.8954489934
 20
185.0481645774
 30
0.0
 10
79.1649085005
 20
185.6257026666
 30
0.0
 10
79.7113908841
 20
186.4195287668
 30
0.0
 10
80.3752139494
 20
187.1545105963
 30
0.0
 10
80.8617475021
 20
187.6204281488
 30
0.0
 10
81.1133019618
 20
187.8597969241
 30
0.0
  0
ENDSEC
  0
SECTION
  2
OBJECTS
  0
DICTIONARY
  5
C
100
AcDbDictionary
280
0
281
1
  3
ACAD_GROUP
350
D
  3
ACAD_MLINESTYLE
350
17
  3
ACAD_LAYOUT
350
1A
  3
ACAD_PLOTSETTINGS
350
19
  3
ACAD_PLOTSTYLENAME
350
E
  0
DICTIONARY
  5
D
102
{ACAD_REACTORS
330
C
102
}
100
AcDbDictionary
280
0
281
1
  0
ACDBDICTIONARYWDFLT
  5
E
102
{ACAD_REACTORS
330
C
102
}
100
AcDbDictionary
281
1
  3
Normal
350
F
100
AcDbDictionaryWithDefault
340
F
  0
DICTIONARY
  5
17
102
{ACAD_REACTORS
330
C
102
}
100
AcDbDictionary
280
0
281
1
  3
Standard
350
18
  0
DICTIONARY
  5
19
102
{ACAD_REACTORS
330
C
102
}
100
AcDbDictionary
281
1
  0
DICTIONARY
  5
1A
102
{ACAD_REACTORS
330
C
102
}
100
AcDbDictionary
281
1
  3
Model
350
506
  3
Layout1
350
507
  0
ACDBPLACEHOLDER
  5
F
102
{ACAD_REACTORS
330
E
102
}
  0
MLINESTYLE
  5
18
102
{ACAD_REACTORS
330
17
102
}
100
AcDbMlineStyle
  2
STANDARD
 70
0
  3

 62
256
 51
90.0
 52
90.0
 71
2
 49
0.5
 62
256
  6
BYLAYER
 49
-0.5
 62
256
  6
BYLAYER
  0
LAYOUT
  5
506
102
{ACAD_REACTORS
330
1A
102
}
100
AcDbPlotSettings
  1

  2
none_device
  4
ISO_A1_(594.00_x_841.00_MM)
  6

 40
0.0
 41
0.0
 42
0.0
 43
0.0
 44
841.0
 45
594.0
 46
0.0
 47
0.0
 48
0.0
 49
0.0
140
0.0
141
0.0
142
1.0
143
1.0
 70
1024
 72
1
 73
0
 74
0
  7

 75
0
147
1.0
148
0.0
149
0.0
100
AcDbLayout
  1
Model
 70
0
 71
0
 10
0.0
 20
0.0
 11
841.0
 21
594.0
 12
0.0
 22
0.0
 32
0.0
 14
0.0
 24
0.0
 34
0.0
 15
0.0
 25
0.0
 35
0.0
146
0.0
 13
0.0
 23
0.0
 33
0.0
 16
1.0
 26
0.0
 36
0.0
 17
0.0
 27
1.0
 37
0.0
 76
0
330
20F
345
0
346
0
  0
LAYOUT
  5
507
102
{ACAD_REACTORS
330
1A
102
}
100
AcDbPlotSettings
  1

  2
none_device
  4
ISO_A1_(594.00_x_841.00_MM)
  6

 40
0.0
 41
0.0
 42
0.0
 43
0.0
 44
841.0
 45
594.0
 46
0.0
 47
0.0
 48
0.0
 49
0.0
140
0.0
141
0.0
142
1.0
143
1.0
 70
0
 72
1
 73
0
 74
0
  7

 75
0
147
1.0
148
0.0
149
0.0
100
AcDbLayout
  1
Layout1
 70
0
 71
1
 10
0.0
 20
0.0
 11
841.0
 21
594.0
 12
0.0
 22
0.0
 32
0.0
 14
0.0
 24
0.0
 34
0.0
 15
0.0
 25
0.0
 35
0.0
146
0.0
 13
0.0
 23
0.0
 33
0.0
 16
1.0
 26
0.0
 36
0.0
 17
0.0
 27
1.0
 37
0.0
 76
0
330
210
345
0
346
0
  0
ENDSEC
  0
EOF
