999
DXF file: ICE-CURT-K-10-GAKO_7904450_M34853-P-1.dxf
999
Pro/ENGINEER 2010140 by Parametric Technology Corporation
  0
SECTION
  2
HEADER
  9
$ACADVER
  1
AC1015
  9
$DWGCODEPAGE
  3
ANSI_1252
  9
$EXTMAX
 10
841.0
 20
594.0
 30
0.0
  9
$EXTMIN
 10
0.0
 20
0.0
 30
0.0
  9
$LIMMIN
 10
0.0
 20
0.0
  9
$LIMMAX
 10
841.0
 20
594.0
  9
$VIEWCTR
 10
420.5
 20
297.0
  9
$VIEWSIZE
 40
594.0
  9
$CLAYER
  8
0
  9
$LTSCALE
 40
46.255
  9
$CELTYPE
  6
BYLAYER
  9
$DIMSCALE
 40
1.0
  9
$DIMASZ
 40
3.5
  9
$DIMEXO
 40
5.25625
  9
$DIMDLI
 40
31.958
  9
$DIMEXE
 40
15.138
  9
$DIMCEN
 40
7.569
  9
$DIMLFAC
 40
1.0
  9
$DIMBLK
  1
_FILLED
  9
$DIMTXT
 40
3.5
  9
$DIMTOL
 70
1
  9
$DIMLIM
 70
0
  9
$DIMTFAC
 40
1.0
  9
$DIMTP
 40
0.005
  9
$DIMTM
 40
0.005
  9
$PDMODE
 70
3
  9
$PDSIZE
 40
0.3125
  9
$HANDSEED
  5
44D
  9
$TILEMODE
 70
1
  9
$MEASUREMENT
 70
1
  9
$INSUNITS
 70
4
  0
ENDSEC
  0
SECTION
  2
CLASSES
  0
CLASS
  1
ACDBDICTIONARYWDFLT
  2
AcDbDictionaryWithDefault
  3
AutoCAD 2000
 90
0
280
0
281
0
  0
CLASS
  1
ACDBPLACEHOLDER
  2
AcDbPlaceHolder
  3
AutoCAD 2000
 90
0
280
0
281
0
  0
CLASS
  1
LAYOUT
  2
AcDbLayout
  3
AutoCAD 2000
 90
0
280
0
281
0
  0
ENDSEC
  0
SECTION
  2
TABLES
  0
TABLE
  2
VPORT
  5
8
100
AcDbSymbolTable
 70
2
  0
VPORT
  5
1F4
100
AcDbSymbolTableRecord
100
AcDbViewportTableRecord
  2
*ACTIVE
 70
0
 10
0.0
 20
0.0
 11
1.0
 21
1.0
 12
420.5
 22
297.0
 13
0.0
 23
0.0
 14
1.0
 24
1.0
 15
0.0
 25
0.0
 16
0.0
 26
0.0
 36
1.0
 17
0.0
 27
0.0
 37
0.0
 40
594.0
 41
1.4158249158
 42
50.0
 43
0.0
 44
0.0
 50
0.0
 51
0.0
 71
0
 72
100
 73
1
 74
1
 75
0
 76
0
 77
0
 78
0
  0
ENDTAB
  0
TABLE
  2
LTYPE
  5
5
100
AcDbSymbolTable
 70
6
  0
LTYPE
  5
14
100
AcDbSymbolTableRecord
100
AcDbLinetypeTableRecord
  2
BYBLOCK
 70
0
  3

 72
65
 73
0
 40
0.0
  0
LTYPE
  5
15
100
AcDbSymbolTableRecord
100
AcDbLinetypeTableRecord
  2
BYLAYER
 70
0
  3

 72
65
 73
0
 40
0.0
  0
LTYPE
  5
16
100
AcDbSymbolTableRecord
100
AcDbLinetypeTableRecord
  2
CONTINUOUS
 70
64
  3
Solid line
 72
65
 73
0
 40
0.0
  0
LTYPE
  5
1F5
100
AcDbSymbolTableRecord
100
AcDbLinetypeTableRecord
  2
CENTER
 70
64
  3
____ _ ____ _ ____ _ ____ _ ____ _ ____ _ ____
 72
65
 73
4
 40
0.6
 49
0.375
 74
0
 49
-0.075
 74
0
 49
0.075
 74
0
 49
-0.075
 74
0
  0
LTYPE
  5
1F6
100
AcDbSymbolTableRecord
100
AcDbLinetypeTableRecord
  2
HIDDEN
 70
64
  3
- - - - - - - - - - - - - - - - - - - -
 72
65
 73
2
 40
0.2
 49
0.1
 74
0
 49
-0.1
 74
0
  0
LTYPE
  5
1F7
100
AcDbSymbolTableRecord
100
AcDbLinetypeTableRecord
  2
PHANTOM
 70
64
  3
_____ _ _ _____ _ _ _____ _ _ _____
 72
65
 73
6
 40
0.8
 49
0.45
 74
0
 49
-0.05
 74
0
 49
0.1
 74
0
 49
-0.05
 74
0
 49
0.1
 74
0
 49
-0.05
 74
0
  0
LTYPE
  5
1F8
100
AcDbSymbolTableRecord
100
AcDbLinetypeTableRecord
  2
DOT
 70
64
  3
. . . . . . . . . . . . . . . . . . . .
 72
65
 73
2
 40
0.2
 49
0.1
 74
0
 49
-0.1
 74
0
  0
LTYPE
  5
1F9
100
AcDbSymbolTableRecord
100
AcDbLinetypeTableRecord
  2
DASHED
 70
64
  3
- - - - - - - - - - - - - - - - - - - -
 72
65
 73
2
 40
0.2
 49
0.1
 74
0
 49
-0.1
 74
0
  0
ENDTAB
  0
TABLE
  2
LAYER
  5
2
100
AcDbSymbolTable
 70
36
  0
LAYER
  5
10
100
AcDbSymbolTableRecord
100
AcDbLayerTableRecord
  2
0
 70
0
 62
7
  6
CONTINUOUS
370
-3
390
F
  0
LAYER
  5
1FA
100
AcDbSymbolTableRecord
100
AcDbLayerTableRecord
  2
DEFAULT_1
 70
0
 62
7
  6
CENTER
370
-3
390
F
  0
LAYER
  5
1FB
100
AcDbSymbolTableRecord
100
AcDbLayerTableRecord
  2
DEFAULT_2
 70
0
 62
8
  6
HIDDEN
370
-3
390
F
  0
LAYER
  5
1FC
100
AcDbSymbolTableRecord
100
AcDbLayerTableRecord
  2
DEFAULT_3
 70
0
 62
7
  6
PHANTOM
370
-3
390
F
  0
LAYER
  5
1FD
100
AcDbSymbolTableRecord
100
AcDbLayerTableRecord
  2
AUSFORMSCHRAEGEN
 70
0
 62
7
  6
CONTINUOUS
370
-3
390
F
  0
LAYER
  5
1FE
100
AcDbSymbolTableRecord
100
AcDbLayerTableRecord
  2
BEZUGSACHSEN
 70
0
 62
7
  6
CONTINUOUS
370
-3
390
F
  0
LAYER
  5
1FF
100
AcDbSymbolTableRecord
100
AcDbLayerTableRecord
  2
BEZUGSEBENEN
 70
0
 62
7
  6
CONTINUOUS
370
-3
390
F
  0
LAYER
  5
200
100
AcDbSymbolTableRecord
100
AcDbLayerTableRecord
  2
BG_STARTBEZUEGE
 70
0
 62
7
  6
CONTINUOUS
370
-3
390
F
  0
LAYER
  5
201
100
AcDbSymbolTableRecord
100
AcDbLayerTableRecord
  2
FASEN
 70
0
 62
7
  6
CONTINUOUS
370
-3
390
F
  0
LAYER
  5
202
100
AcDbSymbolTableRecord
100
AcDbLayerTableRecord
  2
FLAECHEN
 70
0
 62
7
  6
CONTINUOUS
370
-3
390
F
  0
LAYER
  5
203
100
AcDbSymbolTableRecord
100
AcDbLayerTableRecord
  2
FLAECHENVERBUND
 70
0
 62
7
  6
CONTINUOUS
370
-3
390
F
  0
LAYER
  5
204
100
AcDbSymbolTableRecord
100
AcDbLayerTableRecord
  2
HILFEN
 70
0
 62
7
  6
CONTINUOUS
370
-3
390
F
  0
LAYER
  5
205
100
AcDbSymbolTableRecord
100
AcDbLayerTableRecord
  2
KONSTRUKTIONSELEMENTE
 70
0
 62
7
  6
CONTINUOUS
370
-3
390
F
  0
LAYER
  5
206
100
AcDbSymbolTableRecord
100
AcDbLayerTableRecord
  2
KURVEN
 70
0
 62
7
  6
CONTINUOUS
370
-3
390
F
  0
LAYER
  5
207
100
AcDbSymbolTableRecord
100
AcDbLayerTableRecord
  2
NORM
 70
0
 62
7
  6
CONTINUOUS
370
-3
390
F
  0
LAYER
  5
208
100
AcDbSymbolTableRecord
100
AcDbLayerTableRecord
  2
PLATZIERUNG
 70
0
 62
7
  6
CONTINUOUS
370
-3
390
F
  0
LAYER
  5
209
100
AcDbSymbolTableRecord
100
AcDbLayerTableRecord
  2
RUNDUNGEN
 70
0
 62
7
  6
CONTINUOUS
370
-3
390
F
  0
LAYER
  5
20A
100
AcDbSymbolTableRecord
100
AcDbLayerTableRecord
  2
TEIL_STARTBEZUEGE
 70
0
 62
7
  6
CONTINUOUS
370
-3
390
F
  0
LAYER
  5
20B
100
AcDbSymbolTableRecord
100
AcDbLayerTableRecord
  2
T_STARTBEZUEGE
 70
0
 62
7
  6
CONTINUOUS
370
-3
390
F
  0
LAYER
  5
20C
100
AcDbSymbolTableRecord
100
AcDbLayerTableRecord
  2
ZEICHNUNGSBEMASSUNGEN
 70
0
 62
7
  6
CONTINUOUS
370
-3
390
F
  0
ENDTAB
  0
TABLE
  2
STYLE
  5
3
100
AcDbSymbolTable
 70
1
  0
STYLE
  5
11
100
AcDbSymbolTableRecord
100
AcDbTextStyleTableRecord
  2
STANDARD
 70
0
 40
0.0
 41
0.7
 50
0.0
 71
0
 42
0.2
  3
txt
  4

  0
STYLE
  5
20D
100
AcDbSymbolTableRecord
100
AcDbTextStyleTableRecord
  2
TEXTSTYLE_1
 70
0
 40
0.0
 41
0.8
 50
0.0
 71
0
 42
0.2
  3
gdt
  4

  0
ENDTAB
  0
TABLE
  2
VIEW
  5
6
100
AcDbSymbolTable
 70
0
  0
ENDTAB
  0
TABLE
  2
UCS
  5
7
100
AcDbSymbolTable
 70
0
  0
ENDTAB
  0
TABLE
  2
APPID
  5
9
100
AcDbSymbolTable
 70
1
  0
APPID
  5
20E
100
AcDbSymbolTableRecord
100
AcDbRegAppTableRecord
  2
ACAD
 70
0
  0
ENDTAB
  0
TABLE
  2
BLOCK_RECORD
  5
1
100
AcDbSymbolTable
 70
0
  0
BLOCK_RECORD
  5
20F
100
AcDbSymbolTableRecord
100
AcDbBlockTableRecord
  2
*Model_Space
  0
BLOCK_RECORD
  5
210
100
AcDbSymbolTableRecord
100
AcDbBlockTableRecord
  2
*Paper_Space
  0
ENDTAB
  0
TABLE
  2
DIMSTYLE
  5
A
100
AcDbSymbolTable
 70
1
100
AcDbDimStyleTable
 71
0
  0
DIMSTYLE
105
211
100
AcDbSymbolTableRecord
100
AcDbDimStyleTableRecord
  2
STANDARD
 70
0
  3

  4

 40
1.0
 41
3.5
 42
0.0625
 43
0.38
 44
0.18
 45
0.0
 46
0.0
 47
0.005
 48
0.005
140
3.5
141
0.09
142
0.0
143
25.4
144
1.0
145
0.0
146
1.0
147
0.09
 71
1.0
 72
0.0
 73
0
 74
0
 75
0
 76
0
 77
1
 78
8
170
0
171
2
172
0
173
0
174
0
175
0
176
0
177
0
178
5
270
2
271
3
272
3
273
2
274
2
275
0
280
0
281
0
282
0
283
1
284
8
285
0
286
0
287
3
288
0
340
11
  0
ENDTAB
  0
ENDSEC
  0
SECTION
  2
BLOCKS
  0
BLOCK
  5
20
100
AcDbEntity
  8
0
100
AcDbBlockBegin
  2
*Model_Space
 70
0
 10
0.0
 20
0.0
 30
0.0
  3
*Model_Space
  1

  0
ENDBLK
  5
21
100
AcDbEntity
  8
0
100
AcDbBlockEnd
  0
BLOCK
  5
1C
100
AcDbEntity
  8
0
100
AcDbBlockBegin
  2
*Paper_Space
 70
0
 10
0.0
 20
0.0
 30
0.0
  3
*Paper_Space
  1

  0
ENDBLK
  5
1D
100
AcDbEntity
  8
0
100
AcDbBlockEnd
  0
ENDSEC
  0
SECTION
  2
ENTITIES
  0
MTEXT
  5
212
100
AcDbEntity
  8
0
100
AcDbMText
 62
5
  6
CONTINUOUS
  7
STANDARD
 71
2
 72
1
 10
292.3914272167
 20
429.9327981186
 30
0.0
 11
1.0
 21
0.0
 31
0.0
 44
0.9
  1
RUD\PICE\PCURT-K\P10
 40
5.0
 41
23.8095238095
  0
MTEXT
  5
213
100
AcDbEntity
  8
0
100
AcDbMText
 62
5
  6
CONTINUOUS
  7
STANDARD
 71
1
 72
1
 10
671.1378714553
 20
361.53078121
 30
0.0
 11
0.0
 21
1.0
 31
0.0
 44
0.9
  1
RUD
 40
5.0
 41
13.3333333333
  0
MTEXT
  5
214
100
AcDbEntity
  8
0
100
AcDbMText
 62
5
  6
CONTINUOUS
  7
STANDARD
 71
1
 72
1
 10
671.1385886871
 20
444.5750097428
 30
0.0
 11
0.0
 21
1.0
 31
0.0
 44
0.9
  1
ICE-CURT-K-10
 40
4.5
 41
44.6785714286
  0
MTEXT
  5
215
100
AcDbEntity
  8
0
100
AcDbMText
 62
5
  6
CONTINUOUS
  7
STANDARD
 71
1
 72
1
 10
326.3843786411
 20
171.4858473996
 30
0.0
 11
1.0
 21
0.0
 31
0.0
 44
0.9
  1
RUD ICE-CURT-K-10
 40
5.0
 41
65.9523809524
  0
LINE
  5
216
100
AcDbEntity
  8
0
100
AcDbLine
 62
7
  6
CONTINUOUS
 10
0.0
 20
0.0
 11
0.0
 21
594.0
  0
LINE
  5
217
100
AcDbEntity
  8
0
100
AcDbLine
 62
7
  6
CONTINUOUS
 10
0.0
 20
0.0
 11
841.0
 21
0.0
  0
LINE
  5
218
100
AcDbEntity
  8
0
100
AcDbLine
 62
7
  6
CONTINUOUS
 10
0.0
 20
594.0
 11
841.0
 21
594.0
  0
LINE
  5
219
100
AcDbEntity
  8
0
100
AcDbLine
 62
7
  6
CONTINUOUS
 10
841.0
 20
0.0
 11
841.0
 21
594.0
  0
LINE
  5
21A
100
AcDbEntity
  8
0
100
AcDbLine
 62
7
  6
CONTINUOUS
 10
41.8249933722
 20
399.2689382252
 11
41.8249933722
 21
401.2689389741
  0
LINE
  5
21B
100
AcDbEntity
  8
KONSTRUKTIONSELEMENTE
100
AcDbLine
 62
7
  6
CONTINUOUS
 10
41.8249933722
 20
431.2689388095
 11
41.8249933722
 21
433.2689395587
  0
LINE
  5
21C
100
AcDbEntity
  8
0
100
AcDbLine
 62
7
  6
CONTINUOUS
 10
50.3249933722
 20
422.3689388918
 11
50.3249933722
 21
410.1689388918
  0
LINE
  5
21D
100
AcDbEntity
  8
0
100
AcDbLine
 62
7
  6
CONTINUOUS
 10
63.3249933722
 20
422.3689388918
 11
63.3249933722
 21
410.1689388918
  0
LINE
  5
21E
100
AcDbEntity
  8
0
100
AcDbLine
 62
7
  6
CONTINUOUS
 10
65.7325021132
 20
402.2403998533
 11
65.7325021132
 21
401.2403998533
  0
LINE
  5
21F
100
AcDbEntity
  8
0
100
AcDbLine
 62
7
  6
CONTINUOUS
 10
65.7325021132
 20
400.6403998533
 11
65.7325021132
 21
396.2403998533
  0
LINE
  5
220
100
AcDbEntity
  8
0
100
AcDbLine
 62
7
  6
CONTINUOUS
 10
66.7325021132
 20
396.2403998533
 11
66.7325021132
 21
398.7403998533
  0
LINE
  5
221
100
AcDbEntity
  8
0
100
AcDbLine
 62
7
  6
CONTINUOUS
 10
66.7325021132
 20
399.7403998533
 11
66.7325021132
 21
400.6403998533
  0
LINE
  5
222
100
AcDbEntity
  8
0
100
AcDbLine
 62
7
  6
CONTINUOUS
 10
71.7325021132
 20
402.2403998533
 11
71.7325021132
 21
398.6403998533
  0
LINE
  5
223
100
AcDbEntity
  8
0
100
AcDbLine
 62
7
  6
CONTINUOUS
 10
72.9325021132
 20
398.6403998533
 11
72.9325021132
 21
402.2403998533
  0
LINE
  5
224
100
AcDbEntity
  8
0
100
AcDbLine
 62
7
  6
CONTINUOUS
 10
75.3325021132
 20
402.2403998533
 11
75.3325021132
 21
398.6403998533
  0
LINE
  5
225
100
AcDbEntity
  8
0
100
AcDbLine
 62
7
  6
CONTINUOUS
 10
76.5325021132
 20
398.6403998533
 11
76.5325021132
 21
402.2403998533
  0
LINE
  5
226
100
AcDbEntity
  8
KONSTRUKTIONSELEMENTE
100
AcDbLine
 62
7
  6
CONTINUOUS
 10
42.4948667345
 20
435.7689395521
 11
45.6702928338
 21
441.2689388918
  0
LINE
  5
227
100
AcDbEntity
  8
0
100
AcDbLine
 62
7
  6
CONTINUOUS
 10
45.6702928338
 20
391.2689388918
 11
42.4948667345
 21
396.7689382316
  0
LINE
  5
228
100
AcDbEntity
  8
0
100
AcDbLine
 62
7
  6
CONTINUOUS
 10
77.7325021132
 20
402.2403998533
 11
77.7325021132
 21
401.2403998533
  0
LINE
  5
229
100
AcDbEntity
  8
0
100
AcDbLine
 62
7
  6
CONTINUOUS
 10
77.7325021132
 20
400.6403998533
 11
77.7325021132
 21
396.2403998533
  0
LINE
  5
22A
100
AcDbEntity
  8
0
100
AcDbLine
 62
7
  6
CONTINUOUS
 10
78.9325021132
 20
397.2403998533
 11
78.9325021132
 21
400.6403998533
  0
LINE
  5
22B
100
AcDbEntity
  8
0
100
AcDbLine
 62
7
  6
CONTINUOUS
 10
81.4325021132
 20
399.9903998533
 11
81.4325021132
 21
398.4903998533
  0
LINE
  5
22C
100
AcDbEntity
  8
0
100
AcDbLine
 62
7
  6
CONTINUOUS
 10
82.6325021132
 20
398.4403998533
 11
82.6325021132
 21
400.0403998533
  0
LINE
  5
22D
100
AcDbEntity
  8
RUNDUNGEN
100
AcDbLine
 62
7
  6
CONTINUOUS
 10
90.8249933722
 20
399.2689388918
 11
90.8249933722
 21
411.2498353493
  0
LINE
  5
22E
100
AcDbEntity
  8
RUNDUNGEN
100
AcDbLine
 62
7
  6
CONTINUOUS
 10
90.8249933722
 20
421.2879984851
 11
90.8249933722
 21
433.2689388918
  0
LINE
  5
22F
100
AcDbEntity
  8
0
100
AcDbLine
 62
7
  6
CONTINUOUS
 10
68.6231010364
 20
398.2403998533
 11
69.7778015748
 21
396.2403998533
  0
LINE
  5
230
100
AcDbEntity
  8
0
100
AcDbLine
 62
7
  6
CONTINUOUS
 10
70.9325021132
 20
396.2403998533
 11
69.4197569615
 21
398.8605513148
  0
LINE
  5
231
100
AcDbEntity
  8
RUNDUNGEN
100
AcDbLine
 62
7
  6
CONTINUOUS
 10
125.8249933722
 20
440.2689388391
 11
125.8249933722
 21
392.2689389446
  0
LINE
  5
232
100
AcDbEntity
  8
RUNDUNGEN
100
AcDbLine
 62
7
  6
CONTINUOUS
 10
132.8249933722
 20
390.7689388918
 11
132.8249933722
 21
441.7689388918
  0
LINE
  5
233
100
AcDbEntity
  8
RUNDUNGEN
100
AcDbLine
 62
7
  6
CONTINUOUS
 10
154.3249933722
 20
439.2689388918
 11
154.3249933722
 21
393.2689388918
  0
LINE
  5
234
100
AcDbEntity
  8
RUNDUNGEN
100
AcDbLine
 62
7
  6
CONTINUOUS
 10
158.8249933722
 20
409.1231602812
 11
158.8249933722
 21
423.4147175025
  0
LINE
  5
235
100
AcDbEntity
  8
RUNDUNGEN
100
AcDbLine
 62
7
  6
CONTINUOUS
 10
168.253141379
 20
440.2689388918
 11
168.253141379
 21
423.4147175025
  0
LINE
  5
236
100
AcDbEntity
  8
RUNDUNGEN
100
AcDbLine
 62
7
  6
CONTINUOUS
 10
168.253141379
 20
409.1231602812
 11
168.253141379
 21
392.2689388918
  0
LINE
  5
237
100
AcDbEntity
  8
RUNDUNGEN
100
AcDbLine
 62
7
  6
CONTINUOUS
 10
180.8249933722
 20
421.2691642749
 11
180.8249933722
 21
411.268884807
  0
LINE
  5
238
100
AcDbEntity
  8
0
100
AcDbLine
 62
7
  6
CONTINUOUS
 10
282.2172982176
 20
309.2689388918
 11
301.4326885268
 21
309.2689388918
  0
LINE
  5
239
100
AcDbEntity
  8
0
100
AcDbLine
 62
7
  6
CONTINUOUS
 10
282.2172982176
 20
523.2689388918
 11
271.8249933722
 21
517.2689388918
  0
LINE
  5
23A
100
AcDbEntity
  8
0
100
AcDbLine
 62
7
  6
CONTINUOUS
 10
271.8249933722
 20
315.2689388918
 11
311.8249933722
 21
315.2689388918
  0
LINE
  5
23B
100
AcDbEntity
  8
0
100
AcDbLine
 62
7
  6
CONTINUOUS
 10
271.8249933722
 20
326.2689388918
 11
311.8249933722
 21
326.2689388918
  0
LINE
  5
23C
100
AcDbEntity
  8
0
100
AcDbLine
 62
7
  6
CONTINUOUS
 10
271.8249933722
 20
315.2689388918
 11
282.2172982176
 21
309.2689388918
  0
LINE
  5
23D
100
AcDbEntity
  8
0
100
AcDbLine
 62
7
  6
CONTINUOUS
 10
220.8249933722
 20
407.608684854
 11
220.8249933722
 21
406.2689388918
  0
LINE
  5
23E
100
AcDbEntity
  8
0
100
AcDbLine
 62
7
  6
CONTINUOUS
 10
220.8249933722
 20
411.2689388918
 11
220.8249933722
 21
426.2689388918
  0
LINE
  5
23F
100
AcDbEntity
  8
0
100
AcDbLine
 62
7
  6
CONTINUOUS
 10
280.4852474101
 20
341.2689388918
 11
303.1647393344
 21
341.2689388918
  0
LINE
  5
240
100
AcDbEntity
  8
0
100
AcDbLine
 62
7
  6
CONTINUOUS
 10
222.8249933722
 20
408.2689388924
 11
222.8249933722
 21
410.0239408934
  0
LINE
  5
241
100
AcDbEntity
  8
0
100
AcDbLine
 62
7
  6
CONTINUOUS
 10
222.8249933722
 20
411.2689388918
 11
222.8249933722
 21
424.2689388912
  0
LINE
  5
242
100
AcDbEntity
  8
0
100
AcDbLine
 62
7
  6
CONTINUOUS
 10
233.3249933722
 20
408.2689388918
 11
233.3249933722
 21
410.0239408934
  0
LINE
  5
243
100
AcDbEntity
  8
0
100
AcDbLine
 62
7
  6
CONTINUOUS
 10
233.3249933722
 20
411.2689388918
 11
233.3249933722
 21
424.2689388918
  0
LINE
  5
244
100
AcDbEntity
  8
0
100
AcDbLine
 62
7
  6
CONTINUOUS
 10
233.8249933722
 20
408.7692740694
 11
233.8249933722
 21
423.7686037143
  0
LINE
  5
245
100
AcDbEntity
  8
KONSTRUKTIONSELEMENTE
100
AcDbLine
 62
7
  6
CONTINUOUS
 10
222.8249933722
 20
408.2689388918
 11
220.8249933722
 21
406.2689388918
  0
LINE
  5
246
100
AcDbEntity
  8
FASEN
100
AcDbLine
 62
7
  6
CONTINUOUS
 10
233.8249933722
 20
408.7689388918
 11
233.3249933722
 21
408.2689388918
  0
LINE
  5
247
100
AcDbEntity
  8
0
100
AcDbLine
 62
7
  6
CONTINUOUS
 10
168.253141379
 20
392.2689388918
 11
174.1024931753
 21
396.3646991133
  0
LINE
  5
248
100
AcDbEntity
  8
0
100
AcDbLine
 62
7
  6
CONTINUOUS
 10
168.253141379
 20
440.2689388918
 11
174.1024931753
 21
436.1731786704
  0
LINE
  5
249
100
AcDbEntity
  8
KONSTRUKTIONSELEMENTE
100
AcDbLine
 62
7
  6
CONTINUOUS
 10
222.8249933722
 20
424.2689388918
 11
220.8249933722
 21
426.2689388918
  0
LINE
  5
24A
100
AcDbEntity
  8
FASEN
100
AcDbLine
 62
7
  6
CONTINUOUS
 10
233.8249933722
 20
423.7689388918
 11
233.3249933722
 21
424.2689388918
  0
LINE
  5
24B
100
AcDbEntity
  8
0
100
AcDbLine
 62
7
  6
CONTINUOUS
 10
271.8249933722
 20
517.2689388918
 11
271.8249933722
 21
506.2689388918
  0
LINE
  5
24C
100
AcDbEntity
  8
0
100
AcDbLine
 62
7
  6
CONTINUOUS
 10
271.8249933722
 20
326.2689388918
 11
271.8249933722
 21
315.2689388918
  0
LINE
  5
24D
100
AcDbEntity
  8
RUNDUNGEN
100
AcDbLine
 62
7
  6
CONTINUOUS
 10
275.8249933722
 20
421.2687497315
 11
275.8249933722
 21
411.2691167564
  0
LINE
  5
24E
100
AcDbEntity
  8
0
100
AcDbLine
 62
7
  6
CONTINUOUS
 10
311.8249933722
 20
506.2689388918
 11
303.1647393344
 21
491.2689388918
  0
LINE
  5
24F
100
AcDbEntity
  8
0
100
AcDbLine
 62
7
  6
CONTINUOUS
 10
267.6614248585
 20
435.3895536503
 11
268.3723909178
 21
435.6483241334
  0
LINE
  5
250
100
AcDbEntity
  8
RUNDUNGEN
100
AcDbLine
 62
7
  6
CONTINUOUS
 10
49.134394449
 20
389.2689388918
 11
80.8249933722
 21
389.2689388918
  0
LINE
  5
251
100
AcDbEntity
  8
RUNDUNGEN
100
AcDbLine
 62
7
  6
CONTINUOUS
 10
502.8249933722
 20
389.2689388918
 11
534.5155922955
 21
389.2689388918
  0
LINE
  5
252
100
AcDbEntity
  8
BEZUGSACHSEN
100
AcDbLine
 62
7
  6
CONTINUOUS
 10
127.8249933722
 20
390.2689388918
 11
132.3249933722
 21
390.2689388918
  0
LINE
  5
253
100
AcDbEntity
  8
RUNDUNGEN
100
AcDbLine
 62
7
  6
CONTINUOUS
 10
168.253141379
 20
392.2689388918
 11
155.3249933722
 21
392.2689388918
  0
LINE
  5
254
100
AcDbEntity
  8
0
100
AcDbLine
 62
7
  6
CONTINUOUS
 10
155.3249933722
 20
392.2689388918
 11
168.253141379
 21
392.2689388918
  0
LINE
  5
255
100
AcDbEntity
  8
0
100
AcDbLine
 62
7
  6
CONTINUOUS
 10
65.7325021132
 20
396.2403998533
 11
66.7325021132
 21
396.2403998533
  0
LINE
  5
256
100
AcDbEntity
  8
0
100
AcDbLine
 62
7
  6
CONTINUOUS
 10
69.7778015748
 20
396.2403998533
 11
70.9325021132
 21
396.2403998533
  0
LINE
  5
257
100
AcDbEntity
  8
0
100
AcDbLine
 62
7
  6
CONTINUOUS
 10
77.7325021132
 20
396.2403998533
 11
80.4325021132
 21
396.2403998533
  0
LINE
  5
258
100
AcDbEntity
  8
RUNDUNGEN
100
AcDbLine
 62
7
  6
CONTINUOUS
 10
429.3249933722
 20
396.7689388918
 11
408.8590608591
 21
396.7689388918
  0
LINE
  5
259
100
AcDbEntity
  8
BEZUGSACHSEN
100
AcDbLine
 62
7
  6
CONTINUOUS
 10
314.59355554
 20
396.7689388918
 11
299.3249933722
 21
396.7689388918
  0
LINE
  5
25A
100
AcDbEntity
  8
BEZUGSACHSEN
100
AcDbLine
 62
7
  6
CONTINUOUS
 10
284.3249933722
 20
396.7689388918
 11
269.0564312045
 21
396.7689388918
  0
LINE
  5
25B
100
AcDbEntity
  8
0
100
AcDbLine
 62
7
  6
CONTINUOUS
 10
269.0564312045
 20
396.7689388918
 11
284.3249933722
 21
396.7689388918
  0
LINE
  5
25C
100
AcDbEntity
  8
0
100
AcDbLine
 62
7
  6
CONTINUOUS
 10
299.3249933722
 20
396.7689388918
 11
314.59355554
 21
396.7689388918
  0
LINE
  5
25D
100
AcDbEntity
  8
0
100
AcDbLine
 62
7
  6
CONTINUOUS
 10
408.8590608591
 20
396.7689388918
 11
429.3249933722
 21
396.7689388918
  0
LINE
  5
25E
100
AcDbEntity
  8
0
100
AcDbLine
 62
7
  6
CONTINUOUS
 10
80.1825021132
 20
397.2403998533
 11
78.9325021132
 21
397.2403998533
  0
LINE
  5
25F
100
AcDbEntity
  8
0
100
AcDbLine
 62
7
  6
CONTINUOUS
 10
176.9703753571
 20
397.2689388918
 11
266.9773845719
 21
397.2689388918
  0
LINE
  5
260
100
AcDbEntity
  8
0
100
AcDbLine
 62
7
  6
CONTINUOUS
 10
316.6726021725
 20
397.2689388918
 11
406.6796113874
 21
397.2689388918
  0
LINE
  5
261
100
AcDbEntity
  8
0
100
AcDbLine
 62
7
  6
CONTINUOUS
 10
66.7325021132
 20
398.7403998533
 11
67.7570756326
 21
398.7403998533
  0
LINE
  5
262
100
AcDbEntity
  8
0
100
AcDbLine
 62
7
  6
CONTINUOUS
 10
68.3825021132
 20
399.7403998533
 11
66.7325021132
 21
399.7403998533
  0
LINE
  5
263
100
AcDbEntity
  8
0
100
AcDbLine
 62
7
  6
CONTINUOUS
 10
267.6614248585
 20
397.1483241334
 11
268.3723909178
 21
396.8895536503
  0
LINE
  5
264
100
AcDbEntity
  8
0
100
AcDbLine
 62
7
  6
CONTINUOUS
 10
303.1647393344
 20
341.2689388918
 11
311.8249933722
 21
326.2689388918
  0
LINE
  5
265
100
AcDbEntity
  8
0
100
AcDbLine
 62
7
  6
CONTINUOUS
 10
284.8249933722
 20
491.2689388918
 11
284.8249933722
 21
435.5821618488
  0
LINE
  5
266
100
AcDbEntity
  8
0
100
AcDbLine
 62
7
  6
CONTINUOUS
 10
284.8249933722
 20
396.9557155537
 11
284.8249933722
 21
341.2689388918
  0
LINE
  5
267
100
AcDbEntity
  8
0
100
AcDbLine
 62
7
  6
CONTINUOUS
 10
78.9325021132
 20
400.6403998533
 11
77.7325021132
 21
400.6403998533
  0
LINE
  5
268
100
AcDbEntity
  8
0
100
AcDbLine
 62
7
  6
CONTINUOUS
 10
66.7325021132
 20
400.6403998533
 11
65.7325021132
 21
400.6403998533
  0
LINE
  5
269
100
AcDbEntity
  8
0
100
AcDbLine
 62
7
  6
CONTINUOUS
 10
65.7325021132
 20
401.2403998533
 11
68.3825021132
 21
401.2403998533
  0
LINE
  5
26A
100
AcDbEntity
  8
0
100
AcDbLine
 62
7
  6
CONTINUOUS
 10
77.7325021132
 20
401.2403998533
 11
80.1825021132
 21
401.2403998533
  0
LINE
  5
26B
100
AcDbEntity
  8
0
100
AcDbLine
 62
7
  6
CONTINUOUS
 10
80.4325021132
 20
402.2403998533
 11
77.7325021132
 21
402.2403998533
  0
LINE
  5
26C
100
AcDbEntity
  8
0
100
AcDbLine
 62
7
  6
CONTINUOUS
 10
76.5325021132
 20
402.2403998533
 11
75.3325021132
 21
402.2403998533
  0
LINE
  5
26D
100
AcDbEntity
  8
0
100
AcDbLine
 62
7
  6
CONTINUOUS
 10
72.9325021132
 20
402.2403998533
 11
71.7325021132
 21
402.2403998533
  0
LINE
  5
26E
100
AcDbEntity
  8
0
100
AcDbLine
 62
7
  6
CONTINUOUS
 10
68.7825021132
 20
402.2403998533
 11
65.7325021132
 21
402.2403998533
  0
LINE
  5
26F
100
AcDbEntity
  8
RUNDUNGEN
100
AcDbLine
 62
7
  6
CONTINUOUS
 10
396.8249933722
 20
405.2689388918
 11
313.8250610901
 21
405.2689388918
  0
LINE
  5
270
100
AcDbEntity
  8
RUNDUNGEN
100
AcDbLine
 62
7
  6
CONTINUOUS
 10
269.8249295361
 20
405.2689388918
 11
186.8252531878
 21
405.2689388918
  0
LINE
  5
271
100
AcDbEntity
  8
0
100
AcDbLine
 62
7
  6
CONTINUOUS
 10
92.8249933722
 20
406.2689388918
 11
125.8249933722
 21
406.2689388918
  0
LINE
  5
272
100
AcDbEntity
  8
0
100
AcDbLine
 62
7
  6
CONTINUOUS
 10
132.8249933722
 20
406.2689388918
 11
154.3249933722
 21
406.2689388918
  0
LINE
  5
273
100
AcDbEntity
  8
0
100
AcDbLine
 62
7
  6
CONTINUOUS
 10
183.5114772197
 20
406.2689388918
 11
220.8249933722
 21
406.2689388918
  0
LINE
  5
274
100
AcDbEntity
  8
KONSTRUKTIONSELEMENTE
100
AcDbLine
 62
7
  6
CONTINUOUS
 10
374.8249933722
 20
406.2689388918
 11
400.1416181626
 21
406.2689388918
  0
LINE
  5
275
100
AcDbEntity
  8
KONSTRUKTIONSELEMENTE
100
AcDbLine
 62
7
  6
CONTINUOUS
 10
430.3249933722
 20
406.2689388918
 11
490.8249933722
 21
406.2689388918
  0
LINE
  5
276
100
AcDbEntity
  8
RUNDUNGEN
100
AcDbLine
 62
7
  6
CONTINUOUS
 10
96.8249933722
 20
407.608684854
 11
125.8249933722
 21
407.608684854
  0
LINE
  5
277
100
AcDbEntity
  8
RUNDUNGEN
100
AcDbLine
 62
7
  6
CONTINUOUS
 10
132.8249933722
 20
407.608684854
 11
154.3249933722
 21
407.608684854
  0
LINE
  5
278
100
AcDbEntity
  8
RUNDUNGEN
100
AcDbLine
 62
7
  6
CONTINUOUS
 10
182.0737183365
 20
407.608684854
 11
220.8249933722
 21
407.608684854
  0
LINE
  5
279
100
AcDbEntity
  8
KONSTRUKTIONSELEMENTE
100
AcDbLine
 62
7
  6
CONTINUOUS
 10
233.3249933722
 20
408.2689388918
 11
222.8249933722
 21
408.2689388918
  0
LINE
  5
27A
100
AcDbEntity
  8
KONSTRUKTIONSELEMENTE
100
AcDbLine
 62
7
  6
CONTINUOUS
 10
362.3249933722
 20
408.2689388918
 11
372.8249933722
 21
408.2689388918
  0
LINE
  5
27B
100
AcDbEntity
  8
0
100
AcDbLine
 62
7
  6
CONTINUOUS
 10
222.8249933722
 20
410.0239408934
 11
233.3249933722
 21
410.0239408934
  0
LINE
  5
27C
100
AcDbEntity
  8
RUNDUNGEN
100
AcDbLine
 62
7
  6
CONTINUOUS
 10
47.2795772106
 20
410.1689388918
 11
72.7249933722
 21
410.1689388918
  0
LINE
  5
27D
100
AcDbEntity
  8
RUNDUNGEN
100
AcDbLine
 62
7
  6
CONTINUOUS
 10
510.9249933722
 20
410.1689388918
 11
536.3704095339
 21
410.1689388918
  0
LINE
  5
27E
100
AcDbEntity
  8
RUNDUNGEN
100
AcDbLine
 62
7
  6
CONTINUOUS
 10
96.8249933722
 20
411.2689388918
 11
125.8249933722
 21
411.2689388918
  0
LINE
  5
27F
100
AcDbEntity
  8
RUNDUNGEN
100
AcDbLine
 62
7
  6
CONTINUOUS
 10
132.8249933722
 20
411.2689388918
 11
154.3249933722
 21
411.2689388918
  0
LINE
  5
280
100
AcDbEntity
  8
RUNDUNGEN
100
AcDbLine
 62
7
  6
CONTINUOUS
 10
180.8249933725
 20
411.2689388918
 11
220.8249933722
 21
411.2689388918
  0
LINE
  5
281
100
AcDbEntity
  8
0
100
AcDbLine
 62
7
  6
CONTINUOUS
 10
220.8249933722
 20
411.2689388918
 11
233.8249933722
 21
411.2689388918
  0
LINE
  5
282
100
AcDbEntity
  8
0
100
AcDbLine
 62
7
  6
CONTINUOUS
 10
298.8249933722
 20
491.2689388918
 11
298.8249933722
 21
435.5821603841
  0
LINE
  5
283
100
AcDbEntity
  8
0
100
AcDbLine
 62
7
  6
CONTINUOUS
 10
298.8249933722
 20
396.9557174454
 11
298.8249933722
 21
341.2689388918
  0
LINE
  5
284
100
AcDbEntity
  8
RUNDUNGEN
100
AcDbLine
 62
7
  6
CONTINUOUS
 10
307.8249933722
 20
411.2691198192
 11
307.8249933722
 21
421.2687499158
  0
LINE
  5
285
100
AcDbEntity
  8
0
100
AcDbLine
 62
7
  6
CONTINUOUS
 10
311.8249933722
 20
517.2689388918
 11
311.8249933722
 21
506.2689388918
  0
LINE
  5
286
100
AcDbEntity
  8
0
100
AcDbLine
 62
7
  6
CONTINUOUS
 10
311.8249933722
 20
326.2689388918
 11
311.8249933722
 21
315.2689388918
  0
LINE
  5
287
100
AcDbEntity
  8
RUNDUNGEN
100
AcDbLine
 62
7
  6
CONTINUOUS
 10
536.3700933135
 20
422.3689388918
 11
510.9249933722
 21
422.3689388918
  0
LINE
  5
288
100
AcDbEntity
  8
RUNDUNGEN
100
AcDbLine
 62
7
  6
CONTINUOUS
 10
72.7249933722
 20
422.3689388918
 11
47.279893405
 21
422.3689388918
  0
LINE
  5
289
100
AcDbEntity
  8
0
100
AcDbLine
 62
7
  6
CONTINUOUS
 10
372.8249933722
 20
424.2689388918
 11
362.3249933722
 21
424.2689388918
  0
LINE
  5
28A
100
AcDbEntity
  8
KONSTRUKTIONSELEMENTE
100
AcDbLine
 62
7
  6
CONTINUOUS
 10
233.3249933722
 20
424.2689388918
 11
222.8249933722
 21
424.2689388918
  0
LINE
  5
28B
100
AcDbEntity
  8
0
100
AcDbLine
 62
7
  6
CONTINUOUS
 10
490.8249933722
 20
426.2689388918
 11
430.3249933722
 21
426.2689388918
  0
LINE
  5
28C
100
AcDbEntity
  8
0
100
AcDbLine
 62
7
  6
CONTINUOUS
 10
400.1355628379
 20
426.2689388918
 11
374.8249933722
 21
426.2689388918
  0
LINE
  5
28D
100
AcDbEntity
  8
KONSTRUKTIONSELEMENTE
100
AcDbLine
 62
7
  6
CONTINUOUS
 10
220.8249933722
 20
426.2689388918
 11
183.5114600832
 21
426.2689388918
  0
LINE
  5
28E
100
AcDbEntity
  8
KONSTRUKTIONSELEMENTE
100
AcDbLine
 62
7
  6
CONTINUOUS
 10
154.3249933722
 20
426.2689388918
 11
132.8249933722
 21
426.2689388918
  0
LINE
  5
28F
100
AcDbEntity
  8
KONSTRUKTIONSELEMENTE
100
AcDbLine
 62
7
  6
CONTINUOUS
 10
125.8249933722
 20
426.2689388918
 11
92.8249933722
 21
426.2689388918
  0
LINE
  5
290
100
AcDbEntity
  8
RUNDUNGEN
100
AcDbLine
 62
7
  6
CONTINUOUS
 10
186.8251664581
 20
427.2689388918
 11
269.8248281554
 21
427.2689388918
  0
LINE
  5
291
100
AcDbEntity
  8
RUNDUNGEN
100
AcDbLine
 62
7
  6
CONTINUOUS
 10
313.8251585897
 20
427.2689388918
 11
396.8248191971
 21
427.2689388918
  0
LINE
  5
292
100
AcDbEntity
  8
0
100
AcDbLine
 62
7
  6
CONTINUOUS
 10
503.2174846313
 20
430.2974779304
 11
505.9174846313
 21
430.2974779304
  0
LINE
  5
293
100
AcDbEntity
  8
0
100
AcDbLine
 62
7
  6
CONTINUOUS
 10
507.1174846313
 20
430.2974779304
 11
508.3174846313
 21
430.2974779304
  0
LINE
  5
294
100
AcDbEntity
  8
0
100
AcDbLine
 62
7
  6
CONTINUOUS
 10
510.7174846313
 20
430.2974779304
 11
511.9174846313
 21
430.2974779304
  0
LINE
  5
295
100
AcDbEntity
  8
0
100
AcDbLine
 62
7
  6
CONTINUOUS
 10
514.8674846313
 20
430.2974779304
 11
517.9174846313
 21
430.2974779304
  0
LINE
  5
296
100
AcDbEntity
  8
0
100
AcDbLine
 62
7
  6
CONTINUOUS
 10
517.9174846313
 20
431.2974779304
 11
515.2674846313
 21
431.2974779304
  0
LINE
  5
297
100
AcDbEntity
  8
0
100
AcDbLine
 62
7
  6
CONTINUOUS
 10
505.9174846313
 20
431.2974779304
 11
503.4674846313
 21
431.2974779304
  0
LINE
  5
298
100
AcDbEntity
  8
0
100
AcDbLine
 62
7
  6
CONTINUOUS
 10
504.7174846313
 20
431.8974779304
 11
505.9174846313
 21
431.8974779304
  0
LINE
  5
299
100
AcDbEntity
  8
0
100
AcDbLine
 62
7
  6
CONTINUOUS
 10
516.9174846313
 20
431.8974779304
 11
517.9174846313
 21
431.8974779304
  0
LINE
  5
29A
100
AcDbEntity
  8
0
100
AcDbLine
 62
7
  6
CONTINUOUS
 10
515.2674846313
 20
432.7974779304
 11
516.9174846313
 21
432.7974779304
  0
LINE
  5
29B
100
AcDbEntity
  8
0
100
AcDbLine
 62
7
  6
CONTINUOUS
 10
516.9174846313
 20
433.7974779304
 11
515.8929111118
 21
433.7974779304
  0
LINE
  5
29C
100
AcDbEntity
  8
0
100
AcDbLine
 62
7
  6
CONTINUOUS
 10
176.9703753571
 20
435.2689388918
 11
266.9773845719
 21
435.2689388918
  0
LINE
  5
29D
100
AcDbEntity
  8
RUNDUNGEN
100
AcDbLine
 62
7
  6
CONTINUOUS
 10
316.6726021725
 20
435.2689388918
 11
406.6796113874
 21
435.2689388918
  0
LINE
  5
29E
100
AcDbEntity
  8
0
100
AcDbLine
 62
7
  6
CONTINUOUS
 10
316.6726021725
 20
435.2689388918
 11
406.6796113874
 21
435.2689388918
  0
LINE
  5
29F
100
AcDbEntity
  8
0
100
AcDbLine
 62
7
  6
CONTINUOUS
 10
503.4674846313
 20
435.2974779304
 11
504.7174846313
 21
435.2974779304
  0
LINE
  5
2A0
100
AcDbEntity
  8
RUNDUNGEN
100
AcDbLine
 62
7
  6
CONTINUOUS
 10
429.3249933722
 20
435.7689388918
 11
408.8590608591
 21
435.7689388918
  0
LINE
  5
2A1
100
AcDbEntity
  8
BEZUGSACHSEN
100
AcDbLine
 62
7
  6
CONTINUOUS
 10
314.59355554
 20
435.7689388918
 11
299.3249933722
 21
435.7689388918
  0
LINE
  5
2A2
100
AcDbEntity
  8
BEZUGSACHSEN
100
AcDbLine
 62
7
  6
CONTINUOUS
 10
284.3249933722
 20
435.7689388918
 11
269.0564312045
 21
435.7689388918
  0
LINE
  5
2A3
100
AcDbEntity
  8
0
100
AcDbLine
 62
7
  6
CONTINUOUS
 10
269.0564312045
 20
435.7689388918
 11
284.3249933722
 21
435.7689388918
  0
LINE
  5
2A4
100
AcDbEntity
  8
0
100
AcDbLine
 62
7
  6
CONTINUOUS
 10
299.3249933722
 20
435.7689388918
 11
314.59355554
 21
435.7689388918
  0
LINE
  5
2A5
100
AcDbEntity
  8
0
100
AcDbLine
 62
7
  6
CONTINUOUS
 10
408.8590608591
 20
435.7689388918
 11
429.3249933722
 21
435.7689388918
  0
LINE
  5
2A6
100
AcDbEntity
  8
0
100
AcDbLine
 62
7
  6
CONTINUOUS
 10
517.9174846313
 20
436.2974779304
 11
516.9174846313
 21
436.2974779304
  0
LINE
  5
2A7
100
AcDbEntity
  8
0
100
AcDbLine
 62
7
  6
CONTINUOUS
 10
513.8721851697
 20
436.2974779304
 11
512.7174846313
 21
436.2974779304
  0
LINE
  5
2A8
100
AcDbEntity
  8
0
100
AcDbLine
 62
7
  6
CONTINUOUS
 10
505.9174846313
 20
436.2974779304
 11
503.2174846313
 21
436.2974779304
  0
LINE
  5
2A9
100
AcDbEntity
  8
0
100
AcDbLine
 62
7
  6
CONTINUOUS
 10
280.4852474101
 20
341.2689388918
 11
271.8249933722
 21
326.2689388918
  0
LINE
  5
2AA
100
AcDbEntity
  8
0
100
AcDbLine
 62
7
  6
CONTINUOUS
 10
315.2775958266
 20
396.8895536503
 11
315.9885618859
 21
397.1483241334
  0
LINE
  5
2AB
100
AcDbEntity
  8
RUNDUNGEN
100
AcDbLine
 62
7
  6
CONTINUOUS
 10
168.253141379
 20
440.2689388918
 11
155.3249933722
 21
440.2689388918
  0
LINE
  5
2AC
100
AcDbEntity
  8
0
100
AcDbLine
 62
7
  6
CONTINUOUS
 10
155.3249933722
 20
440.2689388918
 11
168.253141379
 21
440.2689388918
  0
LINE
  5
2AD
100
AcDbEntity
  8
BEZUGSACHSEN
100
AcDbLine
 62
7
  6
CONTINUOUS
 10
127.8249933722
 20
442.2689388918
 11
132.3249933722
 21
442.2689388918
  0
LINE
  5
2AE
100
AcDbEntity
  8
RUNDUNGEN
100
AcDbLine
 62
7
  6
CONTINUOUS
 10
534.5155922955
 20
443.2689388918
 11
502.8249933722
 21
443.2689388918
  0
LINE
  5
2AF
100
AcDbEntity
  8
RUNDUNGEN
100
AcDbLine
 62
7
  6
CONTINUOUS
 10
80.8249933722
 20
443.2689388918
 11
49.134394449
 21
443.2689388918
  0
LINE
  5
2B0
100
AcDbEntity
  8
0
100
AcDbLine
 62
7
  6
CONTINUOUS
 10
315.2775958266
 20
435.6483241334
 11
315.9885618859
 21
435.3895536503
  0
LINE
  5
2B1
100
AcDbEntity
  8
0
100
AcDbLine
 62
7
  6
CONTINUOUS
 10
271.8249933722
 20
506.2689388918
 11
280.4852474101
 21
491.2689388918
  0
LINE
  5
2B2
100
AcDbEntity
  8
FASEN
100
AcDbLine
 62
7
  6
CONTINUOUS
 10
361.8249933722
 20
423.7689388918
 11
362.3249933722
 21
424.2689388918
  0
LINE
  5
2B3
100
AcDbEntity
  8
0
100
AcDbLine
 62
7
  6
CONTINUOUS
 10
374.8249933722
 20
426.2689388918
 11
372.8249933722
 21
424.2689388918
  0
LINE
  5
2B4
100
AcDbEntity
  8
FASEN
100
AcDbLine
 62
7
  6
CONTINUOUS
 10
361.8249933722
 20
408.7689388918
 11
362.3249933722
 21
408.2689388918
  0
LINE
  5
2B5
100
AcDbEntity
  8
KONSTRUKTIONSELEMENTE
100
AcDbLine
 62
7
  6
CONTINUOUS
 10
372.8249933722
 20
408.2689388918
 11
374.8249933722
 21
406.2689388918
  0
LINE
  5
2B6
100
AcDbEntity
  8
FASEN
100
AcDbLine
 62
7
  6
CONTINUOUS
 10
361.8249933722
 20
408.7689388918
 11
361.8249933722
 21
423.7689388918
  0
LINE
  5
2B7
100
AcDbEntity
  8
FASEN
100
AcDbLine
 62
7
  6
CONTINUOUS
 10
362.3249933722
 20
408.2689388918
 11
362.3249933722
 21
424.2689388918
  0
LINE
  5
2B8
100
AcDbEntity
  8
0
100
AcDbLine
 62
7
  6
CONTINUOUS
 10
372.8249933722
 20
408.2689388918
 11
372.8249933722
 21
424.2689388918
  0
LINE
  5
2B9
100
AcDbEntity
  8
0
100
AcDbLine
 62
7
  6
CONTINUOUS
 10
374.8249933722
 20
406.2689388918
 11
374.8249933722
 21
426.2689388918
  0
LINE
  5
2BA
100
AcDbEntity
  8
0
100
AcDbLine
 62
7
  6
CONTINUOUS
 10
280.4852474101
 20
491.2689388918
 11
303.1647393344
 21
491.2689388918
  0
LINE
  5
2BB
100
AcDbEntity
  8
0
100
AcDbLine
 62
7
  6
CONTINUOUS
 10
271.8249933722
 20
506.2689388918
 11
311.8249933722
 21
506.2689388918
  0
LINE
  5
2BC
100
AcDbEntity
  8
RUNDUNGEN
100
AcDbLine
 62
7
  6
CONTINUOUS
 10
402.8249933722
 20
421.268756986
 11
402.8249933722
 21
411.2691252531
  0
LINE
  5
2BD
100
AcDbEntity
  8
0
100
AcDbLine
 62
7
  6
CONTINUOUS
 10
311.8249933722
 20
315.2689388918
 11
301.4326885268
 21
309.2689388918
  0
LINE
  5
2BE
100
AcDbEntity
  8
0
100
AcDbLine
 62
7
  6
CONTINUOUS
 10
271.8249933722
 20
517.2689388918
 11
311.8249933722
 21
517.2689388918
  0
LINE
  5
2BF
100
AcDbEntity
  8
0
100
AcDbLine
 62
7
  6
CONTINUOUS
 10
282.2172982176
 20
523.2689388918
 11
301.4326885268
 21
523.2689388918
  0
LINE
  5
2C0
100
AcDbEntity
  8
0
100
AcDbLine
 62
7
  6
CONTINUOUS
 10
301.4326885268
 20
523.2689388918
 11
311.8249933722
 21
517.2689388918
  0
LINE
  5
2C1
100
AcDbEntity
  8
0
100
AcDbLine
 62
7
  6
CONTINUOUS
 10
408.8590608591
 20
435.7689388918
 11
408.8590608591
 21
396.7689388918
  0
LINE
  5
2C2
100
AcDbEntity
  8
RUNDUNGEN
100
AcDbLine
 62
7
  6
CONTINUOUS
 10
430.3249933722
 20
397.7689388918
 11
430.3249933722
 21
434.7689388918
  0
LINE
  5
2C3
100
AcDbEntity
  8
RUNDUNGEN
100
AcDbLine
 62
7
  6
CONTINUOUS
 10
492.8249933722
 20
433.2689388918
 11
492.8249933722
 21
421.2880423606
  0
LINE
  5
2C4
100
AcDbEntity
  8
RUNDUNGEN
100
AcDbLine
 62
7
  6
CONTINUOUS
 10
492.8249933722
 20
411.2498794727
 11
492.8249933722
 21
399.2689388918
  0
LINE
  5
2C5
100
AcDbEntity
  8
0
100
AcDbLine
 62
7
  6
CONTINUOUS
 10
512.7174846313
 20
436.2974779304
 11
514.2302297829
 21
433.6773264688
  0
LINE
  5
2C6
100
AcDbEntity
  8
0
100
AcDbLine
 62
7
  6
CONTINUOUS
 10
501.0174846313
 20
434.0974779304
 11
501.0174846313
 21
432.4974779304
  0
LINE
  5
2C7
100
AcDbEntity
  8
0
100
AcDbLine
 62
7
  6
CONTINUOUS
 10
502.2174846313
 20
432.5474779304
 11
502.2174846313
 21
434.0474779304
  0
LINE
  5
2C8
100
AcDbEntity
  8
0
100
AcDbLine
 62
7
  6
CONTINUOUS
 10
504.7174846313
 20
435.2974779304
 11
504.7174846313
 21
431.8974779304
  0
LINE
  5
2C9
100
AcDbEntity
  8
0
100
AcDbLine
 62
7
  6
CONTINUOUS
 10
505.9174846313
 20
430.2974779304
 11
505.9174846313
 21
431.2974779304
  0
LINE
  5
2CA
100
AcDbEntity
  8
0
100
AcDbLine
 62
7
  6
CONTINUOUS
 10
505.9174846313
 20
431.8974779304
 11
505.9174846313
 21
436.2974779304
  0
LINE
  5
2CB
100
AcDbEntity
  8
0
100
AcDbLine
 62
7
  6
CONTINUOUS
 10
507.1174846313
 20
433.8974779304
 11
507.1174846313
 21
430.2974779304
  0
LINE
  5
2CC
100
AcDbEntity
  8
0
100
AcDbLine
 62
7
  6
CONTINUOUS
 10
508.3174846313
 20
430.2974779304
 11
508.3174846313
 21
433.8974779304
  0
LINE
  5
2CD
100
AcDbEntity
  8
0
100
AcDbLine
 62
7
  6
CONTINUOUS
 10
510.7174846313
 20
433.8974779304
 11
510.7174846313
 21
430.2974779304
  0
LINE
  5
2CE
100
AcDbEntity
  8
0
100
AcDbLine
 62
7
  6
CONTINUOUS
 10
515.026885708
 20
434.2974779304
 11
513.8721851697
 21
436.2974779304
  0
LINE
  5
2CF
100
AcDbEntity
  8
0
100
AcDbLine
 62
7
  6
CONTINUOUS
 10
511.9174846313
 20
430.2974779304
 11
511.9174846313
 21
433.8974779304
  0
LINE
  5
2D0
100
AcDbEntity
  8
0
100
AcDbLine
 62
7
  6
CONTINUOUS
 10
516.9174846313
 20
436.2974779304
 11
516.9174846313
 21
433.7974779304
  0
LINE
  5
2D1
100
AcDbEntity
  8
0
100
AcDbLine
 62
7
  6
CONTINUOUS
 10
516.9174846313
 20
432.7974779304
 11
516.9174846313
 21
431.8974779304
  0
LINE
  5
2D2
100
AcDbEntity
  8
0
100
AcDbLine
 62
7
  6
CONTINUOUS
 10
517.9174846313
 20
430.2974779304
 11
517.9174846313
 21
431.2974779304
  0
LINE
  5
2D3
100
AcDbEntity
  8
0
100
AcDbLine
 62
7
  6
CONTINUOUS
 10
517.9174846313
 20
431.8974779304
 11
517.9174846313
 21
436.2974779304
  0
LINE
  5
2D4
100
AcDbEntity
  8
0
100
AcDbLine
 62
7
  6
CONTINUOUS
 10
520.3249933722
 20
410.1689388918
 11
520.3249933722
 21
422.3689388918
  0
LINE
  5
2D5
100
AcDbEntity
  8
KONSTRUKTIONSELEMENTE
100
AcDbLine
 62
7
  6
CONTINUOUS
 10
541.1551200099
 20
396.7689382315
 11
537.9796939106
 21
391.2689388918
  0
LINE
  5
2D6
100
AcDbEntity
  8
0
100
AcDbLine
 62
7
  6
CONTINUOUS
 10
537.9796939106
 20
441.2689388918
 11
541.15512001
 21
435.768939552
  0
LINE
  5
2D7
100
AcDbEntity
  8
0
100
AcDbLine
 62
7
  6
CONTINUOUS
 10
533.3249933722
 20
410.1689388918
 11
533.3249933722
 21
422.3689388918
  0
LINE
  5
2D8
100
AcDbEntity
  8
0
100
AcDbLine
 62
7
  6
CONTINUOUS
 10
541.8249933722
 20
433.2689395585
 11
541.8249933722
 21
431.2689387821
  0
LINE
  5
2D9
100
AcDbEntity
  8
KONSTRUKTIONSELEMENTE
100
AcDbLine
 62
7
  6
CONTINUOUS
 10
541.8249933722
 20
401.2689390016
 11
541.8249933722
 21
399.268938225
  0
LINE
  5
2DA
100
AcDbEntity
  8
0
100
AcDbLine
 62
7
  6
CONTINUOUS
 10
663.7274055877
 20
309.2689388918
 11
682.9427958969
 21
309.2689388918
  0
LINE
  5
2DB
100
AcDbEntity
  8
0
100
AcDbLine
 62
7
  6
CONTINUOUS
 10
663.7274055877
 20
523.2689388918
 11
653.3351007423
 21
517.2689388918
  0
LINE
  5
2DC
100
AcDbEntity
  8
0
100
AcDbLine
 62
7
  6
CONTINUOUS
 10
653.3351007423
 20
315.2689388918
 11
693.3351007423
 21
315.2689388918
  0
LINE
  5
2DD
100
AcDbEntity
  8
0
100
AcDbLine
 62
7
  6
CONTINUOUS
 10
653.3351007423
 20
315.2689388918
 11
663.7274055877
 21
309.2689388918
  0
LINE
  5
2DE
100
AcDbEntity
  8
0
100
AcDbLine
 62
7
  6
CONTINUOUS
 10
653.3351007423
 20
326.2689388918
 11
693.3351007423
 21
326.2689388918
  0
LINE
  5
2DF
100
AcDbEntity
  8
0
100
AcDbLine
 62
7
  6
CONTINUOUS
 10
661.9954876502
 20
341.2689388918
 11
684.6747138345
 21
341.2689388918
  0
LINE
  5
2E0
100
AcDbEntity
  8
0
100
AcDbLine
 62
7
  6
CONTINUOUS
 10
693.3351007423
 20
506.2689388918
 11
684.6748467045
 21
491.2689388918
  0
LINE
  5
2E1
100
AcDbEntity
  8
0
100
AcDbLine
 62
7
  6
CONTINUOUS
 10
662.4351007423
 20
389.2689388918
 11
663.096717659
 21
389.2689388918
  0
LINE
  5
2E2
100
AcDbEntity
  8
0
100
AcDbLine
 62
7
  6
CONTINUOUS
 10
683.5734838256
 20
389.2689388918
 11
684.2351007423
 21
389.2689388918
  0
LINE
  5
2E3
100
AcDbEntity
  8
RUNDUNGEN
100
AcDbLine
 62
7
  6
CONTINUOUS
 10
662.4351007423
 20
389.2689388918
 11
684.2351007423
 21
389.2689388918
  0
LINE
  5
2E4
100
AcDbEntity
  8
0
100
AcDbLine
 62
7
  6
CONTINUOUS
 10
684.6748467045
 20
341.2689388918
 11
693.3351007423
 21
326.2689388918
  0
LWPOLYLINE
  5
2E5
100
AcDbEntity
  8
0
100
AcDbPolyline
 62
7
  6
CONTINUOUS
 90
5
 70
0
 10
658.4384419427
 20
404.13841044
 10
658.4411798165
 20
404.0630041692
 10
658.4433471148
 20
403.9662124
 10
658.444146104
 20
403.839552119
 10
658.4433292638
 20
403.6830894158
  0
LWPOLYLINE
  5
2E6
100
AcDbEntity
  8
RUNDUNGEN
100
AcDbPolyline
 62
7
  6
CONTINUOUS
 90
5
 70
0
 10
658.4375848072
 20
429.2630906448
 10
658.4433292638
 20
428.8547883679
 10
658.444146104
 20
428.6983256647
 10
658.4433471148
 20
428.5716653836
 10
658.4411798165
 20
428.4748736144
  0
LINE
  5
2E7
100
AcDbEntity
  8
0
100
AcDbLine
 62
7
  6
CONTINUOUS
 10
658.4351285075
 20
404.2370905367
 11
658.4350983325
 21
404.2395375693
  0
LINE
  5
2E8
100
AcDbEntity
  8
RUNDUNGEN
100
AcDbLine
 62
7
  6
CONTINUOUS
 10
658.4352632653
 20
429.5172122496
 11
658.4375848072
 21
429.2630906448
  0
LINE
  5
2E9
100
AcDbEntity
  8
0
100
AcDbLine
 62
7
  6
CONTINUOUS
 10
653.3351007423
 20
517.2689388918
 11
653.3351007423
 21
506.2689388918
  0
LINE
  5
2EA
100
AcDbEntity
  8
0
100
AcDbLine
 62
7
  6
CONTINUOUS
 10
653.3351007423
 20
326.2689388918
 11
653.3351007423
 21
315.2689388918
  0
LINE
  5
2EB
100
AcDbEntity
  8
RUNDUNGEN
100
AcDbLine
 62
7
  6
CONTINUOUS
 10
658.4351007423
 20
439.2689388918
 11
658.4351007423
 21
438.1001951092
  0
LINE
  5
2EC
100
AcDbEntity
  8
RUNDUNGEN
100
AcDbLine
 62
7
  6
CONTINUOUS
 10
658.4351007423
 20
404.1344371227
 11
658.4351007423
 21
402.9431749497
  0
LINE
  5
2ED
100
AcDbEntity
  8
KONSTRUKTIONSELEMENTE
100
AcDbLine
 62
7
  6
CONTINUOUS
 10
658.4351007423
 20
399.7659280573
 11
658.4351007423
 21
394.4376826745
  0
LINE
  5
2EE
100
AcDbEntity
  8
RUNDUNGEN
100
AcDbLine
 62
7
  6
CONTINUOUS
 10
658.4351007423
 20
394.4376826745
 11
658.4351007423
 21
393.2689388918
  0
LINE
  5
2EF
100
AcDbEntity
  8
0
100
AcDbLine
 62
7
  6
CONTINUOUS
 10
658.4351007423
 20
394.4376826745
 11
658.4351007423
 21
404.2370905367
  0
LINE
  5
2F0
100
AcDbEntity
  8
RUNDUNGEN
100
AcDbLine
 62
7
  6
CONTINUOUS
 10
658.4351007423
 20
404.2395380609
 11
658.4351007423
 21
432.7719497263
  0
LINE
  5
2F1
100
AcDbEntity
  8
KONSTRUKTIONSELEMENTE
100
AcDbLine
 62
7
  6
CONTINUOUS
 10
658.4351007423
 20
432.7719497263
 11
658.4351007423
 21
438.1001951092
  0
LINE
  5
2F2
100
AcDbEntity
  8
RUNDUNGEN
100
AcDbLine
 62
7
  6
CONTINUOUS
 10
658.4351285075
 20
428.300787247
 11
658.4350983325
 21
428.2983402144
  0
LWPOLYLINE
  5
2F3
100
AcDbEntity
  8
0
100
AcDbPolyline
 62
7
  6
CONTINUOUS
 90
3
 70
0
 10
658.4433292638
 20
403.6830894158
 10
658.4375848072
 20
403.2747871389
 10
658.4352632653
 20
403.0206655341
  0
LWPOLYLINE
  5
2F4
100
AcDbEntity
  8
RUNDUNGEN
100
AcDbPolyline
 62
7
  6
CONTINUOUS
 90
3
 70
0
 10
658.4411798165
 20
428.4748736144
 10
658.435883672
 20
428.3350775384
 10
658.4351080174
 20
428.2999074346
  0
LINE
  5
2F5
100
AcDbEntity
  8
0
100
AcDbLine
 62
7
  6
CONTINUOUS
 10
666.2851007423
 20
422.3689388918
 11
666.2851007423
 21
410.1689388918
  0
LINE
  5
2F6
100
AcDbEntity
  8
0
100
AcDbLine
 62
7
  6
CONTINUOUS
 10
666.3351007423
 20
491.2689388918
 11
666.3351007423
 21
443.2689388918
  0
LINE
  5
2F7
100
AcDbEntity
  8
0
100
AcDbLine
 62
7
  6
CONTINUOUS
 10
666.3351007423
 20
389.2689388918
 11
666.3351007423
 21
341.2689388918
  0
LINE
  5
2F8
100
AcDbEntity
  8
RUNDUNGEN
100
AcDbLine
 62
7
  6
CONTINUOUS
 10
660.4350936251
 20
410.1689388918
 11
686.2351078599
 21
410.1689388918
  0
LINE
  5
2F9
100
AcDbEntity
  8
0
100
AcDbLine
 62
7
  6
CONTINUOUS
 10
680.3351007423
 20
491.2689388918
 11
680.3351007423
 21
443.2689388918
  0
LINE
  5
2FA
100
AcDbEntity
  8
0
100
AcDbLine
 62
7
  6
CONTINUOUS
 10
680.3351007423
 20
389.2689388918
 11
680.3351007423
 21
341.2689388918
  0
LINE
  5
2FB
100
AcDbEntity
  8
0
100
AcDbLine
 62
7
  6
CONTINUOUS
 10
680.3851007423
 20
422.3689388918
 11
680.3851007423
 21
410.1689388918
  0
LINE
  5
2FC
100
AcDbEntity
  8
RUNDUNGEN
100
AcDbLine
 62
7
  6
CONTINUOUS
 10
686.2351078599
 20
422.3689388918
 11
660.4350936251
 21
422.3689388918
  0
LWPOLYLINE
  5
2FD
100
AcDbEntity
  8
RUNDUNGEN
100
AcDbPolyline
 62
7
  6
CONTINUOUS
 90
5
 70
0
 10
688.2343824208
 20
428.3339274559
 10
688.2290413354
 20
428.4724543964
 10
688.226966416
 20
428.5675629308
 10
688.2260184031
 20
428.6923860344
 10
688.2267467164
 20
428.8468802295
  0
LINE
  5
2FE
100
AcDbEntity
  8
RUNDUNGEN
100
AcDbLine
 62
7
  6
CONTINUOUS
 10
688.235053967
 20
428.3018551708
 11
688.2343824208
 21
428.3339274559
  0
LINE
  5
2FF
100
AcDbEntity
  8
RUNDUNGEN
100
AcDbLine
 62
7
  6
CONTINUOUS
 10
688.2351031521
 20
428.2983401891
 11
688.2350522644
 21
428.3015357168
  0
LWPOLYLINE
  5
300
100
AcDbEntity
  8
0
100
AcDbPolyline
 62
7
  6
CONTINUOUS
 90
5
 70
0
 10
688.2323914631
 20
403.2870593281
 10
688.2267467164
 20
403.6909975542
 10
688.2260184031
 20
403.8454917493
 10
688.226966416
 20
403.9703148528
 10
688.2290413354
 20
404.0654233873
  0
LINE
  5
301
100
AcDbEntity
  8
0
100
AcDbLine
 62
7
  6
CONTINUOUS
 10
688.2348892612
 20
403.0355480401
 11
688.2323914631
 21
403.2870593281
  0
LINE
  5
302
100
AcDbEntity
  8
KONSTRUKTIONSELEMENTE
100
AcDbLine
 62
7
  6
CONTINUOUS
 10
687.2226007423
 20
429.4439388918
 11
687.2226007423
 21
437.0939388918
  0
LINE
  5
303
100
AcDbEntity
  8
KONSTRUKTIONSELEMENTE
100
AcDbLine
 62
7
  6
CONTINUOUS
 10
688.2351007423
 20
438.1001951092
 11
688.2351007423
 21
432.7719497264
  0
LINE
  5
304
100
AcDbEntity
  8
RUNDUNGEN
100
AcDbLine
 62
7
  6
CONTINUOUS
 10
688.2351007423
 20
393.2689388918
 11
688.2351007423
 21
394.4376826745
  0
LINE
  5
305
100
AcDbEntity
  8
KONSTRUKTIONSELEMENTE
100
AcDbLine
 62
7
  6
CONTINUOUS
 10
688.2351007423
 20
394.4376826745
 11
688.2351007423
 21
399.7659280573
  0
LINE
  5
306
100
AcDbEntity
  8
0
100
AcDbLine
 62
7
  6
CONTINUOUS
 10
688.2351007423
 20
394.4376826745
 11
688.2351007423
 21
404.1126851245
  0
LINE
  5
307
100
AcDbEntity
  8
RUNDUNGEN
100
AcDbLine
 62
7
  6
CONTINUOUS
 10
688.2351007423
 20
402.9491306413
 11
688.2351007423
 21
432.7719497264
  0
LINE
  5
308
100
AcDbEntity
  8
RUNDUNGEN
100
AcDbLine
 62
7
  6
CONTINUOUS
 10
688.2351007423
 20
438.1001951092
 11
688.2351007423
 21
439.2689388918
  0
LWPOLYLINE
  5
309
100
AcDbEntity
  8
RUNDUNGEN
100
AcDbPolyline
 62
7
  6
CONTINUOUS
 90
3
 70
0
 10
688.2267467164
 20
428.8468802295
 10
688.2323914631
 20
429.2508184556
 10
688.2348892612
 20
429.5023297436
  0
LINE
  5
30A
100
AcDbEntity
  8
0
100
AcDbLine
 62
7
  6
CONTINUOUS
 10
688.2351031521
 20
404.2395375946
 11
688.2350522644
 21
404.2363420669
  0
LWPOLYLINE
  5
30B
100
AcDbEntity
  8
0
100
AcDbPolyline
 62
7
  6
CONTINUOUS
 90
3
 70
0
 10
688.2290413354
 20
404.0654233873
 10
688.2343824208
 20
404.2039503277
 10
688.235053967
 20
404.2360226128
  0
LINE
  5
30C
100
AcDbEntity
  8
0
100
AcDbLine
 62
7
  6
CONTINUOUS
 10
693.3351007423
 20
517.2689388918
 11
693.3351007423
 21
506.2689388918
  0
LINE
  5
30D
100
AcDbEntity
  8
0
100
AcDbLine
 62
7
  6
CONTINUOUS
 10
693.3351007423
 20
326.2689388918
 11
693.3351007423
 21
315.2689388918
  0
LINE
  5
30E
100
AcDbEntity
  8
0
100
AcDbLine
 62
7
  6
CONTINUOUS
 10
661.9953547802
 20
341.2689388918
 11
653.3351007423
 21
326.2689388918
  0
LINE
  5
30F
100
AcDbEntity
  8
RUNDUNGEN
100
AcDbLine
 62
7
  6
CONTINUOUS
 10
684.2351007423
 20
443.2689388918
 11
662.4351007423
 21
443.2689388918
  0
LINE
  5
310
100
AcDbEntity
  8
0
100
AcDbLine
 62
7
  6
CONTINUOUS
 10
653.3351007423
 20
506.2689388918
 11
661.9953547802
 21
491.2689388918
  0
LINE
  5
311
100
AcDbEntity
  8
0
100
AcDbLine
 62
7
  6
CONTINUOUS
 10
661.9954876502
 20
491.2689388918
 11
684.6747138345
 21
491.2689388918
  0
LINE
  5
312
100
AcDbEntity
  8
0
100
AcDbLine
 62
7
  6
CONTINUOUS
 10
653.3351007423
 20
506.2689388918
 11
693.3351007423
 21
506.2689388918
  0
LINE
  5
313
100
AcDbEntity
  8
0
100
AcDbLine
 62
7
  6
CONTINUOUS
 10
693.3351007423
 20
315.2689388918
 11
682.9427958969
 21
309.2689388918
  0
LINE
  5
314
100
AcDbEntity
  8
0
100
AcDbLine
 62
7
  6
CONTINUOUS
 10
653.3351007423
 20
517.2689388918
 11
693.3351007423
 21
517.2689388918
  0
LINE
  5
315
100
AcDbEntity
  8
0
100
AcDbLine
 62
7
  6
CONTINUOUS
 10
663.7274055877
 20
523.2689388918
 11
682.9427958969
 21
523.2689388918
  0
LINE
  5
316
100
AcDbEntity
  8
0
100
AcDbLine
 62
7
  6
CONTINUOUS
 10
682.9427958969
 20
523.2689388918
 11
693.3351007423
 21
517.2689388918
  0
LINE
  5
317
100
AcDbEntity
  8
RUNDUNGEN
100
AcDbLine
 62
7
  6
CONTINUOUS
 10
90.8249933722
 20
155.543779825
 11
90.8249933722
 21
177.343779825
  0
LINE
  5
318
100
AcDbEntity
  8
RUNDUNGEN
100
AcDbLine
 62
7
  6
CONTINUOUS
 10
125.8249933722
 20
190.443779825
 11
125.8249933722
 21
142.443779825
  0
LINE
  5
319
100
AcDbEntity
  8
KONSTRUKTIONSELEMENTE
100
AcDbLine
 62
7
  6
CONTINUOUS
 10
49.8884152132
 20
180.0173822164
 11
46.3278137654
 21
176.729866521
  0
LINE
  5
31A
100
AcDbEntity
  8
KONSTRUKTIONSELEMENTE
100
AcDbLine
 62
7
  6
CONTINUOUS
 10
46.3278137654
 20
156.1576931291
 11
49.8884152132
 21
152.8701774336
  0
LINE
  5
31B
100
AcDbEntity
  8
RUNDUNGEN
100
AcDbLine
 62
7
  6
CONTINUOUS
 10
132.8249933722
 20
140.943779825
 11
132.8249933722
 21
191.943779825
  0
LINE
  5
31C
100
AcDbEntity
  8
RUNDUNGEN
100
AcDbLine
 62
7
  6
CONTINUOUS
 10
154.3249933722
 20
189.4436810547
 11
154.3249933722
 21
143.443779825
  0
LINE
  5
31D
100
AcDbEntity
  8
RUNDUNGEN
100
AcDbLine
 62
7
  6
CONTINUOUS
 10
158.8249933722
 20
142.4437798251
 11
158.8249933722
 21
143.5322576572
  0
LINE
  5
31E
100
AcDbEntity
  8
0
100
AcDbLine
 62
7
  6
CONTINUOUS
 10
168.253141379
 20
190.443779825
 11
168.253141379
 21
166.443779825
  0
LINE
  5
31F
100
AcDbEntity
  8
RUNDUNGEN
100
AcDbLine
 62
7
  6
CONTINUOUS
 10
168.253141379
 20
166.443779825
 11
168.253141379
 21
143.5322576572
  0
LWPOLYLINE
  5
320
100
AcDbEntity
  8
RUNDUNGEN
100
AcDbPolyline
 62
7
  6
CONTINUOUS
 90
5
 70
0
 10
180.7843457527
 20
149.9030832015
 10
180.783385222
 20
149.9002766223
 10
180.7802085558
 20
149.8915916248
 10
180.7875387318
 20
149.9073627596
 10
180.8077979304
 20
149.9458795328
  0
LINE
  5
321
100
AcDbEntity
  8
0
100
AcDbLine
 62
7
  6
CONTINUOUS
 10
197.8249933722
 20
185.443779825
 11
197.8249933722
 21
186.018252998
  0
LINE
  5
322
100
AcDbEntity
  8
0
100
AcDbLine
 62
7
  6
CONTINUOUS
 10
205.8249933722
 20
184.1073015577
 11
205.8249933722
 21
184.7511553879
  0
LINE
  5
323
100
AcDbEntity
  8
RUNDUNGEN
100
AcDbLine
 62
7
  6
CONTINUOUS
 10
180.8077979304
 20
149.9458795328
 11
180.8449699843
 21
150.0089439598
  0
LWPOLYLINE
  5
324
100
AcDbEntity
  8
RUNDUNGEN
100
AcDbPolyline
 62
7
  6
CONTINUOUS
 90
27
 70
0
 10
180.842617343
 20
150.0051340384
 10
180.8929582971
 20
150.0829977855
 10
180.9600888666
 20
150.1784767095
 10
181.0448284901
 20
150.290303086
 10
181.1482357399
 20
150.4178010984
 10
181.2712399897
 20
150.5602093607
 10
181.4148221549
 20
150.7168435158
 10
181.5803498258
 20
150.8873868148
 10
181.7671892058
 20
151.0694401808
 10
181.9750264229
 20
151.2610251936
 10
182.2024610235
 20
151.4592795426
 10
182.447750156
 20
151.6612374887
 10
182.7090091752
 20
151.8639368486
 10
182.9839326252
 20
152.0642673002
 10
183.2698772299
 20
152.2591072697
 10
183.5633790908
 20
152.4450818841
 10
183.8623215129
 20
152.6199829699
 10
184.1627427818
 20
152.7808778518
 10
184.4653551013
 20
152.9276571998
 10
184.7695056163
 20
153.0592605447
 10
185.0757869885
 20
153.1751956015
 10
185.3847943661
 20
153.2747045626
 10
185.6957073318
 20
153.3564440208
 10
186.0085933674
 20
153.4195055526
 10
186.3214676462
 20
153.4626642478
 10
186.6330552363
 20
153.4854517975
 10
186.8249933723
 20
153.4893355746
  0
LINE
  5
325
100
AcDbEntity
  8
0
100
AcDbLine
 62
7
  6
CONTINUOUS
 10
213.8249933722
 20
185.443779825
 11
213.8249933722
 21
186.018252998
  0
LINE
  5
326
100
AcDbEntity
  8
RUNDUNGEN
100
AcDbLine
 62
7
  6
CONTINUOUS
 10
168.2532834034
 20
143.4423628874
 11
174.1048347334
 21
147.5404178232
  0
LINE
  5
327
100
AcDbEntity
  8
RUNDUNGEN
100
AcDbLine
 62
7
  6
CONTINUOUS
 10
174.1048347326
 20
147.5404176732
 11
174.1344246422
 21
147.5610416721
  0
LINE
  5
328
100
AcDbEntity
  8
RUNDUNGEN
100
AcDbLine
 62
7
  6
CONTINUOUS
 10
174.1344246422
 20
147.5610416721
 11
174.2198263172
 21
147.6188242508
  0
LINE
  5
329
100
AcDbEntity
  8
RUNDUNGEN
100
AcDbLine
 62
7
  6
CONTINUOUS
 10
174.2097459871
 20
147.6121363463
 11
174.2929789999
 21
147.6662840694
  0
LINE
  5
32A
100
AcDbEntity
  8
0
100
AcDbLine
 62
7
  6
CONTINUOUS
 10
168.253141379
 20
190.443779825
 11
174.1024931753
 21
186.3480196036
  0
LINE
  5
32B
100
AcDbEntity
  8
RUNDUNGEN
100
AcDbLine
 62
7
  6
CONTINUOUS
 10
174.2859241361
 20
147.6618203467
 11
174.326089579
 21
147.6872336507
  0
LINE
  5
32C
100
AcDbEntity
  8
RUNDUNGEN
100
AcDbLine
 62
7
  6
CONTINUOUS
 10
174.3260958112
 20
147.6872107549
 11
174.5245259967
 21
147.8044058694
  0
LINE
  5
32D
100
AcDbEntity
  8
RUNDUNGEN
100
AcDbLine
 62
7
  6
CONTINUOUS
 10
174.5137515539
 20
147.7983663908
 11
174.8522852025
 21
147.9696764401
  0
LINE
  5
32E
100
AcDbEntity
  8
RUNDUNGEN
100
AcDbLine
 62
7
  6
CONTINUOUS
 10
275.8249933722
 20
149.4262361168
 11
275.8249933722
 21
148.9438550775
  0
LINE
  5
32F
100
AcDbEntity
  8
RUNDUNGEN
100
AcDbLine
 62
7
  6
CONTINUOUS
 10
174.8408292813
 20
147.9644537375
 11
175.1975355533
 21
148.1105219031
  0
LINE
  5
330
100
AcDbEntity
  8
0
100
AcDbLine
 62
7
  6
CONTINUOUS
 10
267.6614248585
 20
185.5643945835
 11
268.3723909178
 21
185.8231650666
  0
LINE
  5
331
100
AcDbEntity
  8
RUNDUNGEN
100
AcDbLine
 62
7
  6
CONTINUOUS
 10
175.1854499493
 20
148.1061253533
 11
175.5586215678
 21
148.2259587367
  0
LINE
  5
332
100
AcDbEntity
  8
RUNDUNGEN
100
AcDbLine
 62
7
  6
CONTINUOUS
 10
312.2418845544
 20
152.4918602082
 11
312.6008724754
 21
152.586075076
  0
LINE
  5
333
100
AcDbEntity
  8
RUNDUNGEN
100
AcDbLine
 62
7
  6
CONTINUOUS
 10
312.590514907
 20
152.5836805912
 11
312.9492762204
 21
152.6552025806
  0
LINE
  5
334
100
AcDbEntity
  8
RUNDUNGEN
100
AcDbLine
 62
7
  6
CONTINUOUS
 10
312.9385733576
 20
152.6534127037
 11
313.293429697
 21
152.7013456481
  0
LINE
  5
335
100
AcDbEntity
  8
RUNDUNGEN
100
AcDbLine
 62
7
  6
CONTINUOUS
 10
313.2824983071
 20
152.7002222181
 11
313.6292327127
 21
152.7247295202
  0
LINE
  5
336
100
AcDbEntity
  8
RUNDUNGEN
100
AcDbLine
 62
7
  6
CONTINUOUS
 10
176.7034465659
 20
148.4094185726
 11
176.9703753572
 21
148.416002564
  0
LINE
  5
337
100
AcDbEntity
  8
RUNDUNGEN
100
AcDbLine
 62
7
  6
CONTINUOUS
 10
127.8249933722
 20
140.443779825
 11
132.3249933722
 21
140.443779825
  0
LINE
  5
338
100
AcDbEntity
  8
BEZUGSACHSEN
100
AcDbLine
 62
7
  6
CONTINUOUS
 10
127.8249933722
 20
140.443779825
 11
132.3249933722
 21
140.443779825
  0
LINE
  5
339
100
AcDbEntity
  8
0
100
AcDbLine
 62
7
  6
CONTINUOUS
 10
155.3249933722
 20
142.443779825
 11
158.8249933722
 21
142.443779825
  0
LINE
  5
33A
100
AcDbEntity
  8
RUNDUNGEN
100
AcDbLine
 62
7
  6
CONTINUOUS
 10
168.2484131205
 20
143.4415511712
 11
158.8249933722
 21
143.4415511712
  0
LINE
  5
33B
100
AcDbEntity
  8
0
100
AcDbLine
 62
7
  6
CONTINUOUS
 10
277.8249933722
 20
146.943779825
 11
287.4269526423
 21
146.943779825
  0
LINE
  5
33C
100
AcDbEntity
  8
0
100
AcDbLine
 62
7
  6
CONTINUOUS
 10
296.2230341021
 20
146.943779825
 11
305.8249933722
 21
146.943779825
  0
LINE
  5
33D
100
AcDbEntity
  8
0
100
AcDbLine
 62
7
  6
CONTINUOUS
 10
408.8590608591
 20
146.943779825
 11
429.3249933722
 21
146.943779825
  0
LINE
  5
33E
100
AcDbEntity
  8
0
100
AcDbLine
 62
7
  6
CONTINUOUS
 10
404.8249933722
 20
147.443779825
 11
406.6796113874
 21
147.443779825
  0
LINE
  5
33F
100
AcDbEntity
  8
RUNDUNGEN
100
AcDbLine
 62
7
  6
CONTINUOUS
 10
176.9703753572
 20
148.4160020472
 11
178.8528138504
 21
148.4160020472
  0
LINE
  5
340
100
AcDbEntity
  8
RUNDUNGEN
100
AcDbLine
 62
7
  6
CONTINUOUS
 10
53.2802650728
 20
151.543779825
 11
86.8377143721
 21
151.5438000531
  0
LINE
  5
341
100
AcDbEntity
  8
RUNDUNGEN
100
AcDbLine
 62
7
  6
CONTINUOUS
 10
496.824995493
 20
151.543779825
 11
530.3697216717
 21
151.543779825
  0
LINE
  5
342
100
AcDbEntity
  8
RUNDUNGEN
100
AcDbLine
 62
7
  6
CONTINUOUS
 10
267.7211305236
 20
153.1789094683
 11
268.1011234814
 21
152.9713090735
  0
LINE
  5
343
100
AcDbEntity
  8
RUNDUNGEN
100
AcDbLine
 62
7
  6
CONTINUOUS
 10
267.3761301709
 20
153.3691899119
 11
267.7269754258
 21
153.1757075185
  0
LINE
  5
344
100
AcDbEntity
  8
RUNDUNGEN
100
AcDbLine
 62
7
  6
CONTINUOUS
 10
275.7053347455
 20
149.5962804841
 11
275.7755688125
 21
149.5002605416
  0
LINE
  5
345
100
AcDbEntity
  8
RUNDUNGEN
100
AcDbLine
 62
7
  6
CONTINUOUS
 10
275.7725283543
 20
149.5046018883
 11
275.8239323741
 21
149.4281184267
  0
LWPOLYLINE
  5
346
100
AcDbEntity
  8
RUNDUNGEN
100
AcDbPolyline
 62
7
  6
CONTINUOUS
 90
3
 70
0
 10
275.8217682136
 20
149.4314982759
 10
275.8547325901
 20
149.3777136994
 10
275.8646100893
 20
149.3602656727
  0
LINE
  5
347
100
AcDbEntity
  8
RUNDUNGEN
100
AcDbLine
 62
7
  6
CONTINUOUS
 10
175.9203223136
 20
148.312377894
 11
176.319655071
 21
148.3766262719
  0
LINE
  5
348
100
AcDbEntity
  8
RUNDUNGEN
100
AcDbLine
 62
7
  6
CONTINUOUS
 10
176.3068091131
 20
148.3750421693
 11
176.7160971146
 21
148.4100253506
  0
LINE
  5
349
100
AcDbEntity
  8
RUNDUNGEN
100
AcDbLine
 62
7
  6
CONTINUOUS
 10
313.6182683431
 20
152.7243081556
 11
313.8249933725
 21
152.7284072801
  0
LINE
  5
34A
100
AcDbEntity
  8
RUNDUNGEN
100
AcDbLine
 62
7
  6
CONTINUOUS
 10
269.0564312045
 20
152.7284053112
 11
269.8249939538
 21
152.7284053112
  0
LINE
  5
34B
100
AcDbEntity
  8
RUNDUNGEN
100
AcDbLine
 62
7
  6
CONTINUOUS
 10
313.8249933722
 20
152.7284053112
 11
314.59355554
 21
152.7284053112
  0
LINE
  5
34C
100
AcDbEntity
  8
RUNDUNGEN
100
AcDbLine
 62
7
  6
CONTINUOUS
 10
186.8249933722
 20
153.4893286749
 11
266.9773827305
 21
153.4893286749
  0
LINE
  5
34D
100
AcDbEntity
  8
RUNDUNGEN
100
AcDbLine
 62
7
  6
CONTINUOUS
 10
316.6726021725
 20
153.4893286749
 11
396.824992499
 21
153.4893286749
  0
LINE
  5
34E
100
AcDbEntity
  8
0
100
AcDbLine
 62
7
  6
CONTINUOUS
 10
490.926688531
 20
156.443779825
 11
430.3249933722
 21
156.443779825
  0
LINE
  5
34F
100
AcDbEntity
  8
KONSTRUKTIONSELEMENTE
100
AcDbLine
 62
7
  6
CONTINUOUS
 10
154.3249933722
 20
156.443779825
 11
132.8249933722
 21
156.443779825
  0
LINE
  5
350
100
AcDbEntity
  8
KONSTRUKTIONSELEMENTE
100
AcDbLine
 62
7
  6
CONTINUOUS
 10
125.8249933722
 20
156.443779825
 11
92.7232982134
 21
156.443779825
  0
LINE
  5
351
100
AcDbEntity
  8
0
100
AcDbLine
 62
7
  6
CONTINUOUS
 10
92.7232982134
 20
156.443779825
 11
125.8249933722
 21
156.443779825
  0
LINE
  5
352
100
AcDbEntity
  8
0
100
AcDbLine
 62
7
  6
CONTINUOUS
 10
132.8249933722
 20
156.443779825
 11
154.3249933722
 21
156.443779825
  0
LINE
  5
353
100
AcDbEntity
  8
KONSTRUKTIONSELEMENTE
100
AcDbLine
 62
7
  6
CONTINUOUS
 10
430.3249933722
 20
156.443779825
 11
490.926688531
 21
156.443779825
  0
LWPOLYLINE
  5
354
100
AcDbEntity
  8
RUNDUNGEN
100
AcDbPolyline
 62
7
  6
CONTINUOUS
 90
24
 70
0
 10
269.8249939571
 20
152.7284072166
 10
270.0208227795
 20
152.7247290476
 10
270.3565313031
 20
152.7013467854
 10
270.7003469308
 20
152.6552638255
 10
271.0482738181
 20
152.5862685988
 10
271.3967730861
 20
152.4951828328
 10
271.7423637206
 20
152.3837810743
 10
272.0809511413
 20
152.2548917603
 10
272.4115162115
 20
152.1107155121
 10
272.7325112704
 20
151.9537588383
 10
273.0431603077
 20
151.7861879931
 10
273.343002628
 20
151.6098921546
 10
273.6308373315
 20
151.4271032751
 10
273.9059434933
 20
151.2397087919
 10
274.1672984639
 20
151.0497288643
 10
274.4144790511
 20
150.8586749108
 10
274.6454240119
 20
150.6693115215
 10
274.858984972
 20
150.4837824625
 10
275.0533057981
 20
150.3049729951
 10
275.2272229341
 20
150.1353400393
 10
275.3796667868
 20
149.9774769101
 10
275.5100244909
 20
149.8337793585
 10
275.6184981999
 20
149.7060289385
 10
275.7053347455
 20
149.5962804841
  0
LWPOLYLINE
  5
355
100
AcDbEntity
  8
RUNDUNGEN
100
AcDbPolyline
 62
7
  6
CONTINUOUS
 90
24
 70
0
 10
396.8249924964
 20
153.489335675
 10
397.0259975753
 20
153.4850760458
 10
397.357685539
 20
153.4594956823
 10
397.6922956168
 20
153.4105858601
 10
398.0275106767
 20
153.3388802574
 10
398.3610016797
 20
153.2457734455
 10
398.6902194443
 20
153.1332678556
 10
399.0121565237
 20
153.0042778196
 10
399.3264522159
 20
152.8608028124
 10
399.6323840424
 20
152.7050156431
 10
399.9298771414
 20
152.538612265
 10
400.2191085144
 20
152.3628720573
 10
400.4992887619
 20
152.1795498605
 10
400.7699535654
 20
151.9900801535
 10
401.0304185652
 20
151.7959288204
 10
401.2806551581
 20
151.5979398817
 10
401.5180740222
 20
151.3989695064
 10
401.7414806226
 20
151.2008566534
 10
401.9474607092
 20
151.0075667777
 10
402.1339122514
 20
150.8222961996
 10
402.2988735399
 20
150.648460824
 10
402.4408167997
 20
150.4894336725
 10
402.5600561268
 20
150.3469400805
 10
402.6565858942
 20
150.2233983623
  0
LWPOLYLINE
  5
356
100
AcDbEntity
  8
RUNDUNGEN
100
AcDbPolyline
 62
7
  6
CONTINUOUS
 90
9
 70
0
 10
266.9773827262
 20
153.489328561
 10
267.0239893217
 20
153.4874622585
 10
267.0773471581
 20
153.4808095182
 10
267.131001771
 20
153.4695732563
 10
267.1858844363
 20
153.4537187999
 10
267.2407810527
 20
153.4338163054
 10
267.2962616521
 20
153.4098973575
 10
267.3526864568
 20
153.381873214
 10
267.3761211451
 20
153.3691856171
  0
LINE
  5
357
100
AcDbEntity
  8
RUNDUNGEN
100
AcDbLine
 62
7
  6
CONTINUOUS
 10
307.8249933722
 20
149.4263559951
 11
307.8249933722
 21
148.943779825
  0
LINE
  5
358
100
AcDbEntity
  8
RUNDUNGEN
100
AcDbLine
 62
7
  6
CONTINUOUS
 10
175.5460441489
 20
148.2224485579
 11
175.933168883
 21
148.314933769
  0
LINE
  5
359
100
AcDbEntity
  8
RUNDUNGEN
100
AcDbLine
 62
7
  6
CONTINUOUS
 10
154.3249933722
 20
171.443779825
 11
132.8249933722
 21
171.443779825
  0
LINE
  5
35A
100
AcDbEntity
  8
RUNDUNGEN
100
AcDbLine
 62
7
  6
CONTINUOUS
 10
125.8249933722
 20
171.443779825
 11
96.8249933722
 21
171.443779825
  0
LINE
  5
35B
100
AcDbEntity
  8
RUNDUNGEN
100
AcDbLine
 62
7
  6
CONTINUOUS
 10
154.3249933722
 20
175.1040338629
 11
132.8249933722
 21
175.1040338629
  0
LINE
  5
35C
100
AcDbEntity
  8
RUNDUNGEN
100
AcDbLine
 62
7
  6
CONTINUOUS
 10
125.8249933722
 20
175.1040338629
 11
96.8249933722
 21
175.1040338629
  0
LINE
  5
35D
100
AcDbEntity
  8
RUNDUNGEN
100
AcDbLine
 62
7
  6
CONTINUOUS
 10
490.926688531
 20
176.443779825
 11
430.3249933722
 21
176.443779825
  0
LINE
  5
35E
100
AcDbEntity
  8
RUNDUNGEN
100
AcDbLine
 62
7
  6
CONTINUOUS
 10
92.7232982134
 20
176.443779825
 11
125.8249933722
 21
176.443779825
  0
LINE
  5
35F
100
AcDbEntity
  8
RUNDUNGEN
100
AcDbLine
 62
7
  6
CONTINUOUS
 10
132.8249933722
 20
176.443779825
 11
154.3249933722
 21
176.443779825
  0
LINE
  5
360
100
AcDbEntity
  8
RUNDUNGEN
100
AcDbLine
 62
7
  6
CONTINUOUS
 10
53.2802650728
 20
181.343779825
 11
86.8249933722
 21
181.343779825
  0
LINE
  5
361
100
AcDbEntity
  8
RUNDUNGEN
100
AcDbLine
 62
7
  6
CONTINUOUS
 10
496.8294830608
 20
181.343779825
 11
530.3697216717
 21
181.343779825
  0
LINE
  5
362
100
AcDbEntity
  8
RUNDUNGEN
100
AcDbLine
 62
7
  6
CONTINUOUS
 10
347.8249222447
 20
183.943779825
 11
321.8249779061
 21
183.943779825
  0
LINE
  5
363
100
AcDbEntity
  8
0
100
AcDbLine
 62
7
  6
CONTINUOUS
 10
322.3249933722
 20
184.643779825
 11
330.1249933722
 21
184.643779825
  0
LINE
  5
364
100
AcDbEntity
  8
0
100
AcDbLine
 62
7
  6
CONTINUOUS
 10
331.3249933722
 20
184.643779825
 11
338.5249933722
 21
184.643779825
  0
LINE
  5
365
100
AcDbEntity
  8
0
100
AcDbLine
 62
7
  6
CONTINUOUS
 10
340.3249933722
 20
184.643779825
 11
347.6749933722
 21
184.643779825
  0
LINE
  5
366
100
AcDbEntity
  8
0
100
AcDbLine
 62
7
  6
CONTINUOUS
 10
176.9703753571
 20
185.443779825
 11
198.8249618343
 21
185.443779825
  0
LINE
  5
367
100
AcDbEntity
  8
0
100
AcDbLine
 62
7
  6
CONTINUOUS
 10
212.8250249102
 20
185.443779825
 11
266.9773845719
 21
185.443779825
  0
LINE
  5
368
100
AcDbEntity
  8
0
100
AcDbLine
 62
7
  6
CONTINUOUS
 10
316.6726021725
 20
185.443779825
 11
318.7068155609
 21
185.443779825
  0
LINE
  5
369
100
AcDbEntity
  8
0
100
AcDbLine
 62
7
  6
CONTINUOUS
 10
350.9430284863
 20
185.443779825
 11
406.6796113874
 21
185.443779825
  0
LINE
  5
36A
100
AcDbEntity
  8
0
100
AcDbLine
 62
7
  6
CONTINUOUS
 10
212.8191699793
 20
186.0429881052
 11
213.8249933722
 21
186.018252998
  0
LINE
  5
36B
100
AcDbEntity
  8
0
100
AcDbLine
 62
7
  6
CONTINUOUS
 10
322.3249933722
 20
183.943779825
 11
322.3249933722
 21
184.643779825
  0
LINE
  5
36C
100
AcDbEntity
  8
0
100
AcDbLine
 62
7
  6
CONTINUOUS
 10
323.8249933722
 20
183.943779825
 11
323.8249933722
 21
184.643779825
  0
LWPOLYLINE
  5
36D
100
AcDbEntity
  8
RUNDUNGEN
100
AcDbPolyline
 62
7
  6
CONTINUOUS
 90
5
 70
0
 10
307.7711756537
 20
149.3329557246
 10
307.7705765368
 20
149.3315477913
 10
307.7760832155
 20
149.3428245042
 10
307.7940538536
 20
149.3756377788
 10
307.8263649935
 20
149.4286044524
  0
LINE
  5
36E
100
AcDbEntity
  8
RUNDUNGEN
100
AcDbLine
 62
7
  6
CONTINUOUS
 10
307.8263649935
 20
149.4286044524
 11
307.8769208945
 21
149.5038335854
  0
LINE
  5
36F
100
AcDbEntity
  8
RUNDUNGEN
100
AcDbLine
 62
7
  6
CONTINUOUS
 10
307.874917511
 20
149.5009773527
 11
307.9438893086
 21
149.5952741166
  0
LINE
  5
370
100
AcDbEntity
  8
RUNDUNGEN
100
AcDbLine
 62
7
  6
CONTINUOUS
 10
307.9413687303
 20
149.5919609314
 11
308.0304448795
 21
149.7047561581
  0
LINE
  5
371
100
AcDbEntity
  8
RUNDUNGEN
100
AcDbLine
 62
7
  6
CONTINUOUS
 10
308.0274133388
 20
149.7010482868
 11
308.1385717677
 21
149.8321919265
  0
LINE
  5
372
100
AcDbEntity
  8
RUNDUNGEN
100
AcDbLine
 62
7
  6
CONTINUOUS
 10
308.1350301805
 20
149.8281512233
 11
308.2685131344
 21
149.9755434745
  0
LINE
  5
373
100
AcDbEntity
  8
RUNDUNGEN
100
AcDbLine
 62
7
  6
CONTINUOUS
 10
308.2644935867
 20
149.9712430925
 11
308.4204768884
 21
150.1330405064
  0
LINE
  5
374
100
AcDbEntity
  8
RUNDUNGEN
100
AcDbLine
 62
7
  6
CONTINUOUS
 10
308.4160397078
 20
150.1285727601
 11
308.5938938906
 21
150.3023295655
  0
LINE
  5
375
100
AcDbEntity
  8
RUNDUNGEN
100
AcDbLine
 62
7
  6
CONTINUOUS
 10
308.5890719465
 20
150.297754396
 11
308.7877183451
 21
150.4808445935
  0
LINE
  5
376
100
AcDbEntity
  8
RUNDUNGEN
100
AcDbLine
 62
7
  6
CONTINUOUS
 10
308.7825459636
 20
150.4762110087
 11
309.0008304598
 21
150.6661580491
  0
LINE
  5
377
100
AcDbEntity
  8
RUNDUNGEN
100
AcDbLine
 62
7
  6
CONTINUOUS
 10
308.9953248152
 20
150.661502685
 11
309.2314281765
 21
150.8554241023
  0
LINE
  5
378
100
AcDbEntity
  8
RUNDUNGEN
100
AcDbLine
 62
7
  6
CONTINUOUS
 10
309.225590304
 20
150.8507661037
 11
309.4783773609
 21
151.0464936022
  0
LINE
  5
379
100
AcDbEntity
  8
RUNDUNGEN
100
AcDbLine
 62
7
  6
CONTINUOUS
 10
309.4722003403
 20
151.0418528235
 11
309.7396418465
 21
151.2366074665
  0
LINE
  5
37A
100
AcDbEntity
  8
RUNDUNGEN
100
AcDbLine
 62
7
  6
CONTINUOUS
 10
309.7331149818
 20
151.2320023826
 11
310.0147901761
 21
151.4242316492
  0
LINE
  5
37B
100
AcDbEntity
  8
RUNDUNGEN
100
AcDbLine
 62
7
  6
CONTINUOUS
 10
310.00789662
 20
151.4196841278
 11
310.3027852379
 21
151.6073213196
  0
LINE
  5
37C
100
AcDbEntity
  8
RUNDUNGEN
100
AcDbLine
 62
7
  6
CONTINUOUS
 10
310.2955127083
 20
151.602862567
 11
310.602900468
 21
151.7839721613
  0
LWPOLYLINE
  5
37D
100
AcDbEntity
  8
RUNDUNGEN
100
AcDbPolyline
 62
7
  6
CONTINUOUS
 90
9
 70
0
 10
315.9171561579
 20
153.1724869496
 10
316.2843604564
 20
153.3749426732
 10
316.3412310599
 20
153.4040067209
 10
316.3971391469
 20
153.4289305354
 10
316.4525075559
 20
153.4498407492
 10
316.5078640678
 20
153.4667048972
 10
316.5620531385
 20
153.4789425672
 10
316.6159871564
 20
153.4865753348
 10
316.672602171
 20
153.4893287204
  0
LINE
  5
37E
100
AcDbEntity
  8
RUNDUNGEN
100
AcDbLine
 62
7
  6
CONTINUOUS
 10
315.5488632611
 20
152.9713090726
 11
315.9230149679
 21
153.1757095216
  0
LINE
  5
37F
100
AcDbEntity
  8
RUNDUNGEN
100
AcDbLine
 62
7
  6
CONTINUOUS
 10
310.5952317692
 20
151.7796365737
 11
310.9139278485
 21
151.9519328887
  0
LINE
  5
380
100
AcDbEntity
  8
RUNDUNGEN
100
AcDbLine
 62
7
  6
CONTINUOUS
 10
310.9058422651
 20
151.947760559
 11
311.2353851617
 21
152.1092859955
  0
LINE
  5
381
100
AcDbEntity
  8
RUNDUNGEN
100
AcDbLine
 62
7
  6
CONTINUOUS
 10
311.2268630645
 20
152.1053291621
 11
311.5664645187
 21
152.2538381233
  0
LINE
  5
382
100
AcDbEntity
  8
RUNDUNGEN
100
AcDbLine
 62
7
  6
CONTINUOUS
 10
311.5574914888
 20
152.2501592736
 11
311.9056093983
 21
152.3830717551
  0
LINE
  5
383
100
AcDbEntity
  8
RUNDUNGEN
100
AcDbLine
 62
7
  6
CONTINUOUS
 10
311.8961762756
 20
152.3797393661
 11
312.2518038686
 21
152.4947724606
  0
LINE
  5
384
100
AcDbEntity
  8
0
100
AcDbLine
 62
7
  6
CONTINUOUS
 10
197.8249933722
 20
186.018252998
 11
198.830810667
 21
186.0429895115
  0
LINE
  5
385
100
AcDbEntity
  8
0
100
AcDbLine
 62
7
  6
CONTINUOUS
 10
269.0564312045
 20
185.943779825
 11
287.4269526423
 21
185.943779825
  0
LINE
  5
386
100
AcDbEntity
  8
0
100
AcDbLine
 62
7
  6
CONTINUOUS
 10
296.2230341021
 20
185.943779825
 11
314.59355554
 21
185.943779825
  0
LINE
  5
387
100
AcDbEntity
  8
0
100
AcDbLine
 62
7
  6
CONTINUOUS
 10
408.8590608591
 20
185.943779825
 11
429.3249933722
 21
185.943779825
  0
LINE
  5
388
100
AcDbEntity
  8
0
100
AcDbLine
 62
7
  6
CONTINUOUS
 10
198.8244233327
 20
186.043779825
 11
212.8255634877
 21
186.043779825
  0
LINE
  5
389
100
AcDbEntity
  8
0
100
AcDbLine
 62
7
  6
CONTINUOUS
 10
155.3249933722
 20
190.443779825
 11
168.253141379
 21
190.443779825
  0
LINE
  5
38A
100
AcDbEntity
  8
RUNDUNGEN
100
AcDbLine
 62
7
  6
CONTINUOUS
 10
127.8249933722
 20
192.443779825
 11
132.3249933722
 21
192.443779825
  0
LINE
  5
38B
100
AcDbEntity
  8
BEZUGSACHSEN
100
AcDbLine
 62
7
  6
CONTINUOUS
 10
127.8249933722
 20
192.443779825
 11
132.3249933722
 21
192.443779825
  0
LINE
  5
38C
100
AcDbEntity
  8
0
100
AcDbLine
 62
7
  6
CONTINUOUS
 10
315.2775958266
 20
185.8231650666
 11
315.9885618859
 21
185.5643945835
  0
LWPOLYLINE
  5
38D
100
AcDbEntity
  8
RUNDUNGEN
100
AcDbPolyline
 62
7
  6
CONTINUOUS
 90
11
 70
0
 10
320.2637432479
 20
184.6937798043
 10
320.1345220052
 20
184.839951448
 10
319.9915987541
 20
184.9729000327
 10
319.8363868714
 20
185.0912891362
 10
319.6703632961
 20
185.1939881975
 10
319.4951084674
 20
185.2800159244
 10
319.3122908743
 20
185.3485498625
 10
319.1236516044
 20
185.3989339972
 10
318.9309877774
 20
185.430685111
 10
318.7361353612
 20
185.4434974913
 10
318.7024928081
 20
185.4437804665
  0
LINE
  5
38E
100
AcDbEntity
  8
0
100
AcDbLine
 62
7
  6
CONTINUOUS
 10
328.3929425646
 20
183.943779825
 11
328.3929425646
 21
184.643779825
  0
LINE
  5
38F
100
AcDbEntity
  8
0
100
AcDbLine
 62
7
  6
CONTINUOUS
 10
330.1249933722
 20
183.943779825
 11
330.1249933722
 21
184.643779825
  0
LINE
  5
390
100
AcDbEntity
  8
0
100
AcDbLine
 62
7
  6
CONTINUOUS
 10
331.3249933722
 20
183.943779825
 11
331.3249933722
 21
184.643779825
  0
LINE
  5
391
100
AcDbEntity
  8
0
100
AcDbLine
 62
7
  6
CONTINUOUS
 10
338.5249933722
 20
183.943779825
 11
338.5249933722
 21
184.643779825
  0
LINE
  5
392
100
AcDbEntity
  8
0
100
AcDbLine
 62
7
  6
CONTINUOUS
 10
340.3249933722
 20
183.943779825
 11
340.3249933722
 21
184.643779825
  0
LINE
  5
393
100
AcDbEntity
  8
0
100
AcDbLine
 62
7
  6
CONTINUOUS
 10
347.6749933722
 20
183.943779825
 11
347.6749933722
 21
184.643779825
  0
LINE
  5
394
100
AcDbEntity
  8
RUNDUNGEN
100
AcDbLine
 62
7
  6
CONTINUOUS
 10
402.6565858942
 20
150.2233983623
 11
402.7356114397
 21
150.1143026917
  0
LWPOLYLINE
  5
395
100
AcDbEntity
  8
RUNDUNGEN
100
AcDbPolyline
 62
7
  6
CONTINUOUS
 90
4
 70
0
 10
402.7328206963
 20
150.1183171222
 10
402.790653209
 20
150.03178338
 10
402.8313904679
 20
149.9649385618
 10
402.8444107957
 20
149.9418580742
  0
LINE
  5
396
100
AcDbEntity
  8
RUNDUNGEN
100
AcDbLine
 62
7
  6
CONTINUOUS
 10
402.8249933722
 20
149.9754354069
 11
402.8249933722
 21
149.4438617169
  0
LINE
  5
397
100
AcDbEntity
  8
0
100
AcDbLine
 62
7
  6
CONTINUOUS
 10
408.8590608591
 20
185.943779825
 11
408.8590608591
 21
146.943779825
  0
LINE
  5
398
100
AcDbEntity
  8
RUNDUNGEN
100
AcDbLine
 62
7
  6
CONTINUOUS
 10
430.3249933722
 20
147.943779825
 11
430.3249933722
 21
184.943779825
  0
LINE
  5
399
100
AcDbEntity
  8
KONSTRUKTIONSELEMENTE
100
AcDbLine
 62
7
  6
CONTINUOUS
 10
533.7615715312
 20
152.8701774336
 11
537.3221729773
 21
156.1576931275
  0
LINE
  5
39A
100
AcDbEntity
  8
KONSTRUKTIONSELEMENTE
100
AcDbLine
 62
7
  6
CONTINUOUS
 10
537.322172979
 20
176.729866521
 11
533.7615715312
 21
180.0173822164
  0
LINE
  5
39B
100
AcDbEntity
  8
RUNDUNGEN
100
AcDbLine
 62
7
  6
CONTINUOUS
 10
492.8249933722
 20
155.543779825
 11
492.8249933722
 21
177.343779825
  0
ARC
  5
39C
100
AcDbEntity
  8
RUNDUNGEN
100
AcDbCircle
 62
7
  6
CONTINUOUS
 10
80.8249933722
 20
399.2689388918
 40
10.0
100
AcDbArc
 50
270.0
 51
360.0
  0
ARC
  5
39D
100
AcDbEntity
  8
RUNDUNGEN
100
AcDbCircle
 62
7
  6
CONTINUOUS
 10
186.8249933722
 20
411.2689388918
 40
6.0
100
AcDbArc
 50
180.0005164764
 51
270.002481054
  0
ARC
  5
39E
100
AcDbEntity
  8
RUNDUNGEN
100
AcDbCircle
 62
7
  6
CONTINUOUS
 10
269.8249933722
 20
411.2689388918
 40
6.0
100
AcDbArc
 50
269.9993904099
 51
0.0016984834
  0
ARC
  5
39F
100
AcDbEntity
  8
KONSTRUKTIONSELEMENTE
100
AcDbCircle
 62
7
  6
CONTINUOUS
 10
46.8249933722
 20
399.2689388918
 40
5.0
100
AcDbArc
 50
180.0000076395
 51
210.0000087357
  0
ARC
  5
3A0
100
AcDbEntity
  8
0
100
AcDbCircle
 62
7
  6
CONTINUOUS
 10
46.8249933722
 20
401.2689388918
 40
5.0
100
AcDbArc
 50
143.1301014768
 51
180.0
  0
ARC
  5
3A1
100
AcDbEntity
  8
RUNDUNGEN
100
AcDbCircle
 62
7
  6
CONTINUOUS
 10
176.9703753571
 20
392.2689388918
 40
5.0
100
AcDbArc
 50
90.0
 51
125.0
  0
ARC
  5
3A2
100
AcDbEntity
  8
RUNDUNGEN
100
AcDbCircle
 62
7
  6
CONTINUOUS
 10
49.134394449
 20
393.2689388918
 40
4.0
100
AcDbArc
 50
210.0
 51
270.0
  0
ARC
  5
3A3
100
AcDbEntity
  8
RUNDUNGEN
100
AcDbCircle
 62
7
  6
CONTINUOUS
 10
96.8249933722
 20
408.2689388918
 40
3.0
100
AcDbArc
 50
90.0
 51
161.9622186269
  0
ARC
  5
3A4
100
AcDbEntity
  8
0
100
AcDbCircle
 62
7
  6
CONTINUOUS
 10
74.1325021132
 20
398.6403998533
 40
2.4
100
AcDbArc
 50
180.0
 51
360.0
  0
ARC
  5
3A5
100
AcDbEntity
  8
0
100
AcDbCircle
 62
7
  6
CONTINUOUS
 10
80.4325021132
 20
398.4403998533
 40
2.2
100
AcDbArc
 50
270.0
 51
360.0
  0
ARC
  5
3A6
100
AcDbEntity
  8
0
100
AcDbCircle
 62
7
  6
CONTINUOUS
 10
80.4325021132
 20
400.0403998533
 40
2.2
100
AcDbArc
 50
0.0
 51
90.0
  0
ARC
  5
3A7
100
AcDbEntity
  8
RUNDUNGEN
100
AcDbCircle
 62
7
  6
CONTINUOUS
 10
127.8249933722
 20
392.2689388918
 40
2.0
100
AcDbArc
 50
179.9999984885
 51
270.0
  0
ARC
  5
3A8
100
AcDbEntity
  8
RUNDUNGEN
100
AcDbCircle
 62
7
  6
CONTINUOUS
 10
92.8249933722
 20
404.2689388918
 40
2.0
100
AcDbArc
 50
90.0
 51
180.0
  0
ARC
  5
3A9
100
AcDbEntity
  8
RUNDUNGEN
100
AcDbCircle
 62
7
  6
CONTINUOUS
 10
47.2795772106
 20
408.1689388918
 40
2.0
100
AcDbArc
 50
90.0
 51
158.3964710752
  0
ARC
  5
3AA
100
AcDbEntity
  8
RUNDUNGEN
100
AcDbCircle
 62
7
  6
CONTINUOUS
 10
269.0564312045
 20
398.7689388918
 40
2.0
100
AcDbArc
 50
250.0
 51
270.0
  0
ARC
  5
3AB
100
AcDbEntity
  8
RUNDUNGEN
100
AcDbCircle
 62
7
  6
CONTINUOUS
 10
266.9773845719
 20
395.2689388918
 40
2.0
100
AcDbArc
 50
70.0
 51
90.0
  0
ARC
  5
3AC
100
AcDbEntity
  8
0
100
AcDbCircle
 62
7
  6
CONTINUOUS
 10
68.7825021132
 20
400.4903998533
 40
1.75
100
AcDbArc
 50
291.3550126288
 51
90.0
  0
ARC
  5
3AD
100
AcDbEntity
  8
RUNDUNGEN
100
AcDbCircle
 62
7
  6
CONTINUOUS
 10
169.6645174749
 20
409.1230283243
 40
1.4113761021
100
AcDbArc
 50
177.7886256087
 51
179.9946431205
  0
ARC
  5
3AE
100
AcDbEntity
  8
0
100
AcDbCircle
 62
7
  6
CONTINUOUS
 10
80.1825021132
 20
399.9903998533
 40
1.25
100
AcDbArc
 50
0.0
 51
90.0
  0
ARC
  5
3AF
100
AcDbEntity
  8
0
100
AcDbCircle
 62
7
  6
CONTINUOUS
 10
80.1825021132
 20
398.4903998533
 40
1.25
100
AcDbArc
 50
270.0
 51
360.0
  0
ARC
  5
3B0
100
AcDbEntity
  8
0
100
AcDbCircle
 62
7
  6
CONTINUOUS
 10
74.1325021132
 20
398.6403998533
 40
1.2
100
AcDbArc
 50
180.0
 51
360.0
  0
ARC
  5
3B1
100
AcDbEntity
  8
0
100
AcDbCircle
 62
7
  6
CONTINUOUS
 10
67.7570756326
 20
397.7403998533
 40
1.0
100
AcDbArc
 50
30.0
 51
90.0
  0
ARC
  5
3B2
100
AcDbEntity
  8
RUNDUNGEN
100
AcDbCircle
 62
7
  6
CONTINUOUS
 10
155.3249933722
 20
393.2689388918
 40
1.0
100
AcDbArc
 50
180.0
 51
270.0
  0
ARC
  5
3B3
100
AcDbEntity
  8
0
100
AcDbCircle
 62
7
  6
CONTINUOUS
 10
68.3825021132
 20
400.4903998533
 40
0.75
100
AcDbArc
 50
270.0
 51
90.0
  0
ARC
  5
3B4
100
AcDbEntity
  8
RUNDUNGEN
100
AcDbCircle
 62
7
  6
CONTINUOUS
 10
132.3249933722
 20
390.7689388918
 40
0.5
100
AcDbArc
 50
270.0
 51
360.0
  0
ARC
  5
3B5
100
AcDbEntity
  8
0
100
AcDbCircle
 62
7
  6
CONTINUOUS
 10
204.2006554525
 20
432.7804015317
 40
36.9605676369
100
AcDbArc
 50
321.9975152904
 51
323.2747297857
  0
ARC
  5
3B6
100
AcDbEntity
  8
0
100
AcDbCircle
 62
7
  6
CONTINUOUS
 10
26.8249933722
 20
416.2689388918
 40
20.0
100
AcDbArc
 50
323.1301025735
 51
338.3964710752
  0
ARC
  5
3B7
100
AcDbEntity
  8
0
100
AcDbCircle
 62
7
  6
CONTINUOUS
 10
26.8249933722
 20
416.2689388918
 40
20.0
100
AcDbArc
 50
21.6035289248
 51
36.8698974265
  0
ARC
  5
3B8
100
AcDbEntity
  8
RUNDUNGEN
100
AcDbCircle
 62
7
  6
CONTINUOUS
 10
80.8249933722
 20
433.2689388918
 40
10.0
100
AcDbArc
 50
0.0
 51
90.0
  0
ARC
  5
3B9
100
AcDbEntity
  8
RUNDUNGEN
100
AcDbCircle
 62
7
  6
CONTINUOUS
 10
72.7249933722
 20
416.2689388918
 40
6.1
100
AcDbArc
 50
270.0
 51
90.0
  0
ARC
  5
3BA
100
AcDbEntity
  8
RUNDUNGEN
100
AcDbCircle
 62
7
  6
CONTINUOUS
 10
186.8249933722
 20
421.2689388918
 40
6.0
100
AcDbArc
 50
89.9983471528
 51
179.9978476667
  0
ARC
  5
3BB
100
AcDbEntity
  8
RUNDUNGEN
100
AcDbCircle
 62
7
  6
CONTINUOUS
 10
269.8249933722
 20
421.2689388918
 40
6.0
100
AcDbArc
 50
359.9981936497
 51
90.0015777035
  0
ARC
  5
3BC
100
AcDbEntity
  8
KONSTRUKTIONSELEMENTE
100
AcDbCircle
 62
7
  6
CONTINUOUS
 10
46.8249933722
 20
433.2689388918
 40
5.0
100
AcDbArc
 50
149.9999912631
 51
179.9999923588
  0
ARC
  5
3BD
100
AcDbEntity
  8
RUNDUNGEN
100
AcDbCircle
 62
7
  6
CONTINUOUS
 10
46.8249933722
 20
431.2689388918
 40
5.0
100
AcDbArc
 50
180.0
 51
216.8698985232
  0
ARC
  5
3BE
100
AcDbEntity
  8
RUNDUNGEN
100
AcDbCircle
 62
7
  6
CONTINUOUS
 10
176.9703753571
 20
440.2689388918
 40
5.0
100
AcDbArc
 50
235.0
 51
270.0
  0
ARC
  5
3BF
100
AcDbEntity
  8
RUNDUNGEN
100
AcDbCircle
 62
7
  6
CONTINUOUS
 10
81.9753040102
 20
433.2692144999
 40
4.8375920557
100
AcDbArc
 50
359.9723542524
 51
0.373800121
  0
ARC
  5
3C0
100
AcDbEntity
  8
RUNDUNGEN
100
AcDbCircle
 62
7
  6
CONTINUOUS
 10
49.134394449
 20
439.2689388918
 40
4.0
100
AcDbArc
 50
90.0
 51
150.0
  0
ARC
  5
3C1
100
AcDbEntity
  8
RUNDUNGEN
100
AcDbCircle
 62
7
  6
CONTINUOUS
 10
127.8249933722
 20
440.2689388918
 40
2.0
100
AcDbArc
 50
90.0
 51
180.0000015115
  0
ARC
  5
3C2
100
AcDbEntity
  8
RUNDUNGEN
100
AcDbCircle
 62
7
  6
CONTINUOUS
 10
92.8249933722
 20
428.2689388918
 40
2.0
100
AcDbArc
 50
180.0
 51
270.0
  0
ARC
  5
3C3
100
AcDbEntity
  8
RUNDUNGEN
100
AcDbCircle
 62
7
  6
CONTINUOUS
 10
47.2795772106
 20
424.3689388918
 40
2.0
100
AcDbArc
 50
201.6035289248
 51
270.0
  0
ARC
  5
3C4
100
AcDbEntity
  8
RUNDUNGEN
100
AcDbCircle
 62
7
  6
CONTINUOUS
 10
269.0564312045
 20
433.7689388918
 40
2.0
100
AcDbArc
 50
90.0
 51
110.0
  0
ARC
  5
3C5
100
AcDbEntity
  8
RUNDUNGEN
100
AcDbCircle
 62
7
  6
CONTINUOUS
 10
266.9773845719
 20
437.2689388918
 40
2.0
100
AcDbArc
 50
270.0
 51
290.0
  0
ARC
  5
3C6
100
AcDbEntity
  8
RUNDUNGEN
100
AcDbCircle
 62
7
  6
CONTINUOUS
 10
169.6645174055
 20
423.4148456741
 40
1.4113760324
100
AcDbArc
 50
180.005203215
 51
182.2112211724
  0
ARC
  5
3C7
100
AcDbEntity
  8
RUNDUNGEN
100
AcDbCircle
 62
7
  6
CONTINUOUS
 10
155.3249933722
 20
439.2689388918
 40
1.0
100
AcDbArc
 50
90.0
 51
180.0
  0
ARC
  5
3C8
100
AcDbEntity
  8
RUNDUNGEN
100
AcDbCircle
 62
7
  6
CONTINUOUS
 10
132.3249933722
 20
441.7689388918
 40
0.5
100
AcDbArc
 50
0.0
 51
90.0
  0
ARC
  5
3C9
100
AcDbEntity
  8
RUNDUNGEN
100
AcDbCircle
 62
7
  6
CONTINUOUS
 10
502.8249933722
 20
399.2689388918
 40
10.0
100
AcDbArc
 50
180.0
 51
270.0
  0
ARC
  5
3CA
100
AcDbEntity
  8
RUNDUNGEN
100
AcDbCircle
 62
7
  6
CONTINUOUS
 10
396.8249933722
 20
411.2689388918
 40
6.0
100
AcDbArc
 50
269.9974648987
 51
0.0017796289
  0
ARC
  5
3CB
100
AcDbEntity
  8
RUNDUNGEN
100
AcDbCircle
 62
7
  6
CONTINUOUS
 10
313.8249933722
 20
411.2689388918
 40
6.0
100
AcDbArc
 50
179.9982722685
 51
270.0006466578
  0
ARC
  5
3CC
100
AcDbEntity
  8
KONSTRUKTIONSELEMENTE
100
AcDbCircle
 62
7
  6
CONTINUOUS
 10
536.8249933722
 20
399.2689388918
 40
5.0
100
AcDbArc
 50
329.9999912631
 51
359.9999923588
  0
ARC
  5
3CD
100
AcDbEntity
  8
RUNDUNGEN
100
AcDbCircle
 62
7
  6
CONTINUOUS
 10
536.8249933722
 20
401.2689388918
 40
5.0
100
AcDbArc
 50
0.0
 51
36.8698988063
  0
ARC
  5
3CE
100
AcDbEntity
  8
0
100
AcDbCircle
 62
7
  6
CONTINUOUS
 10
406.6796113874
 20
392.2689388918
 40
5.0
100
AcDbArc
 50
64.1580672368
 51
90.0
  0
ARC
  5
3CF
100
AcDbEntity
  8
RUNDUNGEN
100
AcDbCircle
 62
7
  6
CONTINUOUS
 10
534.5155922955
 20
393.2689388918
 40
4.0
100
AcDbArc
 50
270.0
 51
330.0
  0
ARC
  5
3D0
100
AcDbEntity
  8
RUNDUNGEN
100
AcDbCircle
 62
7
  6
CONTINUOUS
 10
490.8249933722
 20
404.2689388918
 40
2.0
100
AcDbArc
 50
0.0
 51
90.0
  0
ARC
  5
3D1
100
AcDbEntity
  8
RUNDUNGEN
100
AcDbCircle
 62
7
  6
CONTINUOUS
 10
536.3704095339
 20
408.1689388918
 40
2.0
100
AcDbArc
 50
21.6035289248
 51
90.0
  0
ARC
  5
3D2
100
AcDbEntity
  8
RUNDUNGEN
100
AcDbCircle
 62
7
  6
CONTINUOUS
 10
314.59355554
 20
398.7689388918
 40
2.0
100
AcDbArc
 50
270.0
 51
290.0
  0
ARC
  5
3D3
100
AcDbEntity
  8
RUNDUNGEN
100
AcDbCircle
 62
7
  6
CONTINUOUS
 10
316.6726021725
 20
395.2689388918
 40
2.0
100
AcDbArc
 50
90.0
 51
110.0
  0
ARC
  5
3D4
100
AcDbEntity
  8
RUNDUNGEN
100
AcDbCircle
 62
7
  6
CONTINUOUS
 10
429.3249933722
 20
397.7689388918
 40
1.0
100
AcDbArc
 50
270.0
 51
360.0
  0
ARC
  5
3D5
100
AcDbEntity
  8
0
100
AcDbCircle
 62
7
  6
CONTINUOUS
 10
556.8249933722
 20
416.2689388918
 40
20.0
100
AcDbArc
 50
143.1301026443
 51
158.3964710752
  0
ARC
  5
3D6
100
AcDbEntity
  8
0
100
AcDbCircle
 62
7
  6
CONTINUOUS
 10
556.8249933722
 20
416.2689388918
 40
20.0
100
AcDbArc
 50
201.6035289248
 51
216.8698973557
  0
ARC
  5
3D7
100
AcDbEntity
  8
RUNDUNGEN
100
AcDbCircle
 62
7
  6
CONTINUOUS
 10
502.8249933722
 20
433.2689388918
 40
10.0
100
AcDbArc
 50
90.0
 51
180.0
  0
ARC
  5
3D8
100
AcDbEntity
  8
RUNDUNGEN
100
AcDbCircle
 62
7
  6
CONTINUOUS
 10
510.9249933722
 20
416.2689388918
 40
6.1
100
AcDbArc
 50
90.0
 51
270.0
  0
ARC
  5
3D9
100
AcDbEntity
  8
RUNDUNGEN
100
AcDbCircle
 62
7
  6
CONTINUOUS
 10
396.8249933722
 20
421.2689388918
 40
6.0
100
AcDbArc
 50
359.9982629184
 51
90.0016632488
  0
ARC
  5
3DA
100
AcDbEntity
  8
RUNDUNGEN
100
AcDbCircle
 62
7
  6
CONTINUOUS
 10
313.8249933722
 20
421.2689388918
 40
6.0
100
AcDbArc
 50
89.9984222897
 51
180.0018045908
  0
ARC
  5
3DB
100
AcDbEntity
  8
KONSTRUKTIONSELEMENTE
100
AcDbCircle
 62
7
  6
CONTINUOUS
 10
536.8249933722
 20
433.2689388918
 40
5.0
100
AcDbArc
 50
0.0000076395
 51
30.0000087357
  0
ARC
  5
3DC
100
AcDbEntity
  8
0
100
AcDbCircle
 62
7
  6
CONTINUOUS
 10
536.8249933722
 20
431.2689388918
 40
5.0
100
AcDbArc
 50
323.1301011937
 51
360.0
  0
ARC
  5
3DD
100
AcDbEntity
  8
0
100
AcDbCircle
 62
7
  6
CONTINUOUS
 10
406.6796113874
 20
440.2689388918
 40
5.0
100
AcDbArc
 50
270.0
 51
295.8419327632
  0
ARC
  5
3DE
100
AcDbEntity
  8
RUNDUNGEN
100
AcDbCircle
 62
7
  6
CONTINUOUS
 10
534.5155922955
 20
439.2689388918
 40
4.0
100
AcDbArc
 50
30.0
 51
90.0
  0
ARC
  5
3DF
100
AcDbEntity
  8
0
100
AcDbCircle
 62
7
  6
CONTINUOUS
 10
509.5174846313
 20
433.8974779304
 40
2.4
100
AcDbArc
 50
0.0
 51
180.0
  0
ARC
  5
3E0
100
AcDbEntity
  8
0
100
AcDbCircle
 62
7
  6
CONTINUOUS
 10
503.2174846313
 20
434.0974779304
 40
2.2
100
AcDbArc
 50
90.0
 51
180.0
  0
ARC
  5
3E1
100
AcDbEntity
  8
0
100
AcDbCircle
 62
7
  6
CONTINUOUS
 10
503.2174846313
 20
432.4974779304
 40
2.2
100
AcDbArc
 50
180.0
 51
270.0
  0
ARC
  5
3E2
100
AcDbEntity
  8
RUNDUNGEN
100
AcDbCircle
 62
7
  6
CONTINUOUS
 10
490.8249933722
 20
428.2689388918
 40
2.0
100
AcDbArc
 50
270.0
 51
360.0
  0
ARC
  5
3E3
100
AcDbEntity
  8
RUNDUNGEN
100
AcDbCircle
 62
7
  6
CONTINUOUS
 10
536.3704095339
 20
424.3689388918
 40
2.0
100
AcDbArc
 50
270.0
 51
338.3964710752
  0
ARC
  5
3E4
100
AcDbEntity
  8
RUNDUNGEN
100
AcDbCircle
 62
7
  6
CONTINUOUS
 10
314.59355554
 20
433.7689388918
 40
2.0
100
AcDbArc
 50
70.0
 51
90.0
  0
ARC
  5
3E5
100
AcDbEntity
  8
RUNDUNGEN
100
AcDbCircle
 62
7
  6
CONTINUOUS
 10
316.6726021725
 20
437.2689388918
 40
2.0
100
AcDbArc
 50
250.0
 51
270.0
  0
ARC
  5
3E6
100
AcDbEntity
  8
0
100
AcDbCircle
 62
7
  6
CONTINUOUS
 10
514.8674846313
 20
432.0474779304
 40
1.75
100
AcDbArc
 50
111.3550126288
 51
270.0
  0
ARC
  5
3E7
100
AcDbEntity
  8
0
100
AcDbCircle
 62
7
  6
CONTINUOUS
 10
503.4674846313
 20
432.5474779304
 40
1.25
100
AcDbArc
 50
180.0
 51
270.0
  0
ARC
  5
3E8
100
AcDbEntity
  8
0
100
AcDbCircle
 62
7
  6
CONTINUOUS
 10
503.4674846313
 20
434.0474779304
 40
1.25
100
AcDbArc
 50
90.0
 51
180.0
  0
ARC
  5
3E9
100
AcDbEntity
  8
0
100
AcDbCircle
 62
7
  6
CONTINUOUS
 10
509.5174846313
 20
433.8974779304
 40
1.2
100
AcDbArc
 50
0.0
 51
180.0
  0
ARC
  5
3EA
100
AcDbEntity
  8
0
100
AcDbCircle
 62
7
  6
CONTINUOUS
 10
515.8929111118
 20
434.7974779304
 40
1.0
100
AcDbArc
 50
210.0
 51
270.0
  0
ARC
  5
3EB
100
AcDbEntity
  8
RUNDUNGEN
100
AcDbCircle
 62
7
  6
CONTINUOUS
 10
429.3249933722
 20
434.7689388918
 40
1.0
100
AcDbArc
 50
0.0
 51
90.0
  0
ARC
  5
3EC
100
AcDbEntity
  8
0
100
AcDbCircle
 62
7
  6
CONTINUOUS
 10
515.2674846313
 20
432.0474779304
 40
0.75
100
AcDbArc
 50
90.0
 51
270.0
  0
ARC
  5
3ED
100
AcDbEntity
  8
RUNDUNGEN
100
AcDbCircle
 62
7
  6
CONTINUOUS
 10
673.3351007423
 20
416.2689388918
 40
26.0
100
AcDbArc
 50
304.9862024874
 51
55.0061730194
  0
ARC
  5
3EE
100
AcDbEntity
  8
RUNDUNGEN
100
AcDbCircle
 62
7
  6
CONTINUOUS
 10
673.3351007423
 20
416.2689388918
 40
26.0
100
AcDbArc
 50
124.9940174232
 51
235.0137975126
  0
ARC
  5
3EF
100
AcDbEntity
  8
RUNDUNGEN
100
AcDbCircle
 62
7
  6
CONTINUOUS
 10
673.3351007423
 20
416.2689388918
 40
19.5
100
AcDbArc
 50
350.3343266444
 51
9.6656733572
  0
ARC
  5
3F0
100
AcDbEntity
  8
RUNDUNGEN
100
AcDbCircle
 62
7
  6
CONTINUOUS
 10
684.2351007423
 20
393.2689388918
 40
4.0
100
AcDbArc
 50
270.0
 51
360.0
  0
ARC
  5
3F1
100
AcDbEntity
  8
RUNDUNGEN
100
AcDbCircle
 62
7
  6
CONTINUOUS
 10
662.4351007423
 20
393.2689388918
 40
4.0
100
AcDbArc
 50
180.0
 51
270.0
  0
ARC
  5
3F2
100
AcDbEntity
  8
RUNDUNGEN
100
AcDbCircle
 62
7
  6
CONTINUOUS
 10
662.4351007423
 20
439.2689388918
 40
4.0
100
AcDbArc
 50
90.0
 51
180.0
  0
ARC
  5
3F3
100
AcDbEntity
  8
RUNDUNGEN
100
AcDbCircle
 62
7
  6
CONTINUOUS
 10
684.2350936153
 20
439.2689388918
 40
4.0
100
AcDbArc
 50
0.0
 51
89.9998979126
  0
ARC
  5
3F4
100
AcDbEntity
  8
BEZUGSACHSEN
100
AcDbCircle
 62
7
  6
CONTINUOUS
 10
655.3351007423
 20
416.2689388918
 40
3.5
100
AcDbArc
 50
27.459141652
 51
332.540858348
  0
ARC
  5
3F5
100
AcDbEntity
  8
BEZUGSACHSEN
100
AcDbCircle
 62
7
  6
CONTINUOUS
 10
691.3351007423
 20
416.2689388918
 40
3.5
100
AcDbArc
 50
207.459141652
 51
152.540858348
  0
ARC
  5
3F6
100
AcDbEntity
  8
RUNDUNGEN
100
AcDbCircle
 62
7
  6
CONTINUOUS
 10
660.4350917703
 20
408.1689388918
 40
2.0
100
AcDbArc
 50
89.9999468634
 51
180.0000408837
  0
ARC
  5
3F7
100
AcDbEntity
  8
RUNDUNGEN
100
AcDbCircle
 62
7
  6
CONTINUOUS
 10
660.4351007423
 20
424.3689388918
 40
2.0
100
AcDbArc
 50
179.9999795603
 51
269.9997961069
  0
ARC
  5
3F8
100
AcDbEntity
  8
RUNDUNGEN
100
AcDbCircle
 62
7
  6
CONTINUOUS
 10
686.2351097278
 20
424.3689388918
 40
2.0
100
AcDbArc
 50
269.9999464878
 51
0.0000408968
  0
ARC
  5
3F9
100
AcDbEntity
  8
RUNDUNGEN
100
AcDbCircle
 62
7
  6
CONTINUOUS
 10
686.2351007423
 20
408.1689388918
 40
2.0
100
AcDbArc
 50
359.9999795538
 51
89.9997960959
  0
ARC
  5
3FA
100
AcDbEntity
  8
RUNDUNGEN
100
AcDbCircle
 62
7
  6
CONTINUOUS
 10
658.9351007423
 20
428.2802298431
 40
0.5
100
AcDbArc
 50
138.9746817227
 51
159.487340868
  0
ARC
  5
3FB
100
AcDbEntity
  8
0
100
AcDbCircle
 62
7
  6
CONTINUOUS
 10
687.7351007423
 20
404.2576479405
 40
0.5
100
AcDbArc
 50
318.9746841818
 51
339.4873567967
  0
ARC
  5
3FC
100
AcDbEntity
  8
KONSTRUKTIONSELEMENTE
100
AcDbCircle
 62
7
  6
CONTINUOUS
 10
53.2802650728
 20
156.543779825
 40
5.0
100
AcDbArc
 50
227.2836021611
 51
270.0
  0
ARC
  5
3FD
100
AcDbEntity
  8
RUNDUNGEN
100
AcDbCircle
 62
7
  6
CONTINUOUS
 10
86.8249933722
 20
155.543779825
 40
4.0
100
AcDbArc
 50
270.1822152084
 51
360.0
  0
ARC
  5
3FE
100
AcDbEntity
  8
RUNDUNGEN
100
AcDbCircle
 62
7
  6
CONTINUOUS
 10
178.8458059649
 20
150.4181098443
 40
2.00729357
100
AcDbArc
 50
343.7141216233
 51
345.0705345368
  0
ARC
  5
3FF
100
AcDbEntity
  8
RUNDUNGEN
100
AcDbCircle
 62
7
  6
CONTINUOUS
 10
127.8249933722
 20
142.443779825
 40
2.0
100
AcDbArc
 50
180.0
 51
270.0
  0
ARC
  5
400
100
AcDbEntity
  8
RUNDUNGEN
100
AcDbCircle
 62
7
  6
CONTINUOUS
 10
277.8249933722
 20
148.943779825
 40
2.0
100
AcDbArc
 50
180.0
 51
270.0
  0
ARC
  5
401
100
AcDbEntity
  8
RUNDUNGEN
100
AcDbCircle
 62
7
  6
CONTINUOUS
 10
92.7233054341
 20
154.4437814055
 40
1.9999997366
100
AcDbArc
 50
90.0002068556
 51
169.4361048428
  0
ARC
  5
402
100
AcDbEntity
  8
RUNDUNGEN
100
AcDbCircle
 62
7
  6
CONTINUOUS
 10
178.8528522851
 20
150.4159398294
 40
1.9999254977
100
AcDbArc
 50
270.0055657425
 51
343.717185386
  0
ARC
  5
403
100
AcDbEntity
  8
RUNDUNGEN
100
AcDbCircle
 62
7
  6
CONTINUOUS
 10
269.0562964813
 20
154.7279503864
 40
1.9995328355
100
AcDbArc
 50
241.4653272113
 51
270.0038601913
  0
ARC
  5
404
100
AcDbEntity
  8
RUNDUNGEN
100
AcDbCircle
 62
7
  6
CONTINUOUS
 10
155.3249933722
 20
143.443779825
 40
1.0
100
AcDbArc
 50
180.0
 51
270.0
  0
ARC
  5
405
100
AcDbEntity
  8
RUNDUNGEN
100
AcDbCircle
 62
7
  6
CONTINUOUS
 10
132.3249933722
 20
140.943779825
 40
0.5
100
AcDbArc
 50
270.0
 51
360.0
  0
ARC
  5
406
100
AcDbEntity
  8
RUNDUNGEN
100
AcDbCircle
 62
7
  6
CONTINUOUS
 10
55.8249933722
 20
166.443779825
 40
14.0
100
AcDbArc
 50
138.3812050013
 51
142.9412426726
  0
ARC
  5
407
100
AcDbEntity
  8
RUNDUNGEN
100
AcDbCircle
 62
7
  6
CONTINUOUS
 10
55.8249933722
 20
166.443779825
 40
14.0
100
AcDbArc
 50
143.722680892
 51
221.6118541062
  0
ARC
  5
408
100
AcDbEntity
  8
0
100
AcDbCircle
 62
7
  6
CONTINUOUS
 10
55.8249933722
 20
166.443779825
 40
14.0
100
AcDbArc
 50
143.722680892
 51
148.4971144677
  0
ARC
  5
409
100
AcDbEntity
  8
0
100
AcDbCircle
 62
7
  6
CONTINUOUS
 10
55.8249933722
 20
166.443779825
 40
14.0
100
AcDbArc
 50
153.3772973036
 51
202.9998303251
  0
ARC
  5
40A
100
AcDbEntity
  8
0
100
AcDbCircle
 62
7
  6
CONTINUOUS
 10
55.8249933722
 20
166.443779825
 40
14.0
100
AcDbArc
 50
206.6235744159
 51
211.4977433424
  0
ARC
  5
40B
100
AcDbEntity
  8
0
100
AcDbCircle
 62
7
  6
CONTINUOUS
 10
55.8249933722
 20
166.443779825
 40
14.0
100
AcDbArc
 50
216.2823254663
 51
217.0514153975
  0
ARC
  5
40C
100
AcDbEntity
  8
KONSTRUKTIONSELEMENTE
100
AcDbCircle
 62
7
  6
CONTINUOUS
 10
55.8249933722
 20
166.443779825
 40
14.0
100
AcDbArc
 50
132.7163978389
 51
227.2836021611
  0
ARC
  5
40D
100
AcDbEntity
  8
RUNDUNGEN
100
AcDbCircle
 62
7
  6
CONTINUOUS
 10
53.2802650728
 20
176.343779825
 40
5.0
100
AcDbArc
 50
90.0
 51
132.7163978389
  0
ARC
  5
40E
100
AcDbEntity
  8
0
100
AcDbCircle
 62
7
  6
CONTINUOUS
 10
53.2802650728
 20
176.343779825
 40
5.0
100
AcDbArc
 50
97.1193996398
 51
132.7163978389
  0
ARC
  5
40F
100
AcDbEntity
  8
KONSTRUKTIONSELEMENTE
100
AcDbCircle
 62
7
  6
CONTINUOUS
 10
53.2802650728
 20
176.343779825
 40
5.0
100
AcDbArc
 50
90.0
 51
132.7163978389
  0
ARC
  5
410
100
AcDbEntity
  8
RUNDUNGEN
100
AcDbCircle
 62
7
  6
CONTINUOUS
 10
86.8249933722
 20
177.343779825
 40
4.0
100
AcDbArc
 50
0.0
 51
90.0
  0
ARC
  5
411
100
AcDbEntity
  8
RUNDUNGEN
100
AcDbCircle
 62
7
  6
CONTINUOUS
 10
96.8249933722
 20
174.443779825
 40
3.0
100
AcDbArc
 50
198.0377813731
 51
270.0
  0
ARC
  5
412
100
AcDbEntity
  8
RUNDUNGEN
100
AcDbCircle
 62
7
  6
CONTINUOUS
 10
92.7233083055
 20
178.4437777083
 40
1.9999996472
100
AcDbArc
 50
190.5638649724
 51
269.9997108829
  0
ARC
  5
413
100
AcDbEntity
  8
RUNDUNGEN
100
AcDbCircle
 62
7
  6
CONTINUOUS
 10
127.8249933722
 20
190.443779825
 40
2.0
100
AcDbArc
 50
90.0
 51
180.0
  0
ARC
  5
414
100
AcDbEntity
  8
RUNDUNGEN
100
AcDbCircle
 62
7
  6
CONTINUOUS
 10
155.3249933722
 20
189.443779825
 40
1.0
100
AcDbArc
 50
90.0
 51
180.0
  0
ARC
  5
415
100
AcDbEntity
  8
RUNDUNGEN
100
AcDbCircle
 62
7
  6
CONTINUOUS
 10
132.3249933722
 20
191.943779825
 40
0.5
100
AcDbArc
 50
0.0
 51
90.0
  0
ARC
  5
416
100
AcDbEntity
  8
RUNDUNGEN
100
AcDbCircle
 62
7
  6
CONTINUOUS
 10
176.9703753571
 20
190.443779825
 40
5.0
100
AcDbArc
 50
235.0
 51
270.0
  0
ARC
  5
417
100
AcDbEntity
  8
RUNDUNGEN
100
AcDbCircle
 62
7
  6
CONTINUOUS
 10
269.0564312045
 20
183.943779825
 40
2.0
100
AcDbArc
 50
90.0
 51
110.0
  0
ARC
  5
418
100
AcDbEntity
  8
RUNDUNGEN
100
AcDbCircle
 62
7
  6
CONTINUOUS
 10
266.9773845719
 20
187.443779825
 40
2.0
100
AcDbArc
 50
270.0
 51
290.0
  0
ARC
  5
419
100
AcDbEntity
  8
KONSTRUKTIONSELEMENTE
100
AcDbCircle
 62
7
  6
CONTINUOUS
 10
530.3697216717
 20
156.543779825
 40
5.0
100
AcDbArc
 50
270.0
 51
312.7163978389
  0
ARC
  5
41A
100
AcDbEntity
  8
0
100
AcDbCircle
 62
7
  6
CONTINUOUS
 10
406.6796113874
 20
142.443779825
 40
5.0
100
AcDbArc
 50
64.1580672368
 51
90.0
  0
ARC
  5
41B
100
AcDbEntity
  8
RUNDUNGEN
100
AcDbCircle
 62
7
  6
CONTINUOUS
 10
496.8249933722
 20
155.543779825
 40
4.0
100
AcDbArc
 50
180.0
 51
270.0
  0
ARC
  5
41C
100
AcDbEntity
  8
RUNDUNGEN
100
AcDbCircle
 62
7
  6
CONTINUOUS
 10
305.8249933722
 20
148.943779825
 40
2.0
100
AcDbArc
 50
270.0
 51
360.0
  0
ARC
  5
41D
100
AcDbEntity
  8
RUNDUNGEN
100
AcDbCircle
 62
7
  6
CONTINUOUS
 10
404.8249933722
 20
149.443779825
 40
2.0
100
AcDbArc
 50
180.0
 51
270.0
  0
ARC
  5
41E
100
AcDbEntity
  8
RUNDUNGEN
100
AcDbCircle
 62
7
  6
CONTINUOUS
 10
490.9266813064
 20
154.4437814065
 40
1.9999997364
100
AcDbArc
 50
10.5638951069
 51
89.9997930298
  0
ARC
  5
41F
100
AcDbEntity
  8
RUNDUNGEN
100
AcDbCircle
 62
7
  6
CONTINUOUS
 10
314.5936902632
 20
154.7279503863
 40
1.9995328354
100
AcDbArc
 50
269.9961398081
 51
298.5346729466
  0
ARC
  5
420
100
AcDbEntity
  8
RUNDUNGEN
100
AcDbCircle
 62
7
  6
CONTINUOUS
 10
429.3249933722
 20
147.943779825
 40
1.0
100
AcDbArc
 50
270.0
 51
360.0
  0
CIRCLE
  5
421
100
AcDbEntity
  8
0
100
AcDbCircle
 62
7
  6
CONTINUOUS
 10
291.8249933722
 20
166.443779825
 40
20.0
  0
CIRCLE
  5
422
100
AcDbEntity
  8
0
100
AcDbCircle
 62
7
  6
CONTINUOUS
 10
291.8249933722
 20
166.443779825
 40
9.6076951546
  0
ARC
  5
423
100
AcDbEntity
  8
0
100
AcDbCircle
 62
7
  6
CONTINUOUS
 10
406.6796113874
 20
190.443779825
 40
5.0
100
AcDbArc
 50
270.0
 51
295.8419327632
  0
ARC
  5
424
100
AcDbEntity
  8
RUNDUNGEN
100
AcDbCircle
 62
7
  6
CONTINUOUS
 10
350.9475002178
 20
183.4437793032
 40
2.0000032256
100
AcDbArc
 50
89.9999296797
 51
141.3148450367
  0
ARC
  5
425
100
AcDbEntity
  8
RUNDUNGEN
100
AcDbCircle
 62
7
  6
CONTINUOUS
 10
314.59355554
 20
183.943779825
 40
2.0
100
AcDbArc
 50
70.0
 51
90.0
  0
ARC
  5
426
100
AcDbEntity
  8
RUNDUNGEN
100
AcDbCircle
 62
7
  6
CONTINUOUS
 10
316.6726021725
 20
187.443779825
 40
2.0
100
AcDbArc
 50
250.0
 51
270.0
  0
ARC
  5
427
100
AcDbEntity
  8
RUNDUNGEN
100
AcDbCircle
 62
7
  6
CONTINUOUS
 10
347.8249933722
 20
185.943779825
 40
2.0
100
AcDbArc
 50
269.9979623464
 51
321.316292637
  0
ARC
  5
428
100
AcDbEntity
  8
RUNDUNGEN
100
AcDbCircle
 62
7
  6
CONTINUOUS
 10
321.8249933722
 20
185.943779825
 40
2.0
100
AcDbArc
 50
218.683612922
 51
269.9991338747
  0
ARC
  5
429
100
AcDbEntity
  8
RUNDUNGEN
100
AcDbCircle
 62
7
  6
CONTINUOUS
 10
496.8249933722
 20
177.343779825
 40
4.0
100
AcDbArc
 50
90.0
 51
180.0
  0
ARC
  5
42A
100
AcDbEntity
  8
RUNDUNGEN
100
AcDbCircle
 62
7
  6
CONTINUOUS
 10
490.9266784314
 20
178.4437777065
 40
1.9999996469
100
AcDbArc
 50
270.0002893319
 51
349.4361351161
  0
ARC
  5
42B
100
AcDbEntity
  8
RUNDUNGEN
100
AcDbCircle
 62
7
  6
CONTINUOUS
 10
527.8249933722
 20
166.443779825
 40
14.0
100
AcDbArc
 50
37.0913316984
 51
41.6372679205
  0
ARC
  5
42C
100
AcDbEntity
  8
RUNDUNGEN
100
AcDbCircle
 62
7
  6
CONTINUOUS
 10
527.8249933722
 20
166.443779825
 40
14.0
100
AcDbArc
 50
31.7126631705
 51
36.3268428405
  0
ARC
  5
42D
100
AcDbEntity
  8
RUNDUNGEN
100
AcDbCircle
 62
7
  6
CONTINUOUS
 10
527.8249933722
 20
166.443779825
 40
14.0
100
AcDbArc
 50
26.7013149287
 51
31.5406540351
  0
ARC
  5
42E
100
AcDbEntity
  8
RUNDUNGEN
100
AcDbCircle
 62
7
  6
CONTINUOUS
 10
527.8249933722
 20
166.443779825
 40
14.0
100
AcDbArc
 50
336.9982914841
 51
26.133993508
  0
ARC
  5
42F
100
AcDbEntity
  8
RUNDUNGEN
100
AcDbCircle
 62
7
  6
CONTINUOUS
 10
527.8249933722
 20
166.443779825
 40
14.0
100
AcDbArc
 50
328.2592604081
 51
333.2891073452
  0
ARC
  5
430
100
AcDbEntity
  8
RUNDUNGEN
100
AcDbCircle
 62
7
  6
CONTINUOUS
 10
527.8249933722
 20
166.443779825
 40
14.0
100
AcDbArc
 50
318.3668425808
 51
323.6612635952
  0
ARC
  5
431
100
AcDbEntity
  8
0
100
AcDbCircle
 62
7
  6
CONTINUOUS
 10
527.8249933722
 20
166.443779825
 40
14.0
100
AcDbArc
 50
37.0913316984
 51
41.6372679205
  0
ARC
  5
432
100
AcDbEntity
  8
0
100
AcDbCircle
 62
7
  6
CONTINUOUS
 10
527.8249933722
 20
166.443779825
 40
14.0
100
AcDbArc
 50
318.3668425808
 51
36.3268428405
  0
ARC
  5
433
100
AcDbEntity
  8
KONSTRUKTIONSELEMENTE
100
AcDbCircle
 62
7
  6
CONTINUOUS
 10
527.8249933722
 20
166.443779825
 40
14.0
100
AcDbArc
 50
312.7163978389
 51
47.2836021611
  0
ARC
  5
434
100
AcDbEntity
  8
RUNDUNGEN
100
AcDbCircle
 62
7
  6
CONTINUOUS
 10
530.3697216717
 20
176.343779825
 40
5.0
100
AcDbArc
 50
47.2836021611
 51
90.0
  0
ARC
  5
435
100
AcDbEntity
  8
0
100
AcDbCircle
 62
7
  6
CONTINUOUS
 10
530.3697216717
 20
176.343779825
 40
5.0
100
AcDbArc
 50
47.2836021611
 51
90.0
  0
ARC
  5
436
100
AcDbEntity
  8
KONSTRUKTIONSELEMENTE
100
AcDbCircle
 62
7
  6
CONTINUOUS
 10
530.3697216717
 20
176.343779825
 40
5.0
100
AcDbArc
 50
47.2836021611
 51
90.0
  0
ARC
  5
437
100
AcDbEntity
  8
RUNDUNGEN
100
AcDbCircle
 62
7
  6
CONTINUOUS
 10
429.3249933722
 20
184.943779825
 40
1.0
100
AcDbArc
 50
0.0
 51
90.0
  0
SPLINE
  5
438
100
AcDbEntity
  8
RUNDUNGEN
100
AcDbSpline
 62
7
  6
CONTINUOUS
 70
0
 71
3
 72
11
 73
7
 74
0
 42
0.0000001
 43
0.0000001
 44
0.0000000001
 40
0.0
 40
0.0
 40
0.0
 40
0.0
 40
0.2939291146
 40
0.5576809143
 40
0.7856565568
 40
1.0
 40
1.0
 40
1.0
 40
1.0
 10
96.8249933722
 20
407.608684854
 30
0.0
 10
96.4828027479
 20
407.608684854
 30
0.0
 10
95.8315624354
 20
407.6704619321
 30
0.0
 10
94.9525275725
 20
407.96436807
 30
0.0
 10
94.2918653614
 20
408.4893916072
 30
0.0
 10
94.0497035341
 20
408.9605977781
 30
0.0
 10
93.9724357497
 20
409.19787108
 30
0.0
  0
SPLINE
  5
439
100
AcDbEntity
  8
0
100
AcDbSpline
 62
7
  6
CONTINUOUS
 70
0
 71
3
 72
8
 73
4
 74
0
 42
0.0000001
 43
0.0000001
 44
0.0000000001
 40
0.0
 40
0.0
 40
0.0
 40
0.0
 40
1.0
 40
1.0
 40
1.0
 40
1.0
 10
222.8249933722
 20
410.0239408934
 30
0.0
 10
222.1817939397
 20
409.1999861922
 30
0.0
 10
221.5092886905
 20
408.3988410265
 30
0.0
 10
220.8249933722
 20
407.608684854
 30
0.0
  0
SPLINE
  5
43A
100
AcDbEntity
  8
BEZUGSACHSEN
100
AcDbSpline
 62
7
  6
CONTINUOUS
 70
0
 71
3
 72
15
 73
11
 74
0
 42
0.0000001
 43
0.0000001
 44
0.0000000001
 40
0.0
 40
0.0
 40
0.0
 40
0.0
 40
0.0401243133
 40
0.1507765763
 40
0.3116737125
 40
0.4999999395
 40
0.6883261742
 40
0.8492233524
 40
0.959875647
 40
1.0
 40
1.0
 40
1.0
 40
1.0
 10
284.3249933722
 20
396.7689388918
 30
0.0
 10
284.5169183649
 20
396.8427575878
 30
0.0
 10
285.2412433945
 20
397.1122809313
 30
0.0
 10
286.7623578197
 20
397.6038566833
 30
0.0
 10
289.0671890269
 20
398.1223636674
 30
0.0
 10
291.8249924751
 20
398.3479525051
 30
0.0
 10
294.5827961571
 20
398.1223638857
 30
0.0
 10
296.8876278144
 20
397.6038569915
 30
0.0
 10
298.4087428196
 20
397.1122811389
 30
0.0
 10
299.1330681914
 20
396.8427576658
 30
0.0
 10
299.3249933722
 20
396.7689388918
 30
0.0
  0
SPLINE
  5
43B
100
AcDbEntity
  8
BEZUGSACHSEN
100
AcDbSpline
 62
7
  6
CONTINUOUS
 70
0
 71
3
 72
15
 73
11
 74
0
 42
0.0000001
 43
0.0000001
 44
0.0000000001
 40
0.0
 40
0.0
 40
0.0
 40
0.0
 40
0.0401243517
 40
0.150776644
 40
0.3116738184
 40
0.5000000487
 40
0.6883262746
 40
0.849223414
 40
0.9598756791
 40
1.0
 40
1.0
 40
1.0
 40
1.0
 10
299.3249933722
 20
435.7689388918
 30
0.0
 10
299.1330681975
 20
435.6951201204
 30
0.0
 10
298.4087428429
 20
435.4255966538
 30
0.0
 10
296.8876278749
 20
434.9340208097
 30
0.0
 10
294.5827962726
 20
434.4155139171
 30
0.0
 10
291.8249926402
 20
434.1899252781
 30
0.0
 10
289.067189202
 20
434.4155140936
 30
0.0
 10
286.7623579692
 20
434.9340210598
 30
0.0
 10
285.2412434775
 20
435.4255968207
 30
0.0
 10
284.5169184012
 20
435.6951201812
 30
0.0
 10
284.3249933722
 20
435.7689388918
 30
0.0
  0
SPLINE
  5
43C
100
AcDbEntity
  8
RUNDUNGEN
100
AcDbSpline
 62
7
  6
CONTINUOUS
 70
0
 71
3
 72
13
 73
9
 74
0
 42
0.0000001
 43
0.0000001
 44
0.0000000001
 40
0.0
 40
0.0
 40
0.0
 40
0.0
 40
0.3203778116
 40
0.6202633572
 40
0.7472365533
 40
0.8534425386
 40
0.9372257173
 40
1.0
 40
1.0
 40
1.0
 40
1.0
 10
168.2541924585
 20
409.1774879403
 30
0.0
 10
168.2651603187
 20
409.4621834526
 30
0.0
 10
168.24646778
 20
410.0151689002
 30
0.0
 10
168.1405452337
 20
410.6738997995
 30
0.0
 10
168.0042481098
 20
411.1285779289
 30
0.0
 10
167.8927507903
 20
411.388589645
 30
0.0
 10
167.772257612
 20
411.5792203032
 30
0.0
 10
167.6726362514
 20
411.6693795125
 30
0.0
 10
167.6225438012
 20
411.6940185132
 30
0.0
  0
SPLINE
  5
43D
100
AcDbEntity
  8
RUNDUNGEN
100
AcDbSpline
 62
7
  6
CONTINUOUS
 70
0
 71
3
 72
13
 73
9
 74
0
 42
0.0000001
 43
0.0000001
 44
0.0000000001
 40
0.0
 40
0.0
 40
0.0
 40
0.0
 40
0.0627742238
 40
0.1465574174
 40
0.2527634099
 40
0.3797366138
 40
0.6796221741
 40
1.0
 40
1.0
 40
1.0
 40
1.0
 10
167.6225438012
 20
420.8438592704
 30
0.0
 10
167.6726361994
 20
420.8684982501
 30
0.0
 10
167.7722573468
 20
420.9586576357
 30
0.0
 10
167.89275063
 20
421.1492881188
 30
0.0
 10
168.0042479044
 20
421.4092998933
 30
0.0
 10
168.1405450749
 20
421.8639779883
 30
0.0
 10
168.2464676269
 20
422.5227088903
 30
0.0
 10
168.2651601754
 20
423.0756943252
 30
0.0
 10
168.2541923132
 20
423.3603898323
 30
0.0
  0
SPLINE
  5
43E
100
AcDbEntity
  8
0
100
AcDbSpline
 62
7
  6
CONTINUOUS
 70
0
 71
3
 72
9
 73
5
 74
0
 42
0.0000001
 43
0.0000001
 44
0.0000000001
 40
0.0
 40
0.0
 40
0.0
 40
0.0
 40
0.1416338848
 40
1.0
 40
1.0
 40
1.0
 40
1.0
 10
688.2350532351
 20
404.2362005288
 30
0.0
 10
688.2349115111
 20
404.2307053832
 30
0.0
 10
688.232767679
 20
404.191947277
 30
0.0
 10
688.2305374548
 20
404.1532014589
 30
0.0
 10
688.2292344618
 20
404.1199127808
 30
0.0
  0
SPLINE
  5
43F
100
AcDbEntity
  8
0
100
AcDbSpline
 62
7
  6
CONTINUOUS
 70
0
 71
3
 72
9
 73
5
 74
0
 42
0.0000001
 43
0.0000001
 44
0.0000000001
 40
0.0
 40
0.0
 40
0.0
 40
0.0
 40
0.377107529
 40
1.0
 40
1.0
 40
1.0
 40
1.0
 10
688.2292344618
 20
404.1199127808
 30
0.0
 10
688.2234451232
 20
403.9720075869
 30
0.0
 10
688.22602962
 20
403.5792924104
 30
0.0
 10
688.2351123391
 20
403.186936595
 30
0.0
 10
688.2351007048
 20
402.9424451076
 30
0.0
  0
SPLINE
  5
440
100
AcDbEntity
  8
RUNDUNGEN
100
AcDbSpline
 62
7
  6
CONTINUOUS
 70
0
 71
3
 72
11
 73
7
 74
0
 42
0.0000001
 43
0.0000001
 44
0.0000000001
 40
0.0
 40
0.0
 40
0.0
 40
0.0
 40
0.3986461108
 40
0.7044159187
 40
0.9069096057
 40
1.0
 40
1.0
 40
1.0
 40
1.0
 10
658.4351007799
 20
429.5954440614
 30
0.0
 10
658.4351100923
 20
429.423381905
 30
0.0
 10
658.4401884946
 20
429.119345452
 30
0.0
 10
658.4458290165
 20
428.7280246921
 30
0.0
 10
658.4455475393
 20
428.4683059965
 30
0.0
 10
658.4360197305
 20
428.3410013842
 30
0.0
 10
658.4351311029
 20
428.3008318812
 30
0.0
  0
SPLINE
  5
441
100
AcDbEntity
  8
RUNDUNGEN
100
AcDbSpline
 62
7
  6
CONTINUOUS
 70
0
 71
3
 72
9
 73
5
 74
0
 42
0.0000001
 43
0.0000001
 44
0.0000000001
 40
0.0
 40
0.0
 40
0.0
 40
0.0
 40
0.1416338848
 40
1.0
 40
1.0
 40
1.0
 40
1.0
 10
688.2350532351
 20
428.3016772549
 30
0.0
 10
688.2349115111
 20
428.3071724005
 30
0.0
 10
688.232767679
 20
428.3459305067
 30
0.0
 10
688.2305374548
 20
428.3846763247
 30
0.0
 10
688.2292344618
 20
428.4179650029
 30
0.0
  0
SPLINE
  5
442
100
AcDbEntity
  8
RUNDUNGEN
100
AcDbSpline
 62
7
  6
CONTINUOUS
 70
0
 71
3
 72
9
 73
5
 74
0
 42
0.0000001
 43
0.0000001
 44
0.0000000001
 40
0.0
 40
0.0
 40
0.0
 40
0.0
 40
0.377107529
 40
1.0
 40
1.0
 40
1.0
 40
1.0
 10
688.2292344618
 20
428.4179650029
 30
0.0
 10
688.2234451232
 20
428.5658701967
 30
0.0
 10
688.22602962
 20
428.9585853733
 30
0.0
 10
688.2351123391
 20
429.3509411887
 30
0.0
 10
688.2351007048
 20
429.595432676
 30
0.0
  0
SPLINE
  5
443
100
AcDbEntity
  8
0
100
AcDbSpline
 62
7
  6
CONTINUOUS
 70
0
 71
3
 72
11
 73
7
 74
0
 42
0.0000001
 43
0.0000001
 44
0.0000000001
 40
0.0
 40
0.0
 40
0.0
 40
0.0
 40
0.3986461108
 40
0.7044159187
 40
0.9069096057
 40
1.0
 40
1.0
 40
1.0
 40
1.0
 10
658.4351007799
 20
402.9424337223
 30
0.0
 10
658.4351100923
 20
403.1144958787
 30
0.0
 10
658.4401884946
 20
403.4185323317
 30
0.0
 10
658.4458290165
 20
403.8098530915
 30
0.0
 10
658.4455475393
 20
404.0695717872
 30
0.0
 10
658.4360197305
 20
404.1968763995
 30
0.0
 10
658.4351311029
 20
404.2370459025
 30
0.0
  0
SPLINE
  5
444
100
AcDbEntity
  8
RUNDUNGEN
100
AcDbSpline
 62
7
  6
CONTINUOUS
 70
0
 71
3
 72
11
 73
7
 74
0
 42
0.0000001
 43
0.0000001
 44
0.0000000001
 40
0.0
 40
0.0
 40
0.0
 40
0.0
 40
0.2143412968
 40
0.4423162653
 40
0.706069196
 40
1.0
 40
1.0
 40
1.0
 40
1.0
 10
93.9724357497
 20
173.5148476369
 30
0.0
 10
94.0497027625
 20
173.7521185691
 30
0.0
 10
94.2918615666
 20
174.2233222022
 30
0.0
 10
94.9525204358
 20
174.748346839
 30
0.0
 10
95.8315570606
 20
175.0422563088
 30
0.0
 10
96.482800772
 20
175.1040338629
 30
0.0
 10
96.8249933722
 20
175.1040338629
 30
0.0
  0
SPLINE
  5
445
100
AcDbEntity
  8
RUNDUNGEN
100
AcDbSpline
 62
7
  6
CONTINUOUS
 70
0
 71
3
 72
9
 73
5
 74
0
 42
0.0000001
 43
0.0000001
 44
0.0000000001
 40
0.0
 40
0.0
 40
0.0
 40
0.0
 40
0.3036686244
 40
1.0
 40
1.0
 40
1.0
 40
1.0
 10
168.2532829519
 20
143.4423638666
 30
0.0
 10
168.259473542
 20
143.4466852418
 30
0.0
 10
168.2578557565
 20
143.4771637995
 30
0.0
 10
168.2565432641
 20
143.4990029395
 30
0.0
 10
168.2541923132
 20
143.5161544647
 30
0.0
  0
SPLINE
  5
446
100
AcDbEntity
  8
RUNDUNGEN
100
AcDbSpline
 62
7
  6
CONTINUOUS
 70
0
 71
3
 72
8
 73
4
 74
0
 42
0.0000001
 43
0.0000001
 44
0.0000000001
 40
0.0
 40
0.0
 40
0.0
 40
0.0
 40
1.0
 40
1.0
 40
1.0
 40
1.0
 10
168.253141379
 20
143.5322576572
 30
0.0
 10
168.253141379
 20
143.5268785074
 30
0.0
 10
168.2534618261
 20
143.5214837837
 30
0.0
 10
168.2541923132
 20
143.5161544647
 30
0.0
  0
ELLIPSE
  5
447
100
AcDbEntity
  8
0
100
AcDbEllipse
 62
7
  6
CONTINUOUS
 10
212.8249933722
 20
166.443779825
 30
0.0
 11
17.2799567464
 21
9.2500321537
 31
0.0
 40
1.0
 41
1.0796030196
 42
1.444513123
  0
ELLIPSE
  5
448
100
AcDbEntity
  8
0
100
AcDbEllipse
 62
7
  6
CONTINUOUS
 10
198.8249933722
 20
166.443779825
 30
0.0
 11
-13.551464854
 21
14.1604307954
 31
0.0
 40
1.0
 41
-1.1286340279
 42
-0.7637236133
  0
ELLIPSE
  5
449
100
AcDbEntity
  8
0
100
AcDbEllipse
 62
7
  6
CONTINUOUS
 10
212.8249933722
 20
166.443779825
 30
0.0
 11
-0.5475218412
 21
18.9921094098
 31
0.0
 40
1.0
 41
-0.0287338014
 42
0.3484891035
  0
ELLIPSE
  5
44A
100
AcDbEntity
  8
0
100
AcDbEllipse
 62
7
  6
CONTINUOUS
 10
198.8249933722
 20
166.443779825
 30
0.0
 11
18.9517479095
 21
1.3532372938
 31
0.0
 40
1.0
 41
1.1222029254
 42
1.4994258303
  0
ENDSEC
  0
SECTION
  2
OBJECTS
  0
DICTIONARY
  5
C
100
AcDbDictionary
280
0
281
1
  3
ACAD_GROUP
350
D
  3
ACAD_MLINESTYLE
350
17
  3
ACAD_LAYOUT
350
1A
  3
ACAD_PLOTSETTINGS
350
19
  3
ACAD_PLOTSTYLENAME
350
E
  0
DICTIONARY
  5
D
102
{ACAD_REACTORS
330
C
102
}
100
AcDbDictionary
280
0
281
1
  0
ACDBDICTIONARYWDFLT
  5
E
102
{ACAD_REACTORS
330
C
102
}
100
AcDbDictionary
281
1
  3
Normal
350
F
100
AcDbDictionaryWithDefault
340
F
  0
DICTIONARY
  5
17
102
{ACAD_REACTORS
330
C
102
}
100
AcDbDictionary
280
0
281
1
  3
Standard
350
18
  0
DICTIONARY
  5
19
102
{ACAD_REACTORS
330
C
102
}
100
AcDbDictionary
281
1
  0
DICTIONARY
  5
1A
102
{ACAD_REACTORS
330
C
102
}
100
AcDbDictionary
281
1
  3
Model
350
44B
  3
Layout1
350
44C
  0
ACDBPLACEHOLDER
  5
F
102
{ACAD_REACTORS
330
E
102
}
  0
MLINESTYLE
  5
18
102
{ACAD_REACTORS
330
17
102
}
100
AcDbMlineStyle
  2
STANDARD
 70
0
  3

 62
256
 51
90.0
 52
90.0
 71
2
 49
0.5
 62
256
  6
BYLAYER
 49
-0.5
 62
256
  6
BYLAYER
  0
LAYOUT
  5
44B
102
{ACAD_REACTORS
330
1A
102
}
100
AcDbPlotSettings
  1

  2
none_device
  4
ISO_A1_(594.00_x_841.00_MM)
  6

 40
0.0
 41
0.0
 42
0.0
 43
0.0
 44
841.0
 45
594.0
 46
0.0
 47
0.0
 48
0.0
 49
0.0
140
0.0
141
0.0
142
1.0
143
1.0
 70
1024
 72
1
 73
0
 74
0
  7

 75
0
147
1.0
148
0.0
149
0.0
100
AcDbLayout
  1
Model
 70
0
 71
0
 10
0.0
 20
0.0
 11
841.0
 21
594.0
 12
0.0
 22
0.0
 32
0.0
 14
0.0
 24
0.0
 34
0.0
 15
0.0
 25
0.0
 35
0.0
146
0.0
 13
0.0
 23
0.0
 33
0.0
 16
1.0
 26
0.0
 36
0.0
 17
0.0
 27
1.0
 37
0.0
 76
0
330
20F
345
0
346
0
  0
LAYOUT
  5
44C
102
{ACAD_REACTORS
330
1A
102
}
100
AcDbPlotSettings
  1

  2
none_device
  4
ISO_A1_(594.00_x_841.00_MM)
  6

 40
0.0
 41
0.0
 42
0.0
 43
0.0
 44
841.0
 45
594.0
 46
0.0
 47
0.0
 48
0.0
 49
0.0
140
0.0
141
0.0
142
1.0
143
1.0
 70
0
 72
1
 73
0
 74
0
  7

 75
0
147
1.0
148
0.0
149
0.0
100
AcDbLayout
  1
Layout1
 70
0
 71
1
 10
0.0
 20
0.0
 11
841.0
 21
594.0
 12
0.0
 22
0.0
 32
0.0
 14
0.0
 24
0.0
 34
0.0
 15
0.0
 25
0.0
 35
0.0
146
0.0
 13
0.0
 23
0.0
 33
0.0
 16
1.0
 26
0.0
 36
0.0
 17
0.0
 27
1.0
 37
0.0
 76
0
330
210
345
0
346
0
  0
ENDSEC
  0
EOF
